  0
SECTION
  2
HEADER
  9
$TEXTSIZE
 40
2.5
  9
$ACADVER
  1
AC1009
  9
$DIMASZ
 40
3.863703297614046
  9
$DIMEXE
 40
2.000000000000000
  9
$DIMEXO
 40
1.000000000000000
  9
$DIMLFAC
 40
1.000000000000000
  9
$DIMSCALE
 40
1.000000000000000
  9
$DIMTAD
 70
1
  9
$DIMTFAC
 40
0.625000000000000
  9
$DIMTXT
 40
3.200000047683716
  9
$LUPREC
 70
3
  9
$REGENMODE
 70
1
  9
$TEXTSTYLE
  7
STANDARD1
  0
ENDSEC
  0
SECTION
  2
TABLES
  0
TABLE
  2
LTYPE
 70
4
  0
LTYPE
  2
CONTINUOUS
 70
64
  3
Solid line
 72
65
 73
0
 40
0.0
  0
LTYPE
  2
DASHED
 70
64
  3
-- -- -- -- -- -- -- -- -- -- -- -- -- -- --
 72
65
 73
2
 40
0.75
 49
0.5
 49
-0.25
  0
LTYPE
  2
DASHDOT
 70
64
  3
__ . __ . __ . __ . __ . __ . __ . __ . __ . __
 72
65
 73
4
 40
1.0
 49
0.5
 49
-0.25
 49
0.0
 49
-0.25
  0
LTYPE
  2
DIVIDE
 70
64
  3
__ . . __ . . __ . . __ . . __ . . __ . . __
 72
65
 73
6
 40
1.25
 49
0.5
 49
-0.25
 49
0.0
 49
-0.25
 49
0.0
 49
-0.25
  0
ENDTAB
  0
TABLE
  2
LAYER
 70
2
  0
LAYER
  2
0
 70
64
 62
53
  6
CONTINUOUS
  0
LAYER
  2
1
 70
64
 62
102
  6
CONTINUOUS
  0
ENDTAB
  0
TABLE
  2
STYLE
 70
4
  0
STYLE
  2
STANDARD1
 70
64
 40
0.0
 41
1.0
 50
0.0
 71
0
 42
3.200000047683716
  3
MONOTXT
  4
BIGFONT
  0
STYLE
  2
STANDARD2
 70
68
 40
0.0
 41
1.0
 50
0.0
 71
0
 42
3.200000047683716
  3
MONOTXT
  4
BIGFONT
  0
STYLE
  2
STANDARD3
 70
64
 40
0.0
 41
1.0
 50
0.0
 71
0
 42
3.200000047683716
  3
MONOTXT
  4

  0
STYLE
  2
STANDARD4
 70
68
 40
0.0
 41
1.0
 50
0.0
 71
0
 42
3.200000047683716
  3
MONOTXT
  4

  0
ENDTAB
  0
TABLE
  2
VIEW
 70
0
  0
ENDTAB
  0
ENDSEC
  0
SECTION
  2
BLOCKS
  0
ENDSEC
  0
SECTION
  2
ENTITIES
  0
TEXT
  8
0
  6
CONTINUOUS
 62
256
 10
-70.375488281250000
 20
-13.156250000000000
 40
2.799999952316284
  1
ü@
 50
0.000002504478167
 41
0.996000017370497
  7
STANDARD1
  0
TEXT
  8
0
  6
CONTINUOUS
 62
256
 10
1.624511957168579
 20
-253.406250000000000
 40
2.799999952316284
  1
ü@
 50
0.000002504478167
 41
0.996000017370497
  7
STANDARD1
  0
CIRCLE
  8
0
  6
CONTINUOUS
 62
256
 10
-145.737202000000000
 20
-65.858582999999996
 40
7.000000000000000
  0
CIRCLE
  8
0
  6
CONTINUOUS
 62
256
 10
-145.737202000000000
 20
-65.858582999999996
 40
4.500000000000000
  0
CIRCLE
  8
0
  6
CONTINUOUS
 62
256
 10
-145.737202000000000
 20
-170.858583000000010
 40
4.500000000000000
  0
CIRCLE
  8
0
  6
CONTINUOUS
 62
256
 10
-145.737202000000000
 20
-170.858583000000010
 40
7.000000000000000
  0
CIRCLE
  8
0
  6
CONTINUOUS
 62
256
 10
-27.737202000000000
 20
-170.858583000000010
 40
4.500000000000000
  0
CIRCLE
  8
0
  6
CONTINUOUS
 62
256
 10
-27.737202000000000
 20
-170.858583000000010
 40
7.000000000000000
  0
CIRCLE
  8
0
  6
CONTINUOUS
 62
256
 10
-27.737202000000000
 20
-65.858582999999996
 40
4.500000000000000
  0
CIRCLE
  8
0
  6
CONTINUOUS
 62
256
 10
-27.737202000000000
 20
-65.858582999999996
 40
7.000000000000000
  0
LINE
  8
0
  6
DASHDOT
 62
256
 10
-329.853499000000000
 20
-170.858583000000010
 11
-420.077474000000000
 21
-170.858583000000010
  0
LINE
  8
0
  6
DASHED
 62
256
 10
-342.314307999999980
 20
-61.358583000000003
 11
-407.314307999999980
 21
-61.358583000000003
  0
LINE
  8
0
  6
DASHED
 62
256
 10
-407.314307999999980
 20
-72.858582999999996
 11
-407.314307999999980
 21
-58.858583000000003
  0
LINE
  8
0
  6
DASHED
 62
256
 10
-418.314307999999980
 20
-58.858583000000003
 11
-407.314307999999980
 21
-58.858583000000003
  0
LINE
  8
0
  6
DASHED
 62
256
 10
-342.314307999999980
 20
-70.358582999999996
 11
-407.314307999999980
 21
-70.358582999999996
  0
LINE
  8
0
  6
DASHED
 62
256
 10
-418.314307999999980
 20
-72.858582999999996
 11
-407.314307999999980
 21
-72.858582999999996
  0
LINE
  8
0
  6
DASHED
 62
256
 10
-331.314307999999980
 20
-58.858583000000003
 11
-342.314307999999980
 21
-58.858583000000003
  0
LINE
  8
0
  6
DASHED
 62
256
 10
-342.314307999999980
 20
-72.858582999999996
 11
-342.314307999999980
 21
-58.858583000000003
  0
LINE
  8
0
  6
DASHED
 62
256
 10
-331.314307999999980
 20
-72.858582999999996
 11
-342.314307999999980
 21
-72.858582999999996
  0
LINE
  8
0
  6
DASHED
 62
256
 10
-342.314307999999980
 20
-177.858583000000010
 11
-342.314307999999980
 21
-163.858583000000010
  0
LINE
  8
0
  6
DASHED
 62
256
 10
-342.314307999999980
 20
-166.358583000000010
 11
-407.314307999999980
 21
-166.358583000000010
  0
LINE
  8
0
  6
DASHED
 62
256
 10
-331.314307999999980
 20
-163.858583000000010
 11
-342.314307999999980
 21
-163.858583000000010
  0
LINE
  8
0
  6
DASHED
 62
256
 10
-407.314307999999980
 20
-177.858583000000010
 11
-407.314307999999980
 21
-163.858583000000010
  0
LINE
  8
0
  6
DASHED
 62
256
 10
-418.314307999999980
 20
-163.858583000000010
 11
-407.314307999999980
 21
-163.858583000000010
  0
LINE
  8
0
  6
DASHED
 62
256
 10
-418.314307999999980
 20
-177.858583000000010
 11
-407.314307999999980
 21
-177.858583000000010
  0
LINE
  8
0
  6
DASHED
 62
256
 10
-342.314307999999980
 20
-175.358583000000010
 11
-407.314307999999980
 21
-175.358583000000010
  0
LINE
  8
0
  6
CONTINUOUS
 62
256
 10
-407.814307999999980
 20
-181.876037999999990
 11
-407.814307999999980
 21
-172.746080000000010
  0
LINE
  8
0
  6
DASHED
 62
256
 10
-331.314307999999980
 20
-177.858583000000010
 11
-342.314307999999980
 21
-177.858583000000010
  0
ARC
  8
0
  6
CONTINUOUS
 62
256
 10
-103.737202000000000
 20
-107.858583000000000
 40
37.500000000000000
 50
180.000000000000000
 51
90.000000000000000
  0
ARC
  8
0
  6
CONTINUOUS
 62
256
 10
-103.737202000000000
 20
-107.858583000000000
 40
37.500000000000000
 50
90.000000000000000
 51
180.000000000000000
  0
LINE
  8
0
  6
CONTINUOUS
 62
256
 10
-114.737202000000000
 20
51.004750000000001
 11
-92.737201999999996
 21
51.004750000000001
  0
LINE
  8
0
  6
CONTINUOUS
 62
256
 10
-106.737202000000000
 20
51.004750000000001
 11
-106.737202000000000
 21
83.004750000000001
  0
LINE
  8
0
  6
CONTINUOUS
 62
256
 10
-106.737202000000000
 20
83.004750000000001
 11
-100.737202000000000
 21
83.004750000000001
  0
ARC
  8
0
  6
CONTINUOUS
 62
256
 10
-103.737202000000000
 20
83.004750000000001
 40
3.000000000000000
 50
0.000000000000000
 51
180.000000000000000
  0
LINE
  8
0
  6
CONTINUOUS
 62
256
 10
-100.737202000000000
 20
51.004750000000001
 11
-100.737202000000000
 21
83.004750000000001
  0
LINE
  8
0
  6
DASHDOT
 62
256
 10
-103.737202000000000
 20
195.524331999999990
 11
-103.737202000000000
 21
47.993783000000001
  0
LINE
  8
0
  6
CONTINUOUS
 62
256
 10
-92.737201999999996
 20
91.004750000000001
 11
-92.737201999999996
 21
83.004750000000001
  0
LINE
  8
0
  6
CONTINUOUS
 62
256
 10
-91.737201999999996
 20
93.004677000000001
 11
-91.737201999999996
 21
91.004750000000001
  0
LINE
  8
0
  6
CONTINUOUS
 62
256
 10
-115.737202000000000
 20
91.004750000000001
 11
-91.737201999999996
 21
91.004750000000001
  0
LINE
  8
0
  6
CONTINUOUS
 62
256
 10
-92.737201999999996
 20
83.004750000000001
 11
-92.737201999999996
 21
51.004750000000001
  0
LINE
  8
0
  6
CONTINUOUS
 62
256
 10
-114.737202000000000
 20
91.004750000000001
 11
-114.737202000000000
 21
51.004750000000001
  0
LINE
  8
0
  6
CONTINUOUS
 62
256
 10
-115.737202000000000
 20
93.004677000000001
 11
-115.737202000000000
 21
91.004750000000001
  0
LINE
  8
0
  6
CONTINUOUS
 62
256
 10
-103.737202000000000
 20
97.004677000000001
 11
-155.759717999999990
 21
97.004677000000001
  0
LINE
  8
0
  6
CONTINUOUS
 62
256
 10
-155.759717999999990
 20
106.504677000000000
 11
-155.759717999999990
 21
97.004677000000001
  0
LINE
  8
0
  6
CONTINUOUS
 62
256
 10
-156.920480000000000
 20
173.004676999999990
 11
-155.759717999999990
 21
106.504677000000000
  0
LINE
  8
0
  6
CONTINUOUS
 62
256
 10
-15.745623999999999
 20
173.004676999999990
 11
-156.929206999999990
 21
173.004676999999990
  0
LINE
  8
0
  6
CONTINUOUS
 62
256
 10
-15.745929000000000
 20
173.004676999999990
 11
-16.906690999999999
 21
106.504677000000000
  0
LINE
  8
0
  6
CONTINUOUS
 62
256
 10
-16.906690999999999
 20
97.004677000000001
 11
-103.737202000000000
 21
97.004677000000001
  0
LINE
  8
0
  6
CONTINUOUS
 62
256
 10
-16.906690999999999
 20
106.504677000000000
 11
-16.906690999999999
 21
97.004677000000001
  0
LINE
  8
0
  6
CONTINUOUS
 62
256
 10
-3.243707000000000
 20
194.222979000000010
 11
12.262798000000000
 21
193.952311000000010
  0
LINE
  8
0
  6
CONTINUOUS
 62
256
 10
-3.243707000000000
 20
86.786375000000007
 11
12.262798000000000
 21
87.057041999999996
  0
ARC
  8
0
  6
CONTINUOUS
 62
256
 10
-13.745623999999999
 20
173.004676999999990
 40
2.000000000000000
 50
180.000000000000000
 51
270.000000000000000
  0
ARC
  8
0
  6
CONTINUOUS
 62
256
 10
-14.906691000000000
 20
97.004677000000001
 40
2.000000000000000
 50
90.000000000000000
 51
180.000000000000000
  0
LINE
  8
0
  6
CONTINUOUS
 62
256
 10
-141.237202000000000
 20
188.004676999999990
 11
-66.237201999999996
 21
188.004676999999990
  0
LINE
  8
0
  6
CONTINUOUS
 62
256
 10
-30.612409000000000
 20
184.004676999999990
 11
-44.647567000000002
 21
184.004676999999990
  0
LINE
  8
0
  6
CONTINUOUS
 62
256
 10
-141.237202000000000
 20
188.004676999999990
 11
-141.237202000000000
 21
184.004676999999990
  0
LINE
  8
0
  6
CONTINUOUS
 62
256
 10
-66.237201999999996
 20
188.004676999999990
 11
-66.237201999999996
 21
184.004676999999990
  0
LINE
  8
0
  6
CONTINUOUS
 62
256
 10
-141.237202000000000
 20
97.004677000000001
 11
-141.237202000000000
 21
93.004677000000001
  0
LINE
  8
0
  6
CONTINUOUS
 62
256
 10
-141.237202000000000
 20
93.004677000000001
 11
-66.237201999999996
 21
93.004677000000001
  0
LINE
  8
0
  6
CONTINUOUS
 62
256
 10
-66.237201999999996
 20
97.004677000000001
 11
-66.237201999999996
 21
93.004677000000001
  0
LINE
  8
0
  6
CONTINUOUS
 62
256
 10
-156.929206999999990
 20
173.004676999999990
 11
-156.737202000000000
 21
184.004676999999990
  0
LINE
  8
0
  6
CONTINUOUS
 62
256
 10
-156.737202000000000
 20
184.004676999999990
 11
-15.946662000000000
 21
184.004676999999990
  0
LINE
  8
0
  6
CONTINUOUS
 62
256
 10
-15.754657000000000
 20
173.004676999999990
 11
-15.946662000000000
 21
184.004676999999990
  0
LINE
  8
0
  6
CONTINUOUS
 62
256
 10
-14.906691000000000
 20
99.004677000000001
 11
-8.737202000000000
 21
99.004677000000001
  0
ARC
  8
0
  6
CONTINUOUS
 62
256
 10
-8.737202000000000
 20
96.004677000000001
 40
3.000000000000000
 50
0.000000000000000
 51
90.000000000000000
  0
ARC
  8
0
  6
CONTINUOUS
 62
256
 10
-2.737202000000000
 20
191.266045999999990
 40
3.000000000000011
 50
89.000000000000000
 51
180.000000000000000
  0
LINE
  8
0
  6
CONTINUOUS
 62
256
 10
-13.745623999999999
 20
171.004676999999990
 11
-8.737202000000000
 21
171.004676999999990
  0
ARC
  8
0
  6
CONTINUOUS
 62
256
 10
-8.737202000000000
 20
174.004676999999990
 40
3.000000000000000
 50
270.000000000000000
 51
0.000000000000000
  0
ARC
  8
0
  6
CONTINUOUS
 62
256
 10
-2.737202000000000
 20
89.743307999999999
 40
3.000000000000000
 50
180.000000000000000
 51
271.000000000000000
  0
LINE
  8
0
  6
CONTINUOUS
 62
256
 10
-5.737202000000000
 20
89.743307999999999
 11
-5.737202000000000
 21
107.004677000000000
  0
LINE
  8
0
  6
CONTINUOUS
 62
256
 10
-5.737202000000000
 20
191.266045999999990
 11
-5.737202000000000
 21
185.004676999999990
  0
ARC
  8
0
  6
CONTINUOUS
 62
256
 10
-2.737202000000000
 20
109.612511000000000
 40
3.000000000000000
 50
180.000000000000000
 51
270.000000000000000
  0
ARC
  8
0
  6
CONTINUOUS
 62
256
 10
-2.737202000000000
 20
171.396842999999990
 40
3.000000000000000
 50
90.000000000000000
 51
180.000000000000000
  0
ARC
  8
0
  6
CONTINUOUS
 62
256
 10
-2.737202000000000
 20
89.743307999999999
 40
3.000000000000000
 50
180.000000000000000
 51
271.000000000000000
  0
ARC
  8
0
  6
CONTINUOUS
 62
256
 10
-2.737202000000000
 20
191.266045999999990
 40
3.000000000000011
 50
89.000000000000000
 51
180.000000000000000
  0
LINE
  8
0
  6
CONTINUOUS
 62
256
 10
-5.737202000000000
 20
191.266045999999990
 11
-5.737202000000000
 21
140.504676999999990
  0
LINE
  8
0
  6
CONTINUOUS
 62
256
 10
-5.737202000000000
 20
89.743307999999999
 11
-5.737202000000000
 21
140.504676999999990
  0
ARC
  8
0
  6
CONTINUOUS
 62
256
 10
5.262798000000000
 20
179.934327999999990
 40
2.000000000000000
 50
0.000000000000000
 51
90.000000000000000
  0
ARC
  8
0
  6
CONTINUOUS
 62
256
 10
4.262798000000000
 20
188.004676999999990
 40
3.000000000000000
 50
270.000000000000000
 51
0.000000000000000
  0
ARC
  8
0
  6
CONTINUOUS
 62
256
 10
-0.737202000000000
 20
180.004676999999990
 40
5.000000000000000
 50
90.000000000000000
 51
180.000000000000000
  0
ARC
  8
0
  6
CONTINUOUS
 62
256
 10
-0.737202000000000
 20
176.934327999999990
 40
5.000000000000000
 50
90.000000000000000
 51
180.000000000000000
  0
ARC
  8
0
  6
CONTINUOUS
 62
256
 10
4.262798000000000
 20
171.396842999999990
 40
3.000000000000000
 50
0.000000000000000
 51
90.000000000000000
  0
ARC
  8
0
  6
CONTINUOUS
 62
256
 10
-0.737202000000000
 20
101.004677000000000
 40
5.000000000000000
 50
180.000000000000000
 51
270.000000000000000
  0
ARC
  8
0
  6
CONTINUOUS
 62
256
 10
-0.737202000000000
 20
104.075025000000000
 40
5.000000000000000
 50
180.000000000000000
 51
270.000000000000000
  0
ARC
  8
0
  6
CONTINUOUS
 62
256
 10
5.262798000000000
 20
101.075025000000000
 40
2.000000000000000
 50
270.000000000000000
 51
0.000000000000000
  0
ARC
  8
0
  6
CONTINUOUS
 62
256
 10
4.262798000000000
 20
93.004677000000001
 40
3.000000000000000
 50
0.000000000000000
 51
90.000000000000000
  0
ARC
  8
0
  6
CONTINUOUS
 62
256
 10
4.262798000000000
 20
109.612511000000000
 40
3.000000000000000
 50
270.000000000000000
 51
0.000000000000000
  0
ARC
  8
0
  6
CONTINUOUS
 62
256
 10
10.262798000000000
 20
191.039130000000000
 40
3.000000000000011
 50
89.000000000000000
 51
180.000000000000000
  0
ARC
  8
0
  6
CONTINUOUS
 62
256
 10
10.262798000000000
 20
89.970224000000002
 40
3.000000000000000
 50
180.000000000000000
 51
271.000000000000000
  0
LINE
  8
0
  6
CONTINUOUS
 62
256
 10
7.262798000000000
 20
188.004676999999990
 11
7.262798000000000
 21
191.039130000000000
  0
LINE
  8
0
  6
CONTINUOUS
 62
256
 10
5.262798000000000
 20
181.934327999999990
 11
-0.737202000000000
 21
181.934327999999990
  0
LINE
  8
0
  6
CONTINUOUS
 62
256
 10
4.262798000000000
 20
185.004676999999990
 11
-0.737202000000000
 21
185.004676999999990
  0
LINE
  8
0
  6
CONTINUOUS
 62
256
 10
7.262798000000000
 20
140.504676999999990
 11
7.262798000000000
 21
179.934327999999990
  0
LINE
  8
0
  6
CONTINUOUS
 62
256
 10
-2.737202000000000
 20
174.396842999999990
 11
4.262798000000000
 21
174.396842999999990
  0
LINE
  8
0
  6
CONTINUOUS
 62
256
 10
-5.737202000000000
 20
177.396842999999990
 11
-5.737202000000000
 21
180.004676999999990
  0
LINE
  8
0
  6
CONTINUOUS
 62
256
 10
7.262798000000000
 20
160.504676999999990
 11
12.262798000000000
 21
160.504676999999990
  0
LINE
  8
0
  6
CONTINUOUS
 62
256
 10
7.262798000000000
 20
140.504676999999990
 11
7.262798000000000
 21
101.075025000000000
  0
LINE
  8
0
  6
CONTINUOUS
 62
256
 10
7.262798000000000
 20
120.504677000000000
 11
12.262798000000000
 21
120.504677000000000
  0
LINE
  8
0
  6
CONTINUOUS
 62
256
 10
-2.737202000000000
 20
106.612511000000000
 11
4.262798000000000
 21
106.612511000000000
  0
LINE
  8
0
  6
CONTINUOUS
 62
256
 10
-5.737202000000000
 20
103.612511000000000
 11
-5.737202000000000
 21
101.004677000000000
  0
LINE
  8
0
  6
CONTINUOUS
 62
256
 10
5.262798000000000
 20
99.075024999999997
 11
-0.737202000000000
 21
99.075024999999997
  0
LINE
  8
0
  6
CONTINUOUS
 62
256
 10
4.262798000000000
 20
96.004677000000001
 11
-0.737202000000000
 21
96.004677000000001
  0
LINE
  8
0
  6
CONTINUOUS
 62
256
 10
7.262798000000000
 20
93.004677000000001
 11
7.262798000000000
 21
89.970224000000002
  0
ARC
  8
0
  6
CONTINUOUS
 62
256
 10
151.767642999999990
 20
107.104677000000000
 40
20.600000000000009
 50
270.000000000000000
 51
304.999999999999940
  0
ARC
  8
0
  6
CONTINUOUS
 62
256
 10
169.662798000000010
 20
97.661057000000000
 40
2.600000000000007
 50
305.000000000000000
 51
0.000000000000000
  0
LINE
  8
0
  6
CONTINUOUS
 62
256
 10
172.262798000000000
 20
97.661057000000000
 11
172.262798000000000
 21
140.504676999999990
  0
LINE
  8
0
  6
CONTINUOUS
 62
256
 10
163.583317999999990
 20
90.230144999999993
 11
171.154097000000010
 21
95.531261000000001
  0
ARC
  8
0
  6
CONTINUOUS
 62
256
 10
103.262798000000000
 20
105.504677000000000
 40
3.000000000000000
 50
270.000000000000000
 51
0.000000000000000
  0
LINE
  8
0
  6
CONTINUOUS
 62
256
 10
99.262798000000004
 20
102.504677000000000
 11
103.262798000000000
 21
102.504677000000000
  0
ARC
  8
0
  6
CONTINUOUS
 62
256
 10
99.262798000000004
 20
99.504677000000001
 40
3.000000000000000
 50
90.000000000000000
 51
180.000000000000000
  0
LINE
  8
0
  6
CONTINUOUS
 62
256
 10
104.062798000000000
 20
105.504677000000000
 11
104.062798000000000
 21
140.504676999999990
  0
ARC
  8
0
  6
CONTINUOUS
 62
256
 10
103.062798000000000
 20
105.504677000000000
 40
1.000000000000000
 50
270.000000000000000
 51
0.000000000000000
  0
LINE
  8
0
  6
CONTINUOUS
 62
256
 10
14.062798000000001
 20
105.504677000000000
 11
14.062798000000001
 21
140.504676999999990
  0
LINE
  8
0
  6
CONTINUOUS
 62
256
 10
15.062798000000001
 20
104.504677000000000
 11
103.062798000000000
 21
104.504677000000000
  0
ARC
  8
0
  6
CONTINUOUS
 62
256
 10
15.062798000000001
 20
105.504677000000000
 40
1.000000000000000
 50
180.000000000000000
 51
270.000000000000000
  0
LINE
  8
0
  6
CONTINUOUS
 62
256
 10
14.062798000000001
 20
107.201076000000000
 11
12.262798000000000
 21
107.201076000000000
  0
LINE
  8
0
  6
CONTINUOUS
 62
256
 10
14.062798000000001
 20
108.790285999999990
 11
12.262798000000000
 21
108.790285999999990
  0
LINE
  8
0
  6
CONTINUOUS
 62
256
 10
14.062798000000001
 20
120.504677000000000
 11
12.262798000000000
 21
120.504677000000000
  0
LINE
  8
0
  6
CONTINUOUS
 62
256
 10
14.062798000000001
 20
117.666437000000000
 11
12.262798000000000
 21
117.666437000000000
  0
LINE
  8
0
  6
CONTINUOUS
 62
256
 10
14.062798000000001
 20
116.320035000000000
 11
12.262798000000000
 21
116.320035000000000
  0
LINE
  8
0
  6
CONTINUOUS
 62
256
 10
14.062798000000001
 20
113.227304000000000
 11
12.262798000000000
 21
113.227304000000000
  0
LINE
  8
0
  6
CONTINUOUS
 62
256
 10
14.062798000000001
 20
111.748281000000010
 11
12.262798000000000
 21
111.748281000000010
  0
LINE
  8
0
  6
CONTINUOUS
 62
256
 10
106.262798000000000
 20
120.504677000000000
 11
104.062798000000000
 21
120.504677000000000
  0
LINE
  8
0
  6
CONTINUOUS
 62
256
 10
106.262798000000000
 20
117.666437000000000
 11
104.062798000000000
 21
117.666437000000000
  0
LINE
  8
0
  6
CONTINUOUS
 62
256
 10
106.262798000000000
 20
116.320035000000000
 11
104.062798000000000
 21
116.320035000000000
  0
LINE
  8
0
  6
CONTINUOUS
 62
256
 10
106.262798000000000
 20
113.227304000000000
 11
104.062798000000000
 21
113.227304000000000
  0
LINE
  8
0
  6
CONTINUOUS
 62
256
 10
106.262798000000000
 20
111.748281000000010
 11
104.062798000000000
 21
111.748281000000010
  0
LINE
  8
0
  6
CONTINUOUS
 62
256
 10
106.262798000000000
 20
108.790285999999990
 11
104.062798000000000
 21
108.790285999999990
  0
LINE
  8
0
  6
CONTINUOUS
 62
256
 10
106.262798000000000
 20
107.201076000000000
 11
104.062798000000000
 21
107.201076000000000
  0
LINE
  8
0
  6
CONTINUOUS
 62
256
 10
96.420399000000003
 20
100.464241000000000
 11
12.262798000000000
 21
100.464241000000000
  0
LINE
  8
0
  6
CONTINUOUS
 62
256
 10
96.262798000000004
 20
99.462762999999995
 11
12.262798000000000
 21
99.462762999999995
  0
LINE
  8
0
  6
CONTINUOUS
 62
256
 10
96.262798000000004
 20
96.000021000000004
 11
12.262798000000000
 21
96.000021000000004
  0
LINE
  8
0
  6
CONTINUOUS
 62
256
 10
96.262798000000004
 20
94.371594000000002
 11
12.262798000000000
 21
94.371594000000002
  0
LINE
  8
0
  6
CONTINUOUS
 62
256
 10
96.262798000000004
 20
89.504677000000001
 11
12.262798000000000
 21
89.504677000000001
  0
LINE
  8
0
  6
CONTINUOUS
 62
256
 10
96.262798000000004
 20
90.004677000000001
 11
12.262798000000000
 21
90.004677000000001
  0
LINE
  8
0
  6
CONTINUOUS
 62
256
 10
12.262798000000000
 20
88.004677000000001
 11
96.262798000000004
 21
88.004677000000001
  0
LINE
  8
0
  6
CONTINUOUS
 62
256
 10
106.262798000000000
 20
140.504676999999990
 11
106.262798000000000
 21
105.504677000000000
  0
ARC
  8
0
  6
CONTINUOUS
 62
256
 10
151.767642999999990
 20
173.904676999999990
 40
20.599999999999991
 50
55.000000000000007
 51
90.000000000000000
  0
ARC
  8
0
  6
CONTINUOUS
 62
256
 10
169.662798000000010
 20
183.348297000000000
 40
2.599999999999994
 50
0.000000000000000
 51
54.999999999999801
  0
LINE
  8
0
  6
CONTINUOUS
 62
256
 10
172.262798000000000
 20
183.348297000000000
 11
172.262798000000000
 21
140.504676999999990
  0
LINE
  8
0
  6
CONTINUOUS
 62
256
 10
163.583317999999990
 20
190.779209000000010
 11
171.154097000000010
 21
185.478092000000000
  0
ARC
  8
0
  6
CONTINUOUS
 62
256
 10
103.262798000000000
 20
175.504676999999990
 40
3.000000000000000
 50
0.000000000000000
 51
90.000000000000000
  0
LINE
  8
0
  6
CONTINUOUS
 62
256
 10
99.262798000000004
 20
178.504676999999990
 11
103.262798000000000
 21
178.504676999999990
  0
ARC
  8
0
  6
CONTINUOUS
 62
256
 10
99.262798000000004
 20
181.504676999999990
 40
3.000000000000000
 50
180.000000000000000
 51
270.000000000000000
  0
LINE
  8
0
  6
CONTINUOUS
 62
256
 10
104.062798000000000
 20
175.504676999999990
 11
104.062798000000000
 21
140.504676999999990
  0
ARC
  8
0
  6
CONTINUOUS
 62
256
 10
103.062798000000000
 20
175.504676999999990
 40
1.000000000000000
 50
0.000000000000000
 51
90.000000000000000
  0
LINE
  8
0
  6
CONTINUOUS
 62
256
 10
14.062798000000001
 20
175.504676999999990
 11
14.062798000000001
 21
140.504676999999990
  0
LINE
  8
0
  6
CONTINUOUS
 62
256
 10
15.062798000000001
 20
176.504676999999990
 11
103.062798000000000
 21
176.504676999999990
  0
ARC
  8
0
  6
CONTINUOUS
 62
256
 10
15.062798000000001
 20
175.504676999999990
 40
1.000000000000000
 50
90.000000000000000
 51
180.000000000000000
  0
LINE
  8
0
  6
CONTINUOUS
 62
256
 10
14.062798000000001
 20
173.808278000000000
 11
12.262798000000000
 21
173.808278000000000
  0
LINE
  8
0
  6
CONTINUOUS
 62
256
 10
14.062798000000001
 20
172.219067999999990
 11
12.262798000000000
 21
172.219067999999990
  0
LINE
  8
0
  6
CONTINUOUS
 62
256
 10
14.062798000000001
 20
160.504676999999990
 11
12.262798000000000
 21
160.504676999999990
  0
LINE
  8
0
  6
CONTINUOUS
 62
256
 10
14.062798000000001
 20
163.342916000000000
 11
12.262798000000000
 21
163.342916000000000
  0
LINE
  8
0
  6
CONTINUOUS
 62
256
 10
14.062798000000001
 20
164.689317999999990
 11
12.262798000000000
 21
164.689317999999990
  0
LINE
  8
0
  6
CONTINUOUS
 62
256
 10
14.062798000000001
 20
167.782049000000000
 11
12.262798000000000
 21
167.782049000000000
  0
LINE
  8
0
  6
CONTINUOUS
 62
256
 10
14.062798000000001
 20
169.261072000000010
 11
12.262798000000000
 21
169.261072000000010
  0
LINE
  8
0
  6
CONTINUOUS
 62
256
 10
106.262798000000000
 20
160.504676999999990
 11
104.062798000000000
 21
160.504676999999990
  0
LINE
  8
0
  6
CONTINUOUS
 62
256
 10
106.262798000000000
 20
163.342916000000000
 11
104.062798000000000
 21
163.342916000000000
  0
LINE
  8
0
  6
CONTINUOUS
 62
256
 10
106.262798000000000
 20
164.689317999999990
 11
104.062798000000000
 21
164.689317999999990
  0
LINE
  8
0
  6
CONTINUOUS
 62
256
 10
106.262798000000000
 20
167.782049000000000
 11
104.062798000000000
 21
167.782049000000000
  0
LINE
  8
0
  6
CONTINUOUS
 62
256
 10
106.262798000000000
 20
169.261072000000010
 11
104.062798000000000
 21
169.261072000000010
  0
LINE
  8
0
  6
CONTINUOUS
 62
256
 10
106.262798000000000
 20
172.219067999999990
 11
104.062798000000000
 21
172.219067999999990
  0
LINE
  8
0
  6
CONTINUOUS
 62
256
 10
106.262798000000000
 20
173.808278000000000
 11
104.062798000000000
 21
173.808278000000000
  0
LINE
  8
0
  6
CONTINUOUS
 62
256
 10
96.420399000000003
 20
180.545111999999990
 11
12.262798000000000
 21
180.545111999999990
  0
LINE
  8
0
  6
CONTINUOUS
 62
256
 10
96.262798000000004
 20
181.546590000000010
 11
12.262798000000000
 21
181.546590000000010
  0
LINE
  8
0
  6
CONTINUOUS
 62
256
 10
96.262798000000004
 20
185.009332000000000
 11
12.262798000000000
 21
185.009332000000000
  0
LINE
  8
0
  6
CONTINUOUS
 62
256
 10
96.262798000000004
 20
186.637758999999990
 11
12.262798000000000
 21
186.637758999999990
  0
LINE
  8
0
  6
CONTINUOUS
 62
256
 10
96.262798000000004
 20
191.504676999999990
 11
12.262798000000000
 21
191.504676999999990
  0
LINE
  8
0
  6
CONTINUOUS
 62
256
 10
96.262798000000004
 20
191.004676999999990
 11
12.262798000000000
 21
191.004676999999990
  0
LINE
  8
0
  6
CONTINUOUS
 62
256
 10
12.262798000000000
 20
193.004676999999990
 11
96.262798000000004
 21
193.004676999999990
  0
LINE
  8
0
  6
CONTINUOUS
 62
256
 10
106.262798000000000
 20
140.504676999999990
 11
106.262798000000000
 21
175.504676999999990
  0
LINE
  8
0
  6
DASHDOT
 62
256
 10
-167.638610000000000
 20
140.504676999999990
 11
178.510806000000000
 21
140.504676999999990
  0
POLYLINE
  8
0
  6
CONTINUOUS
 62
256
 66
1
 70
1
  0
VERTEX
  8
0
  6
CONTINUOUS
 62
256
 10
111.962797999999990
 20
187.832008000000000
  0
VERTEX
  8
0
  6
CONTINUOUS
 62
256
 10
111.872488817895170
 20
188.534964510558180
  0
VERTEX
  8
0
  6
CONTINUOUS
 62
256
 10
111.605031802803040
 20
189.210906796638140
  0
VERTEX
  8
0
  6
CONTINUOUS
 62
256
 10
111.170705177821960
 20
189.833858775258680
  0
VERTEX
  8
0
  6
CONTINUOUS
 62
256
 10
110.586199871576770
 20
190.379880751236840
  0
VERTEX
  8
0
  6
CONTINUOUS
 62
256
 10
109.873978095192130
 20
190.827989406248490
  0
VERTEX
  8
0
  6
CONTINUOUS
 62
256
 10
109.061410132115920
 20
191.160964175983740
  0
VERTEX
  8
0
  6
CONTINUOUS
 62
256
 10
108.179722513475810
 20
191.366009026776080
  0
VERTEX
  8
0
  6
CONTINUOUS
 62
256
 10
107.262798000000000
 20
191.435244200000000
  0
VERTEX
  8
0
  6
CONTINUOUS
 62
256
 10
106.345873486524200
 20
191.366009026776080
  0
VERTEX
  8
0
  6
CONTINUOUS
 62
256
 10
105.464185867884080
 20
191.160964175983740
  0
VERTEX
  8
0
  6
CONTINUOUS
 62
256
 10
104.651617904807880
 20
190.827989406248490
  0
VERTEX
  8
0
  6
CONTINUOUS
 62
256
 10
103.939396128423240
 20
190.379880751236840
  0
VERTEX
  8
0
  6
CONTINUOUS
 62
256
 10
103.354890822178050
 20
189.833858775258680
  0
VERTEX
  8
0
  6
CONTINUOUS
 62
256
 10
102.920564197196970
 20
189.210906796638140
  0
VERTEX
  8
0
  6
CONTINUOUS
 62
256
 10
102.653107182104830
 20
188.534964510558180
  0
VERTEX
  8
0
  6
CONTINUOUS
 62
256
 10
102.562798000000020
 20
187.832008000000000
  0
VERTEX
  8
0
  6
CONTINUOUS
 62
256
 10
102.653107182104830
 20
187.129051489441820
  0
VERTEX
  8
0
  6
CONTINUOUS
 62
256
 10
102.920564197196970
 20
186.453109203361860
  0
VERTEX
  8
0
  6
CONTINUOUS
 62
256
 10
103.354890822178050
 20
185.830157224741330
  0
VERTEX
  8
0
  6
CONTINUOUS
 62
256
 10
103.939396128423240
 20
185.284135248763160
  0
VERTEX
  8
0
  6
CONTINUOUS
 62
256
 10
104.651617904807880
 20
184.836026593751510
  0
VERTEX
  8
0
  6
CONTINUOUS
 62
256
 10
105.464185867884080
 20
184.503051824016270
  0
VERTEX
  8
0
  6
CONTINUOUS
 62
256
 10
106.345873486524200
 20
184.298006973223950
  0
VERTEX
  8
0
  6
CONTINUOUS
 62
256
 10
107.262798000000000
 20
184.228771800000000
  0
VERTEX
  8
0
  6
CONTINUOUS
 62
256
 10
108.179722513475800
 20
184.298006973223950
  0
VERTEX
  8
0
  6
CONTINUOUS
 62
256
 10
109.061410132115920
 20
184.503051824016270
  0
VERTEX
  8
0
  6
CONTINUOUS
 62
256
 10
109.873978095192130
 20
184.836026593751510
  0
VERTEX
  8
0
  6
CONTINUOUS
 62
256
 10
110.586199871576770
 20
185.284135248763160
  0
VERTEX
  8
0
  6
CONTINUOUS
 62
256
 10
111.170705177821960
 20
185.830157224741330
  0
VERTEX
  8
0
  6
CONTINUOUS
 62
256
 10
111.605031802803040
 20
186.453109203361860
  0
VERTEX
  8
0
  6
CONTINUOUS
 62
256
 10
111.872488817895170
 20
187.129051489441820
  0
SEQEND
  8
0
  6
CONTINUOUS
 62
256
  0
LINE
  8
0
  6
CONTINUOUS
 62
256
 10
109.262798000000000
 20
190.824383000000010
 11
107.262798000000000
 21
189.648597999999990
  0
LINE
  8
0
  6
CONTINUOUS
 62
256
 10
107.262798000000000
 20
189.648597999999990
 11
105.262798000000000
 21
187.995956000000010
  0
LINE
  8
0
  6
CONTINUOUS
 62
256
 10
105.262798000000000
 20
190.824383000000010
 11
107.262798000000000
 21
189.648597999999990
  0
LINE
  8
0
  6
CONTINUOUS
 62
256
 10
107.262798000000000
 20
189.648597999999990
 11
109.262798000000000
 21
187.995956000000010
  0
POLYLINE
  8
0
  6
CONTINUOUS
 62
256
 66
1
 70
1
  0
VERTEX
  8
0
  6
CONTINUOUS
 62
256
 10
111.962797999999990
 20
93.177346000000000
  0
VERTEX
  8
0
  6
CONTINUOUS
 62
256
 10
111.872488817895170
 20
93.880302510558167
  0
VERTEX
  8
0
  6
CONTINUOUS
 62
256
 10
111.605031802803040
 20
94.556244796638140
  0
VERTEX
  8
0
  6
CONTINUOUS
 62
256
 10
111.170705177821960
 20
95.179196775258660
  0
VERTEX
  8
0
  6
CONTINUOUS
 62
256
 10
110.586199871576770
 20
95.725218751236838
  0
VERTEX
  8
0
  6
CONTINUOUS
 62
256
 10
109.873978095192130
 20
96.173327406248490
  0
VERTEX
  8
0
  6
CONTINUOUS
 62
256
 10
109.061410132115920
 20
96.506302175983748
  0
VERTEX
  8
0
  6
CONTINUOUS
 62
256
 10
108.179722513475810
 20
96.711347026776068
  0
VERTEX
  8
0
  6
CONTINUOUS
 62
256
 10
107.262798000000000
 20
96.780582199999998
  0
VERTEX
  8
0
  6
CONTINUOUS
 62
256
 10
106.345873486524200
 20
96.711347026776068
  0
VERTEX
  8
0
  6
CONTINUOUS
 62
256
 10
105.464185867884080
 20
96.506302175983748
  0
VERTEX
  8
0
  6
CONTINUOUS
 62
256
 10
104.651617904807880
 20
96.173327406248490
  0
VERTEX
  8
0
  6
CONTINUOUS
 62
256
 10
103.939396128423240
 20
95.725218751236838
  0
VERTEX
  8
0
  6
CONTINUOUS
 62
256
 10
103.354890822178050
 20
95.179196775258660
  0
VERTEX
  8
0
  6
CONTINUOUS
 62
256
 10
102.920564197196970
 20
94.556244796638140
  0
VERTEX
  8
0
  6
CONTINUOUS
 62
256
 10
102.653107182104830
 20
93.880302510558167
  0
VERTEX
  8
0
  6
CONTINUOUS
 62
256
 10
102.562798000000020
 20
93.177346000000000
  0
VERTEX
  8
0
  6
CONTINUOUS
 62
256
 10
102.653107182104830
 20
92.474389489441833
  0
VERTEX
  8
0
  6
CONTINUOUS
 62
256
 10
102.920564197196970
 20
91.798447203361860
  0
VERTEX
  8
0
  6
CONTINUOUS
 62
256
 10
103.354890822178050
 20
91.175495224741340
  0
VERTEX
  8
0
  6
CONTINUOUS
 62
256
 10
103.939396128423240
 20
90.629473248763162
  0
VERTEX
  8
0
  6
CONTINUOUS
 62
256
 10
104.651617904807880
 20
90.181364593751510
  0
VERTEX
  8
0
  6
CONTINUOUS
 62
256
 10
105.464185867884080
 20
89.848389824016266
  0
VERTEX
  8
0
  6
CONTINUOUS
 62
256
 10
106.345873486524200
 20
89.643344973223932
  0
VERTEX
  8
0
  6
CONTINUOUS
 62
256
 10
107.262798000000000
 20
89.574109800000002
  0
VERTEX
  8
0
  6
CONTINUOUS
 62
256
 10
108.179722513475800
 20
89.643344973223932
  0
VERTEX
  8
0
  6
CONTINUOUS
 62
256
 10
109.061410132115920
 20
89.848389824016252
  0
VERTEX
  8
0
  6
CONTINUOUS
 62
256
 10
109.873978095192130
 20
90.181364593751510
  0
VERTEX
  8
0
  6
CONTINUOUS
 62
256
 10
110.586199871576770
 20
90.629473248763162
  0
VERTEX
  8
0
  6
CONTINUOUS
 62
256
 10
111.170705177821960
 20
91.175495224741340
  0
VERTEX
  8
0
  6
CONTINUOUS
 62
256
 10
111.605031802803040
 20
91.798447203361860
  0
VERTEX
  8
0
  6
CONTINUOUS
 62
256
 10
111.872488817895170
 20
92.474389489441833
  0
SEQEND
  8
0
  6
CONTINUOUS
 62
256
  0
LINE
  8
0
  6
CONTINUOUS
 62
256
 10
109.262798000000000
 20
90.184970000000007
 11
107.262798000000000
 21
91.360755999999995
  0
LINE
  8
0
  6
CONTINUOUS
 62
256
 10
107.262798000000000
 20
91.360755999999995
 11
105.262798000000000
 21
93.013396999999998
  0
LINE
  8
0
  6
CONTINUOUS
 62
256
 10
105.262798000000000
 20
90.184970000000007
 11
107.262798000000000
 21
91.360755999999995
  0
LINE
  8
0
  6
CONTINUOUS
 62
256
 10
107.262798000000000
 20
91.360755999999995
 11
109.262798000000000
 21
93.013396999999998
  0
LINE
  8
0
  6
CONTINUOUS
 62
256
 10
96.262798000000004
 20
194.504676999999990
 11
151.767642999999990
 21
194.504676999999990
  0
LINE
  8
0
  6
CONTINUOUS
 62
256
 10
96.262798000000004
 20
194.504676999999990
 11
96.262798000000004
 21
181.504676999999990
  0
LINE
  8
0
  6
CONTINUOUS
 62
256
 10
96.262798000000004
 20
86.504677000000001
 11
96.262798000000004
 21
99.504677000000001
  0
LINE
  8
0
  6
CONTINUOUS
 62
256
 10
96.262798000000004
 20
86.504677000000001
 11
151.767642999999990
 21
86.504677000000001
  0
LINE
  8
0
  6
CONTINUOUS
 62
256
 10
12.262798000000000
 20
140.504676999999990
 11
12.262798000000000
 21
87.057041999999996
  0
LINE
  8
0
  6
CONTINUOUS
 62
256
 10
12.262798000000000
 20
140.504676999999990
 11
12.262798000000000
 21
193.952311000000010
  0
LINE
  8
0
  6
CONTINUOUS
 62
256
 10
304.859295999999970
 20
-180.706549000000000
 11
295.359295999999970
 21
-180.706549000000000
  0
LINE
  8
0
  6
CONTINUOUS
 62
256
 10
371.859295999999970
 20
-181.876037999999990
 11
304.859295999999970
 21
-180.706549000000000
  0
LINE
  8
0
  6
CONTINUOUS
 62
256
 10
371.109295999999970
 20
-181.862946999999990
 11
382.359295999999970
 21
-181.666576999999990
  0
LINE
  8
0
  6
CONTINUOUS
 62
256
 10
374.859295999999970
 20
-54.919676000000003
 11
374.859295999999970
 21
-35.991917999999998
  0
LINE
  8
0
  6
CONTINUOUS
 62
256
 10
302.859295999999970
 20
-56.028072000000002
 11
302.859295999999970
 21
-35.991917999999998
  0
LINE
  8
0
  6
CONTINUOUS
 62
256
 10
341.359295999999970
 20
-28.858582999999999
 11
341.359295999999970
 21
-29.369000000000000
  0
LINE
  8
0
  6
CONTINUOUS
 62
256
 10
336.359295999999970
 20
-28.858582999999999
 11
341.359295999999970
 21
-28.858582999999999
  0
LINE
  8
0
  6
CONTINUOUS
 62
256
 10
336.359295999999970
 20
-28.858582999999999
 11
336.359295999999970
 21
-29.369000000000000
  0
ARC
  8
0
  6
CONTINUOUS
 62
256
 10
307.859295999999970
 20
-35.991917999999998
 40
5.000000000000002
 50
96.032049000000001
 51
180.000000000000000
  0
ARC
  8
0
  6
CONTINUOUS
 62
256
 10
369.859295999999970
 20
-35.991917999999998
 40
5.000000000000000
 50
0.000000000000000
 51
83.967950999999999
  0
ARC
  8
0
  6
CONTINUOUS
 62
256
 10
338.859295999999970
 20
-329.358583000000010
 40
300.000000000000000
 50
83.967950999999999
 51
96.032049000000001
  0
LINE
  8
0
  6
CONTINUOUS
 62
256
 10
281.359369000000020
 20
-94.358582999999996
 11
281.359369000000020
 21
-96.858582999999996
  0
LINE
  8
0
  6
CONTINUOUS
 62
256
 10
281.359369000000020
 20
-94.358582999999996
 11
249.359387000000000
 21
-94.358582999999996
  0
LINE
  8
0
  6
CONTINUOUS
 62
256
 10
249.359368999999990
 20
-118.858583000000000
 11
249.359368999999990
 21
-94.358582999999996
  0
LINE
  8
0
  6
CONTINUOUS
 62
256
 10
281.359369000000020
 20
-96.858582999999996
 11
249.359368999999990
 21
-96.858582999999996
  0
ARC
  8
0
  6
CONTINUOUS
 62
256
 10
338.859295999999970
 20
-329.358583000000010
 40
300.000000000000000
 50
83.967950999999999
 51
96.032049000000001
  0
ARC
  8
0
  6
CONTINUOUS
 62
256
 10
307.859295999999970
 20
-35.991917999999998
 40
5.000000000000002
 50
96.032049000000001
 51
180.000000000000000
  0
ARC
  8
0
  6
CONTINUOUS
 62
256
 10
369.859295999999970
 20
-35.991917999999998
 40
5.000000000000000
 50
0.000000000000000
 51
83.967950999999999
  0
LINE
  8
0
  6
CONTINUOUS
 62
256
 10
341.359295999999970
 20
-28.858582999999999
 11
341.359295999999970
 21
-29.369000000000000
  0
LINE
  8
0
  6
CONTINUOUS
 62
256
 10
341.359295999999970
 20
-28.858582999999999
 11
336.359295999999970
 21
-28.858582999999999
  0
LINE
  8
0
  6
CONTINUOUS
 62
256
 10
336.359295999999970
 20
-28.858582999999999
 11
336.359295999999970
 21
-29.369000000000000
  0
LINE
  8
0
  6
CONTINUOUS
 62
256
 10
374.859295999999970
 20
-64.858621999999997
 11
374.859295999999970
 21
-35.991917999999998
  0
LINE
  8
0
  6
CONTINUOUS
 62
256
 10
302.859295999999970
 20
-64.858621999999997
 11
302.859295999999970
 21
-35.991917999999998
  0
ARC
  8
0
  6
CONTINUOUS
 62
256
 10
338.859295999999970
 20
120.741417000000000
 40
290.797000000000030
 50
264.247717000000020
 51
270.000000000000000
  0
LINE
  8
0
  6
CONTINUOUS
 62
256
 10
303.160907000000010
 20
-165.483282000000000
 11
297.273494000000030
 21
-159.595868000000000
  0
ARC
  8
0
  6
CONTINUOUS
 62
256
 10
685.459295999999990
 20
-120.858583000000000
 40
390.797000000000030
 50
180.000000000000000
 51
185.417964000000010
  0
ARC
  8
0
  6
CONTINUOUS
 62
256
 10
299.394814000000000
 20
-157.474548000000000
 40
2.999999999999998
 50
185.417964000000180
 51
224.999999999999630
  0
ARC
  8
0
  6
CONTINUOUS
 62
256
 10
338.859295999999970
 20
120.741417000000000
 40
290.797000000000030
 50
270.000000000000000
 51
275.752282999999980
  0
LINE
  8
0
  6
CONTINUOUS
 62
256
 10
374.557684999999990
 20
-165.483282000000000
 11
380.445097999999970
 21
-159.595868000000000
  0
ARC
  8
0
  6
CONTINUOUS
 62
256
 10
-7.740704000000000
 20
-120.858583000000000
 40
390.797000000000030
 50
354.582036000000020
 51
0.000000000000000
  0
ARC
  8
0
  6
CONTINUOUS
 62
256
 10
378.323778000000000
 20
-157.474548000000000
 40
3.000000000000004
 50
315.000000000000340
 51
354.582035999999790
  0
ARC
  8
0
  6
CONTINUOUS
 62
256
 10
338.859295999999970
 20
-362.458582999999980
 40
290.797000000000030
 50
84.247716999999994
 51
90.000000000000000
  0
LINE
  8
0
  6
CONTINUOUS
 62
256
 10
374.557684999999990
 20
-76.233884000000003
 11
380.445097999999970
 21
-82.121297999999996
  0
ARC
  8
0
  6
CONTINUOUS
 62
256
 10
-7.740704000000000
 20
-120.858583000000000
 40
390.797000000000030
 50
0.000000000000000
 51
5.417964000000000
  0
ARC
  8
0
  6
CONTINUOUS
 62
256
 10
378.323778000000000
 20
-84.242617999999993
 40
2.999999999999996
 50
5.417963999999932
 51
44.999999999999808
  0
ARC
  8
0
  6
CONTINUOUS
 62
256
 10
338.859295999999970
 20
-362.458582999999980
 40
290.797000000000030
 50
90.000000000000000
 51
95.752283000000006
  0
ARC
  8
0
  6
CONTINUOUS
 62
256
 10
299.394814000000000
 20
-84.242617999999993
 40
3.000000000000014
 50
135.000000000000200
 51
174.582036000000070
  0
ARC
  8
0
  6
CONTINUOUS
 62
256
 10
685.459295999999990
 20
-120.858583000000000
 40
390.797000000000030
 50
174.582035999999990
 51
180.000000000000000
  0
LINE
  8
0
  6
CONTINUOUS
 62
256
 10
303.160907000000010
 20
-76.233884000000003
 11
297.273494000000030
 21
-82.121297999999996
  0
ARC
  8
0
  6
CONTINUOUS
 62
256
 10
338.859295999999970
 20
120.741417000000000
 40
300.600000000000020
 50
264.247717000000020
 51
270.000000000000000
  0
LINE
  8
0
  6
CONTINUOUS
 62
256
 10
293.682030999999990
 20
-169.867941000000000
 11
288.770444000000000
 21
-164.956355000000000
  0
ARC
  8
0
  6
CONTINUOUS
 62
256
 10
685.459295999999990
 20
-120.858583000000000
 40
400.600000000000020
 50
180.000000000000000
 51
185.743681999999980
  0
ARC
  8
0
  6
CONTINUOUS
 62
256
 10
293.437348999999980
 20
-160.289449999999990
 40
6.599999999999971
 50
185.743681999999920
 51
224.999999999999830
  0
ARC
  8
0
  6
CONTINUOUS
 62
256
 10
338.859295999999970
 20
120.741417000000000
 40
300.600000000000020
 50
270.000000000000000
 51
275.752282999999980
  0
LINE
  8
0
  6
CONTINUOUS
 62
256
 10
381.489452000000030
 20
-172.415050000000010
 11
388.948147000000010
 21
-164.956355000000000
  0
ARC
  8
0
  6
CONTINUOUS
 62
256
 10
-7.740704000000000
 20
-120.858583000000000
 40
400.600000000000020
 50
354.256318000000020
 51
0.000000000000000
  0
ARC
  8
0
  6
CONTINUOUS
 62
256
 10
384.281243000000020
 20
-160.289449999999990
 40
6.600000000000017
 50
315.000000000000170
 51
354.256318000000020
  0
ARC
  8
0
  6
CONTINUOUS
 62
256
 10
338.859295999999970
 20
-362.458582999999980
 40
300.600000000000020
 50
84.247716999999994
 51
90.000000000000000
  0
LINE
  8
0
  6
CONTINUOUS
 62
256
 10
381.489452000000030
 20
-69.302115999999998
 11
388.948147000000010
 21
-76.760811000000004
  0
ARC
  8
0
  6
CONTINUOUS
 62
256
 10
-7.740704000000000
 20
-120.858583000000000
 40
400.600000000000020
 50
0.000000000000000
 51
5.743682000000000
  0
ARC
  8
0
  6
CONTINUOUS
 62
256
 10
384.281243000000020
 20
-81.427716000000004
 40
6.599999999999973
 50
5.743682000000063
 51
44.999999999999829
  0
ARC
  8
0
  6
CONTINUOUS
 62
256
 10
293.437348999999980
 20
-81.427716000000004
 40
6.600000000000017
 50
135.000000000000170
 51
174.256317999999940
  0
ARC
  8
0
  6
CONTINUOUS
 62
256
 10
685.459295999999990
 20
-120.858583000000000
 40
400.600000000000080
 50
174.256317999999990
 51
180.000000000000000
  0
ARC
  8
0
  6
CONTINUOUS
 62
256
 10
338.859295999999970
 20
-362.458582999999980
 40
300.600000000000020
 50
90.000000000000000
 51
95.752283000000006
  0
LINE
  8
0
  6
CONTINUOUS
 62
256
 10
296.229139999999970
 20
-69.302115999999998
 11
288.770444000000000
 21
-76.760811000000004
  0
LINE
  8
0
  6
CONTINUOUS
 62
256
 10
374.859295999999970
 20
-63.358583000000003
 11
368.847282000000010
 21
-63.358583000000003
  0
LINE
  8
0
  6
CONTINUOUS
 62
256
 10
308.866797000000020
 20
-63.358583000000003
 11
302.859295999999970
 21
-63.358583000000003
  0
ARC
  8
0
  6
CONTINUOUS
 62
256
 10
310.795539000000020
 20
-83.868516000000000
 40
20.600000000000009
 50
95.752283000000077
 51
134.999999999999970
  0
ARC
  8
0
  6
CONTINUOUS
 62
256
 10
366.923052999999980
 20
-83.868516000000000
 40
20.599999999999991
 50
45.000000000000000
 51
84.247716999999938
  0
ARC
  8
0
  6
CONTINUOUS
 62
256
 10
366.923052999999980
 20
-157.848649999999990
 40
20.599999999999991
 50
275.752282999999860
 51
315.000000000000000
  0
ARC
  8
0
  6
CONTINUOUS
 62
256
 10
310.795539000000020
 20
-157.848649999999990
 40
20.599999999999991
 50
225.000000000000000
 51
264.247716999999910
  0
ARC
  8
0
  6
CONTINUOUS
 62
256
 10
310.795539000000020
 20
-83.868516000000000
 40
10.797000000000002
 50
95.752283000000034
 51
135.000000000000060
  0
ARC
  8
0
  6
CONTINUOUS
 62
256
 10
310.795539000000020
 20
-157.848649999999990
 40
10.797000000000015
 50
225.000000000000000
 51
264.247716999999970
  0
ARC
  8
0
  6
CONTINUOUS
 62
256
 10
366.923052999999980
 20
-157.848649999999990
 40
10.796999999999988
 50
275.752283000000030
 51
315.000000000000000
  0
ARC
  8
0
  6
CONTINUOUS
 62
256
 10
366.923052999999980
 20
-83.868516000000000
 40
10.797000000000006
 50
44.999999999999950
 51
84.247716999999980
  0
ARC
  8
0
  6
CONTINUOUS
 62
256
 10
321.202852000000010
 20
-117.358583000000000
 40
1.000000000000000
 50
270.000000000000000
 51
348.787729000000300
  0
LINE
  8
0
  6
CONTINUOUS
 62
256
 10
318.153016999999980
 20
-118.358583000000000
 11
321.202852000000010
 21
-118.358583000000000
  0
ARC
  8
0
  6
CONTINUOUS
 62
256
 10
318.153016999999980
 20
-117.358583000000000
 40
0.999999999999978
 50
170.405932000000040
 51
270.000000000000000
  0
ARC
  8
0
  6
CONTINUOUS
 62
256
 10
312.591445000000020
 20
-117.358583000000000
 40
1.000000000000000
 50
270.000000000000000
 51
352.410458000000010
  0
LINE
  8
0
  6
CONTINUOUS
 62
256
 10
309.567658999999990
 20
-118.358583000000000
 11
312.591445000000020
 21
-118.358583000000000
  0
ARC
  8
0
  6
CONTINUOUS
 62
256
 10
309.567658999999990
 20
-117.358583000000000
 40
1.000000000000019
 50
173.186146000000240
 51
270.000000000000000
  0
ARC
  8
0
  6
CONTINUOUS
 62
256
 10
304.034736000000010
 20
-117.358583000000000
 40
1.000000000000000
 50
270.000000000000000
 51
354.260829999999540
  0
LINE
  8
0
  6
CONTINUOUS
 62
256
 10
301.020823000000010
 20
-118.358583000000000
 11
304.034736000000010
 21
-118.358583000000000
  0
ARC
  8
0
  6
CONTINUOUS
 62
256
 10
301.020823000000010
 20
-117.358583000000000
 40
1.000000000000027
 50
174.715267000000240
 51
270.000000000000000
  0
ARC
  8
0
  6
CONTINUOUS
 62
256
 10
321.182389000000000
 20
-97.241281000000001
 40
0.999999999999984
 50
30.000000000000544
 51
126.813854000000730
  0
LINE
  8
0
  6
CONTINUOUS
 62
256
 10
322.048413999999980
 20
-96.741281000000001
 11
323.560307000000020
 21
-99.359956999999994
  0
ARC
  8
0
  6
CONTINUOUS
 62
256
 10
322.694281999999990
 20
-99.859956999999994
 40
0.999999999999993
 50
307.589541999998800
 51
30.000000000000544
  0
ARC
  8
0
  6
CONTINUOUS
 62
256
 10
316.908971000000010
 20
-89.839505000000003
 40
0.999999999999984
 50
30.000000000000544
 51
125.284733000000970
  0
LINE
  8
0
  6
CONTINUOUS
 62
256
 10
317.774995999999990
 20
-89.339505000000003
 11
319.281951999999990
 21
-91.949629000000002
  0
ARC
  8
0
  6
CONTINUOUS
 62
256
 10
318.415927000000010
 20
-92.449629000000002
 40
0.999999999999998
 50
305.739170000000230
 51
30.000000000000544
  0
ARC
  8
0
  6
CONTINUOUS
 62
256
 10
331.412327000000000
 20
-114.960054000000000
 40
0.999999999999985
 50
321.618271999998970
 51
30.000000000000544
  0
LINE
  8
0
  6
CONTINUOUS
 62
256
 10
330.694232000000000
 20
-111.716278000000000
 11
332.278351999999980
 21
-114.460054000000000
  0
ARC
  8
0
  6
CONTINUOUS
 62
256
 10
326.999984999999980
 20
-107.317654000000000
 40
1.000000000000006
 50
311.212270999999760
 51
30.000000000000544
  0
LINE
  8
0
  6
CONTINUOUS
 62
256
 10
326.341093000000000
 20
-104.176419000000000
 11
327.866011000000010
 21
-106.817654000000000
  0
ARC
  8
0
  6
CONTINUOUS
 62
256
 10
325.475067000000020
 20
-104.676419000000000
 40
0.999999999999984
 50
30.000000000000544
 51
129.594067999999310
  0
ARC
  8
0
  6
CONTINUOUS
 62
256
 10
330.027535000000000
 20
-117.358583000000000
 40
1.000000000000000
 50
270.000000000000000
 51
338.381728000000520
  0
ARC
  8
0
  6
CONTINUOUS
 62
256
 10
338.859295999999970
 20
-120.858583000000000
 40
8.500000000000005
 50
141.618272000000020
 51
158.381728000000040
  0
ARC
  8
0
  6
CONTINUOUS
 62
256
 10
329.828207000000020
 20
-112.216278000000000
 40
0.999999999999984
 50
30.000000000000544
 51
136.260205000000240
  0
LINE
  8
0
  6
CONTINUOUS
 62
256
 10
326.859295999999970
 20
-118.358583000000000
 11
330.027535000000000
 21
-118.358583000000000
  0
ARC
  8
0
  6
CONTINUOUS
 62
256
 10
326.859295999999970
 20
-117.358583000000000
 40
0.999999999999976
 50
163.739794999999330
 51
270.000000000000000
  0
ARC
  8
0
  6
CONTINUOUS
 62
256
 10
338.859295999999970
 20
-120.858583000000000
 40
13.500000000000004
 50
136.260205000000010
 51
163.739794999999960
  0
ARC
  8
0
  6
CONTINUOUS
 62
256
 10
338.859295999999970
 20
-120.858583000000000
 40
17.000000000000014
 50
131.212271000000020
 51
168.787728999999980
  0
ARC
  8
0
  6
CONTINUOUS
 62
256
 10
338.859295999999970
 20
-120.858583000000000
 40
21.999999999999986
 50
129.594067999999940
 51
170.405931999999980
  0
ARC
  8
0
  6
CONTINUOUS
 62
256
 10
338.859295999999970
 20
-120.858583000000000
 40
30.499999999999982
 50
126.813853999999980
 51
173.186145999999980
  0
ARC
  8
0
  6
CONTINUOUS
 62
256
 10
338.859295999999970
 20
-120.858583000000000
 40
25.499999999999996
 50
127.589541999999970
 51
172.410458000000010
  0
ARC
  8
0
  6
CONTINUOUS
 62
256
 10
338.859295999999970
 20
-120.858583000000000
 40
34.000000000000007
 50
125.739170000000040
 51
174.260830000000000
  0
ARC
  8
0
  6
CONTINUOUS
 62
256
 10
338.859295999999970
 20
-120.858583000000000
 40
39.000000000000000
 50
125.284733000000000
 51
174.715267000000010
  0
ARC
  8
0
  6
CONTINUOUS
 62
256
 10
327.244566000000020
 20
-93.741281000000001
 40
1.000000000000000
 50
113.186146000000120
 51
210.000000000000510
  0
LINE
  8
0
  6
CONTINUOUS
 62
256
 10
326.378540999999980
 20
-94.241281000000001
 11
327.890434000000030
 21
-96.859956999999994
  0
ARC
  8
0
  6
CONTINUOUS
 62
256
 10
328.756459000000010
 20
-96.359956999999994
 40
0.999999999999984
 50
210.000000000000510
 51
292.410458000000400
  0
ARC
  8
0
  6
CONTINUOUS
 62
256
 10
322.971149000000030
 20
-86.339505000000003
 40
1.000000000000004
 50
114.715267000000150
 51
210.000000000000510
  0
LINE
  8
0
  6
CONTINUOUS
 62
256
 10
322.105122999999990
 20
-86.839505000000003
 11
323.612078999999990
 21
-89.449629000000002
  0
ARC
  8
0
  6
CONTINUOUS
 62
256
 10
324.478105000000030
 20
-88.949629000000002
 40
0.999999999999984
 50
210.000000000000510
 51
294.260829999998690
  0
ARC
  8
0
  6
CONTINUOUS
 62
256
 10
337.474504000000020
 20
-111.460054000000000
 40
0.999999999999984
 50
210.000000000000510
 51
278.381727999998870
  0
LINE
  8
0
  6
CONTINUOUS
 62
256
 10
335.024359000000000
 20
-109.216278000000000
 11
336.608478999999990
 21
-111.960054000000000
  0
ARC
  8
0
  6
CONTINUOUS
 62
256
 10
333.062163000000000
 20
-103.817654000000000
 40
0.999999999999984
 50
210.000000000000510
 51
288.787729000000750
  0
LINE
  8
0
  6
CONTINUOUS
 62
256
 10
330.671220000000010
 20
-101.676419000000000
 11
332.196138000000020
 21
-104.317654000000000
  0
ARC
  8
0
  6
CONTINUOUS
 62
256
 10
331.537244999999980
 20
-101.176419000000000
 40
0.999999999999993
 50
110.405931999999860
 51
210.000000000000510
  0
ARC
  8
0
  6
CONTINUOUS
 62
256
 10
340.244086999999980
 20
-111.460054000000000
 40
0.999999999999998
 50
261.618272000001130
 51
329.999999999999490
  0
ARC
  8
0
  6
CONTINUOUS
 62
256
 10
338.859295999999970
 20
-120.858583000000000
 40
8.500000000000002
 50
81.618271999999948
 51
98.381728000000052
  0
ARC
  8
0
  6
CONTINUOUS
 62
256
 10
335.890384999999980
 20
-108.716278000000000
 40
1.000000000000011
 50
103.739795000001280
 51
210.000000000000510
  0
LINE
  8
0
  6
CONTINUOUS
 62
256
 10
342.694232000000000
 20
-109.216278000000000
 11
341.110113000000010
 21
-111.960054000000000
  0
ARC
  8
0
  6
CONTINUOUS
 62
256
 10
341.828207000000020
 20
-108.716278000000000
 40
0.999999999999984
 50
329.999999999999490
 51
76.260204999998734
  0
ARC
  8
0
  6
CONTINUOUS
 62
256
 10
338.859295999999970
 20
-120.858583000000000
 40
13.499999999999989
 50
76.260205000000056
 51
103.739794999999940
  0
ARC
  8
0
  6
CONTINUOUS
 62
256
 10
344.656429000000000
 20
-103.817654000000000
 40
1.000000000000010
 50
251.212270999999220
 51
329.999999999999490
  0
LINE
  8
0
  6
CONTINUOUS
 62
256
 10
347.047372000000000
 20
-101.676419000000000
 11
345.522453999999980
 21
-104.317654000000000
  0
ARC
  8
0
  6
CONTINUOUS
 62
256
 10
338.859295999999970
 20
-120.858583000000000
 40
16.999999999999993
 50
71.212271000000044
 51
108.787728999999960
  0
ARC
  8
0
  6
CONTINUOUS
 62
256
 10
346.181347000000020
 20
-101.176419000000000
 40
0.999999999999984
 50
329.999999999999490
 51
69.594068000000149
  0
ARC
  8
0
  6
CONTINUOUS
 62
256
 10
348.962132999999990
 20
-96.359956999999994
 40
1.000000000000009
 50
247.589541999999540
 51
329.999999999999490
  0
ARC
  8
0
  6
CONTINUOUS
 62
256
 10
353.240486999999970
 20
-88.949629000000002
 40
0.999999999999992
 50
245.739170000001340
 51
329.999999999999490
  0
ARC
  8
0
  6
CONTINUOUS
 62
256
 10
338.859295999999970
 20
-120.858583000000000
 40
21.999999999999996
 50
69.594067999999993
 51
110.405932000000020
  0
LINE
  8
0
  6
CONTINUOUS
 62
256
 10
351.340051000000020
 20
-94.241281000000001
 11
349.828157999999970
 21
-96.859956999999994
  0
ARC
  8
0
  6
CONTINUOUS
 62
256
 10
350.474025999999980
 20
-93.741281000000001
 40
0.999999999999984
 50
329.999999999999490
 51
66.813853999999878
  0
ARC
  8
0
  6
CONTINUOUS
 62
256
 10
338.859295999999970
 20
-120.858583000000000
 40
30.499999999999996
 50
66.813853999999992
 51
113.186146000000020
  0
ARC
  8
0
  6
CONTINUOUS
 62
256
 10
338.859295999999970
 20
-120.858583000000000
 40
25.500000000000007
 50
67.589541999999966
 51
112.410458000000050
  0
ARC
  8
0
  6
CONTINUOUS
 62
256
 10
338.859295999999970
 20
-120.858583000000000
 40
34.000000000000000
 50
65.739169999999987
 51
114.260830000000010
  0
ARC
  8
0
  6
CONTINUOUS
 62
256
 10
338.859295999999970
 20
-120.858583000000000
 40
38.999999999999993
 50
65.284733000000031
 51
114.715266999999980
  0
LINE
  8
0
  6
CONTINUOUS
 62
256
 10
355.613469000000010
 20
-86.839505000000003
 11
354.106513000000010
 21
-89.449629000000002
  0
ARC
  8
0
  6
CONTINUOUS
 62
256
 10
354.747442999999980
 20
-86.339505000000003
 40
0.999999999999984
 50
329.999999999999490
 51
65.284732999999861
  0
CIRCLE
  8
0
  6
CONTINUOUS
 62
256
 10
338.859295999999970
 20
-120.858583000000000
 40
5.000000000000000
  0
ARC
  8
0
  6
CONTINUOUS
 62
256
 10
360.809620999999990
 20
-89.839505000000003
 40
1.000000000000016
 50
54.715266999999017
 51
149.999999999999460
  0
ARC
  8
0
  6
CONTINUOUS
 62
256
 10
359.302664999999990
 20
-92.449629000000002
 40
0.999999999999984
 50
149.999999999999460
 51
234.260829999999740
  0
ARC
  8
0
  6
CONTINUOUS
 62
256
 10
373.683855999999990
 20
-117.358583000000000
 40
0.999999999999978
 50
185.739170000000430
 51
270.000000000000000
  0
ARC
  8
0
  6
CONTINUOUS
 62
256
 10
376.697768000000000
 20
-117.358583000000000
 40
1.000000000000000
 50
270.000000000000000
 51
5.284732999999778
  0
ARC
  8
0
  6
CONTINUOUS
 62
256
 10
365.127146999999980
 20
-117.358583000000000
 40
0.999999999999990
 50
187.589541999999990
 51
270.000000000000000
  0
ARC
  8
0
  6
CONTINUOUS
 62
256
 10
356.536203000000000
 20
-97.241281000000001
 40
1.000000000000011
 50
53.186145999999269
 51
149.999999999999460
  0
ARC
  8
0
  6
CONTINUOUS
 62
256
 10
355.024310000000010
 20
-99.859956999999994
 40
0.999999999999984
 50
149.999999999999460
 51
232.410458000001200
  0
ARC
  8
0
  6
CONTINUOUS
 62
256
 10
368.150933000000010
 20
-117.358583000000000
 40
1.000000000000000
 50
270.000000000000000
 51
6.813853999999752
  0
ARC
  8
0
  6
CONTINUOUS
 62
256
 10
359.565575000000020
 20
-117.358583000000000
 40
1.000000000000000
 50
270.000000000000000
 51
9.594067999999961
  0
ARC
  8
0
  6
CONTINUOUS
 62
256
 10
356.515739999999990
 20
-117.358583000000000
 40
1.000000000000016
 50
191.212270999999730
 51
270.000000000000000
  0
ARC
  8
0
  6
CONTINUOUS
 62
256
 10
352.243524999999980
 20
-104.676419000000000
 40
0.999999999999988
 50
50.405932000000682
 51
149.999999999999460
  0
ARC
  8
0
  6
CONTINUOUS
 62
256
 10
350.718607000000020
 20
-107.317654000000000
 40
0.999999999999984
 50
149.999999999999460
 51
228.787729000000240
  0
ARC
  8
0
  6
CONTINUOUS
 62
256
 10
347.890384999999980
 20
-112.216278000000000
 40
1.000000000000005
 50
43.739794999999773
 51
149.999999999999460
  0
ARC
  8
0
  6
CONTINUOUS
 62
256
 10
350.859295999999970
 20
-117.358583000000000
 40
1.000000000000000
 50
270.000000000000000
 51
16.260205000000671
  0
ARC
  8
0
  6
CONTINUOUS
 62
256
 10
347.691057000000000
 20
-117.358583000000000
 40
1.000000000000013
 50
201.618271999999450
 51
270.000000000000000
  0
ARC
  8
0
  6
CONTINUOUS
 62
256
 10
346.306265000000000
 20
-114.960054000000000
 40
0.999999999999984
 50
149.999999999999460
 51
218.381728000001000
  0
ARC
  8
0
  6
CONTINUOUS
 62
256
 10
338.859295999999970
 20
-120.858583000000000
 40
38.999999999999986
 50
5.284733000000007
 51
54.715266999999990
  0
ARC
  8
0
  6
CONTINUOUS
 62
256
 10
338.859295999999970
 20
-120.858583000000000
 40
30.499999999999986
 50
6.813854000000005
 51
53.186146000000029
  0
ARC
  8
0
  6
CONTINUOUS
 62
256
 10
338.859295999999970
 20
-120.858583000000000
 40
34.000000000000028
 50
5.739170000000004
 51
54.260829999999984
  0
ARC
  8
0
  6
CONTINUOUS
 62
256
 10
338.859295999999970
 20
-120.858583000000000
 40
25.500000000000011
 50
7.589541999999985
 51
52.410458000000027
  0
ARC
  8
0
  6
CONTINUOUS
 62
256
 10
338.859295999999970
 20
-120.858583000000000
 40
21.999999999999979
 50
9.594068000000020
 51
50.405932000000064
  0
ARC
  8
0
  6
CONTINUOUS
 62
256
 10
338.859295999999970
 20
-120.858583000000000
 40
16.999999999999993
 50
11.212271000000010
 51
48.787728999999970
  0
ARC
  8
0
  6
CONTINUOUS
 62
256
 10
338.859295999999970
 20
-120.858583000000000
 40
13.499999999999989
 50
16.260205000000035
 51
43.739795000000001
  0
ARC
  8
0
  6
CONTINUOUS
 62
256
 10
338.859295999999970
 20
-120.858583000000000
 40
8.500000000000016
 50
21.618271999999980
 51
38.381727999999960
  0
LINE
  8
0
  6
CONTINUOUS
 62
256
 10
355.670178000000020
 20
-96.741281000000001
 11
354.158284999999980
 21
-99.359956999999994
  0
LINE
  8
0
  6
CONTINUOUS
 62
256
 10
376.697768000000000
 20
-118.358583000000000
 11
373.683855999999990
 21
-118.358583000000000
  0
LINE
  8
0
  6
CONTINUOUS
 62
256
 10
359.943596000000010
 20
-89.339505000000003
 11
358.436640000000010
 21
-91.949629000000002
  0
LINE
  8
0
  6
CONTINUOUS
 62
256
 10
351.377499000000000
 20
-104.176419000000000
 11
349.852580999999990
 21
-106.817654000000000
  0
LINE
  8
0
  6
CONTINUOUS
 62
256
 10
347.024359000000000
 20
-111.716278000000000
 11
345.440240000000020
 21
-114.460054000000000
  0
LINE
  8
0
  6
CONTINUOUS
 62
256
 10
350.859295999999970
 20
-118.358583000000000
 11
347.691057000000000
 21
-118.358583000000000
  0
LINE
  8
0
  6
CONTINUOUS
 62
256
 10
359.565575000000020
 20
-118.358583000000000
 11
356.515739999999990
 21
-118.358583000000000
  0
LINE
  8
0
  6
CONTINUOUS
 62
256
 10
368.150933000000010
 20
-118.358583000000000
 11
365.127146999999980
 21
-118.358583000000000
  0
ARC
  8
0
  6
CONTINUOUS
 62
256
 10
338.859295999999970
 20
-120.858583000000000
 40
39.000000000000000
 50
245.284732999999960
 51
294.715266999999980
  0
ARC
  8
0
  6
CONTINUOUS
 62
256
 10
338.859295999999970
 20
-120.858583000000000
 40
34.000000000000000
 50
245.739170000000000
 51
294.260830000000000
  0
ARC
  8
0
  6
CONTINUOUS
 62
256
 10
338.859295999999970
 20
-120.858583000000000
 40
25.499999999999993
 50
247.589541999999940
 51
292.410458000000010
  0
ARC
  8
0
  6
CONTINUOUS
 62
256
 10
338.859295999999970
 20
-120.858583000000000
 40
30.499999999999996
 50
246.813853999999990
 51
293.186146000000010
  0
ARC
  8
0
  6
CONTINUOUS
 62
256
 10
338.859295999999970
 20
-120.858583000000000
 40
21.999999999999996
 50
249.594067999999990
 51
290.405932000000010
  0
ARC
  8
0
  6
CONTINUOUS
 62
256
 10
338.859295999999970
 20
-120.858583000000000
 40
16.999999999999993
 50
251.212271000000040
 51
288.787728999999960
  0
ARC
  8
0
  6
CONTINUOUS
 62
256
 10
338.859295999999970
 20
-120.858583000000000
 40
13.499999999999989
 50
256.260205000000040
 51
283.739794999999960
  0
ARC
  8
0
  6
CONTINUOUS
 62
256
 10
335.890384999999980
 20
-133.000888000000000
 40
0.999999999999984
 50
149.999999999999460
 51
256.260204999998510
  0
ARC
  8
0
  6
CONTINUOUS
 62
256
 10
331.537244999999980
 20
-140.540747000000010
 40
0.999999999999984
 50
149.999999999999460
 51
249.594068000000160
  0
LINE
  8
0
  6
CONTINUOUS
 62
256
 10
330.671220000000010
 20
-140.040747000000010
 11
332.196138000000020
 21
-137.399511999999990
  0
ARC
  8
0
  6
CONTINUOUS
 62
256
 10
333.062163000000000
 20
-137.899511999999990
 40
1.000000000000010
 50
71.212270999999262
 51
149.999999999999460
  0
LINE
  8
0
  6
CONTINUOUS
 62
256
 10
335.024359000000000
 20
-132.500888000000000
 11
336.608478999999990
 21
-129.757112000000010
  0
ARC
  8
0
  6
CONTINUOUS
 62
256
 10
337.474504000000020
 20
-130.257112000000010
 40
0.999999999999984
 50
81.618272000000985
 51
149.999999999999460
  0
ARC
  8
0
  6
CONTINUOUS
 62
256
 10
324.478105000000030
 20
-152.767537000000000
 40
0.999999999999992
 50
65.739170000001337
 51
149.999999999999460
  0
LINE
  8
0
  6
CONTINUOUS
 62
256
 10
322.105122999999990
 20
-154.877660999999990
 11
323.612078999999990
 21
-152.267537000000000
  0
ARC
  8
0
  6
CONTINUOUS
 62
256
 10
322.971149000000030
 20
-155.377660999999990
 40
0.999999999999984
 50
149.999999999999460
 51
245.284732999999870
  0
ARC
  8
0
  6
CONTINUOUS
 62
256
 10
328.756459000000010
 20
-145.357209000000010
 40
1.000000000000009
 50
67.589541999999554
 51
149.999999999999460
  0
LINE
  8
0
  6
CONTINUOUS
 62
256
 10
326.378540999999980
 20
-147.475885000000010
 11
327.890434000000030
 21
-144.857209000000010
  0
ARC
  8
0
  6
CONTINUOUS
 62
256
 10
327.244566000000020
 20
-147.975885000000010
 40
0.999999999999984
 50
149.999999999999460
 51
246.813853999999880
  0
ARC
  8
0
  6
CONTINUOUS
 62
256
 10
338.859295999999970
 20
-120.858583000000000
 40
38.999999999999986
 50
185.284732999999990
 51
234.715266999999980
  0
ARC
  8
0
  6
CONTINUOUS
 62
256
 10
338.859295999999970
 20
-120.858583000000000
 40
34.000000000000028
 50
185.739169999999970
 51
234.260829999999970
  0
ARC
  8
0
  6
CONTINUOUS
 62
256
 10
338.859295999999970
 20
-120.858583000000000
 40
25.500000000000011
 50
187.589541999999990
 51
232.410458000000030
  0
ARC
  8
0
  6
CONTINUOUS
 62
256
 10
338.859295999999970
 20
-120.858583000000000
 40
30.499999999999986
 50
186.813853999999990
 51
233.186146000000040
  0
ARC
  8
0
  6
CONTINUOUS
 62
256
 10
338.859295999999970
 20
-120.858583000000000
 40
21.999999999999975
 50
189.594067999999960
 51
230.405932000000060
  0
ARC
  8
0
  6
CONTINUOUS
 62
256
 10
338.859295999999970
 20
-120.858583000000000
 40
16.999999999999989
 50
191.212270999999960
 51
228.787728999999960
  0
ARC
  8
0
  6
CONTINUOUS
 62
256
 10
338.859295999999970
 20
-120.858583000000000
 40
13.499999999999989
 50
196.260205000000010
 51
223.739794999999990
  0
ARC
  8
0
  6
CONTINUOUS
 62
256
 10
326.859295999999970
 20
-124.358583000000000
 40
1.000000000000000
 50
90.000000000000000
 51
196.260205000000670
  0
LINE
  8
0
  6
CONTINUOUS
 62
256
 10
326.859295999999970
 20
-123.358583000000000
 11
330.027535000000000
 21
-123.358583000000000
  0
ARC
  8
0
  6
CONTINUOUS
 62
256
 10
329.828207000000020
 20
-129.500888000000000
 40
0.999999999999995
 50
223.739794999999160
 51
329.999999999999490
  0
ARC
  8
0
  6
CONTINUOUS
 62
256
 10
338.859295999999970
 20
-120.858583000000000
 40
8.500000000000016
 50
201.618271999999960
 51
218.381727999999950
  0
ARC
  8
0
  6
CONTINUOUS
 62
256
 10
330.027535000000000
 20
-124.358583000000000
 40
1.000000000000013
 50
21.618271999999475
 51
90.000000000000000
  0
ARC
  8
0
  6
CONTINUOUS
 62
256
 10
325.475067000000020
 20
-137.040747000000010
 40
0.999999999999999
 50
230.405932000001170
 51
329.999999999999490
  0
LINE
  8
0
  6
CONTINUOUS
 62
256
 10
326.341093000000000
 20
-137.540747000000010
 11
327.866011000000010
 21
-134.899511999999990
  0
ARC
  8
0
  6
CONTINUOUS
 62
256
 10
326.999984999999980
 20
-134.399511999999990
 40
0.999999999999984
 50
329.999999999999490
 51
48.787729000000247
  0
LINE
  8
0
  6
CONTINUOUS
 62
256
 10
330.694232000000000
 20
-130.000888000000000
 11
332.278351999999980
 21
-127.257112000000010
  0
ARC
  8
0
  6
CONTINUOUS
 62
256
 10
331.412327000000000
 20
-126.757112000000010
 40
0.999999999999984
 50
329.999999999999490
 51
38.381728000001026
  0
ARC
  8
0
  6
CONTINUOUS
 62
256
 10
318.415927000000010
 20
-149.267537000000000
 40
0.999999999999984
 50
329.999999999999490
 51
54.260829999999778
  0
LINE
  8
0
  6
CONTINUOUS
 62
256
 10
317.774995999999990
 20
-152.377660999999990
 11
319.281951999999990
 21
-149.767537000000000
  0
ARC
  8
0
  6
CONTINUOUS
 62
256
 10
316.908971000000010
 20
-151.877660999999990
 40
1.000000000000016
 50
234.715266999999020
 51
329.999999999999490
  0
ARC
  8
0
  6
CONTINUOUS
 62
256
 10
322.694281999999990
 20
-141.857209000000010
 40
0.999999999999984
 50
329.999999999999490
 51
52.410458000001171
  0
LINE
  8
0
  6
CONTINUOUS
 62
256
 10
322.048413999999980
 20
-144.975885000000010
 11
323.560307000000020
 21
-142.357209000000010
  0
ARC
  8
0
  6
CONTINUOUS
 62
256
 10
321.182389000000000
 20
-144.475885000000010
 40
1.000000000000000
 50
233.186145999998760
 51
329.999999999999490
  0
ARC
  8
0
  6
CONTINUOUS
 62
256
 10
301.020823000000010
 20
-124.358583000000000
 40
1.000000000000000
 50
90.000000000000000
 51
185.284732999999760
  0
LINE
  8
0
  6
CONTINUOUS
 62
256
 10
301.020823000000010
 20
-123.358583000000000
 11
304.034736000000010
 21
-123.358583000000000
  0
ARC
  8
0
  6
CONTINUOUS
 62
256
 10
304.034736000000010
 20
-124.358583000000000
 40
0.999999999999978
 50
5.739170000000447
 51
90.000000000000000
  0
ARC
  8
0
  6
CONTINUOUS
 62
256
 10
309.567658999999990
 20
-124.358583000000000
 40
1.000000000000000
 50
90.000000000000000
 51
186.813853999999760
  0
LINE
  8
0
  6
CONTINUOUS
 62
256
 10
309.567658999999990
 20
-123.358583000000000
 11
312.591445000000020
 21
-123.358583000000000
  0
ARC
  8
0
  6
CONTINUOUS
 62
256
 10
312.591445000000020
 20
-124.358583000000000
 40
0.999999999999990
 50
7.589541999999997
 51
90.000000000000000
  0
ARC
  8
0
  6
CONTINUOUS
 62
256
 10
318.153016999999980
 20
-124.358583000000000
 40
1.000000000000000
 50
90.000000000000000
 51
189.594067999999960
  0
LINE
  8
0
  6
CONTINUOUS
 62
256
 10
318.153016999999980
 20
-123.358583000000000
 11
321.202852000000010
 21
-123.358583000000000
  0
ARC
  8
0
  6
CONTINUOUS
 62
256
 10
321.202852000000010
 20
-124.358583000000000
 40
1.000000000000016
 50
11.212270999999729
 51
90.000000000000000
  0
ARC
  8
0
  6
CONTINUOUS
 62
256
 10
341.828207000000020
 20
-133.000888000000000
 40
0.999999999999997
 50
283.739795000001440
 51
30.000000000000544
  0
LINE
  8
0
  6
CONTINUOUS
 62
256
 10
342.694232000000000
 20
-132.500888000000000
 11
341.110113000000010
 21
-129.757112000000010
  0
ARC
  8
0
  6
CONTINUOUS
 62
256
 10
338.859295999999970
 20
-120.858583000000000
 40
8.500000000000002
 50
261.618271999999930
 51
278.381728000000070
  0
ARC
  8
0
  6
CONTINUOUS
 62
256
 10
340.244086999999980
 20
-130.257112000000010
 40
0.999999999999984
 50
30.000000000000544
 51
98.381727999999029
  0
LINE
  8
0
  6
CONTINUOUS
 62
256
 10
368.150933000000010
 20
-123.358583000000000
 11
365.127146999999980
 21
-123.358583000000000
  0
LINE
  8
0
  6
CONTINUOUS
 62
256
 10
359.565575000000020
 20
-123.358583000000000
 11
356.515739999999990
 21
-123.358583000000000
  0
LINE
  8
0
  6
CONTINUOUS
 62
256
 10
350.859295999999970
 20
-123.358583000000000
 11
347.691057000000000
 21
-123.358583000000000
  0
LINE
  8
0
  6
CONTINUOUS
 62
256
 10
347.024359000000000
 20
-130.000888000000000
 11
345.440240000000020
 21
-127.257112000000010
  0
LINE
  8
0
  6
CONTINUOUS
 62
256
 10
351.377499000000000
 20
-137.540747000000010
 11
349.852580999999990
 21
-134.899511999999990
  0
LINE
  8
0
  6
CONTINUOUS
 62
256
 10
359.943596000000010
 20
-152.377660999999990
 11
358.436640000000010
 21
-149.767537000000000
  0
LINE
  8
0
  6
CONTINUOUS
 62
256
 10
355.670178000000020
 20
-144.975885000000010
 11
354.158284999999980
 21
-142.357209000000010
  0
ARC
  8
0
  6
CONTINUOUS
 62
256
 10
338.859295999999970
 20
-120.858583000000000
 40
8.500000000000005
 50
321.618272000000050
 51
338.381728000000010
  0
ARC
  8
0
  6
CONTINUOUS
 62
256
 10
338.859295999999970
 20
-120.858583000000000
 40
13.500000000000004
 50
316.260204999999980
 51
343.739794999999960
  0
ARC
  8
0
  6
CONTINUOUS
 62
256
 10
338.859295999999970
 20
-120.858583000000000
 40
17.000000000000000
 50
311.212271000000040
 51
348.787729000000010
  0
ARC
  8
0
  6
CONTINUOUS
 62
256
 10
338.859295999999970
 20
-120.858583000000000
 40
21.999999999999986
 50
309.594067999999940
 51
350.405932000000010
  0
ARC
  8
0
  6
CONTINUOUS
 62
256
 10
338.859295999999970
 20
-120.858583000000000
 40
25.499999999999996
 50
307.589541999999990
 51
352.410458000000010
  0
ARC
  8
0
  6
CONTINUOUS
 62
256
 10
338.859295999999970
 20
-120.858583000000000
 40
33.999999999999986
 50
305.739169999999940
 51
354.260830000000000
  0
ARC
  8
0
  6
CONTINUOUS
 62
256
 10
338.859295999999970
 20
-120.858583000000000
 40
30.500000000000014
 50
306.813854000000050
 51
353.186146000000010
  0
ARC
  8
0
  6
CONTINUOUS
 62
256
 10
338.859295999999970
 20
-120.858583000000000
 40
39.000000000000014
 50
305.284733000000020
 51
354.715266999999980
  0
ARC
  8
0
  6
CONTINUOUS
 62
256
 10
346.306265000000000
 20
-126.757112000000010
 40
0.999999999999985
 50
141.618271999999000
 51
210.000000000000510
  0
ARC
  8
0
  6
CONTINUOUS
 62
256
 10
347.691057000000000
 20
-124.358583000000000
 40
1.000000000000000
 50
90.000000000000000
 51
158.381728000000550
  0
ARC
  8
0
  6
CONTINUOUS
 62
256
 10
350.859295999999970
 20
-124.358583000000000
 40
0.999999999999976
 50
343.739794999999330
 51
90.000000000000000
  0
ARC
  8
0
  6
CONTINUOUS
 62
256
 10
347.890384999999980
 20
-129.500888000000000
 40
0.999999999999984
 50
210.000000000000510
 51
316.260205000000780
  0
ARC
  8
0
  6
CONTINUOUS
 62
256
 10
350.718607000000020
 20
-134.399511999999990
 40
1.000000000000006
 50
131.212270999999760
 51
210.000000000000510
  0
ARC
  8
0
  6
CONTINUOUS
 62
256
 10
352.243524999999980
 20
-137.040747000000010
 40
0.999999999999984
 50
210.000000000000510
 51
309.594067999998800
  0
ARC
  8
0
  6
CONTINUOUS
 62
256
 10
356.515739999999990
 20
-124.358583000000000
 40
1.000000000000000
 50
90.000000000000000
 51
168.787729000000270
  0
ARC
  8
0
  6
CONTINUOUS
 62
256
 10
359.565575000000020
 20
-124.358583000000000
 40
0.999999999999978
 50
350.405932000000010
 51
90.000000000000000
  0
ARC
  8
0
  6
CONTINUOUS
 62
256
 10
355.024310000000010
 20
-141.857209000000010
 40
0.999999999999993
 50
127.589541999998830
 51
210.000000000000510
  0
ARC
  8
0
  6
CONTINUOUS
 62
256
 10
356.536203000000000
 20
-144.475885000000010
 40
0.999999999999984
 50
210.000000000000510
 51
306.813854000001190
  0
ARC
  8
0
  6
CONTINUOUS
 62
256
 10
365.127146999999980
 20
-124.358583000000000
 40
1.000000000000000
 50
90.000000000000000
 51
172.410458000000010
  0
ARC
  8
0
  6
CONTINUOUS
 62
256
 10
359.302664999999990
 20
-149.267537000000000
 40
0.999999999999998
 50
125.739170000000210
 51
210.000000000000510
  0
ARC
  8
0
  6
CONTINUOUS
 62
256
 10
360.809620999999990
 20
-151.877660999999990
 40
0.999999999999984
 50
210.000000000000510
 51
305.284733000000980
  0
ARC
  8
0
  6
CONTINUOUS
 62
256
 10
354.747442999999980
 20
-155.377660999999990
 40
1.000000000000004
 50
294.715267000000150
 51
30.000000000000544
  0
LINE
  8
0
  6
CONTINUOUS
 62
256
 10
355.613469000000010
 20
-154.877660999999990
 11
354.106513000000010
 21
-152.267537000000000
  0
ARC
  8
0
  6
CONTINUOUS
 62
256
 10
350.474025999999980
 20
-147.975885000000010
 40
1.000000000000000
 50
293.186146000000120
 51
30.000000000000544
  0
LINE
  8
0
  6
CONTINUOUS
 62
256
 10
351.340051000000020
 20
-147.475885000000010
 11
349.828157999999970
 21
-144.857209000000010
  0
ARC
  8
0
  6
CONTINUOUS
 62
256
 10
353.240486999999970
 20
-152.767537000000000
 40
0.999999999999984
 50
30.000000000000544
 51
114.260829999998650
  0
ARC
  8
0
  6
CONTINUOUS
 62
256
 10
348.962132999999990
 20
-145.357209000000010
 40
0.999999999999984
 50
30.000000000000544
 51
112.410458000000460
  0
ARC
  8
0
  6
CONTINUOUS
 62
256
 10
346.181347000000020
 20
-140.540747000000010
 40
0.999999999999993
 50
290.405931999999840
 51
30.000000000000544
  0
LINE
  8
0
  6
CONTINUOUS
 62
256
 10
347.047372000000000
 20
-140.040747000000010
 11
345.522453999999980
 21
-137.399511999999990
  0
ARC
  8
0
  6
CONTINUOUS
 62
256
 10
344.656429000000000
 20
-137.899511999999990
 40
0.999999999999984
 50
30.000000000000544
 51
108.787729000000750
  0
LINE
  8
0
  6
CONTINUOUS
 62
256
 10
376.697768000000000
 20
-123.358583000000000
 11
373.683855999999990
 21
-123.358583000000000
  0
ARC
  8
0
  6
CONTINUOUS
 62
256
 10
368.150933000000010
 20
-124.358583000000000
 40
1.000000000000019
 50
353.186146000000240
 51
90.000000000000000
  0
ARC
  8
0
  6
CONTINUOUS
 62
256
 10
376.697768000000000
 20
-124.358583000000000
 40
1.000000000000027
 50
354.715267000000210
 51
90.000000000000000
  0
ARC
  8
0
  6
CONTINUOUS
 62
256
 10
373.683855999999990
 20
-124.358583000000000
 40
1.000000000000000
 50
90.000000000000000
 51
174.260829999999570
  0
LINE
  8
0
  6
CONTINUOUS
 62
256
 10
296.229139999999970
 20
-172.415050000000010
 11
288.770444000000000
 21
-164.956355000000000
  0
LINE
  8
0
  6
DASHDOT
 62
256
 10
396.166679999999990
 20
-120.858583000000000
 11
280.996037000000000
 21
-120.858583000000000
  0
LINE
  8
0
  6
DASHDOT
 62
256
 10
338.859295999999970
 20
-184.099070000000010
 11
338.859295999999970
 21
-26.988242000000000
  0
LINE
  8
0
  6
DASHDOT
 62
256
 10
395.896325999999990
 20
-107.858583000000000
 11
247.359114000000010
 21
-107.858583000000000
  0
LINE
  8
0
  6
CONTINUOUS
 62
256
 10
302.859295999999970
 20
-56.028072000000002
 11
295.359295999999970
 21
-56.028072000000002
  0
LINE
  8
0
  6
CONTINUOUS
 62
256
 10
374.859295999999970
 20
-54.919676000000003
 11
382.359295999999970
 21
-55.050589000000002
  0
LINE
  8
0
  6
CONTINUOUS
 62
256
 10
371.859295999999970
 20
-181.876037999999990
 11
371.859295999999970
 21
-178.041715000000010
  0
LINE
  8
0
  6
CONTINUOUS
 62
256
 10
382.359295999999970
 20
-55.050589000000002
 11
382.359295999999970
 21
-70.171959999999999
  0
LINE
  8
0
  6
CONTINUOUS
 62
256
 10
382.359295999999970
 20
-171.545206000000010
 11
382.359295999999970
 21
-181.666576999999990
  0
LINE
  8
0
  6
CONTINUOUS
 62
256
 10
386.359295999999970
 20
-70.358582999999996
 11
382.545919000000030
 21
-70.358582999999996
  0
LINE
  8
0
  6
CONTINUOUS
 62
256
 10
386.359295999999970
 20
-70.358582999999996
 11
386.359295999999970
 21
-74.171959999999999
  0
LINE
  8
0
  6
CONTINUOUS
 62
256
 10
371.859295999999970
 20
-181.876037999999990
 11
371.859295999999970
 21
-177.848488000000000
  0
LINE
  8
0
  6
CONTINUOUS
 62
256
 10
295.359295999999970
 20
-180.706549000000000
 11
295.359295999999970
 21
-171.545206000000010
  0
LINE
  8
0
  6
CONTINUOUS
 62
256
 10
285.578864000000010
 20
-96.858582999999996
 11
281.359369000000020
 21
-96.858582999999996
  0
LINE
  8
0
  6
CONTINUOUS
 62
256
 10
284.864288999999990
 20
-118.858583000000000
 11
249.359368999999990
 21
-118.858583000000000
  0
LINE
  8
0
  6
CONTINUOUS
 62
256
 10
295.359295999999970
 20
-70.171959999999999
 11
295.359295999999970
 21
-56.028072000000002
  0
LINE
  8
0
  6
CONTINUOUS
 62
256
 10
295.163945000000010
 20
-70.367310000000003
 11
291.359295999999970
 21
-70.367310000000003
  0
LINE
  8
0
  6
CONTINUOUS
 62
256
 10
291.359295999999970
 20
-70.367310000000003
 11
291.359295999999970
 21
-74.171959999999999
  0
TEXT
  8
0
  6
CONTINUOUS
 62
256
 10
445.758422851562500
 20
-222.017364501953120
 40
3.299999952316284
  1
1/1
 50
0.000002504478167
 41
0.850909097352304
  7
STANDARD1
  0
TEXT
  8
0
  6
CONTINUOUS
 62
256
 10
443.340423583984370
 20
-222.017364501953120
 40
3.299999952316284
  1
 
 50
0.000002504478167
 41
1.733333298293026
  7
STANDARD1
  0
TEXT
  8
0
  6
CONTINUOUS
 62
256
 10
430.289794921875000
 20
-222.017364501953120
 40
3.299999952316284
  1
SCALE
 50
0.000002504478167
 41
0.821052645401140
  7
STANDARD1
  0
TEXT
  8
0
  6
CONTINUOUS
 62
256
 10
427.038421630859370
 20
-222.017364501953120
 40
3.299999952316284
  1
 
 50
0.000002504478167
 41
1.733333298293026
  7
STANDARD1
  0
TEXT
  8
0
  6
CONTINUOUS
 62
256
 10
439.318603515625000
 20
-216.717361450195310
 40
3.299999952316284
  1
1/240
 50
0.000002504478167
 41
0.821052645401140
  7
STANDARD1
  0
TEXT
  8
0
  6
CONTINUOUS
 62
256
 10
435.536590576171870
 20
-216.717361450195310
 40
3.299999952316284
  1
ü`
 50
0.000002504478167
 41
1.176000019651471
  7
STANDARD1
  0
TEXT
  8
0
  6
CONTINUOUS
 62
256
 10
427.038421630859370
 20
-216.717361450195310
 40
3.299999952316284
  1
1/5
 50
0.000002504478167
 41
0.850909097352304
  7
STANDARD1
  0
TEXT
  8
0
  6
CONTINUOUS
 62
256
 10
430.270874023437500
 20
-211.417358398437500
 40
3.299999952316284
  1
GM-SHYFB-RL
 50
0.000002504478167
 41
0.798139564113939
  7
STANDARD1
  0
TEXT
  8
0
  6
CONTINUOUS
 62
256
 10
427.038421630859370
 20
-211.417358398437500
 40
3.299999952316284
  1
 
 50
0.000002504478167
 41
1.733333298293026
  7
STANDARD1
  0
TEXT
  8
0
  6
CONTINUOUS
 62
256
 10
432.863800048828120
 20
-206.117370605468750
 40
3.299999952316284
  1
0.1kW
 50
0.000002504478167
 41
0.821052645401140
  7
STANDARD1
  0
TEXT
  8
0
  6
CONTINUOUS
 62
256
 10
427.038421630859370
 20
-206.117370605468750
 40
3.299999952316284
  1
  
 50
0.000002504478167
 41
1.485714400175845
  7
STANDARD1
  0
TEXT
  8
0
  6
CONTINUOUS
 62
256
 10
432.857910156250000
 20
-200.817367553710940
 40
3.299999952316284
  1
SHY081
 50
0.000002504478167
 41
0.813913121261144
  7
STANDARD1
  0
TEXT
  8
0
  6
CONTINUOUS
 62
256
 10
427.038421630859370
 20
-200.817367553710940
 40
3.299999952316284
  1
  
 50
0.000002504478167
 41
1.485714400175845
  7
STANDARD1
  0
ARC
  8
0
  6
CONTINUOUS
 62
256
 10
-222.996309999999990
 20
-107.858583000000000
 40
11.000000000000004
 50
105.826619999999990
 51
74.173380000000009
  0
LINE
  8
0
  6
CONTINUOUS
 62
256
 10
-219.996309999999990
 20
-94.358582999999996
 11
-219.996309999999990
 21
-100.358583000000000
  0
LINE
  8
0
  6
CONTINUOUS
 62
256
 10
-225.996309999999990
 20
-94.358582999999996
 11
-225.996309999999990
 21
-100.358583000000000
  0
LINE
  8
0
  6
CONTINUOUS
 62
256
 10
-225.996309999999990
 20
-94.358582999999996
 11
-219.996309999999990
 21
-94.358582999999996
  0
LINE
  8
0
  6
CONTINUOUS
 62
256
 10
-225.996309999999990
 20
-100.358583000000000
 11
-219.996309999999990
 21
-100.358583000000000
  0
LINE
  8
0
  6
DASHDOT
 62
256
 10
-222.996309999999990
 20
-91.270486000000005
 11
-222.996309999999990
 21
-121.946974999999990
  0
LINE
  8
0
  6
DASHDOT
 62
256
 10
-236.952743000000000
 20
-107.858583000000000
 11
-208.342011000000010
 21
-107.858583000000000
  0
CIRCLE
  8
0
  6
CONTINUOUS
 62
256
 10
-222.996309999999990
 20
-107.858583000000000
 40
4.000000000000000
  0
CIRCLE
  8
0
  6
CONTINUOUS
 62
256
 10
-222.996309999999990
 20
-107.858583000000000
 40
3.500000000000000
  0
POINT
  8
0
  6
CONTINUOUS
 62
256
 10
-222.996309999999990
 20
-96.858582999999996
  0
ARC
  8
0
  6
CONTINUOUS
 62
256
 10
-721.414308000000010
 20
-120.858583000000000
 40
400.599999999999970
 50
3.434655000000000
 51
5.743682000000000
  0
LINE
  8
0
  6
DASHDOT
 62
256
 10
-329.776538000000020
 20
-65.858582999999996
 11
-419.593492000000030
 21
-65.858582999999996
  0
LINE
  8
0
  6
CONTINUOUS
 62
256
 10
-325.314381000000030
 20
-119.858583000000000
 11
-325.314381000000030
 21
-95.858582999999996
  0
LINE
  8
0
  6
CONTINUOUS
 62
256
 10
-327.314307999999980
 20
-119.858583000000000
 11
-325.314381000000030
 21
-119.858583000000000
  0
LINE
  8
0
  6
CONTINUOUS
 62
256
 10
-327.314307999999980
 20
-95.858582999999996
 11
-325.314381000000030
 21
-95.858582999999996
  0
LINE
  8
0
  6
CONTINUOUS
 62
256
 10
-317.314381000000030
 20
-96.858582999999996
 11
-285.314381000000030
 21
-96.858582999999996
  0
LINE
  8
0
  6
CONTINUOUS
 62
256
 10
-285.314381000000030
 20
-118.858583000000000
 11
-285.314381000000030
 21
-94.358582999999996
  0
LINE
  8
0
  6
CONTINUOUS
 62
256
 10
-317.314381000000030
 20
-94.358582999999996
 11
-285.314398999999980
 21
-94.358582999999996
  0
LINE
  8
0
  6
CONTINUOUS
 62
256
 10
-325.314381000000030
 20
-118.858583000000000
 11
-285.314381000000030
 21
-118.858583000000000
  0
LINE
  8
0
  6
CONTINUOUS
 62
256
 10
-325.314381000000030
 20
-96.858582999999996
 11
-317.314381000000030
 21
-96.858582999999996
  0
LINE
  8
0
  6
CONTINUOUS
 62
256
 10
-317.314381000000030
 20
-94.358582999999996
 11
-317.314381000000030
 21
-96.858582999999996
  0
LINE
  8
0
  6
CONTINUOUS
 62
256
 10
-418.584218000000020
 20
-171.275296000000000
 11
-419.071020999999970
 21
-171.762100000000000
  0
ARC
  8
0
  6
CONTINUOUS
 62
256
 10
-419.644878000000010
 20
-165.689153000000000
 40
6.099999000000008
 50
174.601927999999870
 51
275.398089000000200
  0
POINT
  8
0
  6
CONTINUOUS
 62
256
 10
-421.907619000000010
 20
-167.951895000000010
  0
LINE
  8
0
  6
CONTINUOUS
 62
256
 10
-418.584218000000020
 20
-171.275296000000000
 11
-425.231021000000000
 21
-164.628492999999990
  0
LINE
  8
0
  6
CONTINUOUS
 62
256
 10
-418.836765000000010
 20
-171.588435000000000
 11
-425.513864000000010
 21
-164.911336000000010
  0
LINE
  8
0
  6
CONTINUOUS
 62
256
 10
-425.231021000000000
 20
-164.628492999999990
 11
-425.717825000000000
 21
-165.115296000000000
  0
LINE
  8
0
  6
CONTINUOUS
 62
256
 10
-419.991573000000020
 20
-169.867941000000000
 11
-424.903159000000020
 21
-164.956355000000000
  0
ARC
  8
0
  6
CONTINUOUS
 62
256
 10
-28.214307999999999
 20
-120.858583000000000
 40
400.600000000000020
 50
180.000000000000000
 51
185.743681999999980
  0
ARC
  8
0
  6
CONTINUOUS
 62
256
 10
-420.236255000000030
 20
-160.289449999999990
 40
6.599999999999971
 50
185.743681999999920
 51
220.971507999999910
  0
ARC
  8
0
  6
CONTINUOUS
 62
256
 10
-420.236255000000030
 20
-81.427716000000004
 40
6.600000000000017
 50
135.000000000000170
 51
174.256317999999940
  0
ARC
  8
0
  6
CONTINUOUS
 62
256
 10
-28.214307999999999
 20
-120.858583000000000
 40
400.600000000000080
 50
174.256317999999990
 51
180.000000000000000
  0
LINE
  8
0
  6
CONTINUOUS
 62
256
 10
-422.314307999999980
 20
-74.171959999999999
 11
-424.903159000000020
 21
-76.760811000000004
  0
LINE
  8
0
  6
CONTINUOUS
 62
256
 10
-331.314307999999980
 20
-171.545206000000010
 11
-324.725456000000010
 21
-164.956355000000000
  0
ARC
  8
0
  6
CONTINUOUS
 62
256
 10
-721.414308000000010
 20
-120.858583000000000
 40
400.600000000000020
 50
354.256318000000020
 51
0.000000000000000
  0
ARC
  8
0
  6
CONTINUOUS
 62
256
 10
-329.392360999999990
 20
-160.289449999999990
 40
6.600000000000017
 50
315.000000000000170
 51
354.256318000000020
  0
LINE
  8
0
  6
CONTINUOUS
 62
256
 10
-327.314307999999980
 20
-74.171959999999999
 11
-324.725456000000010
 21
-76.760811000000004
  0
ARC
  8
0
  6
CONTINUOUS
 62
256
 10
-721.414308000000010
 20
-120.858583000000000
 40
400.600000000000020
 50
0.000000000000000
 51
0.286051000000000
  0
ARC
  8
0
  6
CONTINUOUS
 62
256
 10
-329.392360999999990
 20
-81.427716000000004
 40
6.599999999999973
 50
5.743682000000063
 51
44.999999999999829
  0
ARC
  8
0
  6
CONTINUOUS
 62
256
 10
-374.814307999999980
 20
-329.358583000000010
 40
300.000000000000000
 50
83.967950999999999
 51
96.032049000000001
  0
ARC
  8
0
  6
CONTINUOUS
 62
256
 10
-405.814307999999980
 20
-35.991917999999998
 40
5.000000000000002
 50
96.032049000000001
 51
180.000000000000000
  0
ARC
  8
0
  6
CONTINUOUS
 62
256
 10
-343.814307999999980
 20
-35.991917999999998
 40
5.000000000000000
 50
0.000000000000000
 51
83.967950999999999
  0
LINE
  8
0
  6
CONTINUOUS
 62
256
 10
-372.314307999999980
 20
-28.858582999999999
 11
-372.314307999999980
 21
-29.369000000000000
  0
LINE
  8
0
  6
CONTINUOUS
 62
256
 10
-372.314307999999980
 20
-28.858582999999999
 11
-377.314307999999980
 21
-28.858582999999999
  0
LINE
  8
0
  6
CONTINUOUS
 62
256
 10
-377.314307999999980
 20
-28.858582999999999
 11
-377.314307999999980
 21
-29.369000000000000
  0
LINE
  8
0
  6
CONTINUOUS
 62
256
 10
-338.814307999999980
 20
-56.028072000000002
 11
-338.814307999999980
 21
-35.991917999999998
  0
LINE
  8
0
  6
CONTINUOUS
 62
256
 10
-410.814307999999980
 20
-54.919676000000003
 11
-410.814307999999980
 21
-35.991917999999998
  0
ARC
  8
0
  6
CONTINUOUS
 62
256
 10
-374.814307999999980
 20
-120.858583000000000
 40
53.499999999999979
 50
324.398361000000020
 51
2.142396999999993
  0
ARC
  8
0
  6
CONTINUOUS
 62
256
 10
-374.814307999999980
 20
-120.858583000000000
 40
53.500000000000014
 50
152.604367999999990
 51
215.601638999999980
  0
LINE
  8
0
  6
CONTINUOUS
 62
256
 10
-407.064307999999980
 20
-181.862946999999990
 11
-418.314307999999980
 21
-181.666576999999990
  0
LINE
  8
0
  6
CONTINUOUS
 62
256
 10
-407.814307999999980
 20
-181.876037999999990
 11
-407.814307999999980
 21
-172.746080000000010
  0
LINE
  8
0
  6
CONTINUOUS
 62
256
 10
-407.814307999999980
 20
-181.876037999999990
 11
-407.814307999999980
 21
-177.367310000000000
  0
LINE
  8
0
  6
CONTINUOUS
 62
256
 10
-407.814307999999980
 20
-181.876037999999990
 11
-340.814307999999980
 21
-180.706549000000000
  0
LINE
  8
0
  6
CONTINUOUS
 62
256
 10
-331.314307999999980
 20
-180.706549000000000
 11
-331.314307999999980
 21
-167.140222999999990
  0
LINE
  8
0
  6
CONTINUOUS
 62
256
 10
-340.814307999999980
 20
-180.706549000000000
 11
-331.314307999999980
 21
-180.706549000000000
  0
LINE
  8
0
  6
CONTINUOUS
 62
256
 10
-331.314307999999980
 20
-145.349854999999990
 11
-327.314307999999980
 21
-145.349854999999990
  0
LINE
  8
0
  6
CONTINUOUS
 62
256
 10
-407.814307999999980
 20
-54.867310000000003
 11
-418.314307999999980
 21
-55.050589000000002
  0
LINE
  8
0
  6
CONTINUOUS
 62
256
 10
-407.814307999999980
 20
-54.858583000000003
 11
-340.814307999999980
 21
-56.028072000000002
  0
LINE
  8
0
  6
CONTINUOUS
 62
256
 10
-407.814307999999980
 20
-172.746080000000010
 11
-407.814307999999980
 21
-58.349854999999998
  0
LINE
  8
0
  6
CONTINUOUS
 62
256
 10
-407.814307999999980
 20
-54.849854999999998
 11
-407.814307999999980
 21
-59.358583000000003
  0
LINE
  8
0
  6
CONTINUOUS
 62
256
 10
-331.314307999999980
 20
-167.140222999999990
 11
-331.314307999999980
 21
-56.028072000000002
  0
LINE
  8
0
  6
CONTINUOUS
 62
256
 10
-340.814307999999980
 20
-56.028072000000002
 11
-331.314307999999980
 21
-56.028072000000002
  0
LINE
  8
0
  6
CONTINUOUS
 62
256
 10
-327.314307999999980
 20
-70.367310000000003
 11
-327.314307999999980
 21
-145.349854999999990
  0
LINE
  8
0
  6
CONTINUOUS
 62
256
 10
-331.314307999999980
 20
-70.367310000000003
 11
-327.314307999999980
 21
-70.367310000000003
  0
LINE
  8
0
  6
CONTINUOUS
 62
256
 10
-422.314307999999980
 20
-145.358583000000010
 11
-418.314307999999980
 21
-145.358583000000010
  0
LINE
  8
0
  6
CONTINUOUS
 62
256
 10
-418.314307999999980
 20
-55.050589000000002
 11
-418.314307999999980
 21
-181.666576999999990
  0
LINE
  8
0
  6
CONTINUOUS
 62
256
 10
-422.314307999999980
 20
-70.358582999999996
 11
-418.314307999999980
 21
-70.358582999999996
  0
LINE
  8
0
  6
CONTINUOUS
 62
256
 10
-422.314307999999980
 20
-70.358582999999996
 11
-422.314307999999980
 21
-145.358583000000010
  0
ARC
  8
0
  6
CONTINUOUS
 62
256
 10
-419.846662999999980
 20
-80.068867999999995
 40
2.999999999999977
 50
145.340699999999830
 51
214.659300000000170
  0
LINE
  8
0
  6
CONTINUOUS
 62
256
 10
-331.314307999999980
 20
-155.873302000000000
 11
-327.660632000000020
 21
-159.526976999999990
  0
LINE
  8
0
  6
CONTINUOUS
 62
256
 10
-418.314307999999980
 20
-155.873302000000000
 11
-421.967984000000000
 21
-159.526976999999990
  0
LINE
  8
0
  6
CONTINUOUS
 62
256
 10
-321.314307999999980
 20
-140.358583000000010
 11
-321.314307999999980
 21
-118.858583000000000
  0
LINE
  8
0
  6
CONTINUOUS
 62
256
 10
-428.314307999999980
 20
-101.358583000000000
 11
-428.314307999999980
 21
-140.358583000000010
  0
ARC
  8
0
  6
CONTINUOUS
 62
256
 10
-347.314307999999980
 20
-93.358582999999996
 40
24.999999999999979
 50
5.730175000000014
 51
36.869897999999999
  0
ARC
  8
0
  6
CONTINUOUS
 62
256
 10
-722.314307999999980
 20
-100.858583000000000
 40
400.000000000000060
 50
0.572967000000000
 51
1.431984000000000
  0
ARC
  8
0
  6
CONTINUOUS
 62
256
 10
-347.314307999999980
 20
-148.358583000000010
 40
24.999999999999986
 50
309.791818999999920
 51
354.269824999999970
  0
ARC
  8
0
  6
CONTINUOUS
 62
256
 10
-722.314307999999980
 20
-140.858583000000010
 40
400.000000000000000
 50
358.568016000000060
 51
359.928470000000000
  0
ARC
  8
0
  6
CONTINUOUS
 62
256
 10
-402.314307999999980
 20
-148.358583000000010
 40
25.000000000000007
 50
176.561350000000030
 51
230.208180999999880
  0
ARC
  8
0
  6
CONTINUOUS
 62
256
 10
-27.314308000000000
 20
-140.858583000000010
 40
400.000000000000000
 50
180.071529999999970
 51
180.859540999999980
  0
ARC
  8
0
  6
CONTINUOUS
 62
256
 10
-402.314307999999980
 20
-93.358582999999996
 40
25.000000000000011
 50
143.130101999999990
 51
174.269825000000000
  0
ARC
  8
0
  6
CONTINUOUS
 62
256
 10
-27.314308000000000
 20
-100.858583000000000
 40
400.000000000000000
 50
178.568016000000000
 51
179.928470000000000
  0
ARC
  8
0
  6
CONTINUOUS
 62
256
 10
-329.781952999999990
 20
-80.068867999999995
 40
2.999999999999977
 50
325.340699999999860
 51
34.659300000000187
  0
ARC
  8
0
  6
CONTINUOUS
 62
256
 10
-329.781952999999990
 20
-161.648298000000010
 40
2.999999999999989
 50
322.837479999999800
 51
44.999999999999616
  0
ARC
  8
0
  6
CONTINUOUS
 62
256
 10
-331.722589000000030
 20
-163.879481000000000
 40
2.999999999999995
 50
277.821860000000410
 51
315.130421000000180
  0
ARC
  8
0
  6
CONTINUOUS
 62
256
 10
-417.906026999999990
 20
-163.879481000000000
 40
3.000000000000027
 50
224.869578999999760
 51
262.178139999999590
  0
ARC
  8
0
  6
CONTINUOUS
 62
256
 10
-419.846662999999980
 20
-161.648298000000010
 40
3.000000000000004
 50
135.000000000000370
 51
217.162520000000170
  0
ARC
  8
0
  6
CONTINUOUS
 62
256
 10
-321.814307999999980
 20
-141.358583000000010
 40
0.500000000000000
 50
90.000000000000000
 51
180.000000000000000
  0
ARC
  8
0
  6
CONTINUOUS
 62
256
 10
-321.814307999999980
 20
-140.358583000000010
 40
0.500000000000000
 50
270.000000000000000
 51
0.000000000000000
  0
ARC
  8
0
  6
CONTINUOUS
 62
256
 10
-427.814307999999980
 20
-141.358583000000010
 40
0.500000000000000
 50
0.000000000000000
 51
90.000000000000000
  0
ARC
  8
0
  6
CONTINUOUS
 62
256
 10
-427.814307999999980
 20
-100.358583000000000
 40
0.500000000000000
 50
270.000000000000000
 51
0.000000000000000
  0
ARC
  8
0
  6
CONTINUOUS
 62
256
 10
-427.814307999999980
 20
-101.358583000000000
 40
0.500000000000000
 50
90.000000000000000
 51
180.000000000000000
  0
ARC
  8
0
  6
CONTINUOUS
 62
256
 10
-427.814307999999980
 20
-140.358583000000010
 40
0.500000000000000
 50
180.000000000000000
 51
270.000000000000000
  0
LINE
  8
0
  6
DASHDOT
 62
256
 10
-374.814307999999980
 20
-184.870893999999990
 11
-374.814307999999980
 21
-23.945202999999999
  0
LINE
  8
0
  6
DASHDOT
 62
256
 10
-366.906237999999970
 20
-120.858583000000000
 11
-382.406799999999980
 21
-120.858583000000000
  0
LINE
  8
0
  6
DASHDOT
 62
256
 10
-435.435039000000020
 20
-107.858583000000000
 11
-283.314125999999990
 21
-107.858583000000000
  0
ARC
  8
0
  6
CONTINUOUS
 62
256
 10
151.767642999999990
 20
-82.458583000000004
 40
20.600000000000001
 50
55.000000000000028
 51
90.000000000000000
  0
ARC
  8
0
  6
CONTINUOUS
 62
256
 10
169.662798000000010
 20
-73.014962999999995
 40
2.599999999999994
 50
0.000000000000000
 51
54.999999999999979
  0
LINE
  8
0
  6
CONTINUOUS
 62
256
 10
163.583317999999990
 20
-65.584051000000002
 11
171.154097000000010
 21
-70.885167999999993
  0
LINE
  8
0
  6
CONTINUOUS
 62
256
 10
172.262798000000000
 20
-73.014962999999995
 11
172.262798000000000
 21
-120.858583000000000
  0
LINE
  8
0
  6
CONTINUOUS
 62
256
 10
96.262798000000004
 20
-79.816669000000005
 11
12.262798000000000
 21
-79.816669000000005
  0
LINE
  8
0
  6
CONTINUOUS
 62
256
 10
96.262798000000004
 20
-74.725499999999997
 11
12.262798000000000
 21
-74.725499999999997
  0
LINE
  8
0
  6
CONTINUOUS
 62
256
 10
96.262798000000004
 20
-70.358582999999996
 11
12.262798000000000
 21
-70.358582999999996
  0
LINE
  8
0
  6
CONTINUOUS
 62
256
 10
96.262798000000004
 20
-69.858582999999996
 11
12.262798000000000
 21
-69.858582999999996
  0
LINE
  8
0
  6
CONTINUOUS
 62
256
 10
12.262798000000000
 20
-67.358582999999996
 11
14.062798000000001
 21
-67.358582999999996
  0
LINE
  8
0
  6
CONTINUOUS
 62
256
 10
14.062798000000001
 20
-68.358582999999996
 11
14.062798000000001
 21
-30.358582999999999
  0
ARC
  8
0
  6
CONTINUOUS
 62
256
 10
15.062798000000001
 20
-30.358582999999999
 40
1.000000000000000
 50
90.000000000000000
 51
180.000000000000000
  0
LINE
  8
0
  6
CONTINUOUS
 62
256
 10
103.062798000000000
 20
-29.358582999999999
 11
15.062798000000001
 21
-29.358582999999999
  0
ARC
  8
0
  6
CONTINUOUS
 62
256
 10
103.062798000000000
 20
-30.358582999999999
 40
1.000000000000000
 50
0.000000000000000
 51
90.000000000000000
  0
LINE
  8
0
  6
CONTINUOUS
 62
256
 10
97.062798000000001
 20
-28.858582999999999
 11
89.062798000000001
 21
-28.858582999999999
  0
LINE
  8
0
  6
CONTINUOUS
 62
256
 10
29.062798000000001
 20
-28.858582999999999
 11
21.062798000000001
 21
-28.858582999999999
  0
LINE
  8
0
  6
CONTINUOUS
 62
256
 10
29.062798000000001
 20
-29.358582999999999
 11
29.062798000000001
 21
-28.858582999999999
  0
LINE
  8
0
  6
CONTINUOUS
 62
256
 10
21.062798000000001
 20
-29.358582999999999
 11
21.062798000000001
 21
-28.858582999999999
  0
LINE
  8
0
  6
CONTINUOUS
 62
256
 10
89.062798000000001
 20
-29.358582999999999
 11
89.062798000000001
 21
-28.858582999999999
  0
LINE
  8
0
  6
CONTINUOUS
 62
256
 10
97.062798000000001
 20
-29.358582999999999
 11
97.062798000000001
 21
-28.858582999999999
  0
LINE
  8
0
  6
CONTINUOUS
 62
256
 10
14.062798000000001
 20
-68.358582999999996
 11
96.262798000000004
 21
-68.358582999999996
  0
POLYLINE
  8
0
  6
CONTINUOUS
 62
256
 66
1
 70
1
  0
VERTEX
  8
0
  6
CONTINUOUS
 62
256
 10
111.962797999999990
 20
-73.531251999999995
  0
VERTEX
  8
0
  6
CONTINUOUS
 62
256
 10
111.872488817895170
 20
-72.828295489441828
  0
VERTEX
  8
0
  6
CONTINUOUS
 62
256
 10
111.605031802803040
 20
-72.152353203361855
  0
VERTEX
  8
0
  6
CONTINUOUS
 62
256
 10
111.170705177821960
 20
-71.529401224741335
  0
VERTEX
  8
0
  6
CONTINUOUS
 62
256
 10
110.586199871576770
 20
-70.983379248763157
  0
VERTEX
  8
0
  6
CONTINUOUS
 62
256
 10
109.873978095192130
 20
-70.535270593751505
  0
VERTEX
  8
0
  6
CONTINUOUS
 62
256
 10
109.061410132115920
 20
-70.202295824016247
  0
VERTEX
  8
0
  6
CONTINUOUS
 62
256
 10
108.179722513475810
 20
-69.997250973223927
  0
VERTEX
  8
0
  6
CONTINUOUS
 62
256
 10
107.262798000000000
 20
-69.928015799999997
  0
VERTEX
  8
0
  6
CONTINUOUS
 62
256
 10
106.345873486524200
 20
-69.997250973223927
  0
VERTEX
  8
0
  6
CONTINUOUS
 62
256
 10
105.464185867884080
 20
-70.202295824016247
  0
VERTEX
  8
0
  6
CONTINUOUS
 62
256
 10
104.651617904807880
 20
-70.535270593751505
  0
VERTEX
  8
0
  6
CONTINUOUS
 62
256
 10
103.939396128423240
 20
-70.983379248763157
  0
VERTEX
  8
0
  6
CONTINUOUS
 62
256
 10
103.354890822178050
 20
-71.529401224741335
  0
VERTEX
  8
0
  6
CONTINUOUS
 62
256
 10
102.920564197196970
 20
-72.152353203361855
  0
VERTEX
  8
0
  6
CONTINUOUS
 62
256
 10
102.653107182104830
 20
-72.828295489441828
  0
VERTEX
  8
0
  6
CONTINUOUS
 62
256
 10
102.562798000000020
 20
-73.531251999999995
  0
VERTEX
  8
0
  6
CONTINUOUS
 62
256
 10
102.653107182104830
 20
-74.234208510558162
  0
VERTEX
  8
0
  6
CONTINUOUS
 62
256
 10
102.920564197196970
 20
-74.910150796638135
  0
VERTEX
  8
0
  6
CONTINUOUS
 62
256
 10
103.354890822178050
 20
-75.533102775258655
  0
VERTEX
  8
0
  6
CONTINUOUS
 62
256
 10
103.939396128423240
 20
-76.079124751236833
  0
VERTEX
  8
0
  6
CONTINUOUS
 62
256
 10
104.651617904807880
 20
-76.527233406248484
  0
VERTEX
  8
0
  6
CONTINUOUS
 62
256
 10
105.464185867884080
 20
-76.860208175983729
  0
VERTEX
  8
0
  6
CONTINUOUS
 62
256
 10
106.345873486524200
 20
-77.065253026776062
  0
VERTEX
  8
0
  6
CONTINUOUS
 62
256
 10
107.262798000000000
 20
-77.134488199999993
  0
VERTEX
  8
0
  6
CONTINUOUS
 62
256
 10
108.179722513475800
 20
-77.065253026776062
  0
VERTEX
  8
0
  6
CONTINUOUS
 62
256
 10
109.061410132115920
 20
-76.860208175983743
  0
VERTEX
  8
0
  6
CONTINUOUS
 62
256
 10
109.873978095192130
 20
-76.527233406248484
  0
VERTEX
  8
0
  6
CONTINUOUS
 62
256
 10
110.586199871576770
 20
-76.079124751236833
  0
VERTEX
  8
0
  6
CONTINUOUS
 62
256
 10
111.170705177821960
 20
-75.533102775258655
  0
VERTEX
  8
0
  6
CONTINUOUS
 62
256
 10
111.605031802803040
 20
-74.910150796638135
  0
VERTEX
  8
0
  6
CONTINUOUS
 62
256
 10
111.872488817895170
 20
-74.234208510558162
  0
SEQEND
  8
0
  6
CONTINUOUS
 62
256
  0
LINE
  8
0
  6
CONTINUOUS
 62
256
 10
109.262798000000000
 20
-70.538876000000002
 11
107.262798000000000
 21
-71.714662000000004
  0
LINE
  8
0
  6
CONTINUOUS
 62
256
 10
107.262798000000000
 20
-71.714662000000004
 11
105.262798000000000
 21
-73.367304000000004
  0
LINE
  8
0
  6
CONTINUOUS
 62
256
 10
105.262798000000000
 20
-70.538876000000002
 11
107.262798000000000
 21
-71.714662000000004
  0
LINE
  8
0
  6
CONTINUOUS
 62
256
 10
107.262798000000000
 20
-71.714662000000004
 11
109.262798000000000
 21
-73.367304000000004
  0
LINE
  8
0
  6
CONTINUOUS
 62
256
 10
96.262798000000004
 20
-69.518887000000007
 11
96.262798000000004
 21
-120.858583000000000
  0
ARC
  8
0
  6
CONTINUOUS
 62
256
 10
99.262798000000004
 20
-69.518887000000007
 40
3.000000000000000
 50
90.000000000000000
 51
180.000000000000000
  0
LINE
  8
0
  6
CONTINUOUS
 62
256
 10
103.262798000000000
 20
-66.518887000000007
 11
99.262798000000004
 21
-66.518887000000007
  0
ARC
  8
0
  6
CONTINUOUS
 62
256
 10
103.262798000000000
 20
-63.518886999999999
 40
3.000000000000007
 50
270.000000000000000
 51
0.000000000000000
  0
LINE
  8
0
  6
CONTINUOUS
 62
256
 10
106.262798000000000
 20
-61.858583000000003
 11
151.767642999999990
 21
-61.858583000000003
  0
LINE
  8
0
  6
CONTINUOUS
 62
256
 10
106.262798000000000
 20
-61.858583000000003
 11
106.262798000000000
 21
-63.518886999999999
  0
LINE
  8
0
  6
CONTINUOUS
 62
256
 10
104.062798000000000
 20
-66.410252999999997
 11
104.062798000000000
 21
-30.358582999999999
  0
LINE
  8
0
  6
CONTINUOUS
 62
256
 10
104.062798000000000
 20
-63.358583000000003
 11
14.062798000000001
 21
-63.358583000000003
  0
POLYLINE
  8
0
  6
CONTINUOUS
 62
256
 66
1
 70
1
  0
VERTEX
  8
0
  6
CONTINUOUS
 62
256
 10
111.962797999999990
 20
-168.185914000000000
  0
VERTEX
  8
0
  6
CONTINUOUS
 62
256
 10
111.872488817895170
 20
-167.482957489441820
  0
VERTEX
  8
0
  6
CONTINUOUS
 62
256
 10
111.605031802803040
 20
-166.807015203361860
  0
VERTEX
  8
0
  6
CONTINUOUS
 62
256
 10
111.170705177821960
 20
-166.184063224741320
  0
VERTEX
  8
0
  6
CONTINUOUS
 62
256
 10
110.586199871576770
 20
-165.638041248763160
  0
VERTEX
  8
0
  6
CONTINUOUS
 62
256
 10
109.873978095192130
 20
-165.189932593751510
  0
VERTEX
  8
0
  6
CONTINUOUS
 62
256
 10
109.061410132115920
 20
-164.856957824016260
  0
VERTEX
  8
0
  6
CONTINUOUS
 62
256
 10
108.179722513475810
 20
-164.651912973223920
  0
VERTEX
  8
0
  6
CONTINUOUS
 62
256
 10
107.262798000000000
 20
-164.582677800000000
  0
VERTEX
  8
0
  6
CONTINUOUS
 62
256
 10
106.345873486524200
 20
-164.651912973223920
  0
VERTEX
  8
0
  6
CONTINUOUS
 62
256
 10
105.464185867884080
 20
-164.856957824016260
  0
VERTEX
  8
0
  6
CONTINUOUS
 62
256
 10
104.651617904807880
 20
-165.189932593751510
  0
VERTEX
  8
0
  6
CONTINUOUS
 62
256
 10
103.939396128423240
 20
-165.638041248763160
  0
VERTEX
  8
0
  6
CONTINUOUS
 62
256
 10
103.354890822178050
 20
-166.184063224741320
  0
VERTEX
  8
0
  6
CONTINUOUS
 62
256
 10
102.920564197196970
 20
-166.807015203361860
  0
VERTEX
  8
0
  6
CONTINUOUS
 62
256
 10
102.653107182104830
 20
-167.482957489441820
  0
VERTEX
  8
0
  6
CONTINUOUS
 62
256
 10
102.562798000000020
 20
-168.185914000000000
  0
VERTEX
  8
0
  6
CONTINUOUS
 62
256
 10
102.653107182104830
 20
-168.888870510558180
  0
VERTEX
  8
0
  6
CONTINUOUS
 62
256
 10
102.920564197196970
 20
-169.564812796638140
  0
VERTEX
  8
0
  6
CONTINUOUS
 62
256
 10
103.354890822178050
 20
-170.187764775258670
  0
VERTEX
  8
0
  6
CONTINUOUS
 62
256
 10
103.939396128423240
 20
-170.733786751236830
  0
VERTEX
  8
0
  6
CONTINUOUS
 62
256
 10
104.651617904807880
 20
-171.181895406248490
  0
VERTEX
  8
0
  6
CONTINUOUS
 62
256
 10
105.464185867884080
 20
-171.514870175983730
  0
VERTEX
  8
0
  6
CONTINUOUS
 62
256
 10
106.345873486524200
 20
-171.719915026776050
  0
VERTEX
  8
0
  6
CONTINUOUS
 62
256
 10
107.262798000000000
 20
-171.789150199999990
  0
VERTEX
  8
0
  6
CONTINUOUS
 62
256
 10
108.179722513475800
 20
-171.719915026776050
  0
VERTEX
  8
0
  6
CONTINUOUS
 62
256
 10
109.061410132115920
 20
-171.514870175983730
  0
VERTEX
  8
0
  6
CONTINUOUS
 62
256
 10
109.873978095192130
 20
-171.181895406248490
  0
VERTEX
  8
0
  6
CONTINUOUS
 62
256
 10
110.586199871576770
 20
-170.733786751236830
  0
VERTEX
  8
0
  6
CONTINUOUS
 62
256
 10
111.170705177821960
 20
-170.187764775258670
  0
VERTEX
  8
0
  6
CONTINUOUS
 62
256
 10
111.605031802803040
 20
-169.564812796638140
  0
VERTEX
  8
0
  6
CONTINUOUS
 62
256
 10
111.872488817895170
 20
-168.888870510558180
  0
SEQEND
  8
0
  6
CONTINUOUS
 62
256
  0
LINE
  8
0
  6
CONTINUOUS
 62
256
 10
109.262798000000000
 20
-171.178289000000010
 11
107.262798000000000
 21
-170.002503999999990
  0
LINE
  8
0
  6
CONTINUOUS
 62
256
 10
107.262798000000000
 20
-170.002503999999990
 11
105.262798000000000
 21
-168.349862000000000
  0
LINE
  8
0
  6
CONTINUOUS
 62
256
 10
105.262798000000000
 20
-171.178289000000010
 11
107.262798000000000
 21
-170.002503999999990
  0
LINE
  8
0
  6
CONTINUOUS
 62
256
 10
107.262798000000000
 20
-170.002503999999990
 11
109.262798000000000
 21
-168.349862000000000
  0
LINE
  8
0
  6
CONTINUOUS
 62
256
 10
96.262798000000004
 20
-179.858583000000010
 11
96.262798000000004
 21
-120.858583000000000
  0
ARC
  8
0
  6
CONTINUOUS
 62
256
 10
151.767642999999990
 20
-159.258582999999990
 40
20.599999999999994
 50
270.000000000000000
 51
305.000000000000000
  0
ARC
  8
0
  6
CONTINUOUS
 62
256
 10
169.662798000000010
 20
-168.702203000000000
 40
2.599999999999996
 50
305.000000000000230
 51
0.000000000000000
  0
LINE
  8
0
  6
CONTINUOUS
 62
256
 10
172.262798000000000
 20
-168.702203000000000
 11
172.262798000000000
 21
-120.858583000000000
  0
LINE
  8
0
  6
CONTINUOUS
 62
256
 10
163.583317999999990
 20
-176.133115000000000
 11
171.154097000000010
 21
-170.831998000000000
  0
LINE
  8
0
  6
CONTINUOUS
 62
256
 10
96.262798000000004
 20
-179.858583000000010
 11
151.767642999999990
 21
-179.858583000000010
  0
LINE
  8
0
  6
CONTINUOUS
 62
256
 10
12.262798000000000
 20
-67.358582999999996
 11
12.262798000000000
 21
-120.858583000000000
  0
LINE
  8
0
  6
DASHDOT
 62
256
 10
-27.662644000000000
 20
-120.858583000000000
 11
180.580761999999990
 21
-120.858583000000000
  0
LINE
  8
0
  6
CONTINUOUS
 62
256
 10
96.262798000000004
 20
-106.858583000000000
 11
12.262798000000000
 21
-106.858583000000000
  0
LINE
  8
0
  6
CONTINUOUS
 62
256
 10
96.262798000000004
 20
-102.472468000000010
 11
12.262798000000000
 21
-102.472468000000010
  0
LINE
  8
0
  6
CONTINUOUS
 62
256
 10
96.262798000000004
 20
-101.230548000000000
 11
12.262798000000000
 21
-101.230548000000000
  0
LINE
  8
0
  6
CONTINUOUS
 62
256
 10
96.262798000000004
 20
-98.020342999999997
 11
12.262798000000000
 21
-98.020342999999997
  0
LINE
  8
0
  6
CONTINUOUS
 62
256
 10
96.262798000000004
 20
-96.673941999999997
 11
12.262798000000000
 21
-96.673941999999997
  0
LINE
  8
0
  6
CONTINUOUS
 62
256
 10
96.262798000000004
 20
-93.581210999999996
 11
12.262798000000000
 21
-93.581210999999996
  0
LINE
  8
0
  6
CONTINUOUS
 62
256
 10
96.262798000000004
 20
-92.102187000000001
 11
12.262798000000000
 21
-92.102187000000001
  0
LINE
  8
0
  6
CONTINUOUS
 62
256
 10
96.262798000000004
 20
-89.144192000000004
 11
12.262798000000000
 21
-89.144192000000004
  0
LINE
  8
0
  6
CONTINUOUS
 62
256
 10
96.262798000000004
 20
-87.554981999999995
 11
12.262798000000000
 21
-87.554981999999995
  0
LINE
  8
0
  6
CONTINUOUS
 62
256
 10
12.262798000000000
 20
-174.358583000000010
 11
12.262798000000000
 21
-120.858583000000000
  0
LINE
  8
0
  6
CONTINUOUS
 62
256
 10
96.262798000000004
 20
-171.858583000000010
 11
12.262798000000000
 21
-171.858583000000010
  0
LINE
  8
0
  6
CONTINUOUS
 62
256
 10
96.262798000000004
 20
-171.358583000000010
 11
12.262798000000000
 21
-171.358583000000010
  0
LINE
  8
0
  6
CONTINUOUS
 62
256
 10
96.262798000000004
 20
-166.991666000000010
 11
12.262798000000000
 21
-166.991666000000010
  0
LINE
  8
0
  6
CONTINUOUS
 62
256
 10
96.262798000000004
 20
-161.900497000000000
 11
12.262798000000000
 21
-161.900497000000000
  0
LINE
  8
0
  6
CONTINUOUS
 62
256
 10
96.262798000000004
 20
-154.162184000000000
 11
12.262798000000000
 21
-154.162184000000000
  0
LINE
  8
0
  6
CONTINUOUS
 62
256
 10
96.262798000000004
 20
-152.572973999999990
 11
12.262798000000000
 21
-152.572973999999990
  0
LINE
  8
0
  6
CONTINUOUS
 62
256
 10
96.262798000000004
 20
-149.614979000000010
 11
12.262798000000000
 21
-149.614979000000010
  0
LINE
  8
0
  6
CONTINUOUS
 62
256
 10
96.262798000000004
 20
-148.135955000000000
 11
12.262798000000000
 21
-148.135955000000000
  0
LINE
  8
0
  6
CONTINUOUS
 62
256
 10
96.262798000000004
 20
-145.043224000000010
 11
12.262798000000000
 21
-145.043224000000010
  0
LINE
  8
0
  6
CONTINUOUS
 62
256
 10
96.262798000000004
 20
-143.696822999999990
 11
12.262798000000000
 21
-143.696822999999990
  0
LINE
  8
0
  6
CONTINUOUS
 62
256
 10
96.262798000000004
 20
-139.244698000000000
 11
12.262798000000000
 21
-139.244698000000000
  0
LINE
  8
0
  6
CONTINUOUS
 62
256
 10
96.262798000000004
 20
-140.486617999999990
 11
12.262798000000000
 21
-140.486617999999990
  0
LINE
  8
0
  6
CONTINUOUS
 62
256
 10
96.262798000000004
 20
-134.858583000000010
 11
12.262798000000000
 21
-134.858583000000010
  0
LINE
  8
0
  6
CONTINUOUS
 62
256
 10
12.262798000000000
 20
-174.358583000000010
 11
96.262798000000004
 21
-174.358583000000010
  0
LINE
  8
0
  6
CONTINUOUS
 62
256
 10
12.262798000000000
 20
-67.358582999999996
 11
12.262798000000000
 21
-120.858583000000000
  0
LINE
  8
0
  6
CONTINUOUS
 62
256
 10
12.262798000000000
 20
-174.358583000000010
 11
12.262798000000000
 21
-120.858583000000000
  0
LINE
  8
0
  6
CONTINUOUS
 62
256
 10
7.262798000000000
 20
-73.358582999999996
 11
7.262798000000000
 21
-70.324129999999997
  0
LINE
  8
0
  6
CONTINUOUS
 62
256
 10
4.262798000000000
 20
-76.358582999999996
 11
-0.737202000000000
 21
-76.358582999999996
  0
LINE
  8
0
  6
CONTINUOUS
 62
256
 10
5.262798000000000
 20
-79.428931000000006
 11
-0.737202000000000
 21
-79.428931000000006
  0
LINE
  8
0
  6
CONTINUOUS
 62
256
 10
-5.737202000000000
 20
-83.966417000000007
 11
-5.737202000000000
 21
-81.358582999999996
  0
LINE
  8
0
  6
CONTINUOUS
 62
256
 10
-2.737202000000000
 20
-86.966417000000007
 11
4.262798000000000
 21
-86.966417000000007
  0
LINE
  8
0
  6
CONTINUOUS
 62
256
 10
7.262798000000000
 20
-100.858583000000000
 11
12.262798000000000
 21
-100.858583000000000
  0
LINE
  8
0
  6
CONTINUOUS
 62
256
 10
7.262798000000000
 20
-120.858583000000000
 11
7.262798000000000
 21
-81.428931000000006
  0
LINE
  8
0
  6
CONTINUOUS
 62
256
 10
7.262798000000000
 20
-140.858583000000010
 11
12.262798000000000
 21
-140.858583000000010
  0
LINE
  8
0
  6
CONTINUOUS
 62
256
 10
-5.737202000000000
 20
-157.750749000000010
 11
-5.737202000000000
 21
-160.358583000000010
  0
LINE
  8
0
  6
CONTINUOUS
 62
256
 10
-2.737202000000000
 20
-154.750749000000010
 11
4.262798000000000
 21
-154.750749000000010
  0
LINE
  8
0
  6
CONTINUOUS
 62
256
 10
7.262798000000000
 20
-120.858583000000000
 11
7.262798000000000
 21
-160.288234999999990
  0
LINE
  8
0
  6
CONTINUOUS
 62
256
 10
4.262798000000000
 20
-165.358583000000010
 11
-0.737202000000000
 21
-165.358583000000010
  0
LINE
  8
0
  6
CONTINUOUS
 62
256
 10
5.262798000000000
 20
-162.288234999999990
 11
-0.737202000000000
 21
-162.288234999999990
  0
LINE
  8
0
  6
CONTINUOUS
 62
256
 10
7.262798000000000
 20
-168.358583000000010
 11
7.262798000000000
 21
-171.393036000000000
  0
ARC
  8
0
  6
CONTINUOUS
 62
256
 10
10.262798000000000
 20
-70.324129999999997
 40
2.999999999999997
 50
88.999999999999986
 51
180.000000000000000
  0
ARC
  8
0
  6
CONTINUOUS
 62
256
 10
10.262798000000000
 20
-171.393036000000000
 40
3.000000000000000
 50
180.000000000000000
 51
271.000000000000000
  0
ARC
  8
0
  6
CONTINUOUS
 62
256
 10
4.262798000000000
 20
-89.966417000000007
 40
3.000000000000000
 50
0.000000000000000
 51
90.000000000000000
  0
ARC
  8
0
  6
CONTINUOUS
 62
256
 10
4.262798000000000
 20
-73.358582999999996
 40
3.000000000000000
 50
270.000000000000000
 51
0.000000000000000
  0
ARC
  8
0
  6
CONTINUOUS
 62
256
 10
5.262798000000000
 20
-81.428931000000006
 40
2.000000000000000
 50
0.000000000000000
 51
90.000000000000000
  0
ARC
  8
0
  6
CONTINUOUS
 62
256
 10
-0.737202000000000
 20
-84.428931000000006
 40
5.000000000000000
 50
90.000000000000000
 51
180.000000000000000
  0
ARC
  8
0
  6
CONTINUOUS
 62
256
 10
-0.737202000000000
 20
-81.358582999999996
 40
5.000000000000000
 50
90.000000000000000
 51
180.000000000000000
  0
ARC
  8
0
  6
CONTINUOUS
 62
256
 10
4.262798000000000
 20
-151.750749000000010
 40
3.000000000000000
 50
270.000000000000000
 51
0.000000000000000
  0
ARC
  8
0
  6
CONTINUOUS
 62
256
 10
-0.737202000000000
 20
-157.288234999999990
 40
5.000000000000000
 50
180.000000000000000
 51
270.000000000000000
  0
ARC
  8
0
  6
CONTINUOUS
 62
256
 10
-0.737202000000000
 20
-160.358583000000010
 40
5.000000000000000
 50
180.000000000000000
 51
270.000000000000000
  0
ARC
  8
0
  6
CONTINUOUS
 62
256
 10
4.262798000000000
 20
-168.358583000000010
 40
3.000000000000000
 50
0.000000000000000
 51
90.000000000000000
  0
ARC
  8
0
  6
CONTINUOUS
 62
256
 10
5.262798000000000
 20
-160.288234999999990
 40
2.000000000000000
 50
270.000000000000000
 51
0.000000000000000
  0
LINE
  8
0
  6
CONTINUOUS
 62
256
 10
-5.737202000000000
 20
-70.097213999999994
 11
-5.737202000000000
 21
-120.858583000000000
  0
LINE
  8
0
  6
CONTINUOUS
 62
256
 10
-5.737202000000000
 20
-171.619952000000010
 11
-5.737202000000000
 21
-120.858583000000000
  0
ARC
  8
0
  6
CONTINUOUS
 62
256
 10
-2.737202000000000
 20
-171.619952000000010
 40
3.000000000000000
 50
180.000000000000000
 51
271.000000000000000
  0
ARC
  8
0
  6
CONTINUOUS
 62
256
 10
-2.737202000000000
 20
-70.097213999999994
 40
2.999999999999997
 50
89.000000000000000
 51
180.000000000000000
  0
ARC
  8
0
  6
CONTINUOUS
 62
256
 10
-2.737202000000000
 20
-151.750749000000010
 40
3.000000000000000
 50
180.000000000000000
 51
270.000000000000000
  0
ARC
  8
0
  6
CONTINUOUS
 62
256
 10
-2.737202000000000
 20
-89.966417000000007
 40
3.000000000000000
 50
90.000000000000000
 51
180.000000000000000
  0
ARC
  8
0
  6
CONTINUOUS
 62
256
 10
-103.737202000000000
 20
-107.858583000000000
 40
41.500000000000014
 50
270.000000000000000
 51
180.000000000000000
  0
ARC
  8
0
  6
CONTINUOUS
 62
256
 10
-2.737202000000000
 20
-151.750749000000010
 40
3.000000000000000
 50
180.000000000000000
 51
270.000000000000000
  0
ARC
  8
0
  6
CONTINUOUS
 62
256
 10
-2.737202000000000
 20
-89.966417000000007
 40
3.000000000000000
 50
90.000000000000000
 51
180.000000000000000
  0
ARC
  8
0
  6
CONTINUOUS
 62
256
 10
-2.737202000000000
 20
-171.619952000000010
 40
3.000000000000000
 50
180.000000000000000
 51
271.000000000000000
  0
ARC
  8
0
  6
CONTINUOUS
 62
256
 10
-2.737202000000000
 20
-70.097213999999994
 40
2.999999999999997
 50
89.000000000000000
 51
180.000000000000000
  0
LINE
  8
0
  6
CONTINUOUS
 62
256
 10
-5.737202000000000
 20
-70.097213999999994
 11
-5.737202000000000
 21
-120.858583000000000
  0
LINE
  8
0
  6
CONTINUOUS
 62
256
 10
-5.737202000000000
 20
-171.619952000000010
 11
-5.737202000000000
 21
-120.858583000000000
  0
LINE
  8
0
  6
CONTINUOUS
 62
256
 10
-12.805414000000001
 20
-174.796150000000010
 11
12.262798000000000
 21
-174.358583000000010
  0
ARC
  8
0
  6
CONTINUOUS
 62
256
 10
-12.753056000000001
 20
-177.795693000000000
 40
3.000000000000011
 50
91.000000000000014
 51
183.226826000000240
  0
LINE
  8
0
  6
CONTINUOUS
 62
256
 10
-12.893585000000000
 20
-66.919477000000001
 11
12.262798000000000
 21
-67.358582999999996
  0
ARC
  8
0
  6
CONTINUOUS
 62
256
 10
-12.841227999999999
 20
-63.919933999999998
 40
2.999999999999998
 50
188.271555999999890
 51
268.999999999999940
  0
ARC
  8
0
  6
CONTINUOUS
 62
256
 10
-103.737202000000000
 20
-107.858583000000000
 40
44.000000000000007
 50
98.645864000000003
 51
180.000000000000000
  0
LINE
  8
0
  6
CONTINUOUS
 62
256
 10
-110.351580000000000
 20
-64.358582999999996
 11
-128.855258999999990
 21
-64.358582999999996
  0
LINE
  8
0
  6
CONTINUOUS
 62
256
 10
-15.737202000000000
 20
-174.858583000000010
 11
-15.737202000000000
 21
-61.858583000000003
  0
ARC
  8
0
  6
CONTINUOUS
 62
256
 10
-149.737202000000000
 20
-61.858583000000003
 40
5.500000000000000
 50
90.000000000000000
 51
180.000000000000000
  0
ARC
  8
0
  6
CONTINUOUS
 62
256
 10
-149.737202000000000
 20
-174.858583000000010
 40
5.500000000000000
 50
180.000000000000000
 51
270.000000000000000
  0
ARC
  8
0
  6
CONTINUOUS
 62
256
 10
-22.737202000000000
 20
-174.858583000000010
 40
5.500000000000000
 50
270.000000000000000
 51
0.000000000000000
  0
ARC
  8
0
  6
CONTINUOUS
 62
256
 10
-22.737202000000000
 20
-61.858583000000003
 40
5.500000000000000
 50
0.000000000000000
 51
90.000000000000000
  0
ARC
  8
0
  6
CONTINUOUS
 62
256
 10
5.262798000000000
 20
-81.428931000000006
 40
2.000000000000000
 50
0.000000000000000
 51
90.000000000000000
  0
ARC
  8
0
  6
CONTINUOUS
 62
256
 10
4.262798000000000
 20
-73.358582999999996
 40
3.000000000000000
 50
270.000000000000000
 51
0.000000000000000
  0
ARC
  8
0
  6
CONTINUOUS
 62
256
 10
-0.737202000000000
 20
-81.358582999999996
 40
5.000000000000000
 50
90.000000000000000
 51
180.000000000000000
  0
ARC
  8
0
  6
CONTINUOUS
 62
256
 10
-0.737202000000000
 20
-84.428931000000006
 40
5.000000000000000
 50
90.000000000000000
 51
180.000000000000000
  0
ARC
  8
0
  6
CONTINUOUS
 62
256
 10
4.262798000000000
 20
-89.966417000000007
 40
3.000000000000000
 50
0.000000000000000
 51
90.000000000000000
  0
ARC
  8
0
  6
CONTINUOUS
 62
256
 10
-0.737202000000000
 20
-160.358583000000010
 40
5.000000000000000
 50
180.000000000000000
 51
270.000000000000000
  0
ARC
  8
0
  6
CONTINUOUS
 62
256
 10
-0.737202000000000
 20
-157.288234999999990
 40
5.000000000000000
 50
180.000000000000000
 51
270.000000000000000
  0
ARC
  8
0
  6
CONTINUOUS
 62
256
 10
5.262798000000000
 20
-160.288234999999990
 40
2.000000000000000
 50
270.000000000000000
 51
0.000000000000000
  0
ARC
  8
0
  6
CONTINUOUS
 62
256
 10
4.262798000000000
 20
-168.358583000000010
 40
3.000000000000000
 50
0.000000000000000
 51
90.000000000000000
  0
ARC
  8
0
  6
CONTINUOUS
 62
256
 10
4.262798000000000
 20
-151.750749000000010
 40
3.000000000000000
 50
270.000000000000000
 51
0.000000000000000
  0
ARC
  8
0
  6
CONTINUOUS
 62
256
 10
-22.737202000000000
 20
-174.858583000000010
 40
7.000000000000000
 50
270.000000000000000
 51
0.000000000000000
  0
ARC
  8
0
  6
CONTINUOUS
 62
256
 10
-149.737202000000000
 20
-61.858583000000003
 40
7.000000000000000
 50
90.000000000000000
 51
180.000000000000000
  0
ARC
  8
0
  6
CONTINUOUS
 62
256
 10
-149.737202000000000
 20
-174.858583000000010
 40
7.000000000000000
 50
180.000000000000000
 51
270.000000000000000
  0
CIRCLE
  8
0
  6
CONTINUOUS
 62
256
 10
-103.737202000000000
 20
-107.858583000000000
 40
25.000000000000000
  0
ARC
  8
0
  6
CONTINUOUS
 62
256
 10
-22.737202000000000
 20
-61.858583000000003
 40
7.000000000000000
 50
0.000000000000000
 51
90.000000000000000
  0
ARC
  8
0
  6
CONTINUOUS
 62
256
 10
10.262798000000000
 20
-70.324129999999997
 40
2.999999999999997
 50
88.999999999999986
 51
180.000000000000000
  0
ARC
  8
0
  6
CONTINUOUS
 62
256
 10
10.262798000000000
 20
-171.393036000000000
 40
3.000000000000000
 50
180.000000000000000
 51
271.000000000000000
  0
ARC
  8
0
  6
CONTINUOUS
 62
256
 10
-44.619145000000003
 20
-67.858582999999996
 40
5.999999999999997
 50
6.756327000000024
 51
90.000000000000000
  0
ARC
  8
0
  6
CONTINUOUS
 62
256
 10
-27.737202000000000
 20
-65.858582999999996
 40
10.999999999999998
 50
186.756326999999970
 51
266.627713000000030
  0
ARC
  8
0
  6
CONTINUOUS
 62
256
 10
-28.737202000000000
 20
-82.829145999999994
 40
6.000000000000000
 50
0.000000000000000
 51
86.627713000000014
  0
ARC
  8
0
  6
CONTINUOUS
 62
256
 10
-128.855258999999990
 20
-67.858582999999996
 40
6.000000000000000
 50
90.000000000000000
 51
173.243673000000000
  0
ARC
  8
0
  6
CONTINUOUS
 62
256
 10
-145.737202000000000
 20
-65.858582999999996
 40
11.000000000000000
 50
273.372286999999860
 51
353.243673000000000
  0
ARC
  8
0
  6
CONTINUOUS
 62
256
 10
-144.737202000000000
 20
-82.829145999999994
 40
6.000000000000006
 50
93.372287000000000
 51
180.000000000000000
  0
ARC
  8
0
  6
CONTINUOUS
 62
256
 10
-144.737202000000000
 20
-153.888020000000010
 40
6.000000000000000
 50
180.000000000000000
 51
266.627712999999970
  0
ARC
  8
0
  6
CONTINUOUS
 62
256
 10
-145.737202000000000
 20
-170.858583000000010
 40
10.999999999999988
 50
6.756326999999992
 51
86.627712999999986
  0
ARC
  8
0
  6
CONTINUOUS
 62
256
 10
-128.855258999999990
 20
-168.858583000000010
 40
6.000000000000010
 50
186.756326999999860
 51
270.000000000000000
  0
ARC
  8
0
  6
CONTINUOUS
 62
256
 10
-44.619145000000003
 20
-168.858583000000010
 40
6.000000000000000
 50
270.000000000000000
 51
353.243673000000110
  0
ARC
  8
0
  6
CONTINUOUS
 62
256
 10
-27.737202000000000
 20
-170.858583000000010
 40
11.000000000000000
 50
93.372287000000000
 51
173.243673000000030
  0
ARC
  8
0
  6
CONTINUOUS
 62
256
 10
-28.737202000000000
 20
-153.888020000000010
 40
5.999999999999992
 50
273.372286999999970
 51
0.000000000000000
  0
ARC
  8
0
  6
CONTINUOUS
 62
256
 10
-28.737202000000000
 20
-82.829145999999994
 40
3.500000000000000
 50
0.000000000000000
 51
86.627712999999986
  0
ARC
  8
0
  6
CONTINUOUS
 62
256
 10
-27.737202000000000
 20
-65.858582999999996
 40
13.500000000000002
 50
186.756327000000000
 51
266.627713000000030
  0
ARC
  8
0
  6
CONTINUOUS
 62
256
 10
-44.619145000000003
 20
-67.858582999999996
 40
3.500000000000002
 50
6.756326999999959
 51
90.000000000000000
  0
ARC
  8
0
  6
CONTINUOUS
 62
256
 10
-128.855258999999990
 20
-67.858582999999996
 40
3.500000000000000
 50
90.000000000000000
 51
173.243673000000060
  0
ARC
  8
0
  6
CONTINUOUS
 62
256
 10
-145.737202000000000
 20
-65.858582999999996
 40
13.500000000000004
 50
273.372286999999910
 51
353.243673000000000
  0
ARC
  8
0
  6
CONTINUOUS
 62
256
 10
-144.737202000000000
 20
-82.829145999999994
 40
3.500000000000003
 50
93.372286999999972
 51
180.000000000000000
  0
ARC
  8
0
  6
CONTINUOUS
 62
256
 10
-144.737202000000000
 20
-153.888020000000010
 40
3.500000000000000
 50
180.000000000000000
 51
266.627713000000030
  0
ARC
  8
0
  6
CONTINUOUS
 62
256
 10
-145.737202000000000
 20
-170.858583000000010
 40
13.499999999999991
 50
6.756327000000010
 51
86.627712999999972
  0
ARC
  8
0
  6
CONTINUOUS
 62
256
 10
-28.737202000000000
 20
-153.888020000000010
 40
3.500000000000003
 50
273.372286999999970
 51
0.000000000000000
  0
ARC
  8
0
  6
CONTINUOUS
 62
256
 10
-27.737202000000000
 20
-170.858583000000010
 40
13.499999999999989
 50
93.372287000000000
 51
173.243673000000000
  0
ARC
  8
0
  6
CONTINUOUS
 62
256
 10
-44.619145000000003
 20
-168.858583000000010
 40
3.500000000000000
 50
270.000000000000000
 51
353.243672999999830
  0
ARC
  8
0
  6
CONTINUOUS
 62
256
 10
-128.855258999999990
 20
-168.858583000000010
 40
3.500000000000010
 50
186.756327000000170
 51
270.000000000000000
  0
ARC
  8
0
  6
CONTINUOUS
 62
256
 10
-103.737202000000000
 20
-107.858583000000000
 40
44.000000000000000
 50
180.000000000000000
 51
81.354135999999997
  0
ARC
  8
0
  6
CONTINUOUS
 62
256
 10
-103.737202000000000
 20
-107.858583000000000
 40
41.500000000000000
 50
180.000000000000000
 51
270.000000000000000
  0
LINE
  8
0
  6
CONTINUOUS
 62
256
 10
-149.737202000000000
 20
-180.358583000000010
 11
-103.737202000000000
 21
-180.358583000000010
  0
LINE
  8
0
  6
CONTINUOUS
 62
256
 10
-103.737202000000000
 20
-180.358583000000010
 11
-22.737202000000000
 21
-180.358583000000010
  0
LINE
  8
0
  6
CONTINUOUS
 62
256
 10
-155.237202000000000
 20
-107.858583000000000
 11
-155.237202000000000
 21
-174.858583000000010
  0
LINE
  8
0
  6
CONTINUOUS
 62
256
 10
-155.237202000000000
 20
-61.858583000000003
 11
-155.237202000000000
 21
-107.858583000000000
  0
LINE
  8
0
  6
CONTINUOUS
 62
256
 10
-103.737202000000000
 20
-56.358583000000003
 11
-149.737202000000000
 21
-56.358583000000003
  0
LINE
  8
0
  6
CONTINUOUS
 62
256
 10
-22.737202000000000
 20
-56.358583000000003
 11
-103.737201000000000
 21
-56.358583000000003
  0
LINE
  8
0
  6
DASHDOT
 62
256
 10
-103.737202000000000
 20
-183.453713999999990
 11
-103.737202000000000
 21
-57.532710000000002
  0
LINE
  8
0
  6
CONTINUOUS
 62
256
 10
-17.237202000000000
 20
-174.858583000000010
 11
-17.237202000000000
 21
-61.858583000000003
  0
LINE
  8
0
  6
CONTINUOUS
 62
256
 10
7.262798000000000
 20
-73.358582999999996
 11
7.262798000000000
 21
-70.324129999999997
  0
LINE
  8
0
  6
CONTINUOUS
 62
256
 10
5.262798000000000
 20
-79.428931000000006
 11
-0.737202000000000
 21
-79.428931000000006
  0
LINE
  8
0
  6
CONTINUOUS
 62
256
 10
4.262798000000000
 20
-76.358582999999996
 11
-0.737202000000000
 21
-76.358582999999996
  0
LINE
  8
0
  6
CONTINUOUS
 62
256
 10
7.262798000000000
 20
-120.858583000000000
 11
7.262798000000000
 21
-81.428931000000006
  0
LINE
  8
0
  6
CONTINUOUS
 62
256
 10
-2.737202000000000
 20
-86.966417000000007
 11
4.262798000000000
 21
-86.966417000000007
  0
LINE
  8
0
  6
CONTINUOUS
 62
256
 10
-5.737202000000000
 20
-83.966417000000007
 11
-5.737202000000000
 21
-81.358582999999996
  0
LINE
  8
0
  6
CONTINUOUS
 62
256
 10
7.262798000000000
 20
-100.858583000000000
 11
12.262798000000000
 21
-100.858583000000000
  0
LINE
  8
0
  6
CONTINUOUS
 62
256
 10
7.262798000000000
 20
-120.858583000000000
 11
7.262798000000000
 21
-160.288234999999990
  0
LINE
  8
0
  6
CONTINUOUS
 62
256
 10
7.262798000000000
 20
-140.858583000000010
 11
12.262798000000000
 21
-140.858583000000010
  0
LINE
  8
0
  6
CONTINUOUS
 62
256
 10
-2.737202000000000
 20
-154.750749000000010
 11
4.262798000000000
 21
-154.750749000000010
  0
LINE
  8
0
  6
CONTINUOUS
 62
256
 10
-5.737202000000000
 20
-157.750749000000010
 11
-5.737202000000000
 21
-160.358583000000010
  0
LINE
  8
0
  6
CONTINUOUS
 62
256
 10
5.262798000000000
 20
-162.288234999999990
 11
-0.737202000000000
 21
-162.288234999999990
  0
LINE
  8
0
  6
CONTINUOUS
 62
256
 10
4.262798000000000
 20
-165.358583000000010
 11
-0.737202000000000
 21
-165.358583000000010
  0
LINE
  8
0
  6
CONTINUOUS
 62
256
 10
7.262798000000000
 20
-168.358583000000010
 11
7.262798000000000
 21
-171.393036000000000
  0
LINE
  8
0
  6
CONTINUOUS
 62
256
 10
-22.737202000000000
 20
-54.858583000000003
 11
-149.737202000000000
 21
-54.858583000000003
  0
LINE
  8
0
  6
CONTINUOUS
 62
256
 10
-156.737202000000000
 20
-61.858583000000003
 11
-156.737202000000000
 21
-174.858583000000010
  0
LINE
  8
0
  6
CONTINUOUS
 62
256
 10
-149.737202000000000
 20
-181.858583000000010
 11
-22.737202000000000
 21
-181.858583000000010
  0
LINE
  8
0
  6
DASHDOT
 62
256
 10
-27.737202000000000
 20
-161.628099999999990
 11
-27.737202000000000
 21
-179.610300000000000
  0
LINE
  8
0
  6
DASHDOT
 62
256
 10
-36.736096000000003
 20
-170.858583000000010
 11
-18.840744999999998
 21
-170.858583000000010
  0
LINE
  8
0
  6
DASHDOT
 62
256
 10
-145.737202000000000
 20
-162.006673000000010
 11
-145.737202000000000
 21
-179.565753000000000
  0
LINE
  8
0
  6
DASHDOT
 62
256
 10
-154.093608999999990
 20
-170.858583000000010
 11
-136.840745000000000
 21
-170.858583000000010
  0
LINE
  8
0
  6
DASHDOT
 62
256
 10
-145.737202000000000
 20
-56.763483999999998
 11
-145.737202000000000
 21
-74.565753000000001
  0
LINE
  8
0
  6
DASHDOT
 62
256
 10
-154.282895000000000
 20
-65.858582999999996
 11
-136.840745000000000
 21
-65.858582999999996
  0
LINE
  8
0
  6
DASHDOT
 62
256
 10
-36.168236999999998
 20
-65.858582999999996
 11
-18.840744999999998
 21
-65.858582999999996
  0
LINE
  8
0
  6
DASHDOT
 62
256
 10
-27.737202000000000
 20
-57.142055999999997
 11
-27.737202000000000
 21
-74.565753000000001
  0
LINE
  8
0
  6
DASHDOT
 62
256
 10
-57.394900999999997
 20
-107.858583000000000
 11
-153.346621000000000
 21
-107.858583000000000
  0
LINE
  8
0
  6
CONTINUOUS
 62
256
 10
-133.082133000000000
 20
-78.513651999999993
 11
-133.123184000000010
 21
-78.554703000000003
  0
LINE
  8
0
  6
CONTINUOUS
 62
256
 10
-44.619145000000003
 20
-61.858583000000003
 11
-128.855258999999990
 21
-61.858583000000003
  0
LINE
  8
0
  6
CONTINUOUS
 62
256
 10
-150.737202000000000
 20
-82.829145999999994
 11
-150.737202000000000
 21
-153.888020000000010
  0
LINE
  8
0
  6
CONTINUOUS
 62
256
 10
-44.619145000000003
 20
-174.858583000000010
 11
-128.855258999999990
 21
-174.858583000000010
  0
LINE
  8
0
  6
CONTINUOUS
 62
256
 10
-22.737202000000000
 20
-153.888020000000010
 11
-22.737202000000000
 21
-82.829145999999994
  0
LINE
  8
0
  6
CONTINUOUS
 62
256
 10
-44.619145000000003
 20
-64.358582999999996
 11
-97.122822999999997
 21
-64.358582999999996
  0
LINE
  8
0
  6
CONTINUOUS
 62
256
 10
-148.237202000000000
 20
-82.829145999999994
 11
-148.237202000000000
 21
-153.888020000000010
  0
LINE
  8
0
  6
CONTINUOUS
 62
256
 10
-44.619145000000003
 20
-172.358583000000010
 11
-128.855258999999990
 21
-172.358583000000010
  0
LINE
  8
0
  6
CONTINUOUS
 62
256
 10
-25.237202000000000
 20
-153.888020000000010
 11
-25.237202000000000
 21
-82.829145999999994
  0
ARC
  8
0
  6
CONTINUOUS
 62
256
 10
-103.737202000000000
 20
-107.858583000000000
 40
11.000000000000004
 50
105.826619999999990
 51
74.173380000000009
  0
CIRCLE
  8
0
  6
CONTINUOUS
 62
256
 10
-103.737202000000000
 20
-107.858583000000000
 40
3.500000000000000
  0
CIRCLE
  8
0
  6
CONTINUOUS
 62
256
 10
-103.737202000000000
 20
-107.858583000000000
 40
4.000000000000000
  0
LINE
  8
0
  6
CONTINUOUS
 62
256
 10
-106.737202000000000
 20
-94.358582999999996
 11
-106.737202000000000
 21
-100.358583000000000
  0
LINE
  8
0
  6
CONTINUOUS
 62
256
 10
-106.737202000000000
 20
-94.358582999999996
 11
-100.737202000000000
 21
-94.358582999999996
  0
LINE
  8
0
  6
CONTINUOUS
 62
256
 10
-106.737202000000000
 20
-100.358583000000000
 11
-100.737202000000000
 21
-100.358583000000000
  0
LINE
  8
0
  6
CONTINUOUS
 62
256
 10
-100.737202000000000
 20
-94.358582999999996
 11
-100.737202000000000
 21
-100.358583000000000
  0
LINE
  8
0
  6
CONTINUOUS
 62
256
 10
12.262798000000000
 20
-174.358583000000010
 11
12.262798000000000
 21
-120.858583000000000
  0
LINE
  8
0
  6
CONTINUOUS
 62
256
 10
12.262798000000000
 20
-67.358582999999996
 11
12.262798000000000
 21
-120.858583000000000
  0
LINE
  8
0
  6
DASHDOT
 62
256
 10
-161.038633000000000
 20
-107.858583000000000
 11
-54.535331999999997
 21
-107.858583000000000
  0
LINE
  8
0
  6
DASHDOT
 62
256
 10
-103.737202000000000
 20
-53.092312999999997
 11
-103.737202000000000
 21
-187.008685000000010
  0
ENDSEC
  0
EOF
