  0
SECTION
  2
HEADER
  9
$TEXTSIZE
 40
2.5
  9
$ACADVER
  1
AC1009
  9
$DIMASZ
 40
3.863703297614046
  9
$DIMEXE
 40
2.000000000000000
  9
$DIMEXO
 40
1.000000000000000
  9
$DIMLFAC
 40
1.000000000000000
  9
$DIMSCALE
 40
1.000000000000000
  9
$DIMTAD
 70
1
  9
$DIMTFAC
 40
0.625000000000000
  9
$DIMTXT
 40
3.200000047683716
  9
$LUPREC
 70
3
  9
$REGENMODE
 70
1
  9
$TEXTSTYLE
  7
STANDARD1
  0
ENDSEC
  0
SECTION
  2
TABLES
  0
TABLE
  2
LTYPE
 70
4
  0
LTYPE
  2
CONTINUOUS
 70
64
  3
Solid line
 72
65
 73
0
 40
0.0
  0
LTYPE
  2
DASHED
 70
64
  3
-- -- -- -- -- -- -- -- -- -- -- -- -- -- --
 72
65
 73
2
 40
0.75
 49
0.5
 49
-0.25
  0
LTYPE
  2
DASHDOT
 70
64
  3
__ . __ . __ . __ . __ . __ . __ . __ . __ . __
 72
65
 73
4
 40
1.0
 49
0.5
 49
-0.25
 49
0.0
 49
-0.25
  0
LTYPE
  2
DIVIDE
 70
64
  3
__ . . __ . . __ . . __ . . __ . . __ . . __
 72
65
 73
6
 40
1.25
 49
0.5
 49
-0.25
 49
0.0
 49
-0.25
 49
0.0
 49
-0.25
  0
ENDTAB
  0
TABLE
  2
LAYER
 70
2
  0
LAYER
  2
0
 70
64
 62
53
  6
CONTINUOUS
  0
LAYER
  2
1
 70
64
 62
102
  6
CONTINUOUS
  0
ENDTAB
  0
TABLE
  2
STYLE
 70
4
  0
STYLE
  2
STANDARD1
 70
64
 40
0.0
 41
1.0
 50
0.0
 71
0
 42
3.200000047683716
  3
MONOTXT
  4
BIGFONT
  0
STYLE
  2
STANDARD2
 70
68
 40
0.0
 41
1.0
 50
0.0
 71
0
 42
3.200000047683716
  3
MONOTXT
  4
BIGFONT
  0
STYLE
  2
STANDARD3
 70
64
 40
0.0
 41
1.0
 50
0.0
 71
0
 42
3.200000047683716
  3
MONOTXT
  4

  0
STYLE
  2
STANDARD4
 70
68
 40
0.0
 41
1.0
 50
0.0
 71
0
 42
3.200000047683716
  3
MONOTXT
  4

  0
ENDTAB
  0
TABLE
  2
VIEW
 70
0
  0
ENDTAB
  0
ENDSEC
  0
SECTION
  2
BLOCKS
  0
ENDSEC
  0
SECTION
  2
ENTITIES
  0
TEXT
  8
0
  6
CONTINUOUS
 62
256
 10
-70.375488281250000
 20
-13.156250000000000
 40
2.799999952316284
  1
ü@
 50
0.000002504478167
 41
0.996000017370497
  7
STANDARD1
  0
TEXT
  8
0
  6
CONTINUOUS
 62
256
 10
1.624511957168579
 20
-253.406250000000000
 40
2.799999952316284
  1
ü@
 50
0.000002504478167
 41
0.996000017370497
  7
STANDARD1
  0
CIRCLE
  8
0
  6
CONTINUOUS
 62
256
 10
-155.127953999999990
 20
-47.149405000000002
 40
4.500000000000000
  0
CIRCLE
  8
0
  6
CONTINUOUS
 62
256
 10
-155.127953999999990
 20
-47.149405000000002
 40
8.000000000000000
  0
CIRCLE
  8
0
  6
CONTINUOUS
 62
256
 10
-21.127953999999999
 20
-47.149405000000002
 40
8.000000000000000
  0
CIRCLE
  8
0
  6
CONTINUOUS
 62
256
 10
-21.127953999999999
 20
-47.149405000000002
 40
4.500000000000000
  0
CIRCLE
  8
0
  6
CONTINUOUS
 62
256
 10
-21.127953999999999
 20
-169.149405000000000
 40
8.000000000000000
  0
CIRCLE
  8
0
  6
CONTINUOUS
 62
256
 10
-21.127953999999999
 20
-169.149405000000000
 40
4.500000000000000
  0
CIRCLE
  8
0
  6
CONTINUOUS
 62
256
 10
-155.127953999999990
 20
-169.149405000000000
 40
4.500000000000000
  0
CIRCLE
  8
0
  6
CONTINUOUS
 62
256
 10
-155.127953999999990
 20
-169.149405000000000
 40
8.000000000000000
  0
LINE
  8
0
  6
DASHED
 62
256
 10
-462.205060000000000
 20
-38.649405000000002
 11
-462.205060000000000
 21
-55.649405000000002
  0
LINE
  8
0
  6
DASHED
 62
256
 10
-475.205060000000000
 20
-38.649405000000002
 11
-462.205060000000000
 21
-38.649405000000002
  0
LINE
  8
0
  6
DASHED
 62
256
 10
-462.205060000000000
 20
-41.649405000000002
 11
-390.205060000000000
 21
-41.649405000000002
  0
LINE
  8
0
  6
DASHED
 62
256
 10
-475.205060000000000
 20
-55.649405000000002
 11
-462.205060000000000
 21
-55.649405000000002
  0
LINE
  8
0
  6
DASHED
 62
256
 10
-462.205060000000000
 20
-52.649405000000002
 11
-390.205060000000000
 21
-52.649405000000002
  0
LINE
  8
0
  6
DASHED
 62
256
 10
-390.205060000000000
 20
-38.649405000000002
 11
-390.205060000000000
 21
-55.649405000000002
  0
LINE
  8
0
  6
DASHED
 62
256
 10
-390.205060000000000
 20
-38.649405000000002
 11
-377.205060000000000
 21
-38.649405000000002
  0
LINE
  8
0
  6
DASHED
 62
256
 10
-390.205060000000000
 20
-55.649405000000002
 11
-377.205060000000000
 21
-55.649405000000002
  0
LINE
  8
0
  6
DASHED
 62
256
 10
-475.205060000000000
 20
-160.649405000000000
 11
-462.205060000000000
 21
-160.649405000000000
  0
LINE
  8
0
  6
DASHED
 62
256
 10
-462.205060000000000
 20
-160.649405000000000
 11
-462.205060000000000
 21
-177.649405000000000
  0
LINE
  8
0
  6
DASHED
 62
256
 10
-462.205060000000000
 20
-163.649405000000000
 11
-390.205060000000000
 21
-163.649405000000000
  0
LINE
  8
0
  6
DASHED
 62
256
 10
-462.205060000000000
 20
-174.649405000000000
 11
-390.205060000000000
 21
-174.649405000000000
  0
LINE
  8
0
  6
DASHED
 62
256
 10
-475.205060000000000
 20
-177.649405000000000
 11
-462.205060000000000
 21
-177.649405000000000
  0
LINE
  8
0
  6
DASHED
 62
256
 10
-390.205060000000000
 20
-160.649405000000000
 11
-390.205060000000000
 21
-177.649405000000000
  0
LINE
  8
0
  6
DASHED
 62
256
 10
-390.205060000000000
 20
-160.649405000000000
 11
-377.205060000000000
 21
-160.649405000000000
  0
LINE
  8
0
  6
DASHED
 62
256
 10
-390.205060000000000
 20
-177.649405000000000
 11
-377.205060000000000
 21
-177.649405000000000
  0
LINE
  8
0
  6
CONTINUOUS
 62
256
 10
20.372046000000001
 20
157.193073000000000
 11
20.372046000000001
 21
103.693073000000000
  0
LINE
  8
0
  6
CONTINUOUS
 62
256
 10
20.372046000000001
 20
157.193073000000000
 11
20.372046000000001
 21
210.693073000000000
  0
LINE
  8
0
  6
DASHDOT
 62
256
 10
-176.009275000000000
 20
157.193073000000000
 11
211.545562999999990
 21
157.193073000000000
  0
LINE
  8
0
  6
CONTINUOUS
 62
256
 10
-92.627954000000003
 20
102.193073000000000
 11
-92.627954000000003
 21
104.193073000000000
  0
LINE
  8
0
  6
CONTINUOUS
 62
256
 10
-107.127954000000000
 20
102.193073000000000
 11
-92.627954000000003
 21
102.193073000000000
  0
LINE
  8
0
  6
CONTINUOUS
 62
256
 10
-107.127954000000000
 20
102.193073000000000
 11
-92.627954000000003
 21
102.193073000000000
  0
LINE
  8
0
  6
CONTINUOUS
 62
256
 10
-121.627954000000000
 20
102.193073000000000
 11
-121.627954000000000
 21
104.193073000000000
  0
LINE
  8
0
  6
CONTINUOUS
 62
256
 10
-107.127954000000000
 20
102.193073000000000
 11
-121.627954000000000
 21
102.193073000000000
  0
LINE
  8
0
  6
CONTINUOUS
 62
256
 10
-107.127954000000000
 20
102.193073000000000
 11
-121.627954000000000
 21
102.193073000000000
  0
LINE
  8
0
  6
CONTINUOUS
 62
256
 10
-121.127954000000000
 20
102.193073000000000
 11
-121.127954000000000
 21
57.193072999999998
  0
LINE
  8
0
  6
CONTINUOUS
 62
256
 10
-93.127954000000003
 20
102.193073000000000
 11
-93.127954000000003
 21
57.193072999999998
  0
ARC
  8
0
  6
CONTINUOUS
 62
256
 10
-107.127954000000000
 20
93.193072999999998
 40
4.000000000000000
 50
0.000000000000000
 51
180.000000000000000
  0
LINE
  8
0
  6
DASHDOT
 62
256
 10
-107.127954000000000
 20
48.914869000000003
 11
-107.127954000000000
 21
219.365967000000010
  0
LINE
  8
0
  6
CONTINUOUS
 62
256
 10
20.372046000000001
 20
103.693071000000000
 11
5.424403000000000
 21
103.432159000000000
  0
LINE
  8
0
  6
CONTINUOUS
 62
256
 10
20.372046000000001
 20
210.727985999999990
 11
5.424403000000000
 21
210.988898000000010
  0
LINE
  8
0
  6
CONTINUOUS
 62
256
 10
-7.271261000000000
 20
117.693073000000000
 11
-0.627954000000000
 21
117.693073000000000
  0
ARC
  8
0
  6
CONTINUOUS
 62
256
 10
5.372046000000000
 20
207.989354999999990
 40
3.000000000000011
 50
89.000000000000000
 51
180.000000000000000
  0
ARC
  8
0
  6
CONTINUOUS
 62
256
 10
5.372046000000000
 20
106.431702000000000
 40
3.000000000000000
 50
180.000000000000000
 51
271.000000000000000
  0
ARC
  8
0
  6
CONTINUOUS
 62
256
 10
-7.271261000000000
 20
115.693073000000000
 40
2.000000000000000
 50
90.000000000000000
 51
180.000000000000000
  0
ARC
  8
0
  6
CONTINUOUS
 62
256
 10
-5.935644000000000
 20
194.193073000000000
 40
2.000000000000000
 50
178.999999999999860
 51
270.000000000000000
  0
LINE
  8
0
  6
CONTINUOUS
 62
256
 10
-64.627954000000003
 20
104.193073000000000
 11
-149.627953999999990
 21
104.193073000000000
  0
LINE
  8
0
  6
CONTINUOUS
 62
256
 10
-64.627954000000003
 20
108.193073000000000
 11
-64.627954000000003
 21
104.193073000000000
  0
LINE
  8
0
  6
CONTINUOUS
 62
256
 10
-149.627953999999990
 20
210.193073000000000
 11
-149.627953999999990
 21
206.193073000000000
  0
LINE
  8
0
  6
CONTINUOUS
 62
256
 10
-149.627953999999990
 20
108.193073000000000
 11
-149.627953999999990
 21
104.193073000000000
  0
LINE
  8
0
  6
CONTINUOUS
 62
256
 10
-167.918493000000010
 20
194.193073000000000
 11
-7.927221000000000
 21
194.193073000000000
  0
LINE
  8
0
  6
CONTINUOUS
 62
256
 10
-64.627954000000003
 20
210.193073000000000
 11
-64.627954000000003
 21
206.193073000000000
  0
LINE
  8
0
  6
CONTINUOUS
 62
256
 10
-52.535423999999999
 20
206.193073000000000
 11
-167.682850000000000
 21
206.193073000000000
  0
LINE
  8
0
  6
CONTINUOUS
 62
256
 10
-52.535423999999999
 20
108.193073000000000
 11
-166.574453000000010
 21
108.193073000000000
  0
LINE
  8
0
  6
CONTINUOUS
 62
256
 10
-8.127954000000001
 20
206.193073000000000
 11
-52.535423999999999
 21
206.193073000000000
  0
LINE
  8
0
  6
CONTINUOUS
 62
256
 10
-149.627953999999990
 20
210.193073000000000
 11
-64.627954000000003
 21
210.193073000000000
  0
LINE
  8
0
  6
CONTINUOUS
 62
256
 10
-9.271261000000001
 20
108.193073000000000
 11
-52.535423999999999
 21
108.193073000000000
  0
LINE
  8
0
  6
CONTINUOUS
 62
256
 10
-7.927221000000000
 20
194.193073000000000
 11
-9.271261000000001
 21
118.193073000000000
  0
LINE
  8
0
  6
CONTINUOUS
 62
256
 10
-9.271261000000001
 20
118.193073000000000
 11
-9.271261000000001
 21
108.193073000000000
  0
LINE
  8
0
  6
CONTINUOUS
 62
256
 10
-166.574453000000010
 20
118.193073000000000
 11
-166.574453000000010
 21
108.193073000000000
  0
LINE
  8
0
  6
CONTINUOUS
 62
256
 10
-167.682850000000000
 20
206.193073000000000
 11
-167.892311000000010
 21
194.193073000000000
  0
LINE
  8
0
  6
CONTINUOUS
 62
256
 10
-167.918493000000010
 20
194.193073000000000
 11
-166.574453000000010
 21
118.193073000000000
  0
LINE
  8
0
  6
CONTINUOUS
 62
256
 10
-7.918493000000000
 20
194.193073000000000
 11
-8.127954000000001
 21
206.193073000000000
  0
LINE
  8
0
  6
CONTINUOUS
 62
256
 10
15.372045999999999
 20
109.710528000000000
 11
15.372045999999999
 21
105.658468000000000
  0
ARC
  8
0
  6
CONTINUOUS
 62
256
 10
17.372046000000001
 20
105.658468000000000
 40
2.000000000000000
 50
180.000000000000000
 51
270.999999999999940
  0
ARC
  8
0
  6
CONTINUOUS
 62
256
 10
12.372045999999999
 20
109.710528000000000
 40
3.000000000000000
 50
0.000000000000000
 51
90.000000000000000
  0
LINE
  8
0
  6
CONTINUOUS
 62
256
 10
15.372045999999999
 20
157.210528000000010
 11
15.372045999999999
 21
117.780877000000000
  0
ARC
  8
0
  6
CONTINUOUS
 62
256
 10
13.372045999999999
 20
117.780877000000000
 40
2.000000000000000
 50
270.000000000000000
 51
0.000000000000000
  0
ARC
  8
0
  6
CONTINUOUS
 62
256
 10
12.372045999999999
 20
126.318361999999990
 40
3.000000000000000
 50
270.000000000000000
 51
0.000000000000000
  0
LINE
  8
0
  6
CONTINUOUS
 62
256
 10
7.307035000000000
 20
123.318361999999990
 11
12.372045999999999
 21
123.318361999999990
  0
LINE
  8
0
  6
CONTINUOUS
 62
256
 10
12.372045999999999
 20
112.710528000000000
 11
5.372046000000000
 21
112.710528000000000
  0
LINE
  8
0
  6
CONTINUOUS
 62
256
 10
13.372045999999999
 20
115.780877000000000
 11
5.372046000000000
 21
115.780877000000000
  0
ARC
  8
0
  6
CONTINUOUS
 62
256
 10
5.372046000000000
 20
115.710528000000000
 40
3.000000000000000
 50
180.000000000000000
 51
270.000000000000000
  0
ARC
  8
0
  6
CONTINUOUS
 62
256
 10
5.372046000000000
 20
118.780877000000000
 40
3.000000000000000
 50
180.000000000000000
 51
270.000000000000000
  0
LINE
  8
0
  6
CONTINUOUS
 62
256
 10
2.372046000000000
 20
106.431702000000000
 11
2.372046000000000
 21
207.989354999999990
  0
LINE
  8
0
  6
CONTINUOUS
 62
256
 10
15.372045999999999
 20
157.210528000000010
 11
15.372045999999999
 21
196.640179999999990
  0
LINE
  8
0
  6
CONTINUOUS
 62
256
 10
15.372045999999999
 20
177.210528000000010
 11
20.372046000000001
 21
177.210528000000010
  0
ARC
  8
0
  6
CONTINUOUS
 62
256
 10
12.372045999999999
 20
204.710528000000010
 40
3.000000000000000
 50
270.000000000000000
 51
0.000000000000000
  0
LINE
  8
0
  6
CONTINUOUS
 62
256
 10
7.067365000000000
 20
191.102694000000010
 11
12.372045999999999
 21
191.102694000000010
  0
ARC
  8
0
  6
CONTINUOUS
 62
256
 10
13.372045999999999
 20
196.640179999999990
 40
2.000000000000000
 50
0.000000000000000
 51
90.000000000000000
  0
ARC
  8
0
  6
CONTINUOUS
 62
256
 10
12.372045999999999
 20
188.102694000000010
 40
3.000000000000000
 50
0.000000000000000
 51
90.000000000000000
  0
LINE
  8
0
  6
CONTINUOUS
 62
256
 10
15.372045999999999
 20
204.710528000000010
 11
15.372045999999999
 21
208.762588999999990
  0
ARC
  8
0
  6
CONTINUOUS
 62
256
 10
17.372046000000001
 20
208.762588999999990
 40
1.999999999999998
 50
88.999999999999957
 51
180.000000000000000
  0
LINE
  8
0
  6
CONTINUOUS
 62
256
 10
13.372045999999999
 20
198.640179999999990
 11
5.372046000000000
 21
198.640179999999990
  0
LINE
  8
0
  6
CONTINUOUS
 62
256
 10
12.372045999999999
 20
201.710528000000010
 11
5.372046000000000
 21
201.710528000000010
  0
ARC
  8
0
  6
CONTINUOUS
 62
256
 10
5.372046000000000
 20
198.710528000000010
 40
3.000000000000000
 50
90.000000000000000
 51
180.000000000000000
  0
ARC
  8
0
  6
CONTINUOUS
 62
256
 10
5.372046000000000
 20
195.640179999999990
 40
3.000000000000000
 50
90.000000000000000
 51
180.000000000000000
  0
ARC
  8
0
  6
CONTINUOUS
 62
256
 10
-0.627954000000000
 20
195.193073000000000
 40
3.000000000000000
 50
270.000000000000000
 51
0.000000000000000
  0
LINE
  8
0
  6
CONTINUOUS
 62
256
 10
-0.627954000000000
 20
192.193073000000000
 11
-5.935644000000000
 21
192.193073000000000
  0
ARC
  8
0
  6
CONTINUOUS
 62
256
 10
-0.627954000000000
 20
114.693073000000000
 40
3.000000000000000
 50
0.000000000000000
 51
90.000000000000000
  0
LINE
  8
0
  6
CONTINUOUS
 62
256
 10
-103.127954000000000
 20
93.193072999999998
 11
-103.127954000000000
 21
57.193072999999998
  0
LINE
  8
0
  6
CONTINUOUS
 62
256
 10
-111.127954000000000
 20
93.193072999999998
 11
-111.127954000000000
 21
57.193072999999998
  0
LINE
  8
0
  6
CONTINUOUS
 62
256
 10
-93.127954000000003
 20
57.193072999999998
 11
-121.127954000000000
 21
57.193072999999998
  0
LINE
  8
0
  6
CONTINUOUS
 62
256
 10
-111.127954000000000
 20
93.193072999999998
 11
-103.127954000000000
 21
93.193072999999998
  0
LINE
  8
0
  6
CONTINUOUS
 62
256
 10
20.372046000000001
 20
157.193073000000000
 11
20.372046000000001
 21
209.693073000000000
  0
LINE
  8
0
  6
CONTINUOUS
 62
256
 10
20.372046000000001
 20
157.193073000000000
 11
20.372046000000001
 21
104.693073000000000
  0
LINE
  8
0
  6
CONTINUOUS
 62
256
 10
104.372046000000000
 20
103.193073000000000
 11
181.876891000000000
 21
103.193073000000000
  0
LINE
  8
0
  6
CONTINUOUS
 62
256
 10
104.372046000000000
 20
103.193073000000000
 11
104.372046000000000
 21
116.193073000000000
  0
LINE
  8
0
  6
CONTINUOUS
 62
256
 10
104.372046000000000
 20
211.193073000000000
 11
104.372046000000000
 21
198.193073000000000
  0
LINE
  8
0
  6
CONTINUOUS
 62
256
 10
104.372046000000000
 20
211.193073000000000
 11
181.876891000000000
 21
211.193073000000000
  0
LINE
  8
0
  6
CONTINUOUS
 62
256
 10
115.372046000000000
 20
108.049152000000010
 11
117.372046000000000
 21
109.701794000000010
  0
LINE
  8
0
  6
CONTINUOUS
 62
256
 10
113.372046000000000
 20
106.873367000000000
 11
115.372046000000000
 21
108.049152000000010
  0
LINE
  8
0
  6
CONTINUOUS
 62
256
 10
115.372046000000000
 20
108.049152000000010
 11
113.372046000000000
 21
109.701794000000010
  0
LINE
  8
0
  6
CONTINUOUS
 62
256
 10
117.372046000000000
 20
106.873367000000000
 11
115.372046000000000
 21
108.049152000000010
  0
POLYLINE
  8
0
  6
CONTINUOUS
 62
256
 66
1
 70
1
  0
VERTEX
  8
0
  6
CONTINUOUS
 62
256
 10
120.072045999999990
 20
109.865742000000000
  0
VERTEX
  8
0
  6
CONTINUOUS
 62
256
 10
119.981736817895170
 20
110.568698510558160
  0
VERTEX
  8
0
  6
CONTINUOUS
 62
256
 10
119.714279802803030
 20
111.244640796638140
  0
VERTEX
  8
0
  6
CONTINUOUS
 62
256
 10
119.279953177821950
 20
111.867592775258660
  0
VERTEX
  8
0
  6
CONTINUOUS
 62
256
 10
118.695447871576760
 20
112.413614751236850
  0
VERTEX
  8
0
  6
CONTINUOUS
 62
256
 10
117.983226095192120
 20
112.861723406248490
  0
VERTEX
  8
0
  6
CONTINUOUS
 62
256
 10
117.170658132115920
 20
113.194698175983750
  0
VERTEX
  8
0
  6
CONTINUOUS
 62
256
 10
116.288970513475800
 20
113.399743026776060
  0
VERTEX
  8
0
  6
CONTINUOUS
 62
256
 10
115.372046000000000
 20
113.468978200000000
  0
VERTEX
  8
0
  6
CONTINUOUS
 62
256
 10
114.455121486524190
 20
113.399743026776060
  0
VERTEX
  8
0
  6
CONTINUOUS
 62
256
 10
113.573433867884080
 20
113.194698175983750
  0
VERTEX
  8
0
  6
CONTINUOUS
 62
256
 10
112.760865904807870
 20
112.861723406248490
  0
VERTEX
  8
0
  6
CONTINUOUS
 62
256
 10
112.048644128423230
 20
112.413614751236850
  0
VERTEX
  8
0
  6
CONTINUOUS
 62
256
 10
111.464138822178040
 20
111.867592775258660
  0
VERTEX
  8
0
  6
CONTINUOUS
 62
256
 10
111.029812197196960
 20
111.244640796638140
  0
VERTEX
  8
0
  6
CONTINUOUS
 62
256
 10
110.762355182104830
 20
110.568698510558160
  0
VERTEX
  8
0
  6
CONTINUOUS
 62
256
 10
110.672046000000010
 20
109.865742000000000
  0
VERTEX
  8
0
  6
CONTINUOUS
 62
256
 10
110.762355182104830
 20
109.162785489441830
  0
VERTEX
  8
0
  6
CONTINUOUS
 62
256
 10
111.029812197196960
 20
108.486843203361860
  0
VERTEX
  8
0
  6
CONTINUOUS
 62
256
 10
111.464138822178040
 20
107.863891224741340
  0
VERTEX
  8
0
  6
CONTINUOUS
 62
256
 10
112.048644128423230
 20
107.317869248763160
  0
VERTEX
  8
0
  6
CONTINUOUS
 62
256
 10
112.760865904807870
 20
106.869760593751510
  0
VERTEX
  8
0
  6
CONTINUOUS
 62
256
 10
113.573433867884080
 20
106.536785824016250
  0
VERTEX
  8
0
  6
CONTINUOUS
 62
256
 10
114.455121486524190
 20
106.331740973223930
  0
VERTEX
  8
0
  6
CONTINUOUS
 62
256
 10
115.372046000000000
 20
106.262505800000000
  0
VERTEX
  8
0
  6
CONTINUOUS
 62
256
 10
116.288970513475790
 20
106.331740973223930
  0
VERTEX
  8
0
  6
CONTINUOUS
 62
256
 10
117.170658132115920
 20
106.536785824016250
  0
VERTEX
  8
0
  6
CONTINUOUS
 62
256
 10
117.983226095192120
 20
106.869760593751510
  0
VERTEX
  8
0
  6
CONTINUOUS
 62
256
 10
118.695447871576760
 20
107.317869248763150
  0
VERTEX
  8
0
  6
CONTINUOUS
 62
256
 10
119.279953177821950
 20
107.863891224741340
  0
VERTEX
  8
0
  6
CONTINUOUS
 62
256
 10
119.714279802803030
 20
108.486843203361860
  0
VERTEX
  8
0
  6
CONTINUOUS
 62
256
 10
119.981736817895170
 20
109.162785489441830
  0
SEQEND
  8
0
  6
CONTINUOUS
 62
256
  0
LINE
  8
0
  6
CONTINUOUS
 62
256
 10
115.372046000000000
 20
206.336994000000000
 11
117.372046000000000
 21
204.684352999999990
  0
LINE
  8
0
  6
CONTINUOUS
 62
256
 10
113.372046000000000
 20
207.512779999999990
 11
115.372046000000000
 21
206.336994000000000
  0
LINE
  8
0
  6
CONTINUOUS
 62
256
 10
115.372046000000000
 20
206.336994000000000
 11
113.372046000000000
 21
204.684352999999990
  0
LINE
  8
0
  6
CONTINUOUS
 62
256
 10
117.372046000000000
 20
207.512779999999990
 11
115.372046000000000
 21
206.336994000000000
  0
POLYLINE
  8
0
  6
CONTINUOUS
 62
256
 66
1
 70
1
  0
VERTEX
  8
0
  6
CONTINUOUS
 62
256
 10
120.072045999999990
 20
204.520404000000010
  0
VERTEX
  8
0
  6
CONTINUOUS
 62
256
 10
119.981736817895170
 20
205.223360510558190
  0
VERTEX
  8
0
  6
CONTINUOUS
 62
256
 10
119.714279802803030
 20
205.899302796638150
  0
VERTEX
  8
0
  6
CONTINUOUS
 62
256
 10
119.279953177821950
 20
206.522254775258690
  0
VERTEX
  8
0
  6
CONTINUOUS
 62
256
 10
118.695447871576760
 20
207.068276751236850
  0
VERTEX
  8
0
  6
CONTINUOUS
 62
256
 10
117.983226095192120
 20
207.516385406248500
  0
VERTEX
  8
0
  6
CONTINUOUS
 62
256
 10
117.170658132115920
 20
207.849360175983750
  0
VERTEX
  8
0
  6
CONTINUOUS
 62
256
 10
116.288970513475800
 20
208.054405026776100
  0
VERTEX
  8
0
  6
CONTINUOUS
 62
256
 10
115.372046000000000
 20
208.123640200000010
  0
VERTEX
  8
0
  6
CONTINUOUS
 62
256
 10
114.455121486524190
 20
208.054405026776100
  0
VERTEX
  8
0
  6
CONTINUOUS
 62
256
 10
113.573433867884080
 20
207.849360175983750
  0
VERTEX
  8
0
  6
CONTINUOUS
 62
256
 10
112.760865904807870
 20
207.516385406248500
  0
VERTEX
  8
0
  6
CONTINUOUS
 62
256
 10
112.048644128423230
 20
207.068276751236850
  0
VERTEX
  8
0
  6
CONTINUOUS
 62
256
 10
111.464138822178040
 20
206.522254775258690
  0
VERTEX
  8
0
  6
CONTINUOUS
 62
256
 10
111.029812197196960
 20
205.899302796638150
  0
VERTEX
  8
0
  6
CONTINUOUS
 62
256
 10
110.762355182104830
 20
205.223360510558190
  0
VERTEX
  8
0
  6
CONTINUOUS
 62
256
 10
110.672046000000010
 20
204.520404000000010
  0
VERTEX
  8
0
  6
CONTINUOUS
 62
256
 10
110.762355182104830
 20
203.817447489441830
  0
VERTEX
  8
0
  6
CONTINUOUS
 62
256
 10
111.029812197196960
 20
203.141505203361870
  0
VERTEX
  8
0
  6
CONTINUOUS
 62
256
 10
111.464138822178040
 20
202.518553224741340
  0
VERTEX
  8
0
  6
CONTINUOUS
 62
256
 10
112.048644128423230
 20
201.972531248763180
  0
VERTEX
  8
0
  6
CONTINUOUS
 62
256
 10
112.760865904807870
 20
201.524422593751520
  0
VERTEX
  8
0
  6
CONTINUOUS
 62
256
 10
113.573433867884080
 20
201.191447824016280
  0
VERTEX
  8
0
  6
CONTINUOUS
 62
256
 10
114.455121486524190
 20
200.986402973223960
  0
VERTEX
  8
0
  6
CONTINUOUS
 62
256
 10
115.372046000000000
 20
200.917167800000020
  0
VERTEX
  8
0
  6
CONTINUOUS
 62
256
 10
116.288970513475790
 20
200.986402973223960
  0
VERTEX
  8
0
  6
CONTINUOUS
 62
256
 10
117.170658132115920
 20
201.191447824016280
  0
VERTEX
  8
0
  6
CONTINUOUS
 62
256
 10
117.983226095192120
 20
201.524422593751520
  0
VERTEX
  8
0
  6
CONTINUOUS
 62
256
 10
118.695447871576760
 20
201.972531248763180
  0
VERTEX
  8
0
  6
CONTINUOUS
 62
256
 10
119.279953177821950
 20
202.518553224741340
  0
VERTEX
  8
0
  6
CONTINUOUS
 62
256
 10
119.714279802803030
 20
203.141505203361870
  0
VERTEX
  8
0
  6
CONTINUOUS
 62
256
 10
119.981736817895170
 20
203.817447489441830
  0
SEQEND
  8
0
  6
CONTINUOUS
 62
256
  0
LINE
  8
0
  6
CONTINUOUS
 62
256
 10
114.372046000000000
 20
157.193073000000000
 11
114.372046000000000
 21
192.193073000000000
  0
LINE
  8
0
  6
CONTINUOUS
 62
256
 10
20.372046000000001
 20
209.693073000000000
 11
104.372046000000000
 21
209.693073000000000
  0
LINE
  8
0
  6
CONTINUOUS
 62
256
 10
104.372046000000000
 20
207.693073000000000
 11
20.372046000000001
 21
207.693073000000000
  0
LINE
  8
0
  6
CONTINUOUS
 62
256
 10
104.372046000000000
 20
208.193073000000000
 11
20.372046000000001
 21
208.193073000000000
  0
LINE
  8
0
  6
CONTINUOUS
 62
256
 10
104.372046000000000
 20
203.326156000000000
 11
20.372046000000001
 21
203.326156000000000
  0
LINE
  8
0
  6
CONTINUOUS
 62
256
 10
104.372046000000000
 20
201.697729000000010
 11
20.372046000000001
 21
201.697729000000010
  0
LINE
  8
0
  6
CONTINUOUS
 62
256
 10
104.372046000000000
 20
198.234986999999990
 11
20.372046000000001
 21
198.234986999999990
  0
LINE
  8
0
  6
CONTINUOUS
 62
256
 10
104.529646000000000
 20
197.233509000000000
 11
20.372046000000001
 21
197.233509000000000
  0
LINE
  8
0
  6
CONTINUOUS
 62
256
 10
114.372046000000000
 20
190.496674000000010
 11
112.172045999999990
 21
190.496674000000010
  0
LINE
  8
0
  6
CONTINUOUS
 62
256
 10
114.372046000000000
 20
188.907464000000000
 11
112.172045999999990
 21
188.907464000000000
  0
LINE
  8
0
  6
CONTINUOUS
 62
256
 10
114.372046000000000
 20
185.949468999999990
 11
112.172045999999990
 21
185.949468999999990
  0
LINE
  8
0
  6
CONTINUOUS
 62
256
 10
114.372046000000000
 20
184.470446000000010
 11
112.172045999999990
 21
184.470446000000010
  0
LINE
  8
0
  6
CONTINUOUS
 62
256
 10
114.372046000000000
 20
181.377714999999990
 11
112.172045999999990
 21
181.377714999999990
  0
LINE
  8
0
  6
CONTINUOUS
 62
256
 10
114.372046000000000
 20
180.031313000000010
 11
112.172045999999990
 21
180.031313000000010
  0
LINE
  8
0
  6
CONTINUOUS
 62
256
 10
114.372046000000000
 20
177.193073000000000
 11
112.172045999999990
 21
177.193073000000000
  0
LINE
  8
0
  6
CONTINUOUS
 62
256
 10
22.172046000000002
 20
185.949468999999990
 11
20.372046000000001
 21
185.949468999999990
  0
LINE
  8
0
  6
CONTINUOUS
 62
256
 10
22.172046000000002
 20
184.470446000000010
 11
20.372046000000001
 21
184.470446000000010
  0
LINE
  8
0
  6
CONTINUOUS
 62
256
 10
22.172046000000002
 20
181.377714999999990
 11
20.372046000000001
 21
181.377714999999990
  0
LINE
  8
0
  6
CONTINUOUS
 62
256
 10
22.172046000000002
 20
180.031313000000010
 11
20.372046000000001
 21
180.031313000000010
  0
LINE
  8
0
  6
CONTINUOUS
 62
256
 10
22.172046000000002
 20
177.193073000000000
 11
20.372046000000001
 21
177.193073000000000
  0
LINE
  8
0
  6
CONTINUOUS
 62
256
 10
22.172046000000002
 20
188.907464000000000
 11
20.372046000000001
 21
188.907464000000000
  0
LINE
  8
0
  6
CONTINUOUS
 62
256
 10
22.172046000000002
 20
190.496674000000010
 11
20.372046000000001
 21
190.496674000000010
  0
ARC
  8
0
  6
CONTINUOUS
 62
256
 10
23.172046000000002
 20
192.193073000000000
 40
1.000000000000000
 50
90.000000000000000
 51
180.000000000000000
  0
LINE
  8
0
  6
CONTINUOUS
 62
256
 10
23.172046000000002
 20
193.193073000000000
 11
111.172045999999990
 21
193.193073000000000
  0
LINE
  8
0
  6
CONTINUOUS
 62
256
 10
22.172046000000002
 20
192.193073000000000
 11
22.172046000000002
 21
157.193073000000000
  0
ARC
  8
0
  6
CONTINUOUS
 62
256
 10
111.172045999999990
 20
192.193073000000000
 40
1.000000000000000
 50
0.000000000000000
 51
90.000000000000000
  0
LINE
  8
0
  6
CONTINUOUS
 62
256
 10
112.172045999999990
 20
192.193073000000000
 11
112.172045999999990
 21
157.193073000000000
  0
ARC
  8
0
  6
CONTINUOUS
 62
256
 10
107.372046000000000
 20
198.193073000000000
 40
3.000000000000000
 50
180.000000000000000
 51
270.000000000000000
  0
LINE
  8
0
  6
CONTINUOUS
 62
256
 10
107.372046000000000
 20
195.193073000000000
 11
111.372046000000000
 21
195.193073000000000
  0
ARC
  8
0
  6
CONTINUOUS
 62
256
 10
111.372046000000000
 20
192.193073000000000
 40
3.000000000000000
 50
0.000000000000000
 51
90.000000000000000
  0
LINE
  8
0
  6
CONTINUOUS
 62
256
 10
193.692566000000000
 20
207.467604999999990
 11
201.263344999999990
 21
202.166489000000010
  0
LINE
  8
0
  6
CONTINUOUS
 62
256
 10
202.372046000000010
 20
200.036693000000010
 11
202.372046000000010
 21
157.193073000000000
  0
ARC
  8
0
  6
CONTINUOUS
 62
256
 10
199.772045999999990
 20
200.036693000000010
 40
2.599999999999994
 50
0.000000000000000
 51
54.999999999999801
  0
ARC
  8
0
  6
CONTINUOUS
 62
256
 10
181.876891000000000
 20
190.593073000000000
 40
20.599999999999991
 50
55.000000000000007
 51
90.000000000000000
  0
LINE
  8
0
  6
CONTINUOUS
 62
256
 10
114.372046000000000
 20
157.193073000000000
 11
114.372046000000000
 21
122.193073000000000
  0
LINE
  8
0
  6
CONTINUOUS
 62
256
 10
20.372046000000001
 20
104.693073000000000
 11
104.372046000000000
 21
104.693073000000000
  0
LINE
  8
0
  6
CONTINUOUS
 62
256
 10
104.372046000000000
 20
106.693073000000000
 11
20.372046000000001
 21
106.693073000000000
  0
LINE
  8
0
  6
CONTINUOUS
 62
256
 10
104.372046000000000
 20
106.193073000000000
 11
20.372046000000001
 21
106.193073000000000
  0
LINE
  8
0
  6
CONTINUOUS
 62
256
 10
104.372046000000000
 20
111.059991000000000
 11
20.372046000000001
 21
111.059991000000000
  0
LINE
  8
0
  6
CONTINUOUS
 62
256
 10
104.372046000000000
 20
112.688418000000000
 11
20.372046000000001
 21
112.688418000000000
  0
LINE
  8
0
  6
CONTINUOUS
 62
256
 10
104.372046000000000
 20
116.151159000000010
 11
20.372046000000001
 21
116.151159000000010
  0
LINE
  8
0
  6
CONTINUOUS
 62
256
 10
104.529646000000000
 20
117.152638000000000
 11
20.372046000000001
 21
117.152638000000000
  0
LINE
  8
0
  6
CONTINUOUS
 62
256
 10
114.372046000000000
 20
123.889472000000000
 11
112.172045999999990
 21
123.889472000000000
  0
LINE
  8
0
  6
CONTINUOUS
 62
256
 10
114.372046000000000
 20
125.478682000000010
 11
112.172045999999990
 21
125.478682000000010
  0
LINE
  8
0
  6
CONTINUOUS
 62
256
 10
114.372046000000000
 20
128.436678000000000
 11
112.172045999999990
 21
128.436678000000000
  0
LINE
  8
0
  6
CONTINUOUS
 62
256
 10
114.372046000000000
 20
129.915701000000010
 11
112.172045999999990
 21
129.915701000000010
  0
LINE
  8
0
  6
CONTINUOUS
 62
256
 10
114.372046000000000
 20
133.008432000000000
 11
112.172045999999990
 21
133.008432000000000
  0
LINE
  8
0
  6
CONTINUOUS
 62
256
 10
114.372046000000000
 20
134.354834000000010
 11
112.172045999999990
 21
134.354834000000010
  0
LINE
  8
0
  6
CONTINUOUS
 62
256
 10
114.372046000000000
 20
137.193073000000000
 11
112.172045999999990
 21
137.193073000000000
  0
LINE
  8
0
  6
CONTINUOUS
 62
256
 10
22.172046000000002
 20
128.436678000000000
 11
20.372046000000001
 21
128.436678000000000
  0
LINE
  8
0
  6
CONTINUOUS
 62
256
 10
22.172046000000002
 20
129.915701000000010
 11
20.372046000000001
 21
129.915701000000010
  0
LINE
  8
0
  6
CONTINUOUS
 62
256
 10
22.172046000000002
 20
133.008432000000000
 11
20.372046000000001
 21
133.008432000000000
  0
LINE
  8
0
  6
CONTINUOUS
 62
256
 10
22.172046000000002
 20
134.354834000000010
 11
20.372046000000001
 21
134.354834000000010
  0
LINE
  8
0
  6
CONTINUOUS
 62
256
 10
22.172046000000002
 20
137.193073000000000
 11
20.372046000000001
 21
137.193073000000000
  0
LINE
  8
0
  6
CONTINUOUS
 62
256
 10
22.172046000000002
 20
125.478682000000010
 11
20.372046000000001
 21
125.478682000000010
  0
LINE
  8
0
  6
CONTINUOUS
 62
256
 10
22.172046000000002
 20
123.889472000000000
 11
20.372046000000001
 21
123.889472000000000
  0
ARC
  8
0
  6
CONTINUOUS
 62
256
 10
23.172046000000002
 20
122.193073000000000
 40
1.000000000000000
 50
180.000000000000000
 51
270.000000000000000
  0
LINE
  8
0
  6
CONTINUOUS
 62
256
 10
23.172046000000002
 20
121.193073000000000
 11
111.172045999999990
 21
121.193073000000000
  0
LINE
  8
0
  6
CONTINUOUS
 62
256
 10
22.172046000000002
 20
122.193073000000000
 11
22.172046000000002
 21
157.193073000000000
  0
ARC
  8
0
  6
CONTINUOUS
 62
256
 10
111.172045999999990
 20
122.193073000000000
 40
1.000000000000000
 50
270.000000000000000
 51
0.000000000000000
  0
LINE
  8
0
  6
CONTINUOUS
 62
256
 10
112.172045999999990
 20
122.193073000000000
 11
112.172045999999990
 21
157.193073000000000
  0
ARC
  8
0
  6
CONTINUOUS
 62
256
 10
107.372046000000000
 20
116.193073000000000
 40
3.000000000000000
 50
90.000000000000000
 51
180.000000000000000
  0
LINE
  8
0
  6
CONTINUOUS
 62
256
 10
107.372046000000000
 20
119.193073000000000
 11
111.372046000000000
 21
119.193073000000000
  0
ARC
  8
0
  6
CONTINUOUS
 62
256
 10
111.372046000000000
 20
122.193073000000000
 40
3.000000000000000
 50
270.000000000000000
 51
0.000000000000000
  0
LINE
  8
0
  6
CONTINUOUS
 62
256
 10
193.692566000000000
 20
106.918541000000000
 11
201.263344999999990
 21
112.219658000000000
  0
LINE
  8
0
  6
CONTINUOUS
 62
256
 10
202.372046000000010
 20
114.349453000000000
 11
202.372046000000010
 21
157.193073000000000
  0
ARC
  8
0
  6
CONTINUOUS
 62
256
 10
199.772045999999990
 20
114.349453000000000
 40
2.600000000000007
 50
305.000000000000000
 51
0.000000000000000
  0
ARC
  8
0
  6
CONTINUOUS
 62
256
 10
181.876891000000000
 20
123.793073000000010
 40
20.600000000000009
 50
270.000000000000000
 51
304.999999999999940
  0
TEXT
  8
0
  6
CONTINUOUS
 62
256
 10
474.942779541015620
 20
-214.556503295898440
 40
3.299999952316284
  1
1/1
 50
0.000002504478167
 41
0.850909097352304
  7
STANDARD1
  0
TEXT
  8
0
  6
CONTINUOUS
 62
256
 10
472.524780273437500
 20
-214.556503295898440
 40
3.299999952316284
  1
 
 50
0.000002504478167
 41
1.733333298293026
  7
STANDARD1
  0
TEXT
  8
0
  6
CONTINUOUS
 62
256
 10
459.474151611328120
 20
-214.556503295898440
 40
3.299999952316284
  1
SCALE
 50
0.000002504478167
 41
0.821052645401140
  7
STANDARD1
  0
TEXT
  8
0
  6
CONTINUOUS
 62
256
 10
456.222778320312500
 20
-214.556503295898440
 40
3.299999952316284
  1
 
 50
0.000002504478167
 41
1.733333298293026
  7
STANDARD1
  0
TEXT
  8
0
  6
CONTINUOUS
 62
256
 10
471.076934814453120
 20
-209.256500244140620
 40
3.299999952316284
  1
1/240
 50
0.000002504478167
 41
0.821052645401140
  7
STANDARD1
  0
TEXT
  8
0
  6
CONTINUOUS
 62
256
 10
467.294952392578120
 20
-209.256500244140620
 40
3.299999952316284
  1
ü`
 50
0.000002504478167
 41
1.176000019651471
  7
STANDARD1
  0
TEXT
  8
0
  6
CONTINUOUS
 62
256
 10
456.222778320312500
 20
-209.256500244140620
 40
3.299999952316284
  1
1/80
 50
0.000002504478167
 41
0.832000075658163
  7
STANDARD1
  0
TEXT
  8
0
  6
CONTINUOUS
 62
256
 10
456.222778320312500
 20
-203.956497192382810
 40
3.299999952316284
  1
GM-SHYFB-RL
 50
0.000002504478167
 41
0.798139564113939
  7
STANDARD1
  0
TEXT
  8
0
  6
CONTINUOUS
 62
256
 10
462.048156738281250
 20
-198.656509399414060
 40
3.299999952316284
  1
0.2kW
 50
0.000002504478167
 41
0.821052645401140
  7
STANDARD1
  0
TEXT
  8
0
  6
CONTINUOUS
 62
256
 10
456.222778320312500
 20
-198.656509399414060
 40
3.299999952316284
  1
  
 50
0.000002504478167
 41
1.485714400175845
  7
STANDARD1
  0
TEXT
  8
0
  6
CONTINUOUS
 62
256
 10
462.042266845703120
 20
-193.356506347656250
 40
3.299999952316284
  1
SHY083
 50
0.000002504478167
 41
0.813913121261144
  7
STANDARD1
  0
TEXT
  8
0
  6
CONTINUOUS
 62
256
 10
456.222778320312500
 20
-193.356506347656250
 40
3.299999952316284
  1
  
 50
0.000002504478167
 41
1.485714400175845
  7
STANDARD1
  0
LINE
  8
0
  6
CONTINUOUS
 62
256
 10
407.971075999999980
 20
-165.682824000000010
 11
407.971075999999980
 21
-182.140677000000010
  0
LINE
  8
0
  6
CONTINUOUS
 62
256
 10
419.971075999999980
 20
-181.939944000000000
 11
419.971075999999980
 21
-155.318572999999990
  0
LINE
  8
0
  6
CONTINUOUS
 62
256
 10
407.971075999999980
 20
-182.149405000000000
 11
419.971075999999980
 21
-181.939944000000000
  0
LINE
  8
0
  6
CONTINUOUS
 62
256
 10
321.971075999999980
 20
-180.796637000000000
 11
321.971075999999980
 21
-155.318572999999990
  0
LINE
  8
0
  6
CONTINUOUS
 62
256
 10
407.971075999999980
 20
-182.140677000000010
 11
331.971075999999980
 21
-180.796637000000000
  0
LINE
  8
0
  6
CONTINUOUS
 62
256
 10
331.971075999999980
 20
-180.796637000000000
 11
321.971075999999980
 21
-180.796637000000000
  0
LINE
  8
0
  6
CONTINUOUS
 62
256
 10
423.971075999999980
 20
-52.649405000000002
 11
423.971075999999980
 21
-81.844143000000003
  0
LINE
  8
0
  6
CONTINUOUS
 62
256
 10
423.971075999999980
 20
-52.649405000000002
 11
419.971075999999980
 21
-52.649405000000002
  0
LINE
  8
0
  6
CONTINUOUS
 62
256
 10
407.971075999999980
 20
-34.123221999999998
 11
406.971075999999980
 21
-34.140906999999999
  0
LINE
  8
0
  6
CONTINUOUS
 62
256
 10
407.971075999999980
 20
-34.123221999999998
 11
407.971075999999980
 21
-54.581076000000003
  0
LINE
  8
0
  6
CONTINUOUS
 62
256
 10
419.971075999999980
 20
-64.945325999999994
 11
419.971075999999980
 21
-34.358865999999999
  0
LINE
  8
0
  6
CONTINUOUS
 62
256
 10
419.971075999999980
 20
-34.358865999999999
 11
407.971075999999980
 21
-34.149405000000002
  0
LINE
  8
0
  6
CONTINUOUS
 62
256
 10
334.971075999999980
 20
-35.414208000000002
 11
331.971075999999980
 21
-35.467261999999998
  0
LINE
  8
0
  6
CONTINUOUS
 62
256
 10
321.971075999999980
 20
-64.945325999999994
 11
321.971075999999980
 21
-35.467261999999998
  0
LINE
  8
0
  6
CONTINUOUS
 62
256
 10
317.971075999999980
 20
-81.844143000000003
 11
317.971075999999980
 21
-52.649405000000002
  0
LINE
  8
0
  6
CONTINUOUS
 62
256
 10
331.971075999999980
 20
-35.467261999999998
 11
321.971075999999980
 21
-35.467261999999998
  0
LINE
  8
0
  6
CONTINUOUS
 62
256
 10
321.971075999999980
 20
-52.649405000000002
 11
317.971075999999980
 21
-52.649405000000002
  0
LINE
  8
0
  6
DASHDOT
 62
256
 10
428.767559000000010
 20
-95.149405000000002
 11
266.835429999999970
 21
-95.149405000000002
  0
LINE
  8
0
  6
CONTINUOUS
 62
256
 10
315.971075999999980
 20
-109.649405000000000
 11
316.971365999999990
 21
-109.649405000000000
  0
LINE
  8
0
  6
CONTINUOUS
 62
256
 10
315.971075999999980
 20
-109.149405000000000
 11
270.971075999999980
 21
-109.149405000000000
  0
LINE
  8
0
  6
CONTINUOUS
 62
256
 10
315.971075999999980
 20
-81.149405000000002
 11
270.971075999999980
 21
-81.149405000000002
  0
LINE
  8
0
  6
CONTINUOUS
 62
256
 10
306.971075999999980
 20
-78.149405000000002
 11
270.971075999999980
 21
-78.149405000000002
  0
LINE
  8
0
  6
CONTINUOUS
 62
256
 10
306.971075999999980
 20
-81.149405000000002
 11
306.971075999999980
 21
-78.149405000000002
  0
LINE
  8
0
  6
CONTINUOUS
 62
256
 10
270.971075999999980
 20
-95.149405000000002
 11
270.971075999999980
 21
-109.149405000000000
  0
LINE
  8
0
  6
CONTINUOUS
 62
256
 10
270.971075999999980
 20
-95.149405000000002
 11
270.971075999999980
 21
-78.149405000000002
  0
LINE
  8
0
  6
CONTINUOUS
 62
256
 10
315.971075999999980
 20
-95.149405000000002
 11
315.971075999999980
 21
-80.649405000000002
  0
LINE
  8
0
  6
CONTINUOUS
 62
256
 10
315.971075999999980
 20
-95.149405000000002
 11
315.971075999999980
 21
-80.649405000000002
  0
LINE
  8
0
  6
CONTINUOUS
 62
256
 10
315.971075999999980
 20
-80.649405000000002
 11
317.971075999999980
 21
-80.649405000000002
  0
LINE
  8
0
  6
CONTINUOUS
 62
256
 10
315.971075999999980
 20
-95.149405000000002
 11
315.971075999999980
 21
-109.649405000000000
  0
LINE
  8
0
  6
CONTINUOUS
 62
256
 10
315.971075999999980
 20
-95.149405000000002
 11
315.971075999999980
 21
-109.649405000000000
  0
LINE
  8
0
  6
CONTINUOUS
 62
256
 10
406.971075999999980
 20
-52.649405000000002
 11
400.963574999999990
 21
-52.649405000000002
  0
LINE
  8
0
  6
CONTINUOUS
 62
256
 10
406.971075999999980
 20
-54.149444000000003
 11
406.971075999999980
 21
-52.649405000000002
  0
LINE
  8
0
  6
CONTINUOUS
 62
256
 10
334.971075999999980
 20
-54.149444000000003
 11
334.971075999999980
 21
-52.649405000000002
  0
LINE
  8
0
  6
CONTINUOUS
 62
256
 10
340.983090000000000
 20
-52.649405000000002
 11
334.971075999999980
 21
-52.649405000000002
  0
ARC
  8
0
  6
CONTINUOUS
 62
256
 10
325.549128999999990
 20
-149.580272000000010
 40
6.599999999999971
 50
185.743681999999920
 51
224.999999999999830
  0
ARC
  8
0
  6
CONTINUOUS
 62
256
 10
717.571075999999950
 20
-110.149405000000000
 40
400.600000000000020
 50
180.000000000000000
 51
185.743681999999980
  0
ARC
  8
0
  6
CONTINUOUS
 62
256
 10
342.907318999999970
 20
-147.139472000000010
 40
20.599999999999991
 50
225.000000000000000
 51
264.247716999999910
  0
LINE
  8
0
  6
CONTINUOUS
 62
256
 10
328.340918999999990
 20
-161.705872000000000
 11
320.882224000000010
 21
-154.247176999999990
  0
ARC
  8
0
  6
CONTINUOUS
 62
256
 10
370.971075999999980
 20
131.450594999999990
 40
300.600000000000020
 50
264.247717000000020
 51
270.000000000000000
  0
ARC
  8
0
  6
CONTINUOUS
 62
256
 10
416.393021999999970
 20
-149.580272000000010
 40
6.600000000000017
 50
315.000000000000170
 51
354.256318000000020
  0
ARC
  8
0
  6
CONTINUOUS
 62
256
 10
24.371075999999999
 20
-110.149405000000000
 40
400.600000000000020
 50
354.256318000000020
 51
0.000000000000000
  0
ARC
  8
0
  6
CONTINUOUS
 62
256
 10
399.034831999999990
 20
-147.139472000000010
 40
20.599999999999991
 50
275.752282999999860
 51
315.000000000000000
  0
LINE
  8
0
  6
CONTINUOUS
 62
256
 10
413.601231999999980
 20
-161.705872000000000
 11
421.059927000000020
 21
-154.247176999999990
  0
ARC
  8
0
  6
CONTINUOUS
 62
256
 10
370.971075999999980
 20
131.450594999999990
 40
300.600000000000020
 50
270.000000000000000
 51
275.752282999999980
  0
ARC
  8
0
  6
CONTINUOUS
 62
256
 10
416.393021999999970
 20
-70.718537999999995
 40
6.599999999999973
 50
5.743682000000063
 51
44.999999999999829
  0
ARC
  8
0
  6
CONTINUOUS
 62
256
 10
24.371075999999999
 20
-110.149405000000000
 40
400.600000000000020
 50
0.000000000000000
 51
5.743682000000000
  0
ARC
  8
0
  6
CONTINUOUS
 62
256
 10
399.034831999999990
 20
-73.159338000000005
 40
20.599999999999994
 50
45.000000000000014
 51
84.247716999999938
  0
LINE
  8
0
  6
CONTINUOUS
 62
256
 10
413.601231999999980
 20
-58.592937999999997
 11
421.059927000000020
 21
-66.051632999999995
  0
ARC
  8
0
  6
CONTINUOUS
 62
256
 10
370.971075999999980
 20
-351.749405000000020
 40
300.600000000000020
 50
84.247716999999994
 51
90.000000000000000
  0
ARC
  8
0
  6
CONTINUOUS
 62
256
 10
370.971075999999980
 20
-351.749405000000020
 40
290.797000000000030
 50
90.000000000000000
 51
95.752283000000006
  0
LINE
  8
0
  6
CONTINUOUS
 62
256
 10
335.272687000000020
 20
-65.524705999999995
 11
329.385272999999980
 21
-71.412119000000004
  0
ARC
  8
0
  6
CONTINUOUS
 62
256
 10
342.907318999999970
 20
-73.159338000000005
 40
10.797000000000002
 50
95.752283000000034
 51
135.000000000000060
  0
ARC
  8
0
  6
CONTINUOUS
 62
256
 10
370.971075999999980
 20
-351.749405000000020
 40
300.600000000000020
 50
90.000000000000000
 51
95.752283000000006
  0
LINE
  8
0
  6
CONTINUOUS
 62
256
 10
328.340918999999990
 20
-58.592937999999997
 11
320.882224000000010
 21
-66.051632999999995
  0
ARC
  8
0
  6
CONTINUOUS
 62
256
 10
342.907318999999970
 20
-73.159338000000005
 40
20.600000000000009
 50
95.752283000000077
 51
135.000000000000000
  0
ARC
  8
0
  6
CONTINUOUS
 62
256
 10
370.971075999999980
 20
131.450594999999990
 40
290.797000000000030
 50
264.998350000000070
 51
270.000000000000000
  0
LINE
  8
0
  6
CONTINUOUS
 62
256
 10
332.725577999999980
 20
-152.226994999999990
 11
329.385272999999980
 21
-148.886689999999990
  0
ARC
  8
0
  6
CONTINUOUS
 62
256
 10
347.431278000000020
 20
-137.521295000000010
 40
20.797000000000015
 50
225.000000000000000
 51
264.998350000000070
  0
ARC
  8
0
  6
CONTINUOUS
 62
256
 10
717.571075999999950
 20
-110.149405000000000
 40
390.797000000000030
 50
180.000000000000000
 51
185.417963999999980
  0
ARC
  8
0
  6
CONTINUOUS
 62
256
 10
331.506594000000010
 20
-146.765369999999990
 40
2.999999999999998
 50
185.417964000000180
 51
224.999999999999630
  0
ARC
  8
0
  6
CONTINUOUS
 62
256
 10
370.971075999999980
 20
131.450594999999990
 40
290.797000000000030
 50
270.000000000000000
 51
275.001649999999980
  0
LINE
  8
0
  6
CONTINUOUS
 62
256
 10
409.216572999999980
 20
-152.226994999999990
 11
412.556877999999980
 21
-148.886689999999990
  0
ARC
  8
0
  6
CONTINUOUS
 62
256
 10
394.510873000000000
 20
-137.521295000000010
 40
20.796999999999990
 50
275.001650000000040
 51
315.000000000000000
  0
ARC
  8
0
  6
CONTINUOUS
 62
256
 10
24.371075999999999
 20
-110.149405000000000
 40
390.797000000000030
 50
354.582036000000020
 51
0.000000000000000
  0
ARC
  8
0
  6
CONTINUOUS
 62
256
 10
410.435558000000010
 20
-146.765369999999990
 40
3.000000000000004
 50
315.000000000000340
 51
354.582035999999790
  0
ARC
  8
0
  6
CONTINUOUS
 62
256
 10
370.971075999999980
 20
-351.749405000000020
 40
290.797000000000030
 50
84.998350000000002
 51
90.000000000000000
  0
LINE
  8
0
  6
CONTINUOUS
 62
256
 10
409.216572999999980
 20
-68.071814000000003
 11
412.556877999999980
 21
-71.412119000000004
  0
ARC
  8
0
  6
CONTINUOUS
 62
256
 10
394.510873000000000
 20
-82.777513999999996
 40
20.797000000000008
 50
44.999999999999972
 51
84.998349999999959
  0
ARC
  8
0
  6
CONTINUOUS
 62
256
 10
24.371075999999999
 20
-110.149405000000000
 40
390.797000000000030
 50
0.000000000000000
 51
5.417963999999998
  0
ARC
  8
0
  6
CONTINUOUS
 62
256
 10
410.435558000000010
 20
-73.533439999999999
 40
2.999999999999996
 50
5.417963999999932
 51
44.999999999999808
  0
ARC
  8
0
  6
CONTINUOUS
 62
256
 10
331.506594000000010
 20
-73.533439999999999
 40
3.000000000000014
 50
135.000000000000200
 51
174.582036000000070
  0
ARC
  8
0
  6
CONTINUOUS
 62
256
 10
717.571075999999950
 20
-110.149405000000000
 40
390.797000000000030
 50
174.582035999999990
 51
180.000000000000000
  0
ARC
  8
0
  6
CONTINUOUS
 62
256
 10
325.549128999999990
 20
-70.718537999999995
 40
6.600000000000017
 50
135.000000000000170
 51
174.256317999999940
  0
ARC
  8
0
  6
CONTINUOUS
 62
256
 10
717.571075999999950
 20
-110.149405000000000
 40
400.600000000000080
 50
174.256317999999990
 51
180.000000000000000
  0
ARC
  8
0
  6
CONTINUOUS
 62
256
 10
405.795636000000000
 20
-113.649405000000000
 40
1.000000000000000
 50
90.000000000000000
 51
174.260829999999570
  0
ARC
  8
0
  6
CONTINUOUS
 62
256
 10
408.809548000000010
 20
-113.649405000000000
 40
1.000000000000027
 50
354.715267000000210
 51
90.000000000000000
  0
ARC
  8
0
  6
CONTINUOUS
 62
256
 10
400.262713000000020
 20
-113.649405000000000
 40
1.000000000000019
 50
353.186146000000240
 51
90.000000000000000
  0
LINE
  8
0
  6
CONTINUOUS
 62
256
 10
408.809548000000010
 20
-112.649405000000000
 11
405.795636000000000
 21
-112.649405000000000
  0
ARC
  8
0
  6
CONTINUOUS
 62
256
 10
376.768209000000010
 20
-127.190333000000000
 40
0.999999999999984
 50
30.000000000000544
 51
108.787729000000750
  0
LINE
  8
0
  6
CONTINUOUS
 62
256
 10
379.159152000000010
 20
-129.331569000000000
 11
377.634233999999990
 21
-126.690333000000000
  0
ARC
  8
0
  6
CONTINUOUS
 62
256
 10
378.293125999999970
 20
-129.831569000000000
 40
0.999999999999993
 50
290.405931999999840
 51
30.000000000000544
  0
ARC
  8
0
  6
CONTINUOUS
 62
256
 10
381.073912000000010
 20
-134.648031000000000
 40
0.999999999999984
 50
30.000000000000544
 51
112.410458000000460
  0
ARC
  8
0
  6
CONTINUOUS
 62
256
 10
385.352266999999980
 20
-142.058359000000000
 40
0.999999999999984
 50
30.000000000000544
 51
114.260829999998650
  0
LINE
  8
0
  6
CONTINUOUS
 62
256
 10
383.451831000000030
 20
-136.766707000000000
 11
381.939937999999980
 21
-134.148031000000000
  0
ARC
  8
0
  6
CONTINUOUS
 62
256
 10
382.585804999999990
 20
-137.266707000000000
 40
1.000000000000000
 50
293.186146000000120
 51
30.000000000000544
  0
LINE
  8
0
  6
CONTINUOUS
 62
256
 10
387.725248000000020
 20
-144.168483000000010
 11
386.218292000000020
 21
-141.558359000000000
  0
ARC
  8
0
  6
CONTINUOUS
 62
256
 10
386.859222999999990
 20
-144.668483000000010
 40
1.000000000000004
 50
294.715267000000150
 51
30.000000000000544
  0
ARC
  8
0
  6
CONTINUOUS
 62
256
 10
392.921401000000000
 20
-141.168483000000010
 40
0.999999999999984
 50
210.000000000000510
 51
305.284733000000980
  0
ARC
  8
0
  6
CONTINUOUS
 62
256
 10
391.414445000000000
 20
-138.558359000000000
 40
0.999999999999998
 50
125.739170000000210
 51
210.000000000000510
  0
ARC
  8
0
  6
CONTINUOUS
 62
256
 10
397.238926999999990
 20
-113.649405000000000
 40
1.000000000000000
 50
90.000000000000000
 51
172.410458000000010
  0
ARC
  8
0
  6
CONTINUOUS
 62
256
 10
388.647983000000010
 20
-133.766707000000000
 40
0.999999999999984
 50
210.000000000000510
 51
306.813854000001190
  0
ARC
  8
0
  6
CONTINUOUS
 62
256
 10
387.136090000000020
 20
-131.148031000000000
 40
0.999999999999993
 50
127.589541999998830
 51
210.000000000000510
  0
ARC
  8
0
  6
CONTINUOUS
 62
256
 10
391.677354999999980
 20
-113.649405000000000
 40
0.999999999999978
 50
350.405932000000010
 51
90.000000000000000
  0
ARC
  8
0
  6
CONTINUOUS
 62
256
 10
388.627519000000010
 20
-113.649405000000000
 40
1.000000000000000
 50
90.000000000000000
 51
168.787729000000270
  0
ARC
  8
0
  6
CONTINUOUS
 62
256
 10
384.355303999999990
 20
-126.331569000000000
 40
0.999999999999984
 50
210.000000000000510
 51
309.594067999999310
  0
ARC
  8
0
  6
CONTINUOUS
 62
256
 10
382.830385999999980
 20
-123.690333000000000
 40
1.000000000000006
 50
131.212270999999760
 51
210.000000000000510
  0
ARC
  8
0
  6
CONTINUOUS
 62
256
 10
380.002164999999990
 20
-118.791709999999990
 40
0.999999999999984
 50
210.000000000000510
 51
316.260205000000270
  0
ARC
  8
0
  6
CONTINUOUS
 62
256
 10
382.971075999999980
 20
-113.649405000000000
 40
0.999999999999976
 50
343.739794999999330
 51
90.000000000000000
  0
ARC
  8
0
  6
CONTINUOUS
 62
256
 10
379.802837000000010
 20
-113.649405000000000
 40
1.000000000000000
 50
90.000000000000000
 51
158.381728000000550
  0
ARC
  8
0
  6
CONTINUOUS
 62
256
 10
378.418045000000010
 20
-116.047934000000000
 40
0.999999999999985
 50
141.618271999999000
 51
210.000000000000510
  0
ARC
  8
0
  6
CONTINUOUS
 62
256
 10
370.971075999999980
 20
-110.149405000000000
 40
39.000000000000000
 50
305.284733000000020
 51
354.715266999999980
  0
ARC
  8
0
  6
CONTINUOUS
 62
256
 10
370.971075999999980
 20
-110.149405000000000
 40
30.499999999999993
 50
306.813853999999990
 51
353.186146000000010
  0
ARC
  8
0
  6
CONTINUOUS
 62
256
 10
370.971075999999980
 20
-110.149405000000000
 40
33.999999999999972
 50
305.739169999999940
 51
354.260830000000000
  0
ARC
  8
0
  6
CONTINUOUS
 62
256
 10
370.971075999999980
 20
-110.149405000000000
 40
25.499999999999986
 50
307.589541999999990
 51
352.410458000000010
  0
ARC
  8
0
  6
CONTINUOUS
 62
256
 10
370.971075999999980
 20
-110.149405000000000
 40
21.999999999999986
 50
309.594067999999940
 51
350.405932000000010
  0
ARC
  8
0
  6
CONTINUOUS
 62
256
 10
370.971075999999980
 20
-110.149405000000000
 40
17.000000000000014
 50
311.212270999999990
 51
348.787729000000010
  0
ARC
  8
0
  6
CONTINUOUS
 62
256
 10
370.971075999999980
 20
-110.149405000000000
 40
13.500000000000004
 50
316.260204999999980
 51
343.739794999999960
  0
ARC
  8
0
  6
CONTINUOUS
 62
256
 10
370.971075999999980
 20
-110.149405000000000
 40
8.500000000000005
 50
321.618272000000050
 51
338.381728000000010
  0
LINE
  8
0
  6
CONTINUOUS
 62
256
 10
387.781957999999970
 20
-134.266707000000000
 11
386.270064999999990
 21
-131.648031000000000
  0
LINE
  8
0
  6
CONTINUOUS
 62
256
 10
392.055375000000030
 20
-141.668483000000010
 11
390.548419000000020
 21
-139.058359000000000
  0
LINE
  8
0
  6
CONTINUOUS
 62
256
 10
383.489279000000010
 20
-126.831569000000000
 11
381.964361000000000
 21
-124.190333000000000
  0
LINE
  8
0
  6
CONTINUOUS
 62
256
 10
379.136139000000010
 20
-119.291709999999990
 11
377.552020000000030
 21
-116.547934000000000
  0
LINE
  8
0
  6
CONTINUOUS
 62
256
 10
382.971075999999980
 20
-112.649405000000000
 11
379.802837000000010
 21
-112.649405000000000
  0
LINE
  8
0
  6
CONTINUOUS
 62
256
 10
391.677354999999980
 20
-112.649405000000000
 11
388.627519000000010
 21
-112.649405000000000
  0
LINE
  8
0
  6
CONTINUOUS
 62
256
 10
400.262713000000020
 20
-112.649405000000000
 11
397.238926999999990
 21
-112.649405000000000
  0
ARC
  8
0
  6
CONTINUOUS
 62
256
 10
372.355866999999990
 20
-119.547934000000000
 40
0.999999999999984
 50
30.000000000000544
 51
98.381727999998901
  0
ARC
  8
0
  6
CONTINUOUS
 62
256
 10
370.971075999999980
 20
-110.149405000000000
 40
8.500000000000002
 50
261.618271999999930
 51
278.381728000000070
  0
LINE
  8
0
  6
CONTINUOUS
 62
256
 10
374.806012000000010
 20
-121.791709999999990
 11
373.221893000000020
 21
-119.047934000000000
  0
ARC
  8
0
  6
CONTINUOUS
 62
256
 10
373.939986999999970
 20
-122.291709999999990
 40
1.000000000000011
 50
283.739795000001270
 51
30.000000000000544
  0
ARC
  8
0
  6
CONTINUOUS
 62
256
 10
353.314632000000020
 20
-113.649405000000000
 40
1.000000000000016
 50
11.212270999999729
 51
90.000000000000000
  0
LINE
  8
0
  6
CONTINUOUS
 62
256
 10
350.264795999999990
 20
-112.649405000000000
 11
353.314632000000020
 21
-112.649405000000000
  0
ARC
  8
0
  6
CONTINUOUS
 62
256
 10
350.264795999999990
 20
-113.649405000000000
 40
1.000000000000000
 50
90.000000000000000
 51
189.594067999999960
  0
ARC
  8
0
  6
CONTINUOUS
 62
256
 10
344.703224999999970
 20
-113.649405000000000
 40
0.999999999999990
 50
7.589541999999997
 51
90.000000000000000
  0
LINE
  8
0
  6
CONTINUOUS
 62
256
 10
341.679439000000000
 20
-112.649405000000000
 11
344.703224999999970
 21
-112.649405000000000
  0
ARC
  8
0
  6
CONTINUOUS
 62
256
 10
341.679439000000000
 20
-113.649405000000000
 40
1.000000000000000
 50
90.000000000000000
 51
186.813853999999760
  0
ARC
  8
0
  6
CONTINUOUS
 62
256
 10
336.146515000000020
 20
-113.649405000000000
 40
0.999999999999978
 50
5.739170000000447
 51
90.000000000000000
  0
LINE
  8
0
  6
CONTINUOUS
 62
256
 10
333.132603000000020
 20
-112.649405000000000
 11
336.146515000000020
 21
-112.649405000000000
  0
ARC
  8
0
  6
CONTINUOUS
 62
256
 10
333.132603000000020
 20
-113.649405000000000
 40
1.000000000000000
 50
90.000000000000000
 51
185.284732999999760
  0
ARC
  8
0
  6
CONTINUOUS
 62
256
 10
353.294168000000010
 20
-133.766707000000000
 40
1.000000000000000
 50
233.186145999998760
 51
329.999999999999490
  0
LINE
  8
0
  6
CONTINUOUS
 62
256
 10
354.160193999999990
 20
-134.266707000000000
 11
355.672086999999980
 21
-131.648031000000000
  0
ARC
  8
0
  6
CONTINUOUS
 62
256
 10
354.806061000000000
 20
-131.148031000000000
 40
0.999999999999984
 50
329.999999999999490
 51
52.410458000001171
  0
ARC
  8
0
  6
CONTINUOUS
 62
256
 10
349.020750000000020
 20
-141.168483000000010
 40
1.000000000000016
 50
234.715266999999020
 51
329.999999999999490
  0
LINE
  8
0
  6
CONTINUOUS
 62
256
 10
349.886776000000000
 20
-141.668483000000010
 11
351.393732000000000
 21
-139.058359000000000
  0
ARC
  8
0
  6
CONTINUOUS
 62
256
 10
350.527707000000020
 20
-138.558359000000000
 40
0.999999999999984
 50
329.999999999999490
 51
54.260829999999778
  0
ARC
  8
0
  6
CONTINUOUS
 62
256
 10
363.524106000000020
 20
-116.047934000000000
 40
0.999999999999984
 50
329.999999999999490
 51
38.381728000001026
  0
LINE
  8
0
  6
CONTINUOUS
 62
256
 10
362.806012000000010
 20
-119.291709999999990
 11
364.390131999999990
 21
-116.547934000000000
  0
ARC
  8
0
  6
CONTINUOUS
 62
256
 10
359.111764999999990
 20
-123.690333000000000
 40
0.999999999999984
 50
329.999999999999490
 51
48.787728999999715
  0
LINE
  8
0
  6
CONTINUOUS
 62
256
 10
358.452873000000010
 20
-126.831569000000000
 11
359.977790000000030
 21
-124.190333000000000
  0
ARC
  8
0
  6
CONTINUOUS
 62
256
 10
357.586846999999980
 20
-126.331569000000000
 40
0.999999999999988
 50
230.405932000000690
 51
329.999999999999490
  0
ARC
  8
0
  6
CONTINUOUS
 62
256
 10
362.139315000000010
 20
-113.649405000000000
 40
1.000000000000013
 50
21.618271999999475
 51
90.000000000000000
  0
ARC
  8
0
  6
CONTINUOUS
 62
256
 10
370.971075999999980
 20
-110.149405000000000
 40
8.500000000000016
 50
201.618271999999960
 51
218.381727999999950
  0
ARC
  8
0
  6
CONTINUOUS
 62
256
 10
361.939986999999970
 20
-118.791709999999990
 40
1.000000000000005
 50
223.739794999999760
 51
329.999999999999490
  0
LINE
  8
0
  6
CONTINUOUS
 62
256
 10
358.971075999999980
 20
-112.649405000000000
 11
362.139315000000010
 21
-112.649405000000000
  0
ARC
  8
0
  6
CONTINUOUS
 62
256
 10
358.971075999999980
 20
-113.649405000000000
 40
1.000000000000000
 50
90.000000000000000
 51
196.260205000000670
  0
ARC
  8
0
  6
CONTINUOUS
 62
256
 10
370.971075999999980
 20
-110.149405000000000
 40
13.499999999999989
 50
196.260205000000010
 51
223.739794999999960
  0
ARC
  8
0
  6
CONTINUOUS
 62
256
 10
370.971075999999980
 20
-110.149405000000000
 40
16.999999999999993
 50
191.212271000000020
 51
228.787728999999980
  0
ARC
  8
0
  6
CONTINUOUS
 62
256
 10
370.971075999999980
 20
-110.149405000000000
 40
21.999999999999975
 50
189.594067999999960
 51
230.405932000000060
  0
ARC
  8
0
  6
CONTINUOUS
 62
256
 10
370.971075999999980
 20
-110.149405000000000
 40
30.499999999999986
 50
186.813853999999990
 51
233.186146000000040
  0
ARC
  8
0
  6
CONTINUOUS
 62
256
 10
370.971075999999980
 20
-110.149405000000000
 40
25.500000000000011
 50
187.589541999999990
 51
232.410457999999980
  0
ARC
  8
0
  6
CONTINUOUS
 62
256
 10
370.971075999999980
 20
-110.149405000000000
 40
33.999999999999972
 50
185.739169999999970
 51
234.260829999999970
  0
ARC
  8
0
  6
CONTINUOUS
 62
256
 10
370.971075999999980
 20
-110.149405000000000
 40
38.999999999999986
 50
185.284732999999990
 51
234.715266999999980
  0
ARC
  8
0
  6
CONTINUOUS
 62
256
 10
359.356345999999970
 20
-137.266707000000000
 40
0.999999999999984
 50
149.999999999999460
 51
246.813853999999880
  0
LINE
  8
0
  6
CONTINUOUS
 62
256
 10
358.490320999999990
 20
-136.766707000000000
 11
360.002213999999980
 21
-134.148031000000000
  0
ARC
  8
0
  6
CONTINUOUS
 62
256
 10
360.868239000000020
 20
-134.648031000000000
 40
1.000000000000009
 50
67.589541999999554
 51
149.999999999999460
  0
ARC
  8
0
  6
CONTINUOUS
 62
256
 10
355.082927999999980
 20
-144.668483000000010
 40
0.999999999999984
 50
149.999999999999460
 51
245.284732999999870
  0
LINE
  8
0
  6
CONTINUOUS
 62
256
 10
354.216903000000000
 20
-144.168483000000010
 11
355.723859000000000
 21
-141.558359000000000
  0
ARC
  8
0
  6
CONTINUOUS
 62
256
 10
356.589883999999980
 20
-142.058359000000000
 40
0.999999999999992
 50
65.739170000001337
 51
149.999999999999460
  0
ARC
  8
0
  6
CONTINUOUS
 62
256
 10
369.586283999999980
 20
-119.547934000000000
 40
0.999999999999998
 50
81.618272000001099
 51
149.999999999999460
  0
LINE
  8
0
  6
CONTINUOUS
 62
256
 10
367.136139000000010
 20
-121.791709999999990
 11
368.720259000000000
 21
-119.047934000000000
  0
ARC
  8
0
  6
CONTINUOUS
 62
256
 10
365.173943000000010
 20
-127.190333000000000
 40
1.000000000000010
 50
71.212270999999262
 51
149.999999999999460
  0
LINE
  8
0
  6
CONTINUOUS
 62
256
 10
362.783000000000020
 20
-129.331569000000000
 11
364.307916999999970
 21
-126.690333000000000
  0
ARC
  8
0
  6
CONTINUOUS
 62
256
 10
363.649024999999990
 20
-129.831569000000000
 40
0.999999999999984
 50
149.999999999999460
 51
249.594068000000160
  0
ARC
  8
0
  6
CONTINUOUS
 62
256
 10
368.002164999999990
 20
-122.291709999999990
 40
0.999999999999984
 50
149.999999999999460
 51
256.260204999998730
  0
ARC
  8
0
  6
CONTINUOUS
 62
256
 10
370.971075999999980
 20
-110.149405000000000
 40
13.500000000000004
 50
256.260205000000040
 51
283.739794999999960
  0
ARC
  8
0
  6
CONTINUOUS
 62
256
 10
370.971075999999980
 20
-110.149405000000000
 40
16.999999999999993
 50
251.212271000000040
 51
288.787728999999960
  0
ARC
  8
0
  6
CONTINUOUS
 62
256
 10
370.971075999999980
 20
-110.149405000000000
 40
22.000000000000011
 50
249.594067999999990
 51
290.405932000000010
  0
ARC
  8
0
  6
CONTINUOUS
 62
256
 10
370.971075999999980
 20
-110.149405000000000
 40
30.500000000000011
 50
246.813853999999990
 51
293.186146000000010
  0
ARC
  8
0
  6
CONTINUOUS
 62
256
 10
370.971075999999980
 20
-110.149405000000000
 40
25.500000000000007
 50
247.589541999999940
 51
292.410458000000010
  0
ARC
  8
0
  6
CONTINUOUS
 62
256
 10
370.971075999999980
 20
-110.149405000000000
 40
34.000000000000014
 50
245.739170000000000
 51
294.260830000000000
  0
ARC
  8
0
  6
CONTINUOUS
 62
256
 10
370.971075999999980
 20
-110.149405000000000
 40
39.000000000000014
 50
245.284732999999960
 51
294.715266999999980
  0
LINE
  8
0
  6
CONTINUOUS
 62
256
 10
400.262713000000020
 20
-107.649405000000000
 11
397.238926999999990
 21
-107.649405000000000
  0
LINE
  8
0
  6
CONTINUOUS
 62
256
 10
391.677354999999980
 20
-107.649405000000000
 11
388.627519000000010
 21
-107.649405000000000
  0
LINE
  8
0
  6
CONTINUOUS
 62
256
 10
382.971075999999980
 20
-107.649405000000000
 11
379.802837000000010
 21
-107.649405000000000
  0
LINE
  8
0
  6
CONTINUOUS
 62
256
 10
379.136139000000010
 20
-101.007099999999990
 11
377.552020000000030
 21
-103.750874999999990
  0
LINE
  8
0
  6
CONTINUOUS
 62
256
 10
383.489279000000010
 20
-93.467241000000001
 11
381.964361000000000
 21
-96.108475999999996
  0
LINE
  8
0
  6
CONTINUOUS
 62
256
 10
392.055375000000030
 20
-78.630325999999997
 11
390.548419000000020
 21
-81.240450999999993
  0
LINE
  8
0
  6
CONTINUOUS
 62
256
 10
408.809548000000010
 20
-107.649405000000000
 11
405.795636000000000
 21
-107.649405000000000
  0
LINE
  8
0
  6
CONTINUOUS
 62
256
 10
387.781957999999970
 20
-86.032103000000006
 11
386.270064999999990
 21
-88.650778000000003
  0
ARC
  8
0
  6
CONTINUOUS
 62
256
 10
370.971075999999980
 20
-110.149405000000000
 40
8.500000000000016
 50
21.618271999999980
 51
38.381727999999960
  0
ARC
  8
0
  6
CONTINUOUS
 62
256
 10
370.971075999999980
 20
-110.149405000000000
 40
13.499999999999989
 50
16.260205000000035
 51
43.739795000000001
  0
ARC
  8
0
  6
CONTINUOUS
 62
256
 10
370.971075999999980
 20
-110.149405000000000
 40
16.999999999999993
 50
11.212271000000010
 51
48.787728999999970
  0
ARC
  8
0
  6
CONTINUOUS
 62
256
 10
370.971075999999980
 20
-110.149405000000000
 40
21.999999999999979
 50
9.594068000000020
 51
50.405932000000043
  0
ARC
  8
0
  6
CONTINUOUS
 62
256
 10
370.971075999999980
 20
-110.149405000000000
 40
25.500000000000011
 50
7.589541999999985
 51
52.410458000000027
  0
ARC
  8
0
  6
CONTINUOUS
 62
256
 10
370.971075999999980
 20
-110.149405000000000
 40
33.999999999999972
 50
5.739170000000013
 51
54.260829999999963
  0
ARC
  8
0
  6
CONTINUOUS
 62
256
 10
370.971075999999980
 20
-110.149405000000000
 40
30.499999999999986
 50
6.813854000000005
 51
53.186146000000043
  0
ARC
  8
0
  6
CONTINUOUS
 62
256
 10
370.971075999999980
 20
-110.149405000000000
 40
38.999999999999986
 50
5.284733000000007
 51
54.715266999999990
  0
ARC
  8
0
  6
CONTINUOUS
 62
256
 10
378.418045000000010
 20
-104.250874999999990
 40
0.999999999999984
 50
149.999999999999460
 51
218.381728000001000
  0
ARC
  8
0
  6
CONTINUOUS
 62
256
 10
379.802837000000010
 20
-106.649405000000000
 40
1.000000000000013
 50
201.618271999999450
 51
270.000000000000000
  0
ARC
  8
0
  6
CONTINUOUS
 62
256
 10
382.971075999999980
 20
-106.649405000000000
 40
1.000000000000000
 50
270.000000000000000
 51
16.260205000000671
  0
ARC
  8
0
  6
CONTINUOUS
 62
256
 10
380.002164999999990
 20
-101.507099999999990
 40
1.000000000000005
 50
43.739794999999773
 51
149.999999999999460
  0
ARC
  8
0
  6
CONTINUOUS
 62
256
 10
382.830385999999980
 20
-96.608475999999996
 40
0.999999999999984
 50
149.999999999999460
 51
228.787729000000240
  0
ARC
  8
0
  6
CONTINUOUS
 62
256
 10
384.355303999999990
 20
-93.967241000000001
 40
0.999999999999988
 50
50.405932000000682
 51
149.999999999999460
  0
ARC
  8
0
  6
CONTINUOUS
 62
256
 10
388.627519000000010
 20
-106.649405000000000
 40
1.000000000000016
 50
191.212270999999730
 51
270.000000000000000
  0
ARC
  8
0
  6
CONTINUOUS
 62
256
 10
391.677354999999980
 20
-106.649405000000000
 40
1.000000000000000
 50
270.000000000000000
 51
9.594067999999961
  0
ARC
  8
0
  6
CONTINUOUS
 62
256
 10
400.262713000000020
 20
-106.649405000000000
 40
1.000000000000000
 50
270.000000000000000
 51
6.813853999999752
  0
ARC
  8
0
  6
CONTINUOUS
 62
256
 10
387.136090000000020
 20
-89.150778000000003
 40
0.999999999999984
 50
149.999999999999460
 51
232.410458000001200
  0
ARC
  8
0
  6
CONTINUOUS
 62
256
 10
388.647983000000010
 20
-86.532103000000006
 40
1.000000000000011
 50
53.186145999999269
 51
149.999999999999460
  0
ARC
  8
0
  6
CONTINUOUS
 62
256
 10
397.238926999999990
 20
-106.649405000000000
 40
0.999999999999990
 50
187.589541999999990
 51
270.000000000000000
  0
ARC
  8
0
  6
CONTINUOUS
 62
256
 10
408.809548000000010
 20
-106.649405000000000
 40
1.000000000000000
 50
270.000000000000000
 51
5.284732999999778
  0
ARC
  8
0
  6
CONTINUOUS
 62
256
 10
405.795636000000000
 20
-106.649405000000000
 40
0.999999999999978
 50
185.739170000000430
 51
270.000000000000000
  0
ARC
  8
0
  6
CONTINUOUS
 62
256
 10
391.414445000000000
 20
-81.740450999999993
 40
0.999999999999984
 50
149.999999999999460
 51
234.260829999999740
  0
ARC
  8
0
  6
CONTINUOUS
 62
256
 10
392.921401000000000
 20
-79.130325999999997
 40
1.000000000000016
 50
54.715266999999017
 51
149.999999999999460
  0
CIRCLE
  8
0
  6
CONTINUOUS
 62
256
 10
370.971075999999980
 20
-110.149405000000000
 40
5.000000000000000
  0
ARC
  8
0
  6
CONTINUOUS
 62
256
 10
386.859222999999990
 20
-75.630325999999997
 40
0.999999999999984
 50
329.999999999999490
 51
65.284732999999861
  0
LINE
  8
0
  6
CONTINUOUS
 62
256
 10
387.725248000000020
 20
-76.130325999999997
 11
386.218292000000020
 21
-78.740450999999993
  0
ARC
  8
0
  6
CONTINUOUS
 62
256
 10
370.971075999999980
 20
-110.149405000000000
 40
38.999999999999993
 50
65.284733000000031
 51
114.715266999999980
  0
ARC
  8
0
  6
CONTINUOUS
 62
256
 10
370.971075999999980
 20
-110.149405000000000
 40
34.000000000000000
 50
65.739169999999987
 51
114.260830000000010
  0
ARC
  8
0
  6
CONTINUOUS
 62
256
 10
370.971075999999980
 20
-110.149405000000000
 40
25.500000000000007
 50
67.589541999999966
 51
112.410458000000050
  0
ARC
  8
0
  6
CONTINUOUS
 62
256
 10
370.971075999999980
 20
-110.149405000000000
 40
30.500000000000011
 50
66.813853999999992
 51
113.186146000000010
  0
ARC
  8
0
  6
CONTINUOUS
 62
256
 10
382.585804999999990
 20
-83.032103000000006
 40
0.999999999999984
 50
329.999999999999490
 51
66.813853999999878
  0
LINE
  8
0
  6
CONTINUOUS
 62
256
 10
383.451831000000030
 20
-83.532103000000006
 11
381.939937999999980
 21
-86.150778000000003
  0
ARC
  8
0
  6
CONTINUOUS
 62
256
 10
370.971075999999980
 20
-110.149405000000000
 40
21.999999999999996
 50
69.594067999999993
 51
110.405932000000020
  0
ARC
  8
0
  6
CONTINUOUS
 62
256
 10
385.352266999999980
 20
-78.240450999999993
 40
0.999999999999992
 50
245.739170000001340
 51
329.999999999999490
  0
ARC
  8
0
  6
CONTINUOUS
 62
256
 10
381.073912000000010
 20
-85.650778000000003
 40
1.000000000000009
 50
247.589541999999540
 51
329.999999999999490
  0
ARC
  8
0
  6
CONTINUOUS
 62
256
 10
378.293125999999970
 20
-90.467241000000001
 40
0.999999999999984
 50
329.999999999999490
 51
69.594068000000149
  0
ARC
  8
0
  6
CONTINUOUS
 62
256
 10
370.971075999999980
 20
-110.149405000000000
 40
16.999999999999993
 50
71.212271000000044
 51
108.787728999999960
  0
LINE
  8
0
  6
CONTINUOUS
 62
256
 10
379.159152000000010
 20
-90.967241000000001
 11
377.634233999999990
 21
-93.608475999999996
  0
ARC
  8
0
  6
CONTINUOUS
 62
256
 10
376.768209000000010
 20
-93.108475999999996
 40
1.000000000000010
 50
251.212270999999220
 51
329.999999999999490
  0
ARC
  8
0
  6
CONTINUOUS
 62
256
 10
370.971075999999980
 20
-110.149405000000000
 40
13.500000000000004
 50
76.260205000000070
 51
103.739794999999930
  0
ARC
  8
0
  6
CONTINUOUS
 62
256
 10
373.939986999999970
 20
-98.007099999999994
 40
0.999999999999984
 50
329.999999999999490
 51
76.260204999998734
  0
LINE
  8
0
  6
CONTINUOUS
 62
256
 10
374.806012000000010
 20
-98.507099999999994
 11
373.221893000000020
 21
-101.250874999999990
  0
ARC
  8
0
  6
CONTINUOUS
 62
256
 10
368.002164999999990
 20
-98.007099999999994
 40
1.000000000000011
 50
103.739795000001280
 51
210.000000000000510
  0
ARC
  8
0
  6
CONTINUOUS
 62
256
 10
370.971075999999980
 20
-110.149405000000000
 40
8.500000000000002
 50
81.618271999999948
 51
98.381728000000052
  0
ARC
  8
0
  6
CONTINUOUS
 62
256
 10
372.355866999999990
 20
-100.750874999999990
 40
0.999999999999998
 50
261.618272000001130
 51
329.999999999999490
  0
ARC
  8
0
  6
CONTINUOUS
 62
256
 10
363.649024999999990
 20
-90.467241000000001
 40
0.999999999999993
 50
110.405931999999860
 51
210.000000000000510
  0
LINE
  8
0
  6
CONTINUOUS
 62
256
 10
362.783000000000020
 20
-90.967241000000001
 11
364.307916999999970
 21
-93.608475999999996
  0
ARC
  8
0
  6
CONTINUOUS
 62
256
 10
365.173943000000010
 20
-93.108475999999996
 40
0.999999999999984
 50
210.000000000000510
 51
288.787729000000750
  0
LINE
  8
0
  6
CONTINUOUS
 62
256
 10
367.136139000000010
 20
-98.507099999999994
 11
368.720259000000000
 21
-101.250874999999990
  0
ARC
  8
0
  6
CONTINUOUS
 62
256
 10
369.586283999999980
 20
-100.750874999999990
 40
0.999999999999984
 50
210.000000000000510
 51
278.381727999998870
  0
ARC
  8
0
  6
CONTINUOUS
 62
256
 10
356.589883999999980
 20
-78.240450999999993
 40
0.999999999999984
 50
210.000000000000510
 51
294.260829999998690
  0
LINE
  8
0
  6
CONTINUOUS
 62
256
 10
354.216903000000000
 20
-76.130325999999997
 11
355.723859000000000
 21
-78.740450999999993
  0
ARC
  8
0
  6
CONTINUOUS
 62
256
 10
355.082927999999980
 20
-75.630325999999997
 40
1.000000000000004
 50
114.715267000000150
 51
210.000000000000510
  0
ARC
  8
0
  6
CONTINUOUS
 62
256
 10
360.868239000000020
 20
-85.650778000000003
 40
0.999999999999984
 50
210.000000000000510
 51
292.410458000000400
  0
LINE
  8
0
  6
CONTINUOUS
 62
256
 10
358.490320999999990
 20
-83.532103000000006
 11
360.002213999999980
 21
-86.150778000000003
  0
ARC
  8
0
  6
CONTINUOUS
 62
256
 10
359.356345999999970
 20
-83.032103000000006
 40
1.000000000000000
 50
113.186146000000120
 51
210.000000000000510
  0
ARC
  8
0
  6
CONTINUOUS
 62
256
 10
370.971075999999980
 20
-110.149405000000000
 40
39.000000000000000
 50
125.284733000000000
 51
174.715267000000010
  0
ARC
  8
0
  6
CONTINUOUS
 62
256
 10
370.971075999999980
 20
-110.149405000000000
 40
34.000000000000007
 50
125.739170000000040
 51
174.260830000000000
  0
ARC
  8
0
  6
CONTINUOUS
 62
256
 10
370.971075999999980
 20
-110.149405000000000
 40
25.499999999999996
 50
127.589541999999970
 51
172.410458000000010
  0
ARC
  8
0
  6
CONTINUOUS
 62
256
 10
370.971075999999980
 20
-110.149405000000000
 40
30.499999999999993
 50
126.813853999999980
 51
173.186145999999980
  0
ARC
  8
0
  6
CONTINUOUS
 62
256
 10
370.971075999999980
 20
-110.149405000000000
 40
21.999999999999986
 50
129.594067999999940
 51
170.405931999999980
  0
ARC
  8
0
  6
CONTINUOUS
 62
256
 10
370.971075999999980
 20
-110.149405000000000
 40
17.000000000000014
 50
131.212271000000020
 51
168.787728999999980
  0
ARC
  8
0
  6
CONTINUOUS
 62
256
 10
370.971075999999980
 20
-110.149405000000000
 40
13.500000000000004
 50
136.260205000000010
 51
163.739794999999960
  0
ARC
  8
0
  6
CONTINUOUS
 62
256
 10
358.971075999999980
 20
-106.649405000000000
 40
0.999999999999976
 50
163.739794999999330
 51
270.000000000000000
  0
LINE
  8
0
  6
CONTINUOUS
 62
256
 10
358.971075999999980
 20
-107.649405000000000
 11
362.139315000000010
 21
-107.649405000000000
  0
ARC
  8
0
  6
CONTINUOUS
 62
256
 10
361.939986999999970
 20
-101.507099999999990
 40
0.999999999999984
 50
30.000000000000544
 51
136.260205000000240
  0
ARC
  8
0
  6
CONTINUOUS
 62
256
 10
370.971075999999980
 20
-110.149405000000000
 40
8.500000000000005
 50
141.618272000000020
 51
158.381728000000040
  0
ARC
  8
0
  6
CONTINUOUS
 62
256
 10
362.139315000000010
 20
-106.649405000000000
 40
1.000000000000000
 50
270.000000000000000
 51
338.381728000000520
  0
ARC
  8
0
  6
CONTINUOUS
 62
256
 10
357.586846999999980
 20
-93.967241000000001
 40
0.999999999999984
 50
30.000000000000544
 51
129.594067999999310
  0
LINE
  8
0
  6
CONTINUOUS
 62
256
 10
358.452873000000010
 20
-93.467241000000001
 11
359.977790000000030
 21
-96.108475999999996
  0
ARC
  8
0
  6
CONTINUOUS
 62
256
 10
359.111764999999990
 20
-96.608475999999996
 40
1.000000000000006
 50
311.212270999999760
 51
30.000000000000544
  0
LINE
  8
0
  6
CONTINUOUS
 62
256
 10
362.806012000000010
 20
-101.007099999999990
 11
364.390131999999990
 21
-103.750874999999990
  0
ARC
  8
0
  6
CONTINUOUS
 62
256
 10
363.524106000000020
 20
-104.250874999999990
 40
0.999999999999985
 50
321.618271999998970
 51
30.000000000000544
  0
ARC
  8
0
  6
CONTINUOUS
 62
256
 10
350.527707000000020
 20
-81.740450999999993
 40
0.999999999999998
 50
305.739170000000230
 51
30.000000000000544
  0
LINE
  8
0
  6
CONTINUOUS
 62
256
 10
349.886776000000000
 20
-78.630325999999997
 11
351.393732000000000
 21
-81.240450999999993
  0
ARC
  8
0
  6
CONTINUOUS
 62
256
 10
349.020750000000020
 20
-79.130325999999997
 40
0.999999999999984
 50
30.000000000000544
 51
125.284733000000970
  0
ARC
  8
0
  6
CONTINUOUS
 62
256
 10
354.806061000000000
 20
-89.150778000000003
 40
0.999999999999993
 50
307.589541999998800
 51
30.000000000000544
  0
LINE
  8
0
  6
CONTINUOUS
 62
256
 10
354.160193999999990
 20
-86.032103000000006
 11
355.672086999999980
 21
-88.650778000000003
  0
ARC
  8
0
  6
CONTINUOUS
 62
256
 10
353.294168000000010
 20
-86.532103000000006
 40
0.999999999999984
 50
30.000000000000544
 51
126.813854000000730
  0
ARC
  8
0
  6
CONTINUOUS
 62
256
 10
333.132603000000020
 20
-106.649405000000000
 40
1.000000000000027
 50
174.715267000000240
 51
270.000000000000000
  0
LINE
  8
0
  6
CONTINUOUS
 62
256
 10
333.132603000000020
 20
-107.649405000000000
 11
336.146515000000020
 21
-107.649405000000000
  0
ARC
  8
0
  6
CONTINUOUS
 62
256
 10
336.146515000000020
 20
-106.649405000000000
 40
1.000000000000000
 50
270.000000000000000
 51
354.260829999999540
  0
ARC
  8
0
  6
CONTINUOUS
 62
256
 10
341.679439000000000
 20
-106.649405000000000
 40
1.000000000000019
 50
173.186146000000240
 51
270.000000000000000
  0
LINE
  8
0
  6
CONTINUOUS
 62
256
 10
341.679439000000000
 20
-107.649405000000000
 11
344.703224999999970
 21
-107.649405000000000
  0
ARC
  8
0
  6
CONTINUOUS
 62
256
 10
344.703224999999970
 20
-106.649405000000000
 40
1.000000000000000
 50
270.000000000000000
 51
352.410458000000010
  0
ARC
  8
0
  6
CONTINUOUS
 62
256
 10
350.264795999999990
 20
-106.649405000000000
 40
0.999999999999978
 50
170.405932000000040
 51
270.000000000000000
  0
LINE
  8
0
  6
CONTINUOUS
 62
256
 10
350.264795999999990
 20
-107.649405000000000
 11
353.314632000000020
 21
-107.649405000000000
  0
ARC
  8
0
  6
CONTINUOUS
 62
256
 10
353.314632000000020
 20
-106.649405000000000
 40
1.000000000000000
 50
270.000000000000000
 51
348.787729000000300
  0
ARC
  8
0
  6
CONTINUOUS
 62
256
 10
370.971075999999980
 20
-318.649405000000000
 40
300.000000000000000
 50
83.967950999999999
 51
96.032049000000001
  0
ARC
  8
0
  6
CONTINUOUS
 62
256
 10
339.971075999999980
 20
-25.282740000000000
 40
4.999999999999998
 50
96.032049000000015
 51
180.000000000000000
  0
ARC
  8
0
  6
CONTINUOUS
 62
256
 10
401.971075999999980
 20
-25.282740000000000
 40
5.000000000000000
 50
0.000000000000000
 51
83.967950999999999
  0
LINE
  8
0
  6
CONTINUOUS
 62
256
 10
373.471075999999980
 20
-18.149405000000002
 11
373.471075999999980
 21
-18.659821999999998
  0
LINE
  8
0
  6
CONTINUOUS
 62
256
 10
373.471075999999980
 20
-18.149405000000002
 11
368.471075999999980
 21
-18.149405000000002
  0
LINE
  8
0
  6
CONTINUOUS
 62
256
 10
368.471075999999980
 20
-18.149405000000002
 11
368.471075999999980
 21
-18.659821999999998
  0
LINE
  8
0
  6
CONTINUOUS
 62
256
 10
406.971075999999980
 20
-52.649405000000002
 11
406.971075999999980
 21
-25.282740000000000
  0
LINE
  8
0
  6
CONTINUOUS
 62
256
 10
334.971075999999980
 20
-52.649405000000002
 11
334.971075999999980
 21
-25.282740000000000
  0
LINE
  8
0
  6
DASHDOT
 62
256
 10
431.828611000000020
 20
-110.149405000000000
 11
307.476847000000020
 21
-110.149405000000000
  0
LINE
  8
0
  6
DASHDOT
 62
256
 10
370.971075999999980
 20
-186.218509000000010
 11
370.971075999999980
 21
-12.493824999999999
  0
LINE
  8
0
  6
DASHDOT
 62
256
 10
-155.127953999999990
 20
-37.649405000000002
 11
-155.127953999999990
 21
-56.649405000000002
  0
LINE
  8
0
  6
DASHDOT
 62
256
 10
-164.627953999999990
 20
-47.149405000000002
 11
-145.627953999999990
 21
-47.149405000000002
  0
ARC
  8
0
  6
CONTINUOUS
 62
256
 10
-256.387062000000010
 20
-95.149405000000002
 40
13.999999999999998
 50
106.601550000000000
 51
73.398450000000011
  0
LINE
  8
0
  6
CONTINUOUS
 62
256
 10
-252.387061999999990
 20
-78.149405000000002
 11
-252.387061999999990
 21
-85.149405000000002
  0
LINE
  8
0
  6
CONTINUOUS
 62
256
 10
-260.387062000000010
 20
-85.149405000000002
 11
-252.387061999999990
 21
-85.149405000000002
  0
LINE
  8
0
  6
CONTINUOUS
 62
256
 10
-260.387062000000010
 20
-78.149405000000002
 11
-260.387062000000010
 21
-85.149405000000002
  0
LINE
  8
0
  6
CONTINUOUS
 62
256
 10
-260.387062000000010
 20
-78.149405000000002
 11
-252.387061999999990
 21
-78.149405000000002
  0
LINE
  8
0
  6
DASHDOT
 62
256
 10
-256.387062000000010
 20
-116.197728000000000
 11
-256.387062000000010
 21
-74.466137000000003
  0
LINE
  8
0
  6
DASHDOT
 62
256
 10
-275.589992000000000
 20
-95.149405000000002
 11
-233.858400999999990
 21
-95.149405000000002
  0
CIRCLE
  8
0
  6
CONTINUOUS
 62
256
 10
-256.387062000000010
 20
-95.149405000000002
 40
3.500000000000000
  0
CIRCLE
  8
0
  6
CONTINUOUS
 62
256
 10
-256.387062000000010
 20
-95.149405000000002
 40
4.000000000000000
  0
LINE
  8
0
  6
CONTINUOUS
 62
256
 10
-479.205060000000000
 20
-90.631950000000003
 11
-479.205060000000000
 21
-129.631949999999990
  0
LINE
  8
0
  6
CONTINUOUS
 62
256
 10
-373.205060000000000
 20
-129.631949999999990
 11
-373.205060000000000
 21
-90.631950000000003
  0
ARC
  8
0
  6
CONTINUOUS
 62
256
 10
-399.205060000000000
 20
-137.649405000000000
 40
25.000000000000000
 50
331.642362999999990
 51
354.269824999999970
  0
ARC
  8
0
  6
CONTINUOUS
 62
256
 10
-453.205060000000000
 20
-137.649405000000000
 40
24.999999999999979
 50
185.730174999999970
 51
208.357637000000040
  0
ARC
  8
0
  6
CONTINUOUS
 62
256
 10
-78.205060000000003
 20
-130.149405000000000
 40
400.000000000000000
 50
181.076859999999980
 51
181.431983999999970
  0
ARC
  8
0
  6
CONTINUOUS
 62
256
 10
-774.205060000000000
 20
-130.149405000000000
 40
400.000000000000000
 50
358.568016000000060
 51
358.849005999999970
  0
ARC
  8
0
  6
CONTINUOUS
 62
256
 10
-373.705060000000000
 20
-129.649405000000000
 40
0.500000000000000
 50
270.000000000000000
 51
0.000000000000000
  0
ARC
  8
0
  6
DASHED
 62
256
 10
-774.205060000000000
 20
-130.149405000000000
 40
400.000000000000000
 50
358.849005999999970
 51
359.928470000000000
  0
ARC
  8
0
  6
DASHED
 62
256
 10
-399.205060000000000
 20
-137.649405000000000
 40
25.000000000000011
 50
275.730175000000030
 51
331.642362999999990
  0
ARC
  8
0
  6
DASHED
 62
256
 10
-453.205060000000000
 20
-137.649405000000000
 40
25.000000000000000
 50
208.357637000000040
 51
264.269825000000080
  0
LINE
  8
0
  6
DASHED
 62
256
 10
-406.705060000000000
 20
-56.649405000000002
 11
-445.705060000000000
 21
-56.649405000000002
  0
ARC
  8
0
  6
DASHED
 62
256
 10
-406.705060000000000
 20
-457.649405000000000
 40
400.000000000000000
 50
89.140459000000007
 51
89.928470000000004
  0
ARC
  8
0
  6
DASHED
 62
256
 10
-399.205060000000000
 20
-82.649405000000002
 40
24.999999999999979
 50
5.730175000000014
 51
93.438649999999981
  0
ARC
  8
0
  6
DASHED
 62
256
 10
-406.705060000000000
 20
-57.149405000000002
 40
0.500000000000000
 50
0.000000000000000
 51
90.000000000000000
  0
ARC
  8
0
  6
DASHED
 62
256
 10
-405.705060000000000
 20
-57.149405000000002
 40
0.500000000000000
 50
180.000000000000000
 51
270.000000000000000
  0
ARC
  8
0
  6
DASHED
 62
256
 10
-774.205060000000000
 20
-90.149405000000002
 40
399.999999999999940
 50
0.053000000000000
 51
1.431984000000000
  0
ARC
  8
0
  6
DASHED
 62
256
 10
-373.705060000000000
 20
-89.649405000000002
 40
0.500000000000000
 50
180.000000000000000
 51
270.000000000000000
  0
ARC
  8
0
  6
DASHED
 62
256
 10
-373.705060000000000
 20
-130.649405000000000
 40
0.500000000000000
 50
90.000000000000000
 51
180.000000000000000
  0
ARC
  8
0
  6
DASHED
 62
256
 10
-406.705060000000000
 20
237.350595000000000
 40
400.000000000000000
 50
270.071530000000000
 51
271.431984000000000
  0
ARC
  8
0
  6
DASHED
 62
256
 10
-405.705060000000000
 20
-163.149405000000000
 40
0.500000000000000
 50
90.000000000000000
 51
180.000000000000000
  0
LINE
  8
0
  6
DASHED
 62
256
 10
-445.705060000000000
 20
-163.649405000000000
 11
-406.705060000000000
 21
-163.649405000000000
  0
ARC
  8
0
  6
DASHED
 62
256
 10
-406.705060000000000
 20
-163.149405000000000
 40
0.500000000000000
 50
270.000000000000000
 51
0.000000000000000
  0
ARC
  8
0
  6
DASHED
 62
256
 10
-445.705060000000000
 20
237.350595000000000
 40
400.000000000000000
 50
268.568016000000060
 51
269.928470000000000
  0
ARC
  8
0
  6
DASHED
 62
256
 10
-446.705060000000000
 20
-163.149405000000000
 40
0.500000000000000
 50
0.000000000000000
 51
90.000000000000000
  0
ARC
  8
0
  6
DASHED
 62
256
 10
-445.705060000000000
 20
-163.149405000000000
 40
0.500000000000000
 50
180.000000000000000
 51
270.000000000000000
  0
ARC
  8
0
  6
DASHED
 62
256
 10
-478.705060000000000
 20
-129.649405000000000
 40
0.500000000000000
 50
180.000000000000000
 51
270.000000000000000
  0
ARC
  8
0
  6
DASHED
 62
256
 10
-478.705060000000000
 20
-130.649405000000000
 40
0.500000000000000
 50
0.000000000000000
 51
90.000000000000000
  0
ARC
  8
0
  6
DASHED
 62
256
 10
-78.205060000000003
 20
-90.149405000000002
 40
400.000000000000000
 50
178.568016000000000
 51
179.928470000000000
  0
ARC
  8
0
  6
DASHED
 62
256
 10
-478.705060000000000
 20
-90.649405000000002
 40
0.500000000000000
 50
90.000000000000000
 51
180.000000000000000
  0
ARC
  8
0
  6
DASHED
 62
256
 10
-478.705060000000000
 20
-89.649405000000002
 40
0.500000000000000
 50
270.000000000000000
 51
0.000000000000000
  0
ARC
  8
0
  6
DASHED
 62
256
 10
-453.205060000000000
 20
-82.649405000000002
 40
25.000000000000000
 50
86.561350000000019
 51
174.269825000000000
  0
ARC
  8
0
  6
DASHED
 62
256
 10
-445.705060000000000
 20
-457.649405000000000
 40
400.000000000000000
 50
90.071529999999996
 51
90.859540999999993
  0
ARC
  8
0
  6
DASHED
 62
256
 10
-446.705060000000000
 20
-57.149405000000002
 40
0.500000000000000
 50
270.000000000000000
 51
0.000000000000000
  0
ARC
  8
0
  6
DASHED
 62
256
 10
-445.705060000000000
 20
-57.149405000000002
 40
0.500000000000000
 50
90.000000000000000
 51
180.000000000000000
  0
LINE
  8
0
  6
DASHDOT
 62
256
 10
-426.205060000000000
 20
-184.561094999999990
 11
-426.205060000000000
 21
-15.043227999999999
  0
LINE
  8
0
  6
DASHDOT
 62
256
 10
-417.207210999999970
 20
-110.149405000000000
 11
-437.195151000000010
 21
-110.149405000000000
  0
LINE
  8
0
  6
CONTINUOUS
 62
256
 10
-463.205060000000000
 20
-34.123221999999998
 11
-463.205060000000000
 21
-182.140677000000010
  0
LINE
  8
0
  6
CONTINUOUS
 62
256
 10
-479.205060000000000
 20
-137.649405000000000
 11
-475.205060000000000
 21
-137.649405000000000
  0
LINE
  8
0
  6
CONTINUOUS
 62
256
 10
-475.205060000000000
 20
-149.506292000000000
 11
-475.205060000000000
 21
-34.358865999999999
  0
LINE
  8
0
  6
CONTINUOUS
 62
256
 10
-377.205060000000000
 20
-149.506292000000000
 11
-377.205060000000000
 21
-35.467261999999998
  0
LINE
  8
0
  6
CONTINUOUS
 62
256
 10
-475.205060000000000
 20
-181.939944000000000
 11
-475.205060000000000
 21
-149.506292000000000
  0
LINE
  8
0
  6
CONTINUOUS
 62
256
 10
-479.205060000000000
 20
-52.649405000000002
 11
-479.205060000000000
 21
-137.649405000000000
  0
LINE
  8
0
  6
CONTINUOUS
 62
256
 10
-377.205060000000000
 20
-180.796637000000000
 11
-377.205060000000000
 21
-149.506292000000000
  0
LINE
  8
0
  6
CONTINUOUS
 62
256
 10
-463.205060000000000
 20
-182.140677000000010
 11
-387.205060000000000
 21
-180.796637000000000
  0
LINE
  8
0
  6
CONTINUOUS
 62
256
 10
-387.205060000000000
 20
-180.796637000000000
 11
-377.205060000000000
 21
-180.796637000000000
  0
LINE
  8
0
  6
CONTINUOUS
 62
256
 10
-387.205060000000000
 20
-35.467261999999998
 11
-377.205060000000000
 21
-35.467261999999998
  0
LINE
  8
0
  6
CONTINUOUS
 62
256
 10
-475.205060000000000
 20
-34.358865999999999
 11
-463.205060000000000
 21
-34.149405000000002
  0
LINE
  8
0
  6
CONTINUOUS
 62
256
 10
-463.205060000000000
 20
-34.123221999999998
 11
-387.205060000000000
 21
-35.467261999999998
  0
LINE
  8
0
  6
CONTINUOUS
 62
256
 10
-479.205060000000000
 20
-52.649405000000002
 11
-475.205060000000000
 21
-52.649405000000002
  0
LINE
  8
0
  6
CONTINUOUS
 62
256
 10
-463.205060000000000
 20
-182.149405000000000
 11
-475.205060000000000
 21
-181.939944000000000
  0
LINE
  8
0
  6
CONTINUOUS
 62
256
 10
-373.205060000000000
 20
-137.649405000000000
 11
-373.205060000000000
 21
-52.649405000000002
  0
LINE
  8
0
  6
CONTINUOUS
 62
256
 10
-377.205060000000000
 20
-52.649405000000002
 11
-373.205060000000000
 21
-52.649405000000002
  0
LINE
  8
0
  6
CONTINUOUS
 62
256
 10
-377.205060000000000
 20
-137.649405000000000
 11
-373.205060000000000
 21
-137.649405000000000
  0
ARC
  8
0
  6
DASHED
 62
256
 10
-78.205060000000003
 20
-130.149405000000000
 40
400.000000000000000
 50
180.071529999999970
 51
181.150993999999970
  0
LINE
  8
0
  6
CONTINUOUS
 62
256
 10
20.372046000000001
 20
-56.649405000000002
 11
20.372046000000001
 21
-110.149405000000000
  0
LINE
  8
0
  6
CONTINUOUS
 62
256
 10
20.372046000000001
 20
-163.649405000000000
 11
20.372046000000001
 21
-110.149405000000000
  0
CIRCLE
  8
0
  6
CONTINUOUS
 62
256
 10
-107.127954000000000
 20
-95.149405000000002
 40
4.000000000000000
  0
CIRCLE
  8
0
  6
CONTINUOUS
 62
256
 10
-107.127954000000000
 20
-95.149405000000002
 40
3.500000000000000
  0
ARC
  8
0
  6
CONTINUOUS
 62
256
 10
-107.127954000000000
 20
-95.149405000000002
 40
13.999999999999998
 50
106.601550000000000
 51
73.398450000000011
  0
LINE
  8
0
  6
CONTINUOUS
 62
256
 10
-111.127954000000000
 20
-78.149405000000002
 11
-103.127954000000000
 21
-78.149405000000002
  0
LINE
  8
0
  6
CONTINUOUS
 62
256
 10
-111.127954000000000
 20
-85.149405000000002
 11
-103.127954000000000
 21
-85.149405000000002
  0
LINE
  8
0
  6
CONTINUOUS
 62
256
 10
-111.127954000000000
 20
-78.149405000000002
 11
-111.127954000000000
 21
-85.149405000000002
  0
LINE
  8
0
  6
CONTINUOUS
 62
256
 10
-103.127954000000000
 20
-78.149405000000002
 11
-103.127954000000000
 21
-85.149405000000002
  0
LINE
  8
0
  6
CONTINUOUS
 62
256
 10
12.372045999999999
 20
-154.649405000000000
 11
5.372046000000000
 21
-154.649405000000000
  0
LINE
  8
0
  6
CONTINUOUS
 62
256
 10
13.372045999999999
 20
-151.579056000000010
 11
5.372046000000000
 21
-151.579056000000010
  0
LINE
  8
0
  6
CONTINUOUS
 62
256
 10
13.372045999999999
 20
-68.719752999999997
 11
5.372046000000000
 21
-68.719752999999997
  0
LINE
  8
0
  6
CONTINUOUS
 62
256
 10
12.372045999999999
 20
-65.649405000000002
 11
5.372046000000000
 21
-65.649405000000002
  0
LINE
  8
0
  6
DASHDOT
 62
256
 10
-155.127953999999990
 20
-159.649405000000000
 11
-155.127953999999990
 21
-178.649405000000000
  0
LINE
  8
0
  6
DASHDOT
 62
256
 10
-164.627953999999990
 20
-169.149405000000000
 11
-145.627953999999990
 21
-169.149405000000000
  0
LINE
  8
0
  6
DASHDOT
 62
256
 10
-21.127953999999999
 20
-37.649405000000002
 11
-21.127953999999999
 21
-56.649405000000002
  0
LINE
  8
0
  6
DASHDOT
 62
256
 10
-30.627953999999999
 20
-47.149405000000002
 11
-11.627954000000001
 21
-47.149405000000002
  0
LINE
  8
0
  6
DASHDOT
 62
256
 10
-21.127953999999999
 20
-159.649405000000000
 11
-21.127953999999999
 21
-178.649405000000000
  0
LINE
  8
0
  6
DASHDOT
 62
256
 10
-30.627953999999999
 20
-169.149405000000000
 11
-11.627954000000001
 21
-169.149405000000000
  0
LINE
  8
0
  6
DASHDOT
 62
256
 10
-107.127954000000000
 20
-31.753920999999998
 11
-107.127954000000000
 21
-191.826441999999990
  0
LINE
  8
0
  6
CONTINUOUS
 62
256
 10
-43.460664999999999
 20
-173.649405000000000
 11
-132.795243000000000
 21
-173.649405000000000
  0
LINE
  8
0
  6
CONTINUOUS
 62
256
 10
-159.627953999999990
 20
-146.816692999999990
 11
-159.627953999999990
 21
-69.482116000000005
  0
LINE
  8
0
  6
CONTINUOUS
 62
256
 10
-132.795243000000000
 20
-42.649405000000002
 11
-43.460664999999999
 21
-42.649405000000002
  0
LINE
  8
0
  6
CONTINUOUS
 62
256
 10
-132.795243000000000
 20
-171.149405000000000
 11
-43.460664999999999
 21
-171.149405000000000
  0
LINE
  8
0
  6
CONTINUOUS
 62
256
 10
-19.127953999999999
 20
-146.816692999999990
 11
-19.127953999999999
 21
-69.482116000000005
  0
LINE
  8
0
  6
CONTINUOUS
 62
256
 10
-43.460664999999999
 20
-45.149405000000002
 11
-132.795243000000000
 21
-45.149405000000002
  0
LINE
  8
0
  6
CONTINUOUS
 62
256
 10
-157.127953999999990
 20
-69.482116000000005
 11
-157.127953999999990
 21
-146.816692999999990
  0
LINE
  8
0
  6
DASHDOT
 62
256
 10
-171.586613000000000
 20
-95.149405000000002
 11
-48.437961000000001
 21
-95.149405000000002
  0
LINE
  8
0
  6
CONTINUOUS
 62
256
 10
-17.127953999999999
 20
-182.149405000000000
 11
-159.127953999999990
 21
-182.149405000000000
  0
LINE
  8
0
  6
CONTINUOUS
 62
256
 10
-168.127953999999990
 20
-173.149405000000000
 11
-168.127953999999990
 21
-43.149405000000002
  0
LINE
  8
0
  6
CONTINUOUS
 62
256
 10
-159.127953999999990
 20
-34.149405000000002
 11
-17.127953999999999
 21
-34.149405000000002
  0
LINE
  8
0
  6
CONTINUOUS
 62
256
 10
-16.627953999999999
 20
-69.482116000000005
 11
-16.627953999999999
 21
-146.816692999999990
  0
LINE
  8
0
  6
CONTINUOUS
 62
256
 10
20.372046000000001
 20
-163.666862000000010
 11
-5.180311000000000
 21
-164.060515000000010
  0
LINE
  8
0
  6
CONTINUOUS
 62
256
 10
15.372045999999999
 20
-157.649405000000000
 11
15.372045999999999
 21
-161.701465000000010
  0
LINE
  8
0
  6
CONTINUOUS
 62
256
 10
7.067365000000000
 20
-144.041571000000000
 11
12.372045999999999
 21
-144.041571000000000
  0
LINE
  8
0
  6
CONTINUOUS
 62
256
 10
15.372045999999999
 20
-110.149405000000000
 11
15.372045999999999
 21
-149.579056000000010
  0
LINE
  8
0
  6
CONTINUOUS
 62
256
 10
15.372045999999999
 20
-130.149405000000000
 11
20.372046000000001
 21
-130.149405000000000
  0
LINE
  8
0
  6
CONTINUOUS
 62
256
 10
15.372045999999999
 20
-90.149405000000002
 11
20.372046000000001
 21
-90.149405000000002
  0
LINE
  8
0
  6
CONTINUOUS
 62
256
 10
7.307035000000000
 20
-76.257238999999998
 11
12.372045999999999
 21
-76.257238999999998
  0
LINE
  8
0
  6
CONTINUOUS
 62
256
 10
15.372045999999999
 20
-110.149405000000000
 11
15.372045999999999
 21
-70.719752999999997
  0
LINE
  8
0
  6
CONTINUOUS
 62
256
 10
20.372046000000001
 20
-56.631946999999997
 11
-5.180311000000000
 21
-56.238294000000003
  0
LINE
  8
0
  6
CONTINUOUS
 62
256
 10
15.372045999999999
 20
-62.649405000000002
 11
15.372045999999999
 21
-58.597344000000000
  0
LINE
  8
0
  6
CONTINUOUS
 62
256
 10
-8.127954000000001
 20
-43.149405000000002
 11
-8.127954000000001
 21
-173.149405000000000
  0
ARC
  8
0
  6
CONTINUOUS
 62
256
 10
-5.127954000000000
 20
-167.060058000000000
 40
3.000000000000011
 50
90.999999999999986
 51
180.000000000000000
  0
ARC
  8
0
  6
CONTINUOUS
 62
256
 10
-5.127954000000000
 20
-53.238751000000001
 40
2.999999999999999
 50
180.000000000000000
 51
269.000000000000000
  0
ARC
  8
0
  6
CONTINUOUS
 62
256
 10
-17.127953999999999
 20
-43.149405000000002
 40
9.000000000000000
 50
0.000000000000000
 51
90.000000000000000
  0
ARC
  8
0
  6
CONTINUOUS
 62
256
 10
-26.627953999999999
 20
-69.482116000000005
 40
10.000000000000000
 50
0.000000000000000
 51
76.164775999999989
  0
ARC
  8
0
  6
CONTINUOUS
 62
256
 10
-26.627953999999999
 20
-146.816692999999990
 40
10.000000000000005
 50
283.835223999999980
 51
0.000000000000000
  0
ARC
  8
0
  6
CONTINUOUS
 62
256
 10
-26.627953999999999
 20
-146.816692999999990
 40
7.499999999999990
 50
283.835223999999980
 51
0.000000000000000
  0
ARC
  8
0
  6
CONTINUOUS
 62
256
 10
-26.627953999999999
 20
-69.482116000000005
 40
7.500000000000000
 50
0.000000000000000
 51
76.164776000000018
  0
ARC
  8
0
  6
CONTINUOUS
 62
256
 10
-17.127953999999999
 20
-173.149405000000000
 40
9.000000000000000
 50
270.000000000000000
 51
0.000000000000000
  0
ARC
  8
0
  6
CONTINUOUS
 62
256
 10
13.372045999999999
 20
-70.719752999999997
 40
2.000000000000000
 50
0.000000000000000
 51
90.000000000000000
  0
ARC
  8
0
  6
CONTINUOUS
 62
256
 10
12.372045999999999
 20
-62.649405000000002
 40
3.000000000000000
 50
270.000000000000000
 51
0.000000000000000
  0
ARC
  8
0
  6
CONTINUOUS
 62
256
 10
17.372046000000001
 20
-58.597344000000000
 40
1.999999999999998
 50
88.999999999999957
 51
180.000000000000000
  0
ARC
  8
0
  6
CONTINUOUS
 62
256
 10
12.372045999999999
 20
-79.257238999999998
 40
3.000000000000000
 50
0.000000000000000
 51
90.000000000000000
  0
ARC
  8
0
  6
CONTINUOUS
 62
256
 10
17.372046000000001
 20
-161.701465000000010
 40
2.000000000000000
 50
180.000000000000000
 51
270.999999999999940
  0
ARC
  8
0
  6
CONTINUOUS
 62
256
 10
12.372045999999999
 20
-141.041571000000000
 40
3.000000000000000
 50
270.000000000000000
 51
0.000000000000000
  0
ARC
  8
0
  6
CONTINUOUS
 62
256
 10
13.372045999999999
 20
-149.579056000000010
 40
2.000000000000000
 50
270.000000000000000
 51
0.000000000000000
  0
ARC
  8
0
  6
CONTINUOUS
 62
256
 10
12.372045999999999
 20
-157.649405000000000
 40
3.000000000000000
 50
0.000000000000000
 51
90.000000000000000
  0
ARC
  8
0
  6
CONTINUOUS
 62
256
 10
-43.460664999999999
 20
-52.649405000000002
 40
9.999999999999998
 50
13.835223999999991
 51
90.000000000000000
  0
ARC
  8
0
  6
CONTINUOUS
 62
256
 10
-21.127953999999999
 20
-47.149405000000002
 40
13.000000000000000
 50
193.835224000000010
 51
256.164776000000020
  0
ARC
  8
0
  6
CONTINUOUS
 62
256
 10
-21.127953999999999
 20
-169.149405000000000
 40
13.000000000000002
 50
103.835224000000000
 51
166.164776000000020
  0
ARC
  8
0
  6
CONTINUOUS
 62
256
 10
-43.460664999999999
 20
-163.649405000000000
 40
10.000000000000000
 50
270.000000000000000
 51
346.164775999999960
  0
ARC
  8
0
  6
CONTINUOUS
 62
256
 10
-21.127953999999999
 20
-169.149405000000000
 40
15.499999999999991
 50
103.835224000000010
 51
166.164775999999960
  0
ARC
  8
0
  6
CONTINUOUS
 62
256
 10
-21.127953999999999
 20
-47.149405000000002
 40
15.500000000000002
 50
193.835224000000010
 51
256.164776000000020
  0
ARC
  8
0
  6
CONTINUOUS
 62
256
 10
-159.127953999999990
 20
-43.149405000000002
 40
9.000000000000000
 50
90.000000000000000
 51
180.000000000000000
  0
ARC
  8
0
  6
CONTINUOUS
 62
256
 10
-159.127953999999990
 20
-173.149405000000000
 40
9.000000000000000
 50
180.000000000000000
 51
270.000000000000000
  0
CIRCLE
  8
0
  6
CONTINUOUS
 62
256
 10
-107.127954000000000
 20
-95.149405000000002
 40
30.000000000000000
  0
CIRCLE
  8
0
  6
CONTINUOUS
 62
256
 10
-107.127954000000000
 20
-95.149405000000002
 40
49.500000000000000
  0
ARC
  8
0
  6
CONTINUOUS
 62
256
 10
-132.795243000000000
 20
-163.649405000000000
 40
7.499999999999991
 50
193.835224000000010
 51
270.000000000000000
  0
ARC
  8
0
  6
CONTINUOUS
 62
256
 10
-155.127953999999990
 20
-169.149405000000000
 40
15.499999999999993
 50
13.835224000000034
 51
76.164775999999975
  0
ARC
  8
0
  6
CONTINUOUS
 62
256
 10
-149.627953999999990
 20
-146.816692999999990
 40
7.500000000000000
 50
180.000000000000000
 51
256.164775999999960
  0
ARC
  8
0
  6
CONTINUOUS
 62
256
 10
-149.627953999999990
 20
-69.482116000000005
 40
7.499999999999998
 50
103.835224000000030
 51
180.000000000000000
  0
ARC
  8
0
  6
CONTINUOUS
 62
256
 10
-155.127953999999990
 20
-47.149405000000002
 40
15.500000000000005
 50
283.835223999999980
 51
346.164775999999960
  0
ARC
  8
0
  6
CONTINUOUS
 62
256
 10
-132.795243000000000
 20
-52.649405000000002
 40
7.500000000000000
 50
90.000000000000000
 51
166.164775999999960
  0
ARC
  8
0
  6
CONTINUOUS
 62
256
 10
-43.460664999999999
 20
-52.649405000000002
 40
7.499999999999998
 50
13.835224000000022
 51
90.000000000000000
  0
ARC
  8
0
  6
CONTINUOUS
 62
256
 10
-43.460664999999999
 20
-163.649405000000000
 40
7.500000000000000
 50
270.000000000000000
 51
346.164776000000020
  0
ARC
  8
0
  6
CONTINUOUS
 62
256
 10
-132.795243000000000
 20
-52.649405000000002
 40
10.000000000000000
 50
90.000000000000000
 51
166.164776000000020
  0
ARC
  8
0
  6
CONTINUOUS
 62
256
 10
-155.127953999999990
 20
-47.149405000000002
 40
13.000000000000002
 50
283.835223999999980
 51
346.164776000000020
  0
ARC
  8
0
  6
CONTINUOUS
 62
256
 10
-149.627953999999990
 20
-69.482116000000005
 40
10.000000000000002
 50
103.835224000000080
 51
180.000000000000000
  0
ARC
  8
0
  6
CONTINUOUS
 62
256
 10
-149.627953999999990
 20
-146.816692999999990
 40
10.000000000000000
 50
180.000000000000000
 51
256.164775999999960
  0
ARC
  8
0
  6
CONTINUOUS
 62
256
 10
-155.127953999999990
 20
-169.149405000000000
 40
13.000000000000002
 50
13.835223999999982
 51
76.164776000000032
  0
ARC
  8
0
  6
CONTINUOUS
 62
256
 10
-132.795243000000000
 20
-163.649405000000000
 40
10.000000000000009
 50
193.835224000000040
 51
270.000000000000000
  0
CIRCLE
  8
0
  6
CONTINUOUS
 62
256
 10
-107.127954000000000
 20
-95.149405000000002
 40
47.000000000000000
  0
LINE
  8
0
  6
CONTINUOUS
 62
256
 10
2.372046000000000
 20
-59.422942999999997
 11
2.372046000000000
 21
-160.875866000000000
  0
ARC
  8
0
  6
CONTINUOUS
 62
256
 10
5.372046000000000
 20
-59.422942999999997
 40
2.999999999999997
 50
88.999999999999986
 51
180.000000000000000
  0
ARC
  8
0
  6
CONTINUOUS
 62
256
 10
5.372046000000000
 20
-160.875866000000000
 40
3.000000000000000
 50
180.000000000000000
 51
271.000000000000000
  0
ARC
  8
0
  6
CONTINUOUS
 62
256
 10
5.372046000000000
 20
-148.579056000000010
 40
3.000000000000000
 50
180.000000000000000
 51
270.000000000000000
  0
ARC
  8
0
  6
CONTINUOUS
 62
256
 10
5.372046000000000
 20
-151.649405000000000
 40
3.000000000000000
 50
180.000000000000000
 51
270.000000000000000
  0
ARC
  8
0
  6
CONTINUOUS
 62
256
 10
5.372046000000000
 20
-71.719752999999997
 40
3.000000000000000
 50
90.000000000000000
 51
180.000000000000000
  0
ARC
  8
0
  6
CONTINUOUS
 62
256
 10
5.372046000000000
 20
-68.649405000000002
 40
3.000000000000000
 50
90.000000000000000
 51
180.000000000000000
  0
ARC
  8
0
  6
CONTINUOUS
 62
256
 10
-17.127953999999999
 20
-43.149405000000002
 40
7.400000000000000
 50
0.000000000000000
 51
90.000000000000000
  0
LINE
  8
0
  6
CONTINUOUS
 62
256
 10
-9.727954000000000
 20
-43.149405000000002
 11
-9.727954000000000
 21
-173.149405000000000
  0
ARC
  8
0
  6
CONTINUOUS
 62
256
 10
-17.127953999999999
 20
-173.149405000000000
 40
7.400000000000006
 50
270.000000000000000
 51
0.000000000000000
  0
LINE
  8
0
  6
CONTINUOUS
 62
256
 10
-17.127953999999999
 20
-180.549405000000010
 11
-159.127953999999990
 21
-180.549405000000010
  0
ARC
  8
0
  6
CONTINUOUS
 62
256
 10
-159.127953999999990
 20
-173.149405000000000
 40
7.400000000000006
 50
180.000000000000000
 51
270.000000000000000
  0
LINE
  8
0
  6
CONTINUOUS
 62
256
 10
-159.127953999999990
 20
-35.749405000000003
 11
-17.127953999999999
 21
-35.749405000000003
  0
ARC
  8
0
  6
CONTINUOUS
 62
256
 10
-159.127953999999990
 20
-43.149405000000002
 40
7.399999999999999
 50
90.000000000000000
 51
180.000000000000000
  0
LINE
  8
0
  6
CONTINUOUS
 62
256
 10
-166.527953999999990
 20
-173.149405000000000
 11
-166.527953999999990
 21
-43.149405000000002
  0
LINE
  8
0
  6
CONTINUOUS
 62
256
 10
-462.205060000000000
 20
-34.158361999999997
 11
-462.205060000000000
 21
-25.282740000000000
  0
LINE
  8
0
  6
CONTINUOUS
 62
256
 10
-390.205060000000000
 20
-35.431663000000000
 11
-390.205060000000000
 21
-25.282740000000000
  0
LINE
  8
0
  6
CONTINUOUS
 62
256
 10
-428.705060000000000
 20
-18.149405000000002
 11
-428.705060000000000
 21
-18.659821999999998
  0
LINE
  8
0
  6
CONTINUOUS
 62
256
 10
-423.705060000000000
 20
-18.149405000000002
 11
-428.705060000000000
 21
-18.149405000000002
  0
LINE
  8
0
  6
CONTINUOUS
 62
256
 10
-423.705060000000000
 20
-18.149405000000002
 11
-423.705060000000000
 21
-18.659821999999998
  0
ARC
  8
0
  6
CONTINUOUS
 62
256
 10
-395.205060000000000
 20
-25.282740000000000
 40
5.000000000000000
 50
0.000000000000000
 51
83.967950999999999
  0
ARC
  8
0
  6
CONTINUOUS
 62
256
 10
-457.205060000000000
 20
-25.282740000000000
 40
4.999999999999998
 50
96.032049000000015
 51
180.000000000000000
  0
ARC
  8
0
  6
CONTINUOUS
 62
256
 10
-426.205060000000000
 20
-318.649405000000000
 40
300.000000000000000
 50
83.967950999999999
 51
96.032049000000001
  0
ARC
  8
0
  6
CONTINUOUS
 62
256
 10
-772.805060000000030
 20
-110.149405000000000
 40
400.600000000000020
 50
0.000000000000000
 51
0.069015999999999
  0
LINE
  8
0
  6
CONTINUOUS
 62
256
 10
-377.205060000000000
 20
-155.336028000000000
 11
-376.116209000000030
 21
-154.247176999999990
  0
ARC
  8
0
  6
CONTINUOUS
 62
256
 10
-772.805060000000030
 20
-110.149405000000000
 40
400.600000000000020
 50
354.256318000000020
 51
0.000000000000000
  0
ARC
  8
0
  6
CONTINUOUS
 62
256
 10
-380.783114000000010
 20
-149.580272000000010
 40
6.600000000000017
 50
315.000000000000170
 51
354.256318000000020
  0
ARC
  8
0
  6
CONTINUOUS
 62
256
 10
-79.605059999999995
 20
-110.149405000000000
 40
400.600000000000080
 50
175.950769000000010
 51
180.000000000000000
  0
LINE
  8
0
  6
CONTINUOUS
 62
256
 10
-475.205060000000000
 20
-155.336028000000000
 11
-476.293911999999980
 21
-154.247176999999990
  0
ARC
  8
0
  6
CONTINUOUS
 62
256
 10
-79.605059999999995
 20
-110.149405000000000
 40
400.600000000000020
 50
180.000000000000000
 51
185.743681999999980
  0
ARC
  8
0
  6
CONTINUOUS
 62
256
 10
-471.627006999999990
 20
-149.580272000000010
 40
6.599999999999971
 50
185.743681999999920
 51
224.999999999999830
  0
LINE
  8
0
  6
CONTINUOUS
 62
256
 10
-326.205060000000000
 20
-95.149405000000002
 11
-326.205060000000000
 21
-78.149405000000002
  0
LINE
  8
0
  6
CONTINUOUS
 62
256
 10
-326.205060000000000
 20
-95.149405000000002
 11
-326.205060000000000
 21
-109.149405000000000
  0
LINE
  8
0
  6
CONTINUOUS
 62
256
 10
-362.205060000000000
 20
-81.149405000000002
 11
-362.205060000000000
 21
-78.149405000000002
  0
LINE
  8
0
  6
CONTINUOUS
 62
256
 10
-362.205060000000000
 20
-78.149405000000002
 11
-326.205060000000000
 21
-78.149405000000002
  0
LINE
  8
0
  6
CONTINUOUS
 62
256
 10
-371.205060000000000
 20
-109.649405000000000
 11
-373.205060000000000
 21
-109.649405000000000
  0
LINE
  8
0
  6
CONTINUOUS
 62
256
 10
-371.205060000000000
 20
-80.649405000000002
 11
-373.205060000000000
 21
-80.649405000000002
  0
LINE
  8
0
  6
CONTINUOUS
 62
256
 10
-371.205060000000000
 20
-95.149405000000002
 11
-371.205060000000000
 21
-80.649405000000002
  0
LINE
  8
0
  6
CONTINUOUS
 62
256
 10
-371.205060000000000
 20
-95.149405000000002
 11
-371.205060000000000
 21
-80.649405000000002
  0
LINE
  8
0
  6
CONTINUOUS
 62
256
 10
-371.205060000000000
 20
-81.149405000000002
 11
-326.205060000000000
 21
-81.149405000000002
  0
LINE
  8
0
  6
CONTINUOUS
 62
256
 10
-371.205060000000000
 20
-95.149405000000002
 11
-371.205060000000000
 21
-109.649405000000000
  0
LINE
  8
0
  6
CONTINUOUS
 62
256
 10
-371.205060000000000
 20
-95.149405000000002
 11
-371.205060000000000
 21
-109.649405000000000
  0
LINE
  8
0
  6
CONTINUOUS
 62
256
 10
-371.205060000000000
 20
-109.149405000000000
 11
-326.205060000000000
 21
-109.149405000000000
  0
LINE
  8
0
  6
DASHDOT
 62
256
 10
-488.283794000000000
 20
-95.149405000000002
 11
-322.118511000000010
 21
-95.149405000000002
  0
LINE
  8
0
  6
DASHDOT
 62
256
 10
-476.651144999999990
 20
-47.149405000000002
 11
-375.567930999999990
 21
-47.149405000000002
  0
LINE
  8
0
  6
DASHDOT
 62
256
 10
-476.651144999999990
 20
-169.149405000000000
 11
-375.567930999999990
 21
-169.149405000000000
  0
ARC
  8
0
  6
CONTINUOUS
 62
256
 10
181.876891000000000
 20
-71.749404999999996
 40
20.600000000000001
 50
55.000000000000028
 51
90.000000000000000
  0
ARC
  8
0
  6
CONTINUOUS
 62
256
 10
199.772045999999990
 20
-62.305785000000000
 40
2.599999999999994
 50
0.000000000000000
 51
54.999999999999886
  0
LINE
  8
0
  6
CONTINUOUS
 62
256
 10
193.692566000000000
 20
-54.874873000000001
 11
201.263344999999990
 21
-60.175989000000001
  0
LINE
  8
0
  6
CONTINUOUS
 62
256
 10
202.372046000000010
 20
-62.305785000000000
 11
202.372046000000010
 21
-110.149405000000000
  0
LINE
  8
0
  6
CONTINUOUS
 62
256
 10
104.372046000000000
 20
-69.107490999999996
 11
20.372046000000001
 21
-69.107490999999996
  0
LINE
  8
0
  6
CONTINUOUS
 62
256
 10
104.372046000000000
 20
-64.016322000000002
 11
20.372046000000001
 21
-64.016322000000002
  0
LINE
  8
0
  6
CONTINUOUS
 62
256
 10
104.372046000000000
 20
-59.649405000000002
 11
20.372046000000001
 21
-59.649405000000002
  0
LINE
  8
0
  6
CONTINUOUS
 62
256
 10
104.372046000000000
 20
-59.149405000000002
 11
20.372046000000001
 21
-59.149405000000002
  0
LINE
  8
0
  6
CONTINUOUS
 62
256
 10
20.372046000000001
 20
-56.649405000000002
 11
22.172046000000002
 21
-56.649405000000002
  0
LINE
  8
0
  6
CONTINUOUS
 62
256
 10
22.172046000000002
 20
-57.649405000000002
 11
22.172046000000002
 21
-19.649405000000002
  0
ARC
  8
0
  6
CONTINUOUS
 62
256
 10
23.172046000000002
 20
-19.649405000000002
 40
1.000000000000000
 50
90.000000000000000
 51
180.000000000000000
  0
LINE
  8
0
  6
CONTINUOUS
 62
256
 10
111.172045999999990
 20
-18.649405000000002
 11
23.172046000000002
 21
-18.649405000000002
  0
ARC
  8
0
  6
CONTINUOUS
 62
256
 10
111.172045999999990
 20
-19.649405000000002
 40
1.000000000000000
 50
0.000000000000000
 51
90.000000000000000
  0
LINE
  8
0
  6
CONTINUOUS
 62
256
 10
105.172045999999990
 20
-18.149405000000002
 11
97.172045999999995
 21
-18.149405000000002
  0
LINE
  8
0
  6
CONTINUOUS
 62
256
 10
37.172046000000002
 20
-18.149405000000002
 11
29.172046000000002
 21
-18.149405000000002
  0
LINE
  8
0
  6
CONTINUOUS
 62
256
 10
37.172046000000002
 20
-18.649405000000002
 11
37.172046000000002
 21
-18.149405000000002
  0
LINE
  8
0
  6
CONTINUOUS
 62
256
 10
29.172046000000002
 20
-18.649405000000002
 11
29.172046000000002
 21
-18.149405000000002
  0
LINE
  8
0
  6
CONTINUOUS
 62
256
 10
97.172045999999995
 20
-18.649405000000002
 11
97.172045999999995
 21
-18.149405000000002
  0
LINE
  8
0
  6
CONTINUOUS
 62
256
 10
105.172045999999990
 20
-18.649405000000002
 11
105.172045999999990
 21
-18.149405000000002
  0
LINE
  8
0
  6
CONTINUOUS
 62
256
 10
22.172046000000002
 20
-57.649405000000002
 11
104.372046000000000
 21
-57.649405000000002
  0
POLYLINE
  8
0
  6
CONTINUOUS
 62
256
 66
1
 70
1
  0
VERTEX
  8
0
  6
CONTINUOUS
 62
256
 10
120.072045999999990
 20
-62.822074000000001
  0
VERTEX
  8
0
  6
CONTINUOUS
 62
256
 10
119.981736817895170
 20
-62.119117489441834
  0
VERTEX
  8
0
  6
CONTINUOUS
 62
256
 10
119.714279802803030
 20
-61.443175203361861
  0
VERTEX
  8
0
  6
CONTINUOUS
 62
256
 10
119.279953177821950
 20
-60.820223224741341
  0
VERTEX
  8
0
  6
CONTINUOUS
 62
256
 10
118.695447871576760
 20
-60.274201248763163
  0
VERTEX
  8
0
  6
CONTINUOUS
 62
256
 10
117.983226095192120
 20
-59.826092593751511
  0
VERTEX
  8
0
  6
CONTINUOUS
 62
256
 10
117.170658132115920
 20
-59.493117824016267
  0
VERTEX
  8
0
  6
CONTINUOUS
 62
256
 10
116.288970513475800
 20
-59.288072973223940
  0
VERTEX
  8
0
  6
CONTINUOUS
 62
256
 10
115.372046000000000
 20
-59.218837800000010
  0
VERTEX
  8
0
  6
CONTINUOUS
 62
256
 10
114.455121486524190
 20
-59.288072973223940
  0
VERTEX
  8
0
  6
CONTINUOUS
 62
256
 10
113.573433867884080
 20
-59.493117824016267
  0
VERTEX
  8
0
  6
CONTINUOUS
 62
256
 10
112.760865904807870
 20
-59.826092593751511
  0
VERTEX
  8
0
  6
CONTINUOUS
 62
256
 10
112.048644128423230
 20
-60.274201248763163
  0
VERTEX
  8
0
  6
CONTINUOUS
 62
256
 10
111.464138822178040
 20
-60.820223224741341
  0
VERTEX
  8
0
  6
CONTINUOUS
 62
256
 10
111.029812197196960
 20
-61.443175203361861
  0
VERTEX
  8
0
  6
CONTINUOUS
 62
256
 10
110.762355182104830
 20
-62.119117489441834
  0
VERTEX
  8
0
  6
CONTINUOUS
 62
256
 10
110.672046000000010
 20
-62.822074000000001
  0
VERTEX
  8
0
  6
CONTINUOUS
 62
256
 10
110.762355182104830
 20
-63.525030510558167
  0
VERTEX
  8
0
  6
CONTINUOUS
 62
256
 10
111.029812197196960
 20
-64.200972796638140
  0
VERTEX
  8
0
  6
CONTINUOUS
 62
256
 10
111.464138822178040
 20
-64.823924775258661
  0
VERTEX
  8
0
  6
CONTINUOUS
 62
256
 10
112.048644128423230
 20
-65.369946751236839
  0
VERTEX
  8
0
  6
CONTINUOUS
 62
256
 10
112.760865904807870
 20
-65.818055406248490
  0
VERTEX
  8
0
  6
CONTINUOUS
 62
256
 10
113.573433867884080
 20
-66.151030175983735
  0
VERTEX
  8
0
  6
CONTINUOUS
 62
256
 10
114.455121486524190
 20
-66.356075026776054
  0
VERTEX
  8
0
  6
CONTINUOUS
 62
256
 10
115.372046000000000
 20
-66.425310199999984
  0
VERTEX
  8
0
  6
CONTINUOUS
 62
256
 10
116.288970513475790
 20
-66.356075026776054
  0
VERTEX
  8
0
  6
CONTINUOUS
 62
256
 10
117.170658132115920
 20
-66.151030175983735
  0
VERTEX
  8
0
  6
CONTINUOUS
 62
256
 10
117.983226095192120
 20
-65.818055406248490
  0
VERTEX
  8
0
  6
CONTINUOUS
 62
256
 10
118.695447871576760
 20
-65.369946751236839
  0
VERTEX
  8
0
  6
CONTINUOUS
 62
256
 10
119.279953177821950
 20
-64.823924775258661
  0
VERTEX
  8
0
  6
CONTINUOUS
 62
256
 10
119.714279802803030
 20
-64.200972796638140
  0
VERTEX
  8
0
  6
CONTINUOUS
 62
256
 10
119.981736817895170
 20
-63.525030510558167
  0
SEQEND
  8
0
  6
CONTINUOUS
 62
256
  0
LINE
  8
0
  6
CONTINUOUS
 62
256
 10
117.372046000000000
 20
-59.829698000000000
 11
115.372046000000000
 21
-61.005484000000003
  0
LINE
  8
0
  6
CONTINUOUS
 62
256
 10
115.372046000000000
 20
-61.005484000000003
 11
113.372046000000000
 21
-62.658124999999998
  0
LINE
  8
0
  6
CONTINUOUS
 62
256
 10
113.372046000000000
 20
-59.829698000000000
 11
115.372046000000000
 21
-61.005484000000003
  0
LINE
  8
0
  6
CONTINUOUS
 62
256
 10
115.372046000000000
 20
-61.005484000000003
 11
117.372046000000000
 21
-62.658124999999998
  0
LINE
  8
0
  6
CONTINUOUS
 62
256
 10
104.372046000000000
 20
-58.809708000000001
 11
104.372046000000000
 21
-110.149405000000000
  0
ARC
  8
0
  6
CONTINUOUS
 62
256
 10
107.372046000000000
 20
-58.809708000000001
 40
3.000000000000000
 50
90.000000000000000
 51
180.000000000000000
  0
LINE
  8
0
  6
CONTINUOUS
 62
256
 10
111.372046000000000
 20
-55.809708000000001
 11
107.372046000000000
 21
-55.809708000000001
  0
ARC
  8
0
  6
CONTINUOUS
 62
256
 10
111.372046000000000
 20
-52.809708000000001
 40
3.000000000000000
 50
270.000000000000000
 51
0.000000000000000
  0
LINE
  8
0
  6
CONTINUOUS
 62
256
 10
114.372046000000000
 20
-51.149405000000002
 11
181.876891000000000
 21
-51.149405000000002
  0
LINE
  8
0
  6
CONTINUOUS
 62
256
 10
114.372046000000000
 20
-51.149405000000002
 11
114.372046000000000
 21
-52.809708000000001
  0
LINE
  8
0
  6
CONTINUOUS
 62
256
 10
112.172045999999990
 20
-55.701075000000003
 11
112.172045999999990
 21
-19.649405000000002
  0
LINE
  8
0
  6
CONTINUOUS
 62
256
 10
112.172045999999990
 20
-52.649405000000002
 11
22.172046000000002
 21
-52.649405000000002
  0
POLYLINE
  8
0
  6
CONTINUOUS
 62
256
 66
1
 70
1
  0
VERTEX
  8
0
  6
CONTINUOUS
 62
256
 10
120.072045999999990
 20
-157.476735999999990
  0
VERTEX
  8
0
  6
CONTINUOUS
 62
256
 10
119.981736817895170
 20
-156.773779489441810
  0
VERTEX
  8
0
  6
CONTINUOUS
 62
256
 10
119.714279802803030
 20
-156.097837203361850
  0
VERTEX
  8
0
  6
CONTINUOUS
 62
256
 10
119.279953177821950
 20
-155.474885224741310
  0
VERTEX
  8
0
  6
CONTINUOUS
 62
256
 10
118.695447871576760
 20
-154.928863248763150
  0
VERTEX
  8
0
  6
CONTINUOUS
 62
256
 10
117.983226095192120
 20
-154.480754593751500
  0
VERTEX
  8
0
  6
CONTINUOUS
 62
256
 10
117.170658132115920
 20
-154.147779824016250
  0
VERTEX
  8
0
  6
CONTINUOUS
 62
256
 10
116.288970513475800
 20
-153.942734973223910
  0
VERTEX
  8
0
  6
CONTINUOUS
 62
256
 10
115.372046000000000
 20
-153.873499799999990
  0
VERTEX
  8
0
  6
CONTINUOUS
 62
256
 10
114.455121486524190
 20
-153.942734973223910
  0
VERTEX
  8
0
  6
CONTINUOUS
 62
256
 10
113.573433867884080
 20
-154.147779824016250
  0
VERTEX
  8
0
  6
CONTINUOUS
 62
256
 10
112.760865904807870
 20
-154.480754593751500
  0
VERTEX
  8
0
  6
CONTINUOUS
 62
256
 10
112.048644128423230
 20
-154.928863248763150
  0
VERTEX
  8
0
  6
CONTINUOUS
 62
256
 10
111.464138822178040
 20
-155.474885224741310
  0
VERTEX
  8
0
  6
CONTINUOUS
 62
256
 10
111.029812197196960
 20
-156.097837203361850
  0
VERTEX
  8
0
  6
CONTINUOUS
 62
256
 10
110.762355182104830
 20
-156.773779489441810
  0
VERTEX
  8
0
  6
CONTINUOUS
 62
256
 10
110.672046000000010
 20
-157.476735999999990
  0
VERTEX
  8
0
  6
CONTINUOUS
 62
256
 10
110.762355182104830
 20
-158.179692510558170
  0
VERTEX
  8
0
  6
CONTINUOUS
 62
256
 10
111.029812197196960
 20
-158.855634796638130
  0
VERTEX
  8
0
  6
CONTINUOUS
 62
256
 10
111.464138822178040
 20
-159.478586775258660
  0
VERTEX
  8
0
  6
CONTINUOUS
 62
256
 10
112.048644128423230
 20
-160.024608751236830
  0
VERTEX
  8
0
  6
CONTINUOUS
 62
256
 10
112.760865904807870
 20
-160.472717406248480
  0
VERTEX
  8
0
  6
CONTINUOUS
 62
256
 10
113.573433867884080
 20
-160.805692175983720
  0
VERTEX
  8
0
  6
CONTINUOUS
 62
256
 10
114.455121486524190
 20
-161.010737026776040
  0
VERTEX
  8
0
  6
CONTINUOUS
 62
256
 10
115.372046000000000
 20
-161.079972199999990
  0
VERTEX
  8
0
  6
CONTINUOUS
 62
256
 10
116.288970513475790
 20
-161.010737026776040
  0
VERTEX
  8
0
  6
CONTINUOUS
 62
256
 10
117.170658132115920
 20
-160.805692175983720
  0
VERTEX
  8
0
  6
CONTINUOUS
 62
256
 10
117.983226095192120
 20
-160.472717406248480
  0
VERTEX
  8
0
  6
CONTINUOUS
 62
256
 10
118.695447871576760
 20
-160.024608751236830
  0
VERTEX
  8
0
  6
CONTINUOUS
 62
256
 10
119.279953177821950
 20
-159.478586775258660
  0
VERTEX
  8
0
  6
CONTINUOUS
 62
256
 10
119.714279802803030
 20
-158.855634796638130
  0
VERTEX
  8
0
  6
CONTINUOUS
 62
256
 10
119.981736817895170
 20
-158.179692510558170
  0
SEQEND
  8
0
  6
CONTINUOUS
 62
256
  0
LINE
  8
0
  6
CONTINUOUS
 62
256
 10
117.372046000000000
 20
-160.469111000000000
 11
115.372046000000000
 21
-159.293326000000010
  0
LINE
  8
0
  6
CONTINUOUS
 62
256
 10
115.372046000000000
 20
-159.293326000000010
 11
113.372046000000000
 21
-157.640683999999990
  0
LINE
  8
0
  6
CONTINUOUS
 62
256
 10
113.372046000000000
 20
-160.469111000000000
 11
115.372046000000000
 21
-159.293326000000010
  0
LINE
  8
0
  6
CONTINUOUS
 62
256
 10
115.372046000000000
 20
-159.293326000000010
 11
117.372046000000000
 21
-157.640683999999990
  0
LINE
  8
0
  6
CONTINUOUS
 62
256
 10
104.372046000000000
 20
-169.149405000000000
 11
104.372046000000000
 21
-110.149405000000000
  0
ARC
  8
0
  6
CONTINUOUS
 62
256
 10
181.876891000000000
 20
-148.549405000000010
 40
20.599999999999994
 50
270.000000000000000
 51
305.000000000000000
  0
ARC
  8
0
  6
CONTINUOUS
 62
256
 10
199.772045999999990
 20
-157.993024999999990
 40
2.599999999999996
 50
305.000000000000230
 51
0.000000000000000
  0
LINE
  8
0
  6
CONTINUOUS
 62
256
 10
202.372046000000010
 20
-157.993024999999990
 11
202.372046000000010
 21
-110.149405000000000
  0
LINE
  8
0
  6
CONTINUOUS
 62
256
 10
193.692566000000000
 20
-165.423937000000000
 11
201.263344999999990
 21
-160.122819999999990
  0
LINE
  8
0
  6
CONTINUOUS
 62
256
 10
104.372046000000000
 20
-169.149405000000000
 11
181.876891000000000
 21
-169.149405000000000
  0
LINE
  8
0
  6
CONTINUOUS
 62
256
 10
20.372046000000001
 20
-56.649405000000002
 11
20.372046000000001
 21
-110.149405000000000
  0
LINE
  8
0
  6
DASHDOT
 62
256
 10
-26.595231999999999
 20
-110.149405000000000
 11
210.690010000000000
 21
-110.149405000000000
  0
LINE
  8
0
  6
CONTINUOUS
 62
256
 10
104.372046000000000
 20
-96.149405000000002
 11
20.372046000000001
 21
-96.149405000000002
  0
LINE
  8
0
  6
CONTINUOUS
 62
256
 10
104.372046000000000
 20
-91.763289999999998
 11
20.372046000000001
 21
-91.763289999999998
  0
LINE
  8
0
  6
CONTINUOUS
 62
256
 10
104.372046000000000
 20
-90.521370000000005
 11
20.372046000000001
 21
-90.521370000000005
  0
LINE
  8
0
  6
CONTINUOUS
 62
256
 10
104.372046000000000
 20
-87.311165000000003
 11
20.372046000000001
 21
-87.311165000000003
  0
LINE
  8
0
  6
CONTINUOUS
 62
256
 10
104.372046000000000
 20
-85.964763000000005
 11
20.372046000000001
 21
-85.964763000000005
  0
LINE
  8
0
  6
CONTINUOUS
 62
256
 10
104.372046000000000
 20
-82.872032000000004
 11
20.372046000000001
 21
-82.872032000000004
  0
LINE
  8
0
  6
CONTINUOUS
 62
256
 10
104.372046000000000
 20
-81.393009000000006
 11
20.372046000000001
 21
-81.393009000000006
  0
LINE
  8
0
  6
CONTINUOUS
 62
256
 10
104.372046000000000
 20
-78.435013999999995
 11
20.372046000000001
 21
-78.435013999999995
  0
LINE
  8
0
  6
CONTINUOUS
 62
256
 10
104.372046000000000
 20
-76.845804000000001
 11
20.372046000000001
 21
-76.845804000000001
  0
LINE
  8
0
  6
CONTINUOUS
 62
256
 10
20.372046000000001
 20
-163.649405000000000
 11
20.372046000000001
 21
-110.149405000000000
  0
LINE
  8
0
  6
CONTINUOUS
 62
256
 10
104.372046000000000
 20
-161.149405000000000
 11
20.372046000000001
 21
-161.149405000000000
  0
LINE
  8
0
  6
CONTINUOUS
 62
256
 10
104.372046000000000
 20
-160.649405000000000
 11
20.372046000000001
 21
-160.649405000000000
  0
LINE
  8
0
  6
CONTINUOUS
 62
256
 10
104.372046000000000
 20
-156.282487000000000
 11
20.372046000000001
 21
-156.282487000000000
  0
LINE
  8
0
  6
CONTINUOUS
 62
256
 10
104.372046000000000
 20
-151.191318999999990
 11
20.372046000000001
 21
-151.191318999999990
  0
LINE
  8
0
  6
CONTINUOUS
 62
256
 10
104.372046000000000
 20
-143.453005999999990
 11
20.372046000000001
 21
-143.453005999999990
  0
LINE
  8
0
  6
CONTINUOUS
 62
256
 10
104.372046000000000
 20
-141.863796000000010
 11
20.372046000000001
 21
-141.863796000000010
  0
LINE
  8
0
  6
CONTINUOUS
 62
256
 10
104.372046000000000
 20
-138.905800000000000
 11
20.372046000000001
 21
-138.905800000000000
  0
LINE
  8
0
  6
CONTINUOUS
 62
256
 10
104.372046000000000
 20
-137.426776999999990
 11
20.372046000000001
 21
-137.426776999999990
  0
LINE
  8
0
  6
CONTINUOUS
 62
256
 10
104.372046000000000
 20
-134.334046000000000
 11
20.372046000000001
 21
-134.334046000000000
  0
LINE
  8
0
  6
CONTINUOUS
 62
256
 10
104.372046000000000
 20
-132.987643999999990
 11
20.372046000000001
 21
-132.987643999999990
  0
LINE
  8
0
  6
CONTINUOUS
 62
256
 10
104.372046000000000
 20
-128.535519999999990
 11
20.372046000000001
 21
-128.535519999999990
  0
LINE
  8
0
  6
CONTINUOUS
 62
256
 10
104.372046000000000
 20
-129.777438999999990
 11
20.372046000000001
 21
-129.777438999999990
  0
LINE
  8
0
  6
CONTINUOUS
 62
256
 10
104.372046000000000
 20
-124.149405000000000
 11
20.372046000000001
 21
-124.149405000000000
  0
LINE
  8
0
  6
CONTINUOUS
 62
256
 10
20.372046000000001
 20
-163.649405000000000
 11
104.372046000000000
 21
-163.649405000000000
  0
POINT
  8
0
  6
DASHED
 62
256
 10
-256.387062000000010
 20
-81.149405000000002
  0
LINE
  8
0
  6
CONTINUOUS
 62
256
 10
15.372045999999999
 20
137.175617999999990
 11
20.372046000000001
 21
137.175617999999990
  0
ENDSEC
  0
EOF
