  0
SECTION
  2
HEADER
  9
$TEXTSIZE
 40
2.5
  9
$ACADVER
  1
AC1009
  9
$DIMASZ
 40
3.863703297614046
  9
$DIMEXE
 40
2.000000000000000
  9
$DIMEXO
 40
1.000000000000000
  9
$DIMLFAC
 40
1.000000000000000
  9
$DIMSCALE
 40
1.000000000000000
  9
$DIMTAD
 70
1
  9
$DIMTFAC
 40
0.625000000000000
  9
$DIMTXT
 40
3.200000047683716
  9
$LUPREC
 70
3
  9
$REGENMODE
 70
1
  9
$TEXTSTYLE
  7
STANDARD1
  0
ENDSEC
  0
SECTION
  2
TABLES
  0
TABLE
  2
LTYPE
 70
4
  0
LTYPE
  2
CONTINUOUS
 70
64
  3
Solid line
 72
65
 73
0
 40
0.0
  0
LTYPE
  2
DASHED
 70
64
  3
-- -- -- -- -- -- -- -- -- -- -- -- -- -- --
 72
65
 73
2
 40
0.75
 49
0.5
 49
-0.25
  0
LTYPE
  2
DASHDOT
 70
64
  3
__ . __ . __ . __ . __ . __ . __ . __ . __ . __
 72
65
 73
4
 40
1.0
 49
0.5
 49
-0.25
 49
0.0
 49
-0.25
  0
LTYPE
  2
DIVIDE
 70
64
  3
__ . . __ . . __ . . __ . . __ . . __ . . __
 72
65
 73
6
 40
1.25
 49
0.5
 49
-0.25
 49
0.0
 49
-0.25
 49
0.0
 49
-0.25
  0
ENDTAB
  0
TABLE
  2
LAYER
 70
3
  0
LAYER
  2
0
 70
64
 62
53
  6
CONTINUOUS
  0
LAYER
  2
1
 70
64
 62
102
  6
CONTINUOUS
  0
LAYER
  2
2
 70
64
 62
102
  6
CONTINUOUS
  0
ENDTAB
  0
TABLE
  2
STYLE
 70
4
  0
STYLE
  2
STANDARD1
 70
64
 40
0.0
 41
1.0
 50
0.0
 71
0
 42
3.200000047683716
  3
MONOTXT
  4
BIGFONT
  0
STYLE
  2
STANDARD2
 70
68
 40
0.0
 41
1.0
 50
0.0
 71
0
 42
3.200000047683716
  3
MONOTXT
  4
BIGFONT
  0
STYLE
  2
STANDARD3
 70
64
 40
0.0
 41
1.0
 50
0.0
 71
0
 42
3.200000047683716
  3
MONOTXT
  4

  0
STYLE
  2
STANDARD4
 70
68
 40
0.0
 41
1.0
 50
0.0
 71
0
 42
3.200000047683716
  3
MONOTXT
  4

  0
ENDTAB
  0
TABLE
  2
VIEW
 70
0
  0
ENDTAB
  0
ENDSEC
  0
SECTION
  2
BLOCKS
  0
ENDSEC
  0
SECTION
  2
ENTITIES
  0
TEXT
  8
0
  6
CONTINUOUS
 62
256
 10
-70.375488281250000
 20
-13.156250000000000
 40
2.799999952316284
  1
ü@
 50
0.000002504478167
 41
0.996000017370497
  7
STANDARD1
  0
TEXT
  8
0
  6
CONTINUOUS
 62
256
 10
1.624511957168579
 20
-253.406250000000000
 40
2.799999952316284
  1
ü@
 50
0.000002504478167
 41
0.996000017370497
  7
STANDARD1
  0
CIRCLE
  8
0
  6
CONTINUOUS
 62
256
 10
-152.503492999999990
 20
-44.112152000000002
 40
5.500000000000000
  0
CIRCLE
  8
0
  6
CONTINUOUS
 62
256
 10
-152.503492999999990
 20
-44.112152000000002
 40
8.500000000000000
  0
CIRCLE
  8
0
  6
CONTINUOUS
 62
256
 10
-18.503492999999999
 20
-44.112152000000002
 40
5.500000000000000
  0
CIRCLE
  8
0
  6
CONTINUOUS
 62
256
 10
-18.503492999999999
 20
-44.112152000000002
 40
8.500000000000000
  0
CIRCLE
  8
0
  6
CONTINUOUS
 62
256
 10
-18.503492999999999
 20
-166.112152000000010
 40
5.500000000000000
  0
CIRCLE
  8
0
  6
CONTINUOUS
 62
256
 10
-18.503492999999999
 20
-166.112152000000010
 40
8.500000000000000
  0
CIRCLE
  8
0
  6
CONTINUOUS
 62
256
 10
-152.503492999999990
 20
-166.112152000000010
 40
5.500000000000000
  0
CIRCLE
  8
0
  6
CONTINUOUS
 62
256
 10
-152.503492999999990
 20
-166.112152000000010
 40
8.500000000000000
  0
LINE
  8
0
  6
DASHED
 62
256
 10
-487.580599000000010
 20
-35.612152000000002
 11
-487.580599000000010
 21
-52.612152000000002
  0
LINE
  8
0
  6
DASHED
 62
256
 10
-500.580599000000010
 20
-35.612152000000002
 11
-487.580599000000010
 21
-35.612152000000002
  0
LINE
  8
0
  6
DASHED
 62
256
 10
-487.580599000000010
 20
-38.612152000000002
 11
-415.580599000000010
 21
-38.612152000000002
  0
LINE
  8
0
  6
DASHED
 62
256
 10
-500.580599000000010
 20
-52.612152000000002
 11
-487.580599000000010
 21
-52.612152000000002
  0
LINE
  8
0
  6
DASHED
 62
256
 10
-487.580599000000010
 20
-49.612152000000002
 11
-415.580599000000010
 21
-49.612152000000002
  0
LINE
  8
0
  6
DASHED
 62
256
 10
-415.580599000000010
 20
-35.612152000000002
 11
-415.580599000000010
 21
-52.612152000000002
  0
LINE
  8
0
  6
DASHED
 62
256
 10
-415.580599000000010
 20
-35.612152000000002
 11
-402.580599000000010
 21
-35.612152000000002
  0
LINE
  8
0
  6
DASHED
 62
256
 10
-415.580599000000010
 20
-52.612152000000002
 11
-402.580599000000010
 21
-52.612152000000002
  0
LINE
  8
0
  6
DASHED
 62
256
 10
-415.580599000000010
 20
-157.612152000000010
 11
-415.580599000000010
 21
-174.612152000000010
  0
LINE
  8
0
  6
DASHED
 62
256
 10
-415.580599000000010
 20
-157.612152000000010
 11
-402.580599000000010
 21
-157.612152000000010
  0
LINE
  8
0
  6
DASHED
 62
256
 10
-487.580599000000010
 20
-160.612152000000010
 11
-415.580599000000010
 21
-160.612152000000010
  0
LINE
  8
0
  6
DASHED
 62
256
 10
-500.580599000000010
 20
-157.612152000000010
 11
-487.580599000000010
 21
-157.612152000000010
  0
LINE
  8
0
  6
DASHED
 62
256
 10
-415.580599000000010
 20
-174.612152000000010
 11
-402.580599000000010
 21
-174.612152000000010
  0
LINE
  8
0
  6
DASHED
 62
256
 10
-487.580599000000010
 20
-171.612152000000010
 11
-415.580599000000010
 21
-171.612152000000010
  0
LINE
  8
0
  6
DASHED
 62
256
 10
-487.580599000000010
 20
-157.612152000000010
 11
-487.580599000000010
 21
-174.612152000000010
  0
LINE
  8
0
  6
DASHED
 62
256
 10
-500.580599000000010
 20
-174.612152000000010
 11
-487.580599000000010
 21
-174.612152000000010
  0
LINE
  8
0
  6
CONTINUOUS
 62
256
 10
27.496507000000001
 20
127.580191000000000
 11
27.496507000000001
 21
68.080190999999999
  0
LINE
  8
0
  6
CONTINUOUS
 62
256
 10
27.496507000000001
 20
127.580191000000000
 11
27.496507000000001
 21
187.080191000000010
  0
LINE
  8
0
  6
DASHDOT
 62
256
 10
-104.503493000000010
 20
24.437546999999999
 11
-104.503493000000010
 21
191.100497999999990
  0
ARC
  8
0
  6
CONTINUOUS
 62
256
 10
17.496507000000001
 20
72.483884000000003
 40
3.000000000000000
 50
0.000000000000000
 51
90.000000000000000
  0
LINE
  8
0
  6
CONTINUOUS
 62
256
 10
6.996507000000000
 20
68.080190999999999
 11
27.496507000000001
 21
68.080190999999999
  0
ARC
  8
0
  6
CONTINUOUS
 62
256
 10
6.996507000000000
 20
71.080190999999999
 40
3.000000000000000
 50
180.000000000000000
 51
270.000000000000000
  0
LINE
  8
0
  6
CONTINUOUS
 62
256
 10
20.496507000000001
 20
147.580191000000010
 11
27.496507000000001
 21
147.580191000000010
  0
ARC
  8
0
  6
CONTINUOUS
 62
256
 10
6.996507000000000
 20
184.080191000000010
 40
3.000000000000000
 50
90.000000000000000
 51
180.000000000000000
  0
LINE
  8
0
  6
CONTINUOUS
 62
256
 10
6.996507000000000
 20
187.080191000000010
 11
27.496507000000001
 21
187.080191000000010
  0
LINE
  8
0
  6
DASHED
 62
256
 10
3.996507000000000
 20
108.119641000000000
 11
3.996507000000000
 21
127.580191000000000
  0
LINE
  8
0
  6
DASHED
 62
256
 10
3.996507000000000
 20
108.119641000000000
 11
3.996507000000000
 21
127.580191000000000
  0
LINE
  8
0
  6
CONTINUOUS
 62
256
 10
3.996507000000000
 20
71.080190999999999
 11
3.996507000000000
 21
184.080191000000010
  0
LINE
  8
0
  6
CONTINUOUS
 62
256
 10
0.996507000000000
 20
162.580191000000010
 11
-2.503493000000000
 21
162.580191000000010
  0
ARC
  8
0
  6
CONTINUOUS
 62
256
 10
0.996507000000000
 20
165.580191000000010
 40
3.000000000000000
 50
270.000000000000000
 51
0.000000000000000
  0
LINE
  8
0
  6
CONTINUOUS
 62
256
 10
-4.629344000000000
 20
89.580190999999999
 11
0.996507000000000
 21
89.580190999999999
  0
ARC
  8
0
  6
CONTINUOUS
 62
256
 10
0.996507000000000
 20
86.580190999999999
 40
3.000000000000000
 50
0.000000000000000
 51
90.000000000000000
  0
ARC
  8
0
  6
CONTINUOUS
 62
256
 10
-2.503493000000000
 20
165.580191000000010
 40
2.999999999999997
 50
199.471220999999870
 51
270.000000000000000
  0
ARC
  8
0
  6
CONTINUOUS
 62
256
 10
-4.629344000000000
 20
87.580190999999999
 40
2.000000000000000
 50
90.000000000000000
 51
180.000000000000000
  0
LINE
  8
0
  6
CONTINUOUS
 62
256
 10
-101.712953000000000
 20
164.580191000000010
 11
-165.721680999999990
 21
164.580191000000010
  0
LINE
  8
0
  6
CONTINUOUS
 62
256
 10
-5.294032000000000
 20
164.580191000000010
 11
-101.712953000000000
 21
164.580191000000010
  0
LINE
  8
0
  6
CONTINUOUS
 62
256
 10
-147.576105000000010
 20
78.580190999999999
 11
-6.629344000000000
 21
78.580190999999999
  0
LINE
  8
0
  6
CONTINUOUS
 62
256
 10
-147.576105000000010
 20
176.580191000000010
 11
-5.503493000000000
 21
176.580191000000010
  0
LINE
  8
0
  6
CONTINUOUS
 62
256
 10
-165.721680999999990
 20
164.580191000000010
 11
-164.377641000000010
 21
88.580190999999999
  0
LINE
  8
0
  6
CONTINUOUS
 62
256
 10
-164.377641000000010
 20
88.580190999999999
 11
-164.377641000000010
 21
78.580190999999999
  0
LINE
  8
0
  6
CONTINUOUS
 62
256
 10
-164.377641000000010
 20
78.580190999999999
 11
-147.576105000000010
 21
78.580190999999999
  0
LINE
  8
0
  6
CONTINUOUS
 62
256
 10
-165.712953000000000
 20
164.580191000000010
 11
-165.503492999999990
 21
176.580191000000010
  0
LINE
  8
0
  6
CONTINUOUS
 62
256
 10
-127.503493000000010
 20
74.580190999999999
 11
-62.003492999999999
 21
74.580190999999999
  0
LINE
  8
0
  6
CONTINUOUS
 62
256
 10
-62.003492999999999
 20
78.580190999999999
 11
-62.003492999999999
 21
74.580190999999999
  0
LINE
  8
0
  6
CONTINUOUS
 62
256
 10
-6.629344000000000
 20
88.580190999999999
 11
-6.629344000000000
 21
78.580190999999999
  0
LINE
  8
0
  6
CONTINUOUS
 62
256
 10
-5.285304000000000
 20
164.580191000000010
 11
-6.629344000000000
 21
88.580190999999999
  0
LINE
  8
0
  6
CONTINUOUS
 62
256
 10
-147.003492999999990
 20
78.580190999999999
 11
-147.003492999999990
 21
74.580190999999999
  0
LINE
  8
0
  6
CONTINUOUS
 62
256
 10
-127.503493000000010
 20
74.580190999999999
 11
-147.003492999999990
 21
74.580190999999999
  0
LINE
  8
0
  6
CONTINUOUS
 62
256
 10
-147.003492999999990
 20
180.580191000000010
 11
-127.503493000000010
 21
180.580191000000010
  0
LINE
  8
0
  6
CONTINUOUS
 62
256
 10
-62.003492999999999
 20
180.580191000000010
 11
-127.503493000000010
 21
180.580191000000010
  0
LINE
  8
0
  6
CONTINUOUS
 62
256
 10
-147.003492999999990
 20
180.580191000000010
 11
-147.003492999999990
 21
176.580191000000010
  0
LINE
  8
0
  6
CONTINUOUS
 62
256
 10
-165.503492999999990
 20
176.580191000000010
 11
-147.576105000000010
 21
176.580191000000010
  0
LINE
  8
0
  6
CONTINUOUS
 62
256
 10
-62.003492999999999
 20
180.580191000000010
 11
-62.003492999999999
 21
176.580191000000010
  0
LINE
  8
0
  6
CONTINUOUS
 62
256
 10
-5.503493000000000
 20
176.580191000000010
 11
-5.294032000000000
 21
164.580191000000010
  0
ARC
  8
0
  6
CONTINUOUS
 62
256
 10
23.496507000000001
 20
71.080190999999999
 40
3.000000000000000
 50
180.000000000000000
 51
270.000000000000000
  0
ARC
  8
0
  6
CONTINUOUS
 62
256
 10
17.496507000000001
 20
85.395460000000000
 40
3.000000000000000
 50
270.000000000000000
 51
0.000000000000000
  0
ARC
  8
0
  6
CONTINUOUS
 62
256
 10
17.496507000000001
 20
91.578924000000001
 40
3.000000000000000
 50
270.000000000000000
 51
0.000000000000000
  0
LINE
  8
0
  6
CONTINUOUS
 62
256
 10
20.496507000000001
 20
72.080190999999999
 11
20.496507000000001
 21
71.080190999999999
  0
LINE
  8
0
  6
CONTINUOUS
 62
256
 10
17.496507000000001
 20
88.578924000000001
 11
12.496506999999999
 21
88.578924000000001
  0
LINE
  8
0
  6
CONTINUOUS
 62
256
 10
20.496507000000001
 20
85.395460000000000
 11
20.496507000000001
 21
127.580191000000000
  0
LINE
  8
0
  6
CONTINUOUS
 62
256
 10
20.496507000000001
 20
72.080190999999999
 11
20.496507000000001
 21
72.483884000000003
  0
LINE
  8
0
  6
CONTINUOUS
 62
256
 10
17.496507000000001
 20
75.483884000000003
 11
12.496506999999999
 21
75.483884000000003
  0
LINE
  8
0
  6
CONTINUOUS
 62
256
 10
17.496507000000001
 20
82.395460000000000
 11
12.496506999999999
 21
82.395460000000000
  0
ARC
  8
0
  6
CONTINUOUS
 62
256
 10
2.496507000000000
 20
87.031403999999995
 40
5.000000000000000
 50
0.000000000000000
 51
72.542397000000022
  0
ARC
  8
0
  6
CONTINUOUS
 62
256
 10
2.496507000000000
 20
80.483884000000003
 40
5.000000000000000
 50
0.000000000000000
 51
72.542397000000022
  0
ARC
  8
0
  6
CONTINUOUS
 62
256
 10
12.496506999999999
 20
87.395460000000000
 40
5.000000000000000
 50
180.000000000000000
 51
270.000000000000000
  0
ARC
  8
0
  6
CONTINUOUS
 62
256
 10
12.496506999999999
 20
80.483884000000003
 40
5.000000000000000
 50
180.000000000000000
 51
270.000000000000000
  0
ARC
  8
0
  6
CONTINUOUS
 62
256
 10
23.496507000000001
 20
184.080191000000010
 40
3.000000000000000
 50
90.000000000000000
 51
180.000000000000000
  0
ARC
  8
0
  6
CONTINUOUS
 62
256
 10
17.496507000000001
 20
169.764922000000010
 40
3.000000000000000
 50
0.000000000000000
 51
90.000000000000000
  0
ARC
  8
0
  6
CONTINUOUS
 62
256
 10
17.496507000000001
 20
182.676499000000010
 40
3.000000000000000
 50
270.000000000000000
 51
0.000000000000000
  0
ARC
  8
0
  6
CONTINUOUS
 62
256
 10
17.496507000000001
 20
163.581458000000000
 40
3.000000000000000
 50
0.000000000000000
 51
90.000000000000000
  0
LINE
  8
0
  6
CONTINUOUS
 62
256
 10
20.496507000000001
 20
183.080191000000010
 11
20.496507000000001
 21
184.080191000000010
  0
LINE
  8
0
  6
CONTINUOUS
 62
256
 10
20.496507000000001
 20
183.080191000000010
 11
20.496507000000001
 21
182.676499000000010
  0
LINE
  8
0
  6
CONTINUOUS
 62
256
 10
20.496507000000001
 20
183.080191000000010
 11
20.496507000000001
 21
182.676499000000010
  0
LINE
  8
0
  6
CONTINUOUS
 62
256
 10
17.496507000000001
 20
166.581458000000000
 11
12.496506999999999
 21
166.581458000000000
  0
LINE
  8
0
  6
CONTINUOUS
 62
256
 10
20.496507000000001
 20
169.764922000000010
 11
20.496507000000001
 21
127.580191000000000
  0
LINE
  8
0
  6
CONTINUOUS
 62
256
 10
17.496507000000001
 20
179.676499000000010
 11
12.496506999999999
 21
179.676499000000010
  0
LINE
  8
0
  6
CONTINUOUS
 62
256
 10
17.496507000000001
 20
172.764922000000010
 11
12.496506999999999
 21
172.764922000000010
  0
ARC
  8
0
  6
CONTINUOUS
 62
256
 10
2.496507000000000
 20
174.676499000000010
 40
5.000000000000004
 50
287.457602999999950
 51
0.000000000000000
  0
ARC
  8
0
  6
CONTINUOUS
 62
256
 10
2.496507000000000
 20
168.128977999999990
 40
5.000000000000004
 50
287.457602999999950
 51
0.000000000000000
  0
ARC
  8
0
  6
CONTINUOUS
 62
256
 10
12.496506999999999
 20
174.676499000000010
 40
5.000000000000000
 50
90.000000000000000
 51
180.000000000000000
  0
ARC
  8
0
  6
CONTINUOUS
 62
256
 10
12.496506999999999
 20
167.764922000000010
 40
5.000000000000000
 50
90.000000000000000
 51
180.000000000000000
  0
LINE
  8
0
  6
CONTINUOUS
 62
256
 10
-90.503493000000006
 20
27.580190999999999
 11
-118.503493000000010
 21
27.580190999999999
  0
LINE
  8
0
  6
CONTINUOUS
 62
256
 10
-108.503493000000010
 20
63.580190999999999
 11
-100.503493000000010
 21
63.580190999999999
  0
LINE
  8
0
  6
CONTINUOUS
 62
256
 10
-118.503493000000010
 20
72.580190999999999
 11
-118.503493000000010
 21
27.580190999999999
  0
LINE
  8
0
  6
CONTINUOUS
 62
256
 10
-104.503493000000010
 20
72.580190999999999
 11
-119.003493000000010
 21
72.580190999999999
  0
LINE
  8
0
  6
CONTINUOUS
 62
256
 10
-104.503493000000010
 20
72.580190999999999
 11
-119.003493000000010
 21
72.580190999999999
  0
LINE
  8
0
  6
CONTINUOUS
 62
256
 10
-119.003493000000010
 20
72.580190999999999
 11
-119.003493000000010
 21
74.580190999999999
  0
LINE
  8
0
  6
CONTINUOUS
 62
256
 10
-90.503493000000006
 20
72.580190999999999
 11
-90.503493000000006
 21
27.580190999999999
  0
LINE
  8
0
  6
CONTINUOUS
 62
256
 10
-104.503493000000010
 20
72.580190999999999
 11
-90.003493000000006
 21
72.580190999999999
  0
LINE
  8
0
  6
CONTINUOUS
 62
256
 10
-104.503493000000010
 20
72.580190999999999
 11
-90.003493000000006
 21
72.580190999999999
  0
LINE
  8
0
  6
CONTINUOUS
 62
256
 10
-90.003493000000006
 20
72.580190999999999
 11
-90.003493000000006
 21
74.580190999999999
  0
LINE
  8
0
  6
CONTINUOUS
 62
256
 10
-108.503493000000010
 20
63.580190999999999
 11
-108.503493000000010
 21
27.580190999999999
  0
LINE
  8
0
  6
CONTINUOUS
 62
256
 10
-100.503493000000010
 20
63.580190999999999
 11
-100.503493000000010
 21
27.580190999999999
  0
ARC
  8
0
  6
CONTINUOUS
 62
256
 10
-104.503493000000010
 20
63.580190999999999
 40
4.000000000000000
 50
0.000000000000000
 51
180.000000000000000
  0
POLYLINE
  8
0
  6
CONTINUOUS
 62
256
 66
1
 70
1
  0
VERTEX
  8
0
  6
CONTINUOUS
 62
256
 10
140.196507000000000
 20
75.656666000000001
  0
VERTEX
  8
0
  6
CONTINUOUS
 62
256
 10
140.106197817895180
 20
76.359622510558168
  0
VERTEX
  8
0
  6
CONTINUOUS
 62
256
 10
139.838740802803040
 20
77.035564796638141
  0
VERTEX
  8
0
  6
CONTINUOUS
 62
256
 10
139.404414177821960
 20
77.658516775258661
  0
VERTEX
  8
0
  6
CONTINUOUS
 62
256
 10
138.819908871576790
 20
78.204538751236839
  0
VERTEX
  8
0
  6
CONTINUOUS
 62
256
 10
138.107687095192120
 20
78.652647406248491
  0
VERTEX
  8
0
  6
CONTINUOUS
 62
256
 10
137.295119132115930
 20
78.985622175983750
  0
VERTEX
  8
0
  6
CONTINUOUS
 62
256
 10
136.413431513475810
 20
79.190667026776069
  0
VERTEX
  8
0
  6
CONTINUOUS
 62
256
 10
135.496507000000010
 20
79.259902199999999
  0
VERTEX
  8
0
  6
CONTINUOUS
 62
256
 10
134.579582486524200
 20
79.190667026776069
  0
VERTEX
  8
0
  6
CONTINUOUS
 62
256
 10
133.697894867884090
 20
78.985622175983750
  0
VERTEX
  8
0
  6
CONTINUOUS
 62
256
 10
132.885326904807900
 20
78.652647406248491
  0
VERTEX
  8
0
  6
CONTINUOUS
 62
256
 10
132.173105128423230
 20
78.204538751236839
  0
VERTEX
  8
0
  6
CONTINUOUS
 62
256
 10
131.588599822178050
 20
77.658516775258661
  0
VERTEX
  8
0
  6
CONTINUOUS
 62
256
 10
131.154273197196970
 20
77.035564796638141
  0
VERTEX
  8
0
  6
CONTINUOUS
 62
256
 10
130.886816182104840
 20
76.359622510558168
  0
VERTEX
  8
0
  6
CONTINUOUS
 62
256
 10
130.796507000000020
 20
75.656666000000001
  0
VERTEX
  8
0
  6
CONTINUOUS
 62
256
 10
130.886816182104840
 20
74.953709489441835
  0
VERTEX
  8
0
  6
CONTINUOUS
 62
256
 10
131.154273197196970
 20
74.277767203361861
  0
VERTEX
  8
0
  6
CONTINUOUS
 62
256
 10
131.588599822178050
 20
73.654815224741341
  0
VERTEX
  8
0
  6
CONTINUOUS
 62
256
 10
132.173105128423230
 20
73.108793248763163
  0
VERTEX
  8
0
  6
CONTINUOUS
 62
256
 10
132.885326904807900
 20
72.660684593751512
  0
VERTEX
  8
0
  6
CONTINUOUS
 62
256
 10
133.697894867884090
 20
72.327709824016267
  0
VERTEX
  8
0
  6
CONTINUOUS
 62
256
 10
134.579582486524200
 20
72.122664973223934
  0
VERTEX
  8
0
  6
CONTINUOUS
 62
256
 10
135.496507000000010
 20
72.053429800000004
  0
VERTEX
  8
0
  6
CONTINUOUS
 62
256
 10
136.413431513475810
 20
72.122664973223934
  0
VERTEX
  8
0
  6
CONTINUOUS
 62
256
 10
137.295119132115930
 20
72.327709824016253
  0
VERTEX
  8
0
  6
CONTINUOUS
 62
256
 10
138.107687095192120
 20
72.660684593751512
  0
VERTEX
  8
0
  6
CONTINUOUS
 62
256
 10
138.819908871576760
 20
73.108793248763163
  0
VERTEX
  8
0
  6
CONTINUOUS
 62
256
 10
139.404414177821960
 20
73.654815224741341
  0
VERTEX
  8
0
  6
CONTINUOUS
 62
256
 10
139.838740802803040
 20
74.277767203361861
  0
VERTEX
  8
0
  6
CONTINUOUS
 62
256
 10
140.106197817895180
 20
74.953709489441835
  0
SEQEND
  8
0
  6
CONTINUOUS
 62
256
  0
LINE
  8
0
  6
CONTINUOUS
 62
256
 10
137.496507000000010
 20
72.664291000000006
 11
135.496507000000010
 21
73.840075999999996
  0
LINE
  8
0
  6
CONTINUOUS
 62
256
 10
135.496507000000010
 20
73.840075999999996
 11
133.496507000000010
 21
75.492717999999996
  0
LINE
  8
0
  6
CONTINUOUS
 62
256
 10
133.496507000000010
 20
72.664291000000006
 11
135.496507000000010
 21
73.840075999999996
  0
LINE
  8
0
  6
CONTINUOUS
 62
256
 10
135.496507000000010
 20
73.840075999999996
 11
137.496507000000010
 21
75.492717999999996
  0
LINE
  8
0
  6
CONTINUOUS
 62
256
 10
124.496506999999990
 20
67.580190999999999
 11
205.190531999999990
 21
67.580190999999999
  0
LINE
  8
0
  6
CONTINUOUS
 62
256
 10
227.496507000000010
 20
127.580191000000000
 11
227.496507000000010
 21
80.136985999999993
  0
ARC
  8
0
  6
CONTINUOUS
 62
256
 10
205.190531999999990
 20
87.580190999999999
 40
20.000000000000000
 50
270.000000000000000
 51
304.999999999999940
  0
LINE
  8
0
  6
CONTINUOUS
 62
256
 10
216.662060000000000
 20
71.197149999999993
 11
226.387806000000010
 21
78.007191000000006
  0
ARC
  8
0
  6
CONTINUOUS
 62
256
 10
224.896507000000010
 20
80.136985999999993
 40
2.600000000000007
 50
305.000000000000000
 51
0.000000000000000
  0
LINE
  8
0
  6
CONTINUOUS
 62
256
 10
124.496506999999990
 20
86.580190999999999
 11
124.496506999999990
 21
67.580190999999999
  0
ARC
  8
0
  6
CONTINUOUS
 62
256
 10
131.496507000000010
 20
92.580190999999999
 40
3.000000000000000
 50
270.000000000000000
 51
0.000000000000000
  0
LINE
  8
0
  6
CONTINUOUS
 62
256
 10
127.496506999999990
 20
89.580190999999999
 11
131.496507000000010
 21
89.580190999999999
  0
ARC
  8
0
  6
CONTINUOUS
 62
256
 10
127.496506999999990
 20
86.580190999999999
 40
3.000000000000000
 50
90.000000000000000
 51
180.000000000000000
  0
LINE
  8
0
  6
CONTINUOUS
 62
256
 10
134.496507000000010
 20
92.580190999999999
 11
134.496507000000010
 21
127.580191000000000
  0
LINE
  8
0
  6
CONTINUOUS
 62
256
 10
124.496506999999990
 20
77.264657000000000
 11
27.496507000000001
 21
77.264657000000000
  0
LINE
  8
0
  6
CONTINUOUS
 62
256
 10
124.496506999999990
 20
82.214404000000002
 11
27.496507000000001
 21
82.214404000000002
  0
LINE
  8
0
  6
CONTINUOUS
 62
256
 10
133.399499999999990
 20
90.261005999999995
 11
27.496507000000001
 21
90.261005999999995
  0
LINE
  8
0
  6
CONTINUOUS
 62
256
 10
134.410170999999990
 20
91.865654000000006
 11
131.996105000000000
 21
91.865654000000006
  0
LINE
  8
0
  6
CONTINUOUS
 62
256
 10
42.296506999999998
 20
95.829398999999995
 11
27.496507000000001
 21
95.829398999999995
  0
LINE
  8
0
  6
CONTINUOUS
 62
256
 10
134.496507000000010
 20
97.297757000000004
 11
132.296506999999990
 21
97.297757000000004
  0
LINE
  8
0
  6
CONTINUOUS
 62
256
 10
134.496507000000010
 20
101.388257000000000
 11
132.296506999999990
 21
101.388257000000000
  0
LINE
  8
0
  6
CONTINUOUS
 62
256
 10
134.496507000000010
 20
102.750138000000010
 11
132.296506999999990
 21
102.750138000000010
  0
LINE
  8
0
  6
CONTINUOUS
 62
256
 10
134.496507000000010
 20
107.580191000000000
 11
132.296506999999990
 21
107.580191000000000
  0
LINE
  8
0
  6
CONTINUOUS
 62
256
 10
42.296506999999998
 20
157.862625000000010
 11
27.496507000000001
 21
157.862625000000010
  0
LINE
  8
0
  6
CONTINUOUS
 62
256
 10
42.296506999999998
 20
102.750138000000010
 11
27.496507000000001
 21
102.750138000000010
  0
LINE
  8
0
  6
CONTINUOUS
 62
256
 10
134.496507000000010
 20
157.862625000000010
 11
132.296506999999990
 21
157.862625000000010
  0
LINE
  8
0
  6
CONTINUOUS
 62
256
 10
42.296506999999998
 20
97.297757000000004
 11
27.496507000000001
 21
97.297757000000004
  0
LINE
  8
0
  6
CONTINUOUS
 62
256
 10
42.296506999999998
 20
152.410245000000000
 11
27.496507000000001
 21
152.410245000000000
  0
LINE
  8
0
  6
CONTINUOUS
 62
256
 10
42.296506999999998
 20
107.580191000000000
 11
27.496507000000001
 21
107.580191000000000
  0
LINE
  8
0
  6
CONTINUOUS
 62
256
 10
134.496507000000010
 20
152.410245000000000
 11
132.296506999999990
 21
152.410245000000000
  0
LINE
  8
0
  6
CONTINUOUS
 62
256
 10
42.296506999999998
 20
101.388257000000000
 11
27.496507000000001
 21
101.388257000000000
  0
LINE
  8
0
  6
CONTINUOUS
 62
256
 10
42.296506999999998
 20
153.772124999999990
 11
27.496507000000001
 21
153.772124999999990
  0
LINE
  8
0
  6
CONTINUOUS
 62
256
 10
134.496507000000010
 20
153.772124999999990
 11
132.296506999999990
 21
153.772124999999990
  0
LINE
  8
0
  6
CONTINUOUS
 62
256
 10
42.296506999999998
 20
147.580191000000010
 11
27.496507000000001
 21
147.580191000000010
  0
LINE
  8
0
  6
CONTINUOUS
 62
256
 10
134.496507000000010
 20
147.580191000000010
 11
132.296506999999990
 21
147.580191000000010
  0
LINE
  8
0
  6
CONTINUOUS
 62
256
 10
124.496506999999990
 20
184.580191000000010
 11
27.496507000000001
 21
184.580191000000010
  0
LINE
  8
0
  6
CONTINUOUS
 62
256
 10
124.496506999999990
 20
185.080191000000010
 11
27.496507000000001
 21
185.080191000000010
  0
LINE
  8
0
  6
CONTINUOUS
 62
256
 10
124.496506999999990
 20
183.580191000000010
 11
27.496507000000001
 21
183.580191000000010
  0
LINE
  8
0
  6
CONTINUOUS
 62
256
 10
124.496506999999990
 20
182.580191000000010
 11
27.496507000000001
 21
182.580191000000010
  0
LINE
  8
0
  6
CONTINUOUS
 62
256
 10
124.496506999999990
 20
177.895725000000000
 11
27.496507000000001
 21
177.895725000000000
  0
LINE
  8
0
  6
CONTINUOUS
 62
256
 10
124.496506999999990
 20
172.945978000000000
 11
27.496507000000001
 21
172.945978000000000
  0
LINE
  8
0
  6
CONTINUOUS
 62
256
 10
133.399499999999990
 20
164.899375999999990
 11
27.496507000000001
 21
164.899375999999990
  0
LINE
  8
0
  6
CONTINUOUS
 62
256
 10
134.410170999999990
 20
163.294727999999990
 11
131.996105000000000
 21
163.294727999999990
  0
LINE
  8
0
  6
CONTINUOUS
 62
256
 10
134.496507000000010
 20
159.330983000000000
 11
132.296506999999990
 21
159.330983000000000
  0
LINE
  8
0
  6
CONTINUOUS
 62
256
 10
124.496506999999990
 20
168.580191000000010
 11
124.496506999999990
 21
187.580191000000010
  0
ARC
  8
0
  6
CONTINUOUS
 62
256
 10
131.496507000000010
 20
162.580191000000010
 40
3.000000000000000
 50
0.000000000000000
 51
90.000000000000000
  0
LINE
  8
0
  6
CONTINUOUS
 62
256
 10
127.496506999999990
 20
165.580191000000010
 11
131.496507000000010
 21
165.580191000000010
  0
ARC
  8
0
  6
CONTINUOUS
 62
256
 10
127.496506999999990
 20
168.580191000000010
 40
3.000000000000000
 50
180.000000000000000
 51
270.000000000000000
  0
LINE
  8
0
  6
CONTINUOUS
 62
256
 10
134.496507000000010
 20
162.580191000000010
 11
134.496507000000010
 21
127.580191000000000
  0
LINE
  8
0
  6
CONTINUOUS
 62
256
 10
27.496507000000001
 20
186.080191000000010
 11
124.496506999999990
 21
186.080191000000010
  0
LINE
  8
0
  6
CONTINUOUS
 62
256
 10
27.496507000000001
 20
186.080191000000010
 11
27.496507000000001
 21
127.580191000000000
  0
LINE
  8
0
  6
CONTINUOUS
 62
256
 10
124.496506999999990
 20
187.580191000000010
 11
205.190531999999990
 21
187.580191000000010
  0
LINE
  8
0
  6
CONTINUOUS
 62
256
 10
227.496507000000010
 20
127.580191000000000
 11
227.496507000000010
 21
175.023395999999990
  0
ARC
  8
0
  6
CONTINUOUS
 62
256
 10
205.190531999999990
 20
167.580191000000010
 40
20.000000000000004
 50
55.000000000000050
 51
90.000000000000000
  0
LINE
  8
0
  6
CONTINUOUS
 62
256
 10
216.662060000000000
 20
183.963232000000000
 11
226.387806000000010
 21
177.153190999999990
  0
ARC
  8
0
  6
CONTINUOUS
 62
256
 10
224.896507000000010
 20
175.023395999999990
 40
2.599999999999994
 50
0.000000000000000
 51
54.999999999999801
  0
LINE
  8
0
  6
CONTINUOUS
 62
256
 10
124.496506999999990
 20
70.080190999999999
 11
27.496507000000001
 21
70.080190999999999
  0
LINE
  8
0
  6
CONTINUOUS
 62
256
 10
124.496506999999990
 20
70.580190999999999
 11
27.496507000000001
 21
70.580190999999999
  0
LINE
  8
0
  6
CONTINUOUS
 62
256
 10
124.496506999999990
 20
71.580190999999999
 11
27.496507000000001
 21
71.580190999999999
  0
LINE
  8
0
  6
CONTINUOUS
 62
256
 10
124.496506999999990
 20
72.580190999999999
 11
27.496507000000001
 21
72.580190999999999
  0
POLYLINE
  8
0
  6
CONTINUOUS
 62
256
 66
1
 70
1
  0
VERTEX
  8
0
  6
CONTINUOUS
 62
256
 10
140.196507000000000
 20
179.503716000000000
  0
VERTEX
  8
0
  6
CONTINUOUS
 62
256
 10
140.106197817895180
 20
180.206672510558180
  0
VERTEX
  8
0
  6
CONTINUOUS
 62
256
 10
139.838740802803040
 20
180.882614796638140
  0
VERTEX
  8
0
  6
CONTINUOUS
 62
256
 10
139.404414177821960
 20
181.505566775258670
  0
VERTEX
  8
0
  6
CONTINUOUS
 62
256
 10
138.819908871576790
 20
182.051588751236840
  0
VERTEX
  8
0
  6
CONTINUOUS
 62
256
 10
138.107687095192120
 20
182.499697406248490
  0
VERTEX
  8
0
  6
CONTINUOUS
 62
256
 10
137.295119132115930
 20
182.832672175983730
  0
VERTEX
  8
0
  6
CONTINUOUS
 62
256
 10
136.413431513475810
 20
183.037717026776080
  0
VERTEX
  8
0
  6
CONTINUOUS
 62
256
 10
135.496507000000010
 20
183.106952199999990
  0
VERTEX
  8
0
  6
CONTINUOUS
 62
256
 10
134.579582486524200
 20
183.037717026776080
  0
VERTEX
  8
0
  6
CONTINUOUS
 62
256
 10
133.697894867884090
 20
182.832672175983730
  0
VERTEX
  8
0
  6
CONTINUOUS
 62
256
 10
132.885326904807900
 20
182.499697406248490
  0
VERTEX
  8
0
  6
CONTINUOUS
 62
256
 10
132.173105128423230
 20
182.051588751236840
  0
VERTEX
  8
0
  6
CONTINUOUS
 62
256
 10
131.588599822178050
 20
181.505566775258670
  0
VERTEX
  8
0
  6
CONTINUOUS
 62
256
 10
131.154273197196970
 20
180.882614796638140
  0
VERTEX
  8
0
  6
CONTINUOUS
 62
256
 10
130.886816182104840
 20
180.206672510558180
  0
VERTEX
  8
0
  6
CONTINUOUS
 62
256
 10
130.796507000000020
 20
179.503716000000000
  0
VERTEX
  8
0
  6
CONTINUOUS
 62
256
 10
130.886816182104840
 20
178.800759489441820
  0
VERTEX
  8
0
  6
CONTINUOUS
 62
256
 10
131.154273197196970
 20
178.124817203361860
  0
VERTEX
  8
0
  6
CONTINUOUS
 62
256
 10
131.588599822178050
 20
177.501865224741320
  0
VERTEX
  8
0
  6
CONTINUOUS
 62
256
 10
132.173105128423230
 20
176.955843248763160
  0
VERTEX
  8
0
  6
CONTINUOUS
 62
256
 10
132.885326904807900
 20
176.507734593751510
  0
VERTEX
  8
0
  6
CONTINUOUS
 62
256
 10
133.697894867884090
 20
176.174759824016260
  0
VERTEX
  8
0
  6
CONTINUOUS
 62
256
 10
134.579582486524200
 20
175.969714973223940
  0
VERTEX
  8
0
  6
CONTINUOUS
 62
256
 10
135.496507000000010
 20
175.900479800000000
  0
VERTEX
  8
0
  6
CONTINUOUS
 62
256
 10
136.413431513475810
 20
175.969714973223940
  0
VERTEX
  8
0
  6
CONTINUOUS
 62
256
 10
137.295119132115930
 20
176.174759824016260
  0
VERTEX
  8
0
  6
CONTINUOUS
 62
256
 10
138.107687095192120
 20
176.507734593751510
  0
VERTEX
  8
0
  6
CONTINUOUS
 62
256
 10
138.819908871576760
 20
176.955843248763160
  0
VERTEX
  8
0
  6
CONTINUOUS
 62
256
 10
139.404414177821960
 20
177.501865224741320
  0
VERTEX
  8
0
  6
CONTINUOUS
 62
256
 10
139.838740802803040
 20
178.124817203361860
  0
VERTEX
  8
0
  6
CONTINUOUS
 62
256
 10
140.106197817895180
 20
178.800759489441820
  0
SEQEND
  8
0
  6
CONTINUOUS
 62
256
  0
LINE
  8
0
  6
CONTINUOUS
 62
256
 10
137.496507000000010
 20
182.496092000000000
 11
135.496507000000010
 21
181.320305999999990
  0
LINE
  8
0
  6
CONTINUOUS
 62
256
 10
135.496507000000010
 20
181.320305999999990
 11
133.496507000000010
 21
179.667665000000000
  0
LINE
  8
0
  6
CONTINUOUS
 62
256
 10
133.496507000000010
 20
182.496092000000000
 11
135.496507000000010
 21
181.320305999999990
  0
LINE
  8
0
  6
CONTINUOUS
 62
256
 10
135.496507000000010
 20
181.320305999999990
 11
137.496507000000010
 21
179.667665000000000
  0
LINE
  8
0
  6
DASHDOT
 62
256
 10
-177.007849999999990
 20
127.580191000000000
 11
237.425720000000010
 21
127.580191000000000
  0
LINE
  8
0
  6
CONTINUOUS
 62
256
 10
27.496507000000001
 20
69.080190999999999
 11
124.496506999999990
 21
69.080190999999999
  0
LINE
  8
0
  6
CONTINUOUS
 62
256
 10
27.496507000000001
 20
69.080190999999999
 11
27.496507000000001
 21
127.580191000000000
  0
ARC
  8
0
  6
CONTINUOUS
 62
256
 10
43.296506999999998
 20
92.580190999999999
 40
1.000000000000000
 50
180.000000000000000
 51
270.000000000000000
  0
ARC
  8
0
  6
CONTINUOUS
 62
256
 10
43.296506999999998
 20
162.580191000000010
 40
1.000000000000000
 50
90.000000000000000
 51
180.000000000000000
  0
LINE
  8
0
  6
CONTINUOUS
 62
256
 10
42.296506999999998
 20
162.580191000000010
 11
42.296506999999998
 21
92.580190999999999
  0
ARC
  8
0
  6
CONTINUOUS
 62
256
 10
131.296506999999990
 20
162.580191000000010
 40
1.000000000000000
 50
0.000000000000000
 51
90.000000000000000
  0
ARC
  8
0
  6
CONTINUOUS
 62
256
 10
131.296506999999990
 20
92.580190999999999
 40
1.000000000000000
 50
270.000000000000000
 51
0.000000000000000
  0
LINE
  8
0
  6
CONTINUOUS
 62
256
 10
132.296506999999990
 20
162.580191000000010
 11
132.296506999999990
 21
92.580190999999999
  0
LINE
  8
0
  6
CONTINUOUS
 62
256
 10
43.296506999999998
 20
163.580191000000010
 11
131.296506999999990
 21
163.580191000000010
  0
LINE
  8
0
  6
CONTINUOUS
 62
256
 10
43.296506999999998
 20
91.580190999999999
 11
131.296506999999990
 21
91.580190999999999
  0
LINE
  8
0
  6
CONTINUOUS
 62
256
 10
42.296506999999998
 20
159.330983000000000
 11
27.496507000000001
 21
159.330983000000000
  0
LINE
  8
0
  6
CONTINUOUS
 62
256
 10
42.596910000000001
 20
163.294727999999990
 11
27.496507000000001
 21
163.294727999999990
  0
LINE
  8
0
  6
CONTINUOUS
 62
256
 10
42.596910000000001
 20
91.865654000000006
 11
27.496507000000001
 21
91.865654000000006
  0
TEXT
  8
0
  6
CONTINUOUS
 62
256
 10
543.204589843750000
 20
-218.896652221679690
 40
3.299999952316284
  1
1/1
 50
0.000002504478167
 41
0.850909097352304
  7
STANDARD1
  0
TEXT
  8
0
  6
CONTINUOUS
 62
256
 10
540.786621093750000
 20
-218.896652221679690
 40
3.299999952316284
  1
 
 50
0.000002504478167
 41
1.733333298293026
  7
STANDARD1
  0
TEXT
  8
0
  6
CONTINUOUS
 62
256
 10
527.735961914062500
 20
-218.896652221679690
 40
3.299999952316284
  1
SCALE
 50
0.000002504478167
 41
0.821052645401140
  7
STANDARD1
  0
TEXT
  8
0
  6
CONTINUOUS
 62
256
 10
524.484619140625000
 20
-218.896652221679690
 40
3.299999952316284
  1
 
 50
0.000002504478167
 41
1.733333298293026
  7
STANDARD1
  0
TEXT
  8
0
  6
CONTINUOUS
 62
256
 10
539.347839355468750
 20
-213.596649169921870
 40
3.299999952316284
  1
1/60
 50
0.000002504478167
 41
0.832000075658163
  7
STANDARD1
  0
TEXT
  8
0
  6
CONTINUOUS
 62
256
 10
535.556762695312500
 20
-213.596649169921870
 40
3.299999952316284
  1
ü`
 50
0.000002504478167
 41
1.176000019651471
  7
STANDARD1
  0
TEXT
  8
0
  6
CONTINUOUS
 62
256
 10
527.760620117187500
 20
-213.596649169921870
 40
3.299999952316284
  1
1/5
 50
0.000002504478167
 41
0.850909097352304
  7
STANDARD1
  0
TEXT
  8
0
  6
CONTINUOUS
 62
256
 10
524.484619140625000
 20
-213.596649169921870
 40
3.299999952316284
  1
 
 50
0.000002504478167
 41
1.733333298293026
  7
STANDARD1
  0
TEXT
  8
0
  6
CONTINUOUS
 62
256
 10
524.484619140625000
 20
-208.296646118164060
 40
3.299999952316284
  1
GM-SHYFB-RL
 50
0.000002504478167
 41
0.798139564113939
  7
STANDARD1
  0
TEXT
  8
0
  6
CONTINUOUS
 62
256
 10
530.309997558593750
 20
-202.996658325195310
 40
3.299999952316284
  1
0.4kW
 50
0.000002504478167
 41
0.821052645401140
  7
STANDARD1
  0
TEXT
  8
0
  6
CONTINUOUS
 62
256
 10
524.484619140625000
 20
-202.996658325195310
 40
3.299999952316284
  1
  
 50
0.000002504478167
 41
1.485714400175845
  7
STANDARD1
  0
TEXT
  8
0
  6
CONTINUOUS
 62
256
 10
530.304077148437500
 20
-197.696655273437500
 40
3.299999952316284
  1
SHY084
 50
0.000002504478167
 41
0.813913121261144
  7
STANDARD1
  0
TEXT
  8
0
  6
CONTINUOUS
 62
256
 10
524.484619140625000
 20
-197.696655273437500
 40
3.299999952316284
  1
  
 50
0.000002504478167
 41
1.485714400175845
  7
STANDARD1
  0
LINE
  8
0
  6
CONTINUOUS
 62
256
 10
456.019175000000020
 20
-179.120879000000000
 11
445.581301000000000
 21
-178.936287999999990
  0
LINE
  8
0
  6
CONTINUOUS
 62
256
 10
456.019175000000020
 20
-177.317955000000010
 11
456.019175000000020
 21
-179.120879000000000
  0
LINE
  8
0
  6
CONTINUOUS
 62
256
 10
383.902459000000020
 20
-177.845514000000010
 11
380.019175000000020
 21
-177.776839000000000
  0
LINE
  8
0
  6
CONTINUOUS
 62
256
 10
370.019175000000020
 20
-177.776839000000000
 11
370.019175000000020
 21
-169.393920000000010
  0
LINE
  8
0
  6
CONTINUOUS
 62
256
 10
380.019175000000020
 20
-177.776839000000000
 11
370.019175000000020
 21
-177.776839000000000
  0
LINE
  8
0
  6
CONTINUOUS
 62
256
 10
468.019175000000020
 20
-178.902691000000000
 11
468.019175000000020
 21
-169.491163000000000
  0
LINE
  8
0
  6
CONTINUOUS
 62
256
 10
456.019175000000020
 20
-179.112152000000010
 11
468.019175000000020
 21
-178.902691000000000
  0
LINE
  8
0
  6
CONTINUOUS
 62
256
 10
456.019175000000020
 20
-31.103424000000000
 11
455.019175000000020
 21
-31.121109000000001
  0
LINE
  8
0
  6
CONTINUOUS
 62
256
 10
472.019175000000020
 20
-49.612152000000002
 11
472.019175000000020
 21
-64.733140000000006
  0
LINE
  8
0
  6
CONTINUOUS
 62
256
 10
468.019175000000020
 20
-60.733139999999999
 11
468.019175000000020
 21
-31.321611999999998
  0
LINE
  8
0
  6
CONTINUOUS
 62
256
 10
456.019175000000020
 20
-31.103424000000000
 11
456.019175000000020
 21
-52.906348000000001
  0
LINE
  8
0
  6
CONTINUOUS
 62
256
 10
472.019175000000020
 20
-49.612152000000002
 11
468.019175000000020
 21
-49.612152000000002
  0
LINE
  8
0
  6
CONTINUOUS
 62
256
 10
468.019175000000020
 20
-31.321611999999998
 11
456.019175000000020
 21
-31.112151999999998
  0
LINE
  8
0
  6
CONTINUOUS
 62
256
 10
383.019175000000020
 20
-32.394410000000001
 11
380.019175000000020
 21
-32.447463999999997
  0
LINE
  8
0
  6
CONTINUOUS
 62
256
 10
370.019175000000020
 20
-60.733139999999999
 11
370.019175000000020
 21
-32.447463999999997
  0
LINE
  8
0
  6
CONTINUOUS
 62
256
 10
366.019175000000020
 20
-64.733140000000006
 11
366.019175000000020
 21
-49.612152000000002
  0
LINE
  8
0
  6
CONTINUOUS
 62
256
 10
370.019175000000020
 20
-49.612152000000002
 11
366.019175000000020
 21
-49.612152000000002
  0
LINE
  8
0
  6
CONTINUOUS
 62
256
 10
380.019175000000020
 20
-32.447463999999997
 11
370.019175000000020
 21
-32.447463999999997
  0
LINE
  8
0
  6
CONTINUOUS
 62
256
 10
359.153935999999990
 20
-106.112151999999990
 11
319.019175000000020
 21
-106.112151999999990
  0
LINE
  8
0
  6
CONTINUOUS
 62
256
 10
361.304979000000000
 20
-78.112151999999995
 11
319.019175000000020
 21
-78.112151999999995
  0
LINE
  8
0
  6
DASHDOT
 62
256
 10
315.530954000000010
 20
-92.112151999999995
 11
482.763596000000010
 21
-92.112151999999995
  0
LINE
  8
0
  6
CONTINUOUS
 62
256
 10
319.019175000000020
 20
-92.112151999999995
 11
319.019175000000020
 21
-75.112151999999995
  0
LINE
  8
0
  6
CONTINUOUS
 62
256
 10
355.019175000000020
 20
-75.112151999999995
 11
319.019175000000020
 21
-75.112151999999995
  0
LINE
  8
0
  6
CONTINUOUS
 62
256
 10
319.019175000000020
 20
-92.112151999999995
 11
319.019175000000020
 21
-106.112151999999990
  0
LINE
  8
0
  6
CONTINUOUS
 62
256
 10
355.019175000000020
 20
-78.112151999999995
 11
355.019175000000020
 21
-75.112151999999995
  0
LINE
  8
0
  6
DASHDOT
 62
256
 10
419.019175000000020
 20
-181.889805000000000
 11
419.019175000000020
 21
-3.406640000000000
  0
LINE
  8
0
  6
DASHDOT
 62
256
 10
485.024458999999980
 20
-115.112151999999990
 11
354.189948000000020
 21
-115.112151999999990
  0
ARC
  8
0
  6
CONTINUOUS
 62
256
 10
419.019175000000020
 20
-317.612151999999980
 40
300.000000000000000
 50
83.967950999999999
 51
96.032049000000001
  0
LINE
  8
0
  6
CONTINUOUS
 62
256
 10
421.519175000000020
 20
-17.622568000000001
 11
421.519175000000020
 21
-17.112151999999998
  0
LINE
  8
0
  6
CONTINUOUS
 62
256
 10
416.519175000000020
 20
-17.612152999999999
 11
416.519175000000020
 21
-17.112151999999998
  0
LINE
  8
0
  6
CONTINUOUS
 62
256
 10
421.519175000000020
 20
-17.112151999999998
 11
416.519175000000020
 21
-17.112151999999998
  0
ARC
  8
0
  6
CONTINUOUS
 62
256
 10
450.019175000000020
 20
-24.245487000000001
 40
5.000000000000000
 50
0.000000000000000
 51
83.967950999999999
  0
LINE
  8
0
  6
CONTINUOUS
 62
256
 10
455.019175000000020
 20
-52.805847999999997
 11
455.019175000000020
 21
-24.245487000000001
  0
LINE
  8
0
  6
CONTINUOUS
 62
256
 10
383.019175000000020
 20
-52.805847999999997
 11
383.019175000000020
 21
-24.245487000000001
  0
ARC
  8
0
  6
CONTINUOUS
 62
256
 10
388.019175000000020
 20
-24.245487000000001
 40
4.999999999999998
 50
96.032049000000015
 51
180.000000000000000
  0
LINE
  8
0
  6
CONTINUOUS
 62
256
 10
449.011675000000030
 20
-51.612152000000002
 11
455.019175000000020
 21
-51.612152000000002
  0
LINE
  8
0
  6
CONTINUOUS
 62
256
 10
389.026676000000010
 20
-51.612152000000002
 11
383.019175000000020
 21
-51.612152000000002
  0
ARC
  8
0
  6
CONTINUOUS
 62
256
 10
419.019175000000020
 20
120.487848000000000
 40
289.396999999999990
 50
270.000000000000000
 51
276.051985000000000
  0
ARC
  8
0
  6
CONTINUOUS
 62
256
 10
447.907204999999980
 20
-151.985052999999990
 40
15.397000000000000
 50
276.051984999999890
 51
315.000000000000060
  0
LINE
  8
0
  6
CONTINUOUS
 62
256
 10
463.370593999999980
 20
-158.296310000000010
 11
458.794528000000010
 21
-162.872376000000000
  0
ARC
  8
0
  6
CONTINUOUS
 62
256
 10
459.127952999999990
 20
-154.053670000000010
 40
5.999999999999989
 50
314.999999999999770
 51
352.102010999999950
  0
ARC
  8
0
  6
CONTINUOUS
 62
256
 10
178.419175000000000
 20
-115.112151999999990
 40
289.396999999999990
 50
352.102011000000000
 51
360.000000000000000
  0
ARC
  8
0
  6
CONTINUOUS
 62
256
 10
419.019175000000020
 20
-350.712152000000000
 40
289.396999999999990
 50
83.948014999999998
 51
90.000000000000000
  0
ARC
  8
0
  6
CONTINUOUS
 62
256
 10
447.907204999999980
 20
-78.239250999999996
 40
15.397000000000016
 50
44.999999999999929
 51
83.948015000000069
  0
LINE
  8
0
  6
CONTINUOUS
 62
256
 10
463.370593999999980
 20
-71.927993000000001
 11
458.794528000000010
 21
-67.351928000000001
  0
ARC
  8
0
  6
CONTINUOUS
 62
256
 10
459.127952999999990
 20
-76.170634000000007
 40
5.999999999999990
 50
7.897989000000010
 51
45.000000000000192
  0
ARC
  8
0
  6
CONTINUOUS
 62
256
 10
178.419175000000000
 20
-115.112151999999990
 40
289.396999999999990
 50
0.000000000000000
 51
7.897989000000000
  0
ARC
  8
0
  6
CONTINUOUS
 62
256
 10
419.019175000000020
 20
-350.712152000000000
 40
289.396999999999990
 50
90.000000000000000
 51
96.051985000000002
  0
ARC
  8
0
  6
CONTINUOUS
 62
256
 10
390.131146000000000
 20
-78.239250999999996
 40
15.397000000000000
 50
96.051984999999931
 51
135.000000000000090
  0
LINE
  8
0
  6
CONTINUOUS
 62
256
 10
374.667756999999990
 20
-71.927993000000001
 11
379.243823000000020
 21
-67.351928000000001
  0
ARC
  8
0
  6
CONTINUOUS
 62
256
 10
378.910397999999990
 20
-76.170634000000007
 40
5.999999999999989
 50
134.999999999999830
 51
172.102011000000000
  0
ARC
  8
0
  6
CONTINUOUS
 62
256
 10
659.619175000000040
 20
-115.112151999999990
 40
289.396999999999990
 50
172.102011000000030
 51
180.000000000000000
  0
ARC
  8
0
  6
CONTINUOUS
 62
256
 10
419.019175000000020
 20
120.487848000000000
 40
289.397000000000050
 50
263.948015000000000
 51
270.000000000000000
  0
LINE
  8
0
  6
CONTINUOUS
 62
256
 10
374.667756999999990
 20
-158.296310000000010
 11
379.243823000000020
 21
-162.872376000000000
  0
ARC
  8
0
  6
CONTINUOUS
 62
256
 10
390.131146000000000
 20
-151.985052999999990
 40
15.397000000000016
 50
224.999999999999910
 51
263.948015000000110
  0
ARC
  8
0
  6
CONTINUOUS
 62
256
 10
447.907204999999980
 20
-78.239250999999996
 40
26.600000000000016
 50
44.999999999999957
 51
83.948015000000026
  0
LINE
  8
0
  6
CONTINUOUS
 62
256
 10
473.782694999999990
 20
-66.496658999999994
 11
466.716246000000010
 21
-59.430210000000002
  0
ARC
  8
0
  6
CONTINUOUS
 62
256
 10
419.019175000000020
 20
-350.712152000000000
 40
300.600000000000020
 50
83.948014999999998
 51
96.051985000000002
  0
ARC
  8
0
  6
CONTINUOUS
 62
256
 10
447.907204999999980
 20
-151.985052999999990
 40
26.600000000000009
 50
276.051984999999950
 51
314.999999999999940
  0
ARC
  8
0
  6
CONTINUOUS
 62
256
 10
419.019175000000020
 20
120.487848000000000
 40
300.600000000000020
 50
263.948015000000000
 51
276.051985000000000
  0
LINE
  8
0
  6
CONTINUOUS
 62
256
 10
473.782694999999990
 20
-163.727644000000000
 11
466.716246000000010
 21
-170.794093000000000
  0
ARC
  8
0
  6
CONTINUOUS
 62
256
 10
390.131146000000000
 20
-151.985052999999990
 40
26.600000000000016
 50
224.999999999999940
 51
263.948015000000050
  0
LINE
  8
0
  6
CONTINUOUS
 62
256
 10
364.255655999999990
 20
-163.727644000000000
 11
371.322105000000020
 21
-170.794093000000000
  0
ARC
  8
0
  6
CONTINUOUS
 62
256
 10
390.131146000000000
 20
-78.239250999999996
 40
26.599999999999994
 50
96.051984999999974
 51
135.000000000000060
  0
LINE
  8
0
  6
CONTINUOUS
 62
256
 10
364.255655999999990
 20
-66.496658999999994
 11
371.322105000000020
 21
-59.430210000000002
  0
ARC
  8
0
  6
CONTINUOUS
 62
256
 10
469.115790000000000
 20
-159.060739000000010
 40
6.600000000000017
 50
315.000000000000170
 51
351.402917999999940
  0
ARC
  8
0
  6
CONTINUOUS
 62
256
 10
178.419175000000000
 20
-115.112151999999990
 40
300.600000000000020
 50
351.402918000000000
 51
0.000000000000000
  0
ARC
  8
0
  6
CONTINUOUS
 62
256
 10
469.115790000000000
 20
-71.163563999999994
 40
6.600000000000019
 50
8.597081999999919
 51
44.999999999999829
  0
ARC
  8
0
  6
CONTINUOUS
 62
256
 10
659.619175000000040
 20
-115.112151999999990
 40
300.600000000000020
 50
171.402918000000000
 51
180.000000000000000
  0
ARC
  8
0
  6
CONTINUOUS
 62
256
 10
368.922560999999970
 20
-71.163563999999994
 40
6.600000000000017
 50
135.000000000000170
 51
171.402918000000080
  0
ARC
  8
0
  6
CONTINUOUS
 62
256
 10
178.419175000000000
 20
-115.112151999999990
 40
300.600000000000020
 50
0.000000000000000
 51
8.597082000000002
  0
ARC
  8
0
  6
CONTINUOUS
 62
256
 10
659.619175000000040
 20
-115.112151999999990
 40
300.600000000000020
 50
180.000000000000000
 51
188.597082000000000
  0
ARC
  8
0
  6
CONTINUOUS
 62
256
 10
377.712396000000010
 20
-111.112151999999990
 40
1.499999999999979
 50
174.468927999999720
 51
270.000000000000000
  0
ARC
  8
0
  6
CONTINUOUS
 62
256
 10
377.712396000000010
 20
-119.112151999999990
 40
1.500000000000000
 50
90.000000000000000
 51
185.531072000000280
  0
ARC
  8
0
  6
CONTINUOUS
 62
256
 10
419.019175000000020
 20
-115.112151999999990
 40
17.999999999999982
 50
131.837003999999980
 51
168.162995999999990
  0
ARC
  8
0
  6
CONTINUOUS
 62
256
 10
419.019175000000020
 20
-115.112151999999990
 40
27.499999999999989
 50
187.928142000000010
 51
232.071857999999990
  0
LINE
  8
0
  6
CONTINUOUS
 62
256
 10
377.712396000000010
 20
-112.612151999999990
 11
380.727531000000000
 21
-112.612151999999990
  0
LINE
  8
0
  6
CONTINUOUS
 62
256
 10
397.708289999999980
 20
-83.200614999999999
 11
396.200721999999980
 21
-80.589432000000002
  0
LINE
  8
0
  6
CONTINUOUS
 62
256
 10
387.270159999999980
 20
-112.612151999999990
 11
390.296361999999990
 21
-112.612151999999990
  0
ARC
  8
0
  6
CONTINUOUS
 62
256
 10
387.270159999999980
 20
-111.112151999999990
 40
1.500000000000028
 50
172.819243999999910
 51
270.000000000000000
  0
ARC
  8
0
  6
CONTINUOUS
 62
256
 10
380.727531000000000
 20
-111.112151999999990
 40
1.500000000000000
 50
270.000000000000000
 51
354.036430000000220
  0
ARC
  8
0
  6
CONTINUOUS
 62
256
 10
394.901683999999990
 20
-81.339432000000002
 40
1.499999999999975
 50
30.000000000000544
 51
125.531071999999480
  0
ARC
  8
0
  6
CONTINUOUS
 62
256
 10
419.019175000000020
 20
-115.112151999999990
 40
43.000000000000014
 50
125.531072000000020
 51
174.468928000000010
  0
ARC
  8
0
  6
CONTINUOUS
 62
256
 10
401.829887999999980
 20
-77.339432000000002
 40
1.500000000000002
 50
114.468927999999780
 51
210.000000000000510
  0
LINE
  8
0
  6
CONTINUOUS
 62
256
 10
402.038416999999980
 20
-80.700614999999999
 11
400.530848999999990
 21
-78.089432000000002
  0
ARC
  8
0
  6
CONTINUOUS
 62
256
 10
403.337454999999980
 20
-79.950614999999999
 40
1.499999999999975
 50
210.000000000000510
 51
294.036429999999600
  0
ARC
  8
0
  6
CONTINUOUS
 62
256
 10
419.019175000000020
 20
-115.112151999999990
 40
36.999999999999986
 50
65.963570000000033
 51
114.036429999999980
  0
ARC
  8
0
  6
CONTINUOUS
 62
256
 10
419.019175000000020
 20
-115.112151999999990
 40
43.000000000000007
 50
65.531071999999980
 51
114.468928000000030
  0
ARC
  8
0
  6
CONTINUOUS
 62
256
 10
436.208462999999990
 20
-77.339432000000002
 40
1.499999999999975
 50
329.999999999999490
 51
65.531072000000222
  0
LINE
  8
0
  6
CONTINUOUS
 62
256
 10
437.507501999999990
 20
-78.089432000000002
 11
435.999934000000000
 21
-80.700614999999999
  0
ARC
  8
0
  6
CONTINUOUS
 62
256
 10
434.700896000000000
 20
-79.950614999999999
 40
1.499999999999999
 50
245.963570000000350
 51
329.999999999999490
  0
ARC
  8
0
  6
CONTINUOUS
 62
256
 10
443.136666999999990
 20
-81.339432000000002
 40
1.499999999999989
 50
54.468928000000517
 51
150.000000000000540
  0
LINE
  8
0
  6
CONTINUOUS
 62
256
 10
441.837628999999990
 20
-80.589432000000002
 11
440.330061000000000
 21
-83.200614999999999
  0
LINE
  8
0
  6
CONTINUOUS
 62
256
 10
377.712396000000010
 20
-117.612151999999990
 11
380.727531000000000
 21
-117.612151999999990
  0
ARC
  8
0
  6
CONTINUOUS
 62
256
 10
380.727531000000000
 20
-119.112151999999990
 40
1.500000000000012
 50
5.963569999999792
 51
90.000000000000000
  0
LINE
  8
0
  6
CONTINUOUS
 62
256
 10
387.270159999999980
 20
-117.612151999999990
 11
390.296361999999990
 21
-117.612151999999990
  0
ARC
  8
0
  6
CONTINUOUS
 62
256
 10
387.270159999999980
 20
-119.112151999999990
 40
1.500000000000000
 50
90.000000000000000
 51
187.180756000000090
  0
ARC
  8
0
  6
CONTINUOUS
 62
256
 10
419.019175000000020
 20
-115.112151999999990
 40
23.999999999999996
 50
190.240348000000040
 51
229.759652000000020
  0
ARC
  8
0
  6
CONTINUOUS
 62
256
 10
404.484279000000020
 20
-132.287330999999990
 40
1.499999999999991
 50
229.759652000000220
 51
329.999999999999490
  0
LINE
  8
0
  6
CONTINUOUS
 62
256
 10
407.311444999999990
 20
-130.390536000000000
 11
405.783317000000010
 21
-133.037330999999990
  0
ARC
  8
0
  6
CONTINUOUS
 62
256
 10
406.012407000000000
 20
-129.640536000000000
 40
1.499999999999975
 50
329.999999999999490
 51
48.162996000000220
  0
ARC
  8
0
  6
CONTINUOUS
 62
256
 10
419.019175000000020
 20
-115.112151999999990
 40
17.999999999999975
 50
191.837004000000010
 51
228.162996000000020
  0
ARC
  8
0
  6
CONTINUOUS
 62
256
 10
399.933840999999970
 20
-119.112151999999990
 40
1.499999999999997
 50
11.837003999999803
 51
90.000000000000000
  0
LINE
  8
0
  6
CONTINUOUS
 62
256
 10
396.877586000000010
 20
-117.612151999999990
 11
399.933840999999970
 21
-117.612151999999990
  0
ARC
  8
0
  6
CONTINUOUS
 62
256
 10
396.877586000000010
 20
-119.112151999999990
 40
1.500000000000000
 50
90.000000000000000
 51
190.240347999999700
  0
ARC
  8
0
  6
CONTINUOUS
 62
256
 10
419.019175000000020
 20
-115.112151999999990
 40
14.500000000000011
 50
197.920212999999930
 51
222.079786999999930
  0
ARC
  8
0
  6
CONTINUOUS
 62
256
 10
409.370414999999980
 20
-123.824293999999990
 40
1.499999999999994
 50
222.079787000000180
 51
329.999999999999490
  0
LINE
  8
0
  6
CONTINUOUS
 62
256
 10
412.271536000000030
 20
-121.799406000000000
 11
410.669453999999970
 21
-124.574293999999990
  0
ARC
  8
0
  6
CONTINUOUS
 62
256
 10
410.972497999999970
 20
-121.049406000000000
 40
1.499999999999975
 50
329.999999999999490
 51
36.421821999999963
  0
ARC
  8
0
  6
CONTINUOUS
 62
256
 10
419.019175000000020
 20
-115.112151999999990
 40
8.499999999999991
 50
203.578178000000070
 51
216.421822000000050
  0
ARC
  8
0
  6
CONTINUOUS
 62
256
 10
409.854023999999980
 20
-119.112151999999990
 40
1.499999999999984
 50
23.578178000000403
 51
90.000000000000000
  0
LINE
  8
0
  6
CONTINUOUS
 62
256
 10
406.649858999999990
 20
-117.612151999999990
 11
409.854023999999980
 21
-117.612151999999990
  0
ARC
  8
0
  6
CONTINUOUS
 62
256
 10
406.649858999999990
 20
-119.112151999999990
 40
1.500000000000000
 50
90.000000000000000
 51
197.920212999999450
  0
ARC
  8
0
  6
CONTINUOUS
 62
256
 10
419.019175000000020
 20
-115.112151999999990
 40
23.999999999999993
 50
10.240347999999988
 51
49.759652000000010
  0
ARC
  8
0
  6
CONTINUOUS
 62
256
 10
441.160765000000030
 20
-111.112151999999990
 40
1.500000000000000
 50
270.000000000000000
 51
10.240347999999715
  0
LINE
  8
0
  6
CONTINUOUS
 62
256
 10
438.104510000000000
 20
-112.612151999999990
 11
441.160765000000030
 21
-112.612151999999990
  0
ARC
  8
0
  6
CONTINUOUS
 62
256
 10
438.104510000000000
 20
-111.112151999999990
 40
1.499999999999997
 50
191.837003999999810
 51
270.000000000000000
  0
ARC
  8
0
  6
CONTINUOUS
 62
256
 10
419.019175000000020
 20
-115.112151999999990
 40
17.999999999999975
 50
11.837004000000027
 51
48.162996000000042
  0
ARC
  8
0
  6
CONTINUOUS
 62
256
 10
432.025943999999980
 20
-100.583766999999990
 40
1.500000000000025
 50
150.000000000000540
 51
228.162996000000190
  0
LINE
  8
0
  6
CONTINUOUS
 62
256
 10
432.255034000000020
 20
-97.186971999999997
 11
430.726905999999990
 21
-99.833766999999995
  0
ARC
  8
0
  6
CONTINUOUS
 62
256
 10
433.554072000000020
 20
-97.936971999999997
 40
1.499999999999991
 50
49.759652000000230
 51
150.000000000000540
  0
ARC
  8
0
  6
CONTINUOUS
 62
256
 10
419.019175000000020
 20
-115.112151999999990
 40
14.500000000000014
 50
17.920213000000000
 51
42.079786999999946
  0
ARC
  8
0
  6
CONTINUOUS
 62
256
 10
431.388491999999990
 20
-111.112151999999990
 40
1.500000000000000
 50
270.000000000000000
 51
17.920212999999450
  0
LINE
  8
0
  6
CONTINUOUS
 62
256
 10
428.184327000000000
 20
-112.612151999999990
 11
431.388491999999990
 21
-112.612151999999990
  0
ARC
  8
0
  6
CONTINUOUS
 62
256
 10
428.184327000000000
 20
-111.112151999999990
 40
1.499999999999984
 50
203.578178000000380
 51
270.000000000000000
  0
ARC
  8
0
  6
CONTINUOUS
 62
256
 10
419.019175000000020
 20
-115.112151999999990
 40
8.499999999999991
 50
23.578178000000058
 51
36.421822000000063
  0
ARC
  8
0
  6
CONTINUOUS
 62
256
 10
427.065853000000000
 20
-109.174898000000000
 40
1.499999999999975
 50
149.999999999999460
 51
216.421821999999960
  0
LINE
  8
0
  6
CONTINUOUS
 62
256
 10
427.368897000000000
 20
-105.650009000000000
 11
425.766815000000010
 21
-108.424898000000000
  0
ARC
  8
0
  6
CONTINUOUS
 62
256
 10
428.667936000000000
 20
-106.400009000000000
 40
1.499999999999994
 50
42.079787000000181
 51
149.999999999999460
  0
ARC
  8
0
  6
CONTINUOUS
 62
256
 10
419.019175000000020
 20
-115.112151999999990
 40
24.000000000000011
 50
310.240347999999980
 51
349.759652000000020
  0
ARC
  8
0
  6
CONTINUOUS
 62
256
 10
441.160765000000030
 20
-119.112151999999990
 40
1.500000000000009
 50
349.759652000000300
 51
90.000000000000000
  0
LINE
  8
0
  6
CONTINUOUS
 62
256
 10
438.104510000000000
 20
-117.612151999999990
 11
441.160765000000030
 21
-117.612151999999990
  0
ARC
  8
0
  6
CONTINUOUS
 62
256
 10
438.104510000000000
 20
-119.112151999999990
 40
1.500000000000000
 50
90.000000000000000
 51
168.162996000000190
  0
ARC
  8
0
  6
CONTINUOUS
 62
256
 10
419.019175000000020
 20
-115.112151999999990
 40
17.999999999999982
 50
311.837003999999980
 51
348.162995999999960
  0
ARC
  8
0
  6
CONTINUOUS
 62
256
 10
432.025943999999980
 20
-129.640536000000000
 40
1.499999999999989
 50
131.837003999999810
 51
210.000000000000510
  0
LINE
  8
0
  6
CONTINUOUS
 62
256
 10
432.255034000000020
 20
-133.037330999999990
 11
430.726905999999990
 21
-130.390536000000000
  0
ARC
  8
0
  6
CONTINUOUS
 62
256
 10
433.554072000000020
 20
-132.287330999999990
 40
1.499999999999975
 50
210.000000000000510
 51
310.240347999999810
  0
ARC
  8
0
  6
CONTINUOUS
 62
256
 10
419.019175000000020
 20
-115.112151999999990
 40
14.500000000000021
 50
317.920213000000050
 51
342.079787000000010
  0
ARC
  8
0
  6
CONTINUOUS
 62
256
 10
431.388491999999990
 20
-119.112151999999990
 40
1.500000000000024
 50
342.079787000000580
 51
90.000000000000000
  0
LINE
  8
0
  6
CONTINUOUS
 62
256
 10
428.184327000000000
 20
-117.612151999999990
 11
431.388491999999990
 21
-117.612151999999990
  0
ARC
  8
0
  6
CONTINUOUS
 62
256
 10
428.184327000000000
 20
-119.112151999999990
 40
1.500000000000000
 50
90.000000000000000
 51
156.421821999999620
  0
ARC
  8
0
  6
CONTINUOUS
 62
256
 10
419.019175000000020
 20
-115.112151999999990
 40
8.499999999999989
 50
323.578177999999920
 51
336.421821999999910
  0
ARC
  8
0
  6
CONTINUOUS
 62
256
 10
427.065853000000000
 20
-121.049406000000000
 40
1.500000000000000
 50
143.578178000000040
 51
210.000000000000510
  0
LINE
  8
0
  6
CONTINUOUS
 62
256
 10
427.368897000000000
 20
-124.574293999999990
 11
425.766815000000010
 21
-121.799406000000000
  0
ARC
  8
0
  6
CONTINUOUS
 62
256
 10
428.667936000000000
 20
-123.824293999999990
 40
1.499999999999975
 50
210.000000000000510
 51
317.920212999999820
  0
ARC
  8
0
  6
CONTINUOUS
 62
256
 10
419.019175000000020
 20
-115.112151999999990
 40
24.000000000000007
 50
250.240348000000010
 51
289.759652000000020
  0
ARC
  8
0
  6
CONTINUOUS
 62
256
 10
411.412482000000010
 20
-136.287330999999990
 40
1.499999999999975
 50
149.999999999999460
 51
250.240347999999300
  0
LINE
  8
0
  6
CONTINUOUS
 62
256
 10
411.641572000000000
 20
-132.890536000000000
 11
410.113444000000020
 21
-135.537330999999990
  0
ARC
  8
0
  6
CONTINUOUS
 62
256
 10
412.940609999999990
 20
-133.640536000000000
 40
1.500000000000007
 50
71.837003999999709
 51
150.000000000000540
  0
ARC
  8
0
  6
CONTINUOUS
 62
256
 10
419.019175000000020
 20
-115.112151999999990
 40
18.000000000000011
 50
251.837004000000010
 51
288.162996000000020
  0
ARC
  8
0
  6
CONTINUOUS
 62
256
 10
425.097740999999980
 20
-133.640536000000000
 40
1.499999999999975
 50
30.000000000000544
 51
108.162996000000290
  0
LINE
  8
0
  6
CONTINUOUS
 62
256
 10
427.924907000000020
 20
-135.537330999999990
 11
426.396778999999980
 21
-132.890536000000000
  0
ARC
  8
0
  6
CONTINUOUS
 62
256
 10
426.625869000000020
 20
-136.287330999999990
 40
1.500000000000012
 50
289.759652000000640
 51
30.000000000000544
  0
ARC
  8
0
  6
CONTINUOUS
 62
256
 10
419.019175000000020
 20
-115.112151999999990
 40
14.500000000000002
 50
257.920213000000050
 51
282.079786999999950
  0
ARC
  8
0
  6
CONTINUOUS
 62
256
 10
416.298618999999970
 20
-127.824293999999990
 40
1.499999999999975
 50
149.999999999999460
 51
257.920213000000840
  0
LINE
  8
0
  6
CONTINUOUS
 62
256
 10
416.601662999999970
 20
-124.299406000000000
 11
414.999580999999980
 21
-127.074293999999990
  0
ARC
  8
0
  6
CONTINUOUS
 62
256
 10
417.900701000000030
 20
-125.049406000000000
 40
1.500000000000001
 50
83.578178000000747
 51
150.000000000000540
  0
ARC
  8
0
  6
CONTINUOUS
 62
256
 10
419.019175000000020
 20
-115.112151999999990
 40
8.499999999999993
 50
263.578177999999980
 51
276.421822000000020
  0
ARC
  8
0
  6
CONTINUOUS
 62
256
 10
420.137650000000010
 20
-125.049406000000000
 40
1.500000000000025
 50
29.999999999999456
 51
96.421821999999253
  0
LINE
  8
0
  6
CONTINUOUS
 62
256
 10
423.038770000000000
 20
-127.074293999999990
 11
421.436688000000000
 21
-124.299406000000000
  0
ARC
  8
0
  6
CONTINUOUS
 62
256
 10
421.739732000000000
 20
-127.824293999999990
 40
1.500000000000002
 50
282.079786999999160
 51
29.999999999999456
  0
ARC
  8
0
  6
CONTINUOUS
 62
256
 10
419.019175000000020
 20
-115.112151999999990
 40
23.999999999999993
 50
70.240348000000012
 51
109.759651999999990
  0
ARC
  8
0
  6
CONTINUOUS
 62
256
 10
411.412482000000010
 20
-93.936971999999997
 40
1.500000000000012
 50
109.759652000000680
 51
210.000000000000510
  0
LINE
  8
0
  6
CONTINUOUS
 62
256
 10
411.641572000000000
 20
-97.333766999999995
 11
410.113444000000020
 21
-94.686971999999997
  0
ARC
  8
0
  6
CONTINUOUS
 62
256
 10
412.940609999999990
 20
-96.583766999999995
 40
1.499999999999975
 50
210.000000000000510
 51
288.162996000000310
  0
ARC
  8
0
  6
CONTINUOUS
 62
256
 10
419.019175000000020
 20
-115.112151999999990
 40
17.999999999999996
 50
71.837004000000007
 51
108.162996000000010
  0
ARC
  8
0
  6
CONTINUOUS
 62
256
 10
425.097740999999980
 20
-96.583766999999995
 40
1.500000000000007
 50
251.837003999999720
 51
329.999999999999490
  0
LINE
  8
0
  6
CONTINUOUS
 62
256
 10
427.924907000000020
 20
-94.686971999999997
 11
426.396778999999980
 21
-97.333766999999995
  0
ARC
  8
0
  6
CONTINUOUS
 62
256
 10
426.625869000000020
 20
-93.936971999999997
 40
1.499999999999975
 50
329.999999999999490
 51
70.240347999999329
  0
ARC
  8
0
  6
CONTINUOUS
 62
256
 10
419.019175000000020
 20
-115.112151999999990
 40
14.500000000000002
 50
77.920213000000032
 51
102.079786999999980
  0
ARC
  8
0
  6
CONTINUOUS
 62
256
 10
416.298618999999970
 20
-102.400009000000000
 40
1.500000000000002
 50
102.079786999999110
 51
210.000000000000510
  0
LINE
  8
0
  6
CONTINUOUS
 62
256
 10
416.601662999999970
 20
-105.924898000000000
 11
414.999580999999980
 21
-103.150009000000000
  0
ARC
  8
0
  6
CONTINUOUS
 62
256
 10
417.900701000000030
 20
-105.174898000000000
 40
1.499999999999975
 50
210.000000000000510
 51
276.421821999999220
  0
ARC
  8
0
  6
CONTINUOUS
 62
256
 10
419.019175000000020
 20
-115.112151999999990
 40
8.499999999999993
 50
83.578177999999980
 51
96.421822000000034
  0
ARC
  8
0
  6
CONTINUOUS
 62
256
 10
420.137650000000010
 20
-105.174898000000000
 40
1.500000000000001
 50
263.578178000000780
 51
329.999999999999490
  0
LINE
  8
0
  6
CONTINUOUS
 62
256
 10
423.038770000000000
 20
-103.150009000000000
 11
421.436688000000000
 21
-105.924898000000000
  0
ARC
  8
0
  6
CONTINUOUS
 62
256
 10
421.739732000000000
 20
-102.400009000000000
 40
1.499999999999975
 50
329.999999999999490
 51
77.920213000000885
  0
ARC
  8
0
  6
CONTINUOUS
 62
256
 10
419.019175000000020
 20
-115.112151999999990
 40
8.499999999999989
 50
143.578177999999950
 51
156.421821999999930
  0
ARC
  8
0
  6
CONTINUOUS
 62
256
 10
419.019175000000020
 20
-115.112151999999990
 40
23.999999999999989
 50
130.240348000000010
 51
169.759651999999960
  0
LINE
  8
0
  6
CONTINUOUS
 62
256
 10
412.271536000000030
 20
-108.424898000000000
 11
410.669453999999970
 21
-105.650009000000000
  0
LINE
  8
0
  6
CONTINUOUS
 62
256
 10
396.877586000000010
 20
-112.612151999999990
 11
399.933840999999970
 21
-112.612151999999990
  0
LINE
  8
0
  6
CONTINUOUS
 62
256
 10
406.649858999999990
 20
-112.612151999999990
 11
409.854023999999980
 21
-112.612151999999990
  0
ARC
  8
0
  6
CONTINUOUS
 62
256
 10
419.019175000000020
 20
-115.112151999999990
 40
14.500000000000012
 50
137.920213000000070
 51
162.079787000000010
  0
LINE
  8
0
  6
CONTINUOUS
 62
256
 10
407.311444999999990
 20
-99.833766999999995
 11
405.783317000000010
 21
-97.186971999999997
  0
ARC
  8
0
  6
CONTINUOUS
 62
256
 10
409.370414999999980
 20
-106.400009000000000
 40
1.500000000000025
 50
29.999999999999456
 51
137.920212999999820
  0
ARC
  8
0
  6
CONTINUOUS
 62
256
 10
396.877586000000010
 20
-111.112151999999990
 40
1.500000000000009
 50
169.759652000000300
 51
270.000000000000000
  0
ARC
  8
0
  6
CONTINUOUS
 62
256
 10
406.012407000000000
 20
-100.583766999999990
 40
1.499999999999989
 50
311.837003999999810
 51
30.000000000000544
  0
ARC
  8
0
  6
CONTINUOUS
 62
256
 10
399.933840999999970
 20
-111.112151999999990
 40
1.500000000000000
 50
270.000000000000000
 51
348.162996000000190
  0
ARC
  8
0
  6
CONTINUOUS
 62
256
 10
406.649858999999990
 20
-111.112151999999990
 40
1.500000000000024
 50
162.079787000000550
 51
270.000000000000000
  0
ARC
  8
0
  6
CONTINUOUS
 62
256
 10
404.484279000000020
 20
-97.936971999999997
 40
1.500000000000025
 50
29.999999999999456
 51
130.240347999999780
  0
ARC
  8
0
  6
CONTINUOUS
 62
256
 10
409.854023999999980
 20
-111.112151999999990
 40
1.500000000000000
 50
270.000000000000000
 51
336.421821999999620
  0
ARC
  8
0
  6
CONTINUOUS
 62
256
 10
410.972497999999970
 20
-109.174898000000000
 40
1.500000000000000
 50
323.578178000000040
 51
29.999999999999456
  0
CIRCLE
  8
0
  6
CONTINUOUS
 62
256
 10
419.019175000000020
 20
-115.112151999999990
 40
5.000000000000000
  0
ARC
  8
0
  6
CONTINUOUS
 62
256
 10
401.193667000000000
 20
-92.237465999999998
 40
1.500000000000018
 50
307.928142000000720
 51
29.999999999999456
  0
LINE
  8
0
  6
CONTINUOUS
 62
256
 10
402.492705000000000
 20
-91.487465999999998
 11
400.979603999999990
 21
-88.866697000000002
  0
ARC
  8
0
  6
CONTINUOUS
 62
256
 10
390.296361999999990
 20
-111.112151999999990
 40
1.500000000000000
 50
270.000000000000000
 51
352.071857999999850
  0
ARC
  8
0
  6
CONTINUOUS
 62
256
 10
419.019175000000020
 20
-115.112151999999990
 40
27.500000000000004
 50
127.928141999999990
 51
172.071857999999960
  0
ARC
  8
0
  6
CONTINUOUS
 62
256
 10
399.680566000000000
 20
-89.616697000000002
 40
1.500000000000025
 50
29.999999999999456
 51
127.180756000000090
  0
ARC
  8
0
  6
CONTINUOUS
 62
256
 10
396.409251999999980
 20
-83.950614999999999
 40
1.500000000000007
 50
305.963570000000860
 51
30.000000000000544
  0
ARC
  8
0
  6
CONTINUOUS
 62
256
 10
419.019175000000020
 20
-115.112151999999990
 40
37.000000000000000
 50
125.963569999999990
 51
174.036430000000000
  0
ARC
  8
0
  6
CONTINUOUS
 62
256
 10
419.019175000000020
 20
-115.112151999999990
 40
33.500000000000000
 50
127.180756000000040
 51
172.819244000000000
  0
LINE
  8
0
  6
CONTINUOUS
 62
256
 10
406.822832000000010
 20
-88.987465999999998
 11
405.309731000000000
 21
-86.366697000000002
  0
ARC
  8
0
  6
CONTINUOUS
 62
256
 10
406.608769000000000
 20
-85.616697000000002
 40
1.499999999999989
 50
112.819243999999050
 51
210.000000000000510
  0
ARC
  8
0
  6
CONTINUOUS
 62
256
 10
408.121870000000000
 20
-88.237465999999998
 40
1.499999999999975
 50
210.000000000000510
 51
292.071857999999110
  0
ARC
  8
0
  6
CONTINUOUS
 62
256
 10
419.019175000000020
 20
-115.112151999999990
 40
27.500000000000004
 50
67.928142000000022
 51
112.071857999999980
  0
ARC
  8
0
  6
CONTINUOUS
 62
256
 10
419.019175000000020
 20
-115.112151999999990
 40
33.500000000000000
 50
67.180756000000002
 51
112.819244000000000
  0
ARC
  8
0
  6
CONTINUOUS
 62
256
 10
429.916479999999980
 20
-88.237465999999998
 40
1.499999999999998
 50
247.928142000000830
 51
329.999999999999490
  0
LINE
  8
0
  6
CONTINUOUS
 62
256
 10
432.728619999999980
 20
-86.366697000000002
 11
431.215518999999970
 21
-88.987465999999998
  0
ARC
  8
0
  6
CONTINUOUS
 62
256
 10
431.429581999999980
 20
-85.616697000000002
 40
1.499999999999975
 50
329.999999999999490
 51
67.180756000000954
  0
ARC
  8
0
  6
CONTINUOUS
 62
256
 10
460.325955000000020
 20
-111.112151999999990
 40
1.500000000000000
 50
270.000000000000000
 51
5.531072000000276
  0
LINE
  8
0
  6
CONTINUOUS
 62
256
 10
457.310818999999980
 20
-112.612151999999990
 11
460.325955000000020
 21
-112.612151999999990
  0
LINE
  8
0
  6
CONTINUOUS
 62
256
 10
447.741988999999990
 20
-112.612151999999990
 11
450.768191000000000
 21
-112.612151999999990
  0
ARC
  8
0
  6
CONTINUOUS
 62
256
 10
457.310818999999980
 20
-111.112151999999990
 40
1.500000000000012
 50
185.963569999999780
 51
270.000000000000000
  0
ARC
  8
0
  6
CONTINUOUS
 62
256
 10
450.768191000000000
 20
-111.112151999999990
 40
1.500000000000000
 50
270.000000000000000
 51
7.180756000000089
  0
ARC
  8
0
  6
CONTINUOUS
 62
256
 10
447.741988999999990
 20
-111.112151999999990
 40
1.500000000000004
 50
187.928142000000150
 51
270.000000000000000
  0
ARC
  8
0
  6
CONTINUOUS
 62
256
 10
419.019175000000020
 20
-115.112151999999990
 40
27.499999999999986
 50
7.928141999999994
 51
52.071858000000006
  0
ARC
  8
0
  6
CONTINUOUS
 62
256
 10
419.019175000000020
 20
-115.112151999999990
 40
36.999999999999979
 50
5.963570000000011
 51
54.036430000000010
  0
ARC
  8
0
  6
CONTINUOUS
 62
256
 10
419.019175000000020
 20
-115.112151999999990
 40
42.999999999999979
 50
5.531071999999997
 51
54.468927999999984
  0
ARC
  8
0
  6
CONTINUOUS
 62
256
 10
419.019175000000020
 20
-115.112151999999990
 40
33.500000000000007
 50
7.180755999999994
 51
52.819243999999983
  0
ARC
  8
0
  6
CONTINUOUS
 62
256
 10
436.844683999999970
 20
-92.237465999999998
 40
1.499999999999975
 50
149.999999999999460
 51
232.071857999999280
  0
ARC
  8
0
  6
CONTINUOUS
 62
256
 10
441.629099000000000
 20
-83.950614999999999
 40
1.500000000000025
 50
150.000000000000540
 51
234.036429999999170
  0
LINE
  8
0
  6
CONTINUOUS
 62
256
 10
437.058746999999980
 20
-88.866697000000002
 11
435.545645999999980
 21
-91.487465999999998
  0
ARC
  8
0
  6
CONTINUOUS
 62
256
 10
438.357784999999980
 20
-89.616697000000002
 40
1.499999999999994
 50
52.819243999999927
 51
149.999999999999460
  0
ARC
  8
0
  6
CONTINUOUS
 62
256
 10
460.325955000000020
 20
-119.112151999999990
 40
1.499999999999979
 50
354.468927999999720
 51
90.000000000000000
  0
LINE
  8
0
  6
CONTINUOUS
 62
256
 10
457.310818999999980
 20
-117.612151999999990
 11
460.325955000000020
 21
-117.612151999999990
  0
LINE
  8
0
  6
CONTINUOUS
 62
256
 10
447.741988999999990
 20
-117.612151999999990
 11
450.768191000000000
 21
-117.612151999999990
  0
ARC
  8
0
  6
CONTINUOUS
 62
256
 10
457.310818999999980
 20
-119.112151999999990
 40
1.500000000000000
 50
90.000000000000000
 51
174.036430000000220
  0
ARC
  8
0
  6
CONTINUOUS
 62
256
 10
450.768191000000000
 20
-119.112151999999990
 40
1.500000000000028
 50
352.819243999999910
 51
90.000000000000000
  0
ARC
  8
0
  6
CONTINUOUS
 62
256
 10
447.741988999999990
 20
-119.112151999999990
 40
1.500000000000000
 50
90.000000000000000
 51
172.071857999999850
  0
ARC
  8
0
  6
CONTINUOUS
 62
256
 10
419.019175000000020
 20
-115.112151999999990
 40
27.500000000000004
 50
307.928141999999980
 51
352.071858000000020
  0
ARC
  8
0
  6
CONTINUOUS
 62
256
 10
419.019175000000020
 20
-115.112151999999990
 40
37.000000000000000
 50
305.963569999999950
 51
354.036430000000000
  0
ARC
  8
0
  6
CONTINUOUS
 62
256
 10
419.019175000000020
 20
-115.112151999999990
 40
43.000000000000014
 50
305.531071999999990
 51
354.468928000000010
  0
ARC
  8
0
  6
CONTINUOUS
 62
256
 10
419.019175000000020
 20
-115.112151999999990
 40
33.499999999999986
 50
307.180755999999920
 51
352.819244000000030
  0
ARC
  8
0
  6
CONTINUOUS
 62
256
 10
436.844683999999970
 20
-137.986838000000010
 40
1.500000000000018
 50
127.928142000000730
 51
210.000000000000510
  0
ARC
  8
0
  6
CONTINUOUS
 62
256
 10
443.136666999999990
 20
-148.884872000000000
 40
1.499999999999975
 50
210.000000000000510
 51
305.531071999999480
  0
LINE
  8
0
  6
CONTINUOUS
 62
256
 10
441.837628999999990
 20
-149.634872000000000
 11
440.330061000000000
 21
-147.023687999999990
  0
ARC
  8
0
  6
CONTINUOUS
 62
256
 10
441.629099000000000
 20
-146.273687999999990
 40
1.500000000000007
 50
125.963570000000810
 51
210.000000000000510
  0
LINE
  8
0
  6
CONTINUOUS
 62
256
 10
437.058746999999980
 20
-141.357606000000000
 11
435.545645999999980
 21
-138.736838000000010
  0
ARC
  8
0
  6
CONTINUOUS
 62
256
 10
438.357784999999980
 20
-140.607606000000000
 40
1.499999999999975
 50
210.000000000000510
 51
307.180756000000090
  0
ARC
  8
0
  6
CONTINUOUS
 62
256
 10
401.829887999999980
 20
-152.884872000000000
 40
1.500000000000025
 50
150.000000000000540
 51
245.531072000000020
  0
LINE
  8
0
  6
CONTINUOUS
 62
256
 10
402.038416999999980
 20
-149.523687999999990
 11
400.530848999999990
 21
-152.134872000000000
  0
LINE
  8
0
  6
CONTINUOUS
 62
256
 10
406.822832000000010
 20
-141.236838000000010
 11
405.309731000000000
 21
-143.857606000000000
  0
ARC
  8
0
  6
CONTINUOUS
 62
256
 10
403.337454999999980
 20
-150.273687999999990
 40
1.499999999999986
 50
65.963570000000146
 51
150.000000000000540
  0
ARC
  8
0
  6
CONTINUOUS
 62
256
 10
406.608769000000000
 20
-144.607606000000000
 40
1.499999999999975
 50
149.999999999999460
 51
247.180756000001140
  0
ARC
  8
0
  6
CONTINUOUS
 62
256
 10
408.121870000000000
 20
-141.986838000000010
 40
1.499999999999998
 50
67.928142000000889
 51
149.999999999999460
  0
ARC
  8
0
  6
CONTINUOUS
 62
256
 10
419.019175000000020
 20
-115.112151999999990
 40
27.500000000000004
 50
247.928142000000040
 51
292.071857999999960
  0
ARC
  8
0
  6
CONTINUOUS
 62
256
 10
419.019175000000020
 20
-115.112151999999990
 40
37.000000000000014
 50
245.963569999999950
 51
294.036429999999940
  0
ARC
  8
0
  6
CONTINUOUS
 62
256
 10
419.019175000000020
 20
-115.112151999999990
 40
43.000000000000007
 50
245.531071999999970
 51
294.468927999999950
  0
ARC
  8
0
  6
CONTINUOUS
 62
256
 10
419.019175000000020
 20
-115.112151999999990
 40
33.500000000000000
 50
247.180756000000030
 51
292.819243999999970
  0
ARC
  8
0
  6
CONTINUOUS
 62
256
 10
429.916479999999980
 20
-141.986838000000010
 40
1.500000000000025
 50
29.999999999999456
 51
112.071857999999120
  0
ARC
  8
0
  6
CONTINUOUS
 62
256
 10
436.208462999999990
 20
-152.884872000000000
 40
1.499999999999989
 50
294.468928000000010
 51
30.000000000000544
  0
LINE
  8
0
  6
CONTINUOUS
 62
256
 10
437.507501999999990
 20
-152.134872000000000
 11
435.999934000000000
 21
-149.523687999999990
  0
ARC
  8
0
  6
CONTINUOUS
 62
256
 10
434.700896000000000
 20
-150.273687999999990
 40
1.499999999999975
 50
30.000000000000544
 51
114.036429999999850
  0
LINE
  8
0
  6
CONTINUOUS
 62
256
 10
432.728619999999980
 20
-143.857606000000000
 11
431.215518999999970
 21
-141.236838000000010
  0
ARC
  8
0
  6
CONTINUOUS
 62
256
 10
431.429581999999980
 20
-144.607606000000000
 40
1.499999999999976
 50
292.819243999999230
 51
29.999999999999456
  0
ARC
  8
0
  6
CONTINUOUS
 62
256
 10
394.901683999999990
 20
-148.884872000000000
 40
1.499999999999989
 50
234.468928000000520
 51
329.999999999999490
  0
LINE
  8
0
  6
CONTINUOUS
 62
256
 10
397.708289999999980
 20
-147.023687999999990
 11
396.200721999999980
 21
-149.634872000000000
  0
LINE
  8
0
  6
CONTINUOUS
 62
256
 10
402.492705000000000
 20
-138.736838000000010
 11
400.979603999999990
 21
-141.357606000000000
  0
ARC
  8
0
  6
CONTINUOUS
 62
256
 10
396.409251999999980
 20
-146.273687999999990
 40
1.499999999999975
 50
329.999999999999490
 51
54.036429999999186
  0
ARC
  8
0
  6
CONTINUOUS
 62
256
 10
399.680566000000000
 20
-140.607606000000000
 40
1.499999999999994
 50
232.819243999999940
 51
329.999999999999490
  0
ARC
  8
0
  6
CONTINUOUS
 62
256
 10
401.193667000000000
 20
-137.986838000000010
 40
1.499999999999975
 50
329.999999999999490
 51
52.071857999999288
  0
ARC
  8
0
  6
CONTINUOUS
 62
256
 10
419.019175000000020
 20
-115.112151999999990
 40
36.999999999999979
 50
185.963570000000000
 51
234.036429999999970
  0
ARC
  8
0
  6
CONTINUOUS
 62
256
 10
419.019175000000020
 20
-115.112151999999990
 40
42.999999999999979
 50
185.531071999999990
 51
234.468927999999950
  0
ARC
  8
0
  6
CONTINUOUS
 62
256
 10
419.019175000000020
 20
-115.112151999999990
 40
33.500000000000007
 50
187.180756000000000
 51
232.819243999999940
  0
ARC
  8
0
  6
CONTINUOUS
 62
256
 10
390.296361999999990
 20
-119.112151999999990
 40
1.500000000000004
 50
7.928142000000149
 51
90.000000000000000
  0
ARC
  8
0
  6
CONTINUOUS
 62
256
 10
368.922560999999970
 20
-159.060739000000010
 40
6.600000000000022
 50
188.597082000000030
 51
224.999999999999830
  0
ARC
  8
0
  6
CONTINUOUS
 62
256
 10
378.910397999999990
 20
-154.053670000000010
 40
5.999999999999990
 50
187.897989000000000
 51
225.000000000000170
  0
ARC
  8
0
  6
CONTINUOUS
 62
256
 10
659.619175000000040
 20
-115.112151999999990
 40
289.396999999999990
 50
180.000000000000000
 51
187.897988999999970
  0
ARC
  8
0
  6
CONTINUOUS
 62
256
 10
-692.180599000000030
 20
-115.112151999999990
 40
300.600000000000020
 50
7.070305000000000
 51
8.597082000000002
  0
LINE
  8
0
  6
DASHDOT
 62
256
 10
-502.026682999999990
 20
-166.112152000000010
 11
-400.943468999999990
 21
-166.112152000000010
  0
LINE
  8
0
  6
DASHDOT
 62
256
 10
-502.026682999999990
 20
-44.112152000000002
 11
-400.943468999999990
 21
-44.112152000000002
  0
LINE
  8
0
  6
CONTINUOUS
 62
256
 10
-396.580599000000010
 20
-106.612151999999990
 11
-398.580599000000010
 21
-106.612151999999990
  0
LINE
  8
0
  6
CONTINUOUS
 62
256
 10
-396.580599000000010
 20
-92.112151999999995
 11
-396.580599000000010
 21
-106.612151999999990
  0
LINE
  8
0
  6
CONTINUOUS
 62
256
 10
-396.580599000000010
 20
-92.112151999999995
 11
-396.580599000000010
 21
-106.612151999999990
  0
LINE
  8
0
  6
CONTINUOUS
 62
256
 10
-396.580599000000010
 20
-92.112151999999995
 11
-396.580599000000010
 21
-77.612151999999995
  0
LINE
  8
0
  6
CONTINUOUS
 62
256
 10
-396.580599000000010
 20
-92.112151999999995
 11
-396.580599000000010
 21
-77.612151999999995
  0
LINE
  8
0
  6
CONTINUOUS
 62
256
 10
-396.580599000000010
 20
-77.612151999999995
 11
-398.580599000000010
 21
-77.612151999999995
  0
LINE
  8
0
  6
CONTINUOUS
 62
256
 10
-351.580599000000010
 20
-92.112151999999995
 11
-351.580599000000010
 21
-106.112151999999990
  0
LINE
  8
0
  6
CONTINUOUS
 62
256
 10
-396.580599000000010
 20
-106.112151999999990
 11
-351.580599000000010
 21
-106.112151999999990
  0
LINE
  8
0
  6
CONTINUOUS
 62
256
 10
-387.580599000000010
 20
-75.112151999999995
 11
-351.580599000000010
 21
-75.112151999999995
  0
LINE
  8
0
  6
CONTINUOUS
 62
256
 10
-396.580599000000010
 20
-78.112151999999995
 11
-351.580599000000010
 21
-78.112151999999995
  0
LINE
  8
0
  6
CONTINUOUS
 62
256
 10
-351.580599000000010
 20
-92.112151999999995
 11
-351.580599000000010
 21
-75.112151999999995
  0
LINE
  8
0
  6
CONTINUOUS
 62
256
 10
-387.580599000000010
 20
-78.112151999999995
 11
-387.580599000000010
 21
-75.112151999999995
  0
ARC
  8
0
  6
CONTINUOUS
 62
256
 10
-477.627053999999990
 20
-88.565697000000000
 40
29.999999999999979
 50
153.955265999999990
 51
175.885655000000010
  0
ARC
  8
0
  6
CONTINUOUS
 62
256
 10
-508.555597999999970
 20
-94.612151999999995
 40
0.500000000000000
 50
270.000000000000000
 51
357.065974999999980
  0
ARC
  8
0
  6
CONTINUOUS
 62
256
 10
-508.555597999999970
 20
-94.612151999999995
 40
0.500000000000000
 50
270.000000000000000
 51
357.065974999999980
  0
ARC
  8
0
  6
CONTINUOUS
 62
256
 10
-108.580599000000010
 20
-115.112151999999990
 40
400.000000000000060
 50
175.885655000000010
 51
177.065975000000010
  0
LINE
  8
0
  6
CONTINUOUS
 62
256
 10
-506.344117999999980
 20
-163.727644000000000
 11
-500.580599000000010
 21
-169.491163000000000
  0
LINE
  8
0
  6
CONTINUOUS
 62
256
 10
-506.344117999999980
 20
-66.496658999999994
 11
-504.580599000000010
 21
-64.733140000000006
  0
ARC
  8
0
  6
CONTINUOUS
 62
256
 10
-210.980599000000010
 20
-115.112151999999990
 40
300.600000000000020
 50
171.402918000000000
 51
180.000000000000000
  0
ARC
  8
0
  6
CONTINUOUS
 62
256
 10
-501.677212999999990
 20
-71.163563999999994
 40
6.600000000000017
 50
135.000000000000170
 51
171.402918000000080
  0
ARC
  8
0
  6
CONTINUOUS
 62
256
 10
-210.980599000000010
 20
-115.112151999999990
 40
300.600000000000020
 50
180.000000000000000
 51
188.597082000000000
  0
ARC
  8
0
  6
CONTINUOUS
 62
256
 10
-501.677212999999990
 20
-159.060739000000010
 40
6.600000000000022
 50
188.597082000000030
 51
224.999999999999830
  0
ARC
  8
0
  6
CONTINUOUS
 62
256
 10
-422.692568999999990
 20
-151.985052999999990
 40
26.600000000000009
 50
276.051984999999950
 51
283.542179999999920
  0
ARC
  8
0
  6
CONTINUOUS
 62
256
 10
-451.580599000000010
 20
120.487848000000000
 40
300.600000000000020
 50
264.930522000000000
 51
276.051985000000000
  0
LINE
  8
0
  6
CONTINUOUS
 62
256
 10
-396.817079999999980
 20
-66.496658999999994
 11
-398.580599000000010
 21
-64.733140000000006
  0
LINE
  8
0
  6
CONTINUOUS
 62
256
 10
-396.817079999999980
 20
-163.727644000000000
 11
-402.580599000000010
 21
-169.491163000000000
  0
ARC
  8
0
  6
CONTINUOUS
 62
256
 10
-401.483985000000020
 20
-159.060739000000010
 40
6.600000000000017
 50
315.000000000000170
 51
351.402917999999940
  0
ARC
  8
0
  6
CONTINUOUS
 62
256
 10
-692.180599000000030
 20
-115.112151999999990
 40
300.600000000000020
 50
351.402918000000000
 51
0.000000000000000
  0
ARC
  8
0
  6
CONTINUOUS
 62
256
 10
-401.483985000000020
 20
-71.163563999999994
 40
6.600000000000019
 50
8.597081999999919
 51
44.999999999999829
  0
ARC
  8
0
  6
CONTINUOUS
 62
256
 10
-692.180599000000030
 20
-115.112151999999990
 40
300.600000000000020
 50
0.000000000000000
 51
1.715699000000000
  0
ARC
  8
0
  6
CONTINUOUS
 62
256
 10
-451.580599000000010
 20
-317.612151999999980
 40
300.000000000000000
 50
83.967950999999999
 51
96.032049000000001
  0
LINE
  8
0
  6
CONTINUOUS
 62
256
 10
-449.080599000000010
 20
-17.622568000000001
 11
-449.080599000000010
 21
-17.112151999999998
  0
LINE
  8
0
  6
CONTINUOUS
 62
256
 10
-454.080599000000010
 20
-17.612152999999999
 11
-454.080599000000010
 21
-17.112151999999998
  0
LINE
  8
0
  6
CONTINUOUS
 62
256
 10
-449.080599000000010
 20
-17.112151999999998
 11
-454.080599000000010
 21
-17.112151999999998
  0
ARC
  8
0
  6
CONTINUOUS
 62
256
 10
-420.580599000000010
 20
-24.245487000000001
 40
5.000000000000000
 50
0.000000000000000
 51
83.967950999999999
  0
LINE
  8
0
  6
CONTINUOUS
 62
256
 10
-415.580599000000010
 20
-32.394410000000001
 11
-415.580599000000010
 21
-24.245487000000001
  0
LINE
  8
0
  6
CONTINUOUS
 62
256
 10
-487.580599000000010
 20
-31.121109000000001
 11
-487.580599000000010
 21
-24.245487000000001
  0
ARC
  8
0
  6
CONTINUOUS
 62
256
 10
-482.580599000000010
 20
-24.245487000000001
 40
4.999999999999998
 50
96.032049000000015
 51
180.000000000000000
  0
LINE
  8
0
  6
CONTINUOUS
 62
256
 10
124.496506999999990
 20
-64.796616999999998
 11
27.496507000000001
 21
-64.796616999999998
  0
LINE
  8
0
  6
CONTINUOUS
 62
256
 10
134.496507000000010
 20
-50.112152000000002
 11
134.496507000000010
 21
-50.492930999999999
  0
LINE
  8
0
  6
CONTINUOUS
 62
256
 10
124.496506999999990
 20
-174.612152000000010
 11
27.496507000000001
 21
-174.612152000000010
  0
LINE
  8
0
  6
CONTINUOUS
 62
256
 10
216.662060000000000
 20
-53.729111000000003
 11
226.387806000000010
 21
-60.539150999999997
  0
ARC
  8
0
  6
CONTINUOUS
 62
256
 10
224.896507000000010
 20
-62.668947000000003
 40
2.599999999999994
 50
0.000000000000000
 51
54.999999999999886
  0
LINE
  8
0
  6
DASHDOT
 62
256
 10
-11.187987000000000
 20
-115.112151999999990
 11
237.425720000000010
 21
-115.112151999999990
  0
LINE
  8
0
  6
CONTINUOUS
 62
256
 10
134.496507000000010
 20
-50.112152000000002
 11
205.190531999999990
 21
-50.112152000000002
  0
POLYLINE
  8
0
  6
CONTINUOUS
 62
256
 66
1
 70
1
  0
VERTEX
  8
0
  6
CONTINUOUS
 62
256
 10
140.196507000000000
 20
-63.188626999999997
  0
VERTEX
  8
0
  6
CONTINUOUS
 62
256
 10
140.106197817895180
 20
-62.485670489441830
  0
VERTEX
  8
0
  6
CONTINUOUS
 62
256
 10
139.838740802803040
 20
-61.809728203361857
  0
VERTEX
  8
0
  6
CONTINUOUS
 62
256
 10
139.404414177821960
 20
-61.186776224741337
  0
VERTEX
  8
0
  6
CONTINUOUS
 62
256
 10
138.819908871576790
 20
-60.640754248763159
  0
VERTEX
  8
0
  6
CONTINUOUS
 62
256
 10
138.107687095192120
 20
-60.192645593751507
  0
VERTEX
  8
0
  6
CONTINUOUS
 62
256
 10
137.295119132115930
 20
-59.859670824016263
  0
VERTEX
  8
0
  6
CONTINUOUS
 62
256
 10
136.413431513475810
 20
-59.654625973223936
  0
VERTEX
  8
0
  6
CONTINUOUS
 62
256
 10
135.496507000000010
 20
-59.585390800000006
  0
VERTEX
  8
0
  6
CONTINUOUS
 62
256
 10
134.579582486524200
 20
-59.654625973223936
  0
VERTEX
  8
0
  6
CONTINUOUS
 62
256
 10
133.697894867884090
 20
-59.859670824016263
  0
VERTEX
  8
0
  6
CONTINUOUS
 62
256
 10
132.885326904807900
 20
-60.192645593751507
  0
VERTEX
  8
0
  6
CONTINUOUS
 62
256
 10
132.173105128423230
 20
-60.640754248763159
  0
VERTEX
  8
0
  6
CONTINUOUS
 62
256
 10
131.588599822178050
 20
-61.186776224741337
  0
VERTEX
  8
0
  6
CONTINUOUS
 62
256
 10
131.154273197196970
 20
-61.809728203361857
  0
VERTEX
  8
0
  6
CONTINUOUS
 62
256
 10
130.886816182104840
 20
-62.485670489441830
  0
VERTEX
  8
0
  6
CONTINUOUS
 62
256
 10
130.796507000000020
 20
-63.188626999999997
  0
VERTEX
  8
0
  6
CONTINUOUS
 62
256
 10
130.886816182104840
 20
-63.891583510558164
  0
VERTEX
  8
0
  6
CONTINUOUS
 62
256
 10
131.154273197196970
 20
-64.567525796638137
  0
VERTEX
  8
0
  6
CONTINUOUS
 62
256
 10
131.588599822178050
 20
-65.190477775258657
  0
VERTEX
  8
0
  6
CONTINUOUS
 62
256
 10
132.173105128423230
 20
-65.736499751236835
  0
VERTEX
  8
0
  6
CONTINUOUS
 62
256
 10
132.885326904807900
 20
-66.184608406248486
  0
VERTEX
  8
0
  6
CONTINUOUS
 62
256
 10
133.697894867884090
 20
-66.517583175983731
  0
VERTEX
  8
0
  6
CONTINUOUS
 62
256
 10
134.579582486524200
 20
-66.722628026776050
  0
VERTEX
  8
0
  6
CONTINUOUS
 62
256
 10
135.496507000000010
 20
-66.791863199999980
  0
VERTEX
  8
0
  6
CONTINUOUS
 62
256
 10
136.413431513475810
 20
-66.722628026776050
  0
VERTEX
  8
0
  6
CONTINUOUS
 62
256
 10
137.295119132115930
 20
-66.517583175983731
  0
VERTEX
  8
0
  6
CONTINUOUS
 62
256
 10
138.107687095192120
 20
-66.184608406248486
  0
VERTEX
  8
0
  6
CONTINUOUS
 62
256
 10
138.819908871576760
 20
-65.736499751236835
  0
VERTEX
  8
0
  6
CONTINUOUS
 62
256
 10
139.404414177821960
 20
-65.190477775258657
  0
VERTEX
  8
0
  6
CONTINUOUS
 62
256
 10
139.838740802803040
 20
-64.567525796638137
  0
VERTEX
  8
0
  6
CONTINUOUS
 62
256
 10
140.106197817895180
 20
-63.891583510558164
  0
SEQEND
  8
0
  6
CONTINUOUS
 62
256
  0
LINE
  8
0
  6
CONTINUOUS
 62
256
 10
137.496507000000010
 20
-60.196250999999997
 11
135.496507000000010
 21
-61.372036000000001
  0
LINE
  8
0
  6
CONTINUOUS
 62
256
 10
135.496507000000010
 20
-61.372036000000001
 11
133.496507000000010
 21
-63.024678000000002
  0
ARC
  8
0
  6
CONTINUOUS
 62
256
 10
205.190531999999990
 20
-70.112151999999995
 40
19.999999999999993
 50
55.000000000000028
 51
90.000000000000000
  0
LINE
  8
0
  6
CONTINUOUS
 62
256
 10
42.296506999999998
 20
-55.612152000000002
 11
27.496507000000001
 21
-55.612152000000002
  0
LINE
  8
0
  6
CONTINUOUS
 62
256
 10
133.496507000000010
 20
-60.196250999999997
 11
135.496507000000010
 21
-61.372036000000001
  0
LINE
  8
0
  6
CONTINUOUS
 62
256
 10
135.496507000000010
 20
-61.372036000000001
 11
137.496507000000010
 21
-63.024678000000002
  0
POLYLINE
  8
0
  6
CONTINUOUS
 62
256
 66
1
 70
1
  0
VERTEX
  8
0
  6
CONTINUOUS
 62
256
 10
140.196507000000000
 20
-167.035676999999990
  0
VERTEX
  8
0
  6
CONTINUOUS
 62
256
 10
140.106197817895180
 20
-166.332720489441810
  0
VERTEX
  8
0
  6
CONTINUOUS
 62
256
 10
139.838740802803040
 20
-165.656778203361850
  0
VERTEX
  8
0
  6
CONTINUOUS
 62
256
 10
139.404414177821960
 20
-165.033826224741320
  0
VERTEX
  8
0
  6
CONTINUOUS
 62
256
 10
138.819908871576790
 20
-164.487804248763150
  0
VERTEX
  8
0
  6
CONTINUOUS
 62
256
 10
138.107687095192120
 20
-164.039695593751500
  0
VERTEX
  8
0
  6
CONTINUOUS
 62
256
 10
137.295119132115930
 20
-163.706720824016260
  0
VERTEX
  8
0
  6
CONTINUOUS
 62
256
 10
136.413431513475810
 20
-163.501675973223910
  0
VERTEX
  8
0
  6
CONTINUOUS
 62
256
 10
135.496507000000010
 20
-163.432440799999990
  0
VERTEX
  8
0
  6
CONTINUOUS
 62
256
 10
134.579582486524200
 20
-163.501675973223910
  0
VERTEX
  8
0
  6
CONTINUOUS
 62
256
 10
133.697894867884090
 20
-163.706720824016260
  0
VERTEX
  8
0
  6
CONTINUOUS
 62
256
 10
132.885326904807900
 20
-164.039695593751500
  0
VERTEX
  8
0
  6
CONTINUOUS
 62
256
 10
132.173105128423230
 20
-164.487804248763150
  0
VERTEX
  8
0
  6
CONTINUOUS
 62
256
 10
131.588599822178050
 20
-165.033826224741320
  0
VERTEX
  8
0
  6
CONTINUOUS
 62
256
 10
131.154273197196970
 20
-165.656778203361850
  0
VERTEX
  8
0
  6
CONTINUOUS
 62
256
 10
130.886816182104840
 20
-166.332720489441810
  0
VERTEX
  8
0
  6
CONTINUOUS
 62
256
 10
130.796507000000020
 20
-167.035676999999990
  0
VERTEX
  8
0
  6
CONTINUOUS
 62
256
 10
130.886816182104840
 20
-167.738633510558170
  0
VERTEX
  8
0
  6
CONTINUOUS
 62
256
 10
131.154273197196970
 20
-168.414575796638130
  0
VERTEX
  8
0
  6
CONTINUOUS
 62
256
 10
131.588599822178050
 20
-169.037527775258670
  0
VERTEX
  8
0
  6
CONTINUOUS
 62
256
 10
132.173105128423230
 20
-169.583549751236830
  0
VERTEX
  8
0
  6
CONTINUOUS
 62
256
 10
132.885326904807900
 20
-170.031658406248480
  0
VERTEX
  8
0
  6
CONTINUOUS
 62
256
 10
133.697894867884090
 20
-170.364633175983730
  0
VERTEX
  8
0
  6
CONTINUOUS
 62
256
 10
134.579582486524200
 20
-170.569678026776050
  0
VERTEX
  8
0
  6
CONTINUOUS
 62
256
 10
135.496507000000010
 20
-170.638913199999990
  0
VERTEX
  8
0
  6
CONTINUOUS
 62
256
 10
136.413431513475810
 20
-170.569678026776050
  0
VERTEX
  8
0
  6
CONTINUOUS
 62
256
 10
137.295119132115930
 20
-170.364633175983730
  0
VERTEX
  8
0
  6
CONTINUOUS
 62
256
 10
138.107687095192120
 20
-170.031658406248480
  0
VERTEX
  8
0
  6
CONTINUOUS
 62
256
 10
138.819908871576760
 20
-169.583549751236830
  0
VERTEX
  8
0
  6
CONTINUOUS
 62
256
 10
139.404414177821960
 20
-169.037527775258670
  0
VERTEX
  8
0
  6
CONTINUOUS
 62
256
 10
139.838740802803040
 20
-168.414575796638130
  0
VERTEX
  8
0
  6
CONTINUOUS
 62
256
 10
140.106197817895180
 20
-167.738633510558170
  0
SEQEND
  8
0
  6
CONTINUOUS
 62
256
  0
LINE
  8
0
  6
CONTINUOUS
 62
256
 10
137.496507000000010
 20
-170.028052000000000
 11
135.496507000000010
 21
-168.852267000000010
  0
LINE
  8
0
  6
CONTINUOUS
 62
256
 10
135.496507000000010
 20
-168.852267000000010
 11
133.496507000000010
 21
-167.199625000000000
  0
LINE
  8
0
  6
CONTINUOUS
 62
256
 10
133.496507000000010
 20
-170.028052000000000
 11
135.496507000000010
 21
-168.852267000000010
  0
LINE
  8
0
  6
CONTINUOUS
 62
256
 10
135.496507000000010
 20
-168.852267000000010
 11
137.496507000000010
 21
-167.199625000000000
  0
LINE
  8
0
  6
CONTINUOUS
 62
256
 10
124.496506999999990
 20
-58.112152000000002
 11
27.496507000000001
 21
-58.112152000000002
  0
LINE
  8
0
  6
CONTINUOUS
 62
256
 10
124.496506999999990
 20
-59.112152000000002
 11
27.496507000000001
 21
-59.112152000000002
  0
LINE
  8
0
  6
CONTINUOUS
 62
256
 10
124.496506999999990
 20
-60.112152000000002
 11
27.496507000000001
 21
-60.112152000000002
  0
LINE
  8
0
  6
CONTINUOUS
 62
256
 10
124.496506999999990
 20
-69.746364999999997
 11
27.496507000000001
 21
-69.746364999999997
  0
LINE
  8
0
  6
CONTINUOUS
 62
256
 10
124.496506999999990
 20
-77.792967000000004
 11
27.496507000000001
 21
-77.792967000000004
  0
LINE
  8
0
  6
CONTINUOUS
 62
256
 10
124.496506999999990
 20
-79.397614000000004
 11
27.496507000000001
 21
-79.397614000000004
  0
LINE
  8
0
  6
CONTINUOUS
 62
256
 10
124.496506999999990
 20
-83.361360000000005
 11
27.496507000000001
 21
-83.361360000000005
  0
LINE
  8
0
  6
CONTINUOUS
 62
256
 10
124.496506999999990
 20
-84.829717000000002
 11
27.496507000000001
 21
-84.829717000000002
  0
LINE
  8
0
  6
CONTINUOUS
 62
256
 10
124.496506999999990
 20
-88.920218000000006
 11
27.496507000000001
 21
-88.920218000000006
  0
LINE
  8
0
  6
CONTINUOUS
 62
256
 10
124.496506999999990
 20
-90.282098000000005
 11
27.496507000000001
 21
-90.282098000000005
  0
LINE
  8
0
  6
CONTINUOUS
 62
256
 10
124.496506999999990
 20
-94.472651999999997
 11
27.496507000000001
 21
-94.472651999999997
  0
LINE
  8
0
  6
CONTINUOUS
 62
256
 10
124.496506999999990
 20
-95.738889999999998
 11
27.496507000000001
 21
-95.738889999999998
  0
LINE
  8
0
  6
CONTINUOUS
 62
256
 10
124.496506999999990
 20
-100.112151999999990
 11
27.496507000000001
 21
-100.112151999999990
  0
LINE
  8
0
  6
CONTINUOUS
 62
256
 10
124.496506999999990
 20
-152.431337000000010
 11
27.496507000000001
 21
-152.431337000000010
  0
LINE
  8
0
  6
CONTINUOUS
 62
256
 10
124.496506999999990
 20
-150.826688999999990
 11
27.496507000000001
 21
-150.826688999999990
  0
LINE
  8
0
  6
CONTINUOUS
 62
256
 10
124.496506999999990
 20
-146.862943000000000
 11
27.496507000000001
 21
-146.862943000000000
  0
LINE
  8
0
  6
CONTINUOUS
 62
256
 10
124.496506999999990
 20
-145.394586000000000
 11
27.496507000000001
 21
-145.394586000000000
  0
LINE
  8
0
  6
CONTINUOUS
 62
256
 10
124.496506999999990
 20
-141.304084999999990
 11
27.496507000000001
 21
-141.304084999999990
  0
LINE
  8
0
  6
CONTINUOUS
 62
256
 10
124.496506999999990
 20
-139.942205000000000
 11
27.496507000000001
 21
-139.942205000000000
  0
LINE
  8
0
  6
CONTINUOUS
 62
256
 10
124.496506999999990
 20
-135.751651000000010
 11
27.496507000000001
 21
-135.751651000000010
  0
LINE
  8
0
  6
CONTINUOUS
 62
256
 10
124.496506999999990
 20
-134.485412999999990
 11
27.496507000000001
 21
-134.485412999999990
  0
LINE
  8
0
  6
CONTINUOUS
 62
256
 10
124.496506999999990
 20
-130.112152000000010
 11
27.496507000000001
 21
-130.112152000000010
  0
LINE
  8
0
  6
CONTINUOUS
 62
256
 10
124.496506999999990
 20
-160.477937999999990
 11
27.496507000000001
 21
-160.477937999999990
  0
LINE
  8
0
  6
CONTINUOUS
 62
256
 10
124.496506999999990
 20
-165.427685999999990
 11
27.496507000000001
 21
-165.427685999999990
  0
LINE
  8
0
  6
CONTINUOUS
 62
256
 10
124.496506999999990
 20
-115.112151999999990
 11
124.496506999999990
 21
-180.112152000000010
  0
LINE
  8
0
  6
CONTINUOUS
 62
256
 10
124.496506999999990
 20
-170.112152000000010
 11
27.496507000000001
 21
-170.112152000000010
  0
LINE
  8
0
  6
CONTINUOUS
 62
256
 10
124.496506999999990
 20
-171.112152000000010
 11
27.496507000000001
 21
-171.112152000000010
  0
LINE
  8
0
  6
CONTINUOUS
 62
256
 10
124.496506999999990
 20
-172.112152000000010
 11
27.496507000000001
 21
-172.112152000000010
  0
LINE
  8
0
  6
CONTINUOUS
 62
256
 10
57.496507000000001
 20
-174.612152000000010
 11
27.496507000000001
 21
-174.612152000000010
  0
LINE
  8
0
  6
CONTINUOUS
 62
256
 10
27.496507000000001
 20
-174.612152000000010
 11
27.496507000000001
 21
-115.112151999999990
  0
LINE
  8
0
  6
CONTINUOUS
 62
256
 10
124.496506999999990
 20
-180.112152000000010
 11
205.190531999999990
 21
-180.112152000000010
  0
LINE
  8
0
  6
CONTINUOUS
 62
256
 10
227.496507000000010
 20
-115.112151999999990
 11
227.496507000000010
 21
-167.555356999999990
  0
ARC
  8
0
  6
CONTINUOUS
 62
256
 10
205.190531999999990
 20
-160.112152000000010
 40
20.000000000000000
 50
270.000000000000000
 51
305.000000000000000
  0
LINE
  8
0
  6
CONTINUOUS
 62
256
 10
216.662060000000000
 20
-176.495192000000000
 11
226.387806000000010
 21
-169.685151999999990
  0
ARC
  8
0
  6
CONTINUOUS
 62
256
 10
224.896507000000010
 20
-167.555356999999990
 40
2.599999999999996
 50
305.000000000000230
 51
0.000000000000000
  0
ARC
  8
0
  6
CONTINUOUS
 62
256
 10
127.496506999999990
 20
-56.492930999999999
 40
3.000000000000000
 50
90.000000000000000
 51
180.000000000000000
  0
ARC
  8
0
  6
CONTINUOUS
 62
256
 10
131.496507000000010
 20
-50.492930999999999
 40
3.000000000000000
 50
270.000000000000000
 51
0.000000000000000
  0
LINE
  8
0
  6
CONTINUOUS
 62
256
 10
124.496506999999990
 20
-115.112151999999990
 11
124.496506999999990
 21
-56.492930999999999
  0
LINE
  8
0
  6
CONTINUOUS
 62
256
 10
27.496507000000001
 20
-55.612152000000002
 11
27.496507000000001
 21
-115.112151999999990
  0
LINE
  8
0
  6
CONTINUOUS
 62
256
 10
227.496507000000010
 20
-115.112151999999990
 11
227.496507000000010
 21
-62.668947000000003
  0
LINE
  8
0
  6
CONTINUOUS
 62
256
 10
131.496507000000010
 20
-53.492930999999999
 11
127.496506999999990
 21
-53.492930999999999
  0
LINE
  8
0
  6
CONTINUOUS
 62
256
 10
51.796506999999998
 20
-17.612151999999998
 11
51.796506999999998
 21
-17.112151999999998
  0
LINE
  8
0
  6
CONTINUOUS
 62
256
 10
122.796507000000010
 20
-17.612151999999998
 11
122.796507000000010
 21
-17.112151999999998
  0
LINE
  8
0
  6
CONTINUOUS
 62
256
 10
125.296507000000010
 20
-17.612151999999998
 11
125.296507000000010
 21
-17.112151999999998
  0
LINE
  8
0
  6
CONTINUOUS
 62
256
 10
117.296507000000010
 20
-17.612151999999998
 11
117.296507000000010
 21
-17.112151999999998
  0
LINE
  8
0
  6
CONTINUOUS
 62
256
 10
57.296506999999998
 20
-17.612151999999998
 11
57.296506999999998
 21
-17.112151999999998
  0
LINE
  8
0
  6
CONTINUOUS
 62
256
 10
49.296506999999998
 20
-17.612151999999998
 11
49.296506999999998
 21
-17.112151999999998
  0
LINE
  8
0
  6
CONTINUOUS
 62
256
 10
125.296507000000010
 20
-17.112151999999998
 11
117.296507000000010
 21
-17.112151999999998
  0
LINE
  8
0
  6
CONTINUOUS
 62
256
 10
57.296506999999998
 20
-17.112151999999998
 11
49.296506999999998
 21
-17.112151999999998
  0
ARC
  8
0
  6
CONTINUOUS
 62
256
 10
43.296506999999998
 20
-18.612151999999998
 40
1.000000000000000
 50
90.000000000000000
 51
180.000000000000000
  0
LINE
  8
0
  6
CONTINUOUS
 62
256
 10
42.296506999999998
 20
-51.612152000000002
 11
42.296506999999998
 21
-18.612151999999998
  0
LINE
  8
0
  6
CONTINUOUS
 62
256
 10
132.296506999999990
 20
-51.612152000000002
 11
42.296506999999998
 21
-51.612152000000002
  0
ARC
  8
0
  6
CONTINUOUS
 62
256
 10
131.296506999999990
 20
-18.612151999999998
 40
1.000000000000000
 50
0.000000000000000
 51
90.000000000000000
  0
LINE
  8
0
  6
CONTINUOUS
 62
256
 10
132.296506999999990
 20
-51.612152000000002
 11
132.296506999999990
 21
-18.612151999999998
  0
LINE
  8
0
  6
CONTINUOUS
 62
256
 10
131.296506999999990
 20
-17.612151999999998
 11
43.296506999999998
 21
-17.612151999999998
  0
LINE
  8
0
  6
CONTINUOUS
 62
256
 10
42.296506999999998
 20
-56.612152000000002
 11
124.496506999999990
 21
-56.612152000000002
  0
LINE
  8
0
  6
CONTINUOUS
 62
256
 10
42.296506999999998
 20
-51.612152000000002
 11
42.296506999999998
 21
-56.612152000000002
  0
LINE
  8
0
  6
CONTINUOUS
 62
256
 10
42.296506999999998
 20
-51.612152000000002
 11
132.296506999999990
 21
-51.612152000000002
  0
LINE
  8
0
  6
CONTINUOUS
 62
256
 10
132.296506999999990
 20
-51.612152000000002
 11
132.296506999999990
 21
-53.384296999999997
  0
LINE
  8
0
  6
CONTINUOUS
 62
256
 10
27.496507000000001
 20
-135.112152000000010
 11
20.496507000000001
 21
-135.112152000000010
  0
LINE
  8
0
  6
CONTINUOUS
 62
256
 10
27.496507000000001
 20
-95.112151999999995
 11
20.496507000000001
 21
-95.112151999999995
  0
LINE
  8
0
  6
CONTINUOUS
 62
256
 10
-164.503492999999990
 20
-40.112152000000002
 11
-164.503492999999990
 21
-170.112152000000010
  0
LINE
  8
0
  6
CONTINUOUS
 62
256
 10
-165.503492999999990
 20
-170.112152000000010
 11
-165.503492999999990
 21
-40.112152000000002
  0
LINE
  8
0
  6
CONTINUOUS
 62
256
 10
27.496507000000001
 20
-174.612152000000010
 11
27.496507000000001
 21
-171.362152000000010
  0
LINE
  8
0
  6
CONTINUOUS
 62
256
 10
20.496507000000001
 20
-157.296883000000010
 11
20.496507000000001
 21
-115.112151999999990
  0
LINE
  8
0
  6
CONTINUOUS
 62
256
 10
17.496507000000001
 20
-154.113418999999990
 11
12.496506999999999
 21
-154.113418999999990
  0
LINE
  8
0
  6
CONTINUOUS
 62
256
 10
17.496507000000001
 20
-160.296883000000010
 11
12.496506999999999
 21
-160.296883000000010
  0
LINE
  8
0
  6
CONTINUOUS
 62
256
 10
17.496507000000001
 20
-167.208459000000000
 11
12.496506999999999
 21
-167.208459000000000
  0
LINE
  8
0
  6
CONTINUOUS
 62
256
 10
20.496507000000001
 20
-170.612152000000010
 11
20.496507000000001
 21
-170.208459000000000
  0
LINE
  8
0
  6
CONTINUOUS
 62
256
 10
20.496507000000001
 20
-170.612152000000010
 11
20.496507000000001
 21
-170.208459000000000
  0
LINE
  8
0
  6
CONTINUOUS
 62
256
 10
20.496507000000001
 20
-170.612152000000010
 11
20.496507000000001
 21
-171.612152000000010
  0
LINE
  8
0
  6
CONTINUOUS
 62
256
 10
17.496507000000001
 20
-69.927419999999998
 11
12.496506999999999
 21
-69.927419999999998
  0
LINE
  8
0
  6
CONTINUOUS
 62
256
 10
20.496507000000001
 20
-59.612152000000002
 11
20.496507000000001
 21
-60.015844000000001
  0
LINE
  8
0
  6
CONTINUOUS
 62
256
 10
17.496507000000001
 20
-63.015844000000001
 11
12.496506999999999
 21
-63.015844000000001
  0
LINE
  8
0
  6
CONTINUOUS
 62
256
 10
20.496507000000001
 20
-72.927419999999998
 11
20.496507000000001
 21
-115.112151999999990
  0
LINE
  8
0
  6
CONTINUOUS
 62
256
 10
17.496507000000001
 20
-76.110884999999996
 11
12.496506999999999
 21
-76.110884999999996
  0
LINE
  8
0
  6
CONTINUOUS
 62
256
 10
20.496507000000001
 20
-59.612152000000002
 11
20.496507000000001
 21
-58.612152000000002
  0
ARC
  8
0
  6
CONTINUOUS
 62
256
 10
17.496507000000001
 20
-151.113418999999990
 40
3.000000000000000
 50
270.000000000000000
 51
0.000000000000000
  0
ARC
  8
0
  6
CONTINUOUS
 62
256
 10
17.496507000000001
 20
-170.208459000000000
 40
3.000000000000000
 50
0.000000000000000
 51
90.000000000000000
  0
ARC
  8
0
  6
CONTINUOUS
 62
256
 10
17.496507000000001
 20
-157.296883000000010
 40
3.000000000000000
 50
270.000000000000000
 51
0.000000000000000
  0
ARC
  8
0
  6
CONTINUOUS
 62
256
 10
23.496507000000001
 20
-171.612152000000010
 40
3.000000000000000
 50
180.000000000000000
 51
270.000000000000000
  0
ARC
  8
0
  6
CONTINUOUS
 62
256
 10
12.496506999999999
 20
-155.296883000000010
 40
5.000000000000000
 50
180.000000000000000
 51
270.000000000000000
  0
ARC
  8
0
  6
CONTINUOUS
 62
256
 10
12.496506999999999
 20
-162.208459000000000
 40
5.000000000000000
 50
180.000000000000000
 51
270.000000000000000
  0
ARC
  8
0
  6
CONTINUOUS
 62
256
 10
17.496507000000001
 20
-79.110884999999996
 40
3.000000000000000
 50
0.000000000000000
 51
90.000000000000000
  0
ARC
  8
0
  6
CONTINUOUS
 62
256
 10
17.496507000000001
 20
-72.927419999999998
 40
3.000000000000000
 50
0.000000000000000
 51
90.000000000000000
  0
ARC
  8
0
  6
CONTINUOUS
 62
256
 10
17.496507000000001
 20
-60.015844000000001
 40
3.000000000000000
 50
270.000000000000000
 51
0.000000000000000
  0
ARC
  8
0
  6
CONTINUOUS
 62
256
 10
23.496507000000001
 20
-58.612152000000002
 40
3.000000000000000
 50
90.000000000000000
 51
180.000000000000000
  0
ARC
  8
0
  6
CONTINUOUS
 62
256
 10
12.496506999999999
 20
-68.015844000000001
 40
5.000000000000000
 50
90.000000000000000
 51
180.000000000000000
  0
ARC
  8
0
  6
CONTINUOUS
 62
256
 10
12.496506999999999
 20
-74.927419999999998
 40
5.000000000000000
 50
90.000000000000000
 51
180.000000000000000
  0
LINE
  8
0
  6
CONTINUOUS
 62
256
 10
27.496507000000001
 20
-55.612152000000002
 11
27.496507000000001
 21
-115.112151999999990
  0
LINE
  8
0
  6
CONTINUOUS
 62
256
 10
27.496507000000001
 20
-174.612152000000010
 11
27.496507000000001
 21
-115.112151999999990
  0
CIRCLE
  8
0
  6
CONTINUOUS
 62
256
 10
-104.503493000000010
 20
-92.112151999999995
 40
42.500000000000000
  0
CIRCLE
  8
0
  6
CONTINUOUS
 62
256
 10
-104.503493000000010
 20
-92.112151999999995
 40
30.000000000000000
  0
LINE
  8
0
  6
DASHDOT
 62
256
 10
-104.503493000000010
 20
-28.716667000000001
 11
-104.503493000000010
 21
-183.581529999999990
  0
LINE
  8
0
  6
DASHDOT
 62
256
 10
-168.962151000000010
 20
-92.112151999999995
 11
-45.813499000000000
 21
-92.112151999999995
  0
LINE
  8
0
  6
DASHDOT
 62
256
 10
-152.503492999999990
 20
-154.276503999999990
 11
-152.503492999999990
 21
-175.612152000000010
  0
LINE
  8
0
  6
DASHDOT
 62
256
 10
-152.503492999999990
 20
-34.612152000000002
 11
-152.503492999999990
 21
-54.987453000000002
  0
LINE
  8
0
  6
DASHDOT
 62
256
 10
-162.003492999999990
 20
-44.112152000000002
 11
-141.201372999999990
 21
-44.112152000000002
  0
LINE
  8
0
  6
DASHDOT
 62
256
 10
-18.503492999999999
 20
-34.612152000000002
 11
-18.503492999999999
 21
-55.343327000000002
  0
LINE
  8
0
  6
DASHDOT
 62
256
 10
-30.335622999999998
 20
-166.112152000000010
 11
-9.003493000000001
 21
-166.112152000000010
  0
LINE
  8
0
  6
DASHDOT
 62
256
 10
-18.503492999999999
 20
-154.380456000000010
 11
-18.503492999999999
 21
-175.612152000000010
  0
LINE
  8
0
  6
DASHDOT
 62
256
 10
-162.003492999999990
 20
-166.112152000000010
 11
-141.290809999999990
 21
-166.112152000000010
  0
ARC
  8
0
  6
CONTINUOUS
 62
256
 10
2.496507000000000
 20
-162.208459000000000
 40
5.000000000000000
 50
0.000000000000000
 51
72.542397000000022
  0
ARC
  8
0
  6
CONTINUOUS
 62
256
 10
2.496507000000000
 20
-155.660939000000010
 40
5.000000000000000
 50
0.000000000000000
 51
72.542397000000022
  0
ARC
  8
0
  6
CONTINUOUS
 62
256
 10
2.496507000000000
 20
-74.563364000000007
 40
5.000000000000004
 50
287.457602999999950
 51
0.000000000000000
  0
ARC
  8
0
  6
CONTINUOUS
 62
256
 10
2.496507000000000
 20
-68.015844000000001
 40
5.000000000000004
 50
287.457602999999950
 51
0.000000000000000
  0
ARC
  8
0
  6
CONTINUOUS
 62
256
 10
6.996507000000000
 20
-58.612152000000002
 40
3.000000000000000
 50
90.000000000000000
 51
180.000000000000000
  0
ARC
  8
0
  6
CONTINUOUS
 62
256
 10
6.996507000000000
 20
-171.612152000000010
 40
3.000000000000000
 50
180.000000000000000
 51
270.000000000000000
  0
ARC
  8
0
  6
CONTINUOUS
 62
256
 10
-14.503493000000001
 20
-40.112152000000002
 40
9.000000000000000
 50
0.000000000000000
 51
90.000000000000000
  0
ARC
  8
0
  6
CONTINUOUS
 62
256
 10
-156.503492999999990
 20
-40.112152000000002
 40
9.000000000000000
 50
90.000000000000000
 51
180.000000000000000
  0
ARC
  8
0
  6
CONTINUOUS
 62
256
 10
-14.503493000000001
 20
-170.112152000000010
 40
9.000000000000000
 50
270.000000000000000
 51
0.000000000000000
  0
ARC
  8
0
  6
CONTINUOUS
 62
256
 10
-156.503492999999990
 20
-170.112152000000010
 40
9.000000000000000
 50
180.000000000000000
 51
270.000000000000000
  0
CIRCLE
  8
0
  6
CONTINUOUS
 62
256
 10
-104.503493000000010
 20
-92.112151999999995
 40
49.500000000000000
  0
ARC
  8
0
  6
CONTINUOUS
 62
256
 10
-130.170781000000010
 20
-160.612152000000010
 40
7.499999999999991
 50
193.835224000000010
 51
270.000000000000000
  0
ARC
  8
0
  6
CONTINUOUS
 62
256
 10
-152.503492999999990
 20
-166.112152000000010
 40
15.499999999999993
 50
13.835224000000034
 51
76.164775999999975
  0
ARC
  8
0
  6
CONTINUOUS
 62
256
 10
-147.003492999999990
 20
-143.779439999999990
 40
7.500000000000000
 50
180.000000000000000
 51
256.164775999999960
  0
ARC
  8
0
  6
CONTINUOUS
 62
256
 10
-147.003492999999990
 20
-66.444862999999998
 40
7.499999999999998
 50
103.835224000000030
 51
180.000000000000000
  0
ARC
  8
0
  6
CONTINUOUS
 62
256
 10
-152.503492999999990
 20
-44.112152000000002
 40
15.499999999999998
 50
283.835223999999980
 51
346.164775999999960
  0
ARC
  8
0
  6
CONTINUOUS
 62
256
 10
-130.170781000000010
 20
-49.612152000000002
 40
7.500000000000000
 50
90.000000000000000
 51
166.164775999999960
  0
ARC
  8
0
  6
CONTINUOUS
 62
256
 10
-40.836204000000002
 20
-49.612152000000002
 40
7.499999999999998
 50
13.835224000000022
 51
90.000000000000000
  0
ARC
  8
0
  6
CONTINUOUS
 62
256
 10
-18.503492999999999
 20
-44.112152000000002
 40
15.499999999999998
 50
193.835224000000010
 51
256.164776000000020
  0
ARC
  8
0
  6
CONTINUOUS
 62
256
 10
-24.003492999999999
 20
-66.444862999999998
 40
7.500000000000000
 50
0.000000000000000
 51
76.164776000000018
  0
ARC
  8
0
  6
CONTINUOUS
 62
256
 10
-24.003492999999999
 20
-143.779439999999990
 40
7.499999999999990
 50
283.835223999999980
 51
0.000000000000000
  0
ARC
  8
0
  6
CONTINUOUS
 62
256
 10
-18.503492999999999
 20
-166.112152000000010
 40
15.499999999999991
 50
103.835224000000010
 51
166.164775999999960
  0
ARC
  8
0
  6
CONTINUOUS
 62
256
 10
-40.836204000000002
 20
-160.612152000000010
 40
7.500000000000000
 50
270.000000000000000
 51
346.164776000000020
  0
ARC
  8
0
  6
CONTINUOUS
 62
256
 10
-130.170781000000010
 20
-49.612152000000002
 40
10.000000000000000
 50
90.000000000000000
 51
166.164776000000020
  0
ARC
  8
0
  6
CONTINUOUS
 62
256
 10
-152.503492999999990
 20
-44.112152000000002
 40
13.000000000000002
 50
283.835223999999980
 51
346.164776000000020
  0
ARC
  8
0
  6
CONTINUOUS
 62
256
 10
-147.003492999999990
 20
-66.444862999999998
 40
10.000000000000002
 50
103.835224000000080
 51
180.000000000000000
  0
ARC
  8
0
  6
CONTINUOUS
 62
256
 10
-147.003492999999990
 20
-143.779439999999990
 40
10.000000000000000
 50
180.000000000000000
 51
256.164775999999960
  0
ARC
  8
0
  6
CONTINUOUS
 62
256
 10
-152.503492999999990
 20
-166.112152000000010
 40
13.000000000000002
 50
13.835223999999982
 51
76.164776000000032
  0
ARC
  8
0
  6
CONTINUOUS
 62
256
 10
-130.170781000000010
 20
-160.612152000000010
 40
10.000000000000009
 50
193.835224000000040
 51
270.000000000000000
  0
ARC
  8
0
  6
CONTINUOUS
 62
256
 10
-40.836204000000002
 20
-160.612152000000010
 40
10.000000000000000
 50
270.000000000000000
 51
346.164775999999960
  0
ARC
  8
0
  6
CONTINUOUS
 62
256
 10
-18.503492999999999
 20
-166.112152000000010
 40
13.000000000000002
 50
103.835224000000000
 51
166.164776000000020
  0
ARC
  8
0
  6
CONTINUOUS
 62
256
 10
-24.003492999999999
 20
-143.779439999999990
 40
10.000000000000005
 50
283.835223999999980
 51
0.000000000000000
  0
ARC
  8
0
  6
CONTINUOUS
 62
256
 10
-24.003492999999999
 20
-66.444862999999998
 40
10.000000000000000
 50
0.000000000000000
 51
76.164775999999989
  0
ARC
  8
0
  6
CONTINUOUS
 62
256
 10
-18.503492999999999
 20
-44.112152000000002
 40
13.000000000000000
 50
193.835224000000010
 51
256.164776000000020
  0
ARC
  8
0
  6
CONTINUOUS
 62
256
 10
-40.836204000000002
 20
-49.612152000000002
 40
9.999999999999998
 50
13.835223999999991
 51
90.000000000000000
  0
CIRCLE
  8
0
  6
CONTINUOUS
 62
256
 10
-104.503493000000010
 20
-92.112151999999995
 40
47.000000000000000
  0
ARC
  8
0
  6
CONTINUOUS
 62
256
 10
-2.503493000000000
 20
-52.612152000000002
 40
3.000000000000000
 50
180.000000000000000
 51
270.000000000000000
  0
ARC
  8
0
  6
CONTINUOUS
 62
256
 10
-5.135996000000000
 20
-177.612152000000010
 40
3.000000000000000
 50
90.000000000000000
 51
141.317813000000140
  0
ARC
  8
0
  6
CONTINUOUS
 62
256
 10
-14.503493000000001
 20
-170.112152000000010
 40
8.000000000000000
 50
270.000000000000000
 51
0.000000000000000
  0
ARC
  8
0
  6
CONTINUOUS
 62
256
 10
-14.503493000000001
 20
-40.112152000000002
 40
8.000000000000000
 50
0.000000000000000
 51
90.000000000000000
  0
ARC
  8
0
  6
CONTINUOUS
 62
256
 10
-156.503492999999990
 20
-40.112152000000002
 40
8.000000000000000
 50
90.000000000000000
 51
180.000000000000000
  0
ARC
  8
0
  6
CONTINUOUS
 62
256
 10
-156.503492999999990
 20
-170.112152000000010
 40
8.000000000000000
 50
180.000000000000000
 51
270.000000000000000
  0
LINE
  8
0
  6
CONTINUOUS
 62
256
 10
-2.503493000000000
 20
-55.612152000000002
 11
27.496507000000001
 21
-55.612152000000002
  0
LINE
  8
0
  6
CONTINUOUS
 62
256
 10
-5.135996000000000
 20
-174.612152000000010
 11
27.496507000000001
 21
-174.612152000000010
  0
LINE
  8
0
  6
CONTINUOUS
 62
256
 10
3.996507000000000
 20
-171.612152000000010
 11
3.996507000000000
 21
-58.612152000000002
  0
LINE
  8
0
  6
CONTINUOUS
 62
256
 10
-156.503492999999990
 20
-31.112151999999998
 11
-14.503493000000001
 21
-31.112151999999998
  0
LINE
  8
0
  6
CONTINUOUS
 62
256
 10
-14.503493000000001
 20
-179.112152000000010
 11
-156.503492999999990
 21
-179.112152000000010
  0
LINE
  8
0
  6
CONTINUOUS
 62
256
 10
-5.503493000000000
 20
-40.112152000000002
 11
-5.503493000000000
 21
-170.112152000000010
  0
LINE
  8
0
  6
DASHED
 62
256
 10
-5.503493000000000
 20
-104.612151999999990
 11
-5.503493000000000
 21
-122.612151999999990
  0
LINE
  8
0
  6
DASHED
 62
256
 10
-5.503493000000000
 20
-103.612151999999990
 11
-5.503493000000000
 21
-104.612151999999990
  0
LINE
  8
0
  6
DASHED
 62
256
 10
-5.503493000000000
 20
-122.612151999999990
 11
-5.503493000000000
 21
-123.612151999999990
  0
LINE
  8
0
  6
CONTINUOUS
 62
256
 10
-154.503492999999990
 20
-66.444862999999998
 11
-154.503492999999990
 21
-143.779439999999990
  0
LINE
  8
0
  6
CONTINUOUS
 62
256
 10
-40.836204000000002
 20
-42.112152000000002
 11
-130.170781000000010
 21
-42.112152000000002
  0
LINE
  8
0
  6
CONTINUOUS
 62
256
 10
-16.503492999999999
 20
-143.779439999999990
 11
-16.503492999999999
 21
-66.444862999999998
  0
LINE
  8
0
  6
CONTINUOUS
 62
256
 10
-130.170781000000010
 20
-168.112152000000010
 11
-40.836204000000002
 21
-168.112152000000010
  0
LINE
  8
0
  6
CONTINUOUS
 62
256
 10
-130.170781000000010
 20
-39.612152000000002
 11
-40.836204000000002
 21
-39.612152000000002
  0
LINE
  8
0
  6
CONTINUOUS
 62
256
 10
-157.003492999999990
 20
-143.779439999999990
 11
-157.003492999999990
 21
-66.444862999999998
  0
LINE
  8
0
  6
CONTINUOUS
 62
256
 10
-40.836204000000002
 20
-170.612152000000010
 11
-130.170781000000010
 21
-170.612152000000010
  0
LINE
  8
0
  6
CONTINUOUS
 62
256
 10
-14.003493000000001
 20
-66.444862999999998
 11
-14.003493000000001
 21
-143.779439999999990
  0
LINE
  8
0
  6
CONTINUOUS
 62
256
 10
-6.503493000000000
 20
-170.112152000000010
 11
-6.503493000000000
 21
-40.112152000000002
  0
LINE
  8
0
  6
CONTINUOUS
 62
256
 10
-14.503493000000001
 20
-32.112152000000002
 11
-156.503492999999990
 21
-32.112152000000002
  0
LINE
  8
0
  6
CONTINUOUS
 62
256
 10
-156.503492999999990
 20
-178.112152000000010
 11
-14.503493000000001
 21
-178.112152000000010
  0
CIRCLE
  8
0
  6
CONTINUOUS
 62
256
 10
-104.503493000000010
 20
-92.112151999999995
 40
4.000000000000000
  0
CIRCLE
  8
0
  6
CONTINUOUS
 62
256
 10
-104.503493000000010
 20
-92.112151999999995
 40
3.500000000000000
  0
LINE
  8
0
  6
CONTINUOUS
 62
256
 10
-108.503493000000010
 20
-75.112151999999995
 11
-100.503493000000010
 21
-75.112151999999995
  0
LINE
  8
0
  6
CONTINUOUS
 62
256
 10
-108.503493000000010
 20
-82.112151999999995
 11
-100.503493000000010
 21
-82.112151999999995
  0
LINE
  8
0
  6
CONTINUOUS
 62
256
 10
-100.503493000000010
 20
-75.112151999999995
 11
-100.503493000000010
 21
-82.112151999999995
  0
LINE
  8
0
  6
CONTINUOUS
 62
256
 10
-108.503493000000010
 20
-75.112151999999995
 11
-108.503493000000010
 21
-82.112151999999995
  0
ARC
  8
0
  6
CONTINUOUS
 62
256
 10
-104.503493000000010
 20
-92.112151999999995
 40
13.999999999999998
 50
106.601550000000000
 51
73.398450000000011
  0
ARC
  8
0
  6
CONTINUOUS
 62
256
 10
-451.080599000000010
 20
-115.112151999999990
 40
58.500000000000007
 50
156.139057000000010
 51
212.204228000000000
  0
ARC
  8
0
  6
CONTINUOUS
 62
256
 10
-452.080599000000010
 20
-115.112151999999990
 40
58.499999999999986
 50
327.795772000000000
 51
8.849883000000006
  0
LINE
  8
0
  6
CONTINUOUS
 62
256
 10
-488.580599000000010
 20
-115.112151999999990
 11
-488.580599000000010
 21
-179.120879000000000
  0
LINE
  8
0
  6
CONTINUOUS
 62
256
 10
-488.580599000000010
 20
-179.112152000000010
 11
-500.580599000000010
 21
-178.902691000000000
  0
LINE
  8
0
  6
CONTINUOUS
 62
256
 10
-402.580599000000010
 20
-177.776839000000000
 11
-402.580599000000010
 21
-160.975303000000000
  0
LINE
  8
0
  6
CONTINUOUS
 62
256
 10
-412.580599000000010
 20
-177.776839000000000
 11
-402.580599000000010
 21
-177.776839000000000
  0
LINE
  8
0
  6
CONTINUOUS
 62
256
 10
-488.580599000000010
 20
-179.120879000000000
 11
-412.580599000000010
 21
-177.776839000000000
  0
LINE
  8
0
  6
CONTINUOUS
 62
256
 10
-412.580599000000010
 20
-32.447463999999997
 11
-402.580599000000010
 21
-32.447463999999997
  0
LINE
  8
0
  6
CONTINUOUS
 62
256
 10
-402.580599000000010
 20
-49.612152000000002
 11
-398.580599000000010
 21
-49.612152000000002
  0
LINE
  8
0
  6
CONTINUOUS
 62
256
 10
-398.580599000000010
 20
-115.112151999999990
 11
-398.580599000000010
 21
-49.612152000000002
  0
LINE
  8
0
  6
CONTINUOUS
 62
256
 10
-402.580599000000010
 20
-160.975303000000000
 11
-402.580599000000010
 21
-32.447463999999997
  0
LINE
  8
0
  6
CONTINUOUS
 62
256
 10
-488.580599000000010
 20
-31.103424000000000
 11
-488.580599000000010
 21
-115.112151999999990
  0
LINE
  8
0
  6
CONTINUOUS
 62
256
 10
-488.580599000000010
 20
-31.103424000000000
 11
-412.580599000000010
 21
-32.447463999999997
  0
LINE
  8
0
  6
CONTINUOUS
 62
256
 10
-402.580599000000010
 20
-134.612152000000010
 11
-398.580599000000010
 21
-134.612152000000010
  0
LINE
  8
0
  6
CONTINUOUS
 62
256
 10
-504.580599000000010
 20
-134.612152000000010
 11
-504.580599000000010
 21
-115.112151999999990
  0
LINE
  8
0
  6
CONTINUOUS
 62
256
 10
-398.580599000000010
 20
-115.112151999999990
 11
-398.580599000000010
 21
-134.612152000000010
  0
LINE
  8
0
  6
CONTINUOUS
 62
256
 10
-504.580599000000010
 20
-134.612152000000010
 11
-500.580599000000010
 21
-134.612152000000010
  0
LINE
  8
0
  6
CONTINUOUS
 62
256
 10
-500.580599000000010
 20
-31.321611999999998
 11
-488.580599000000010
 21
-31.112151999999998
  0
LINE
  8
0
  6
CONTINUOUS
 62
256
 10
-504.580599000000010
 20
-49.612152000000002
 11
-500.580599000000010
 21
-49.612152000000002
  0
LINE
  8
0
  6
CONTINUOUS
 62
256
 10
-504.580599000000010
 20
-49.612152000000002
 11
-504.580599000000010
 21
-115.112151999999990
  0
LINE
  8
0
  6
CONTINUOUS
 62
256
 10
-500.580599000000010
 20
-178.902691000000000
 11
-500.580599000000010
 21
-160.975303000000000
  0
LINE
  8
0
  6
CONTINUOUS
 62
256
 10
-500.580599000000010
 20
-160.975303000000000
 11
-500.580599000000010
 21
-31.321611999999998
  0
ARC
  8
0
  6
CONTINUOUS
 62
256
 10
-404.439158000000020
 20
-158.510952000000000
 40
2.999999999999993
 50
321.379370000000110
 51
44.999999999999616
  0
ARC
  8
0
  6
CONTINUOUS
 62
256
 10
-498.722039999999990
 20
-158.510952000000000
 40
3.000000000000004
 50
135.000000000000370
 51
218.620629999999860
  0
ARC
  8
0
  6
CONTINUOUS
 62
256
 10
-510.080599000000010
 20
-95.612151999999995
 40
0.500000000000000
 50
90.000000000000000
 51
180.000000000000000
  0
ARC
  8
0
  6
CONTINUOUS
 62
256
 10
-510.080599000000010
 20
-95.612151999999995
 40
0.500000000000000
 50
90.000000000000000
 51
180.000000000000000
  0
ARC
  8
0
  6
CONTINUOUS
 62
256
 10
-508.555597999999970
 20
-135.612152000000010
 40
0.500000000000028
 50
2.934025000000031
 51
90.000000000000000
  0
ARC
  8
0
  6
CONTINUOUS
 62
256
 10
-508.555597999999970
 20
-135.612152000000010
 40
0.500000000000028
 50
2.934025000000031
 51
90.000000000000000
  0
ARC
  8
0
  6
CONTINUOUS
 62
256
 10
-510.080599000000010
 20
-134.612152000000010
 40
0.500000000000000
 50
180.000000000000000
 51
270.000000000000000
  0
ARC
  8
0
  6
CONTINUOUS
 62
256
 10
-108.580599000000010
 20
-115.112151999999990
 40
400.000000000000000
 50
182.934024999999990
 51
184.114344999999960
  0
ARC
  8
0
  6
CONTINUOUS
 62
256
 10
-477.627053999999990
 20
-141.658605999999990
 40
30.000000000000018
 50
184.114344999999960
 51
220.082493000000030
  0
ARC
  8
0
  6
CONTINUOUS
 62
256
 10
-425.534144000000030
 20
-141.658605999999990
 40
30.000000000000004
 50
319.917507000000000
 51
355.885654999999990
  0
ARC
  8
0
  6
CONTINUOUS
 62
256
 10
-394.605599999999980
 20
-135.612152000000010
 40
0.500000000000000
 50
90.000000000000000
 51
177.065974999999950
  0
ARC
  8
0
  6
CONTINUOUS
 62
256
 10
-794.580599000000010
 20
-115.112151999999990
 40
399.999999999999940
 50
355.885654999999990
 51
357.065974999999980
  0
ARC
  8
0
  6
CONTINUOUS
 62
256
 10
-393.080599000000010
 20
-134.612152000000010
 40
0.500000000000000
 50
270.000000000000000
 51
0.000000000000000
  0
LINE
  8
0
  6
DASHED
 62
256
 10
-500.843360000000020
 20
-156.389632000000010
 11
-500.580599000000010
 21
-156.126870000000000
  0
LINE
  8
0
  6
DASHDOT
 62
256
 10
-451.580599000000010
 20
-14.135215000000001
 11
-451.580599000000010
 21
-183.321566999999990
  0
LINE
  8
0
  6
CONTINUOUS
 62
256
 10
-510.080599000000010
 20
-95.112151999999995
 11
-508.555597999999970
 21
-95.112151999999995
  0
LINE
  8
0
  6
CONTINUOUS
 62
256
 10
-510.580599000000010
 20
-115.112151999999990
 11
-510.580599000000010
 21
-95.612151999999995
  0
LINE
  8
0
  6
CONTINUOUS
 62
256
 10
-510.080599000000010
 20
-135.112152000000010
 11
-508.555597999999970
 21
-135.112152000000010
  0
LINE
  8
0
  6
CONTINUOUS
 62
256
 10
-510.580599000000010
 20
-115.112151999999990
 11
-510.580599000000010
 21
-134.612152000000010
  0
LINE
  8
0
  6
CONTINUOUS
 62
256
 10
-393.080599000000010
 20
-135.112152000000010
 11
-394.605599999999980
 21
-135.112152000000010
  0
LINE
  8
0
  6
CONTINUOUS
 62
256
 10
-392.580599000000010
 20
-115.112151999999990
 11
-392.580599000000010
 21
-134.612152000000010
  0
LINE
  8
0
  6
CONTINUOUS
 62
256
 10
-392.580599000000010
 20
-115.112151999999990
 11
-392.580599000000010
 21
-106.112151999999990
  0
LINE
  8
0
  6
DASHDOT
 62
256
 10
-462.499830999999970
 20
-115.112151999999990
 11
-442.565797999999970
 21
-115.112151999999990
  0
LINE
  8
0
  6
DASHED
 62
256
 10
-402.317837999999990
 20
-156.389632000000010
 11
-402.580599000000010
 21
-156.126870000000000
  0
LINE
  8
0
  6
DASHDOT
 62
256
 10
-347.081756999999980
 20
-92.112151999999995
 11
-515.325019999999990
 21
-92.112151999999995
  0
CIRCLE
  8
0
  6
CONTINUOUS
 62
256
 10
-273.762601000000020
 20
-92.112151999999995
 40
4.000000000000000
  0
CIRCLE
  8
0
  6
CONTINUOUS
 62
256
 10
-273.762601000000020
 20
-92.112151999999995
 40
3.500000000000000
  0
LINE
  8
0
  6
DASHDOT
 62
256
 10
-292.965531000000000
 20
-92.112151999999995
 11
-251.233939999999990
 21
-92.112151999999995
  0
LINE
  8
0
  6
DASHDOT
 62
256
 10
-273.762601000000020
 20
-113.160473999999990
 11
-273.762601000000020
 21
-71.428883999999996
  0
LINE
  8
0
  6
CONTINUOUS
 62
256
 10
-277.762601000000020
 20
-75.112151999999995
 11
-269.762601000000020
 21
-75.112151999999995
  0
LINE
  8
0
  6
CONTINUOUS
 62
256
 10
-277.762601000000020
 20
-75.112151999999995
 11
-277.762601000000020
 21
-82.112151999999995
  0
LINE
  8
0
  6
CONTINUOUS
 62
256
 10
-277.762601000000020
 20
-82.112151999999995
 11
-269.762601000000020
 21
-82.112151999999995
  0
LINE
  8
0
  6
CONTINUOUS
 62
256
 10
-269.762601000000020
 20
-75.112151999999995
 11
-269.762601000000020
 21
-82.112151999999995
  0
ARC
  8
0
  6
CONTINUOUS
 62
256
 10
-273.762601000000020
 20
-92.112151999999995
 40
13.999999999999998
 50
106.601550000000000
 51
73.398450000000011
  0
POINT
  8
0
  6
DASHED
 62
256
 10
-273.762601000000020
 20
-78.112151999999995
  0
LINE
  8
0
  6
DASHDOT
 62
256
 10
-28.003492999999999
 20
-44.112152000000002
 11
-7.201373000000000
 21
-44.112152000000002
  0
LINE
  8
0
  6
CONTINUOUS
 62
256
 10
20.496507000000001
 20
107.580191000000000
 11
27.496507000000001
 21
107.580191000000000
  0
ENDSEC
  0
EOF
