  0
SECTION
  2
HEADER
  9
$TEXTSIZE
 40
2.5
  9
$ACADVER
  1
AC1009
  9
$DIMASZ
 40
3.863703297614046
  9
$DIMEXE
 40
2.000000000000000
  9
$DIMEXO
 40
1.000000000000000
  9
$DIMLFAC
 40
1.000000000000000
  9
$DIMSCALE
 40
1.000000000000000
  9
$DIMTAD
 70
1
  9
$DIMTFAC
 40
0.625000000000000
  9
$DIMTXT
 40
6.000000000000000
  9
$LUPREC
 70
3
  9
$REGENMODE
 70
1
  9
$TEXTSTYLE
  7
STANDARD1
  0
ENDSEC
  0
SECTION
  2
TABLES
  0
TABLE
  2
LTYPE
 70
4
  0
LTYPE
  2
CONTINUOUS
 70
64
  3
Solid line
 72
65
 73
0
 40
0.0
  0
LTYPE
  2
DASHED
 70
64
  3
-- -- -- -- -- -- -- -- -- -- -- -- -- -- --
 72
65
 73
2
 40
0.75
 49
0.5
 49
-0.25
  0
LTYPE
  2
DASHDOT
 70
64
  3
__ . __ . __ . __ . __ . __ . __ . __ . __ . __
 72
65
 73
4
 40
1.0
 49
0.5
 49
-0.25
 49
0.0
 49
-0.25
  0
LTYPE
  2
DIVIDE
 70
64
  3
__ . . __ . . __ . . __ . . __ . . __ . . __
 72
65
 73
6
 40
1.25
 49
0.5
 49
-0.25
 49
0.0
 49
-0.25
 49
0.0
 49
-0.25
  0
ENDTAB
  0
TABLE
  2
LAYER
 70
2
  0
LAYER
  2
0
 70
64
 62
53
  6
CONTINUOUS
  0
LAYER
  2
1
 70
64
 62
102
  6
CONTINUOUS
  0
ENDTAB
  0
TABLE
  2
STYLE
 70
4
  0
STYLE
  2
STANDARD1
 70
64
 40
0.0
 41
1.0
 50
0.0
 71
0
 42
3.200000047683716
  3
MONOTXT
  4
BIGFONT
  0
STYLE
  2
STANDARD2
 70
68
 40
0.0
 41
1.0
 50
0.0
 71
0
 42
3.200000047683716
  3
MONOTXT
  4
BIGFONT
  0
STYLE
  2
STANDARD3
 70
64
 40
0.0
 41
1.0
 50
0.0
 71
0
 42
3.200000047683716
  3
MONOTXT
  4

  0
STYLE
  2
STANDARD4
 70
68
 40
0.0
 41
1.0
 50
0.0
 71
0
 42
3.200000047683716
  3
MONOTXT
  4

  0
ENDTAB
  0
TABLE
  2
VIEW
 70
0
  0
ENDTAB
  0
ENDSEC
  0
SECTION
  2
BLOCKS
  0
ENDSEC
  0
SECTION
  2
ENTITIES
  0
TEXT
  8
0
  6
CONTINUOUS
 62
256
 10
-70.375488281250000
 20
-13.156250000000000
 40
2.799999952316284
  1
ü@
 50
0.000002504478167
 41
0.996000017370497
  7
STANDARD1
  0
TEXT
  8
0
  6
CONTINUOUS
 62
256
 10
1.624511957168579
 20
-253.406250000000000
 40
2.799999952316284
  1
ü@
 50
0.000002504478167
 41
0.996000017370497
  7
STANDARD1
  0
ARC
  8
0
  6
CONTINUOUS
 62
256
 10
-161.424352000000000
 20
-183.878286000000000
 40
10.199999999999989
 50
180.000000000000000
 51
265.604537000000050
  0
ARC
  8
0
  6
CONTINUOUS
 62
256
 10
3.575648000000000
 20
-183.878286000000000
 40
10.200000000000006
 50
274.395463000000010
 51
0.000000000000000
  0
CIRCLE
  8
0
  6
CONTINUOUS
 62
256
 10
-158.424352000000000
 20
-34.878286000000003
 40
10.000000000000000
  0
CIRCLE
  8
0
  6
CONTINUOUS
 62
256
 10
-158.424352000000000
 20
-34.878286000000003
 40
7.000000000000000
  0
CIRCLE
  8
0
  6
CONTINUOUS
 62
256
 10
0.575648000000000
 20
-34.878286000000003
 40
10.000000000000000
  0
CIRCLE
  8
0
  6
CONTINUOUS
 62
256
 10
0.575648000000000
 20
-34.878286000000003
 40
7.000000000000000
  0
CIRCLE
  8
0
  6
CONTINUOUS
 62
256
 10
0.575648000000000
 20
-180.878286000000000
 40
10.000000000000000
  0
CIRCLE
  8
0
  6
CONTINUOUS
 62
256
 10
0.575648000000000
 20
-180.878286000000000
 40
7.000000000000000
  0
CIRCLE
  8
0
  6
CONTINUOUS
 62
256
 10
-158.424352000000000
 20
-180.878286000000000
 40
10.000000000000000
  0
CIRCLE
  8
0
  6
CONTINUOUS
 62
256
 10
-158.424352000000000
 20
-180.878286000000000
 40
7.000000000000000
  0
LINE
  8
0
  6
DASHED
 62
256
 10
-427.826094000000010
 20
-42.107115000000000
 11
-511.826094000000010
 21
-42.107115000000000
  0
LINE
  8
0
  6
DASHED
 62
256
 10
-511.826094000000010
 20
-45.107115000000000
 11
-527.826094000000010
 21
-45.107115000000000
  0
LINE
  8
0
  6
DASHED
 62
256
 10
-511.826094000000010
 20
-35.107115000000000
 11
-511.826094000000010
 21
-45.107115000000000
  0
LINE
  8
0
  6
DASHED
 62
256
 10
-511.826094000000010
 20
-25.107115000000000
 11
-527.826094000000010
 21
-25.107115000000000
  0
LINE
  8
0
  6
DASHED
 62
256
 10
-427.826094000000010
 20
-28.107115000000000
 11
-511.826094000000010
 21
-28.107115000000000
  0
LINE
  8
0
  6
DASHED
 62
256
 10
-511.826094000000010
 20
-35.107115000000000
 11
-511.826094000000010
 21
-25.107115000000000
  0
LINE
  8
0
  6
DASHED
 62
256
 10
-427.826094000000010
 20
-35.107115000000000
 11
-427.826094000000010
 21
-25.107115000000000
  0
LINE
  8
0
  6
DASHED
 62
256
 10
-411.826094000000010
 20
-25.107115000000000
 11
-427.826094000000010
 21
-25.107115000000000
  0
LINE
  8
0
  6
DASHED
 62
256
 10
-427.826094000000010
 20
-35.107115000000000
 11
-427.826094000000010
 21
-45.107115000000000
  0
LINE
  8
0
  6
DASHED
 62
256
 10
-411.826094000000010
 20
-45.107115000000000
 11
-427.826094000000010
 21
-45.107115000000000
  0
LINE
  8
0
  6
DASHED
 62
256
 10
-511.826094000000010
 20
-171.107114999999990
 11
-527.826094000000010
 21
-171.107114999999990
  0
LINE
  8
0
  6
DASHED
 62
256
 10
-511.826094000000010
 20
-181.107114999999990
 11
-511.826094000000010
 21
-171.107114999999990
  0
LINE
  8
0
  6
DASHED
 62
256
 10
-427.826094000000010
 20
-174.107114999999990
 11
-511.826094000000010
 21
-174.107114999999990
  0
LINE
  8
0
  6
DASHED
 62
256
 10
-511.826094000000010
 20
-181.107114999999990
 11
-511.826094000000010
 21
-191.107114999999990
  0
LINE
  8
0
  6
DASHED
 62
256
 10
-511.826094000000010
 20
-191.107114999999990
 11
-527.826094000000010
 21
-191.107114999999990
  0
LINE
  8
0
  6
DASHED
 62
256
 10
-427.826094000000010
 20
-188.107114999999990
 11
-511.826094000000010
 21
-188.107114999999990
  0
LINE
  8
0
  6
DASHED
 62
256
 10
-411.826094000000010
 20
-171.107114999999990
 11
-427.826094000000010
 21
-171.107114999999990
  0
LINE
  8
0
  6
DASHED
 62
256
 10
-427.826094000000010
 20
-181.107114999999990
 11
-427.826094000000010
 21
-171.107114999999990
  0
LINE
  8
0
  6
DASHED
 62
256
 10
-411.826094000000010
 20
-191.107114999999990
 11
-427.826094000000010
 21
-191.107114999999990
  0
LINE
  8
0
  6
DASHED
 62
256
 10
-427.826094000000010
 20
-181.107114999999990
 11
-427.826094000000010
 21
-191.107114999999990
  0
LINE
  8
0
  6
CONTINUOUS
 62
256
 10
44.075882000000000
 20
167.396717000000000
 11
44.075882000000000
 21
107.896717000000000
  0
LINE
  8
0
  6
CONTINUOUS
 62
256
 10
44.075882000000000
 20
167.396717000000000
 11
44.075882000000000
 21
226.896717000000000
  0
LINE
  8
0
  6
CONTINUOUS
 62
256
 10
-172.505259000000000
 20
225.397115000000010
 11
-173.013907999999990
 21
224.897267000000000
  0
LINE
  8
0
  6
CONTINUOUS
 62
256
 10
-101.424118000000010
 20
230.397115000000010
 11
-53.924118000000000
 21
230.397115000000010
  0
LINE
  8
0
  6
CONTINUOUS
 62
256
 10
15.575882000000000
 20
225.397115000000010
 11
15.785349000000000
 21
213.396717000000000
  0
LINE
  8
0
  6
CONTINUOUS
 62
256
 10
14.135846000000001
 20
118.896717000000000
 11
14.135846000000001
 21
109.396717000000000
  0
LINE
  8
0
  6
CONTINUOUS
 62
256
 10
15.785349000000000
 20
213.396717000000000
 11
14.135846000000001
 21
118.896717000000000
  0
LINE
  8
0
  6
CONTINUOUS
 62
256
 10
-173.013907999999990
 20
224.897267000000000
 11
-173.214651000000000
 21
213.396717000000000
  0
LINE
  8
0
  6
CONTINUOUS
 62
256
 10
-171.565147000000000
 20
118.896717000000000
 11
-171.565147000000000
 21
109.396717000000000
  0
LINE
  8
0
  6
CONTINUOUS
 62
256
 10
-173.214651000000000
 20
213.396717000000000
 11
-171.565147000000000
 21
118.896717000000000
  0
LINE
  8
0
  6
CONTINUOUS
 62
256
 10
14.135846000000001
 20
109.396717000000000
 11
-85.223222000000007
 21
109.396717000000000
  0
LINE
  8
0
  6
CONTINUOUS
 62
256
 10
15.785349000000000
 20
213.396717000000000
 11
-85.223222000000007
 21
213.396717000000000
  0
LINE
  8
0
  6
CONTINUOUS
 62
256
 10
-85.223222000000007
 20
225.397115000000010
 11
15.575882000000000
 21
225.397115000000010
  0
LINE
  8
0
  6
CONTINUOUS
 62
256
 10
-85.223222000000007
 20
225.397115000000010
 11
-172.505259000000000
 21
225.397115000000010
  0
LINE
  8
0
  6
CONTINUOUS
 62
256
 10
-85.223222000000007
 20
213.396717000000000
 11
-173.214651000000000
 21
213.396717000000000
  0
LINE
  8
0
  6
CONTINUOUS
 62
256
 10
-85.223222000000007
 20
109.396717000000000
 11
-171.565147000000000
 21
109.396717000000000
  0
LINE
  8
0
  6
CONTINUOUS
 62
256
 10
26.075882000000000
 20
224.135718000000000
 11
26.075882000000000
 21
110.657717000000010
  0
ARC
  8
0
  6
CONTINUOUS
 62
256
 10
23.075882000000000
 20
120.396717000000000
 40
3.000000000000000
 50
0.000000000000000
 51
90.000000000000000
  0
LINE
  8
0
  6
CONTINUOUS
 62
256
 10
16.179787999999999
 20
123.396717000000000
 11
23.075882000000000
 21
123.396717000000000
  0
ARC
  8
0
  6
CONTINUOUS
 62
256
 10
23.075882000000000
 20
214.396320000000000
 40
3.000000000000000
 50
270.000000000000000
 51
0.000000000000000
  0
ARC
  8
0
  6
CONTINUOUS
 62
256
 10
29.075882000000000
 20
125.211986000000000
 40
3.000000000000000
 50
180.000000000000000
 51
270.000000000000000
  0
ARC
  8
0
  6
CONTINUOUS
 62
256
 10
29.075882000000000
 20
118.300410000000000
 40
3.000000000000000
 50
180.000000000000000
 51
270.000000000000000
  0
ARC
  8
0
  6
CONTINUOUS
 62
256
 10
29.075882000000000
 20
209.581447999999990
 40
3.000000000000000
 50
90.000000000000000
 51
180.000000000000000
  0
ARC
  8
0
  6
CONTINUOUS
 62
256
 10
29.075882000000000
 20
216.493024999999990
 40
3.000000000000000
 50
90.000000000000000
 51
180.000000000000000
  0
ARC
  8
0
  6
CONTINUOUS
 62
256
 10
29.075882000000000
 20
224.135718000000000
 40
2.999999999999992
 50
89.018827000000030
 51
180.000000000000000
  0
ARC
  8
0
  6
CONTINUOUS
 62
256
 10
29.075882000000000
 20
110.657717000000010
 40
3.000000000000000
 50
180.000000000000000
 51
270.981173000000010
  0
ARC
  8
0
  6
CONTINUOUS
 62
256
 10
34.075882000000000
 20
203.397984000000010
 40
3.000000000000000
 50
0.000000000000000
 51
90.000000000000000
  0
ARC
  8
0
  6
CONTINUOUS
 62
256
 10
34.075882000000000
 20
222.493024999999990
 40
3.000000000000000
 50
270.000000000000000
 51
0.000000000000000
  0
ARC
  8
0
  6
CONTINUOUS
 62
256
 10
34.075882000000000
 20
209.581447999999990
 40
3.000000000000000
 50
0.000000000000000
 51
90.000000000000000
  0
ARC
  8
0
  6
CONTINUOUS
 62
256
 10
40.075882000000000
 20
223.896717000000000
 40
3.000000000000000
 50
90.000000000000000
 51
180.000000000000000
  0
ARC
  8
0
  6
CONTINUOUS
 62
256
 10
40.075882000000000
 20
110.896717000000000
 40
3.000000000000000
 50
180.000000000000000
 51
270.000000000000000
  0
ARC
  8
0
  6
CONTINUOUS
 62
256
 10
34.075882000000000
 20
131.395450000000010
 40
3.000000000000000
 50
270.000000000000000
 51
0.000000000000000
  0
ARC
  8
0
  6
CONTINUOUS
 62
256
 10
34.075882000000000
 20
125.211986000000000
 40
3.000000000000000
 50
270.000000000000000
 51
0.000000000000000
  0
ARC
  8
0
  6
CONTINUOUS
 62
256
 10
34.075882000000000
 20
112.300410000000000
 40
3.000000000000000
 50
0.000000000000000
 51
90.000000000000000
  0
LINE
  8
0
  6
CONTINUOUS
 62
256
 10
37.075882000000000
 20
209.581447999999990
 11
37.075882000000000
 21
167.396717000000000
  0
LINE
  8
0
  6
CONTINUOUS
 62
256
 10
34.075882000000000
 20
206.397984000000010
 11
29.075882000000000
 21
206.397984000000010
  0
LINE
  8
0
  6
CONTINUOUS
 62
256
 10
37.075882000000000
 20
222.896717000000000
 11
37.075882000000000
 21
222.493024999999990
  0
LINE
  8
0
  6
CONTINUOUS
 62
256
 10
37.075882000000000
 20
222.896717000000000
 11
37.075882000000000
 21
222.493024999999990
  0
LINE
  8
0
  6
CONTINUOUS
 62
256
 10
37.075882000000000
 20
222.896717000000000
 11
37.075882000000000
 21
223.896717000000000
  0
LINE
  8
0
  6
CONTINUOUS
 62
256
 10
37.075882000000000
 20
111.896717000000000
 11
37.075882000000000
 21
112.300410000000000
  0
LINE
  8
0
  6
CONTINUOUS
 62
256
 10
37.075882000000000
 20
125.211986000000000
 11
37.075882000000000
 21
167.396717000000000
  0
LINE
  8
0
  6
CONTINUOUS
 62
256
 10
34.075882000000000
 20
128.395450000000010
 11
29.075882000000000
 21
128.395450000000010
  0
LINE
  8
0
  6
CONTINUOUS
 62
256
 10
37.075882000000000
 20
111.896717000000000
 11
37.075882000000000
 21
110.896717000000000
  0
LINE
  8
0
  6
CONTINUOUS
 62
256
 10
34.075882000000000
 20
115.300410000000000
 11
29.075882000000000
 21
115.300410000000000
  0
LINE
  8
0
  6
CONTINUOUS
 62
256
 10
34.075882000000000
 20
122.211986000000000
 11
29.075882000000000
 21
122.211986000000000
  0
LINE
  8
0
  6
CONTINUOUS
 62
256
 10
34.075882000000000
 20
212.581447999999990
 11
29.075882000000000
 21
212.581447999999990
  0
LINE
  8
0
  6
CONTINUOUS
 62
256
 10
34.075882000000000
 20
219.493024999999990
 11
29.075882000000000
 21
219.493024999999990
  0
LINE
  8
0
  6
CONTINUOUS
 62
256
 10
44.075882000000000
 20
147.396717000000000
 11
37.075882000000000
 21
147.396717000000000
  0
LINE
  8
0
  6
CONTINUOUS
 62
256
 10
44.075882000000000
 20
187.396717000000000
 11
37.075882000000000
 21
187.396717000000000
  0
LINE
  8
0
  6
DASHDOT
 62
256
 10
-101.424118000000010
 20
244.112461000000000
 11
-101.424118000000010
 21
42.755854999999997
  0
ARC
  8
0
  6
CONTINUOUS
 62
256
 10
17.785647000000001
 20
213.396320000000000
 40
2.000000000000000
 50
178.999999999999860
 51
270.000000000000000
  0
ARC
  8
0
  6
CONTINUOUS
 62
256
 10
16.179787999999999
 20
121.396717000000000
 40
2.000000000000000
 50
90.000000000000000
 51
178.999999999999860
  0
LINE
  8
0
  6
CONTINUOUS
 62
256
 10
44.075882000000000
 20
107.914171999999990
 11
29.127253000000000
 21
107.658156000000010
  0
LINE
  8
0
  6
CONTINUOUS
 62
256
 10
44.075882000000000
 20
226.879262000000010
 11
29.127253000000000
 21
227.135278000000000
  0
LINE
  8
0
  6
CONTINUOUS
 62
256
 10
23.075882000000000
 20
211.396320000000000
 11
17.785647000000001
 21
211.396320000000000
  0
LINE
  8
0
  6
CONTINUOUS
 62
256
 10
-148.924117999999990
 20
104.396320000000000
 11
-148.924117999999990
 21
109.396717000000000
  0
LINE
  8
0
  6
CONTINUOUS
 62
256
 10
-101.652790999999990
 20
104.396320000000000
 11
-148.924117999999990
 21
104.396320000000000
  0
LINE
  8
0
  6
CONTINUOUS
 62
256
 10
-53.924118000000000
 20
104.396320000000000
 11
-53.924118000000000
 21
109.396717000000000
  0
LINE
  8
0
  6
CONTINUOUS
 62
256
 10
-101.652790999999990
 20
104.396320000000000
 11
-53.924118000000000
 21
104.396320000000000
  0
LINE
  8
0
  6
CONTINUOUS
 62
256
 10
-148.924117999999990
 20
230.396717000000000
 11
-53.924118000000000
 21
230.396717000000000
  0
LINE
  8
0
  6
CONTINUOUS
 62
256
 10
-148.924117999999990
 20
230.396717000000000
 11
-148.924117999999990
 21
225.396717000000000
  0
LINE
  8
0
  6
CONTINUOUS
 62
256
 10
-53.924118000000000
 20
230.396717000000000
 11
-53.924118000000000
 21
225.396717000000000
  0
LINE
  8
0
  6
CONTINUOUS
 62
256
 10
-83.923721000000000
 20
104.396320000000000
 11
-83.923721000000000
 21
102.796456000000010
  0
LINE
  8
0
  6
CONTINUOUS
 62
256
 10
-118.923721000000000
 20
104.396320000000000
 11
-118.923721000000000
 21
102.796456000000010
  0
ARC
  8
0
  6
CONTINUOUS
 62
256
 10
-84.323721000000006
 20
102.796456000000010
 40
0.400000000000006
 50
270.000000000000000
 51
0.000000000000000
  0
ARC
  8
0
  6
CONTINUOUS
 62
256
 10
-85.023720999999995
 20
101.996455999999990
 40
0.400000000000006
 50
90.000000000000000
 51
180.000000000000000
  0
LINE
  8
0
  6
CONTINUOUS
 62
256
 10
-85.423721000000000
 20
101.996455999999990
 11
-85.423721000000000
 21
48.196525000000001
  0
LINE
  8
0
  6
CONTINUOUS
 62
256
 10
-84.323721000000006
 20
102.396456000000000
 11
-118.523720999999990
 21
102.396456000000000
  0
ARC
  8
0
  6
CONTINUOUS
 62
256
 10
-86.223720999999998
 20
48.196525000000001
 40
0.799999999999997
 50
270.000000000000000
 51
0.000000000000000
  0
LINE
  8
0
  6
CONTINUOUS
 62
256
 10
-85.423721000000000
 20
47.396524999999997
 11
-116.623721000000000
 21
47.396524999999997
  0
ARC
  8
0
  6
CONTINUOUS
 62
256
 10
-118.523720999999990
 20
102.796456000000010
 40
0.400000000000006
 50
180.000000000000000
 51
270.000000000000000
  0
ARC
  8
0
  6
CONTINUOUS
 62
256
 10
-117.823721000000010
 20
101.996455999999990
 40
0.400000000000006
 50
0.000000000000000
 51
90.000000000000000
  0
LINE
  8
0
  6
CONTINUOUS
 62
256
 10
-117.423721000000000
 20
101.996455999999990
 11
-117.423721000000000
 21
48.196525000000001
  0
ARC
  8
0
  6
CONTINUOUS
 62
256
 10
-116.623721000000000
 20
48.196525000000001
 40
0.799999999999997
 50
180.000000000000000
 51
270.000000000000000
  0
LINE
  8
0
  6
CONTINUOUS
 62
256
 10
-106.424118000000010
 20
47.396524999999997
 11
-106.424118000000010
 21
87.396524999999997
  0
LINE
  8
0
  6
CONTINUOUS
 62
256
 10
-96.424118000000007
 20
87.396524999999997
 11
-106.424118000000010
 21
87.396524999999997
  0
LINE
  8
0
  6
CONTINUOUS
 62
256
 10
-96.424118000000007
 20
47.396524999999997
 11
-96.424118000000007
 21
87.396524999999997
  0
ARC
  8
0
  6
CONTINUOUS
 62
256
 10
-101.424118000000010
 20
87.396524999999997
 40
5.000000000000000
 50
0.000000000000000
 51
180.000000000000000
  0
POLYLINE
  8
0
  6
CONTINUOUS
 62
256
 66
1
 70
1
  0
VERTEX
  8
0
  6
CONTINUOUS
 62
256
 10
156.775882000000000
 20
115.473192000000000
  0
VERTEX
  8
0
  6
CONTINUOUS
 62
256
 10
156.685572817895180
 20
116.176148510558160
  0
VERTEX
  8
0
  6
CONTINUOUS
 62
256
 10
156.418115802803040
 20
116.852090796638140
  0
VERTEX
  8
0
  6
CONTINUOUS
 62
256
 10
155.983789177821960
 20
117.475042775258660
  0
VERTEX
  8
0
  6
CONTINUOUS
 62
256
 10
155.399283871576780
 20
118.021064751236850
  0
VERTEX
  8
0
  6
CONTINUOUS
 62
256
 10
154.687062095192120
 20
118.469173406248490
  0
VERTEX
  8
0
  6
CONTINUOUS
 62
256
 10
153.874494132115930
 20
118.802148175983750
  0
VERTEX
  8
0
  6
CONTINUOUS
 62
256
 10
152.992806513475810
 20
119.007193026776060
  0
VERTEX
  8
0
  6
CONTINUOUS
 62
256
 10
152.075882000000010
 20
119.076428200000000
  0
VERTEX
  8
0
  6
CONTINUOUS
 62
256
 10
151.158957486524200
 20
119.007193026776060
  0
VERTEX
  8
0
  6
CONTINUOUS
 62
256
 10
150.277269867884090
 20
118.802148175983750
  0
VERTEX
  8
0
  6
CONTINUOUS
 62
256
 10
149.464701904807900
 20
118.469173406248490
  0
VERTEX
  8
0
  6
CONTINUOUS
 62
256
 10
148.752480128423230
 20
118.021064751236850
  0
VERTEX
  8
0
  6
CONTINUOUS
 62
256
 10
148.167974822178050
 20
117.475042775258660
  0
VERTEX
  8
0
  6
CONTINUOUS
 62
256
 10
147.733648197196970
 20
116.852090796638140
  0
VERTEX
  8
0
  6
CONTINUOUS
 62
256
 10
147.466191182104840
 20
116.176148510558160
  0
VERTEX
  8
0
  6
CONTINUOUS
 62
256
 10
147.375882000000020
 20
115.473192000000000
  0
VERTEX
  8
0
  6
CONTINUOUS
 62
256
 10
147.466191182104840
 20
114.770235489441830
  0
VERTEX
  8
0
  6
CONTINUOUS
 62
256
 10
147.733648197196970
 20
114.094293203361860
  0
VERTEX
  8
0
  6
CONTINUOUS
 62
256
 10
148.167974822178050
 20
113.471341224741340
  0
VERTEX
  8
0
  6
CONTINUOUS
 62
256
 10
148.752480128423230
 20
112.925319248763160
  0
VERTEX
  8
0
  6
CONTINUOUS
 62
256
 10
149.464701904807900
 20
112.477210593751510
  0
VERTEX
  8
0
  6
CONTINUOUS
 62
256
 10
150.277269867884090
 20
112.144235824016250
  0
VERTEX
  8
0
  6
CONTINUOUS
 62
256
 10
151.158957486524200
 20
111.939190973223930
  0
VERTEX
  8
0
  6
CONTINUOUS
 62
256
 10
152.075882000000010
 20
111.869955800000000
  0
VERTEX
  8
0
  6
CONTINUOUS
 62
256
 10
152.992806513475810
 20
111.939190973223930
  0
VERTEX
  8
0
  6
CONTINUOUS
 62
256
 10
153.874494132115930
 20
112.144235824016250
  0
VERTEX
  8
0
  6
CONTINUOUS
 62
256
 10
154.687062095192120
 20
112.477210593751510
  0
VERTEX
  8
0
  6
CONTINUOUS
 62
256
 10
155.399283871576760
 20
112.925319248763150
  0
VERTEX
  8
0
  6
CONTINUOUS
 62
256
 10
155.983789177821960
 20
113.471341224741340
  0
VERTEX
  8
0
  6
CONTINUOUS
 62
256
 10
156.418115802803040
 20
114.094293203361860
  0
VERTEX
  8
0
  6
CONTINUOUS
 62
256
 10
156.685572817895180
 20
114.770235489441830
  0
SEQEND
  8
0
  6
CONTINUOUS
 62
256
  0
LINE
  8
0
  6
CONTINUOUS
 62
256
 10
154.075882000000010
 20
112.480817000000000
 11
152.075882000000010
 21
113.656602000000010
  0
LINE
  8
0
  6
CONTINUOUS
 62
256
 10
152.075882000000010
 20
113.656602000000010
 11
150.075882000000010
 21
115.309244000000010
  0
LINE
  8
0
  6
CONTINUOUS
 62
256
 10
150.075882000000010
 20
112.480817000000000
 11
152.075882000000010
 21
113.656602000000010
  0
LINE
  8
0
  6
CONTINUOUS
 62
256
 10
152.075882000000010
 20
113.656602000000010
 11
154.075882000000010
 21
115.309244000000010
  0
LINE
  8
0
  6
CONTINUOUS
 62
256
 10
141.075882000000010
 20
107.396717000000000
 11
221.769905999999990
 21
107.396717000000000
  0
LINE
  8
0
  6
CONTINUOUS
 62
256
 10
244.075882000000010
 20
167.396717000000000
 11
244.075882000000010
 21
119.953512000000000
  0
ARC
  8
0
  6
CONTINUOUS
 62
256
 10
221.769905999999990
 20
127.396717000000000
 40
20.000000000000000
 50
270.000000000000000
 51
304.999999999999940
  0
LINE
  8
0
  6
CONTINUOUS
 62
256
 10
233.241434000000000
 20
111.013676000000000
 11
242.967180000000010
 21
117.823717000000000
  0
ARC
  8
0
  6
CONTINUOUS
 62
256
 10
241.475882000000010
 20
119.953512000000000
 40
2.600000000000007
 50
305.000000000000000
 51
0.000000000000000
  0
LINE
  8
0
  6
CONTINUOUS
 62
256
 10
141.075882000000010
 20
126.396717000000000
 11
141.075882000000010
 21
107.396717000000000
  0
ARC
  8
0
  6
CONTINUOUS
 62
256
 10
148.075882000000010
 20
132.396717000000000
 40
3.000000000000000
 50
270.000000000000000
 51
0.000000000000000
  0
LINE
  8
0
  6
CONTINUOUS
 62
256
 10
144.075882000000010
 20
129.396717000000000
 11
148.075882000000010
 21
129.396717000000000
  0
ARC
  8
0
  6
CONTINUOUS
 62
256
 10
144.075882000000010
 20
126.396717000000000
 40
3.000000000000000
 50
90.000000000000000
 51
180.000000000000000
  0
LINE
  8
0
  6
CONTINUOUS
 62
256
 10
151.075882000000010
 20
132.396717000000000
 11
151.075882000000010
 21
167.396717000000000
  0
LINE
  8
0
  6
CONTINUOUS
 62
256
 10
141.075882000000010
 20
117.081183000000000
 11
44.075882000000000
 21
117.081183000000000
  0
LINE
  8
0
  6
CONTINUOUS
 62
256
 10
141.075882000000010
 20
122.030931000000000
 11
44.075882000000000
 21
122.030931000000000
  0
LINE
  8
0
  6
CONTINUOUS
 62
256
 10
149.978873999999990
 20
130.077531999999990
 11
44.075882000000000
 21
130.077531999999990
  0
LINE
  8
0
  6
CONTINUOUS
 62
256
 10
150.989544999999990
 20
131.682179999999990
 11
148.575479000000000
 21
131.682179999999990
  0
LINE
  8
0
  6
CONTINUOUS
 62
256
 10
58.875881999999997
 20
135.645926000000000
 11
44.075882000000000
 21
135.645926000000000
  0
LINE
  8
0
  6
CONTINUOUS
 62
256
 10
151.075882000000010
 20
137.114283000000000
 11
148.875881999999990
 21
137.114283000000000
  0
LINE
  8
0
  6
CONTINUOUS
 62
256
 10
151.075882000000010
 20
141.204782999999990
 11
148.875881999999990
 21
141.204782999999990
  0
LINE
  8
0
  6
CONTINUOUS
 62
256
 10
151.075882000000010
 20
142.566664000000000
 11
148.875881999999990
 21
142.566664000000000
  0
LINE
  8
0
  6
CONTINUOUS
 62
256
 10
151.075882000000010
 20
147.396717000000000
 11
148.875881999999990
 21
147.396717000000000
  0
LINE
  8
0
  6
CONTINUOUS
 62
256
 10
58.875881999999997
 20
197.679151999999990
 11
44.075882000000000
 21
197.679151999999990
  0
LINE
  8
0
  6
CONTINUOUS
 62
256
 10
58.875881999999997
 20
142.566664000000000
 11
44.075882000000000
 21
142.566664000000000
  0
LINE
  8
0
  6
CONTINUOUS
 62
256
 10
151.075882000000010
 20
197.679151999999990
 11
148.875881999999990
 21
197.679151999999990
  0
LINE
  8
0
  6
CONTINUOUS
 62
256
 10
58.875881999999997
 20
137.114283000000000
 11
44.075882000000000
 21
137.114283000000000
  0
LINE
  8
0
  6
CONTINUOUS
 62
256
 10
58.875881999999997
 20
192.226771000000010
 11
44.075882000000000
 21
192.226771000000010
  0
LINE
  8
0
  6
CONTINUOUS
 62
256
 10
58.875881999999997
 20
147.396717000000000
 11
44.075882000000000
 21
147.396717000000000
  0
LINE
  8
0
  6
CONTINUOUS
 62
256
 10
151.075882000000010
 20
192.226771000000010
 11
148.875881999999990
 21
192.226771000000010
  0
LINE
  8
0
  6
CONTINUOUS
 62
256
 10
58.875881999999997
 20
141.204782999999990
 11
44.075882000000000
 21
141.204782999999990
  0
LINE
  8
0
  6
CONTINUOUS
 62
256
 10
58.875881999999997
 20
193.588651000000000
 11
44.075882000000000
 21
193.588651000000000
  0
LINE
  8
0
  6
CONTINUOUS
 62
256
 10
151.075882000000010
 20
193.588651000000000
 11
148.875881999999990
 21
193.588651000000000
  0
LINE
  8
0
  6
CONTINUOUS
 62
256
 10
58.875881999999997
 20
187.396717000000000
 11
44.075882000000000
 21
187.396717000000000
  0
LINE
  8
0
  6
CONTINUOUS
 62
256
 10
151.075882000000010
 20
187.396717000000000
 11
148.875881999999990
 21
187.396717000000000
  0
LINE
  8
0
  6
CONTINUOUS
 62
256
 10
141.075882000000010
 20
224.396717000000000
 11
44.075882000000000
 21
224.396717000000000
  0
LINE
  8
0
  6
CONTINUOUS
 62
256
 10
141.075882000000010
 20
224.896717000000000
 11
44.075882000000000
 21
224.896717000000000
  0
LINE
  8
0
  6
CONTINUOUS
 62
256
 10
141.075882000000010
 20
223.396717000000000
 11
44.075882000000000
 21
223.396717000000000
  0
LINE
  8
0
  6
CONTINUOUS
 62
256
 10
141.075882000000010
 20
222.396717000000000
 11
44.075882000000000
 21
222.396717000000000
  0
LINE
  8
0
  6
CONTINUOUS
 62
256
 10
141.075882000000010
 20
217.712251000000010
 11
44.075882000000000
 21
217.712251000000010
  0
LINE
  8
0
  6
CONTINUOUS
 62
256
 10
141.075882000000010
 20
212.762504000000010
 11
44.075882000000000
 21
212.762504000000010
  0
LINE
  8
0
  6
CONTINUOUS
 62
256
 10
149.978873999999990
 20
204.715902000000000
 11
44.075882000000000
 21
204.715902000000000
  0
LINE
  8
0
  6
CONTINUOUS
 62
256
 10
150.989544999999990
 20
203.111254000000000
 11
148.575479000000000
 21
203.111254000000000
  0
LINE
  8
0
  6
CONTINUOUS
 62
256
 10
151.075882000000010
 20
199.147509000000010
 11
148.875881999999990
 21
199.147509000000010
  0
LINE
  8
0
  6
CONTINUOUS
 62
256
 10
141.075882000000010
 20
208.396717000000000
 11
141.075882000000010
 21
227.396717000000000
  0
ARC
  8
0
  6
CONTINUOUS
 62
256
 10
148.075882000000010
 20
202.396717000000000
 40
3.000000000000000
 50
0.000000000000000
 51
90.000000000000000
  0
LINE
  8
0
  6
CONTINUOUS
 62
256
 10
144.075882000000010
 20
205.396717000000000
 11
148.075882000000010
 21
205.396717000000000
  0
ARC
  8
0
  6
CONTINUOUS
 62
256
 10
144.075882000000010
 20
208.396717000000000
 40
3.000000000000000
 50
180.000000000000000
 51
270.000000000000000
  0
LINE
  8
0
  6
CONTINUOUS
 62
256
 10
151.075882000000010
 20
202.396717000000000
 11
151.075882000000010
 21
167.396717000000000
  0
LINE
  8
0
  6
CONTINUOUS
 62
256
 10
44.075882000000000
 20
225.896717000000000
 11
141.075882000000010
 21
225.896717000000000
  0
LINE
  8
0
  6
CONTINUOUS
 62
256
 10
44.075882000000000
 20
225.896717000000000
 11
44.075882000000000
 21
167.396717000000000
  0
LINE
  8
0
  6
CONTINUOUS
 62
256
 10
141.075882000000010
 20
227.396717000000000
 11
221.769905999999990
 21
227.396717000000000
  0
LINE
  8
0
  6
CONTINUOUS
 62
256
 10
244.075882000000010
 20
167.396717000000000
 11
244.075882000000010
 21
214.839922000000000
  0
ARC
  8
0
  6
CONTINUOUS
 62
256
 10
221.769905999999990
 20
207.396717000000000
 40
19.999999999999979
 50
55.000000000000000
 51
90.000000000000000
  0
LINE
  8
0
  6
CONTINUOUS
 62
256
 10
233.241434000000000
 20
223.779757999999990
 11
242.967180000000010
 21
216.969718000000000
  0
ARC
  8
0
  6
CONTINUOUS
 62
256
 10
241.475882000000010
 20
214.839922000000000
 40
2.599999999999994
 50
0.000000000000000
 51
54.999999999999801
  0
LINE
  8
0
  6
CONTINUOUS
 62
256
 10
141.075882000000010
 20
109.896717000000000
 11
44.075882000000000
 21
109.896717000000000
  0
LINE
  8
0
  6
CONTINUOUS
 62
256
 10
141.075882000000010
 20
110.396717000000000
 11
44.075882000000000
 21
110.396717000000000
  0
LINE
  8
0
  6
CONTINUOUS
 62
256
 10
141.075882000000010
 20
111.396717000000000
 11
44.075882000000000
 21
111.396717000000000
  0
LINE
  8
0
  6
CONTINUOUS
 62
256
 10
141.075882000000010
 20
112.396717000000000
 11
44.075882000000000
 21
112.396717000000000
  0
POLYLINE
  8
0
  6
CONTINUOUS
 62
256
 66
1
 70
1
  0
VERTEX
  8
0
  6
CONTINUOUS
 62
256
 10
156.775882000000000
 20
219.320242000000010
  0
VERTEX
  8
0
  6
CONTINUOUS
 62
256
 10
156.685572817895180
 20
220.023198510558190
  0
VERTEX
  8
0
  6
CONTINUOUS
 62
256
 10
156.418115802803040
 20
220.699140796638150
  0
VERTEX
  8
0
  6
CONTINUOUS
 62
256
 10
155.983789177821960
 20
221.322092775258680
  0
VERTEX
  8
0
  6
CONTINUOUS
 62
256
 10
155.399283871576780
 20
221.868114751236850
  0
VERTEX
  8
0
  6
CONTINUOUS
 62
256
 10
154.687062095192120
 20
222.316223406248500
  0
VERTEX
  8
0
  6
CONTINUOUS
 62
256
 10
153.874494132115930
 20
222.649198175983740
  0
VERTEX
  8
0
  6
CONTINUOUS
 62
256
 10
152.992806513475810
 20
222.854243026776090
  0
VERTEX
  8
0
  6
CONTINUOUS
 62
256
 10
152.075882000000010
 20
222.923478200000010
  0
VERTEX
  8
0
  6
CONTINUOUS
 62
256
 10
151.158957486524200
 20
222.854243026776090
  0
VERTEX
  8
0
  6
CONTINUOUS
 62
256
 10
150.277269867884090
 20
222.649198175983740
  0
VERTEX
  8
0
  6
CONTINUOUS
 62
256
 10
149.464701904807900
 20
222.316223406248500
  0
VERTEX
  8
0
  6
CONTINUOUS
 62
256
 10
148.752480128423230
 20
221.868114751236850
  0
VERTEX
  8
0
  6
CONTINUOUS
 62
256
 10
148.167974822178050
 20
221.322092775258680
  0
VERTEX
  8
0
  6
CONTINUOUS
 62
256
 10
147.733648197196970
 20
220.699140796638150
  0
VERTEX
  8
0
  6
CONTINUOUS
 62
256
 10
147.466191182104840
 20
220.023198510558190
  0
VERTEX
  8
0
  6
CONTINUOUS
 62
256
 10
147.375882000000020
 20
219.320242000000010
  0
VERTEX
  8
0
  6
CONTINUOUS
 62
256
 10
147.466191182104840
 20
218.617285489441830
  0
VERTEX
  8
0
  6
CONTINUOUS
 62
256
 10
147.733648197196970
 20
217.941343203361870
  0
VERTEX
  8
0
  6
CONTINUOUS
 62
256
 10
148.167974822178050
 20
217.318391224741330
  0
VERTEX
  8
0
  6
CONTINUOUS
 62
256
 10
148.752480128423230
 20
216.772369248763170
  0
VERTEX
  8
0
  6
CONTINUOUS
 62
256
 10
149.464701904807900
 20
216.324260593751520
  0
VERTEX
  8
0
  6
CONTINUOUS
 62
256
 10
150.277269867884090
 20
215.991285824016270
  0
VERTEX
  8
0
  6
CONTINUOUS
 62
256
 10
151.158957486524200
 20
215.786240973223950
  0
VERTEX
  8
0
  6
CONTINUOUS
 62
256
 10
152.075882000000010
 20
215.717005800000010
  0
VERTEX
  8
0
  6
CONTINUOUS
 62
256
 10
152.992806513475810
 20
215.786240973223950
  0
VERTEX
  8
0
  6
CONTINUOUS
 62
256
 10
153.874494132115930
 20
215.991285824016270
  0
VERTEX
  8
0
  6
CONTINUOUS
 62
256
 10
154.687062095192120
 20
216.324260593751520
  0
VERTEX
  8
0
  6
CONTINUOUS
 62
256
 10
155.399283871576760
 20
216.772369248763170
  0
VERTEX
  8
0
  6
CONTINUOUS
 62
256
 10
155.983789177821960
 20
217.318391224741330
  0
VERTEX
  8
0
  6
CONTINUOUS
 62
256
 10
156.418115802803040
 20
217.941343203361870
  0
VERTEX
  8
0
  6
CONTINUOUS
 62
256
 10
156.685572817895180
 20
218.617285489441830
  0
SEQEND
  8
0
  6
CONTINUOUS
 62
256
  0
LINE
  8
0
  6
CONTINUOUS
 62
256
 10
154.075882000000010
 20
222.312617999999990
 11
152.075882000000010
 21
221.136832000000000
  0
LINE
  8
0
  6
CONTINUOUS
 62
256
 10
152.075882000000010
 20
221.136832000000000
 11
150.075882000000010
 21
219.484191000000010
  0
LINE
  8
0
  6
CONTINUOUS
 62
256
 10
150.075882000000010
 20
222.312617999999990
 11
152.075882000000010
 21
221.136832000000000
  0
LINE
  8
0
  6
CONTINUOUS
 62
256
 10
152.075882000000010
 20
221.136832000000000
 11
154.075882000000010
 21
219.484191000000010
  0
LINE
  8
0
  6
DASHDOT
 62
256
 10
-182.410181999999990
 20
167.396717000000000
 11
254.005094000000010
 21
167.396717000000000
  0
LINE
  8
0
  6
CONTINUOUS
 62
256
 10
44.075882000000000
 20
108.896717000000000
 11
141.075882000000010
 21
108.896717000000000
  0
LINE
  8
0
  6
CONTINUOUS
 62
256
 10
44.075882000000000
 20
108.896717000000000
 11
44.075882000000000
 21
167.396717000000000
  0
ARC
  8
0
  6
CONTINUOUS
 62
256
 10
59.875881999999997
 20
132.396717000000000
 40
1.000000000000000
 50
180.000000000000000
 51
270.000000000000000
  0
ARC
  8
0
  6
CONTINUOUS
 62
256
 10
59.875881999999997
 20
202.396717000000000
 40
1.000000000000000
 50
90.000000000000000
 51
180.000000000000000
  0
LINE
  8
0
  6
CONTINUOUS
 62
256
 10
58.875881999999997
 20
202.396717000000000
 11
58.875881999999997
 21
132.396717000000000
  0
ARC
  8
0
  6
CONTINUOUS
 62
256
 10
147.875881999999990
 20
202.396717000000000
 40
1.000000000000000
 50
0.000000000000000
 51
90.000000000000000
  0
ARC
  8
0
  6
CONTINUOUS
 62
256
 10
147.875881999999990
 20
132.396717000000000
 40
1.000000000000000
 50
270.000000000000000
 51
0.000000000000000
  0
LINE
  8
0
  6
CONTINUOUS
 62
256
 10
148.875881999999990
 20
202.396717000000000
 11
148.875881999999990
 21
132.396717000000000
  0
LINE
  8
0
  6
CONTINUOUS
 62
256
 10
59.875881999999997
 20
203.396717000000000
 11
147.875881999999990
 21
203.396717000000000
  0
LINE
  8
0
  6
CONTINUOUS
 62
256
 10
59.875881999999997
 20
131.396717000000000
 11
147.875881999999990
 21
131.396717000000000
  0
LINE
  8
0
  6
CONTINUOUS
 62
256
 10
58.875881999999997
 20
199.147509000000010
 11
44.075882000000000
 21
199.147509000000010
  0
LINE
  8
0
  6
CONTINUOUS
 62
256
 10
59.176284000000003
 20
203.111254000000000
 11
44.075882000000000
 21
203.111254000000000
  0
LINE
  8
0
  6
CONTINUOUS
 62
256
 10
59.176284000000003
 20
131.682179999999990
 11
44.075882000000000
 21
131.682179999999990
  0
TEXT
  8
0
  6
CONTINUOUS
 62
256
 10
550.879089355468750
 20
-246.904022216796870
 40
3.299999952316284
  1
1/1
 50
0.000002504478167
 41
0.850909097352304
  7
STANDARD1
  0
TEXT
  8
0
  6
CONTINUOUS
 62
256
 10
548.461120605468750
 20
-246.904022216796870
 40
3.299999952316284
  1
 
 50
0.000002504478167
 41
1.733333298293026
  7
STANDARD1
  0
TEXT
  8
0
  6
CONTINUOUS
 62
256
 10
535.410461425781250
 20
-246.904022216796870
 40
3.299999952316284
  1
SCALE
 50
0.000002504478167
 41
0.821052645401140
  7
STANDARD1
  0
TEXT
  8
0
  6
CONTINUOUS
 62
256
 10
532.159118652343750
 20
-246.904022216796870
 40
3.299999952316284
  1
 
 50
0.000002504478167
 41
1.733333298293026
  7
STANDARD1
  0
TEXT
  8
0
  6
CONTINUOUS
 62
256
 10
547.013305664062500
 20
-241.604019165039060
 40
3.299999952316284
  1
1/240
 50
0.000002504478167
 41
0.821052645401140
  7
STANDARD1
  0
TEXT
  8
0
  6
CONTINUOUS
 62
256
 10
543.231262207031250
 20
-241.604019165039060
 40
3.299999952316284
  1
ü`
 50
0.000002504478167
 41
1.176000019651471
  7
STANDARD1
  0
TEXT
  8
0
  6
CONTINUOUS
 62
256
 10
532.159118652343750
 20
-241.604019165039060
 40
3.299999952316284
  1
1/80
 50
0.000002504478167
 41
0.832000075658163
  7
STANDARD1
  0
TEXT
  8
0
  6
CONTINUOUS
 62
256
 10
532.159118652343750
 20
-236.304016113281250
 40
3.299999952316284
  1
GM-SHYFB-RL
 50
0.000002504478167
 41
0.798139564113939
  7
STANDARD1
  0
TEXT
  8
0
  6
CONTINUOUS
 62
256
 10
537.984497070312500
 20
-231.004028320312500
 40
3.299999952316284
  1
0.4kW
 50
0.000002504478167
 41
0.821052645401140
  7
STANDARD1
  0
TEXT
  8
0
  6
CONTINUOUS
 62
256
 10
532.159118652343750
 20
-231.004028320312500
 40
3.299999952316284
  1
  
 50
0.000002504478167
 41
1.485714400175845
  7
STANDARD1
  0
TEXT
  8
0
  6
CONTINUOUS
 62
256
 10
537.978576660156250
 20
-225.704025268554690
 40
3.299999952316284
  1
SHY085
 50
0.000002504478167
 41
0.813913121261144
  7
STANDARD1
  0
TEXT
  8
0
  6
CONTINUOUS
 62
256
 10
532.159118652343750
 20
-225.704025268554690
 40
3.299999952316284
  1
  
 50
0.000002504478167
 41
1.485714400175845
  7
STANDARD1
  0
LINE
  8
0
  6
CONTINUOUS
 62
256
 10
482.944076000000000
 20
-19.887013000000000
 11
472.944076000000000
 21
-20.061564000000001
  0
LINE
  8
0
  6
CONTINUOUS
 62
256
 10
494.944474000000010
 20
-20.096481000000001
 11
482.944076000000000
 21
-19.887013000000000
  0
LINE
  8
0
  6
CONTINUOUS
 62
256
 10
482.944076000000000
 20
-19.887013000000000
 11
482.944076000000000
 21
-50.640050000000002
  0
LINE
  8
0
  6
CONTINUOUS
 62
256
 10
494.944474000000010
 20
-44.378286000000003
 11
499.944474000000010
 21
-44.378286000000003
  0
LINE
  8
0
  6
CONTINUOUS
 62
256
 10
499.944474000000010
 20
-91.878286000000003
 11
499.944474000000010
 21
-44.378286000000003
  0
LINE
  8
0
  6
CONTINUOUS
 62
256
 10
494.944474000000010
 20
-73.263644999999997
 11
494.944474000000010
 21
-20.096481000000001
  0
LINE
  8
0
  6
CONTINUOUS
 62
256
 10
499.944474000000010
 20
-91.878286000000003
 11
499.944474000000010
 21
-139.378286000000000
  0
LINE
  8
0
  6
CONTINUOUS
 62
256
 10
495.313078000000020
 20
-139.378286000000000
 11
499.944474000000010
 21
-139.378286000000000
  0
LINE
  8
0
  6
CONTINUOUS
 62
256
 10
494.944474000000010
 20
-195.160167000000000
 11
494.444626000000030
 21
-195.668815000000000
  0
LINE
  8
0
  6
CONTINUOUS
 62
256
 10
494.444626000000030
 20
-195.668815000000000
 11
482.944076000000000
 21
-195.869558000000010
  0
LINE
  8
0
  6
CONTINUOUS
 62
256
 10
494.944474000000010
 20
-142.492613000000010
 11
494.944474000000010
 21
-195.160167000000000
  0
LINE
  8
0
  6
CONTINUOUS
 62
256
 10
482.944076000000000
 20
-165.116208000000000
 11
482.944076000000000
 21
-195.869558000000010
  0
LINE
  8
0
  6
CONTINUOUS
 62
256
 10
482.944076000000000
 20
-195.869558000000010
 11
388.444076000000000
 21
-194.220055000000000
  0
LINE
  8
0
  6
CONTINUOUS
 62
256
 10
388.444076000000000
 20
-194.220055000000000
 11
378.944076000000000
 21
-194.220055000000000
  0
LINE
  8
0
  6
CONTINUOUS
 62
256
 10
378.944076000000000
 20
-142.496044000000010
 11
378.944076000000000
 21
-194.220055000000000
  0
LINE
  8
0
  6
CONTINUOUS
 62
256
 10
316.944280999999990
 20
-72.878129000000001
 11
316.944280999999990
 21
-107.078129000000000
  0
ARC
  8
0
  6
CONTINUOUS
 62
256
 10
317.744281000000000
 20
-107.078129000000000
 40
0.800000000000011
 50
180.000000000000000
 51
270.000000000000000
  0
ARC
  8
0
  6
CONTINUOUS
 62
256
 10
317.744281000000000
 20
-76.678128999999998
 40
0.799999999999997
 50
90.000000000000000
 51
180.000000000000000
  0
LINE
  8
0
  6
DASHDOT
 62
256
 10
313.890689000000010
 20
-91.878129000000001
 11
508.313491000000000
 21
-91.878129000000001
  0
LINE
  8
0
  6
CONTINUOUS
 62
256
 10
371.544213000000010
 20
-107.878129000000000
 11
317.744281000000000
 21
-107.878129000000000
  0
LINE
  8
0
  6
CONTINUOUS
 62
256
 10
371.544213000000010
 20
-75.878129000000001
 11
317.744281000000000
 21
-75.878129000000001
  0
LINE
  8
0
  6
CONTINUOUS
 62
256
 10
356.944280999999990
 20
-72.878129000000001
 11
316.944280999999990
 21
-72.878129000000001
  0
LINE
  8
0
  6
CONTINUOUS
 62
256
 10
356.944280999999990
 20
-72.878129000000001
 11
356.944280999999990
 21
-75.878129000000001
  0
LINE
  8
0
  6
CONTINUOUS
 62
256
 10
371.944212999999990
 20
-74.778129000000007
 11
371.944212999999990
 21
-108.978129000000000
  0
ARC
  8
0
  6
CONTINUOUS
 62
256
 10
371.544213000000010
 20
-108.278129000000010
 40
0.399999999999977
 50
0.000000000000000
 51
90.000000000000000
  0
ARC
  8
0
  6
CONTINUOUS
 62
256
 10
372.344213000000020
 20
-108.978129000000000
 40
0.399999999999977
 50
180.000000000000000
 51
270.000000000000000
  0
LINE
  8
0
  6
CONTINUOUS
 62
256
 10
373.944076000000000
 20
-109.378129000000000
 11
372.344213000000020
 21
-109.378129000000000
  0
ARC
  8
0
  6
CONTINUOUS
 62
256
 10
371.544213000000010
 20
-75.478128999999996
 40
0.400000000000006
 50
270.000000000000000
 51
0.000000000000000
  0
ARC
  8
0
  6
CONTINUOUS
 62
256
 10
372.344213000000020
 20
-74.778129000000007
 40
0.400000000000006
 50
90.000000000000000
 51
180.000000000000000
  0
LINE
  8
0
  6
CONTINUOUS
 62
256
 10
373.944076000000000
 20
-74.378129000000001
 11
372.344213000000020
 21
-74.378129000000001
  0
LINE
  8
0
  6
CONTINUOUS
 62
256
 10
373.944076000000000
 20
-139.369558000000010
 11
378.575073999999970
 21
-139.369558000000010
  0
LINE
  8
0
  6
CONTINUOUS
 62
256
 10
400.944076000000000
 20
-21.318328999999999
 11
388.444076000000000
 21
-21.536517000000000
  0
LINE
  8
0
  6
CONTINUOUS
 62
256
 10
373.944076000000000
 20
-44.378286000000003
 11
378.944076000000000
 21
-44.378286000000003
  0
LINE
  8
0
  6
CONTINUOUS
 62
256
 10
373.944076000000000
 20
-44.378286000000003
 11
373.944076000000000
 21
-139.378286000000000
  0
LINE
  8
0
  6
CONTINUOUS
 62
256
 10
388.444076000000000
 20
-21.536517000000000
 11
378.944076000000000
 21
-21.536517000000000
  0
LINE
  8
0
  6
CONTINUOUS
 62
256
 10
378.944076000000000
 20
-21.536517000000000
 11
378.944076000000000
 21
-73.260215000000002
  0
LINE
  8
0
  6
DASHDOT
 62
256
 10
436.944076000000000
 20
-174.655781999999990
 11
436.944076000000000
 21
3.827383000000000
  0
LINE
  8
0
  6
DASHDOT
 62
256
 10
502.949360000000010
 20
-107.878129000000000
 11
372.114847999999990
 21
-107.878129000000000
  0
ARC
  8
0
  6
CONTINUOUS
 62
256
 10
436.944076000000000
 20
-310.378129000000000
 40
300.000000000000000
 50
83.967950999999999
 51
96.032049000000001
  0
LINE
  8
0
  6
CONTINUOUS
 62
256
 10
439.444076000000000
 20
-10.388546000000000
 11
439.444076000000000
 21
-9.878129000000000
  0
LINE
  8
0
  6
CONTINUOUS
 62
256
 10
434.444076000000000
 20
-10.378131000000000
 11
434.444076000000000
 21
-9.878129000000000
  0
LINE
  8
0
  6
CONTINUOUS
 62
256
 10
439.444076000000000
 20
-9.878129000000000
 11
434.444076000000000
 21
-9.878129000000000
  0
ARC
  8
0
  6
CONTINUOUS
 62
256
 10
467.944076000000000
 20
-17.011465000000001
 40
5.000000000000000
 50
0.000000000000000
 51
83.967950999999999
  0
LINE
  8
0
  6
CONTINUOUS
 62
256
 10
472.944076000000000
 20
-45.571826000000001
 11
472.944076000000000
 21
-17.011465000000001
  0
LINE
  8
0
  6
CONTINUOUS
 62
256
 10
400.944076000000000
 20
-45.571826000000001
 11
400.944076000000000
 21
-17.011465000000001
  0
ARC
  8
0
  6
CONTINUOUS
 62
256
 10
405.944076000000000
 20
-17.011465000000001
 40
5.000000000000000
 50
96.032049000000015
 51
180.000000000000000
  0
LINE
  8
0
  6
CONTINUOUS
 62
256
 10
466.936575000000000
 20
-44.378129000000001
 11
472.944076000000000
 21
-44.378129000000001
  0
LINE
  8
0
  6
CONTINUOUS
 62
256
 10
406.951576999999990
 20
-44.378129000000001
 11
400.944076000000000
 21
-44.378129000000001
  0
ARC
  8
0
  6
CONTINUOUS
 62
256
 10
436.944076000000000
 20
127.721870999999990
 40
289.396999999999990
 50
270.000000000000000
 51
276.051985000000000
  0
ARC
  8
0
  6
CONTINUOUS
 62
256
 10
465.832106000000010
 20
-144.751029999999990
 40
15.397000000000000
 50
276.051984999999890
 51
314.999999999999940
  0
LINE
  8
0
  6
CONTINUOUS
 62
256
 10
481.295494000000020
 20
-151.062288000000000
 11
476.719428999999990
 21
-155.638353000000000
  0
ARC
  8
0
  6
CONTINUOUS
 62
256
 10
477.052854000000020
 20
-146.819647000000000
 40
5.999999999999989
 50
314.999999999999770
 51
352.102010999999950
  0
ARC
  8
0
  6
CONTINUOUS
 62
256
 10
196.344076000000000
 20
-107.878129000000000
 40
289.396999999999990
 50
352.102011000000000
 51
360.000000000000000
  0
ARC
  8
0
  6
CONTINUOUS
 62
256
 10
436.944076000000000
 20
-343.478129000000020
 40
289.396999999999990
 50
83.948014999999998
 51
90.000000000000000
  0
ARC
  8
0
  6
CONTINUOUS
 62
256
 10
465.832106000000010
 20
-71.005228000000002
 40
15.397000000000016
 50
44.999999999999929
 51
83.948015000000069
  0
LINE
  8
0
  6
CONTINUOUS
 62
256
 10
481.295494000000020
 20
-64.693971000000005
 11
476.719428999999990
 21
-60.117905000000000
  0
ARC
  8
0
  6
CONTINUOUS
 62
256
 10
477.052854000000020
 20
-68.936610999999999
 40
5.999999999999990
 50
7.897989000000010
 51
45.000000000000192
  0
ARC
  8
0
  6
CONTINUOUS
 62
256
 10
196.344076000000000
 20
-107.878129000000000
 40
289.397000000000050
 50
0.000000000000000
 51
7.897989000000000
  0
ARC
  8
0
  6
CONTINUOUS
 62
256
 10
436.944076000000000
 20
-343.478129000000020
 40
289.396999999999990
 50
90.000000000000000
 51
96.051985000000002
  0
ARC
  8
0
  6
CONTINUOUS
 62
256
 10
408.056045999999980
 20
-71.005228000000002
 40
15.397000000000000
 50
96.051984999999931
 51
135.000000000000090
  0
LINE
  8
0
  6
CONTINUOUS
 62
256
 10
392.592657999999970
 20
-64.693971000000005
 11
397.168723000000000
 21
-60.117905000000000
  0
ARC
  8
0
  6
CONTINUOUS
 62
256
 10
396.835299000000020
 20
-68.936610999999999
 40
5.999999999999989
 50
134.999999999999830
 51
172.102011000000000
  0
ARC
  8
0
  6
CONTINUOUS
 62
256
 10
677.544076000000020
 20
-107.878129000000000
 40
289.396999999999990
 50
172.102011000000030
 51
180.000000000000000
  0
ARC
  8
0
  6
CONTINUOUS
 62
256
 10
436.944076000000000
 20
127.721870999999990
 40
289.397000000000050
 50
263.948015000000000
 51
270.000000000000000
  0
LINE
  8
0
  6
CONTINUOUS
 62
256
 10
392.592657999999970
 20
-151.062288000000000
 11
397.168723000000000
 21
-155.638353000000000
  0
ARC
  8
0
  6
CONTINUOUS
 62
256
 10
408.056045999999980
 20
-144.751029999999990
 40
15.397000000000016
 50
224.999999999999910
 51
263.948015000000110
  0
ARC
  8
0
  6
CONTINUOUS
 62
256
 10
465.832106000000010
 20
-71.005228000000002
 40
26.600000000000016
 50
44.999999999999957
 51
83.948015000000026
  0
LINE
  8
0
  6
CONTINUOUS
 62
256
 10
491.707595000000030
 20
-59.262636999999998
 11
484.641145999999990
 21
-52.196187999999999
  0
ARC
  8
0
  6
CONTINUOUS
 62
256
 10
436.944076000000000
 20
-343.478129000000020
 40
300.600000000000020
 50
83.948014999999998
 51
96.051985000000002
  0
ARC
  8
0
  6
CONTINUOUS
 62
256
 10
465.832106000000010
 20
-144.751029999999990
 40
26.600000000000009
 50
276.051984999999950
 51
315.000000000000060
  0
ARC
  8
0
  6
CONTINUOUS
 62
256
 10
436.944076000000000
 20
127.721870999999990
 40
300.600000000000020
 50
263.948015000000000
 51
276.051985000000000
  0
LINE
  8
0
  6
CONTINUOUS
 62
256
 10
491.707595000000030
 20
-156.493620999999990
 11
484.641145999999990
 21
-163.560070999999990
  0
ARC
  8
0
  6
CONTINUOUS
 62
256
 10
408.056045999999980
 20
-144.751029999999990
 40
26.600000000000016
 50
224.999999999999940
 51
263.948015000000050
  0
LINE
  8
0
  6
CONTINUOUS
 62
256
 10
382.180557000000020
 20
-156.493620999999990
 11
389.247006000000000
 21
-163.560070999999990
  0
ARC
  8
0
  6
CONTINUOUS
 62
256
 10
408.056045999999980
 20
-71.005228000000002
 40
26.599999999999994
 50
96.051984999999974
 51
135.000000000000060
  0
LINE
  8
0
  6
CONTINUOUS
 62
256
 10
382.180557000000020
 20
-59.262636999999998
 11
389.247006000000000
 21
-52.196187999999999
  0
ARC
  8
0
  6
CONTINUOUS
 62
256
 10
487.040690999999980
 20
-151.826717000000000
 40
6.600000000000017
 50
315.000000000000170
 51
351.402917999999940
  0
ARC
  8
0
  6
CONTINUOUS
 62
256
 10
196.344076000000000
 20
-107.878129000000000
 40
300.600000000000020
 50
351.402918000000000
 51
0.000000000000000
  0
ARC
  8
0
  6
CONTINUOUS
 62
256
 10
487.040690999999980
 20
-63.929541999999998
 40
6.600000000000021
 50
8.597081999999979
 51
44.999999999999829
  0
ARC
  8
0
  6
CONTINUOUS
 62
256
 10
677.544076000000020
 20
-107.878129000000000
 40
300.600000000000020
 50
171.402918000000000
 51
180.000000000000000
  0
ARC
  8
0
  6
CONTINUOUS
 62
256
 10
386.847462000000010
 20
-63.929541999999998
 40
6.600000000000017
 50
135.000000000000170
 51
171.402918000000030
  0
ARC
  8
0
  6
CONTINUOUS
 62
256
 10
196.344076000000000
 20
-107.878129000000000
 40
300.600000000000020
 50
0.000000000000000
 51
8.597082000000000
  0
ARC
  8
0
  6
CONTINUOUS
 62
256
 10
677.544076000000020
 20
-107.878129000000000
 40
300.600000000000020
 50
180.000000000000000
 51
188.597082000000000
  0
ARC
  8
0
  6
CONTINUOUS
 62
256
 10
395.637296999999990
 20
-103.878129000000000
 40
1.499999999999979
 50
174.468927999999720
 51
270.000000000000000
  0
ARC
  8
0
  6
CONTINUOUS
 62
256
 10
395.637296999999990
 20
-111.878129000000000
 40
1.500000000000000
 50
90.000000000000000
 51
185.531072000000280
  0
ARC
  8
0
  6
CONTINUOUS
 62
256
 10
436.944076000000000
 20
-107.878129000000000
 40
17.999999999999989
 50
131.837003999999920
 51
168.162995999999990
  0
ARC
  8
0
  6
CONTINUOUS
 62
256
 10
436.944076000000000
 20
-107.878129000000000
 40
27.499999999999989
 50
187.928142000000010
 51
232.071858000000050
  0
LINE
  8
0
  6
CONTINUOUS
 62
256
 10
395.637296999999990
 20
-105.378129000000000
 11
398.652431999999980
 21
-105.378129000000000
  0
LINE
  8
0
  6
CONTINUOUS
 62
256
 10
415.633191000000010
 20
-75.966593000000003
 11
414.125623000000020
 21
-73.355408999999995
  0
LINE
  8
0
  6
CONTINUOUS
 62
256
 10
405.195060000000010
 20
-105.378129000000000
 11
408.221263000000020
 21
-105.378129000000000
  0
ARC
  8
0
  6
CONTINUOUS
 62
256
 10
405.195060000000010
 20
-103.878129000000000
 40
1.500000000000028
 50
172.819243999999910
 51
270.000000000000000
  0
ARC
  8
0
  6
CONTINUOUS
 62
256
 10
398.652431999999980
 20
-103.878129000000000
 40
1.500000000000000
 50
270.000000000000000
 51
354.036430000000220
  0
ARC
  8
0
  6
CONTINUOUS
 62
256
 10
412.826585000000020
 20
-74.105408999999995
 40
1.500000000000025
 50
29.999999999999456
 51
125.531071999999480
  0
ARC
  8
0
  6
CONTINUOUS
 62
256
 10
436.944076000000000
 20
-107.878129000000000
 40
43.000000000000014
 50
125.531072000000020
 51
174.468928000000010
  0
ARC
  8
0
  6
CONTINUOUS
 62
256
 10
419.754788000000020
 20
-70.105408999999995
 40
1.500000000000002
 50
114.468927999999780
 51
210.000000000000510
  0
LINE
  8
0
  6
CONTINUOUS
 62
256
 10
419.963318000000020
 20
-73.466593000000003
 11
418.455750000000020
 21
-70.855408999999995
  0
ARC
  8
0
  6
CONTINUOUS
 62
256
 10
421.262356000000010
 20
-72.716593000000003
 40
1.499999999999975
 50
210.000000000000510
 51
294.036429999999600
  0
ARC
  8
0
  6
CONTINUOUS
 62
256
 10
436.944076000000000
 20
-107.878129000000000
 40
37.000000000000000
 50
65.963570000000033
 51
114.036429999999970
  0
ARC
  8
0
  6
CONTINUOUS
 62
256
 10
436.944076000000000
 20
-107.878129000000000
 40
43.000000000000007
 50
65.531071999999980
 51
114.468928000000030
  0
ARC
  8
0
  6
CONTINUOUS
 62
256
 10
454.133363999999970
 20
-70.105408999999995
 40
1.499999999999975
 50
329.999999999999490
 51
65.531072000000222
  0
LINE
  8
0
  6
CONTINUOUS
 62
256
 10
455.432402000000020
 20
-70.855408999999995
 11
453.924834999999970
 21
-73.466593000000003
  0
ARC
  8
0
  6
CONTINUOUS
 62
256
 10
452.625795999999980
 20
-72.716593000000003
 40
1.499999999999999
 50
245.963570000000350
 51
329.999999999999490
  0
ARC
  8
0
  6
CONTINUOUS
 62
256
 10
461.061567000000030
 20
-74.105408999999995
 40
1.499999999999989
 50
54.468928000000517
 51
149.999999999999460
  0
LINE
  8
0
  6
CONTINUOUS
 62
256
 10
459.762528999999970
 20
-73.355408999999995
 11
458.254961999999980
 21
-75.966593000000003
  0
LINE
  8
0
  6
CONTINUOUS
 62
256
 10
395.637296999999990
 20
-110.378129000000000
 11
398.652431999999980
 21
-110.378129000000000
  0
ARC
  8
0
  6
CONTINUOUS
 62
256
 10
398.652431999999980
 20
-111.878129000000000
 40
1.500000000000012
 50
5.963569999999792
 51
90.000000000000000
  0
LINE
  8
0
  6
CONTINUOUS
 62
256
 10
405.195060000000010
 20
-110.378129000000000
 11
408.221263000000020
 21
-110.378129000000000
  0
ARC
  8
0
  6
CONTINUOUS
 62
256
 10
405.195060000000010
 20
-111.878129000000000
 40
1.500000000000000
 50
90.000000000000000
 51
187.180756000000090
  0
ARC
  8
0
  6
CONTINUOUS
 62
256
 10
436.944076000000000
 20
-107.878129000000000
 40
23.999999999999996
 50
190.240348000000040
 51
229.759652000000020
  0
ARC
  8
0
  6
CONTINUOUS
 62
256
 10
422.409179999999990
 20
-125.053309000000000
 40
1.499999999999991
 50
229.759652000000220
 51
329.999999999999490
  0
LINE
  8
0
  6
CONTINUOUS
 62
256
 10
425.236344999999970
 20
-123.156514000000000
 11
423.708217999999990
 21
-125.803309000000000
  0
ARC
  8
0
  6
CONTINUOUS
 62
256
 10
423.937306999999980
 20
-122.406514000000000
 40
1.499999999999975
 50
329.999999999999490
 51
48.162996000000220
  0
ARC
  8
0
  6
CONTINUOUS
 62
256
 10
436.944076000000000
 20
-107.878129000000000
 40
17.999999999999975
 50
191.837004000000010
 51
228.162996000000020
  0
ARC
  8
0
  6
CONTINUOUS
 62
256
 10
417.858741000000010
 20
-111.878129000000000
 40
1.499999999999997
 50
11.837003999999803
 51
90.000000000000000
  0
LINE
  8
0
  6
CONTINUOUS
 62
256
 10
414.802485999999990
 20
-110.378129000000000
 11
417.858741000000010
 21
-110.378129000000000
  0
ARC
  8
0
  6
CONTINUOUS
 62
256
 10
414.802485999999990
 20
-111.878129000000000
 40
1.500000000000000
 50
90.000000000000000
 51
190.240347999999700
  0
ARC
  8
0
  6
CONTINUOUS
 62
256
 10
436.944076000000000
 20
-107.878129000000000
 40
14.500000000000011
 50
197.920212999999930
 51
222.079786999999930
  0
ARC
  8
0
  6
CONTINUOUS
 62
256
 10
427.295316000000010
 20
-116.590272000000000
 40
1.499999999999994
 50
222.079787000000180
 51
329.999999999999490
  0
LINE
  8
0
  6
CONTINUOUS
 62
256
 10
430.196437000000000
 20
-114.565383000000000
 11
428.594354000000010
 21
-117.340272000000000
  0
ARC
  8
0
  6
CONTINUOUS
 62
256
 10
428.897399000000010
 20
-113.815383000000000
 40
1.499999999999975
 50
329.999999999999490
 51
36.421821999999963
  0
ARC
  8
0
  6
CONTINUOUS
 62
256
 10
436.944076000000000
 20
-107.878129000000000
 40
8.499999999999991
 50
203.578178000000070
 51
216.421822000000050
  0
ARC
  8
0
  6
CONTINUOUS
 62
256
 10
427.778925000000020
 20
-111.878129000000000
 40
1.499999999999984
 50
23.578178000000403
 51
90.000000000000000
  0
LINE
  8
0
  6
CONTINUOUS
 62
256
 10
424.574758999999970
 20
-110.378129000000000
 11
427.778925000000020
 21
-110.378129000000000
  0
ARC
  8
0
  6
CONTINUOUS
 62
256
 10
424.574758999999970
 20
-111.878129000000000
 40
1.500000000000000
 50
90.000000000000000
 51
197.920212999999450
  0
ARC
  8
0
  6
CONTINUOUS
 62
256
 10
436.944076000000000
 20
-107.878129000000000
 40
23.999999999999993
 50
10.240347999999988
 51
49.759652000000010
  0
ARC
  8
0
  6
CONTINUOUS
 62
256
 10
459.085666000000000
 20
-103.878129000000000
 40
1.500000000000000
 50
270.000000000000000
 51
10.240347999999715
  0
LINE
  8
0
  6
CONTINUOUS
 62
256
 10
456.029410999999980
 20
-105.378129000000000
 11
459.085666000000000
 21
-105.378129000000000
  0
ARC
  8
0
  6
CONTINUOUS
 62
256
 10
456.029410999999980
 20
-103.878129000000000
 40
1.499999999999997
 50
191.837003999999810
 51
270.000000000000000
  0
ARC
  8
0
  6
CONTINUOUS
 62
256
 10
436.944076000000000
 20
-107.878129000000000
 40
17.999999999999975
 50
11.837004000000027
 51
48.162996000000071
  0
ARC
  8
0
  6
CONTINUOUS
 62
256
 10
449.950845000000020
 20
-93.349744999999999
 40
1.499999999999975
 50
149.999999999999460
 51
228.162996000000190
  0
LINE
  8
0
  6
CONTINUOUS
 62
256
 10
450.179934000000000
 20
-89.952950000000001
 11
448.651807000000020
 21
-92.599744999999999
  0
ARC
  8
0
  6
CONTINUOUS
 62
256
 10
451.478973000000000
 20
-90.702950000000001
 40
1.499999999999991
 50
49.759652000000230
 51
150.000000000000540
  0
ARC
  8
0
  6
CONTINUOUS
 62
256
 10
436.944076000000000
 20
-107.878129000000000
 40
14.500000000000014
 50
17.920213000000000
 51
42.079786999999946
  0
ARC
  8
0
  6
CONTINUOUS
 62
256
 10
449.313393000000020
 20
-103.878129000000000
 40
1.500000000000000
 50
270.000000000000000
 51
17.920212999999450
  0
LINE
  8
0
  6
CONTINUOUS
 62
256
 10
446.109226999999980
 20
-105.378129000000000
 11
449.313393000000020
 21
-105.378129000000000
  0
ARC
  8
0
  6
CONTINUOUS
 62
256
 10
446.109226999999980
 20
-103.878129000000000
 40
1.499999999999984
 50
203.578178000000380
 51
270.000000000000000
  0
ARC
  8
0
  6
CONTINUOUS
 62
256
 10
436.944076000000000
 20
-107.878129000000000
 40
8.499999999999991
 50
23.578178000000058
 51
36.421822000000063
  0
ARC
  8
0
  6
CONTINUOUS
 62
256
 10
444.990752999999980
 20
-101.940875000000010
 40
1.499999999999975
 50
149.999999999999460
 51
216.421821999999960
  0
LINE
  8
0
  6
CONTINUOUS
 62
256
 10
445.293797999999980
 20
-98.415987000000001
 11
443.691714999999990
 21
-101.190875000000010
  0
ARC
  8
0
  6
CONTINUOUS
 62
256
 10
446.592835999999980
 20
-99.165987000000001
 40
1.499999999999994
 50
42.079787000000181
 51
149.999999999999460
  0
ARC
  8
0
  6
CONTINUOUS
 62
256
 10
436.944076000000000
 20
-107.878129000000000
 40
24.000000000000004
 50
310.240347999999980
 51
349.759652000000020
  0
ARC
  8
0
  6
CONTINUOUS
 62
256
 10
459.085666000000000
 20
-111.878129000000000
 40
1.500000000000009
 50
349.759652000000300
 51
90.000000000000000
  0
LINE
  8
0
  6
CONTINUOUS
 62
256
 10
456.029410999999980
 20
-110.378129000000000
 11
459.085666000000000
 21
-110.378129000000000
  0
ARC
  8
0
  6
CONTINUOUS
 62
256
 10
456.029410999999980
 20
-111.878129000000000
 40
1.500000000000000
 50
90.000000000000000
 51
168.162996000000190
  0
ARC
  8
0
  6
CONTINUOUS
 62
256
 10
436.944076000000000
 20
-107.878129000000000
 40
17.999999999999989
 50
311.837003999999920
 51
348.162995999999960
  0
ARC
  8
0
  6
CONTINUOUS
 62
256
 10
449.950845000000020
 20
-122.406514000000000
 40
1.499999999999989
 50
131.837003999999810
 51
210.000000000000510
  0
LINE
  8
0
  6
CONTINUOUS
 62
256
 10
450.179934000000000
 20
-125.803309000000000
 11
448.651807000000020
 21
-123.156514000000000
  0
ARC
  8
0
  6
CONTINUOUS
 62
256
 10
451.478973000000000
 20
-125.053309000000000
 40
1.499999999999975
 50
210.000000000000510
 51
310.240347999999810
  0
ARC
  8
0
  6
CONTINUOUS
 62
256
 10
436.944076000000000
 20
-107.878129000000000
 40
14.500000000000021
 50
317.920213000000050
 51
342.079787000000010
  0
ARC
  8
0
  6
CONTINUOUS
 62
256
 10
449.313393000000020
 20
-111.878129000000000
 40
1.500000000000024
 50
342.079787000000580
 51
90.000000000000000
  0
LINE
  8
0
  6
CONTINUOUS
 62
256
 10
446.109226999999980
 20
-110.378129000000000
 11
449.313393000000020
 21
-110.378129000000000
  0
ARC
  8
0
  6
CONTINUOUS
 62
256
 10
446.109226999999980
 20
-111.878129000000000
 40
1.500000000000000
 50
90.000000000000000
 51
156.421821999999620
  0
ARC
  8
0
  6
CONTINUOUS
 62
256
 10
436.944076000000000
 20
-107.878129000000000
 40
8.499999999999989
 50
323.578177999999920
 51
336.421821999999910
  0
ARC
  8
0
  6
CONTINUOUS
 62
256
 10
444.990752999999980
 20
-113.815383000000000
 40
1.500000000000000
 50
143.578178000000040
 51
210.000000000000510
  0
LINE
  8
0
  6
CONTINUOUS
 62
256
 10
445.293797999999980
 20
-117.340272000000000
 11
443.691714999999990
 21
-114.565383000000000
  0
ARC
  8
0
  6
CONTINUOUS
 62
256
 10
446.592835999999980
 20
-116.590272000000000
 40
1.499999999999975
 50
210.000000000000510
 51
317.920212999999820
  0
ARC
  8
0
  6
CONTINUOUS
 62
256
 10
436.944076000000000
 20
-107.878129000000000
 40
23.999999999999993
 50
250.240348000000010
 51
289.759652000000020
  0
ARC
  8
0
  6
CONTINUOUS
 62
256
 10
429.337382999999990
 20
-129.053309000000010
 40
1.499999999999975
 50
149.999999999999460
 51
250.240347999999300
  0
LINE
  8
0
  6
CONTINUOUS
 62
256
 10
429.566471999999980
 20
-125.656514000000000
 11
428.038344999999990
 21
-128.303309000000010
  0
ARC
  8
0
  6
CONTINUOUS
 62
256
 10
430.865509999999970
 20
-126.406514000000000
 40
1.500000000000007
 50
71.837003999999709
 51
150.000000000000540
  0
ARC
  8
0
  6
CONTINUOUS
 62
256
 10
436.944076000000000
 20
-107.878129000000000
 40
17.999999999999996
 50
251.837003999999980
 51
288.162995999999960
  0
ARC
  8
0
  6
CONTINUOUS
 62
256
 10
443.022642000000020
 20
-126.406514000000000
 40
1.500000000000025
 50
29.999999999999456
 51
108.162996000000290
  0
LINE
  8
0
  6
CONTINUOUS
 62
256
 10
445.849807000000000
 20
-128.303309000000010
 11
444.321680000000010
 21
-125.656514000000000
  0
ARC
  8
0
  6
CONTINUOUS
 62
256
 10
444.550769000000000
 20
-129.053309000000010
 40
1.500000000000012
 50
289.759652000000640
 51
30.000000000000544
  0
ARC
  8
0
  6
CONTINUOUS
 62
256
 10
436.944076000000000
 20
-107.878129000000000
 40
14.500000000000002
 50
257.920213000000050
 51
282.079786999999950
  0
ARC
  8
0
  6
CONTINUOUS
 62
256
 10
434.223519000000010
 20
-120.590272000000000
 40
1.500000000000025
 50
150.000000000000540
 51
257.920213000000730
  0
LINE
  8
0
  6
CONTINUOUS
 62
256
 10
434.526564000000010
 20
-117.065383000000000
 11
432.924481000000010
 21
-119.840272000000000
  0
ARC
  8
0
  6
CONTINUOUS
 62
256
 10
435.825602000000000
 20
-117.815383000000000
 40
1.500000000000001
 50
83.578178000000747
 51
150.000000000000540
  0
ARC
  8
0
  6
CONTINUOUS
 62
256
 10
436.944076000000000
 20
-107.878129000000000
 40
8.500000000000007
 50
263.578177999999980
 51
276.421822000000020
  0
ARC
  8
0
  6
CONTINUOUS
 62
256
 10
438.062549999999990
 20
-117.815383000000000
 40
1.500000000000025
 50
29.999999999999456
 51
96.421821999999253
  0
LINE
  8
0
  6
CONTINUOUS
 62
256
 10
440.963670999999980
 20
-119.840272000000000
 11
439.361587999999980
 21
-117.065383000000000
  0
ARC
  8
0
  6
CONTINUOUS
 62
256
 10
439.664632999999980
 20
-120.590272000000000
 40
1.499999999999989
 50
282.079786999999270
 51
29.999999999999456
  0
ARC
  8
0
  6
CONTINUOUS
 62
256
 10
436.944076000000000
 20
-107.878129000000000
 40
23.999999999999993
 50
70.240348000000012
 51
109.759651999999990
  0
ARC
  8
0
  6
CONTINUOUS
 62
256
 10
429.337382999999990
 20
-86.702950000000001
 40
1.500000000000012
 50
109.759652000000680
 51
210.000000000000510
  0
LINE
  8
0
  6
CONTINUOUS
 62
256
 10
429.566471999999980
 20
-90.099744999999999
 11
428.038344999999990
 21
-87.452950000000001
  0
ARC
  8
0
  6
CONTINUOUS
 62
256
 10
430.865509999999970
 20
-89.349744999999999
 40
1.499999999999975
 50
210.000000000000510
 51
288.162996000000310
  0
ARC
  8
0
  6
CONTINUOUS
 62
256
 10
436.944076000000000
 20
-107.878129000000000
 40
17.999999999999996
 50
71.837004000000007
 51
108.162996000000010
  0
ARC
  8
0
  6
CONTINUOUS
 62
256
 10
443.022642000000020
 20
-89.349744999999999
 40
1.500000000000007
 50
251.837003999999720
 51
329.999999999999490
  0
LINE
  8
0
  6
CONTINUOUS
 62
256
 10
445.849807000000000
 20
-87.452950000000001
 11
444.321680000000010
 21
-90.099744999999999
  0
ARC
  8
0
  6
CONTINUOUS
 62
256
 10
444.550769000000000
 20
-86.702950000000001
 40
1.499999999999975
 50
329.999999999999490
 51
70.240347999999329
  0
ARC
  8
0
  6
CONTINUOUS
 62
256
 10
436.944076000000000
 20
-107.878129000000000
 40
14.500000000000002
 50
77.920213000000032
 51
102.079786999999980
  0
ARC
  8
0
  6
CONTINUOUS
 62
256
 10
434.223519000000010
 20
-95.165987000000001
 40
1.499999999999989
 50
102.079786999999230
 51
210.000000000000510
  0
LINE
  8
0
  6
CONTINUOUS
 62
256
 10
434.526564000000010
 20
-98.690875000000005
 11
432.924481000000010
 21
-95.915987000000001
  0
ARC
  8
0
  6
CONTINUOUS
 62
256
 10
435.825602000000000
 20
-97.940875000000005
 40
1.499999999999975
 50
210.000000000000510
 51
276.421821999999220
  0
ARC
  8
0
  6
CONTINUOUS
 62
256
 10
436.944076000000000
 20
-107.878129000000000
 40
8.500000000000007
 50
83.578177999999994
 51
96.421822000000020
  0
ARC
  8
0
  6
CONTINUOUS
 62
256
 10
438.062549999999990
 20
-97.940875000000005
 40
1.500000000000001
 50
263.578178000000780
 51
329.999999999999490
  0
LINE
  8
0
  6
CONTINUOUS
 62
256
 10
440.963670999999980
 20
-95.915987000000001
 11
439.361587999999980
 21
-98.690875000000005
  0
ARC
  8
0
  6
CONTINUOUS
 62
256
 10
439.664632999999980
 20
-95.165987000000001
 40
1.499999999999975
 50
329.999999999999490
 51
77.920213000000771
  0
ARC
  8
0
  6
CONTINUOUS
 62
256
 10
436.944076000000000
 20
-107.878129000000000
 40
8.499999999999989
 50
143.578177999999950
 51
156.421821999999930
  0
ARC
  8
0
  6
CONTINUOUS
 62
256
 10
436.944076000000000
 20
-107.878129000000000
 40
24.000000000000004
 50
130.240347999999980
 51
169.759651999999960
  0
LINE
  8
0
  6
CONTINUOUS
 62
256
 10
430.196437000000000
 20
-101.190875000000010
 11
428.594354000000010
 21
-98.415987000000001
  0
LINE
  8
0
  6
CONTINUOUS
 62
256
 10
414.802485999999990
 20
-105.378129000000000
 11
417.858741000000010
 21
-105.378129000000000
  0
LINE
  8
0
  6
CONTINUOUS
 62
256
 10
424.574758999999970
 20
-105.378129000000000
 11
427.778925000000020
 21
-105.378129000000000
  0
ARC
  8
0
  6
CONTINUOUS
 62
256
 10
436.944076000000000
 20
-107.878129000000000
 40
14.500000000000012
 50
137.920213000000070
 51
162.079787000000070
  0
LINE
  8
0
  6
CONTINUOUS
 62
256
 10
425.236344999999970
 20
-92.599744999999999
 11
423.708217999999990
 21
-89.952950000000001
  0
ARC
  8
0
  6
CONTINUOUS
 62
256
 10
427.295316000000010
 20
-99.165987000000001
 40
1.499999999999975
 50
30.000000000000544
 51
137.920212999999820
  0
ARC
  8
0
  6
CONTINUOUS
 62
256
 10
414.802485999999990
 20
-103.878129000000000
 40
1.500000000000009
 50
169.759652000000300
 51
270.000000000000000
  0
ARC
  8
0
  6
CONTINUOUS
 62
256
 10
423.937306999999980
 20
-93.349744999999999
 40
1.499999999999989
 50
311.837003999999810
 51
30.000000000000544
  0
ARC
  8
0
  6
CONTINUOUS
 62
256
 10
417.858741000000010
 20
-103.878129000000000
 40
1.500000000000000
 50
270.000000000000000
 51
348.162996000000190
  0
ARC
  8
0
  6
CONTINUOUS
 62
256
 10
424.574758999999970
 20
-103.878129000000000
 40
1.500000000000024
 50
162.079787000000550
 51
270.000000000000000
  0
ARC
  8
0
  6
CONTINUOUS
 62
256
 10
422.409179999999990
 20
-90.702950000000001
 40
1.500000000000025
 50
29.999999999999456
 51
130.240347999999780
  0
ARC
  8
0
  6
CONTINUOUS
 62
256
 10
427.778925000000020
 20
-103.878129000000000
 40
1.500000000000000
 50
270.000000000000000
 51
336.421821999999620
  0
ARC
  8
0
  6
CONTINUOUS
 62
256
 10
428.897399000000010
 20
-101.940875000000010
 40
1.500000000000000
 50
323.578178000000040
 51
30.000000000000544
  0
CIRCLE
  8
0
  6
CONTINUOUS
 62
256
 10
436.944076000000000
 20
-107.878129000000000
 40
5.000000000000000
  0
ARC
  8
0
  6
CONTINUOUS
 62
256
 10
419.118567999999980
 20
-85.003443000000004
 40
1.500000000000018
 50
307.928142000000720
 51
29.999999999999456
  0
LINE
  8
0
  6
CONTINUOUS
 62
256
 10
420.417605999999980
 20
-84.253443000000004
 11
418.904504999999970
 21
-81.632675000000006
  0
ARC
  8
0
  6
CONTINUOUS
 62
256
 10
408.221263000000020
 20
-103.878129000000000
 40
1.500000000000000
 50
270.000000000000000
 51
352.071857999999850
  0
ARC
  8
0
  6
CONTINUOUS
 62
256
 10
436.944076000000000
 20
-107.878129000000000
 40
27.500000000000004
 50
127.928141999999990
 51
172.071857999999990
  0
ARC
  8
0
  6
CONTINUOUS
 62
256
 10
417.605466999999980
 20
-82.382675000000006
 40
1.500000000000025
 50
29.999999999999456
 51
127.180756000000090
  0
ARC
  8
0
  6
CONTINUOUS
 62
256
 10
414.334152000000020
 20
-76.716593000000003
 40
1.500000000000007
 50
305.963570000000860
 51
29.999999999999456
  0
ARC
  8
0
  6
CONTINUOUS
 62
256
 10
436.944076000000000
 20
-107.878129000000000
 40
37.000000000000000
 50
125.963569999999990
 51
174.036430000000000
  0
ARC
  8
0
  6
CONTINUOUS
 62
256
 10
436.944076000000000
 20
-107.878129000000000
 40
33.500000000000007
 50
127.180756000000020
 51
172.819244000000000
  0
LINE
  8
0
  6
CONTINUOUS
 62
256
 10
424.747732999999980
 20
-81.753443000000004
 11
423.234631999999980
 21
-79.132675000000006
  0
ARC
  8
0
  6
CONTINUOUS
 62
256
 10
424.533669999999970
 20
-78.382675000000006
 40
1.499999999999989
 50
112.819243999999050
 51
210.000000000000510
  0
ARC
  8
0
  6
CONTINUOUS
 62
256
 10
426.046770999999980
 20
-81.003443000000004
 40
1.499999999999975
 50
210.000000000000510
 51
292.071857999999110
  0
ARC
  8
0
  6
CONTINUOUS
 62
256
 10
436.944076000000000
 20
-107.878129000000000
 40
27.499999999999989
 50
67.928142000000008
 51
112.071857999999980
  0
ARC
  8
0
  6
CONTINUOUS
 62
256
 10
436.944076000000000
 20
-107.878129000000000
 40
33.500000000000000
 50
67.180756000000002
 51
112.819244000000000
  0
ARC
  8
0
  6
CONTINUOUS
 62
256
 10
447.841381000000010
 20
-81.003443000000004
 40
1.499999999999998
 50
247.928142000000830
 51
329.999999999999490
  0
LINE
  8
0
  6
CONTINUOUS
 62
256
 10
450.653520000000010
 20
-79.132675000000006
 11
449.140419000000010
 21
-81.753443000000004
  0
ARC
  8
0
  6
CONTINUOUS
 62
256
 10
449.354482000000020
 20
-78.382675000000006
 40
1.499999999999975
 50
329.999999999999490
 51
67.180756000000954
  0
ARC
  8
0
  6
CONTINUOUS
 62
256
 10
478.250855000000000
 20
-103.878129000000000
 40
1.500000000000000
 50
270.000000000000000
 51
5.531072000000276
  0
LINE
  8
0
  6
CONTINUOUS
 62
256
 10
475.235720000000010
 20
-105.378129000000000
 11
478.250855000000000
 21
-105.378129000000000
  0
LINE
  8
0
  6
CONTINUOUS
 62
256
 10
465.666889000000030
 20
-105.378129000000000
 11
468.693091999999980
 21
-105.378129000000000
  0
ARC
  8
0
  6
CONTINUOUS
 62
256
 10
475.235720000000010
 20
-103.878129000000000
 40
1.500000000000012
 50
185.963569999999780
 51
270.000000000000000
  0
ARC
  8
0
  6
CONTINUOUS
 62
256
 10
468.693091999999980
 20
-103.878129000000000
 40
1.500000000000000
 50
270.000000000000000
 51
7.180756000000089
  0
ARC
  8
0
  6
CONTINUOUS
 62
256
 10
465.666889000000030
 20
-103.878129000000000
 40
1.500000000000004
 50
187.928142000000150
 51
270.000000000000000
  0
ARC
  8
0
  6
CONTINUOUS
 62
256
 10
436.944076000000000
 20
-107.878129000000000
 40
27.499999999999986
 50
7.928141999999994
 51
52.071858000000006
  0
ARC
  8
0
  6
CONTINUOUS
 62
256
 10
436.944076000000000
 20
-107.878129000000000
 40
36.999999999999979
 50
5.963570000000011
 51
54.036430000000010
  0
ARC
  8
0
  6
CONTINUOUS
 62
256
 10
436.944076000000000
 20
-107.878129000000000
 40
42.999999999999979
 50
5.531071999999997
 51
54.468927999999977
  0
ARC
  8
0
  6
CONTINUOUS
 62
256
 10
436.944076000000000
 20
-107.878129000000000
 40
33.500000000000007
 50
7.180755999999994
 51
52.819243999999983
  0
ARC
  8
0
  6
CONTINUOUS
 62
256
 10
454.769584000000010
 20
-85.003443000000004
 40
1.500000000000025
 50
150.000000000000540
 51
232.071857999999280
  0
ARC
  8
0
  6
CONTINUOUS
 62
256
 10
459.553999999999970
 20
-76.716593000000003
 40
1.500000000000025
 50
150.000000000000540
 51
234.036429999999170
  0
LINE
  8
0
  6
CONTINUOUS
 62
256
 10
454.983647000000020
 20
-81.632675000000006
 11
453.470546000000010
 21
-84.253443000000004
  0
ARC
  8
0
  6
CONTINUOUS
 62
256
 10
456.282686000000010
 20
-82.382675000000006
 40
1.499999999999994
 50
52.819243999999927
 51
150.000000000000540
  0
ARC
  8
0
  6
CONTINUOUS
 62
256
 10
478.250855000000000
 20
-111.878129000000000
 40
1.499999999999979
 50
354.468927999999720
 51
90.000000000000000
  0
LINE
  8
0
  6
CONTINUOUS
 62
256
 10
475.235720000000010
 20
-110.378129000000000
 11
478.250855000000000
 21
-110.378129000000000
  0
LINE
  8
0
  6
CONTINUOUS
 62
256
 10
465.666889000000030
 20
-110.378129000000000
 11
468.693091999999980
 21
-110.378129000000000
  0
ARC
  8
0
  6
CONTINUOUS
 62
256
 10
475.235720000000010
 20
-111.878129000000000
 40
1.500000000000000
 50
90.000000000000000
 51
174.036430000000220
  0
ARC
  8
0
  6
CONTINUOUS
 62
256
 10
468.693091999999980
 20
-111.878129000000000
 40
1.500000000000028
 50
352.819243999999910
 51
90.000000000000000
  0
ARC
  8
0
  6
CONTINUOUS
 62
256
 10
465.666889000000030
 20
-111.878129000000000
 40
1.500000000000000
 50
90.000000000000000
 51
172.071857999999850
  0
ARC
  8
0
  6
CONTINUOUS
 62
256
 10
436.944076000000000
 20
-107.878129000000000
 40
27.500000000000014
 50
307.928141999999980
 51
352.071858000000020
  0
ARC
  8
0
  6
CONTINUOUS
 62
256
 10
436.944076000000000
 20
-107.878129000000000
 40
36.999999999999993
 50
305.963570000000000
 51
354.036429999999940
  0
ARC
  8
0
  6
CONTINUOUS
 62
256
 10
436.944076000000000
 20
-107.878129000000000
 40
43.000000000000021
 50
305.531071999999990
 51
354.468928000000010
  0
ARC
  8
0
  6
CONTINUOUS
 62
256
 10
436.944076000000000
 20
-107.878129000000000
 40
33.499999999999972
 50
307.180755999999920
 51
352.819244000000030
  0
ARC
  8
0
  6
CONTINUOUS
 62
256
 10
454.769584000000010
 20
-130.752815000000000
 40
1.500000000000018
 50
127.928142000000730
 51
210.000000000000510
  0
ARC
  8
0
  6
CONTINUOUS
 62
256
 10
461.061567000000030
 20
-141.650848999999990
 40
1.499999999999975
 50
210.000000000000510
 51
305.531071999999480
  0
LINE
  8
0
  6
CONTINUOUS
 62
256
 10
459.762528999999970
 20
-142.400848999999990
 11
458.254961999999980
 21
-139.789666000000010
  0
ARC
  8
0
  6
CONTINUOUS
 62
256
 10
459.553999999999970
 20
-139.039666000000010
 40
1.500000000000007
 50
125.963570000000810
 51
210.000000000000510
  0
LINE
  8
0
  6
CONTINUOUS
 62
256
 10
454.983647000000020
 20
-134.123583000000000
 11
453.470546000000010
 21
-131.502815000000000
  0
ARC
  8
0
  6
CONTINUOUS
 62
256
 10
456.282686000000010
 20
-133.373583000000000
 40
1.499999999999975
 50
210.000000000000510
 51
307.180756000000090
  0
ARC
  8
0
  6
CONTINUOUS
 62
256
 10
419.754788000000020
 20
-145.650848999999990
 40
1.499999999999975
 50
149.999999999999460
 51
245.531072000000020
  0
LINE
  8
0
  6
CONTINUOUS
 62
256
 10
419.963318000000020
 20
-142.289666000000010
 11
418.455750000000020
 21
-144.900848999999990
  0
LINE
  8
0
  6
CONTINUOUS
 62
256
 10
424.747732999999980
 20
-134.002815000000000
 11
423.234631999999980
 21
-136.623583000000000
  0
ARC
  8
0
  6
CONTINUOUS
 62
256
 10
421.262356000000010
 20
-143.039666000000010
 40
1.499999999999986
 50
65.963570000000146
 51
149.999999999999460
  0
ARC
  8
0
  6
CONTINUOUS
 62
256
 10
424.533669999999970
 20
-137.373583000000000
 40
1.499999999999975
 50
149.999999999999460
 51
247.180756000001140
  0
ARC
  8
0
  6
CONTINUOUS
 62
256
 10
426.046770999999980
 20
-134.752815000000000
 40
1.499999999999998
 50
67.928142000000889
 51
149.999999999999460
  0
ARC
  8
0
  6
CONTINUOUS
 62
256
 10
436.944076000000000
 20
-107.878129000000000
 40
27.500000000000014
 50
247.928142000000040
 51
292.071857999999960
  0
ARC
  8
0
  6
CONTINUOUS
 62
256
 10
436.944076000000000
 20
-107.878129000000000
 40
37.000000000000021
 50
245.963569999999950
 51
294.036429999999940
  0
ARC
  8
0
  6
CONTINUOUS
 62
256
 10
436.944076000000000
 20
-107.878129000000000
 40
43.000000000000021
 50
245.531072000000020
 51
294.468927999999950
  0
ARC
  8
0
  6
CONTINUOUS
 62
256
 10
436.944076000000000
 20
-107.878129000000000
 40
33.500000000000007
 50
247.180756000000030
 51
292.819243999999970
  0
ARC
  8
0
  6
CONTINUOUS
 62
256
 10
447.841381000000010
 20
-134.752815000000000
 40
1.499999999999975
 50
30.000000000000544
 51
112.071857999999120
  0
ARC
  8
0
  6
CONTINUOUS
 62
256
 10
454.133363999999970
 20
-145.650848999999990
 40
1.499999999999989
 50
294.468928000000010
 51
30.000000000000544
  0
LINE
  8
0
  6
CONTINUOUS
 62
256
 10
455.432402000000020
 20
-144.900848999999990
 11
453.924834999999970
 21
-142.289666000000010
  0
ARC
  8
0
  6
CONTINUOUS
 62
256
 10
452.625795999999980
 20
-143.039666000000010
 40
1.499999999999975
 50
30.000000000000544
 51
114.036429999999850
  0
LINE
  8
0
  6
CONTINUOUS
 62
256
 10
450.653520000000010
 20
-136.623583000000000
 11
449.140419000000010
 21
-134.002815000000000
  0
ARC
  8
0
  6
CONTINUOUS
 62
256
 10
449.354482000000020
 20
-137.373583000000000
 40
1.500000000000002
 50
292.819243999998830
 51
30.000000000000544
  0
ARC
  8
0
  6
CONTINUOUS
 62
256
 10
412.826585000000020
 20
-141.650848999999990
 40
1.499999999999989
 50
234.468928000000520
 51
329.999999999999490
  0
LINE
  8
0
  6
CONTINUOUS
 62
256
 10
415.633191000000010
 20
-139.789666000000010
 11
414.125623000000020
 21
-142.400848999999990
  0
LINE
  8
0
  6
CONTINUOUS
 62
256
 10
420.417605999999980
 20
-131.502815000000000
 11
418.904504999999970
 21
-134.123583000000000
  0
ARC
  8
0
  6
CONTINUOUS
 62
256
 10
414.334152000000020
 20
-139.039666000000010
 40
1.499999999999975
 50
329.999999999999490
 51
54.036429999999186
  0
ARC
  8
0
  6
CONTINUOUS
 62
256
 10
417.605466999999980
 20
-133.373583000000000
 40
1.499999999999994
 50
232.819243999999940
 51
329.999999999999490
  0
ARC
  8
0
  6
CONTINUOUS
 62
256
 10
419.118567999999980
 20
-130.752815000000000
 40
1.499999999999975
 50
329.999999999999490
 51
52.071857999999288
  0
ARC
  8
0
  6
CONTINUOUS
 62
256
 10
436.944076000000000
 20
-107.878129000000000
 40
36.999999999999979
 50
185.963570000000000
 51
234.036429999999970
  0
ARC
  8
0
  6
CONTINUOUS
 62
256
 10
436.944076000000000
 20
-107.878129000000000
 40
42.999999999999979
 50
185.531071999999990
 51
234.468927999999950
  0
ARC
  8
0
  6
CONTINUOUS
 62
256
 10
436.944076000000000
 20
-107.878129000000000
 40
33.500000000000007
 50
187.180756000000000
 51
232.819244000000000
  0
ARC
  8
0
  6
CONTINUOUS
 62
256
 10
408.221263000000020
 20
-111.878129000000000
 40
1.500000000000004
 50
7.928142000000149
 51
90.000000000000000
  0
ARC
  8
0
  6
CONTINUOUS
 62
256
 10
386.847462000000010
 20
-151.826717000000000
 40
6.600000000000022
 50
188.597082000000030
 51
224.999999999999830
  0
ARC
  8
0
  6
CONTINUOUS
 62
256
 10
396.835299000000020
 20
-146.819647000000000
 40
5.999999999999990
 50
187.897989000000000
 51
225.000000000000170
  0
ARC
  8
0
  6
CONTINUOUS
 62
256
 10
677.544076000000020
 20
-107.878129000000000
 40
289.396999999999990
 50
180.000000000000000
 51
187.897988999999970
  0
CIRCLE
  8
0
  6
CONTINUOUS
 62
256
 10
-255.543920000000010
 20
-91.878286000000003
 40
3.500000000000000
  0
CIRCLE
  8
0
  6
CONTINUOUS
 62
256
 10
-255.543920000000010
 20
-91.878286000000003
 40
4.000000000000000
  0
ARC
  8
0
  6
CONTINUOUS
 62
256
 10
-255.543920000000010
 20
-91.878286000000003
 40
16.000000000000011
 50
108.209957000000060
 51
71.790043000000040
  0
LINE
  8
0
  6
CONTINUOUS
 62
256
 10
-260.543920000000010
 20
-80.878286000000003
 11
-250.543920000000010
 21
-80.878286000000003
  0
LINE
  8
0
  6
CONTINUOUS
 62
256
 10
-260.543920000000010
 20
-72.878286000000003
 11
-260.543920000000010
 21
-80.878286000000003
  0
LINE
  8
0
  6
CONTINUOUS
 62
256
 10
-250.543920000000010
 20
-72.878286000000003
 11
-260.543920000000010
 21
-72.878286000000003
  0
LINE
  8
0
  6
CONTINUOUS
 62
256
 10
-250.543920000000010
 20
-72.878286000000003
 11
-250.543920000000010
 21
-80.878286000000003
  0
LINE
  8
0
  6
DASHDOT
 62
256
 10
-255.543920000000010
 20
-68.380273000000003
 11
-255.543920000000010
 21
-112.901777999999990
  0
LINE
  8
0
  6
DASHDOT
 62
256
 10
-234.324101000000010
 20
-91.878286000000003
 11
-275.420875000000020
 21
-91.878286000000003
  0
POINT
  8
0
  6
CONTINUOUS
 62
256
 10
-255.543920000000010
 20
-75.878286000000003
  0
LINE
  8
0
  6
CONTINUOUS
 62
256
 10
-532.826491000000030
 20
-44.378286000000003
 11
-527.826094000000010
 21
-44.378286000000003
  0
LINE
  8
0
  6
CONTINUOUS
 62
256
 10
-532.826491000000030
 20
-139.378286000000000
 11
-527.826094000000010
 21
-139.378286000000000
  0
LINE
  8
0
  6
CONTINUOUS
 62
256
 10
-406.826094000000010
 20
-139.378286000000000
 11
-411.826094000000010
 21
-139.378286000000000
  0
LINE
  8
0
  6
CONTINUOUS
 62
256
 10
-406.826094000000010
 20
-44.378286000000003
 11
-411.826094000000010
 21
-44.378286000000003
  0
LINE
  8
0
  6
CONTINUOUS
 62
256
 10
-515.826094000000010
 20
-195.640571999999990
 11
-421.326094000000010
 21
-193.991069000000010
  0
ARC
  8
0
  6
DASHED
 62
256
 10
-450.326094000000010
 20
-48.878286000000003
 40
0.500000000000000
 50
0.000000000000000
 51
90.000000000000000
  0
ARC
  8
0
  6
DASHED
 62
256
 10
-469.826094000000010
 20
-450.378286000000000
 40
400.000000000000060
 50
85.885655000000000
 51
87.065974999999995
  0
ARC
  8
0
  6
DASHED
 62
256
 10
-443.279638999999970
 20
-81.331830999999994
 40
30.000000000000018
 50
4.114344999999991
 51
85.885655000000028
  0
ARC
  8
0
  6
DASHED
 62
256
 10
-410.826094000000010
 20
-88.378286000000003
 40
0.500000000000000
 50
0.000000000000000
 51
90.000000000000000
  0
ARC
  8
0
  6
DASHED
 62
256
 10
-410.826094000000010
 20
-127.378286000000000
 40
0.500000000000000
 50
270.000000000000000
 51
0.000000000000000
  0
ARC
  8
0
  6
DASHED
 62
256
 10
-812.326094000000010
 20
-107.878286000000000
 40
399.999999999999940
 50
355.885654999999990
 51
357.065974999999980
  0
ARC
  8
0
  6
DASHED
 62
256
 10
-412.351094999999990
 20
-128.378286000000000
 40
0.500000000000000
 50
90.000000000000000
 51
177.065974999999950
  0
ARC
  8
0
  6
DASHED
 62
256
 10
-812.326094000000010
 20
-107.878286000000000
 40
400.000000000000000
 50
2.934025000000001
 51
4.114344999999999
  0
ARC
  8
0
  6
DASHED
 62
256
 10
-443.279638999999970
 20
-134.424741000000010
 40
29.999999999999989
 50
274.114344999999960
 51
355.885654999999990
  0
ARC
  8
0
  6
DASHED
 62
256
 10
-469.826094000000010
 20
234.621714000000000
 40
400.000000000000000
 50
272.934025000000020
 51
274.114345000000010
  0
ARC
  8
0
  6
DASHED
 62
256
 10
-450.326094000000010
 20
-166.878286000000000
 40
0.500000000000000
 50
270.000000000000000
 51
0.000000000000000
  0
ARC
  8
0
  6
DASHED
 62
256
 10
-449.326094000000010
 20
-165.353285000000000
 40
0.499999999999999
 50
92.934025000000204
 51
180.000000000000000
  0
ARC
  8
0
  6
DASHED
 62
256
 10
-489.326094000000010
 20
-166.878286000000000
 40
0.500000000000000
 50
180.000000000000000
 51
270.000000000000000
  0
ARC
  8
0
  6
DASHED
 62
256
 10
-490.326094000000010
 20
-165.353285000000000
 40
0.500000000000000
 50
0.000000000000000
 51
87.065974999999796
  0
ARC
  8
0
  6
DASHED
 62
256
 10
-489.326094000000010
 20
-166.878286000000000
 40
0.500000000000000
 50
180.000000000000000
 51
270.000000000000000
  0
ARC
  8
0
  6
DASHED
 62
256
 10
-490.326094000000010
 20
-165.353285000000000
 40
0.500000000000000
 50
0.000000000000000
 51
87.065974999999796
  0
ARC
  8
0
  6
DASHED
 62
256
 10
-469.826094000000010
 20
234.621714000000000
 40
399.999999999999940
 50
265.885654999999990
 51
267.065974999999980
  0
ARC
  8
0
  6
DASHED
 62
256
 10
-496.372547999999990
 20
-134.424741000000010
 40
29.999999999999961
 50
184.114344999999960
 51
265.885655000000040
  0
ARC
  8
0
  6
DASHED
 62
256
 10
-127.326094000000000
 20
-107.878286000000000
 40
399.999999999999940
 50
182.934025000000020
 51
184.114344999999960
  0
ARC
  8
0
  6
DASHED
 62
256
 10
-528.826094000000010
 20
-127.378286000000000
 40
0.500000000000000
 50
180.000000000000000
 51
270.000000000000000
  0
ARC
  8
0
  6
DASHED
 62
256
 10
-527.301093000000040
 20
-128.378286000000000
 40
0.500000000000028
 50
2.934025000000031
 51
90.000000000000000
  0
ARC
  8
0
  6
DASHED
 62
256
 10
-527.301093000000040
 20
-128.378286000000000
 40
0.500000000000028
 50
2.934025000000031
 51
90.000000000000000
  0
ARC
  8
0
  6
DASHED
 62
256
 10
-528.826094000000010
 20
-88.378286000000003
 40
0.500000000000000
 50
90.000000000000000
 51
180.000000000000000
  0
ARC
  8
0
  6
DASHED
 62
256
 10
-527.301093000000040
 20
-87.378286000000003
 40
0.500000000000000
 50
270.000000000000000
 51
357.065974999999980
  0
ARC
  8
0
  6
DASHED
 62
256
 10
-528.826094000000010
 20
-88.378286000000003
 40
0.500000000000000
 50
90.000000000000000
 51
180.000000000000000
  0
ARC
  8
0
  6
DASHED
 62
256
 10
-527.301093000000040
 20
-87.378286000000003
 40
0.500000000000000
 50
270.000000000000000
 51
357.065974999999980
  0
ARC
  8
0
  6
DASHED
 62
256
 10
-127.326094000000000
 20
-107.878286000000000
 40
400.000000000000060
 50
175.885655000000010
 51
177.065975000000010
  0
ARC
  8
0
  6
DASHED
 62
256
 10
-496.372547999999990
 20
-81.331830999999994
 40
30.000000000000004
 50
94.114344999999972
 51
175.885654999999990
  0
ARC
  8
0
  6
DASHED
 62
256
 10
-469.826094000000010
 20
-450.378286000000000
 40
400.000000000000000
 50
92.934025000000005
 51
94.114345000000000
  0
ARC
  8
0
  6
DASHED
 62
256
 10
-489.326094000000010
 20
-48.878286000000003
 40
0.500000000000000
 50
90.000000000000000
 51
180.000000000000000
  0
ARC
  8
0
  6
DASHED
 62
256
 10
-490.326094000000010
 20
-50.403286999999999
 40
0.499999999999999
 50
272.934025000000190
 51
0.000000000000000
  0
ARC
  8
0
  6
DASHED
 62
256
 10
-449.326094000000010
 20
-50.403286999999999
 40
0.500000000000000
 50
180.000000000000000
 51
267.065974999999810
  0
ARC
  8
0
  6
DASHED
 62
256
 10
-412.351094999999990
 20
-87.378286000000003
 40
0.500000000000028
 50
182.934025000000020
 51
270.000000000000000
  0
LINE
  8
0
  6
DASHDOT
 62
256
 10
-469.826094000000010
 20
-4.051423000000000
 11
-469.826094000000010
 21
-198.508805000000000
  0
LINE
  8
0
  6
DASHED
 62
256
 10
-469.826094000000010
 20
-48.378286000000003
 11
-450.326094000000010
 21
-48.378286000000003
  0
LINE
  8
0
  6
DASHED
 62
256
 10
-449.826094000000010
 20
-48.878286000000003
 11
-449.826094000000010
 21
-50.403286999999999
  0
LINE
  8
0
  6
DASHED
 62
256
 10
-410.826094000000010
 20
-87.878286000000003
 11
-412.351094999999990
 21
-87.878286000000003
  0
LINE
  8
0
  6
DASHED
 62
256
 10
-410.326094000000010
 20
-107.878286000000000
 11
-410.326094000000010
 21
-88.378286000000003
  0
LINE
  8
0
  6
DASHED
 62
256
 10
-410.326094000000010
 20
-107.878286000000000
 11
-410.326094000000010
 21
-127.378286000000000
  0
LINE
  8
0
  6
DASHED
 62
256
 10
-410.826094000000010
 20
-127.878286000000000
 11
-412.351094999999990
 21
-127.878286000000000
  0
LINE
  8
0
  6
DASHED
 62
256
 10
-469.826094000000010
 20
-167.378286000000000
 11
-450.326094000000010
 21
-167.378286000000000
  0
LINE
  8
0
  6
DASHED
 62
256
 10
-449.826094000000010
 20
-166.878286000000000
 11
-449.826094000000010
 21
-165.353285000000000
  0
LINE
  8
0
  6
DASHED
 62
256
 10
-469.826094000000010
 20
-167.378286000000000
 11
-489.326094000000010
 21
-167.378286000000000
  0
LINE
  8
0
  6
DASHED
 62
256
 10
-489.826094000000010
 20
-166.878286000000000
 11
-489.826094000000010
 21
-165.353285000000000
  0
LINE
  8
0
  6
DASHED
 62
256
 10
-469.826094000000010
 20
-167.378286000000000
 11
-489.326094000000010
 21
-167.378286000000000
  0
LINE
  8
0
  6
DASHED
 62
256
 10
-489.826094000000010
 20
-166.878286000000000
 11
-489.826094000000010
 21
-165.353285000000000
  0
LINE
  8
0
  6
DASHED
 62
256
 10
-529.326094000000010
 20
-107.878286000000000
 11
-529.326094000000010
 21
-127.378286000000000
  0
LINE
  8
0
  6
DASHED
 62
256
 10
-528.826094000000010
 20
-127.878286000000000
 11
-527.301093000000040
 21
-127.878286000000000
  0
LINE
  8
0
  6
DASHED
 62
256
 10
-529.326094000000010
 20
-107.878286000000000
 11
-529.326094000000010
 21
-88.378286000000003
  0
LINE
  8
0
  6
DASHED
 62
256
 10
-528.826094000000010
 20
-87.878286000000003
 11
-527.301093000000040
 21
-87.878286000000003
  0
LINE
  8
0
  6
DASHED
 62
256
 10
-469.826094000000010
 20
-48.378286000000003
 11
-489.326094000000010
 21
-48.378286000000003
  0
LINE
  8
0
  6
DASHED
 62
256
 10
-489.826094000000010
 20
-48.878286000000003
 11
-489.826094000000010
 21
-50.403286999999999
  0
LINE
  8
0
  6
DASHDOT
 62
256
 10
-481.067320000000000
 20
-107.878286000000000
 11
-458.828126999999990
 21
-107.878286000000000
  0
LINE
  8
0
  6
CONTINUOUS
 62
256
 10
-527.826491000000030
 20
-107.649456000000000
 11
-527.826491000000030
 21
-19.867808000000000
  0
LINE
  8
0
  6
CONTINUOUS
 62
256
 10
-532.826491000000030
 20
-91.649613000000002
 11
-532.826491000000030
 21
-44.378286000000003
  0
LINE
  8
0
  6
CONTINUOUS
 62
256
 10
-532.826491000000030
 20
-91.649613000000002
 11
-532.826491000000030
 21
-139.378286000000000
  0
LINE
  8
0
  6
CONTINUOUS
 62
256
 10
-527.826491000000030
 20
-107.649456000000000
 11
-527.826491000000030
 21
-194.931493999999990
  0
LINE
  8
0
  6
CONTINUOUS
 62
256
 10
-527.826491000000030
 20
-194.931493999999990
 11
-527.326643999999990
 21
-195.440142000000010
  0
LINE
  8
0
  6
CONTINUOUS
 62
256
 10
-527.826491000000030
 20
-19.867808000000000
 11
-515.826094000000010
 21
-19.658339999999999
  0
LINE
  8
0
  6
CONTINUOUS
 62
256
 10
-515.826094000000010
 20
-19.658339999999999
 11
-515.826094000000010
 21
-107.649456000000000
  0
LINE
  8
0
  6
CONTINUOUS
 62
256
 10
-515.826094000000010
 20
-19.658339999999999
 11
-421.326094000000010
 21
-21.307843999999999
  0
LINE
  8
0
  6
CONTINUOUS
 62
256
 10
-411.826094000000010
 20
-21.307843999999999
 11
-411.826094000000010
 21
-107.649456000000000
  0
LINE
  8
0
  6
CONTINUOUS
 62
256
 10
-406.826094000000010
 20
-44.378286000000003
 11
-406.826094000000010
 21
-139.378286000000000
  0
LINE
  8
0
  6
CONTINUOUS
 62
256
 10
-421.326094000000010
 20
-21.307843999999999
 11
-411.826094000000010
 21
-21.307843999999999
  0
LINE
  8
0
  6
CONTINUOUS
 62
256
 10
-411.826094000000010
 20
-107.649456000000000
 11
-411.826094000000010
 21
-193.991381999999990
  0
LINE
  8
0
  6
CONTINUOUS
 62
256
 10
-421.326094000000010
 20
-193.991381999999990
 11
-411.826094000000010
 21
-193.991381999999990
  0
LINE
  8
0
  6
CONTINUOUS
 62
256
 10
-515.826094000000010
 20
-107.649456000000000
 11
-515.826094000000010
 21
-195.640885000000000
  0
LINE
  8
0
  6
CONTINUOUS
 62
256
 10
-527.326643999999990
 20
-195.440142000000010
 11
-515.826094000000010
 21
-195.640885000000000
  0
LINE
  8
0
  6
CONTINUOUS
 62
256
 10
44.075882000000000
 20
-167.378129000000000
 11
44.075882000000000
 21
-107.878129000000000
  0
LINE
  8
0
  6
CONTINUOUS
 62
256
 10
44.075882000000000
 20
-48.378129000000001
 11
44.075882000000000
 21
-107.878129000000000
  0
LINE
  8
0
  6
CONTINUOUS
 62
256
 10
-96.424351999999999
 20
-72.878286000000003
 11
-96.424351999999999
 21
-80.878286000000003
  0
LINE
  8
0
  6
CONTINUOUS
 62
256
 10
-106.424352000000000
 20
-80.878286000000003
 11
-96.424351999999999
 21
-80.878286000000003
  0
LINE
  8
0
  6
CONTINUOUS
 62
256
 10
-106.424352000000000
 20
-72.878286000000003
 11
-106.424352000000000
 21
-80.878286000000003
  0
LINE
  8
0
  6
CONTINUOUS
 62
256
 10
-96.424351999999999
 20
-72.878286000000003
 11
-106.424352000000000
 21
-72.878286000000003
  0
CIRCLE
  8
0
  6
CONTINUOUS
 62
256
 10
-101.424352000000000
 20
-91.878286000000003
 40
3.500000000000000
  0
CIRCLE
  8
0
  6
CONTINUOUS
 62
256
 10
-101.424352000000000
 20
-91.878286000000003
 40
4.000000000000000
  0
ARC
  8
0
  6
CONTINUOUS
 62
256
 10
-101.424352000000000
 20
-91.878286000000003
 40
16.000000000000007
 50
108.209957000000000
 51
71.790042999999997
  0
POINT
  8
0
  6
CONTINUOUS
 62
256
 10
-101.424352000000000
 20
-91.878286000000003
  0
LINE
  8
0
  6
CONTINUOUS
 62
256
 10
34.075882000000000
 20
-159.974436999999990
 11
29.075882000000000
 21
-159.974436999999990
  0
LINE
  8
0
  6
CONTINUOUS
 62
256
 10
34.075882000000000
 20
-153.062860000000000
 11
29.075882000000000
 21
-153.062860000000000
  0
LINE
  8
0
  6
CONTINUOUS
 62
256
 10
34.075882000000000
 20
-62.693398000000002
 11
29.075882000000000
 21
-62.693398000000002
  0
LINE
  8
0
  6
CONTINUOUS
 62
256
 10
34.075882000000000
 20
-55.781821999999998
 11
29.075882000000000
 21
-55.781821999999998
  0
LINE
  8
0
  6
CONTINUOUS
 62
256
 10
37.075882000000000
 20
-52.378129000000001
 11
37.075882000000000
 21
-51.378129000000001
  0
LINE
  8
0
  6
CONTINUOUS
 62
256
 10
34.075882000000000
 20
-68.876862000000003
 11
29.075882000000000
 21
-68.876862000000003
  0
LINE
  8
0
  6
CONTINUOUS
 62
256
 10
37.075882000000000
 20
-65.693398000000002
 11
37.075882000000000
 21
-107.878129000000000
  0
LINE
  8
0
  6
CONTINUOUS
 62
256
 10
37.075882000000000
 20
-52.378129000000001
 11
37.075882000000000
 21
-52.781821999999998
  0
LINE
  8
0
  6
CONTINUOUS
 62
256
 10
37.075882000000000
 20
-163.378129000000000
 11
37.075882000000000
 21
-164.378129000000000
  0
LINE
  8
0
  6
CONTINUOUS
 62
256
 10
37.075882000000000
 20
-163.378129000000000
 11
37.075882000000000
 21
-162.974436999999990
  0
LINE
  8
0
  6
CONTINUOUS
 62
256
 10
37.075882000000000
 20
-163.378129000000000
 11
37.075882000000000
 21
-162.974436999999990
  0
LINE
  8
0
  6
CONTINUOUS
 62
256
 10
34.075882000000000
 20
-146.879396000000010
 11
29.075882000000000
 21
-146.879396000000010
  0
LINE
  8
0
  6
CONTINUOUS
 62
256
 10
37.075882000000000
 20
-150.062860000000000
 11
37.075882000000000
 21
-107.878129000000000
  0
LINE
  8
0
  6
CONTINUOUS
 62
256
 10
44.075882000000000
 20
-48.395583999999999
 11
18.523291000000000
 21
-47.940835000000000
  0
LINE
  8
0
  6
CONTINUOUS
 62
256
 10
44.075882000000000
 20
-167.360673999999990
 11
18.523291000000000
 21
-167.815424000000010
  0
LINE
  8
0
  6
CONTINUOUS
 62
256
 10
-161.924352000000000
 20
-59.556210999999998
 11
-161.924352000000000
 21
-156.200359999999990
  0
LINE
  8
0
  6
CONTINUOUS
 62
256
 10
-133.746426000000010
 20
-184.378286000000000
 11
-24.102277000000001
 21
-184.378286000000000
  0
LINE
  8
0
  6
CONTINUOUS
 62
256
 10
4.075648000000000
 20
-59.556210999999998
 11
4.075648000000000
 21
-156.200359999999990
  0
LINE
  8
0
  6
CONTINUOUS
 62
256
 10
-133.746426000000010
 20
-31.378285999999999
 11
-24.102277000000001
 21
-31.378285999999999
  0
LINE
  8
0
  6
CONTINUOUS
 62
256
 10
-164.424352000000000
 20
-59.556210999999998
 11
-164.424352000000000
 21
-156.200359999999990
  0
LINE
  8
0
  6
CONTINUOUS
 62
256
 10
6.575648000000000
 20
-59.556210999999998
 11
6.575648000000000
 21
-156.200359999999990
  0
LINE
  8
0
  6
CONTINUOUS
 62
256
 10
-133.746426000000010
 20
-28.878285999999999
 11
-24.102277000000001
 21
-28.878285999999999
  0
LINE
  8
0
  6
CONTINUOUS
 62
256
 10
-133.746426000000010
 20
-186.878286000000000
 11
-24.102277000000001
 21
-186.878286000000000
  0
LINE
  8
0
  6
CONTINUOUS
 62
256
 10
13.745647999999999
 20
-107.878129000000000
 11
13.745647999999999
 21
-184.660014999999990
  0
LINE
  8
0
  6
CONTINUOUS
 62
256
 10
4.357377000000000
 20
-194.048285999999990
 11
-162.206081000000010
 21
-194.048285999999990
  0
LINE
  8
0
  6
CONTINUOUS
 62
256
 10
-171.594351999999990
 20
-184.660014999999990
 11
-171.594351999999990
 21
-31.096557000000001
  0
LINE
  8
0
  6
CONTINUOUS
 62
256
 10
-162.206081000000010
 20
-21.708286000000001
 11
4.357377000000000
 21
-21.708286000000001
  0
LINE
  8
0
  6
CONTINUOUS
 62
256
 10
13.745647999999999
 20
-31.096557000000001
 11
13.745647999999999
 21
-107.878129000000000
  0
LINE
  8
0
  6
DASHDOT
 62
256
 10
-6.470615000000000
 20
-107.878129000000000
 11
52.017839000000002
 21
-107.878129000000000
  0
LINE
  8
0
  6
CONTINUOUS
 62
256
 10
15.575647999999999
 20
-31.878285999999999
 11
15.575647999999999
 21
-107.878129000000000
  0
LINE
  8
0
  6
CONTINUOUS
 62
256
 10
-161.424352000000000
 20
-19.878285999999999
 11
3.575648000000000
 21
-19.878285999999999
  0
LINE
  8
0
  6
CONTINUOUS
 62
256
 10
-173.424352000000000
 20
-183.878286000000000
 11
-173.424352000000000
 21
-31.878285999999999
  0
LINE
  8
0
  6
CONTINUOUS
 62
256
 10
3.575648000000000
 20
-195.878286000000000
 11
-161.424352000000000
 21
-195.878286000000000
  0
LINE
  8
0
  6
DASHDOT
 62
256
 10
-158.424352000000000
 20
-22.878285999999999
 11
-158.424352000000000
 21
-46.878286000000003
  0
LINE
  8
0
  6
DASHDOT
 62
256
 10
-170.424352000000000
 20
-34.878286000000003
 11
-146.424352000000000
 21
-34.878286000000003
  0
LINE
  8
0
  6
DASHDOT
 62
256
 10
-158.424352000000000
 20
-168.878286000000000
 11
-158.424352000000000
 21
-192.878286000000000
  0
LINE
  8
0
  6
DASHDOT
 62
256
 10
-170.424352000000000
 20
-180.878286000000000
 11
-146.424352000000000
 21
-180.878286000000000
  0
LINE
  8
0
  6
DASHDOT
 62
256
 10
0.575648000000000
 20
-168.878286000000000
 11
0.575648000000000
 21
-192.878286000000000
  0
LINE
  8
0
  6
DASHDOT
 62
256
 10
-11.424352000000001
 20
-180.878286000000000
 11
12.575647999999999
 21
-180.878286000000000
  0
LINE
  8
0
  6
DASHDOT
 62
256
 10
0.575648000000000
 20
-22.878285999999999
 11
0.575648000000000
 21
-46.878286000000003
  0
LINE
  8
0
  6
DASHDOT
 62
256
 10
-11.424352000000001
 20
-34.878286000000003
 11
12.575647999999999
 21
-34.878286000000003
  0
LINE
  8
0
  6
DASHDOT
 62
256
 10
-101.424352000000000
 20
-15.670279000000001
 11
-101.424352000000000
 21
-198.303183999999990
  0
LINE
  8
0
  6
DASHDOT
 62
256
 10
-175.410117000000010
 20
-91.878286000000003
 11
-36.393352000000000
 21
-91.878286000000003
  0
LINE
  8
0
  6
CONTINUOUS
 62
256
 10
15.575647999999999
 20
-107.878129000000000
 11
15.575647999999999
 21
-183.878286000000000
  0
ARC
  8
0
  6
CONTINUOUS
 62
256
 10
34.075882000000000
 20
-52.781821999999998
 40
3.000000000000000
 50
270.000000000000000
 51
0.000000000000000
  0
ARC
  8
0
  6
CONTINUOUS
 62
256
 10
34.075882000000000
 20
-65.693398000000002
 40
3.000000000000000
 50
0.000000000000000
 51
90.000000000000000
  0
ARC
  8
0
  6
CONTINUOUS
 62
256
 10
34.075882000000000
 20
-71.876862000000003
 40
3.000000000000000
 50
0.000000000000000
 51
90.000000000000000
  0
ARC
  8
0
  6
CONTINUOUS
 62
256
 10
40.075882000000000
 20
-51.378129000000001
 40
3.000000000000000
 50
90.000000000000000
 51
180.000000000000000
  0
ARC
  8
0
  6
CONTINUOUS
 62
256
 10
40.075882000000000
 20
-164.378129000000000
 40
3.000000000000000
 50
180.000000000000000
 51
270.000000000000000
  0
ARC
  8
0
  6
CONTINUOUS
 62
256
 10
34.075882000000000
 20
-150.062860000000000
 40
3.000000000000000
 50
270.000000000000000
 51
0.000000000000000
  0
ARC
  8
0
  6
CONTINUOUS
 62
256
 10
34.075882000000000
 20
-162.974436999999990
 40
3.000000000000000
 50
0.000000000000000
 51
90.000000000000000
  0
ARC
  8
0
  6
CONTINUOUS
 62
256
 10
34.075882000000000
 20
-143.879396000000010
 40
3.000000000000000
 50
270.000000000000000
 51
0.000000000000000
  0
ARC
  8
0
  6
CONTINUOUS
 62
256
 10
-158.424352000000000
 20
-34.878286000000003
 40
17.500000000000000
 50
279.206895999999920
 51
350.793104000000030
  0
ARC
  8
0
  6
CONTINUOUS
 62
256
 10
-154.424352000000000
 20
-59.556210999999998
 40
7.500000000000000
 50
99.206896000000029
 51
180.000000000000000
  0
ARC
  8
0
  6
CONTINUOUS
 62
256
 10
-154.424352000000000
 20
-156.200359999999990
 40
7.500000000000000
 50
180.000000000000000
 51
260.793103999999970
  0
ARC
  8
0
  6
CONTINUOUS
 62
256
 10
-158.424352000000000
 20
-180.878286000000000
 40
17.499999999999993
 50
9.206895999999965
 51
80.793104000000028
  0
ARC
  8
0
  6
CONTINUOUS
 62
256
 10
-133.746426000000010
 20
-176.878286000000000
 40
7.500000000000014
 50
189.206896000000000
 51
270.000000000000000
  0
ARC
  8
0
  6
CONTINUOUS
 62
256
 10
-24.102277000000001
 20
-176.878286000000000
 40
7.500000000000000
 50
270.000000000000000
 51
350.793103999999970
  0
ARC
  8
0
  6
CONTINUOUS
 62
256
 10
0.575648000000000
 20
-180.878286000000000
 40
17.499999999999996
 50
99.206896000000000
 51
170.793103999999940
  0
ARC
  8
0
  6
CONTINUOUS
 62
256
 10
-3.424352000000000
 20
-156.200359999999990
 40
7.500000000000013
 50
279.206895999999920
 51
0.000000000000000
  0
ARC
  8
0
  6
CONTINUOUS
 62
256
 10
-133.746426000000010
 20
-38.878286000000003
 40
7.500000000000000
 50
90.000000000000000
 51
170.793104000000000
  0
ARC
  8
0
  6
CONTINUOUS
 62
256
 10
-24.102277000000001
 20
-38.878286000000003
 40
7.500000000000000
 50
9.206896000000024
 51
90.000000000000000
  0
ARC
  8
0
  6
CONTINUOUS
 62
256
 10
0.575648000000000
 20
-34.878286000000003
 40
17.500000000000000
 50
189.206895999999970
 51
260.793104000000030
  0
ARC
  8
0
  6
CONTINUOUS
 62
256
 10
-3.424352000000000
 20
-59.556210999999998
 40
7.500000000000000
 50
0.000000000000000
 51
80.793104000000000
  0
ARC
  8
0
  6
CONTINUOUS
 62
256
 10
-133.746426000000010
 20
-38.878286000000003
 40
10.000000000000000
 50
90.000000000000000
 51
170.793104000000030
  0
ARC
  8
0
  6
CONTINUOUS
 62
256
 10
-154.424352000000000
 20
-59.556210999999998
 40
10.000000000000004
 50
99.206896000000086
 51
180.000000000000000
  0
ARC
  8
0
  6
CONTINUOUS
 62
256
 10
-154.424352000000000
 20
-156.200359999999990
 40
10.000000000000000
 50
180.000000000000000
 51
260.793104000000080
  0
ARC
  8
0
  6
CONTINUOUS
 62
256
 10
-133.746426000000010
 20
-176.878286000000000
 40
10.000000000000007
 50
189.206895999999890
 51
270.000000000000000
  0
ARC
  8
0
  6
CONTINUOUS
 62
256
 10
-24.102277000000001
 20
-176.878286000000000
 40
10.000000000000000
 50
270.000000000000000
 51
350.793104000000080
  0
ARC
  8
0
  6
CONTINUOUS
 62
256
 10
-3.424352000000000
 20
-156.200359999999990
 40
10.000000000000007
 50
279.206895999999920
 51
0.000000000000000
  0
ARC
  8
0
  6
CONTINUOUS
 62
256
 10
-3.424352000000000
 20
-59.556210999999998
 40
10.000000000000000
 50
0.000000000000000
 51
80.793104000000000
  0
ARC
  8
0
  6
CONTINUOUS
 62
256
 10
-24.102277000000001
 20
-38.878286000000003
 40
10.000000000000000
 50
9.206895999999997
 51
90.000000000000000
  0
ARC
  8
0
  6
CONTINUOUS
 62
256
 10
-158.424352000000000
 20
-34.878286000000003
 40
14.999999999999996
 50
279.206895999999920
 51
350.793104000000030
  0
ARC
  8
0
  6
CONTINUOUS
 62
256
 10
-158.424352000000000
 20
-180.878286000000000
 40
15.000000000000000
 50
9.206896000000024
 51
80.793103999999985
  0
ARC
  8
0
  6
CONTINUOUS
 62
256
 10
0.575648000000000
 20
-180.878286000000000
 40
14.999999999999998
 50
99.206896000000000
 51
170.793103999999970
  0
ARC
  8
0
  6
CONTINUOUS
 62
256
 10
0.575648000000000
 20
-34.878286000000003
 40
15.000000000000002
 50
189.206895999999970
 51
260.793104000000030
  0
CIRCLE
  8
0
  6
CONTINUOUS
 62
256
 10
-101.424352000000000
 20
-91.878286000000003
 40
55.000000000000000
  0
CIRCLE
  8
0
  6
CONTINUOUS
 62
256
 10
-101.424352000000000
 20
-91.878286000000003
 40
30.500000000000000
  0
CIRCLE
  8
0
  6
CONTINUOUS
 62
256
 10
-101.424352000000000
 20
-91.878286000000003
 40
52.500000000000000
  0
ARC
  8
0
  6
CONTINUOUS
 62
256
 10
18.575648000000001
 20
-44.941291999999997
 40
3.000000000000000
 50
180.000000000000000
 51
268.999999999999940
  0
ARC
  8
0
  6
CONTINUOUS
 62
256
 10
18.575648000000001
 20
-170.814967000000000
 40
3.000000000000011
 50
91.000000000000014
 51
180.000000000000000
  0
ARC
  8
0
  6
CONTINUOUS
 62
256
 10
3.575648000000000
 20
-31.878285999999999
 40
12.000000000000000
 50
0.000000000000000
 51
90.000000000000000
  0
ARC
  8
0
  6
CONTINUOUS
 62
256
 10
3.575648000000000
 20
-183.878286000000000
 40
12.000000000000000
 50
270.000000000000000
 51
0.000000000000000
  0
ARC
  8
0
  6
CONTINUOUS
 62
256
 10
-161.424352000000000
 20
-183.878286000000000
 40
12.000000000000000
 50
180.000000000000000
 51
270.000000000000000
  0
ARC
  8
0
  6
CONTINUOUS
 62
256
 10
-161.424352000000000
 20
-31.878285999999999
 40
12.000000000000000
 50
90.000000000000000
 51
180.000000000000000
  0
ARC
  8
0
  6
CONTINUOUS
 62
256
 10
3.575648000000000
 20
-31.878285999999999
 40
10.199999999999999
 50
0.000000000000000
 51
90.000000000000000
  0
ARC
  8
0
  6
CONTINUOUS
 62
256
 10
-161.424352000000000
 20
-31.878285999999999
 40
10.199999999999999
 50
90.000000000000000
 51
180.000000000000000
  0
LINE
  8
0
  6
CONTINUOUS
 62
256
 10
26.075882000000000
 20
-164.617130000000000
 11
26.075882000000000
 21
-51.139128999999997
  0
ARC
  8
0
  6
CONTINUOUS
 62
256
 10
29.075882000000000
 20
-51.139128999999997
 40
2.999999999999999
 50
89.018827000000030
 51
180.000000000000000
  0
ARC
  8
0
  6
CONTINUOUS
 62
256
 10
29.075882000000000
 20
-164.617130000000000
 40
3.000000000000000
 50
180.000000000000000
 51
270.981173000000010
  0
ARC
  8
0
  6
CONTINUOUS
 62
256
 10
29.075882000000000
 20
-156.974436999999990
 40
3.000000000000000
 50
180.000000000000000
 51
270.000000000000000
  0
ARC
  8
0
  6
CONTINUOUS
 62
256
 10
29.075882000000000
 20
-150.062860000000000
 40
3.000000000000000
 50
180.000000000000000
 51
270.000000000000000
  0
ARC
  8
0
  6
CONTINUOUS
 62
256
 10
29.075882000000000
 20
-58.781821999999998
 40
3.000000000000000
 50
90.000000000000000
 51
180.000000000000000
  0
ARC
  8
0
  6
CONTINUOUS
 62
256
 10
29.075882000000000
 20
-65.693398000000002
 40
3.000000000000000
 50
90.000000000000000
 51
180.000000000000000
  0
LINE
  8
0
  6
CONTINUOUS
 62
256
 10
37.075882000000000
 20
-87.878129000000001
 11
44.075882000000000
 21
-87.878129000000001
  0
LINE
  8
0
  6
CONTINUOUS
 62
256
 10
37.075882000000000
 20
-127.878129000000000
 11
44.075882000000000
 21
-127.878129000000000
  0
LINE
  8
0
  6
CONTINUOUS
 62
256
 10
148.875881999999990
 20
-44.378129000000001
 11
148.875881999999990
 21
-46.150275000000001
  0
LINE
  8
0
  6
CONTINUOUS
 62
256
 10
58.875881999999997
 20
-44.378129000000001
 11
148.875881999999990
 21
-44.378129000000001
  0
LINE
  8
0
  6
CONTINUOUS
 62
256
 10
58.875881999999997
 20
-44.378129000000001
 11
58.875881999999997
 21
-49.378129000000001
  0
LINE
  8
0
  6
CONTINUOUS
 62
256
 10
58.875881999999997
 20
-49.378129000000001
 11
141.075882000000010
 21
-49.378129000000001
  0
LINE
  8
0
  6
CONTINUOUS
 62
256
 10
147.875881999999990
 20
-10.378128999999999
 11
59.875881999999997
 21
-10.378128999999999
  0
LINE
  8
0
  6
CONTINUOUS
 62
256
 10
148.875881999999990
 20
-44.378129000000001
 11
148.875881999999990
 21
-11.378128999999999
  0
ARC
  8
0
  6
CONTINUOUS
 62
256
 10
147.875881999999990
 20
-11.378128999999999
 40
1.000000000000000
 50
0.000000000000000
 51
90.000000000000000
  0
LINE
  8
0
  6
CONTINUOUS
 62
256
 10
148.875881999999990
 20
-44.378129000000001
 11
58.875881999999997
 21
-44.378129000000001
  0
LINE
  8
0
  6
CONTINUOUS
 62
256
 10
58.875881999999997
 20
-44.378129000000001
 11
58.875881999999997
 21
-11.378128999999999
  0
ARC
  8
0
  6
CONTINUOUS
 62
256
 10
59.875881999999997
 20
-11.378128999999999
 40
1.000000000000000
 50
90.000000000000000
 51
180.000000000000000
  0
LINE
  8
0
  6
CONTINUOUS
 62
256
 10
73.875882000000004
 20
-9.878129000000000
 11
65.875882000000004
 21
-9.878129000000000
  0
LINE
  8
0
  6
CONTINUOUS
 62
256
 10
141.875881999999990
 20
-9.878129000000000
 11
133.875881999999990
 21
-9.878129000000000
  0
LINE
  8
0
  6
CONTINUOUS
 62
256
 10
65.875882000000004
 20
-10.378128999999999
 11
65.875882000000004
 21
-9.878129000000000
  0
LINE
  8
0
  6
CONTINUOUS
 62
256
 10
73.875882000000004
 20
-10.378128999999999
 11
73.875882000000004
 21
-9.878129000000000
  0
LINE
  8
0
  6
CONTINUOUS
 62
256
 10
133.875881999999990
 20
-10.378128999999999
 11
133.875881999999990
 21
-9.878129000000000
  0
LINE
  8
0
  6
CONTINUOUS
 62
256
 10
141.875881999999990
 20
-10.378128999999999
 11
141.875881999999990
 21
-9.878129000000000
  0
LINE
  8
0
  6
CONTINUOUS
 62
256
 10
139.375881999999990
 20
-10.378128999999999
 11
139.375881999999990
 21
-9.878129000000000
  0
LINE
  8
0
  6
CONTINUOUS
 62
256
 10
68.375882000000004
 20
-10.378128999999999
 11
68.375882000000004
 21
-9.878129000000000
  0
LINE
  8
0
  6
CONTINUOUS
 62
256
 10
148.075882000000010
 20
-46.258907999999998
 11
144.075882000000010
 21
-46.258907999999998
  0
LINE
  8
0
  6
CONTINUOUS
 62
256
 10
244.075882000000010
 20
-107.878129000000000
 11
244.075882000000010
 21
-55.434924000000002
  0
LINE
  8
0
  6
CONTINUOUS
 62
256
 10
44.075882000000000
 20
-48.378129000000001
 11
44.075882000000000
 21
-107.878129000000000
  0
LINE
  8
0
  6
CONTINUOUS
 62
256
 10
141.075882000000010
 20
-107.878129000000000
 11
141.075882000000010
 21
-49.258907999999998
  0
ARC
  8
0
  6
CONTINUOUS
 62
256
 10
148.075882000000010
 20
-43.258907999999998
 40
3.000000000000000
 50
270.000000000000000
 51
0.000000000000000
  0
ARC
  8
0
  6
CONTINUOUS
 62
256
 10
144.075882000000010
 20
-49.258907999999998
 40
3.000000000000000
 50
90.000000000000000
 51
180.000000000000000
  0
ARC
  8
0
  6
CONTINUOUS
 62
256
 10
241.475882000000010
 20
-160.321334000000010
 40
2.599999999999996
 50
305.000000000000230
 51
0.000000000000000
  0
LINE
  8
0
  6
CONTINUOUS
 62
256
 10
233.241434000000000
 20
-169.261169999999990
 11
242.967180000000010
 21
-162.451130000000010
  0
ARC
  8
0
  6
CONTINUOUS
 62
256
 10
221.769905999999990
 20
-152.878129000000000
 40
20.000000000000000
 50
270.000000000000000
 51
304.999999999999940
  0
LINE
  8
0
  6
CONTINUOUS
 62
256
 10
244.075882000000010
 20
-107.878129000000000
 11
244.075882000000010
 21
-160.321334000000010
  0
LINE
  8
0
  6
CONTINUOUS
 62
256
 10
141.075882000000010
 20
-172.878129000000000
 11
221.769905999999990
 21
-172.878129000000000
  0
LINE
  8
0
  6
CONTINUOUS
 62
256
 10
44.075882000000000
 20
-167.378129000000000
 11
44.075882000000000
 21
-107.878129000000000
  0
LINE
  8
0
  6
CONTINUOUS
 62
256
 10
74.075881999999993
 20
-167.378129000000000
 11
44.075882000000000
 21
-167.378129000000000
  0
LINE
  8
0
  6
CONTINUOUS
 62
256
 10
141.075882000000010
 20
-164.878129000000000
 11
44.075882000000000
 21
-164.878129000000000
  0
LINE
  8
0
  6
CONTINUOUS
 62
256
 10
141.075882000000010
 20
-163.878129000000000
 11
44.075882000000000
 21
-163.878129000000000
  0
LINE
  8
0
  6
CONTINUOUS
 62
256
 10
141.075882000000010
 20
-162.878129000000000
 11
44.075882000000000
 21
-162.878129000000000
  0
LINE
  8
0
  6
CONTINUOUS
 62
256
 10
141.075882000000010
 20
-107.878129000000000
 11
141.075882000000010
 21
-172.878129000000000
  0
LINE
  8
0
  6
CONTINUOUS
 62
256
 10
141.075882000000010
 20
-158.193662999999990
 11
44.075882000000000
 21
-158.193662999999990
  0
LINE
  8
0
  6
CONTINUOUS
 62
256
 10
141.075882000000010
 20
-153.243916000000010
 11
44.075882000000000
 21
-153.243916000000010
  0
LINE
  8
0
  6
CONTINUOUS
 62
256
 10
141.075882000000010
 20
-122.878129000000000
 11
44.075882000000000
 21
-122.878129000000000
  0
LINE
  8
0
  6
CONTINUOUS
 62
256
 10
141.075882000000010
 20
-127.251391000000000
 11
44.075882000000000
 21
-127.251391000000000
  0
LINE
  8
0
  6
CONTINUOUS
 62
256
 10
141.075882000000010
 20
-128.517629000000000
 11
44.075882000000000
 21
-128.517629000000000
  0
LINE
  8
0
  6
CONTINUOUS
 62
256
 10
141.075882000000010
 20
-132.708182999999990
 11
44.075882000000000
 21
-132.708182999999990
  0
LINE
  8
0
  6
CONTINUOUS
 62
256
 10
141.075882000000010
 20
-134.070063000000000
 11
44.075882000000000
 21
-134.070063000000000
  0
LINE
  8
0
  6
CONTINUOUS
 62
256
 10
141.075882000000010
 20
-138.160563999999990
 11
44.075882000000000
 21
-138.160563999999990
  0
LINE
  8
0
  6
CONTINUOUS
 62
256
 10
141.075882000000010
 20
-139.628920999999990
 11
44.075882000000000
 21
-139.628920999999990
  0
LINE
  8
0
  6
CONTINUOUS
 62
256
 10
141.075882000000010
 20
-143.592666000000010
 11
44.075882000000000
 21
-143.592666000000010
  0
LINE
  8
0
  6
CONTINUOUS
 62
256
 10
141.075882000000010
 20
-145.197314000000010
 11
44.075882000000000
 21
-145.197314000000010
  0
LINE
  8
0
  6
CONTINUOUS
 62
256
 10
141.075882000000010
 20
-92.878129000000001
 11
44.075882000000000
 21
-92.878129000000001
  0
LINE
  8
0
  6
CONTINUOUS
 62
256
 10
141.075882000000010
 20
-88.504867000000004
 11
44.075882000000000
 21
-88.504867000000004
  0
LINE
  8
0
  6
CONTINUOUS
 62
256
 10
141.075882000000010
 20
-87.238630000000001
 11
44.075882000000000
 21
-87.238630000000001
  0
LINE
  8
0
  6
CONTINUOUS
 62
256
 10
141.075882000000010
 20
-83.048075999999995
 11
44.075882000000000
 21
-83.048075999999995
  0
LINE
  8
0
  6
CONTINUOUS
 62
256
 10
141.075882000000010
 20
-81.686195999999995
 11
44.075882000000000
 21
-81.686195999999995
  0
LINE
  8
0
  6
CONTINUOUS
 62
256
 10
141.075882000000010
 20
-77.595695000000006
 11
44.075882000000000
 21
-77.595695000000006
  0
LINE
  8
0
  6
CONTINUOUS
 62
256
 10
141.075882000000010
 20
-76.127337999999995
 11
44.075882000000000
 21
-76.127337999999995
  0
LINE
  8
0
  6
CONTINUOUS
 62
256
 10
141.075882000000010
 20
-72.163591999999994
 11
44.075882000000000
 21
-72.163591999999994
  0
LINE
  8
0
  6
CONTINUOUS
 62
256
 10
141.075882000000010
 20
-70.558943999999997
 11
44.075882000000000
 21
-70.558943999999997
  0
LINE
  8
0
  6
CONTINUOUS
 62
256
 10
141.075882000000010
 20
-62.512343000000001
 11
44.075882000000000
 21
-62.512343000000001
  0
LINE
  8
0
  6
CONTINUOUS
 62
256
 10
141.075882000000010
 20
-52.878129000000001
 11
44.075882000000000
 21
-52.878129000000001
  0
LINE
  8
0
  6
CONTINUOUS
 62
256
 10
141.075882000000010
 20
-51.878129000000001
 11
44.075882000000000
 21
-51.878129000000001
  0
LINE
  8
0
  6
CONTINUOUS
 62
256
 10
141.075882000000010
 20
-50.878129000000001
 11
44.075882000000000
 21
-50.878129000000001
  0
LINE
  8
0
  6
CONTINUOUS
 62
256
 10
152.075882000000010
 20
-161.618244000000000
 11
154.075882000000010
 21
-159.965602999999990
  0
LINE
  8
0
  6
CONTINUOUS
 62
256
 10
150.075882000000010
 20
-162.794029999999990
 11
152.075882000000010
 21
-161.618244000000000
  0
LINE
  8
0
  6
CONTINUOUS
 62
256
 10
152.075882000000010
 20
-161.618244000000000
 11
150.075882000000010
 21
-159.965602999999990
  0
LINE
  8
0
  6
CONTINUOUS
 62
256
 10
154.075882000000010
 20
-162.794029999999990
 11
152.075882000000010
 21
-161.618244000000000
  0
POLYLINE
  8
0
  6
CONTINUOUS
 62
256
 66
1
 70
1
  0
VERTEX
  8
0
  6
CONTINUOUS
 62
256
 10
156.775882000000000
 20
-159.801654000000010
  0
VERTEX
  8
0
  6
CONTINUOUS
 62
256
 10
156.685572817895180
 20
-159.098697489441830
  0
VERTEX
  8
0
  6
CONTINUOUS
 62
256
 10
156.418115802803040
 20
-158.422755203361870
  0
VERTEX
  8
0
  6
CONTINUOUS
 62
256
 10
155.983789177821960
 20
-157.799803224741340
  0
VERTEX
  8
0
  6
CONTINUOUS
 62
256
 10
155.399283871576780
 20
-157.253781248763180
  0
VERTEX
  8
0
  6
CONTINUOUS
 62
256
 10
154.687062095192120
 20
-156.805672593751520
  0
VERTEX
  8
0
  6
CONTINUOUS
 62
256
 10
153.874494132115930
 20
-156.472697824016280
  0
VERTEX
  8
0
  6
CONTINUOUS
 62
256
 10
152.992806513475810
 20
-156.267652973223930
  0
VERTEX
  8
0
  6
CONTINUOUS
 62
256
 10
152.075882000000010
 20
-156.198417800000020
  0
VERTEX
  8
0
  6
CONTINUOUS
 62
256
 10
151.158957486524200
 20
-156.267652973223930
  0
VERTEX
  8
0
  6
CONTINUOUS
 62
256
 10
150.277269867884090
 20
-156.472697824016280
  0
VERTEX
  8
0
  6
CONTINUOUS
 62
256
 10
149.464701904807900
 20
-156.805672593751520
  0
VERTEX
  8
0
  6
CONTINUOUS
 62
256
 10
148.752480128423230
 20
-157.253781248763180
  0
VERTEX
  8
0
  6
CONTINUOUS
 62
256
 10
148.167974822178050
 20
-157.799803224741340
  0
VERTEX
  8
0
  6
CONTINUOUS
 62
256
 10
147.733648197196970
 20
-158.422755203361870
  0
VERTEX
  8
0
  6
CONTINUOUS
 62
256
 10
147.466191182104840
 20
-159.098697489441830
  0
VERTEX
  8
0
  6
CONTINUOUS
 62
256
 10
147.375882000000020
 20
-159.801654000000010
  0
VERTEX
  8
0
  6
CONTINUOUS
 62
256
 10
147.466191182104840
 20
-160.504610510558190
  0
VERTEX
  8
0
  6
CONTINUOUS
 62
256
 10
147.733648197196970
 20
-161.180552796638150
  0
VERTEX
  8
0
  6
CONTINUOUS
 62
256
 10
148.167974822178050
 20
-161.803504775258690
  0
VERTEX
  8
0
  6
CONTINUOUS
 62
256
 10
148.752480128423230
 20
-162.349526751236850
  0
VERTEX
  8
0
  6
CONTINUOUS
 62
256
 10
149.464701904807900
 20
-162.797635406248500
  0
VERTEX
  8
0
  6
CONTINUOUS
 62
256
 10
150.277269867884090
 20
-163.130610175983750
  0
VERTEX
  8
0
  6
CONTINUOUS
 62
256
 10
151.158957486524200
 20
-163.335655026776070
  0
VERTEX
  8
0
  6
CONTINUOUS
 62
256
 10
152.075882000000010
 20
-163.404890200000010
  0
VERTEX
  8
0
  6
CONTINUOUS
 62
256
 10
152.992806513475810
 20
-163.335655026776070
  0
VERTEX
  8
0
  6
CONTINUOUS
 62
256
 10
153.874494132115930
 20
-163.130610175983750
  0
VERTEX
  8
0
  6
CONTINUOUS
 62
256
 10
154.687062095192120
 20
-162.797635406248500
  0
VERTEX
  8
0
  6
CONTINUOUS
 62
256
 10
155.399283871576760
 20
-162.349526751236850
  0
VERTEX
  8
0
  6
CONTINUOUS
 62
256
 10
155.983789177821960
 20
-161.803504775258690
  0
VERTEX
  8
0
  6
CONTINUOUS
 62
256
 10
156.418115802803040
 20
-161.180552796638150
  0
VERTEX
  8
0
  6
CONTINUOUS
 62
256
 10
156.685572817895180
 20
-160.504610510558190
  0
SEQEND
  8
0
  6
CONTINUOUS
 62
256
  0
LINE
  8
0
  6
CONTINUOUS
 62
256
 10
152.075882000000010
 20
-54.138013999999998
 11
154.075882000000010
 21
-55.790655999999998
  0
LINE
  8
0
  6
CONTINUOUS
 62
256
 10
150.075882000000010
 20
-52.962229000000001
 11
152.075882000000010
 21
-54.138013999999998
  0
LINE
  8
0
  6
CONTINUOUS
 62
256
 10
58.875881999999997
 20
-48.378129000000001
 11
44.075882000000000
 21
-48.378129000000001
  0
ARC
  8
0
  6
CONTINUOUS
 62
256
 10
221.769905999999990
 20
-62.878129000000001
 40
19.999999999999993
 50
55.000000000000028
 51
90.000000000000000
  0
LINE
  8
0
  6
CONTINUOUS
 62
256
 10
152.075882000000010
 20
-54.138013999999998
 11
150.075882000000010
 21
-55.790655999999998
  0
LINE
  8
0
  6
CONTINUOUS
 62
256
 10
154.075882000000010
 20
-52.962229000000001
 11
152.075882000000010
 21
-54.138013999999998
  0
POLYLINE
  8
0
  6
CONTINUOUS
 62
256
 66
1
 70
1
  0
VERTEX
  8
0
  6
CONTINUOUS
 62
256
 10
156.775882000000000
 20
-55.954604000000003
  0
VERTEX
  8
0
  6
CONTINUOUS
 62
256
 10
156.685572817895180
 20
-55.251647489441837
  0
VERTEX
  8
0
  6
CONTINUOUS
 62
256
 10
156.418115802803040
 20
-54.575705203361863
  0
VERTEX
  8
0
  6
CONTINUOUS
 62
256
 10
155.983789177821960
 20
-53.952753224741343
  0
VERTEX
  8
0
  6
CONTINUOUS
 62
256
 10
155.399283871576780
 20
-53.406731248763165
  0
VERTEX
  8
0
  6
CONTINUOUS
 62
256
 10
154.687062095192120
 20
-52.958622593751514
  0
VERTEX
  8
0
  6
CONTINUOUS
 62
256
 10
153.874494132115930
 20
-52.625647824016269
  0
VERTEX
  8
0
  6
CONTINUOUS
 62
256
 10
152.992806513475810
 20
-52.420602973223943
  0
VERTEX
  8
0
  6
CONTINUOUS
 62
256
 10
152.075882000000010
 20
-52.351367800000013
  0
VERTEX
  8
0
  6
CONTINUOUS
 62
256
 10
151.158957486524200
 20
-52.420602973223943
  0
VERTEX
  8
0
  6
CONTINUOUS
 62
256
 10
150.277269867884090
 20
-52.625647824016269
  0
VERTEX
  8
0
  6
CONTINUOUS
 62
256
 10
149.464701904807900
 20
-52.958622593751514
  0
VERTEX
  8
0
  6
CONTINUOUS
 62
256
 10
148.752480128423230
 20
-53.406731248763165
  0
VERTEX
  8
0
  6
CONTINUOUS
 62
256
 10
148.167974822178050
 20
-53.952753224741343
  0
VERTEX
  8
0
  6
CONTINUOUS
 62
256
 10
147.733648197196970
 20
-54.575705203361863
  0
VERTEX
  8
0
  6
CONTINUOUS
 62
256
 10
147.466191182104840
 20
-55.251647489441837
  0
VERTEX
  8
0
  6
CONTINUOUS
 62
256
 10
147.375882000000020
 20
-55.954604000000003
  0
VERTEX
  8
0
  6
CONTINUOUS
 62
256
 10
147.466191182104840
 20
-56.657560510558170
  0
VERTEX
  8
0
  6
CONTINUOUS
 62
256
 10
147.733648197196970
 20
-57.333502796638143
  0
VERTEX
  8
0
  6
CONTINUOUS
 62
256
 10
148.167974822178050
 20
-57.956454775258663
  0
VERTEX
  8
0
  6
CONTINUOUS
 62
256
 10
148.752480128423230
 20
-58.502476751236841
  0
VERTEX
  8
0
  6
CONTINUOUS
 62
256
 10
149.464701904807900
 20
-58.950585406248493
  0
VERTEX
  8
0
  6
CONTINUOUS
 62
256
 10
150.277269867884090
 20
-59.283560175983737
  0
VERTEX
  8
0
  6
CONTINUOUS
 62
256
 10
151.158957486524200
 20
-59.488605026776064
  0
VERTEX
  8
0
  6
CONTINUOUS
 62
256
 10
152.075882000000010
 20
-59.557840199999994
  0
VERTEX
  8
0
  6
CONTINUOUS
 62
256
 10
152.992806513475810
 20
-59.488605026776064
  0
VERTEX
  8
0
  6
CONTINUOUS
 62
256
 10
153.874494132115930
 20
-59.283560175983737
  0
VERTEX
  8
0
  6
CONTINUOUS
 62
256
 10
154.687062095192120
 20
-58.950585406248493
  0
VERTEX
  8
0
  6
CONTINUOUS
 62
256
 10
155.399283871576760
 20
-58.502476751236841
  0
VERTEX
  8
0
  6
CONTINUOUS
 62
256
 10
155.983789177821960
 20
-57.956454775258663
  0
VERTEX
  8
0
  6
CONTINUOUS
 62
256
 10
156.418115802803040
 20
-57.333502796638143
  0
VERTEX
  8
0
  6
CONTINUOUS
 62
256
 10
156.685572817895180
 20
-56.657560510558170
  0
SEQEND
  8
0
  6
CONTINUOUS
 62
256
  0
LINE
  8
0
  6
CONTINUOUS
 62
256
 10
151.075882000000010
 20
-42.878129000000001
 11
221.769905999999990
 21
-42.878129000000001
  0
LINE
  8
0
  6
DASHDOT
 62
256
 10
36.099884000000003
 20
-107.878129000000000
 11
254.005094000000010
 21
-107.878129000000000
  0
ARC
  8
0
  6
CONTINUOUS
 62
256
 10
241.475882000000010
 20
-55.434924000000002
 40
2.599999999999994
 50
0.000000000000000
 51
54.999999999999886
  0
LINE
  8
0
  6
CONTINUOUS
 62
256
 10
233.241434000000000
 20
-46.495088000000003
 11
242.967180000000010
 21
-53.305129000000001
  0
LINE
  8
0
  6
CONTINUOUS
 62
256
 10
141.075882000000010
 20
-167.378129000000000
 11
44.075882000000000
 21
-167.378129000000000
  0
LINE
  8
0
  6
CONTINUOUS
 62
256
 10
151.075882000000010
 20
-42.878129000000001
 11
151.075882000000010
 21
-43.258907999999998
  0
LINE
  8
0
  6
CONTINUOUS
 62
256
 10
141.075882000000010
 20
-57.562595000000002
 11
44.075882000000000
 21
-57.562595000000002
  0
ARC
  8
0
  6
CONTINUOUS
 62
256
 10
-500.826094000000010
 20
-17.011465000000001
 40
5.000000000000000
 50
96.032049000000015
 51
180.000000000000000
  0
LINE
  8
0
  6
CONTINUOUS
 62
256
 10
-505.826094000000010
 20
-19.832891000000000
 11
-505.826094000000010
 21
-17.011465000000001
  0
LINE
  8
0
  6
CONTINUOUS
 62
256
 10
-433.826094000000010
 20
-21.089656000000002
 11
-433.826094000000010
 21
-17.011465000000001
  0
ARC
  8
0
  6
CONTINUOUS
 62
256
 10
-438.826094000000010
 20
-17.011465000000001
 40
5.000000000000000
 50
0.000000000000000
 51
83.967950999999999
  0
LINE
  8
0
  6
CONTINUOUS
 62
256
 10
-467.326094000000010
 20
-9.878129000000000
 11
-472.326094000000010
 21
-9.878129000000000
  0
LINE
  8
0
  6
CONTINUOUS
 62
256
 10
-472.326094000000010
 20
-10.378131000000000
 11
-472.326094000000010
 21
-9.878129000000000
  0
LINE
  8
0
  6
CONTINUOUS
 62
256
 10
-467.326094000000010
 20
-10.388546000000000
 11
-467.326094000000010
 21
-9.878129000000000
  0
ARC
  8
0
  6
CONTINUOUS
 62
256
 10
-469.826094000000010
 20
-310.378129000000000
 40
300.000000000000000
 50
83.967950999999999
 51
96.032049000000001
  0
LINE
  8
0
  6
DASHDOT
 62
256
 10
-342.087767999999980
 20
-91.878286000000003
 11
-540.443332000000050
 21
-91.878286000000003
  0
LINE
  8
0
  6
CONTINUOUS
 62
256
 10
-349.826299000000010
 20
-72.878286000000003
 11
-349.826299000000010
 21
-107.078286000000010
  0
ARC
  8
0
  6
CONTINUOUS
 62
256
 10
-350.626299000000020
 20
-107.078286000000010
 40
0.799999999999997
 50
270.000000000000000
 51
0.000000000000000
  0
ARC
  8
0
  6
CONTINUOUS
 62
256
 10
-350.626299000000020
 20
-76.678286000000000
 40
0.800000000000011
 50
0.000000000000000
 51
90.000000000000000
  0
LINE
  8
0
  6
CONTINUOUS
 62
256
 10
-404.426229999999980
 20
-107.878286000000000
 11
-350.626299000000020
 21
-107.878286000000000
  0
LINE
  8
0
  6
CONTINUOUS
 62
256
 10
-404.426229999999980
 20
-75.878286000000003
 11
-350.626299000000020
 21
-75.878286000000003
  0
LINE
  8
0
  6
CONTINUOUS
 62
256
 10
-389.826299000000010
 20
-72.878286000000003
 11
-349.826299000000010
 21
-72.878286000000003
  0
LINE
  8
0
  6
CONTINUOUS
 62
256
 10
-389.826299000000010
 20
-72.878286000000003
 11
-389.826299000000010
 21
-75.878286000000003
  0
LINE
  8
0
  6
CONTINUOUS
 62
256
 10
-404.826230000000010
 20
-74.778285999999994
 11
-404.826230000000010
 21
-108.978286000000000
  0
ARC
  8
0
  6
CONTINUOUS
 62
256
 10
-404.426229999999980
 20
-108.278285999999990
 40
0.400000000000006
 50
90.000000000000000
 51
180.000000000000000
  0
ARC
  8
0
  6
CONTINUOUS
 62
256
 10
-405.226229999999990
 20
-108.978286000000000
 40
0.400000000000006
 50
270.000000000000000
 51
0.000000000000000
  0
LINE
  8
0
  6
CONTINUOUS
 62
256
 10
-406.826094000000010
 20
-109.378286000000000
 11
-405.226229999999990
 21
-109.378286000000000
  0
ARC
  8
0
  6
CONTINUOUS
 62
256
 10
-404.426229999999980
 20
-75.478285999999997
 40
0.399999999999977
 50
180.000000000000000
 51
270.000000000000000
  0
ARC
  8
0
  6
CONTINUOUS
 62
256
 10
-405.226229999999990
 20
-74.778285999999994
 40
0.399999999999977
 50
0.000000000000000
 51
90.000000000000000
  0
LINE
  8
0
  6
CONTINUOUS
 62
256
 10
-406.826094000000010
 20
-74.378286000000003
 11
-405.226229999999990
 21
-74.378286000000003
  0
LINE
  8
0
  6
DASHDOT
 62
256
 10
-409.282493999999990
 20
-34.878286000000003
 11
-530.582857999999990
 21
-34.878286000000003
  0
LINE
  8
0
  6
DASHDOT
 62
256
 10
-409.282493999999990
 20
-180.878286000000000
 11
-530.582857999999990
 21
-180.878286000000000
  0
CIRCLE
  8
0
  6
CONTINUOUS
 62
256
 10
-101.424352000000000
 20
-91.878286000000003
 40
47.500000000000000
  0
ENDSEC
  0
EOF
