  0
SECTION
  2
HEADER
  9
$TEXTSIZE
 40
2.5
  9
$ACADVER
  1
AC1009
  9
$DIMASZ
 40
1.931851648807023
  9
$DIMEXE
 40
2.000000000000000
  9
$DIMEXO
 40
1.000000000000000
  9
$DIMLFAC
 40
1.000000000000000
  9
$DIMSCALE
 40
1.000000000000000
  9
$DIMTAD
 70
1
  9
$DIMTFAC
 40
0.625000000000000
  9
$DIMTXT
 40
2.799999952316284
  9
$LUPREC
 70
3
  9
$REGENMODE
 70
1
  9
$TEXTSTYLE
  7
STANDARD1
  0
ENDSEC
  0
SECTION
  2
TABLES
  0
TABLE
  2
LTYPE
 70
4
  0
LTYPE
  2
CONTINUOUS
 70
64
  3
Solid line
 72
65
 73
0
 40
0.0
  0
LTYPE
  2
DASHED
 70
64
  3
-- -- -- -- -- -- -- -- -- -- -- -- -- -- --
 72
65
 73
2
 40
0.75
 49
0.5
 49
-0.25
  0
LTYPE
  2
DASHDOT
 70
64
  3
__ . __ . __ . __ . __ . __ . __ . __ . __ . __
 72
65
 73
4
 40
1.0
 49
0.5
 49
-0.25
 49
0.0
 49
-0.25
  0
LTYPE
  2
DIVIDE
 70
64
  3
__ . . __ . . __ . . __ . . __ . . __ . . __
 72
65
 73
6
 40
1.25
 49
0.5
 49
-0.25
 49
0.0
 49
-0.25
 49
0.0
 49
-0.25
  0
ENDTAB
  0
TABLE
  2
LAYER
 70
4
  0
LAYER
  2
0
 70
64
 62
53
  6
CONTINUOUS
  0
LAYER
  2
1
 70
64
 62
102
  6
CONTINUOUS
  0
LAYER
  2
2
 70
64
 62
102
  6
CONTINUOUS
  0
LAYER
  2
3
 70
64
 62
3
  6
CONTINUOUS
  0
ENDTAB
  0
TABLE
  2
STYLE
 70
4
  0
STYLE
  2
STANDARD1
 70
64
 40
0.0
 41
1.0
 50
0.0
 71
0
 42
3.200000047683716
  3
MONOTXT
  4
BIGFONT
  0
STYLE
  2
STANDARD2
 70
68
 40
0.0
 41
1.0
 50
0.0
 71
0
 42
3.200000047683716
  3
MONOTXT
  4
BIGFONT
  0
STYLE
  2
STANDARD3
 70
64
 40
0.0
 41
1.0
 50
0.0
 71
0
 42
3.200000047683716
  3
MONOTXT
  4

  0
STYLE
  2
STANDARD4
 70
68
 40
0.0
 41
1.0
 50
0.0
 71
0
 42
3.200000047683716
  3
MONOTXT
  4

  0
ENDTAB
  0
TABLE
  2
VIEW
 70
0
  0
ENDTAB
  0
ENDSEC
  0
SECTION
  2
BLOCKS
  0
ENDSEC
  0
SECTION
  2
ENTITIES
  0
TEXT
  8
0
  6
CONTINUOUS
 62
256
 10
-70.375488281250000
 20
-13.156250000000000
 40
2.799999952316284
  1
ü@
 50
0.000002504478167
 41
0.996000017370497
  7
STANDARD1
  0
TEXT
  8
0
  6
CONTINUOUS
 62
256
 10
1.624511957168579
 20
-253.406250000000000
 40
2.799999952316284
  1
ü@
 50
0.000002504478167
 41
0.996000017370497
  7
STANDARD1
  0
ARC
  8
0
  6
CONTINUOUS
 62
256
 10
-19.362065000000001
 20
-77.846877000000006
 40
35.000000000000000
 50
270.000000000000000
 51
0.000000000000000
  0
LINE
  8
0
  6
CONTINUOUS
 62
256
 10
15.637935000000001
 20
-42.846876999999999
 11
15.637935000000001
 21
-77.846877000000006
  0
CIRCLE
  8
0
  6
CONTINUOUS
 62
256
 10
-34.362065000000001
 20
-42.846876999999999
 40
23.000000000000000
  0
CIRCLE
  8
0
  6
CONTINUOUS
 62
256
 10
-34.362065000000001
 20
-42.846876999999999
 40
26.000000000000000
  0
LINE
  8
0
  6
CONTINUOUS
 62
256
 10
-92.370793000000006
 20
-142.846877000000010
 11
-92.370793000000006
 21
-16.338149000000001
  0
ARC
  8
0
  6
CONTINUOUS
 62
256
 10
-62.370792999999999
 20
-16.847149000000002
 40
30.000000000000000
 50
90.000000000000000
 51
180.000000000000000
  0
LINE
  8
0
  6
CONTINUOUS
 62
256
 10
-2.353338000000000
 20
13.152851000000000
 11
-62.370792999999999
 21
13.152851000000000
  0
ARC
  8
0
  6
CONTINUOUS
 62
256
 10
-34.362065000000001
 20
-42.846876999999999
 40
50.000000000000000
 50
360.000000000000000
 51
180.000000000000000
  0
LINE
  8
0
  6
CONTINUOUS
 62
256
 10
27.646661999999999
 20
-142.846877000000010
 11
27.646661999999999
 21
-16.847149000000002
  0
LINE
  8
0
  6
CONTINUOUS
 62
256
 10
-49.362065000000001
 20
-112.846877000000010
 11
-19.362065000000001
 21
-112.846877000000010
  0
ARC
  8
0
  6
CONTINUOUS
 62
256
 10
-49.362065000000001
 20
-77.846877000000006
 40
35.000000000000000
 50
180.000000000000000
 51
270.000000000000000
  0
LINE
  8
0
  6
CONTINUOUS
 62
256
 10
-84.362065000000001
 20
-42.846876999999999
 11
-84.362065000000001
 21
-77.846877000000006
  0
ARC
  8
0
  6
CONTINUOUS
 62
256
 10
37.637625999999997
 20
-34.120856000000003
 40
3.000000000000000
 50
90.000000000000000
 51
180.000000000000000
  0
ARC
  8
0
  6
CONTINUOUS
 62
256
 10
-2.353338000000000
 20
-16.847149000000002
 40
30.000000000000000
 50
360.000000000000000
 51
90.000000000000000
  0
CIRCLE
  8
0
  6
CONTINUOUS
 62
256
 10
-34.362065000000001
 20
-42.846876999999999
 40
20.000000000000000
  0
LINE
  8
0
  6
CONTINUOUS
 62
256
 10
-92.362065000000001
 20
-142.846877000000010
 11
27.646661999999999
 21
-142.846877000000010
  0
CIRCLE
  8
0
  6
CONTINUOUS
 62
256
 10
-34.362065000000001
 20
-42.846876999999999
 40
35.085724999999996
  0
CIRCLE
  8
0
  6
CONTINUOUS
 62
256
 10
-34.362065000000001
 20
-42.846876999999999
 40
32.000000000000000
  0
LINE
  8
0
  6
CONTINUOUS
 62
256
 10
47.637625999999997
 20
-17.513021999999999
 11
47.637625999999997
 21
-14.478569000000000
  0
ARC
  8
0
  6
CONTINUOUS
 62
256
 10
44.637625999999997
 20
-17.513021999999999
 40
3.000000000000000
 50
270.000000000000000
 51
0.000000000000000
  0
LINE
  8
0
  6
DASHDOT
 62
256
 10
13.637935000000001
 20
-149.258230000000000
 11
13.637935000000001
 21
-126.720975999999990
  0
LINE
  8
0
  6
DASHDOT
 62
256
 10
-79.362065000000001
 20
-148.588807000000000
 11
-79.362065000000001
 21
-127.613540000000000
  0
LINE
  8
0
  6
DASHDOT
 62
256
 10
-34.362065000000001
 20
15.754495000000000
 11
-34.362065000000001
 21
-148.732475999999990
  0
LINE
  8
0
  6
DASHDOT
 62
256
 10
-101.044961000000000
 20
-42.846876999999999
 11
41.157739999999997
 21
-42.846876999999999
  0
LINE
  8
0
  6
CONTINUOUS
 62
256
 10
-92.362065000000001
 20
-16.847149000000002
 11
-92.362065000000001
 21
-142.846877000000010
  0
LINE
  8
0
  6
DASHED
 62
256
 10
-64.362065000000001
 20
-142.575467000000000
 11
-64.362065000000001
 21
-142.846877000000010
  0
LINE
  8
0
  6
CONTINUOUS
 62
256
 10
-90.370793000000006
 20
-130.846877000000010
 11
25.646661999999999
 21
-130.846877000000010
  0
LINE
  8
0
  6
DASHED
 62
256
 10
-1.362065000000000
 20
-142.575467000000000
 11
-1.362065000000000
 21
-142.846877000000010
  0
ARC
  8
0
  6
CONTINUOUS
 62
256
 10
-90.370793000000006
 20
-132.846877000000010
 40
2.000000000000000
 50
90.000000000000000
 51
180.000000000000000
  0
ARC
  8
0
  6
CONTINUOUS
 62
256
 10
29.466097999999999
 20
-8.099377000000001
 40
3.000000000000001
 50
195.371943999999980
 51
268.999999999999940
  0
ARC
  8
0
  6
CONTINUOUS
 62
256
 10
30.646661999999999
 20
-121.906060999999990
 40
2.999999999999997
 50
91.000000000000014
 51
180.000000000000000
  0
LINE
  8
0
  6
CONTINUOUS
 62
256
 10
34.637625999999997
 20
-14.251652999999999
 11
34.637625999999997
 21
-65.013022000000007
  0
ARC
  8
0
  6
CONTINUOUS
 62
256
 10
45.637625999999997
 20
-25.583371000000000
 40
2.000000000000000
 50
0.000000000000000
 51
90.000000000000000
  0
ARC
  8
0
  6
CONTINUOUS
 62
256
 10
39.637625999999997
 20
-25.513021999999999
 40
5.000000000000000
 50
90.000000000000000
 51
180.000000000000000
  0
ARC
  8
0
  6
CONTINUOUS
 62
256
 10
44.637625999999997
 20
-34.120856000000003
 40
3.000000000000000
 50
0.000000000000000
 51
90.000000000000000
  0
LINE
  8
0
  6
CONTINUOUS
 62
256
 10
45.637625999999997
 20
-23.583371000000000
 11
39.637625999999997
 21
-23.583371000000000
  0
LINE
  8
0
  6
CONTINUOUS
 62
256
 10
44.637625999999997
 20
-20.513021999999999
 11
39.637625999999997
 21
-20.513021999999999
  0
LINE
  8
0
  6
CONTINUOUS
 62
256
 10
34.637625999999997
 20
-28.120856000000000
 11
34.637625999999997
 21
-25.513021999999999
  0
ARC
  8
0
  6
CONTINUOUS
 62
256
 10
37.637625999999997
 20
-14.251652999999999
 40
3.000000000000000
 50
89.000000000000000
 51
180.000000000000000
  0
ARC
  8
0
  6
CONTINUOUS
 62
256
 10
50.637625999999997
 20
-14.478569000000000
 40
3.000000000000000
 50
89.000000000000000
 51
180.000000000000000
  0
LINE
  8
0
  6
CONTINUOUS
 62
256
 10
47.637625999999997
 20
-65.013022000000007
 11
47.637625999999997
 21
-25.583371000000000
  0
LINE
  8
0
  6
CONTINUOUS
 62
256
 10
47.637625999999997
 20
-45.013021999999999
 11
51.774099000000000
 21
-45.013021999999999
  0
LINE
  8
0
  6
CONTINUOUS
 62
256
 10
29.413741000000002
 20
-11.098920000000000
 11
52.637625999999997
 21
-11.513021999999999
  0
ARC
  8
0
  6
CONTINUOUS
 62
256
 10
37.637625999999997
 20
-95.905187999999995
 40
3.000000000000000
 50
180.000000000000000
 51
270.000000000000000
  0
LINE
  8
0
  6
CONTINUOUS
 62
256
 10
34.637625999999997
 20
-115.774390999999990
 11
34.637625999999997
 21
-65.013022000000007
  0
ARC
  8
0
  6
CONTINUOUS
 62
256
 10
39.637625999999997
 20
-104.513022000000010
 40
5.000000000000000
 50
180.000000000000000
 51
270.000000000000000
  0
ARC
  8
0
  6
CONTINUOUS
 62
256
 10
39.637625999999997
 20
-101.442674000000000
 40
5.000000000000000
 50
180.000000000000000
 51
270.000000000000000
  0
ARC
  8
0
  6
CONTINUOUS
 62
256
 10
45.637625999999997
 20
-104.442674000000000
 40
2.000000000000000
 50
270.000000000000000
 51
0.000000000000000
  0
ARC
  8
0
  6
CONTINUOUS
 62
256
 10
44.637625999999997
 20
-112.513022000000010
 40
3.000000000000000
 50
0.000000000000000
 51
90.000000000000000
  0
ARC
  8
0
  6
CONTINUOUS
 62
256
 10
44.637625999999997
 20
-95.905187999999995
 40
3.000000000000000
 50
270.000000000000000
 51
0.000000000000000
  0
LINE
  8
0
  6
CONTINUOUS
 62
256
 10
47.637625999999997
 20
-65.013022000000007
 11
47.637625999999997
 21
-104.442674000000000
  0
LINE
  8
0
  6
CONTINUOUS
 62
256
 10
47.637625999999997
 20
-85.013022000000007
 11
51.339308000000003
 21
-85.013022000000007
  0
LINE
  8
0
  6
CONTINUOUS
 62
256
 10
37.637625999999997
 20
-98.905187999999995
 11
44.637625999999997
 21
-98.905187999999995
  0
LINE
  8
0
  6
CONTINUOUS
 62
256
 10
34.637625999999997
 20
-101.905188000000000
 11
34.637625999999997
 21
-104.513022000000010
  0
LINE
  8
0
  6
CONTINUOUS
 62
256
 10
45.637625999999997
 20
-106.442674000000000
 11
39.637625999999997
 21
-106.442674000000000
  0
LINE
  8
0
  6
CONTINUOUS
 62
256
 10
44.637625999999997
 20
-109.513022000000010
 11
39.637625999999997
 21
-109.513022000000010
  0
ARC
  8
0
  6
CONTINUOUS
 62
256
 10
50.637625999999997
 20
-115.547476000000000
 40
3.000000000000000
 50
180.000000000000000
 51
271.000000000000060
  0
LINE
  8
0
  6
CONTINUOUS
 62
256
 10
47.637625999999997
 20
-112.513022000000010
 11
47.637625999999997
 21
-115.547476000000000
  0
ARC
  8
0
  6
CONTINUOUS
 62
256
 10
37.637625999999997
 20
-115.774390999999990
 40
3.000000000000000
 50
180.000000000000000
 51
271.000000000000060
  0
LINE
  8
0
  6
CONTINUOUS
 62
256
 10
30.594304999999999
 20
-118.906518000000010
 11
52.637625999999997
 21
-118.513022000000010
  0
ARC
  8
0
  6
CONTINUOUS
 62
256
 10
-34.362065000000001
 20
-42.846876999999999
 40
10.999999999999996
 50
105.826620000000010
 51
74.173379999999980
  0
LINE
  8
0
  6
CONTINUOUS
 62
256
 10
-31.362065000000001
 20
-29.346876999999999
 11
-31.362065000000001
 21
-35.346876999999999
  0
LINE
  8
0
  6
CONTINUOUS
 62
256
 10
-37.362065000000001
 20
-29.346876999999999
 11
-31.362065000000001
 21
-29.346876999999999
  0
LINE
  8
0
  6
CONTINUOUS
 62
256
 10
-37.362065000000001
 20
-35.346876999999999
 11
-31.362065000000001
 21
-35.346876999999999
  0
LINE
  8
0
  6
CONTINUOUS
 62
256
 10
-37.362065000000001
 20
-29.346876999999999
 11
-37.362065000000001
 21
-35.346876999999999
  0
CIRCLE
  8
0
  6
CONTINUOUS
 62
256
 10
-34.362065000000001
 20
-42.846876999999999
 40
3.500000000000000
  0
CIRCLE
  8
0
  6
CONTINUOUS
 62
256
 10
-34.362065000000001
 20
-42.846876999999999
 40
4.000000000000000
  0
LINE
  8
0
  6
CONTINUOUS
 62
256
 10
37.637625999999997
 20
-31.120856000000000
 11
44.637625999999997
 21
-31.120856000000000
  0
ARC
  8
0
  6
CONTINUOUS
 62
256
 10
39.637625999999997
 20
-28.583371000000000
 40
5.000000000000000
 50
90.000000000000000
 51
180.000000000000000
  0
ARC
  8
0
  6
CONTINUOUS
 62
256
 10
25.646661999999999
 20
-132.846877000000010
 40
2.000000000000000
 50
0.000000000000000
 51
90.000000000000000
  0
LINE
  8
0
  6
CONTINUOUS
 62
256
 10
52.637625999999997
 20
-12.521750000000001
 11
52.637625999999997
 21
-65.013022000000007
  0
LINE
  8
0
  6
CONTINUOUS
 62
256
 10
52.637625999999997
 20
-117.504295000000000
 11
52.637625999999997
 21
-65.013022000000007
  0
LINE
  8
0
  6
CONTINUOUS
 62
256
 10
52.637625999999997
 20
-12.513021999999999
 11
52.637625999999997
 21
-14.763021999999999
  0
LINE
  8
0
  6
CONTINUOUS
 62
256
 10
52.637625999999997
 20
-117.513022000000010
 11
52.637625999999997
 21
-12.513021999999999
  0
LINE
  8
0
  6
CONTINUOUS
 62
256
 10
52.637625999999997
 20
-117.513022000000010
 11
52.637625999999997
 21
-12.513021999999999
  0
LINE
  8
0
  6
DASHDOT
 62
256
 10
2.104174000000000
 20
-65.013022000000007
 11
225.074172000000000
 21
-65.013022000000007
  0
LINE
  8
0
  6
CONTINUOUS
 62
256
 10
52.637625999999997
 20
-65.013022000000007
 11
52.637625999999997
 21
-12.513021999999999
  0
LINE
  8
0
  6
CONTINUOUS
 62
256
 10
52.637625999999997
 20
-65.013022000000007
 11
52.637625999999997
 21
-117.513022000000010
  0
LINE
  8
0
  6
CONTINUOUS
 62
256
 10
52.637625999999997
 20
-118.513022000000010
 11
52.637625999999997
 21
-65.013022000000007
  0
LINE
  8
0
  6
CONTINUOUS
 62
256
 10
52.637625999999997
 20
-11.513021999999999
 11
52.637625999999997
 21
-65.013022000000007
  0
LINE
  8
0
  6
CONTINUOUS
 62
256
 10
52.637625999999997
 20
-118.513022000000010
 11
136.637626000000010
 21
-118.513022000000010
  0
LINE
  8
0
  6
CONTINUOUS
 62
256
 10
136.637626000000010
 20
-79.013022000000007
 11
52.637625999999997
 21
-79.013022000000007
  0
LINE
  8
0
  6
CONTINUOUS
 62
256
 10
136.637626000000010
 20
-84.641057000000004
 11
52.637625999999997
 21
-84.641057000000004
  0
LINE
  8
0
  6
CONTINUOUS
 62
256
 10
136.637626000000010
 20
-83.399136999999996
 11
52.637625999999997
 21
-83.399136999999996
  0
LINE
  8
0
  6
CONTINUOUS
 62
256
 10
136.637626000000010
 20
-87.851262000000006
 11
52.637625999999997
 21
-87.851262000000006
  0
LINE
  8
0
  6
CONTINUOUS
 62
256
 10
136.637626000000010
 20
-89.197664000000003
 11
52.637625999999997
 21
-89.197664000000003
  0
LINE
  8
0
  6
CONTINUOUS
 62
256
 10
136.637626000000010
 20
-92.290395000000004
 11
52.637625999999997
 21
-92.290395000000004
  0
LINE
  8
0
  6
CONTINUOUS
 62
256
 10
136.637626000000010
 20
-93.769418000000002
 11
52.637625999999997
 21
-93.769418000000002
  0
LINE
  8
0
  6
CONTINUOUS
 62
256
 10
136.637626000000010
 20
-96.727413999999996
 11
52.637625999999997
 21
-96.727413999999996
  0
LINE
  8
0
  6
CONTINUOUS
 62
256
 10
136.637626000000010
 20
-98.316623000000007
 11
52.637625999999997
 21
-98.316623000000007
  0
LINE
  8
0
  6
CONTINUOUS
 62
256
 10
136.637626000000010
 20
-106.054936000000000
 11
52.637625999999997
 21
-106.054936000000000
  0
LINE
  8
0
  6
CONTINUOUS
 62
256
 10
136.637626000000010
 20
-111.146105000000010
 11
52.637625999999997
 21
-111.146105000000010
  0
LINE
  8
0
  6
CONTINUOUS
 62
256
 10
136.637626000000010
 20
-115.513022000000010
 11
52.637625999999997
 21
-115.513022000000010
  0
LINE
  8
0
  6
CONTINUOUS
 62
256
 10
136.637626000000010
 20
-116.013022000000010
 11
52.637625999999997
 21
-116.013022000000010
  0
LINE
  8
0
  6
CONTINUOUS
 62
256
 10
52.637625999999997
 20
-118.513022000000010
 11
52.637625999999997
 21
-65.013022000000007
  0
LINE
  8
0
  6
CONTINUOUS
 62
256
 10
136.637626000000010
 20
-31.709420999999999
 11
52.637625999999997
 21
-31.709420999999999
  0
LINE
  8
0
  6
CONTINUOUS
 62
256
 10
136.637626000000010
 20
-33.298631000000000
 11
52.637625999999997
 21
-33.298631000000000
  0
LINE
  8
0
  6
CONTINUOUS
 62
256
 10
136.637626000000010
 20
-36.256627000000002
 11
52.637625999999997
 21
-36.256627000000002
  0
LINE
  8
0
  6
CONTINUOUS
 62
256
 10
136.637626000000010
 20
-37.735650000000000
 11
52.637625999999997
 21
-37.735650000000000
  0
LINE
  8
0
  6
CONTINUOUS
 62
256
 10
136.637626000000010
 20
-40.828381000000000
 11
52.637625999999997
 21
-40.828381000000000
  0
LINE
  8
0
  6
CONTINUOUS
 62
256
 10
136.637626000000010
 20
-42.174782999999998
 11
52.637625999999997
 21
-42.174782999999998
  0
LINE
  8
0
  6
CONTINUOUS
 62
256
 10
136.637626000000010
 20
-45.384988000000000
 11
52.637625999999997
 21
-45.384988000000000
  0
LINE
  8
0
  6
CONTINUOUS
 62
256
 10
136.637626000000010
 20
-46.626908000000000
 11
52.637625999999997
 21
-46.626908000000000
  0
LINE
  8
0
  6
CONTINUOUS
 62
256
 10
136.637626000000010
 20
-51.013021999999999
 11
52.637625999999997
 21
-51.013021999999999
  0
LINE
  8
0
  6
CONTINUOUS
 62
256
 10
52.637625999999997
 20
-11.513021999999999
 11
52.637625999999997
 21
-65.013022000000007
  0
LINE
  8
0
  6
CONTINUOUS
 62
256
 10
136.637626000000010
 20
-124.013022000000010
 11
192.142471000000000
 21
-124.013022000000010
  0
LINE
  8
0
  6
CONTINUOUS
 62
256
 10
203.958146000000000
 20
-120.287555000000000
 11
211.528924999999990
 21
-114.986438000000010
  0
LINE
  8
0
  6
CONTINUOUS
 62
256
 10
212.637626000000010
 20
-112.856643000000010
 11
212.637626000000010
 21
-65.013022000000007
  0
ARC
  8
0
  6
CONTINUOUS
 62
256
 10
210.037625999999990
 20
-112.856643000000010
 40
2.600000000000007
 50
305.000000000000000
 51
0.000000000000000
  0
ARC
  8
0
  6
CONTINUOUS
 62
256
 10
192.142471000000000
 20
-103.413022000000000
 40
20.600000000000009
 50
270.000000000000000
 51
304.999999999999940
  0
LINE
  8
0
  6
CONTINUOUS
 62
256
 10
136.637626000000010
 20
-124.013022000000010
 11
136.637626000000010
 21
-65.013022000000007
  0
LINE
  8
0
  6
CONTINUOUS
 62
256
 10
147.637626000000010
 20
-114.156943000000000
 11
149.637626000000010
 21
-112.504302000000000
  0
LINE
  8
0
  6
CONTINUOUS
 62
256
 10
145.637626000000010
 20
-115.332729000000000
 11
147.637626000000010
 21
-114.156943000000000
  0
LINE
  8
0
  6
CONTINUOUS
 62
256
 10
147.637626000000010
 20
-114.156943000000000
 11
145.637626000000010
 21
-112.504302000000000
  0
LINE
  8
0
  6
CONTINUOUS
 62
256
 10
149.637626000000010
 20
-115.332729000000000
 11
147.637626000000010
 21
-114.156943000000000
  0
POLYLINE
  8
0
  6
CONTINUOUS
 62
256
 66
1
 70
1
  0
VERTEX
  8
0
  6
CONTINUOUS
 62
256
 10
152.337626000000000
 20
-112.340352999999990
  0
VERTEX
  8
0
  6
CONTINUOUS
 62
256
 10
152.247316817895180
 20
-111.637396489441830
  0
VERTEX
  8
0
  6
CONTINUOUS
 62
256
 10
151.979859802803050
 20
-110.961454203361850
  0
VERTEX
  8
0
  6
CONTINUOUS
 62
256
 10
151.545533177821970
 20
-110.338502224741330
  0
VERTEX
  8
0
  6
CONTINUOUS
 62
256
 10
150.961027871576790
 20
-109.792480248763160
  0
VERTEX
  8
0
  6
CONTINUOUS
 62
256
 10
150.248806095192120
 20
-109.344371593751500
  0
VERTEX
  8
0
  6
CONTINUOUS
 62
256
 10
149.436238132115930
 20
-109.011396824016240
  0
VERTEX
  8
0
  6
CONTINUOUS
 62
256
 10
148.554550513475820
 20
-108.806351973223930
  0
VERTEX
  8
0
  6
CONTINUOUS
 62
256
 10
147.637626000000010
 20
-108.737116800000000
  0
VERTEX
  8
0
  6
CONTINUOUS
 62
256
 10
146.720701486524210
 20
-108.806351973223930
  0
VERTEX
  8
0
  6
CONTINUOUS
 62
256
 10
145.839013867884090
 20
-109.011396824016240
  0
VERTEX
  8
0
  6
CONTINUOUS
 62
256
 10
145.026445904807900
 20
-109.344371593751500
  0
VERTEX
  8
0
  6
CONTINUOUS
 62
256
 10
144.314224128423230
 20
-109.792480248763160
  0
VERTEX
  8
0
  6
CONTINUOUS
 62
256
 10
143.729718822178060
 20
-110.338502224741330
  0
VERTEX
  8
0
  6
CONTINUOUS
 62
256
 10
143.295392197196970
 20
-110.961454203361850
  0
VERTEX
  8
0
  6
CONTINUOUS
 62
256
 10
143.027935182104840
 20
-111.637396489441830
  0
VERTEX
  8
0
  6
CONTINUOUS
 62
256
 10
142.937626000000020
 20
-112.340352999999990
  0
VERTEX
  8
0
  6
CONTINUOUS
 62
256
 10
143.027935182104840
 20
-113.043309510558160
  0
VERTEX
  8
0
  6
CONTINUOUS
 62
256
 10
143.295392197196970
 20
-113.719251796638130
  0
VERTEX
  8
0
  6
CONTINUOUS
 62
256
 10
143.729718822178060
 20
-114.342203775258650
  0
VERTEX
  8
0
  6
CONTINUOUS
 62
256
 10
144.314224128423230
 20
-114.888225751236830
  0
VERTEX
  8
0
  6
CONTINUOUS
 62
256
 10
145.026445904807900
 20
-115.336334406248480
  0
VERTEX
  8
0
  6
CONTINUOUS
 62
256
 10
145.839013867884090
 20
-115.669309175983730
  0
VERTEX
  8
0
  6
CONTINUOUS
 62
256
 10
146.720701486524210
 20
-115.874354026776060
  0
VERTEX
  8
0
  6
CONTINUOUS
 62
256
 10
147.637626000000010
 20
-115.943589199999990
  0
VERTEX
  8
0
  6
CONTINUOUS
 62
256
 10
148.554550513475820
 20
-115.874354026776060
  0
VERTEX
  8
0
  6
CONTINUOUS
 62
256
 10
149.436238132115930
 20
-115.669309175983740
  0
VERTEX
  8
0
  6
CONTINUOUS
 62
256
 10
150.248806095192120
 20
-115.336334406248480
  0
VERTEX
  8
0
  6
CONTINUOUS
 62
256
 10
150.961027871576760
 20
-114.888225751236830
  0
VERTEX
  8
0
  6
CONTINUOUS
 62
256
 10
151.545533177821970
 20
-114.342203775258650
  0
VERTEX
  8
0
  6
CONTINUOUS
 62
256
 10
151.979859802803050
 20
-113.719251796638130
  0
VERTEX
  8
0
  6
CONTINUOUS
 62
256
 10
152.247316817895180
 20
-113.043309510558160
  0
SEQEND
  8
0
  6
CONTINUOUS
 62
256
  0
LINE
  8
0
  6
CONTINUOUS
 62
256
 10
144.437625999999990
 20
-7.513022000000000
 11
54.437626000000002
 21
-7.513022000000000
  0
LINE
  8
0
  6
CONTINUOUS
 62
256
 10
144.437625999999990
 20
-10.564693000000000
 11
144.437625999999990
 21
6.486978000000000
  0
LINE
  8
0
  6
CONTINUOUS
 62
256
 10
146.637626000000010
 20
-6.013022000000000
 11
146.637626000000010
 21
-7.673326000000000
  0
LINE
  8
0
  6
CONTINUOUS
 62
256
 10
146.637626000000010
 20
-6.013022000000000
 11
192.142471000000000
 21
-6.013022000000000
  0
ARC
  8
0
  6
CONTINUOUS
 62
256
 10
143.637626000000010
 20
-7.673326000000000
 40
2.999999999999999
 50
270.000000000000000
 51
0.000000000000000
  0
LINE
  8
0
  6
CONTINUOUS
 62
256
 10
143.637626000000010
 20
-10.673325999999999
 11
139.637626000000010
 21
-10.673325999999999
  0
ARC
  8
0
  6
CONTINUOUS
 62
256
 10
139.637626000000010
 20
-13.673325999999999
 40
3.000000000000000
 50
90.000000000000000
 51
180.000000000000000
  0
LINE
  8
0
  6
CONTINUOUS
 62
256
 10
136.637626000000010
 20
-13.673325999999999
 11
136.637626000000010
 21
-65.013022000000007
  0
LINE
  8
0
  6
CONTINUOUS
 62
256
 10
147.637626000000010
 20
-15.869101000000001
 11
149.637626000000010
 21
-17.521743000000001
  0
LINE
  8
0
  6
CONTINUOUS
 62
256
 10
145.637626000000010
 20
-14.693315999999999
 11
147.637626000000010
 21
-15.869101000000001
  0
LINE
  8
0
  6
CONTINUOUS
 62
256
 10
147.637626000000010
 20
-15.869101000000001
 11
145.637626000000010
 21
-17.521743000000001
  0
LINE
  8
0
  6
CONTINUOUS
 62
256
 10
149.637626000000010
 20
-14.693315999999999
 11
147.637626000000010
 21
-15.869101000000001
  0
POLYLINE
  8
0
  6
CONTINUOUS
 62
256
 66
1
 70
1
  0
VERTEX
  8
0
  6
CONTINUOUS
 62
256
 10
152.337626000000000
 20
-17.685690999999998
  0
VERTEX
  8
0
  6
CONTINUOUS
 62
256
 10
152.247316817895180
 20
-16.982734489441832
  0
VERTEX
  8
0
  6
CONTINUOUS
 62
256
 10
151.979859802803050
 20
-16.306792203361859
  0
VERTEX
  8
0
  6
CONTINUOUS
 62
256
 10
151.545533177821970
 20
-15.683840224741338
  0
VERTEX
  8
0
  6
CONTINUOUS
 62
256
 10
150.961027871576790
 20
-15.137818248763159
  0
VERTEX
  8
0
  6
CONTINUOUS
 62
256
 10
150.248806095192120
 20
-14.689709593751511
  0
VERTEX
  8
0
  6
CONTINUOUS
 62
256
 10
149.436238132115930
 20
-14.356734824016263
  0
VERTEX
  8
0
  6
CONTINUOUS
 62
256
 10
148.554550513475820
 20
-14.151689973223938
  0
VERTEX
  8
0
  6
CONTINUOUS
 62
256
 10
147.637626000000010
 20
-14.082454800000008
  0
VERTEX
  8
0
  6
CONTINUOUS
 62
256
 10
146.720701486524210
 20
-14.151689973223938
  0
VERTEX
  8
0
  6
CONTINUOUS
 62
256
 10
145.839013867884090
 20
-14.356734824016263
  0
VERTEX
  8
0
  6
CONTINUOUS
 62
256
 10
145.026445904807900
 20
-14.689709593751511
  0
VERTEX
  8
0
  6
CONTINUOUS
 62
256
 10
144.314224128423230
 20
-15.137818248763159
  0
VERTEX
  8
0
  6
CONTINUOUS
 62
256
 10
143.729718822178060
 20
-15.683840224741338
  0
VERTEX
  8
0
  6
CONTINUOUS
 62
256
 10
143.295392197196970
 20
-16.306792203361859
  0
VERTEX
  8
0
  6
CONTINUOUS
 62
256
 10
143.027935182104840
 20
-16.982734489441828
  0
VERTEX
  8
0
  6
CONTINUOUS
 62
256
 10
142.937626000000020
 20
-17.685690999999998
  0
VERTEX
  8
0
  6
CONTINUOUS
 62
256
 10
143.027935182104840
 20
-18.388647510558165
  0
VERTEX
  8
0
  6
CONTINUOUS
 62
256
 10
143.295392197196970
 20
-19.064589796638138
  0
VERTEX
  8
0
  6
CONTINUOUS
 62
256
 10
143.729718822178060
 20
-19.687541775258659
  0
VERTEX
  8
0
  6
CONTINUOUS
 62
256
 10
144.314224128423230
 20
-20.233563751236836
  0
VERTEX
  8
0
  6
CONTINUOUS
 62
256
 10
145.026445904807900
 20
-20.681672406248484
  0
VERTEX
  8
0
  6
CONTINUOUS
 62
256
 10
145.839013867884090
 20
-21.014647175983733
  0
VERTEX
  8
0
  6
CONTINUOUS
 62
256
 10
146.720701486524210
 20
-21.219692026776059
  0
VERTEX
  8
0
  6
CONTINUOUS
 62
256
 10
147.637626000000010
 20
-21.288927199999989
  0
VERTEX
  8
0
  6
CONTINUOUS
 62
256
 10
148.554550513475820
 20
-21.219692026776059
  0
VERTEX
  8
0
  6
CONTINUOUS
 62
256
 10
149.436238132115930
 20
-21.014647175983733
  0
VERTEX
  8
0
  6
CONTINUOUS
 62
256
 10
150.248806095192120
 20
-20.681672406248488
  0
VERTEX
  8
0
  6
CONTINUOUS
 62
256
 10
150.961027871576760
 20
-20.233563751236840
  0
VERTEX
  8
0
  6
CONTINUOUS
 62
256
 10
151.545533177821970
 20
-19.687541775258659
  0
VERTEX
  8
0
  6
CONTINUOUS
 62
256
 10
151.979859802803050
 20
-19.064589796638138
  0
VERTEX
  8
0
  6
CONTINUOUS
 62
256
 10
152.247316817895180
 20
-18.388647510558169
  0
SEQEND
  8
0
  6
CONTINUOUS
 62
256
  0
LINE
  8
0
  6
CONTINUOUS
 62
256
 10
54.437626000000002
 20
-12.513021999999999
 11
136.637626000000010
 21
-12.513021999999999
  0
LINE
  8
0
  6
CONTINUOUS
 62
256
 10
137.437625999999990
 20
26.486978000000001
 11
137.437625999999990
 21
26.986978000000001
  0
LINE
  8
0
  6
CONTINUOUS
 62
256
 10
129.437625999999990
 20
26.486978000000001
 11
129.437625999999990
 21
26.986978000000001
  0
LINE
  8
0
  6
CONTINUOUS
 62
256
 10
61.437626000000002
 20
26.486978000000001
 11
61.437626000000002
 21
26.986978000000001
  0
LINE
  8
0
  6
CONTINUOUS
 62
256
 10
69.437625999999995
 20
26.486978000000001
 11
69.437625999999995
 21
26.986978000000001
  0
LINE
  8
0
  6
CONTINUOUS
 62
256
 10
69.437625999999995
 20
26.986978000000001
 11
61.437626000000002
 21
26.986978000000001
  0
LINE
  8
0
  6
CONTINUOUS
 62
256
 10
137.437625999999990
 20
26.986978000000001
 11
129.437625999999990
 21
26.986978000000001
  0
ARC
  8
0
  6
CONTINUOUS
 62
256
 10
143.437625999999990
 20
25.486978000000001
 40
1.000000000000000
 50
0.000000000000000
 51
90.000000000000000
  0
LINE
  8
0
  6
CONTINUOUS
 62
256
 10
143.437625999999990
 20
26.486978000000001
 11
55.437626000000002
 21
26.486978000000001
  0
ARC
  8
0
  6
CONTINUOUS
 62
256
 10
55.437626000000002
 20
25.486978000000001
 40
1.000000000000000
 50
90.000000000000000
 51
180.000000000000000
  0
LINE
  8
0
  6
CONTINUOUS
 62
256
 10
54.437626000000002
 20
-12.513021999999999
 11
54.437626000000002
 21
25.486978000000001
  0
LINE
  8
0
  6
CONTINUOUS
 62
256
 10
52.637625999999997
 20
-11.513021999999999
 11
54.437626000000002
 21
-11.513021999999999
  0
LINE
  8
0
  6
CONTINUOUS
 62
256
 10
136.637626000000010
 20
-14.013021999999999
 11
52.637625999999997
 21
-14.013021999999999
  0
LINE
  8
0
  6
CONTINUOUS
 62
256
 10
136.637626000000010
 20
-14.513021999999999
 11
52.637625999999997
 21
-14.513021999999999
  0
LINE
  8
0
  6
CONTINUOUS
 62
256
 10
136.637626000000010
 20
-18.879940000000001
 11
52.637625999999997
 21
-18.879940000000001
  0
LINE
  8
0
  6
CONTINUOUS
 62
256
 10
136.637626000000010
 20
-23.971108999999998
 11
52.637625999999997
 21
-23.971108999999998
  0
LINE
  8
0
  6
CONTINUOUS
 62
256
 10
212.637626000000010
 20
-17.169402000000002
 11
212.637626000000010
 21
-65.013022000000007
  0
LINE
  8
0
  6
CONTINUOUS
 62
256
 10
203.958146000000000
 20
-9.738490000000001
 11
211.528924999999990
 21
-15.039607000000000
  0
ARC
  8
0
  6
CONTINUOUS
 62
256
 10
210.037625999999990
 20
-17.169402000000002
 40
2.599999999999994
 50
0.000000000000000
 51
54.999999999999908
  0
ARC
  8
0
  6
CONTINUOUS
 62
256
 10
192.142471000000000
 20
-26.613022000000001
 40
20.599999999999998
 50
55.000000000000028
 51
90.000000000000000
  0
LINE
  8
0
  6
CONTINUOUS
 62
256
 10
144.437625999999990
 20
18.486978000000001
 11
144.437625999999990
 21
25.486978000000001
  0
LINE
  8
0
  6
CONTINUOUS
 62
256
 10
144.437625999999990
 20
6.486978000000000
 11
144.437625999999990
 21
18.486978000000001
  0
ARC
  8
0
  6
CONTINUOUS
 62
256
 10
-198.032618000000010
 20
-42.846876999999999
 40
10.999999999999996
 50
105.826620000000010
 51
74.173380000000009
  0
LINE
  8
0
  6
CONTINUOUS
 62
256
 10
-195.032618000000010
 20
-29.346876999999999
 11
-195.032618000000010
 21
-35.346876999999999
  0
LINE
  8
0
  6
CONTINUOUS
 62
256
 10
-201.032618000000010
 20
-29.346876999999999
 11
-201.032618000000010
 21
-35.346876999999999
  0
LINE
  8
0
  6
CONTINUOUS
 62
256
 10
-201.032618000000010
 20
-29.346876999999999
 11
-195.032618000000010
 21
-29.346876999999999
  0
LINE
  8
0
  6
CONTINUOUS
 62
256
 10
-201.032618000000010
 20
-35.346876999999999
 11
-195.032618000000010
 21
-35.346876999999999
  0
LINE
  8
0
  6
DASHDOT
 62
256
 10
-198.032618000000010
 20
-26.258780000000002
 11
-198.032618000000010
 21
-56.935268999999998
  0
LINE
  8
0
  6
DASHDOT
 62
256
 10
-211.989050999999990
 20
-42.846876999999999
 11
-183.378319000000000
 21
-42.846876999999999
  0
CIRCLE
  8
0
  6
CONTINUOUS
 62
256
 10
-198.032618000000010
 20
-42.846876999999999
 40
4.000000000000000
  0
CIRCLE
  8
0
  6
CONTINUOUS
 62
256
 10
-198.032618000000010
 20
-42.846876999999999
 40
3.500000000000000
  0
POINT
  8
0
  6
CONTINUOUS
 62
256
 10
-198.032618000000010
 20
-31.846876999999999
  0
ARC
  8
0
  6
CONTINUOUS
 62
256
 10
-352.974943999999990
 20
8.982904000000000
 40
3.000000000000000
 50
0.000000000000000
 51
89.000000000000412
  0
LINE
  8
0
  6
CONTINUOUS
 62
256
 10
-419.974943999999990
 20
13.153123000000001
 11
-425.027301000000020
 21
13.064933999999999
  0
LINE
  8
0
  6
CONTINUOUS
 62
256
 10
-419.974943999999990
 20
13.152851000000000
 11
-352.922587000000020
 21
11.982447000000001
  0
ARC
  8
0
  6
CONTINUOUS
 62
256
 10
-424.974943999999990
 20
10.065391000000000
 40
3.000000000000000
 50
90.999999999999602
 51
180.000000000000000
  0
LINE
  8
0
  6
CONTINUOUS
 62
256
 10
-424.474943999999990
 20
-128.847149000000000
 11
-419.975629000000030
 21
-128.925684999999990
  0
ARC
  8
0
  6
CONTINUOUS
 62
256
 10
-387.474943999999990
 20
-273.513021999999980
 40
300.000000000000000
 50
83.967950999999999
 51
96.032049000000001
  0
ARC
  8
0
  6
CONTINUOUS
 62
256
 10
-418.474943999999990
 20
19.853642000000001
 40
5.000000000000002
 50
96.032049000000001
 51
180.000000000000000
  0
ARC
  8
0
  6
CONTINUOUS
 62
256
 10
-356.474943999999990
 20
19.853642000000001
 40
5.000000000000000
 50
0.000000000000000
 51
83.967950999999999
  0
LINE
  8
0
  6
CONTINUOUS
 62
256
 10
-384.974943999999990
 20
26.986978000000001
 11
-384.974943999999990
 21
26.476561000000000
  0
LINE
  8
0
  6
CONTINUOUS
 62
256
 10
-384.974943999999990
 20
26.986978000000001
 11
-389.974943999999990
 21
26.986978000000001
  0
LINE
  8
0
  6
CONTINUOUS
 62
256
 10
-389.974943999999990
 20
26.986978000000001
 11
-389.974943999999990
 21
26.476561000000000
  0
LINE
  8
0
  6
CONTINUOUS
 62
256
 10
-351.474943999999990
 20
11.580980000000000
 11
-351.474943999999990
 21
19.853642000000001
  0
LINE
  8
0
  6
CONTINUOUS
 62
256
 10
-423.474943999999990
 20
13.092029999999999
 11
-423.474943999999990
 21
19.853642000000001
  0
ARC
  8
0
  6
CONTINUOUS
 62
256
 10
-734.074943999999960
 20
-65.013022000000007
 40
400.600000000000020
 50
354.256318000000020
 51
358.488948999999990
  0
ARC
  8
0
  6
CONTINUOUS
 62
256
 10
-342.052997000000000
 20
-104.443889000000000
 40
6.600000000000017
 50
315.000000000000170
 51
354.256318000000020
  0
LINE
  8
0
  6
CONTINUOUS
 62
256
 10
-344.844787999999990
 20
-116.569489000000000
 11
-337.386093000000020
 21
-109.110794000000000
  0
ARC
  8
0
  6
CONTINUOUS
 62
256
 10
-359.411186999999980
 20
-102.003090000000000
 40
20.600000000000012
 50
297.262642000000080
 51
314.999999999999940
  0
LINE
  8
0
  6
CONTINUOUS
 62
256
 10
-430.105099999999990
 20
-116.569489000000000
 11
-437.563796000000020
 21
-109.110794000000000
  0
ARC
  8
0
  6
CONTINUOUS
 62
256
 10
-415.538701000000000
 20
-102.003090000000000
 40
20.599999999999991
 50
225.000000000000000
 51
234.589588000000020
  0
ARC
  8
0
  6
CONTINUOUS
 62
256
 10
-432.896890999999980
 20
-104.443889000000000
 40
6.599999999999973
 50
185.743682000000060
 51
224.999999999999830
  0
ARC
  8
0
  6
CONTINUOUS
 62
256
 10
-40.874943999999999
 20
-65.013022000000007
 40
400.600000000000020
 50
181.511052000000010
 51
185.743681999999980
  0
ARC
  8
0
  6
CONTINUOUS
 62
256
 10
-346.974962000000000
 20
-95.043077999999994
 40
3.000000000000009
 50
119.999065000000410
 51
180.000000000000000
  0
POINT
  8
0
  6
CONTINUOUS
 62
256
 10
-349.974877999999990
 20
-92.846877000000006
  0
ARC
  8
0
  6
CONTINUOUS
 62
256
 10
-349.974877999999990
 20
-89.846877000000006
 40
3.000000000000009
 50
299.999065000000430
 51
0.000000000000000
  0
LINE
  8
0
  6
CONTINUOUS
 62
256
 10
-346.974877999999990
 20
-82.128085999999996
 11
-346.974877999999990
 21
-89.846877000000006
  0
LINE
  8
0
  6
CONTINUOUS
 62
256
 10
-349.974943999999990
 20
-115.425901000000000
 11
-349.974943999999990
 21
8.982904000000000
  0
LINE
  8
0
  6
CONTINUOUS
 62
256
 10
-427.974943999999990
 20
-80.036814000000007
 11
-427.974943999999990
 21
10.065391000000000
  0
LINE
  8
0
  6
CONTINUOUS
 62
256
 10
-419.974943999999990
 20
-117.317662000000000
 11
-419.974943999999990
 21
13.152851000000000
  0
LINE
  8
0
  6
CONTINUOUS
 62
256
 10
-419.974943999999990
 20
13.153123000000001
 11
-419.974943999999990
 21
9.652851000000000
  0
POINT
  8
0
  6
CONTINUOUS
 62
256
 10
-427.974943999999990
 20
-7.761152000000000
  0
ARC
  8
0
  6
CONTINUOUS
 62
256
 10
-432.974943999999990
 20
-3.565653000000000
 40
4.999999999999998
 50
279.999999999999890
 51
360.000000000000000
  0
LINE
  8
0
  6
CONTINUOUS
 62
256
 10
-445.495906999999990
 20
-10.850569999999999
 11
-432.106702999999980
 21
-8.489692000000000
  0
LINE
  8
0
  6
CONTINUOUS
 62
256
 10
-427.474943999999990
 20
-82.216263999999995
 11
-427.474943999999990
 21
-125.847149000000000
  0
ARC
  8
0
  6
CONTINUOUS
 62
256
 10
-432.474943999999990
 20
-82.216263999999995
 40
5.000000000000000
 50
0.000000000000000
 51
80.000000000000142
  0
LINE
  8
0
  6
CONTINUOUS
 62
256
 10
-444.995906999999990
 20
-74.931347000000002
 11
-431.606702999999980
 21
-77.292225000000002
  0
LINE
  8
0
  6
CONTINUOUS
 62
256
 10
-447.474943999999990
 20
-142.846877000000010
 11
-327.474943999999990
 21
-142.846877000000010
  0
LINE
  8
0
  6
CONTINUOUS
 62
256
 10
-327.474943999999990
 20
-142.846877000000010
 11
-327.474943999999990
 21
-133.794969000000010
  0
LINE
  8
0
  6
DASHDOT
 62
256
 10
-337.474943999999990
 20
-145.876992000000000
 11
-337.474943999999990
 21
-126.641892000000000
  0
LINE
  8
0
  6
CONTINUOUS
 62
256
 10
-347.027301000000020
 20
-130.505588999999990
 11
-330.422587000000020
 21
-130.795425999999990
  0
LINE
  8
0
  6
CONTINUOUS
 62
256
 10
-349.974943999999990
 20
-127.506046000000000
 11
-349.974943999999990
 21
-115.425901000000000
  0
ARC
  8
0
  6
CONTINUOUS
 62
256
 10
-346.974943999999990
 20
-127.506046000000000
 40
3.000000000000000
 50
180.000000000000000
 51
269.000000000000340
  0
ARC
  8
0
  6
CONTINUOUS
 62
256
 10
-330.474943999999990
 20
-133.794969000000010
 40
3.000000000000000
 50
0.000000000000000
 51
89.000000000000412
  0
LINE
  8
0
  6
CONTINUOUS
 62
256
 10
-419.974943999999990
 20
-129.384165000000000
 11
-419.974943999999990
 21
-116.900519000000000
  0
ARC
  8
0
  6
CONTINUOUS
 62
256
 10
-420.974943999999990
 20
-129.384165000000000
 40
1.000000000000013
 50
270.999999999998520
 51
0.000000000000000
  0
LINE
  8
0
  6
CONTINUOUS
 62
256
 10
-419.974943999999990
 20
-117.007920000000000
 11
-419.974943999999990
 21
-128.847149000000000
  0
ARC
  8
0
  6
CONTINUOUS
 62
256
 10
-424.474943999999990
 20
-125.847149000000000
 40
3.000000000000000
 50
180.000000000000000
 51
270.000000000000000
  0
LINE
  8
0
  6
DASHDOT
 62
256
 10
-437.474943999999990
 20
-147.215883999999990
 11
-437.474943999999990
 21
-126.062887000000000
  0
LINE
  8
0
  6
CONTINUOUS
 62
256
 10
-447.474943999999990
 20
-142.846877000000010
 11
-447.474943999999990
 21
-133.794969000000010
  0
LINE
  8
0
  6
CONTINUOUS
 62
256
 10
-444.527301000000020
 20
-130.795425999999990
 11
-420.957492000000000
 21
-130.384013000000010
  0
ARC
  8
0
  6
CONTINUOUS
 62
256
 10
-444.474943999999990
 20
-133.794969000000010
 40
3.000000000000011
 50
90.999999999999602
 51
180.000000000000000
  0
LINE
  8
0
  6
CONTINUOUS
 62
256
 10
-327.474943999999990
 20
-73.231695999999999
 11
-327.474943999999990
 21
-12.462058000000001
  0
POINT
  8
0
  6
CONTINUOUS
 62
256
 10
-329.474943999999990
 20
-74.846877000000006
  0
LINE
  8
0
  6
CONTINUOUS
 62
256
 10
-329.654000000000000
 20
-74.878449000000003
 11
-342.843118000000000
 21
-77.204047000000003
  0
ARC
  8
0
  6
CONTINUOUS
 62
256
 10
-330.174943999999980
 20
-71.924025999999998
 40
3.000000000000003
 50
279.999999999999660
 51
334.158067000000240
  0
LINE
  8
0
  6
CONTINUOUS
 62
256
 10
-346.974877999999990
 20
-82.128085999999996
 11
-346.974877999999990
 21
4.153123000000000
  0
ARC
  8
0
  6
CONTINUOUS
 62
256
 10
-341.974877999999990
 20
-82.128085999999996
 40
4.999999999999999
 50
99.999999999999858
 51
179.999924999999960
  0
ARC
  8
0
  6
CONTINUOUS
 62
256
 10
-330.174943999999980
 20
-13.769728000000001
 40
3.000000000000016
 50
25.841932999999862
 51
80.000000000000355
  0
POINT
  8
0
  6
CONTINUOUS
 62
256
 10
-329.474943999999990
 20
-10.846876999999999
  0
LINE
  8
0
  6
CONTINUOUS
 62
256
 10
-329.654000000000000
 20
-10.815305000000000
 11
-342.843118000000000
 21
-8.489706999999999
  0
POINT
  8
0
  6
CONTINUOUS
 62
256
 10
-349.974877999999990
 20
7.153123000000000
  0
ARC
  8
0
  6
CONTINUOUS
 62
256
 10
-349.974877999999990
 20
4.153123000000000
 40
3.000000000000000
 50
360.000000000000000
 51
60.000934999999608
  0
ARC
  8
0
  6
CONTINUOUS
 62
256
 10
-346.974962000000000
 20
9.349323999999999
 40
3.000000000000000
 50
180.000000000000000
 51
240.000934999999570
  0
ARC
  8
0
  6
CONTINUOUS
 62
256
 10
-341.974877999999990
 20
-3.565668000000000
 40
5.000000000000020
 50
180.000075000000010
 51
260.000000000000110
  0
ARC
  8
0
  6
CONTINUOUS
 62
256
 10
-444.474962000000000
 20
-13.716830000000000
 40
2.999999999999998
 50
99.999999999999645
 51
180.000000000000000
  0
LINE
  8
0
  6
CONTINUOUS
 62
256
 10
-447.474962000000000
 20
-13.716830000000000
 11
-447.474962000000000
 21
-71.976923999999997
  0
ARC
  8
0
  6
CONTINUOUS
 62
256
 10
-444.474962000000000
 20
-71.976923999999997
 40
3.000000000000000
 50
180.000000000000000
 51
260.000000000000340
  0
LINE
  8
0
  6
CONTINUOUS
 62
256
 10
-325.474925999999980
 20
-31.846876999999999
 11
-285.474925999999980
 21
-31.846876999999999
  0
LINE
  8
0
  6
CONTINUOUS
 62
256
 10
-285.474925999999980
 20
-31.846876999999999
 11
-285.474925999999980
 21
-42.846876999999999
  0
ARC
  8
0
  6
CONTINUOUS
 62
256
 10
-285.874926000000020
 20
-53.446877000000001
 40
0.399999999999999
 50
270.000000000000000
 51
0.000000000000000
  0
LINE
  8
0
  6
CONTINUOUS
 62
256
 10
-325.474925999999980
 20
-53.846876999999999
 11
-285.874926000000020
 21
-53.846876999999999
  0
LINE
  8
0
  6
CONTINUOUS
 62
256
 10
-285.474925999999980
 20
-53.446877000000001
 11
-285.474925999999980
 21
-42.846876999999999
  0
LINE
  8
0
  6
CONTINUOUS
 62
256
 10
-325.474925999999980
 20
-54.846876999999999
 11
-325.474925999999980
 21
-42.846876999999999
  0
LINE
  8
0
  6
CONTINUOUS
 62
256
 10
-325.474925999999980
 20
-30.846876999999999
 11
-325.474925999999980
 21
-42.846876999999999
  0
LINE
  8
0
  6
CONTINUOUS
 62
256
 10
-440.974943999999990
 20
-75.640351999999993
 11
-440.974943999999990
 21
-84.513022000000007
  0
ARC
  8
0
  6
CONTINUOUS
 62
256
 10
-414.974943999999990
 20
-92.513022000000007
 40
25.000000000000007
 50
176.561350000000000
 51
239.999999999999970
  0
ARC
  8
0
  6
CONTINUOUS
 62
256
 10
-359.974943999999990
 20
-92.513022000000007
 40
24.999999999999996
 50
293.578177999999920
 51
354.269824999999970
  0
LINE
  8
0
  6
CONTINUOUS
 62
256
 10
-333.974943999999990
 20
-84.513022000000007
 11
-333.974943999999990
 21
-75.640348000000003
  0
ARC
  8
0
  6
CONTINUOUS
 62
256
 10
-440.474943999999990
 20
-84.513022000000007
 40
0.500000000000000
 50
180.000000000000000
 51
270.000000000000000
  0
ARC
  8
0
  6
CONTINUOUS
 62
256
 10
-440.474943999999990
 20
-85.513022000000007
 40
0.500000000000000
 50
0.000000000000000
 51
90.000000000000000
  0
ARC
  8
0
  6
CONTINUOUS
 62
256
 10
-334.474943999999990
 20
-84.513022000000007
 40
0.500000000000000
 50
270.000000000000000
 51
0.000000000000000
  0
ARC
  8
0
  6
CONTINUOUS
 62
256
 10
-334.474943999999990
 20
-85.513022000000007
 40
0.500000000000000
 50
90.000000000000000
 51
180.000000000000000
  0
ARC
  8
0
  6
CONTINUOUS
 62
256
 10
-39.974944000000001
 20
-85.013022000000007
 40
400.000000000000000
 50
180.071529999999970
 51
180.859540999999980
  0
ARC
  8
0
  6
CONTINUOUS
 62
256
 10
-734.974944000000050
 20
-85.013022000000007
 40
400.000000000000000
 50
358.568016000000060
 51
359.928470000000000
  0
LINE
  8
0
  6
CONTINUOUS
 62
256
 10
-317.474925999999980
 20
-31.846876999999999
 11
-317.474925999999980
 21
-29.346876999999999
  0
LINE
  8
0
  6
CONTINUOUS
 62
256
 10
-285.474925999999980
 20
-29.346876999999999
 11
-285.474925999999980
 21
-31.846876999999999
  0
LINE
  8
0
  6
CONTINUOUS
 62
256
 10
-285.474925999999980
 20
-29.346876999999999
 11
-317.474908000000030
 21
-29.346876999999999
  0
LINE
  8
0
  6
CONTINUOUS
 62
256
 10
-327.474925999999980
 20
-54.846876999999999
 11
-325.474925999999980
 21
-54.846876999999999
  0
LINE
  8
0
  6
CONTINUOUS
 62
256
 10
-327.474925999999980
 20
-30.846876999999999
 11
-325.474925999999980
 21
-30.846876999999999
  0
LINE
  8
0
  6
DASHDOT
 62
256
 10
-277.603431000000000
 20
-42.846876999999999
 11
-454.900726000000020
 21
-42.846876999999999
  0
LINE
  8
0
  6
DASHDOT
 62
256
 10
-363.689045000000020
 20
-65.013022000000007
 11
-406.058183999999980
 21
-65.013022000000007
  0
LINE
  8
0
  6
DASHDOT
 62
256
 10
-387.474943999999990
 20
33.618648999999998
 11
-387.474943999999990
 21
-157.177696000000000
  0
LINE
  8
0
  6
DASHDOT
 62
256
 10
340.199992000000010
 20
-65.013022000000007
 11
453.462881999999980
 21
-65.013022000000007
  0
LINE
  8
0
  6
DASHDOT
 62
256
 10
396.694210000000000
 20
33.618648999999998
 11
396.694210000000000
 21
-148.731957999999990
  0
LINE
  8
0
  6
CONTINUOUS
 62
256
 10
338.873265000000000
 20
-74.878449000000003
 11
342.833514999999980
 21
-75.576747999999995
  0
LINE
  8
0
  6
CONTINUOUS
 62
256
 10
356.194143000000000
 20
-11.600465000000000
 11
356.194143000000000
 21
4.153123000000000
  0
LINE
  8
0
  6
CONTINUOUS
 62
256
 10
359.194210000000000
 20
-9.711283999999999
 11
359.194210000000000
 21
8.982904000000000
  0
LINE
  8
0
  6
CONTINUOUS
 62
256
 10
454.215172000000000
 20
-74.931347000000002
 11
450.554904000000020
 21
-75.576751000000002
  0
LINE
  8
0
  6
CONTINUOUS
 62
256
 10
437.194210000000000
 20
-11.600414000000001
 11
437.194210000000000
 21
10.065391000000000
  0
LINE
  8
0
  6
CONTINUOUS
 62
256
 10
436.694210000000000
 20
-118.792553000000000
 11
436.694210000000000
 21
-125.847149000000000
  0
LINE
  8
0
  6
CONTINUOUS
 62
256
 10
429.194210000000000
 20
-129.384165000000000
 11
429.194210000000000
 21
-122.119743000000000
  0
LINE
  8
0
  6
CONTINUOUS
 62
256
 10
359.194210000000000
 20
-127.506046000000000
 11
359.194210000000000
 21
-120.314761000000000
  0
LINE
  8
0
  6
CONTINUOUS
 62
256
 10
429.194210000000000
 20
-122.250955000000000
 11
429.194210000000000
 21
-128.847149000000000
  0
LINE
  8
0
  6
CONTINUOUS
 62
256
 10
432.694210000000000
 20
13.092029999999999
 11
434.246567000000030
 21
13.064933999999999
  0
ARC
  8
0
  6
CONTINUOUS
 62
256
 10
362.194210000000000
 20
8.982904000000000
 40
3.000000000000000
 50
119.999999999999990
 51
180.000000000000000
  0
LINE
  8
0
  6
CONTINUOUS
 62
256
 10
354.064053000000000
 20
-116.569489000000000
 11
346.605358000000020
 21
-109.110794000000000
  0
ARC
  8
0
  6
CONTINUOUS
 62
256
 10
379.037765999999980
 20
-61.513021999999999
 40
1.000000000000000
 50
270.000000000000000
 51
348.787729000000300
  0
LINE
  8
0
  6
CONTINUOUS
 62
256
 10
375.987930000000010
 20
-62.513021999999999
 11
379.037765999999980
 21
-62.513021999999999
  0
ARC
  8
0
  6
CONTINUOUS
 62
256
 10
375.987930000000010
 20
-61.513021999999999
 40
0.999999999999979
 50
170.405931999999640
 51
270.000000000000000
  0
ARC
  8
0
  6
CONTINUOUS
 62
256
 10
370.426357999999990
 20
-61.513021999999999
 40
1.000000000000000
 50
270.000000000000000
 51
352.410458000000010
  0
LINE
  8
0
  6
CONTINUOUS
 62
256
 10
367.402573000000020
 20
-62.513021999999999
 11
370.426357999999990
 21
-62.513021999999999
  0
ARC
  8
0
  6
CONTINUOUS
 62
256
 10
367.402573000000020
 20
-61.513021999999999
 40
1.000000000000019
 50
173.186146000000240
 51
270.000000000000000
  0
ARC
  8
0
  6
CONTINUOUS
 62
256
 10
361.869648999999980
 20
-61.513021999999999
 40
1.000000000000000
 50
270.000000000000000
 51
354.260830000000000
  0
LINE
  8
0
  6
CONTINUOUS
 62
256
 10
358.855736999999980
 20
-62.513021999999999
 11
361.869648999999980
 21
-62.513021999999999
  0
ARC
  8
0
  6
CONTINUOUS
 62
256
 10
358.855736999999980
 20
-61.513021999999999
 40
1.000000000000027
 50
174.715267000000240
 51
270.000000000000000
  0
ARC
  8
0
  6
CONTINUOUS
 62
256
 10
379.017301999999970
 20
-41.395721000000002
 40
0.999999999999984
 50
30.000000000000544
 51
126.813854000000730
  0
LINE
  8
0
  6
CONTINUOUS
 62
256
 10
379.883328000000010
 20
-40.895721000000002
 11
381.395220999999990
 21
-43.514395999999998
  0
ARC
  8
0
  6
CONTINUOUS
 62
256
 10
380.529195000000020
 20
-44.014395999999998
 40
0.999999999999987
 50
307.589541999999030
 51
30.000000000000544
  0
ARC
  8
0
  6
CONTINUOUS
 62
256
 10
374.743883999999980
 20
-33.993943999999999
 40
0.999999999999984
 50
30.000000000000544
 51
125.284733000000970
  0
LINE
  8
0
  6
CONTINUOUS
 62
256
 10
375.609910000000010
 20
-33.493943999999999
 11
377.116866000000020
 21
-36.104069000000003
  0
ARC
  8
0
  6
CONTINUOUS
 62
256
 10
376.250840999999980
 20
-36.604069000000003
 40
1.000000000000004
 50
305.739170000000000
 51
30.000000000000544
  0
ARC
  8
0
  6
CONTINUOUS
 62
256
 10
389.247239999999980
 20
-59.114493000000003
 40
0.999999999999981
 50
321.618271999999310
 51
30.000000000000544
  0
LINE
  8
0
  6
CONTINUOUS
 62
256
 10
388.529146000000030
 20
-55.870717999999997
 11
390.113266000000010
 21
-58.614493000000003
  0
ARC
  8
0
  6
CONTINUOUS
 62
256
 10
384.834899000000010
 20
-51.472093999999998
 40
1.000000000000000
 50
311.212271000000040
 51
30.000000000000544
  0
LINE
  8
0
  6
CONTINUOUS
 62
256
 10
384.176005999999970
 20
-48.330858999999997
 11
385.700923999999990
 21
-50.972093999999998
  0
ARC
  8
0
  6
CONTINUOUS
 62
256
 10
383.309980999999990
 20
-48.830858999999997
 40
0.999999999999984
 50
30.000000000000544
 51
129.594067999999310
  0
ARC
  8
0
  6
CONTINUOUS
 62
256
 10
387.862449000000030
 20
-61.513021999999999
 40
1.000000000000000
 50
270.000000000000000
 51
338.381728000000520
  0
ARC
  8
0
  6
CONTINUOUS
 62
256
 10
396.694210000000000
 20
-65.013022000000007
 40
8.500000000000005
 50
141.618272000000020
 51
158.381728000000040
  0
ARC
  8
0
  6
CONTINUOUS
 62
256
 10
387.663120999999990
 20
-56.370717999999997
 40
0.999999999999984
 50
30.000000000000544
 51
136.260205000000240
  0
LINE
  8
0
  6
CONTINUOUS
 62
256
 10
384.694210000000000
 20
-62.513021999999999
 11
387.862449000000030
 21
-62.513021999999999
  0
ARC
  8
0
  6
CONTINUOUS
 62
256
 10
384.694210000000000
 20
-61.513021999999999
 40
0.999999999999974
 50
163.739794999999700
 51
270.000000000000000
  0
ARC
  8
0
  6
CONTINUOUS
 62
256
 10
396.694210000000000
 20
-65.013022000000007
 40
13.500000000000000
 50
136.260205000000010
 51
163.739794999999960
  0
ARC
  8
0
  6
CONTINUOUS
 62
256
 10
396.694210000000000
 20
-65.013022000000007
 40
17.000000000000014
 50
131.212271000000020
 51
168.787728999999980
  0
ARC
  8
0
  6
CONTINUOUS
 62
256
 10
396.694210000000000
 20
-65.013022000000007
 40
21.999999999999986
 50
129.594067999999940
 51
170.405932000000010
  0
ARC
  8
0
  6
CONTINUOUS
 62
256
 10
396.694210000000000
 20
-65.013022000000007
 40
30.499999999999989
 50
126.813853999999980
 51
173.186146000000010
  0
ARC
  8
0
  6
CONTINUOUS
 62
256
 10
396.694210000000000
 20
-65.013022000000007
 40
25.499999999999996
 50
127.589541999999970
 51
172.410458000000010
  0
ARC
  8
0
  6
CONTINUOUS
 62
256
 10
396.694210000000000
 20
-65.013022000000007
 40
34.000000000000007
 50
125.739170000000040
 51
174.260830000000000
  0
ARC
  8
0
  6
CONTINUOUS
 62
256
 10
396.694210000000000
 20
-65.013022000000007
 40
39.000000000000000
 50
125.284733000000000
 51
174.715267000000010
  0
ARC
  8
0
  6
CONTINUOUS
 62
256
 10
385.079479999999990
 20
-37.895721000000002
 40
1.000000000000000
 50
113.186146000000120
 51
210.000000000000510
  0
LINE
  8
0
  6
CONTINUOUS
 62
256
 10
384.213455000000010
 20
-38.395721000000002
 11
385.725348000000000
 21
-41.014395999999998
  0
ARC
  8
0
  6
CONTINUOUS
 62
256
 10
386.591372999999980
 20
-40.514395999999998
 40
0.999999999999984
 50
210.000000000000510
 51
292.410458000000630
  0
ARC
  8
0
  6
CONTINUOUS
 62
256
 10
380.806062000000000
 20
-30.493943999999999
 40
1.000000000000000
 50
114.715267000000220
 51
210.000000000000510
  0
LINE
  8
0
  6
CONTINUOUS
 62
256
 10
379.940037000000020
 20
-30.993943999999999
 11
381.446993000000020
 21
-33.604069000000003
  0
ARC
  8
0
  6
CONTINUOUS
 62
256
 10
382.313018000000000
 20
-33.104069000000003
 40
0.999999999999984
 50
210.000000000000510
 51
294.260829999998690
  0
ARC
  8
0
  6
CONTINUOUS
 62
256
 10
395.309417999999990
 20
-55.614493000000003
 40
0.999999999999984
 50
210.000000000000510
 51
278.381727999998870
  0
LINE
  8
0
  6
CONTINUOUS
 62
256
 10
392.859272999999970
 20
-53.370717999999997
 11
394.443393000000010
 21
-56.114493000000003
  0
ARC
  8
0
  6
CONTINUOUS
 62
256
 10
390.897077000000020
 20
-47.972093999999998
 40
0.999999999999984
 50
210.000000000000510
 51
288.787729000000870
  0
LINE
  8
0
  6
CONTINUOUS
 62
256
 10
388.506132999999980
 20
-45.830858999999997
 11
390.031050999999990
 21
-48.472093999999998
  0
ARC
  8
0
  6
CONTINUOUS
 62
256
 10
389.372159000000010
 20
-45.330858999999997
 40
0.999999999999999
 50
110.405931999999720
 51
210.000000000000510
  0
ARC
  8
0
  6
CONTINUOUS
 62
256
 10
398.079001000000010
 20
-55.614493000000003
 40
0.999999999999998
 50
261.618272000001130
 51
329.999999999999490
  0
ARC
  8
0
  6
CONTINUOUS
 62
256
 10
396.694210000000000
 20
-65.013022000000007
 40
8.500000000000002
 50
81.618271999999948
 51
98.381728000000052
  0
ARC
  8
0
  6
CONTINUOUS
 62
256
 10
393.725298000000010
 20
-52.870717999999997
 40
1.000000000000004
 50
103.739795000001370
 51
210.000000000000510
  0
LINE
  8
0
  6
CONTINUOUS
 62
256
 10
400.529146000000030
 20
-53.370717999999997
 11
398.945025999999980
 21
-56.114493000000003
  0
ARC
  8
0
  6
CONTINUOUS
 62
256
 10
399.663120999999990
 20
-52.870717999999997
 40
0.999999999999984
 50
329.999999999999490
 51
76.260204999998635
  0
ARC
  8
0
  6
CONTINUOUS
 62
256
 10
396.694210000000000
 20
-65.013022000000007
 40
13.499999999999996
 50
76.260205000000070
 51
103.739794999999940
  0
ARC
  8
0
  6
CONTINUOUS
 62
256
 10
402.491341999999970
 20
-47.972093999999998
 40
1.000000000000004
 50
251.212270999999130
 51
329.999999999999490
  0
LINE
  8
0
  6
CONTINUOUS
 62
256
 10
404.882286000000020
 20
-45.830858999999997
 11
403.357368000000010
 21
-48.472093999999998
  0
ARC
  8
0
  6
CONTINUOUS
 62
256
 10
396.694210000000000
 20
-65.013022000000007
 40
16.999999999999993
 50
71.212271000000044
 51
108.787728999999960
  0
ARC
  8
0
  6
CONTINUOUS
 62
256
 10
404.016259999999990
 20
-45.330858999999997
 40
0.999999999999984
 50
329.999999999999490
 51
69.594068000000291
  0
ARC
  8
0
  6
CONTINUOUS
 62
256
 10
406.797046000000020
 20
-40.514395999999998
 40
1.000000000000003
 50
247.589541999999370
 51
329.999999999999490
  0
ARC
  8
0
  6
CONTINUOUS
 62
256
 10
411.075401000000000
 20
-33.104069000000003
 40
0.999999999999992
 50
245.739170000001340
 51
329.999999999999490
  0
ARC
  8
0
  6
CONTINUOUS
 62
256
 10
396.694210000000000
 20
-65.013022000000007
 40
21.999999999999996
 50
69.594067999999993
 51
110.405932000000020
  0
LINE
  8
0
  6
CONTINUOUS
 62
256
 10
409.174964999999990
 20
-38.395721000000002
 11
407.663072000000000
 21
-41.014395999999998
  0
ARC
  8
0
  6
CONTINUOUS
 62
256
 10
408.308939000000010
 20
-37.895721000000002
 40
0.999999999999984
 50
329.999999999999490
 51
66.813853999999878
  0
ARC
  8
0
  6
CONTINUOUS
 62
256
 10
396.694210000000000
 20
-65.013022000000007
 40
30.500000000000004
 50
66.813853999999992
 51
113.186146000000010
  0
ARC
  8
0
  6
CONTINUOUS
 62
256
 10
396.694210000000000
 20
-65.013022000000007
 40
25.500000000000007
 50
67.589541999999966
 51
112.410458000000050
  0
ARC
  8
0
  6
CONTINUOUS
 62
256
 10
396.694210000000000
 20
-65.013022000000007
 40
34.000000000000000
 50
65.739169999999987
 51
114.260830000000010
  0
ARC
  8
0
  6
CONTINUOUS
 62
256
 10
396.694210000000000
 20
-65.013022000000007
 40
38.999999999999993
 50
65.284733000000031
 51
114.715266999999980
  0
LINE
  8
0
  6
CONTINUOUS
 62
256
 10
413.448381999999980
 20
-30.993943999999999
 11
411.941425999999980
 21
-33.604069000000003
  0
ARC
  8
0
  6
CONTINUOUS
 62
256
 10
412.582357000000000
 20
-30.493943999999999
 40
0.999999999999984
 50
329.999999999999490
 51
65.284732999999775
  0
CIRCLE
  8
0
  6
CONTINUOUS
 62
256
 10
396.694210000000000
 20
-65.013022000000007
 40
5.000000000000000
  0
ARC
  8
0
  6
CONTINUOUS
 62
256
 10
418.644535000000020
 20
-33.993943999999999
 40
1.000000000000016
 50
54.715266999999017
 51
149.999999999999460
  0
ARC
  8
0
  6
CONTINUOUS
 62
256
 10
417.137579000000020
 20
-36.604069000000003
 40
0.999999999999984
 50
149.999999999999460
 51
234.260830000000000
  0
ARC
  8
0
  6
CONTINUOUS
 62
256
 10
431.518770000000020
 20
-61.513021999999999
 40
0.999999999999977
 50
185.739170000000030
 51
270.000000000000000
  0
ARC
  8
0
  6
CONTINUOUS
 62
256
 10
434.532682000000020
 20
-61.513021999999999
 40
1.000000000000000
 50
270.000000000000000
 51
5.284732999999778
  0
ARC
  8
0
  6
CONTINUOUS
 62
256
 10
422.962061000000010
 20
-61.513021999999999
 40
0.999999999999990
 50
187.589541999999990
 51
270.000000000000000
  0
ARC
  8
0
  6
CONTINUOUS
 62
256
 10
414.371117000000030
 20
-41.395721000000002
 40
1.000000000000011
 50
53.186145999999269
 51
149.999999999999460
  0
ARC
  8
0
  6
CONTINUOUS
 62
256
 10
412.859223999999980
 20
-44.014395999999998
 40
0.999999999999984
 50
149.999999999999460
 51
232.410458000000890
  0
ARC
  8
0
  6
CONTINUOUS
 62
256
 10
425.985846999999980
 20
-61.513021999999999
 40
1.000000000000000
 50
270.000000000000000
 51
6.813853999999752
  0
ARC
  8
0
  6
CONTINUOUS
 62
256
 10
417.400488999999990
 20
-61.513021999999999
 40
1.000000000000000
 50
270.000000000000000
 51
9.594068000000362
  0
ARC
  8
0
  6
CONTINUOUS
 62
256
 10
414.350653000000020
 20
-61.513021999999999
 40
1.000000000000016
 50
191.212270999999730
 51
270.000000000000000
  0
ARC
  8
0
  6
CONTINUOUS
 62
256
 10
410.078438000000010
 20
-48.830858999999997
 40
0.999999999999988
 50
50.405932000000682
 51
149.999999999999460
  0
ARC
  8
0
  6
CONTINUOUS
 62
256
 10
408.553519999999990
 20
-51.472093999999998
 40
0.999999999999984
 50
149.999999999999460
 51
228.787728999999960
  0
ARC
  8
0
  6
CONTINUOUS
 62
256
 10
405.725298000000010
 20
-56.370717999999997
 40
1.000000000000005
 50
43.739794999999773
 51
149.999999999999460
  0
ARC
  8
0
  6
CONTINUOUS
 62
256
 10
408.694210000000000
 20
-61.513021999999999
 40
1.000000000000000
 50
270.000000000000000
 51
16.260205000000280
  0
ARC
  8
0
  6
CONTINUOUS
 62
256
 10
405.525969999999970
 20
-61.513021999999999
 40
1.000000000000015
 50
201.618271999999850
 51
270.000000000000000
  0
ARC
  8
0
  6
CONTINUOUS
 62
256
 10
404.141179000000020
 20
-59.114493000000003
 40
0.999999999999984
 50
149.999999999999460
 51
218.381728000000690
  0
ARC
  8
0
  6
CONTINUOUS
 62
256
 10
396.694210000000000
 20
-65.013022000000007
 40
38.999999999999986
 50
5.284733000000007
 51
54.715266999999990
  0
ARC
  8
0
  6
CONTINUOUS
 62
256
 10
396.694210000000000
 20
-65.013022000000007
 40
30.499999999999986
 50
6.813854000000005
 51
53.186146000000036
  0
ARC
  8
0
  6
CONTINUOUS
 62
256
 10
396.694210000000000
 20
-65.013022000000007
 40
34.000000000000028
 50
5.739169999999992
 51
54.260829999999970
  0
ARC
  8
0
  6
CONTINUOUS
 62
256
 10
396.694210000000000
 20
-65.013022000000007
 40
25.500000000000011
 50
7.589542000000001
 51
52.410458000000027
  0
ARC
  8
0
  6
CONTINUOUS
 62
256
 10
396.694210000000000
 20
-65.013022000000007
 40
21.999999999999979
 50
9.594068000000020
 51
50.405932000000057
  0
ARC
  8
0
  6
CONTINUOUS
 62
256
 10
396.694210000000000
 20
-65.013022000000007
 40
16.999999999999993
 50
11.212271000000010
 51
48.787728999999985
  0
ARC
  8
0
  6
CONTINUOUS
 62
256
 10
396.694210000000000
 20
-65.013022000000007
 40
13.499999999999988
 50
16.260205000000006
 51
43.739795000000001
  0
ARC
  8
0
  6
CONTINUOUS
 62
256
 10
396.694210000000000
 20
-65.013022000000007
 40
8.500000000000016
 50
21.618271999999980
 51
38.381727999999960
  0
LINE
  8
0
  6
CONTINUOUS
 62
256
 10
413.505091999999990
 20
-40.895721000000002
 11
411.993199000000000
 21
-43.514395999999998
  0
LINE
  8
0
  6
CONTINUOUS
 62
256
 10
434.532682000000020
 20
-62.513021999999999
 11
431.518770000000020
 21
-62.513021999999999
  0
LINE
  8
0
  6
CONTINUOUS
 62
256
 10
417.778508999999990
 20
-33.493943999999999
 11
416.271552999999980
 21
-36.104069000000003
  0
LINE
  8
0
  6
CONTINUOUS
 62
256
 10
409.212413000000030
 20
-48.330858999999997
 11
407.687495000000010
 21
-50.972093999999998
  0
LINE
  8
0
  6
CONTINUOUS
 62
256
 10
404.859272999999970
 20
-55.870717999999997
 11
403.275153999999990
 21
-58.614493000000003
  0
LINE
  8
0
  6
CONTINUOUS
 62
256
 10
408.694210000000000
 20
-62.513021999999999
 11
405.525969999999970
 21
-62.513021999999999
  0
LINE
  8
0
  6
CONTINUOUS
 62
256
 10
417.400488999999990
 20
-62.513021999999999
 11
414.350653000000020
 21
-62.513021999999999
  0
LINE
  8
0
  6
CONTINUOUS
 62
256
 10
425.985846999999980
 20
-62.513021999999999
 11
422.962061000000010
 21
-62.513021999999999
  0
ARC
  8
0
  6
CONTINUOUS
 62
256
 10
396.694210000000000
 20
-65.013022000000007
 40
39.000000000000014
 50
245.284732999999960
 51
294.715266999999980
  0
ARC
  8
0
  6
CONTINUOUS
 62
256
 10
396.694210000000000
 20
-65.013022000000007
 40
34.000000000000000
 50
245.739170000000000
 51
294.260830000000000
  0
ARC
  8
0
  6
CONTINUOUS
 62
256
 10
396.694210000000000
 20
-65.013022000000007
 40
25.500000000000007
 50
247.589541999999940
 51
292.410458000000010
  0
ARC
  8
0
  6
CONTINUOUS
 62
256
 10
396.694210000000000
 20
-65.013022000000007
 40
30.499999999999996
 50
246.813853999999990
 51
293.186146000000010
  0
ARC
  8
0
  6
CONTINUOUS
 62
256
 10
396.694210000000000
 20
-65.013022000000007
 40
21.999999999999996
 50
249.594067999999990
 51
290.405932000000010
  0
ARC
  8
0
  6
CONTINUOUS
 62
256
 10
396.694210000000000
 20
-65.013022000000007
 40
16.999999999999993
 50
251.212271000000040
 51
288.787728999999960
  0
ARC
  8
0
  6
CONTINUOUS
 62
256
 10
396.694210000000000
 20
-65.013022000000007
 40
13.500000000000004
 50
256.260205000000040
 51
283.739794999999960
  0
ARC
  8
0
  6
CONTINUOUS
 62
256
 10
393.725298000000010
 20
-77.155327000000000
 40
0.999999999999984
 50
149.999999999999460
 51
256.260204999998730
  0
ARC
  8
0
  6
CONTINUOUS
 62
256
 10
389.372159000000010
 20
-84.695186000000007
 40
0.999999999999984
 50
149.999999999999460
 51
249.594068000000160
  0
LINE
  8
0
  6
CONTINUOUS
 62
256
 10
388.506132999999980
 20
-84.195186000000007
 11
390.031050999999990
 21
-81.553950999999998
  0
ARC
  8
0
  6
CONTINUOUS
 62
256
 10
390.897077000000020
 20
-82.053950999999998
 40
1.000000000000010
 50
71.212270999999262
 51
149.999999999999460
  0
LINE
  8
0
  6
CONTINUOUS
 62
256
 10
392.859272999999970
 20
-76.655327000000000
 11
394.443393000000010
 21
-73.911552000000000
  0
ARC
  8
0
  6
CONTINUOUS
 62
256
 10
395.309417999999990
 20
-74.411552000000000
 40
0.999999999999998
 50
81.618272000001099
 51
149.999999999999460
  0
ARC
  8
0
  6
CONTINUOUS
 62
256
 10
382.313018000000000
 20
-96.921976000000001
 40
0.999999999999992
 50
65.739170000001337
 51
149.999999999999460
  0
LINE
  8
0
  6
CONTINUOUS
 62
256
 10
379.940037000000020
 20
-99.032100999999997
 11
381.446993000000020
 21
-96.421976000000001
  0
ARC
  8
0
  6
CONTINUOUS
 62
256
 10
380.806062000000000
 20
-99.532100999999997
 40
0.999999999999984
 50
149.999999999999460
 51
245.284732999999870
  0
ARC
  8
0
  6
CONTINUOUS
 62
256
 10
386.591372999999980
 20
-89.511649000000006
 40
1.000000000000009
 50
67.589541999999554
 51
149.999999999999460
  0
LINE
  8
0
  6
CONTINUOUS
 62
256
 10
384.213455000000010
 20
-91.630324000000002
 11
385.725348000000000
 21
-89.011649000000006
  0
ARC
  8
0
  6
CONTINUOUS
 62
256
 10
385.079479999999990
 20
-92.130324000000002
 40
0.999999999999984
 50
149.999999999999460
 51
246.813853999999880
  0
ARC
  8
0
  6
CONTINUOUS
 62
256
 10
396.694210000000000
 20
-65.013022000000007
 40
38.999999999999986
 50
185.284732999999990
 51
234.715266999999980
  0
ARC
  8
0
  6
CONTINUOUS
 62
256
 10
396.694210000000000
 20
-65.013022000000007
 40
34.000000000000028
 50
185.739169999999970
 51
234.260829999999970
  0
ARC
  8
0
  6
CONTINUOUS
 62
256
 10
396.694210000000000
 20
-65.013022000000007
 40
25.500000000000011
 50
187.589541999999990
 51
232.410458000000030
  0
ARC
  8
0
  6
CONTINUOUS
 62
256
 10
396.694210000000000
 20
-65.013022000000007
 40
30.499999999999986
 50
186.813853999999990
 51
233.186146000000040
  0
ARC
  8
0
  6
CONTINUOUS
 62
256
 10
396.694210000000000
 20
-65.013022000000007
 40
21.999999999999975
 50
189.594067999999960
 51
230.405932000000060
  0
ARC
  8
0
  6
CONTINUOUS
 62
256
 10
396.694210000000000
 20
-65.013022000000007
 40
16.999999999999993
 50
191.212271000000020
 51
228.787728999999980
  0
ARC
  8
0
  6
CONTINUOUS
 62
256
 10
396.694210000000000
 20
-65.013022000000007
 40
13.499999999999989
 50
196.260205000000010
 51
223.739794999999960
  0
ARC
  8
0
  6
CONTINUOUS
 62
256
 10
384.694210000000000
 20
-68.513022000000007
 40
1.000000000000000
 50
90.000000000000000
 51
196.260205000000670
  0
LINE
  8
0
  6
CONTINUOUS
 62
256
 10
384.694210000000000
 20
-67.513022000000007
 11
387.862449000000030
 21
-67.513022000000007
  0
ARC
  8
0
  6
CONTINUOUS
 62
256
 10
387.663120999999990
 20
-73.655327000000000
 40
1.000000000000005
 50
223.739794999999760
 51
329.999999999999490
  0
ARC
  8
0
  6
CONTINUOUS
 62
256
 10
396.694210000000000
 20
-65.013022000000007
 40
8.500000000000016
 50
201.618271999999960
 51
218.381727999999950
  0
ARC
  8
0
  6
CONTINUOUS
 62
256
 10
387.862449000000030
 20
-68.513022000000007
 40
1.000000000000013
 50
21.618271999999475
 51
90.000000000000000
  0
ARC
  8
0
  6
CONTINUOUS
 62
256
 10
383.309980999999990
 20
-81.195186000000007
 40
0.999999999999988
 50
230.405932000000690
 51
329.999999999999490
  0
LINE
  8
0
  6
CONTINUOUS
 62
256
 10
384.176005999999970
 20
-81.695186000000007
 11
385.700923999999990
 21
-79.053950999999998
  0
ARC
  8
0
  6
CONTINUOUS
 62
256
 10
384.834899000000010
 20
-78.553950999999998
 40
0.999999999999984
 50
329.999999999999490
 51
48.787728999999715
  0
LINE
  8
0
  6
CONTINUOUS
 62
256
 10
388.529146000000030
 20
-74.155327000000000
 11
390.113266000000010
 21
-71.411552000000000
  0
ARC
  8
0
  6
CONTINUOUS
 62
256
 10
389.247239999999980
 20
-70.911552000000000
 40
0.999999999999984
 50
329.999999999999490
 51
38.381728000001026
  0
ARC
  8
0
  6
CONTINUOUS
 62
256
 10
376.250840999999980
 20
-93.421976000000001
 40
0.999999999999984
 50
329.999999999999490
 51
54.260829999999778
  0
LINE
  8
0
  6
CONTINUOUS
 62
256
 10
375.609910000000010
 20
-96.532100999999997
 11
377.116866000000020
 21
-93.921976000000001
  0
ARC
  8
0
  6
CONTINUOUS
 62
256
 10
374.743883999999980
 20
-96.032100999999997
 40
1.000000000000016
 50
234.715266999999020
 51
329.999999999999490
  0
ARC
  8
0
  6
CONTINUOUS
 62
256
 10
380.529195000000020
 20
-86.011649000000006
 40
0.999999999999984
 50
329.999999999999490
 51
52.410458000001171
  0
LINE
  8
0
  6
CONTINUOUS
 62
256
 10
379.883328000000010
 20
-89.130324000000002
 11
381.395220999999990
 21
-86.511649000000006
  0
ARC
  8
0
  6
CONTINUOUS
 62
256
 10
379.017301999999970
 20
-88.630324000000002
 40
1.000000000000011
 50
233.186145999999270
 51
329.999999999999490
  0
ARC
  8
0
  6
CONTINUOUS
 62
256
 10
358.855736999999980
 20
-68.513022000000007
 40
1.000000000000000
 50
90.000000000000000
 51
185.284732999999760
  0
LINE
  8
0
  6
CONTINUOUS
 62
256
 10
358.855736999999980
 20
-67.513022000000007
 11
361.869648999999980
 21
-67.513022000000007
  0
ARC
  8
0
  6
CONTINUOUS
 62
256
 10
361.869648999999980
 20
-68.513022000000007
 40
0.999999999999978
 50
5.739170000000447
 51
90.000000000000000
  0
ARC
  8
0
  6
CONTINUOUS
 62
256
 10
367.402573000000020
 20
-68.513022000000007
 40
1.000000000000000
 50
90.000000000000000
 51
186.813853999999760
  0
LINE
  8
0
  6
CONTINUOUS
 62
256
 10
367.402573000000020
 20
-67.513022000000007
 11
370.426357999999990
 21
-67.513022000000007
  0
ARC
  8
0
  6
CONTINUOUS
 62
256
 10
370.426357999999990
 20
-68.513022000000007
 40
0.999999999999990
 50
7.589541999999997
 51
90.000000000000000
  0
ARC
  8
0
  6
CONTINUOUS
 62
256
 10
375.987930000000010
 20
-68.513022000000007
 40
1.000000000000000
 50
90.000000000000000
 51
189.594067999999960
  0
LINE
  8
0
  6
CONTINUOUS
 62
256
 10
375.987930000000010
 20
-67.513022000000007
 11
379.037765999999980
 21
-67.513022000000007
  0
ARC
  8
0
  6
CONTINUOUS
 62
256
 10
379.037765999999980
 20
-68.513022000000007
 40
1.000000000000016
 50
11.212270999999729
 51
90.000000000000000
  0
ARC
  8
0
  6
CONTINUOUS
 62
256
 10
399.663120999999990
 20
-77.155327000000000
 40
1.000000000000011
 50
283.739795000001270
 51
30.000000000000544
  0
LINE
  8
0
  6
CONTINUOUS
 62
256
 10
400.529146000000030
 20
-76.655327000000000
 11
398.945025999999980
 21
-73.911552000000000
  0
ARC
  8
0
  6
CONTINUOUS
 62
256
 10
396.694210000000000
 20
-65.013022000000007
 40
8.500000000000002
 50
261.618271999999930
 51
278.381728000000070
  0
ARC
  8
0
  6
CONTINUOUS
 62
256
 10
398.079001000000010
 20
-74.411552000000000
 40
0.999999999999984
 50
30.000000000000544
 51
98.381727999998901
  0
LINE
  8
0
  6
CONTINUOUS
 62
256
 10
425.985846999999980
 20
-67.513022000000007
 11
422.962061000000010
 21
-67.513022000000007
  0
LINE
  8
0
  6
CONTINUOUS
 62
256
 10
417.400488999999990
 20
-67.513022000000007
 11
414.350653000000020
 21
-67.513022000000007
  0
LINE
  8
0
  6
CONTINUOUS
 62
256
 10
408.694210000000000
 20
-67.513022000000007
 11
405.525969999999970
 21
-67.513022000000007
  0
LINE
  8
0
  6
CONTINUOUS
 62
256
 10
404.859272999999970
 20
-74.155327000000000
 11
403.275153999999990
 21
-71.411552000000000
  0
LINE
  8
0
  6
CONTINUOUS
 62
256
 10
409.212413000000030
 20
-81.695186000000007
 11
407.687495000000010
 21
-79.053950999999998
  0
LINE
  8
0
  6
CONTINUOUS
 62
256
 10
417.778508999999990
 20
-96.532100999999997
 11
416.271552999999980
 21
-93.921976000000001
  0
LINE
  8
0
  6
CONTINUOUS
 62
256
 10
413.505091999999990
 20
-89.130324000000002
 11
411.993199000000000
 21
-86.511649000000006
  0
ARC
  8
0
  6
CONTINUOUS
 62
256
 10
396.694210000000000
 20
-65.013022000000007
 40
8.500000000000005
 50
321.618272000000050
 51
338.381728000000010
  0
ARC
  8
0
  6
CONTINUOUS
 62
256
 10
396.694210000000000
 20
-65.013022000000007
 40
13.500000000000004
 50
316.260204999999980
 51
343.739794999999960
  0
ARC
  8
0
  6
CONTINUOUS
 62
256
 10
396.694210000000000
 20
-65.013022000000007
 40
17.000000000000014
 50
311.212270999999990
 51
348.787729000000010
  0
ARC
  8
0
  6
CONTINUOUS
 62
256
 10
396.694210000000000
 20
-65.013022000000007
 40
21.999999999999986
 50
309.594067999999940
 51
350.405932000000010
  0
ARC
  8
0
  6
CONTINUOUS
 62
256
 10
396.694210000000000
 20
-65.013022000000007
 40
25.499999999999986
 50
307.589541999999990
 51
352.410458000000010
  0
ARC
  8
0
  6
CONTINUOUS
 62
256
 10
396.694210000000000
 20
-65.013022000000007
 40
33.999999999999986
 50
305.739169999999940
 51
354.260830000000000
  0
ARC
  8
0
  6
CONTINUOUS
 62
256
 10
396.694210000000000
 20
-65.013022000000007
 40
30.500000000000014
 50
306.813854000000050
 51
353.186146000000010
  0
ARC
  8
0
  6
CONTINUOUS
 62
256
 10
396.694210000000000
 20
-65.013022000000007
 40
39.000000000000000
 50
305.284733000000020
 51
354.715266999999980
  0
ARC
  8
0
  6
CONTINUOUS
 62
256
 10
404.141179000000020
 20
-70.911552000000000
 40
0.999999999999985
 50
141.618271999999000
 51
210.000000000000510
  0
ARC
  8
0
  6
CONTINUOUS
 62
256
 10
405.525969999999970
 20
-68.513022000000007
 40
1.000000000000000
 50
90.000000000000000
 51
158.381728000000550
  0
ARC
  8
0
  6
CONTINUOUS
 62
256
 10
408.694210000000000
 20
-68.513022000000007
 40
0.999999999999976
 50
343.739794999999330
 51
90.000000000000000
  0
ARC
  8
0
  6
CONTINUOUS
 62
256
 10
405.725298000000010
 20
-73.655327000000000
 40
0.999999999999984
 50
210.000000000000510
 51
316.260205000000270
  0
ARC
  8
0
  6
CONTINUOUS
 62
256
 10
408.553519999999990
 20
-78.553950999999998
 40
1.000000000000006
 50
131.212270999999760
 51
210.000000000000510
  0
ARC
  8
0
  6
CONTINUOUS
 62
256
 10
410.078438000000010
 20
-81.195186000000007
 40
0.999999999999984
 50
210.000000000000510
 51
309.594067999999310
  0
ARC
  8
0
  6
CONTINUOUS
 62
256
 10
414.350653000000020
 20
-68.513022000000007
 40
1.000000000000000
 50
90.000000000000000
 51
168.787729000000270
  0
ARC
  8
0
  6
CONTINUOUS
 62
256
 10
417.400488999999990
 20
-68.513022000000007
 40
0.999999999999978
 50
350.405932000000010
 51
90.000000000000000
  0
ARC
  8
0
  6
CONTINUOUS
 62
256
 10
412.859223999999980
 20
-86.011649000000006
 40
0.999999999999993
 50
127.589541999998830
 51
210.000000000000510
  0
ARC
  8
0
  6
CONTINUOUS
 62
256
 10
414.371117000000030
 20
-88.630324000000002
 40
0.999999999999984
 50
210.000000000000510
 51
306.813854000000730
  0
ARC
  8
0
  6
CONTINUOUS
 62
256
 10
422.962061000000010
 20
-68.513022000000007
 40
1.000000000000000
 50
90.000000000000000
 51
172.410458000000010
  0
ARC
  8
0
  6
CONTINUOUS
 62
256
 10
417.137579000000020
 20
-93.421976000000001
 40
0.999999999999998
 50
125.739170000000210
 51
210.000000000000510
  0
ARC
  8
0
  6
CONTINUOUS
 62
256
 10
418.644535000000020
 20
-96.032100999999997
 40
0.999999999999984
 50
210.000000000000510
 51
305.284733000000980
  0
ARC
  8
0
  6
CONTINUOUS
 62
256
 10
412.582357000000000
 20
-99.532100999999997
 40
1.000000000000004
 50
294.715267000000150
 51
30.000000000000544
  0
LINE
  8
0
  6
CONTINUOUS
 62
256
 10
413.448381999999980
 20
-99.032100999999997
 11
411.941425999999980
 21
-96.421976000000001
  0
ARC
  8
0
  6
CONTINUOUS
 62
256
 10
408.308939000000010
 20
-92.130324000000002
 40
1.000000000000000
 50
293.186146000000120
 51
30.000000000000544
  0
LINE
  8
0
  6
CONTINUOUS
 62
256
 10
409.174964999999990
 20
-91.630324000000002
 11
407.663072000000000
 21
-89.011649000000006
  0
ARC
  8
0
  6
CONTINUOUS
 62
256
 10
411.075401000000000
 20
-96.921976000000001
 40
0.999999999999984
 50
30.000000000000544
 51
114.260829999998650
  0
ARC
  8
0
  6
CONTINUOUS
 62
256
 10
406.797046000000020
 20
-89.511649000000006
 40
0.999999999999984
 50
30.000000000000544
 51
112.410458000000460
  0
ARC
  8
0
  6
CONTINUOUS
 62
256
 10
404.016259999999990
 20
-84.695186000000007
 40
0.999999999999993
 50
290.405931999999840
 51
30.000000000000544
  0
LINE
  8
0
  6
CONTINUOUS
 62
256
 10
404.882286000000020
 20
-84.195186000000007
 11
403.357368000000010
 21
-81.553950999999998
  0
ARC
  8
0
  6
CONTINUOUS
 62
256
 10
402.491341999999970
 20
-82.053950999999998
 40
0.999999999999984
 50
30.000000000000544
 51
108.787729000000750
  0
LINE
  8
0
  6
CONTINUOUS
 62
256
 10
434.532682000000020
 20
-67.513022000000007
 11
431.518770000000020
 21
-67.513022000000007
  0
ARC
  8
0
  6
CONTINUOUS
 62
256
 10
425.985846999999980
 20
-68.513022000000007
 40
1.000000000000019
 50
353.186146000000240
 51
90.000000000000000
  0
ARC
  8
0
  6
CONTINUOUS
 62
256
 10
434.532682000000020
 20
-68.513022000000007
 40
1.000000000000027
 50
354.715267000000210
 51
90.000000000000000
  0
ARC
  8
0
  6
CONTINUOUS
 62
256
 10
431.518770000000020
 20
-68.513022000000007
 40
1.000000000000000
 50
90.000000000000000
 51
174.260829999999570
  0
ARC
  8
0
  6
CONTINUOUS
 62
256
 10
424.757966000000010
 20
-28.022955000000000
 40
10.797000000000008
 50
44.999999999999964
 51
84.247716999999980
  0
ARC
  8
0
  6
CONTINUOUS
 62
256
 10
424.757966000000010
 20
-102.003090000000000
 40
10.797000000000002
 50
275.752282999999980
 51
315.000000000000060
  0
ARC
  8
0
  6
CONTINUOUS
 62
256
 10
368.630452999999990
 20
-102.003090000000000
 40
10.797000000000006
 50
224.999999999999940
 51
264.247716999999970
  0
ARC
  8
0
  6
CONTINUOUS
 62
256
 10
368.630452999999990
 20
-28.022955000000000
 40
10.796999999999999
 50
95.752283000000034
 51
135.000000000000060
  0
ARC
  8
0
  6
CONTINUOUS
 62
256
 10
368.630452999999990
 20
-102.003090000000000
 40
20.599999999999991
 50
225.000000000000000
 51
264.247716999999910
  0
ARC
  8
0
  6
CONTINUOUS
 62
256
 10
424.757966000000010
 20
-102.003090000000000
 40
20.600000000000001
 50
275.752282999999860
 51
314.999999999999940
  0
ARC
  8
0
  6
CONTINUOUS
 62
256
 10
424.757966000000010
 20
-28.022955000000000
 40
20.599999999999994
 50
45.000000000000014
 51
84.247716999999938
  0
ARC
  8
0
  6
CONTINUOUS
 62
256
 10
368.630452999999990
 20
-28.022955000000000
 40
20.600000000000005
 50
95.752283000000077
 51
135.000000000000000
  0
LINE
  8
0
  6
CONTINUOUS
 62
256
 10
366.701710999999990
 20
-7.513022000000000
 11
360.694210000000000
 21
-7.513022000000000
  0
LINE
  8
0
  6
CONTINUOUS
 62
256
 10
432.694210000000000
 20
-7.513022000000000
 11
426.682194999999980
 21
-7.513022000000000
  0
LINE
  8
0
  6
CONTINUOUS
 62
256
 10
354.064053000000000
 20
-13.456555000000000
 11
346.605358000000020
 21
-20.915251000000001
  0
ARC
  8
0
  6
CONTINUOUS
 62
256
 10
396.694210000000000
 20
-306.613022000000000
 40
300.600000000000020
 50
90.000000000000000
 51
95.752283000000006
  0
ARC
  8
0
  6
CONTINUOUS
 62
256
 10
743.294210000000020
 20
-65.013022000000007
 40
400.600000000000080
 50
174.256317999999990
 51
180.000000000000000
  0
ARC
  8
0
  6
CONTINUOUS
 62
256
 10
351.272263000000010
 20
-25.582155000000000
 40
6.600000000000019
 50
135.000000000000140
 51
174.256317999999960
  0
ARC
  8
0
  6
CONTINUOUS
 62
256
 10
442.116155999999990
 20
-25.582155000000000
 40
6.599999999999973
 50
5.743682000000032
 51
44.999999999999829
  0
ARC
  8
0
  6
CONTINUOUS
 62
256
 10
50.094209999999997
 20
-65.013022000000007
 40
400.600000000000020
 50
0.000000000000000
 51
5.743682000000000
  0
LINE
  8
0
  6
CONTINUOUS
 62
256
 10
439.324366000000000
 20
-13.456555000000000
 11
446.783060999999980
 21
-20.915251000000001
  0
ARC
  8
0
  6
CONTINUOUS
 62
256
 10
396.694210000000000
 20
-306.613022000000000
 40
300.600000000000020
 50
84.247716999999994
 51
90.000000000000000
  0
ARC
  8
0
  6
CONTINUOUS
 62
256
 10
442.116155999999990
 20
-104.443889000000000
 40
6.600000000000017
 50
315.000000000000170
 51
354.256318000000020
  0
ARC
  8
0
  6
CONTINUOUS
 62
256
 10
50.094209999999997
 20
-65.013022000000007
 40
400.600000000000020
 50
354.256318000000020
 51
0.000000000000000
  0
LINE
  8
0
  6
CONTINUOUS
 62
256
 10
439.324366000000000
 20
-116.569489000000000
 11
446.783060999999980
 21
-109.110794000000000
  0
ARC
  8
0
  6
CONTINUOUS
 62
256
 10
396.694210000000000
 20
176.586977999999990
 40
300.600000000000020
 50
270.000000000000000
 51
275.752282999999980
  0
ARC
  8
0
  6
CONTINUOUS
 62
256
 10
351.272263000000010
 20
-104.443889000000000
 40
6.599999999999973
 50
185.743682000000060
 51
224.999999999999830
  0
ARC
  8
0
  6
CONTINUOUS
 62
256
 10
743.294210000000020
 20
-65.013022000000007
 40
400.600000000000020
 50
180.000000000000000
 51
185.743681999999980
  0
ARC
  8
0
  6
CONTINUOUS
 62
256
 10
396.694210000000000
 20
176.586977999999990
 40
300.600000000000020
 50
264.247717000000020
 51
270.000000000000000
  0
LINE
  8
0
  6
CONTINUOUS
 62
256
 10
360.995820999999980
 20
-20.388323000000000
 11
355.108407000000000
 21
-26.275736999999999
  0
ARC
  8
0
  6
CONTINUOUS
 62
256
 10
743.294210000000020
 20
-65.013022000000007
 40
390.797000000000030
 50
174.582035999999990
 51
180.000000000000000
  0
ARC
  8
0
  6
CONTINUOUS
 62
256
 10
357.229727000000030
 20
-28.397057000000000
 40
3.000000000000012
 50
135.000000000000260
 51
174.582036000000020
  0
ARC
  8
0
  6
CONTINUOUS
 62
256
 10
396.694210000000000
 20
-306.613022000000000
 40
290.797000000000030
 50
90.000000000000000
 51
95.752283000000006
  0
ARC
  8
0
  6
CONTINUOUS
 62
256
 10
436.158691999999970
 20
-28.397057000000000
 40
2.999999999999997
 50
5.417963999999999
 51
44.999999999999766
  0
ARC
  8
0
  6
CONTINUOUS
 62
256
 10
50.094209999999997
 20
-65.013022000000007
 40
390.797000000000030
 50
0.000000000000000
 51
5.417964000000000
  0
LINE
  8
0
  6
CONTINUOUS
 62
256
 10
432.392598000000020
 20
-20.388323000000000
 11
438.280012000000000
 21
-26.275736999999999
  0
ARC
  8
0
  6
CONTINUOUS
 62
256
 10
396.694210000000000
 20
-306.613022000000000
 40
290.797000000000030
 50
84.247716999999994
 51
90.000000000000000
  0
ARC
  8
0
  6
CONTINUOUS
 62
256
 10
436.158691999999970
 20
-101.628987000000000
 40
3.000000000000014
 50
315.000000000000230
 51
354.582036000000070
  0
ARC
  8
0
  6
CONTINUOUS
 62
256
 10
50.094209999999997
 20
-65.013022000000007
 40
390.797000000000030
 50
354.582036000000020
 51
0.000000000000000
  0
LINE
  8
0
  6
CONTINUOUS
 62
256
 10
432.392598000000020
 20
-109.637722000000000
 11
438.280012000000000
 21
-103.750308000000000
  0
ARC
  8
0
  6
CONTINUOUS
 62
256
 10
396.694210000000000
 20
176.586977999999990
 40
290.797000000000030
 50
270.000000000000000
 51
275.752282999999980
  0
ARC
  8
0
  6
CONTINUOUS
 62
256
 10
357.229727000000030
 20
-101.628987000000000
 40
2.999999999999996
 50
185.417963999999930
 51
224.999999999999800
  0
ARC
  8
0
  6
CONTINUOUS
 62
256
 10
743.294210000000020
 20
-65.013022000000007
 40
390.797000000000030
 50
180.000000000000000
 51
185.417963999999980
  0
LINE
  8
0
  6
CONTINUOUS
 62
256
 10
360.995820999999980
 20
-109.637722000000000
 11
355.108407000000000
 21
-103.750308000000000
  0
ARC
  8
0
  6
CONTINUOUS
 62
256
 10
396.694210000000000
 20
176.586977999999990
 40
290.797000000000030
 50
264.247717000000020
 51
270.000000000000000
  0
LINE
  8
0
  6
CONTINUOUS
 62
256
 10
360.694210000000000
 20
-9.013062000000000
 11
360.694210000000000
 21
19.853642000000001
  0
LINE
  8
0
  6
CONTINUOUS
 62
256
 10
432.694210000000000
 20
-9.013062000000000
 11
432.694210000000000
 21
19.853642000000001
  0
LINE
  8
0
  6
CONTINUOUS
 62
256
 10
394.194210000000000
 20
26.986978000000001
 11
394.194210000000000
 21
26.476561000000000
  0
LINE
  8
0
  6
CONTINUOUS
 62
256
 10
399.194210000000000
 20
26.986978000000001
 11
394.194210000000000
 21
26.986978000000001
  0
LINE
  8
0
  6
CONTINUOUS
 62
256
 10
399.194210000000000
 20
26.986978000000001
 11
399.194210000000000
 21
26.476561000000000
  0
ARC
  8
0
  6
CONTINUOUS
 62
256
 10
427.694210000000000
 20
19.853642000000001
 40
5.000000000000000
 50
0.000000000000000
 51
83.967950999999999
  0
ARC
  8
0
  6
CONTINUOUS
 62
256
 10
365.694210000000000
 20
19.853642000000001
 40
5.000000000000002
 50
96.032049000000001
 51
180.000000000000000
  0
ARC
  8
0
  6
CONTINUOUS
 62
256
 10
396.694210000000000
 20
-273.513021999999980
 40
300.000000000000000
 50
83.967950999999999
 51
96.032049000000001
  0
ARC
  8
0
  6
CONTINUOUS
 62
256
 10
434.194210000000000
 20
10.065391000000000
 40
3.000000000000000
 50
0.000000000000000
 51
89.000000000000412
  0
LINE
  8
0
  6
CONTINUOUS
 62
256
 10
433.694210000000000
 20
-128.847149000000000
 11
429.194894999999970
 21
-128.925684999999990
  0
POINT
  8
0
  6
CONTINUOUS
 62
256
 10
437.194210000000000
 20
-7.761152000000000
  0
ARC
  8
0
  6
CONTINUOUS
 62
256
 10
442.194210000000000
 20
-3.565653000000000
 40
5.000000000000000
 50
180.000000000000000
 51
260.000000000000110
  0
LINE
  8
0
  6
CONTINUOUS
 62
256
 10
454.715172000000000
 20
-10.850569999999999
 11
441.325968999999990
 21
-8.489692000000000
  0
LINE
  8
0
  6
CONTINUOUS
 62
256
 10
456.694210000000000
 20
-142.846877000000010
 11
336.694210000000000
 21
-142.846877000000010
  0
LINE
  8
0
  6
CONTINUOUS
 62
256
 10
336.694210000000000
 20
-142.846877000000010
 11
336.694210000000000
 21
-133.794969000000010
  0
LINE
  8
0
  6
DASHDOT
 62
256
 10
346.694210000000000
 20
-145.876992000000000
 11
346.694210000000000
 21
-126.641892000000000
  0
LINE
  8
0
  6
CONTINUOUS
 62
256
 10
356.246567000000030
 20
-130.505588999999990
 11
339.641851999999970
 21
-130.795425999999990
  0
ARC
  8
0
  6
CONTINUOUS
 62
256
 10
356.194210000000000
 20
-127.506046000000000
 40
3.000000000000011
 50
270.999999999999600
 51
0.000000000000000
  0
ARC
  8
0
  6
CONTINUOUS
 62
256
 10
339.694210000000000
 20
-133.794969000000010
 40
3.000000000000011
 50
90.999999999999602
 51
180.000000000000000
  0
ARC
  8
0
  6
CONTINUOUS
 62
256
 10
430.194210000000000
 20
-129.384165000000000
 40
1.000000000000000
 50
180.000000000000000
 51
269.000000000001480
  0
ARC
  8
0
  6
CONTINUOUS
 62
256
 10
433.694210000000000
 20
-125.847149000000000
 40
3.000000000000000
 50
270.000000000000000
 51
0.000000000000000
  0
LINE
  8
0
  6
DASHDOT
 62
256
 10
446.694210000000000
 20
-147.215883999999990
 11
446.694210000000000
 21
-126.062887000000000
  0
LINE
  8
0
  6
CONTINUOUS
 62
256
 10
456.694210000000000
 20
-142.846877000000010
 11
456.694210000000000
 21
-133.794969000000010
  0
LINE
  8
0
  6
CONTINUOUS
 62
256
 10
453.746567000000030
 20
-130.795425999999990
 11
430.176757000000010
 21
-130.384013000000010
  0
ARC
  8
0
  6
CONTINUOUS
 62
256
 10
453.694210000000000
 20
-133.794969000000010
 40
3.000000000000000
 50
0.000000000000000
 51
89.000000000000412
  0
LINE
  8
0
  6
CONTINUOUS
 62
256
 10
336.694210000000000
 20
-73.231695999999999
 11
336.694210000000000
 21
-12.462058000000001
  0
ARC
  8
0
  6
CONTINUOUS
 62
256
 10
339.394209999999990
 20
-71.924025999999998
 40
3.000000000000014
 50
205.841932999999730
 51
260.000000000000340
  0
ARC
  8
0
  6
CONTINUOUS
 62
256
 10
339.394209999999990
 20
-13.769728000000001
 40
2.999999999999996
 50
99.999999999999659
 51
154.158067000000160
  0
POINT
  8
0
  6
CONTINUOUS
 62
256
 10
338.694210000000000
 20
-10.846876999999999
  0
LINE
  8
0
  6
CONTINUOUS
 62
256
 10
338.873265000000000
 20
-10.815305000000000
 11
352.062384000000010
 21
-8.489706999999999
  0
POINT
  8
0
  6
CONTINUOUS
 62
256
 10
359.194143000000000
 20
7.153123000000000
  0
ARC
  8
0
  6
CONTINUOUS
 62
256
 10
359.194143000000000
 20
4.153123000000000
 40
3.000000000000012
 50
119.999065000000390
 51
180.000000000000000
  0
ARC
  8
0
  6
CONTINUOUS
 62
256
 10
356.194228000000010
 20
9.349323999999999
 40
3.000000000000013
 50
299.999065000000370
 51
0.000000000000000
  0
ARC
  8
0
  6
CONTINUOUS
 62
256
 10
351.194143000000000
 20
-3.565668000000000
 40
4.999999999999997
 50
279.999999999999890
 51
359.999925000000020
  0
ARC
  8
0
  6
CONTINUOUS
 62
256
 10
453.694228000000010
 20
-13.716830000000000
 40
3.000000000000000
 50
0.000000000000000
 51
80.000000000000355
  0
LINE
  8
0
  6
CONTINUOUS
 62
256
 10
456.694228000000010
 20
-13.716830000000000
 11
456.694228000000010
 21
-71.976923999999997
  0
ARC
  8
0
  6
CONTINUOUS
 62
256
 10
453.694228000000010
 20
-71.976923999999997
 40
3.000000000000003
 50
279.999999999999660
 51
0.000000000000000
  0
LINE
  8
0
  6
CONTINUOUS
 62
256
 10
334.694190999999990
 20
-31.846876999999999
 11
294.694190999999990
 21
-31.846876999999999
  0
LINE
  8
0
  6
CONTINUOUS
 62
256
 10
294.694190999999990
 20
-31.846876999999999
 11
294.694190999999990
 21
-42.846876999999999
  0
ARC
  8
0
  6
CONTINUOUS
 62
256
 10
295.094191000000020
 20
-53.446877000000001
 40
0.399999999999977
 50
180.000000000000000
 51
270.000000000000000
  0
LINE
  8
0
  6
CONTINUOUS
 62
256
 10
334.694190999999990
 20
-53.846876999999999
 11
295.094191000000020
 21
-53.846876999999999
  0
LINE
  8
0
  6
CONTINUOUS
 62
256
 10
294.694190999999990
 20
-53.446877000000001
 11
294.694190999999990
 21
-42.846876999999999
  0
LINE
  8
0
  6
CONTINUOUS
 62
256
 10
334.694190999999990
 20
-54.846876999999999
 11
334.694190999999990
 21
-42.846876999999999
  0
LINE
  8
0
  6
CONTINUOUS
 62
256
 10
334.694190999999990
 20
-30.846876999999999
 11
334.694190999999990
 21
-42.846876999999999
  0
LINE
  8
0
  6
CONTINUOUS
 62
256
 10
326.694190999999990
 20
-31.846876999999999
 11
326.694190999999990
 21
-29.346876999999999
  0
LINE
  8
0
  6
CONTINUOUS
 62
256
 10
294.694190999999990
 20
-29.346876999999999
 11
294.694190999999990
 21
-31.846876999999999
  0
LINE
  8
0
  6
CONTINUOUS
 62
256
 10
294.694190999999990
 20
-29.346876999999999
 11
326.694172999999980
 21
-29.346876999999999
  0
LINE
  8
0
  6
CONTINUOUS
 62
256
 10
336.694190999999990
 20
-54.846876999999999
 11
334.694190999999990
 21
-54.846876999999999
  0
LINE
  8
0
  6
CONTINUOUS
 62
256
 10
336.694190999999990
 20
-30.846876999999999
 11
334.694190999999990
 21
-30.846876999999999
  0
LINE
  8
0
  6
DASHDOT
 62
256
 10
286.822696000000010
 20
-42.846876999999999
 11
464.119991000000030
 21
-42.846876999999999
  0
LINE
  8
0
  6
CONTINUOUS
 62
256
 10
52.637625999999997
 20
220.828939999999990
 11
52.637625999999997
 21
274.328939999999990
  0
LINE
  8
0
  6
CONTINUOUS
 62
256
 10
52.637625999999997
 20
220.828939999999990
 11
52.637625999999997
 21
167.328939999999990
  0
LINE
  8
0
  6
CONTINUOUS
 62
256
 10
136.637626000000010
 20
166.828939999999990
 11
192.142471000000000
 21
166.828939999999990
  0
LINE
  8
0
  6
CONTINUOUS
 62
256
 10
136.637626000000010
 20
166.828939999999990
 11
136.637626000000010
 21
179.828939999999990
  0
LINE
  8
0
  6
CONTINUOUS
 62
256
 10
136.637626000000010
 20
274.828939999999990
 11
136.637626000000010
 21
261.828939999999990
  0
LINE
  8
0
  6
CONTINUOUS
 62
256
 10
136.637626000000010
 20
274.828939999999990
 11
192.142471000000000
 21
274.828939999999990
  0
LINE
  8
0
  6
CONTINUOUS
 62
256
 10
147.637626000000010
 20
171.685019000000010
 11
149.637626000000010
 21
173.337661000000000
  0
LINE
  8
0
  6
CONTINUOUS
 62
256
 10
145.637626000000010
 20
170.509232999999990
 11
147.637626000000010
 21
171.685019000000010
  0
LINE
  8
0
  6
CONTINUOUS
 62
256
 10
147.637626000000010
 20
171.685019000000010
 11
145.637626000000010
 21
173.337661000000000
  0
LINE
  8
0
  6
CONTINUOUS
 62
256
 10
149.637626000000010
 20
170.509232999999990
 11
147.637626000000010
 21
171.685019000000010
  0
POLYLINE
  8
0
  6
CONTINUOUS
 62
256
 66
1
 70
1
  0
VERTEX
  8
0
  6
CONTINUOUS
 62
256
 10
152.337626000000000
 20
173.501609000000000
  0
VERTEX
  8
0
  6
CONTINUOUS
 62
256
 10
152.247316817895180
 20
174.204565510558180
  0
VERTEX
  8
0
  6
CONTINUOUS
 62
256
 10
151.979859802803050
 20
174.880507796638140
  0
VERTEX
  8
0
  6
CONTINUOUS
 62
256
 10
151.545533177821970
 20
175.503459775258680
  0
VERTEX
  8
0
  6
CONTINUOUS
 62
256
 10
150.961027871576790
 20
176.049481751236840
  0
VERTEX
  8
0
  6
CONTINUOUS
 62
256
 10
150.248806095192120
 20
176.497590406248490
  0
VERTEX
  8
0
  6
CONTINUOUS
 62
256
 10
149.436238132115930
 20
176.830565175983740
  0
VERTEX
  8
0
  6
CONTINUOUS
 62
256
 10
148.554550513475820
 20
177.035610026776080
  0
VERTEX
  8
0
  6
CONTINUOUS
 62
256
 10
147.637626000000010
 20
177.104845200000000
  0
VERTEX
  8
0
  6
CONTINUOUS
 62
256
 10
146.720701486524210
 20
177.035610026776080
  0
VERTEX
  8
0
  6
CONTINUOUS
 62
256
 10
145.839013867884090
 20
176.830565175983740
  0
VERTEX
  8
0
  6
CONTINUOUS
 62
256
 10
145.026445904807900
 20
176.497590406248490
  0
VERTEX
  8
0
  6
CONTINUOUS
 62
256
 10
144.314224128423230
 20
176.049481751236840
  0
VERTEX
  8
0
  6
CONTINUOUS
 62
256
 10
143.729718822178060
 20
175.503459775258680
  0
VERTEX
  8
0
  6
CONTINUOUS
 62
256
 10
143.295392197196970
 20
174.880507796638140
  0
VERTEX
  8
0
  6
CONTINUOUS
 62
256
 10
143.027935182104840
 20
174.204565510558180
  0
VERTEX
  8
0
  6
CONTINUOUS
 62
256
 10
142.937626000000020
 20
173.501609000000000
  0
VERTEX
  8
0
  6
CONTINUOUS
 62
256
 10
143.027935182104840
 20
172.798652489441820
  0
VERTEX
  8
0
  6
CONTINUOUS
 62
256
 10
143.295392197196970
 20
172.122710203361860
  0
VERTEX
  8
0
  6
CONTINUOUS
 62
256
 10
143.729718822178060
 20
171.499758224741330
  0
VERTEX
  8
0
  6
CONTINUOUS
 62
256
 10
144.314224128423230
 20
170.953736248763160
  0
VERTEX
  8
0
  6
CONTINUOUS
 62
256
 10
145.026445904807900
 20
170.505627593751510
  0
VERTEX
  8
0
  6
CONTINUOUS
 62
256
 10
145.839013867884090
 20
170.172652824016270
  0
VERTEX
  8
0
  6
CONTINUOUS
 62
256
 10
146.720701486524210
 20
169.967607973223950
  0
VERTEX
  8
0
  6
CONTINUOUS
 62
256
 10
147.637626000000010
 20
169.898372800000000
  0
VERTEX
  8
0
  6
CONTINUOUS
 62
256
 10
148.554550513475820
 20
169.967607973223950
  0
VERTEX
  8
0
  6
CONTINUOUS
 62
256
 10
149.436238132115930
 20
170.172652824016270
  0
VERTEX
  8
0
  6
CONTINUOUS
 62
256
 10
150.248806095192120
 20
170.505627593751510
  0
VERTEX
  8
0
  6
CONTINUOUS
 62
256
 10
150.961027871576760
 20
170.953736248763160
  0
VERTEX
  8
0
  6
CONTINUOUS
 62
256
 10
151.545533177821970
 20
171.499758224741330
  0
VERTEX
  8
0
  6
CONTINUOUS
 62
256
 10
151.979859802803050
 20
172.122710203361860
  0
VERTEX
  8
0
  6
CONTINUOUS
 62
256
 10
152.247316817895180
 20
172.798652489441820
  0
SEQEND
  8
0
  6
CONTINUOUS
 62
256
  0
LINE
  8
0
  6
CONTINUOUS
 62
256
 10
147.637626000000010
 20
269.972861000000020
 11
149.637626000000010
 21
268.320219000000010
  0
LINE
  8
0
  6
CONTINUOUS
 62
256
 10
145.637626000000010
 20
271.148645999999990
 11
147.637626000000010
 21
269.972861000000020
  0
LINE
  8
0
  6
CONTINUOUS
 62
256
 10
147.637626000000010
 20
269.972861000000020
 11
145.637626000000010
 21
268.320219000000010
  0
LINE
  8
0
  6
CONTINUOUS
 62
256
 10
149.637626000000010
 20
271.148645999999990
 11
147.637626000000010
 21
269.972861000000020
  0
POLYLINE
  8
0
  6
CONTINUOUS
 62
256
 66
1
 70
1
  0
VERTEX
  8
0
  6
CONTINUOUS
 62
256
 10
152.337626000000000
 20
268.156271000000000
  0
VERTEX
  8
0
  6
CONTINUOUS
 62
256
 10
152.247316817895180
 20
268.859227510558180
  0
VERTEX
  8
0
  6
CONTINUOUS
 62
256
 10
151.979859802803050
 20
269.535169796638120
  0
VERTEX
  8
0
  6
CONTINUOUS
 62
256
 10
151.545533177821970
 20
270.158121775258680
  0
VERTEX
  8
0
  6
CONTINUOUS
 62
256
 10
150.961027871576790
 20
270.704143751236810
  0
VERTEX
  8
0
  6
CONTINUOUS
 62
256
 10
150.248806095192120
 20
271.152252406248460
  0
VERTEX
  8
0
  6
CONTINUOUS
 62
256
 10
149.436238132115930
 20
271.485227175983710
  0
VERTEX
  8
0
  6
CONTINUOUS
 62
256
 10
148.554550513475820
 20
271.690272026776030
  0
VERTEX
  8
0
  6
CONTINUOUS
 62
256
 10
147.637626000000010
 20
271.759507199999970
  0
VERTEX
  8
0
  6
CONTINUOUS
 62
256
 10
146.720701486524210
 20
271.690272026776030
  0
VERTEX
  8
0
  6
CONTINUOUS
 62
256
 10
145.839013867884090
 20
271.485227175983710
  0
VERTEX
  8
0
  6
CONTINUOUS
 62
256
 10
145.026445904807900
 20
271.152252406248460
  0
VERTEX
  8
0
  6
CONTINUOUS
 62
256
 10
144.314224128423230
 20
270.704143751236810
  0
VERTEX
  8
0
  6
CONTINUOUS
 62
256
 10
143.729718822178060
 20
270.158121775258680
  0
VERTEX
  8
0
  6
CONTINUOUS
 62
256
 10
143.295392197196970
 20
269.535169796638120
  0
VERTEX
  8
0
  6
CONTINUOUS
 62
256
 10
143.027935182104840
 20
268.859227510558180
  0
VERTEX
  8
0
  6
CONTINUOUS
 62
256
 10
142.937626000000020
 20
268.156271000000000
  0
VERTEX
  8
0
  6
CONTINUOUS
 62
256
 10
143.027935182104840
 20
267.453314489441820
  0
VERTEX
  8
0
  6
CONTINUOUS
 62
256
 10
143.295392197196970
 20
266.777372203361890
  0
VERTEX
  8
0
  6
CONTINUOUS
 62
256
 10
143.729718822178060
 20
266.154420224741330
  0
VERTEX
  8
0
  6
CONTINUOUS
 62
256
 10
144.314224128423230
 20
265.608398248763190
  0
VERTEX
  8
0
  6
CONTINUOUS
 62
256
 10
145.026445904807900
 20
265.160289593751540
  0
VERTEX
  8
0
  6
CONTINUOUS
 62
256
 10
145.839013867884090
 20
264.827314824016300
  0
VERTEX
  8
0
  6
CONTINUOUS
 62
256
 10
146.720701486524210
 20
264.622269973223980
  0
VERTEX
  8
0
  6
CONTINUOUS
 62
256
 10
147.637626000000010
 20
264.553034800000030
  0
VERTEX
  8
0
  6
CONTINUOUS
 62
256
 10
148.554550513475820
 20
264.622269973223980
  0
VERTEX
  8
0
  6
CONTINUOUS
 62
256
 10
149.436238132115930
 20
264.827314824016300
  0
VERTEX
  8
0
  6
CONTINUOUS
 62
256
 10
150.248806095192120
 20
265.160289593751540
  0
VERTEX
  8
0
  6
CONTINUOUS
 62
256
 10
150.961027871576760
 20
265.608398248763190
  0
VERTEX
  8
0
  6
CONTINUOUS
 62
256
 10
151.545533177821970
 20
266.154420224741330
  0
VERTEX
  8
0
  6
CONTINUOUS
 62
256
 10
151.979859802803050
 20
266.777372203361890
  0
VERTEX
  8
0
  6
CONTINUOUS
 62
256
 10
152.247316817895180
 20
267.453314489441820
  0
SEQEND
  8
0
  6
CONTINUOUS
 62
256
  0
LINE
  8
0
  6
DASHDOT
 62
256
 10
-102.566702000000010
 20
220.828939999999990
 11
226.895276999999990
 21
220.828939999999990
  0
LINE
  8
0
  6
CONTINUOUS
 62
256
 10
146.637626000000010
 20
220.828939999999990
 11
146.637626000000010
 21
255.828939999999990
  0
LINE
  8
0
  6
CONTINUOUS
 62
256
 10
52.637625999999997
 20
273.328939999999990
 11
136.637626000000010
 21
273.328939999999990
  0
LINE
  8
0
  6
CONTINUOUS
 62
256
 10
136.637626000000010
 20
271.328939999999990
 11
52.637625999999997
 21
271.328939999999990
  0
LINE
  8
0
  6
CONTINUOUS
 62
256
 10
136.637626000000010
 20
271.828939999999990
 11
52.637625999999997
 21
271.828939999999990
  0
LINE
  8
0
  6
CONTINUOUS
 62
256
 10
136.637626000000010
 20
266.962022999999990
 11
52.637625999999997
 21
266.962022999999990
  0
LINE
  8
0
  6
CONTINUOUS
 62
256
 10
136.637626000000010
 20
265.333596000000000
 11
52.637625999999997
 21
265.333596000000000
  0
LINE
  8
0
  6
CONTINUOUS
 62
256
 10
136.637626000000010
 20
261.870854000000010
 11
52.637625999999997
 21
261.870854000000010
  0
LINE
  8
0
  6
CONTINUOUS
 62
256
 10
136.795227000000010
 20
260.869374999999990
 11
52.637625999999997
 21
260.869374999999990
  0
LINE
  8
0
  6
CONTINUOUS
 62
256
 10
146.637626000000010
 20
254.132541000000000
 11
144.437625999999990
 21
254.132541000000000
  0
LINE
  8
0
  6
CONTINUOUS
 62
256
 10
146.637626000000010
 20
252.543330999999990
 11
144.437625999999990
 21
252.543330999999990
  0
LINE
  8
0
  6
CONTINUOUS
 62
256
 10
146.637626000000010
 20
249.585336000000010
 11
144.437625999999990
 21
249.585336000000010
  0
LINE
  8
0
  6
CONTINUOUS
 62
256
 10
146.637626000000010
 20
248.106312000000000
 11
144.437625999999990
 21
248.106312000000000
  0
LINE
  8
0
  6
CONTINUOUS
 62
256
 10
146.637626000000010
 20
245.013580999999990
 11
144.437625999999990
 21
245.013580999999990
  0
LINE
  8
0
  6
CONTINUOUS
 62
256
 10
146.637626000000010
 20
243.667180000000000
 11
144.437625999999990
 21
243.667180000000000
  0
LINE
  8
0
  6
CONTINUOUS
 62
256
 10
146.637626000000010
 20
240.828939999999990
 11
144.437625999999990
 21
240.828939999999990
  0
LINE
  8
0
  6
CONTINUOUS
 62
256
 10
54.437626000000002
 20
249.585336000000010
 11
52.637625999999997
 21
249.585336000000010
  0
LINE
  8
0
  6
CONTINUOUS
 62
256
 10
54.437626000000002
 20
248.106312000000000
 11
52.637625999999997
 21
248.106312000000000
  0
LINE
  8
0
  6
CONTINUOUS
 62
256
 10
54.437626000000002
 20
245.013580999999990
 11
52.637625999999997
 21
245.013580999999990
  0
LINE
  8
0
  6
CONTINUOUS
 62
256
 10
54.437626000000002
 20
243.667180000000000
 11
52.637625999999997
 21
243.667180000000000
  0
LINE
  8
0
  6
CONTINUOUS
 62
256
 10
54.437626000000002
 20
240.828939999999990
 11
52.637625999999997
 21
240.828939999999990
  0
LINE
  8
0
  6
CONTINUOUS
 62
256
 10
54.437626000000002
 20
252.543330999999990
 11
52.637625999999997
 21
252.543330999999990
  0
LINE
  8
0
  6
CONTINUOUS
 62
256
 10
54.437626000000002
 20
254.132541000000000
 11
52.637625999999997
 21
254.132541000000000
  0
ARC
  8
0
  6
CONTINUOUS
 62
256
 10
55.437626000000002
 20
255.828939999999990
 40
1.000000000000000
 50
90.000000000000000
 51
180.000000000000000
  0
LINE
  8
0
  6
CONTINUOUS
 62
256
 10
55.437626000000002
 20
256.828939999999990
 11
143.437625999999990
 21
256.828939999999990
  0
LINE
  8
0
  6
CONTINUOUS
 62
256
 10
54.437626000000002
 20
255.828939999999990
 11
54.437626000000002
 21
220.828939999999990
  0
ARC
  8
0
  6
CONTINUOUS
 62
256
 10
143.437625999999990
 20
255.828939999999990
 40
1.000000000000000
 50
0.000000000000000
 51
90.000000000000000
  0
LINE
  8
0
  6
CONTINUOUS
 62
256
 10
144.437625999999990
 20
255.828939999999990
 11
144.437625999999990
 21
220.828939999999990
  0
ARC
  8
0
  6
CONTINUOUS
 62
256
 10
139.637626000000010
 20
261.828939999999990
 40
3.000000000000000
 50
180.000000000000000
 51
270.000000000000000
  0
LINE
  8
0
  6
CONTINUOUS
 62
256
 10
139.637626000000010
 20
258.828939999999990
 11
143.637626000000010
 21
258.828939999999990
  0
ARC
  8
0
  6
CONTINUOUS
 62
256
 10
143.637626000000010
 20
255.828939999999990
 40
3.000000000000000
 50
0.000000000000000
 51
90.000000000000000
  0
LINE
  8
0
  6
CONTINUOUS
 62
256
 10
203.958146000000000
 20
271.103472000000010
 11
211.528924999999990
 21
265.802354999999980
  0
LINE
  8
0
  6
CONTINUOUS
 62
256
 10
212.637626000000010
 20
263.672559999999980
 11
212.637626000000010
 21
220.828939999999990
  0
ARC
  8
0
  6
CONTINUOUS
 62
256
 10
210.037625999999990
 20
263.672559999999980
 40
2.599999999999994
 50
0.000000000000000
 51
55.000000000000156
  0
ARC
  8
0
  6
CONTINUOUS
 62
256
 10
192.142471000000000
 20
254.228939999999990
 40
20.600000000000012
 50
55.000000000000050
 51
90.000000000000000
  0
LINE
  8
0
  6
CONTINUOUS
 62
256
 10
146.637626000000010
 20
220.828939999999990
 11
146.637626000000010
 21
185.828939999999990
  0
LINE
  8
0
  6
CONTINUOUS
 62
256
 10
52.637625999999997
 20
168.328939999999990
 11
136.637626000000010
 21
168.328939999999990
  0
LINE
  8
0
  6
CONTINUOUS
 62
256
 10
136.637626000000010
 20
170.328939999999990
 11
52.637625999999997
 21
170.328939999999990
  0
LINE
  8
0
  6
CONTINUOUS
 62
256
 10
136.637626000000010
 20
169.828939999999990
 11
52.637625999999997
 21
169.828939999999990
  0
LINE
  8
0
  6
CONTINUOUS
 62
256
 10
136.637626000000010
 20
174.695856999999990
 11
52.637625999999997
 21
174.695856999999990
  0
LINE
  8
0
  6
CONTINUOUS
 62
256
 10
136.637626000000010
 20
176.324284000000010
 11
52.637625999999997
 21
176.324284000000010
  0
LINE
  8
0
  6
CONTINUOUS
 62
256
 10
136.637626000000010
 20
179.787026000000000
 11
52.637625999999997
 21
179.787026000000000
  0
LINE
  8
0
  6
CONTINUOUS
 62
256
 10
136.795227000000010
 20
180.788504999999990
 11
52.637625999999997
 21
180.788504999999990
  0
LINE
  8
0
  6
CONTINUOUS
 62
256
 10
146.637626000000010
 20
187.525339000000000
 11
144.437625999999990
 21
187.525339000000000
  0
LINE
  8
0
  6
CONTINUOUS
 62
256
 10
146.637626000000010
 20
189.114549000000010
 11
144.437625999999990
 21
189.114549000000010
  0
LINE
  8
0
  6
CONTINUOUS
 62
256
 10
146.637626000000010
 20
192.072543999999990
 11
144.437625999999990
 21
192.072543999999990
  0
LINE
  8
0
  6
CONTINUOUS
 62
256
 10
146.637626000000010
 20
193.551568000000000
 11
144.437625999999990
 21
193.551568000000000
  0
LINE
  8
0
  6
CONTINUOUS
 62
256
 10
146.637626000000010
 20
196.644298999999990
 11
144.437625999999990
 21
196.644298999999990
  0
LINE
  8
0
  6
CONTINUOUS
 62
256
 10
146.637626000000010
 20
197.990700000000000
 11
144.437625999999990
 21
197.990700000000000
  0
LINE
  8
0
  6
CONTINUOUS
 62
256
 10
146.637626000000010
 20
200.828939999999990
 11
144.437625999999990
 21
200.828939999999990
  0
LINE
  8
0
  6
CONTINUOUS
 62
256
 10
54.437626000000002
 20
192.072543999999990
 11
52.637625999999997
 21
192.072543999999990
  0
LINE
  8
0
  6
CONTINUOUS
 62
256
 10
54.437626000000002
 20
193.551568000000000
 11
52.637625999999997
 21
193.551568000000000
  0
LINE
  8
0
  6
CONTINUOUS
 62
256
 10
54.437626000000002
 20
196.644298999999990
 11
52.637625999999997
 21
196.644298999999990
  0
LINE
  8
0
  6
CONTINUOUS
 62
256
 10
54.437626000000002
 20
197.990700000000000
 11
52.637625999999997
 21
197.990700000000000
  0
LINE
  8
0
  6
CONTINUOUS
 62
256
 10
54.437626000000002
 20
200.828939999999990
 11
52.637625999999997
 21
200.828939999999990
  0
LINE
  8
0
  6
CONTINUOUS
 62
256
 10
54.437626000000002
 20
189.114549000000010
 11
52.637625999999997
 21
189.114549000000010
  0
LINE
  8
0
  6
CONTINUOUS
 62
256
 10
54.437626000000002
 20
187.525339000000000
 11
52.637625999999997
 21
187.525339000000000
  0
ARC
  8
0
  6
CONTINUOUS
 62
256
 10
55.437626000000002
 20
185.828939999999990
 40
1.000000000000000
 50
180.000000000000000
 51
270.000000000000000
  0
LINE
  8
0
  6
CONTINUOUS
 62
256
 10
55.437626000000002
 20
184.828939999999990
 11
143.437625999999990
 21
184.828939999999990
  0
LINE
  8
0
  6
CONTINUOUS
 62
256
 10
54.437626000000002
 20
185.828939999999990
 11
54.437626000000002
 21
220.828939999999990
  0
ARC
  8
0
  6
CONTINUOUS
 62
256
 10
143.437625999999990
 20
185.828939999999990
 40
1.000000000000000
 50
270.000000000000000
 51
0.000000000000000
  0
LINE
  8
0
  6
CONTINUOUS
 62
256
 10
144.437625999999990
 20
185.828939999999990
 11
144.437625999999990
 21
220.828939999999990
  0
ARC
  8
0
  6
CONTINUOUS
 62
256
 10
139.637626000000010
 20
179.828939999999990
 40
3.000000000000000
 50
90.000000000000000
 51
180.000000000000000
  0
LINE
  8
0
  6
CONTINUOUS
 62
256
 10
139.637626000000010
 20
182.828939999999990
 11
143.637626000000010
 21
182.828939999999990
  0
ARC
  8
0
  6
CONTINUOUS
 62
256
 10
143.637626000000010
 20
185.828939999999990
 40
3.000000000000000
 50
270.000000000000000
 51
0.000000000000000
  0
LINE
  8
0
  6
CONTINUOUS
 62
256
 10
203.958146000000000
 20
170.554408000000000
 11
211.528924999999990
 21
175.855525000000000
  0
LINE
  8
0
  6
CONTINUOUS
 62
256
 10
212.637626000000010
 20
177.985320000000000
 11
212.637626000000010
 21
220.828939999999990
  0
ARC
  8
0
  6
CONTINUOUS
 62
256
 10
210.037625999999990
 20
177.985320000000000
 40
2.599999999999996
 50
305.000000000000230
 51
0.000000000000000
  0
ARC
  8
0
  6
CONTINUOUS
 62
256
 10
192.142471000000000
 20
187.428940000000010
 40
20.599999999999994
 50
270.000000000000000
 51
305.000000000000000
  0
LINE
  8
0
  6
CONTINUOUS
 62
256
 10
-31.362065000000001
 20
118.828922000000010
 11
-31.362065000000001
 21
150.828922000000010
  0
LINE
  8
0
  6
CONTINUOUS
 62
256
 10
-37.362065000000001
 20
118.828922000000010
 11
-37.362065000000001
 21
150.828922000000010
  0
LINE
  8
0
  6
CONTINUOUS
 62
256
 10
-22.362065000000001
 20
160.828922000000010
 11
-22.362065000000001
 21
158.828922000000010
  0
LINE
  8
0
  6
CONTINUOUS
 62
256
 10
-46.362065000000001
 20
160.828922000000010
 11
-46.362065000000001
 21
158.828922000000010
  0
LINE
  8
0
  6
CONTINUOUS
 62
256
 10
-37.362065000000001
 20
150.828922000000010
 11
-31.362065000000001
 21
150.828922000000010
  0
LINE
  8
0
  6
CONTINUOUS
 62
256
 10
-22.362065000000001
 20
158.828922000000010
 11
-34.362065000000001
 21
158.828922000000010
  0
LINE
  8
0
  6
CONTINUOUS
 62
256
 10
-46.362065000000001
 20
158.828922000000010
 11
-34.362065000000001
 21
158.828922000000010
  0
LINE
  8
0
  6
CONTINUOUS
 62
256
 10
-44.962065000000003
 20
118.828922000000010
 11
-34.362065000000001
 21
118.828922000000010
  0
LINE
  8
0
  6
CONTINUOUS
 62
256
 10
-45.362065000000001
 20
158.828922000000010
 11
-45.362065000000001
 21
119.228922000000000
  0
ARC
  8
0
  6
CONTINUOUS
 62
256
 10
-44.962065000000003
 20
119.228922000000000
 40
0.399999999999999
 50
180.000000000000000
 51
270.000000000000000
  0
LINE
  8
0
  6
CONTINUOUS
 62
256
 10
-23.362065000000001
 20
118.828922000000010
 11
-34.362065000000001
 21
118.828922000000010
  0
LINE
  8
0
  6
CONTINUOUS
 62
256
 10
-23.362065000000001
 20
158.828922000000010
 11
-23.362065000000001
 21
118.828922000000010
  0
ARC
  8
0
  6
CONTINUOUS
 62
256
 10
-34.362065000000001
 20
150.828922000000010
 40
3.000000000000000
 50
0.000000000000000
 51
180.000000000000000
  0
ARC
  8
0
  6
CONTINUOUS
 62
256
 10
24.550474999999999
 20
258.328939999999990
 40
3.000000000000000
 50
0.999999999999604
 51
90.000000000000000
  0
ARC
  8
0
  6
CONTINUOUS
 62
256
 10
25.192526000000001
 20
278.828958000000000
 40
2.000000000000001
 50
1.000000000000146
 51
90.000000000000000
  0
LINE
  8
0
  6
CONTINUOUS
 62
256
 10
-86.558267000000001
 20
183.328958000000000
 11
-88.192119000000005
 21
183.328939999999990
  0
LINE
  8
0
  6
CONTINUOUS
 62
256
 10
23.467988999999999
 20
183.328939999999990
 11
17.834136000000001
 21
183.328958000000000
  0
CIRCLE
  8
0
  6
CONTINUOUS
 62
256
 10
-79.362065000000001
 20
270.828939999999990
 40
4.500000000000000
  0
LINE
  8
0
  6
CONTINUOUS
 62
256
 10
27.638207000000001
 20
253.328939999999990
 11
24.137934999999999
 21
253.328939999999990
  0
LINE
  8
0
  6
CONTINUOUS
 62
256
 10
27.638207000000001
 20
253.328939999999990
 11
27.550018000000001
 21
258.381297000000020
  0
ARC
  8
0
  6
CONTINUOUS
 62
256
 10
-5.232018000000000
 20
277.828958000000000
 40
2.999999999999997
 50
9.999999999999650
 51
90.000000000000000
  0
LINE
  8
0
  6
CONTINUOUS
 62
256
 10
-2.365758000000000
 20
278.849902999999980
 11
-0.004881000000000
 21
265.460698999999980
  0
ARC
  8
0
  6
CONTINUOUS
 62
256
 10
4.919158000000000
 20
266.328939999999990
 40
4.999999999999997
 50
189.999999999999860
 51
270.000000000000000
  0
POINT
  8
0
  6
CONTINUOUS
 62
256
 10
0.723660000000000
 20
261.328939999999990
  0
ARC
  8
0
  6
CONTINUOUS
 62
256
 10
-63.492111999999999
 20
277.828958000000000
 40
3.000000000000000
 50
90.000000000000000
 51
170.000000000000340
  0
LINE
  8
0
  6
CONTINUOUS
 62
256
 10
-66.446535999999995
 20
278.349902999999980
 11
-68.807413999999994
 21
264.960698999999980
  0
ARC
  8
0
  6
CONTINUOUS
 62
256
 10
-73.731452000000004
 20
265.828939999999990
 40
5.000000000000000
 50
270.000000000000000
 51
350.000000000000110
  0
ARC
  8
0
  6
CONTINUOUS
 62
256
 10
-73.643274000000005
 20
175.328872999999990
 40
4.999999999999999
 50
9.999999999999863
 51
90.000000000000000
  0
ARC
  8
0
  6
CONTINUOUS
 62
256
 10
-63.439214000000000
 20
163.528940000000010
 40
3.000000000000001
 50
190.000000000000200
 51
244.158066999999900
  0
LINE
  8
0
  6
CONTINUOUS
 62
256
 10
-66.393637999999996
 20
163.007994999999990
 11
-68.719234999999998
 21
176.197114000000000
  0
POINT
  8
0
  6
CONTINUOUS
 62
256
 10
-66.362065000000001
 20
162.828939999999990
  0
ARC
  8
0
  6
CONTINUOUS
 62
256
 10
-86.558267000000001
 20
180.328958000000000
 40
2.999999999999995
 50
29.999064999999959
 51
90.000000000000000
  0
ARC
  8
0
  6
CONTINUOUS
 62
256
 10
-81.362065000000001
 20
183.328872999999990
 40
2.999999999999995
 50
209.999064999999940
 51
270.000000000000000
  0
LINE
  8
0
  6
CONTINUOUS
 62
256
 10
-73.643274000000005
 20
180.328872999999990
 11
-81.362065000000001
 21
180.328872999999990
  0
ARC
  8
0
  6
CONTINUOUS
 62
256
 10
4.919143000000000
 20
175.328872999999990
 40
4.999999999999992
 50
90.000000000000000
 51
170.000000000000140
  0
ARC
  8
0
  6
CONTINUOUS
 62
256
 10
17.834136000000001
 20
180.328958000000000
 40
3.000000000000000
 50
90.000000000000000
 51
150.000935000000080
  0
ARC
  8
0
  6
CONTINUOUS
 62
256
 10
12.637935000000001
 20
183.328872999999990
 40
3.000000000000000
 50
270.000000000000000
 51
330.000935000000080
  0
POINT
  8
0
  6
CONTINUOUS
 62
256
 10
15.637935000000001
 20
183.328872999999990
  0
LINE
  8
0
  6
CONTINUOUS
 62
256
 10
-2.330493000000000
 20
163.007994999999990
 11
-0.004895000000000
 21
176.197114000000000
  0
POINT
  8
0
  6
CONTINUOUS
 62
256
 10
-2.362065000000000
 20
162.828939999999990
  0
ARC
  8
0
  6
CONTINUOUS
 62
256
 10
-5.284916000000000
 20
163.528940000000010
 40
2.999999999999991
 50
295.841933000000100
 51
349.999999999999830
  0
LINE
  8
0
  6
CONTINUOUS
 62
256
 10
-73.643274000000005
 20
180.328872999999990
 11
12.637935000000001
 21
180.328872999999990
  0
LINE
  8
0
  6
CONTINUOUS
 62
256
 10
-71.552002999999999
 20
261.328939999999990
 11
24.550474999999999
 21
261.328939999999990
  0
LINE
  8
0
  6
CONTINUOUS
 62
256
 10
-73.731452000000004
 20
260.828939999999990
 11
-89.283061000000004
 21
260.828939999999990
  0
ARC
  8
0
  6
CONTINUOUS
 62
256
 10
-89.916656000000003
 20
278.828958000000000
 40
2.000000000000000
 50
90.000000000000000
 51
178.999999999999860
  0
LINE
  8
0
  6
CONTINUOUS
 62
256
 10
-92.362065000000001
 20
253.328939999999990
 11
27.637934999999999
 21
253.328939999999990
  0
LINE
  8
0
  6
CONTINUOUS
 62
256
 10
25.192526000000001
 20
280.828958000000000
 11
-89.916656000000003
 21
280.828958000000000
  0
LINE
  8
0
  6
DASHDOT
 62
256
 10
-79.362065000000001
 20
182.457147999999990
 11
-79.362065000000001
 21
159.467158000000010
  0
LINE
  8
0
  6
DASHDOT
 62
256
 10
-67.340070999999995
 20
170.828939999999990
 11
-89.751552000000004
 21
170.828939999999990
  0
CIRCLE
  8
0
  6
CONTINUOUS
 62
256
 10
-79.362065000000001
 20
170.828939999999990
 40
4.500000000000000
  0
CIRCLE
  8
0
  6
DASHDOT
 62
256
 10
-79.362065000000001
 20
170.828939999999990
 40
9.000000000000000
  0
LINE
  8
0
  6
DASHDOT
 62
256
 10
13.637935000000001
 20
181.934649000000010
 11
13.637935000000001
 21
158.944658000000000
  0
LINE
  8
0
  6
DASHDOT
 62
256
 10
24.852927999999999
 20
170.828939999999990
 11
2.849067000000000
 21
170.828939999999990
  0
CIRCLE
  8
0
  6
CONTINUOUS
 62
256
 10
13.637935000000001
 20
170.828939999999990
 40
4.499999999999998
  0
CIRCLE
  8
0
  6
DASHDOT
 62
256
 10
13.637935000000001
 20
170.828939999999990
 40
8.999999999999998
  0
LINE
  8
0
  6
DASHDOT
 62
256
 10
-79.362065000000001
 20
280.474775000000020
 11
-79.362065000000001
 21
259.612951000000010
  0
LINE
  8
0
  6
DASHDOT
 62
256
 10
-65.575906000000003
 20
270.828939999999990
 11
-90.504228999999995
 21
270.828939999999990
  0
CIRCLE
  8
0
  6
DASHDOT
 62
256
 10
-79.362065000000001
 20
270.828939999999990
 40
9.000000000000000
  0
LINE
  8
0
  6
DASHDOT
 62
256
 10
13.637935000000001
 20
280.474775000000020
 11
13.637935000000001
 21
259.787117000000020
  0
LINE
  8
0
  6
DASHDOT
 62
256
 10
23.923224999999999
 20
270.828939999999990
 11
1.804068000000000
 21
270.828939999999990
  0
CIRCLE
  8
0
  6
CONTINUOUS
 62
256
 10
13.637935000000001
 20
270.828939999999990
 40
4.499999999999998
  0
CIRCLE
  8
0
  6
DASHDOT
 62
256
 10
13.637935000000001
 20
270.828939999999990
 40
8.999999999999998
  0
ARC
  8
0
  6
CONTINUOUS
 62
256
 10
23.467988999999999
 20
186.328939999999990
 40
3.000000000000000
 50
270.000000000000000
 51
358.999999999999830
  0
ARC
  8
0
  6
CONTINUOUS
 62
256
 10
-88.192119000000005
 20
186.328939999999990
 40
2.999999999999997
 50
181.000000000000140
 51
270.000000000000000
  0
LINE
  8
0
  6
CONTINUOUS
 62
256
 10
-91.916352000000003
 20
278.863862999999980
 11
-92.362065000000001
 21
253.328939999999990
  0
LINE
  8
0
  6
CONTINUOUS
 62
256
 10
27.192221000000000
 20
278.863862999999980
 11
27.637934999999999
 21
253.328939999999990
  0
LINE
  8
0
  6
CONTINUOUS
 62
256
 10
-92.370793000000006
 20
253.828922000000010
 11
-90.781773000000001
 21
162.794035000000010
  0
ARC
  8
0
  6
CONTINUOUS
 62
256
 10
-88.782077999999998
 20
162.828939999999990
 40
1.999999999999998
 50
181.000000000000140
 51
270.000000000000000
  0
LINE
  8
0
  6
CONTINUOUS
 62
256
 10
-88.782077999999998
 20
160.828939999999990
 11
24.057946999999999
 21
160.828939999999990
  0
LINE
  8
0
  6
CONTINUOUS
 62
256
 10
27.637934999999999
 20
253.328939999999990
 11
26.057642000000001
 21
162.794035000000010
  0
ARC
  8
0
  6
CONTINUOUS
 62
256
 10
24.057946999999999
 20
162.828939999999990
 40
2.000000000000000
 50
270.000000000000000
 51
358.999999999999830
  0
ARC
  8
0
  6
CONTINUOUS
 62
256
 10
-89.283061000000004
 20
257.828939999999990
 40
3.000000000000000
 50
90.000000000000000
 51
179.000000000000400
  0
ARC
  8
0
  6
CONTINUOUS
 62
256
 10
37.637625999999997
 20
271.590308999999990
 40
2.999999999999983
 50
88.999999999999986
 51
180.000000000000000
  0
LINE
  8
0
  6
CONTINUOUS
 62
256
 10
47.637625999999997
 20
268.328939999999990
 11
47.637625999999997
 21
271.363392999999970
  0
LINE
  8
0
  6
CONTINUOUS
 62
256
 10
44.637625999999997
 20
265.328939999999990
 11
39.637625999999997
 21
265.328939999999990
  0
LINE
  8
0
  6
CONTINUOUS
 62
256
 10
45.637625999999997
 20
262.258592000000020
 11
39.637625999999997
 21
262.258592000000020
  0
LINE
  8
0
  6
CONTINUOUS
 62
256
 10
34.637625999999997
 20
257.721106000000020
 11
34.637625999999997
 21
260.328939999999990
  0
LINE
  8
0
  6
CONTINUOUS
 62
256
 10
37.637625999999997
 20
254.721105999999990
 11
44.637625999999997
 21
254.721105999999990
  0
LINE
  8
0
  6
CONTINUOUS
 62
256
 10
47.637625999999997
 20
240.828939999999990
 11
51.339308000000003
 21
240.828939999999990
  0
LINE
  8
0
  6
CONTINUOUS
 62
256
 10
47.637625999999997
 20
220.828939999999990
 11
47.637625999999997
 21
260.258592000000020
  0
ARC
  8
0
  6
CONTINUOUS
 62
256
 10
44.637625999999997
 20
251.721105999999990
 40
3.000000000000000
 50
0.000000000000000
 51
90.000000000000000
  0
ARC
  8
0
  6
CONTINUOUS
 62
256
 10
44.637625999999997
 20
268.328939999999990
 40
3.000000000000000
 50
270.000000000000000
 51
0.000000000000000
  0
ARC
  8
0
  6
CONTINUOUS
 62
256
 10
45.637625999999997
 20
260.258592000000020
 40
2.000000000000000
 50
0.000000000000000
 51
90.000000000000000
  0
ARC
  8
0
  6
CONTINUOUS
 62
256
 10
39.637625999999997
 20
257.258592000000020
 40
5.000000000000000
 50
90.000000000000000
 51
180.000000000000000
  0
ARC
  8
0
  6
CONTINUOUS
 62
256
 10
39.637625999999997
 20
260.328939999999990
 40
5.000000000000000
 50
90.000000000000000
 51
180.000000000000000
  0
LINE
  8
0
  6
CONTINUOUS
 62
256
 10
34.637625999999997
 20
271.590308999999990
 11
34.637625999999997
 21
220.828939999999990
  0
ARC
  8
0
  6
CONTINUOUS
 62
256
 10
37.637625999999997
 20
251.721105999999990
 40
3.000000000000000
 50
90.000000000000000
 51
180.000000000000000
  0
LINE
  8
0
  6
CONTINUOUS
 62
256
 10
47.637625999999997
 20
200.828939999999990
 11
51.774099000000000
 21
200.828939999999990
  0
LINE
  8
0
  6
CONTINUOUS
 62
256
 10
47.637625999999997
 20
220.828939999999990
 11
47.637625999999997
 21
181.399288000000010
  0
ARC
  8
0
  6
CONTINUOUS
 62
256
 10
50.637625999999997
 20
170.294487000000000
 40
3.000000000000000
 50
180.000000000000000
 51
271.000000000000000
  0
ARC
  8
0
  6
CONTINUOUS
 62
256
 10
37.637625999999997
 20
170.067570999999990
 40
3.000000000000000
 50
180.000000000000000
 51
271.000000000000000
  0
LINE
  8
0
  6
CONTINUOUS
 62
256
 10
47.637625999999997
 20
173.328939999999990
 11
47.637625999999997
 21
170.294487000000000
  0
LINE
  8
0
  6
CONTINUOUS
 62
256
 10
34.637625999999997
 20
183.936774000000010
 11
34.637625999999997
 21
181.328939999999990
  0
LINE
  8
0
  6
CONTINUOUS
 62
256
 10
37.637625999999997
 20
186.936774000000010
 11
44.637625999999997
 21
186.936774000000010
  0
LINE
  8
0
  6
CONTINUOUS
 62
256
 10
44.637625999999997
 20
176.328939999999990
 11
39.637625999999997
 21
176.328939999999990
  0
LINE
  8
0
  6
CONTINUOUS
 62
256
 10
45.637625999999997
 20
179.399288000000010
 11
39.637625999999997
 21
179.399288000000010
  0
ARC
  8
0
  6
CONTINUOUS
 62
256
 10
44.637625999999997
 20
189.936774000000010
 40
3.000000000000000
 50
270.000000000000000
 51
0.000000000000000
  0
ARC
  8
0
  6
CONTINUOUS
 62
256
 10
39.637625999999997
 20
184.399288000000010
 40
5.000000000000000
 50
180.000000000000000
 51
270.000000000000000
  0
ARC
  8
0
  6
CONTINUOUS
 62
256
 10
39.637625999999997
 20
181.328939999999990
 40
5.000000000000000
 50
180.000000000000000
 51
270.000000000000000
  0
ARC
  8
0
  6
CONTINUOUS
 62
256
 10
44.637625999999997
 20
173.328939999999990
 40
3.000000000000000
 50
0.000000000000000
 51
90.000000000000000
  0
ARC
  8
0
  6
CONTINUOUS
 62
256
 10
45.637625999999997
 20
181.399288000000010
 40
2.000000000000000
 50
270.000000000000000
 51
0.000000000000000
  0
LINE
  8
0
  6
CONTINUOUS
 62
256
 10
34.637625999999997
 20
170.067570999999990
 11
34.637625999999997
 21
220.828939999999990
  0
ARC
  8
0
  6
CONTINUOUS
 62
256
 10
37.637625999999997
 20
189.936774000000010
 40
3.000000000000000
 50
180.000000000000000
 51
270.000000000000000
  0
LINE
  8
0
  6
CONTINUOUS
 62
256
 10
37.689982999999998
 20
167.068028000000000
 11
52.637625999999997
 21
167.328939999999990
  0
LINE
  8
0
  6
CONTINUOUS
 62
256
 10
37.689982999999998
 20
274.589852000000010
 11
52.637625999999997
 21
274.328939999999990
  0
ARC
  8
0
  6
CONTINUOUS
 62
256
 10
30.138255999999998
 20
253.328922000000010
 40
2.000000000000001
 50
178.999999999999860
 51
270.000000000000000
  0
ARC
  8
0
  6
CONTINUOUS
 62
256
 10
31.637670999999997
 20
254.328922000000010
 40
3.000000000000000
 50
270.000000000000000
 51
0.000000000000000
  0
LINE
  8
0
  6
CONTINUOUS
 62
256
 10
30.138255999999998
 20
251.328922000000010
 11
31.637670999999997
 21
251.328922000000010
  0
ARC
  8
0
  6
CONTINUOUS
 62
256
 10
32.637670999999997
 20
181.328958000000000
 40
2.000000000000000
 50
0.000000000000000
 51
90.000000000000000
  0
LINE
  8
0
  6
CONTINUOUS
 62
256
 10
26.416080999999998
 20
183.328958000000000
 11
32.637670999999997
 21
183.328958000000000
  0
LINE
  8
0
  6
DASHDOT
 62
256
 10
-34.362065000000001
 20
288.206317000000010
 11
-34.362065000000001
 21
115.319356000000000
  0
LINE
  8
0
  6
CONTINUOUS
 62
256
 10
52.637625999999997
 20
220.828939999999990
 11
52.637625999999997
 21
273.328939999999990
  0
LINE
  8
0
  6
CONTINUOUS
 62
256
 10
52.637625999999997
 20
220.828939999999990
 11
52.637625999999997
 21
168.328939999999990
  0
TEXT
  8
0
  6
CONTINUOUS
 62
256
 10
528.689758300781250
 20
-164.075256347656250
 40
3.299999952316284
  1
1/1
 50
0.000002504478167
 41
0.850909097352304
  7
STANDARD1
  0
TEXT
  8
0
  6
CONTINUOUS
 62
256
 10
526.271728515625000
 20
-164.075256347656250
 40
3.299999952316284
  1
 
 50
0.000002504478167
 41
1.733333298293026
  7
STANDARD1
  0
TEXT
  8
0
  6
CONTINUOUS
 62
256
 10
513.221130371093750
 20
-164.075256347656250
 40
3.299999952316284
  1
SCALE
 50
0.000002504478167
 41
0.821052645401140
  7
STANDARD1
  0
TEXT
  8
0
  6
CONTINUOUS
 62
256
 10
509.969757080078130
 20
-164.075256347656250
 40
3.299999952316284
  1
 
 50
0.000002504478167
 41
1.733333298293026
  7
STANDARD1
  0
TEXT
  8
0
  6
CONTINUOUS
 62
256
 10
522.249938964843750
 20
-158.775253295898440
 40
3.299999952316284
  1
1/240
 50
0.000002504478167
 41
0.821052645401140
  7
STANDARD1
  0
TEXT
  8
0
  6
CONTINUOUS
 62
256
 10
518.467895507812500
 20
-158.775253295898440
 40
3.299999952316284
  1
ü`
 50
0.000002504478167
 41
1.176000019651471
  7
STANDARD1
  0
TEXT
  8
0
  6
CONTINUOUS
 62
256
 10
509.969757080078130
 20
-158.775253295898440
 40
3.299999952316284
  1
1/5
 50
0.000002504478167
 41
0.850909097352304
  7
STANDARD1
  0
TEXT
  8
0
  6
CONTINUOUS
 62
256
 10
509.969757080078130
 20
-153.475250244140620
 40
3.299999952316284
  1
GM-SHYB-RL
 50
0.000002504478167
 41
0.799999980493025
  7
STANDARD1
  0
TEXT
  8
0
  6
CONTINUOUS
 62
256
 10
515.795104980468750
 20
-148.175262451171870
 40
3.299999952316284
  1
0.1kW
 50
0.000002504478167
 41
0.821052645401140
  7
STANDARD1
  0
TEXT
  8
0
  6
CONTINUOUS
 62
256
 10
509.969757080078130
 20
-148.175262451171870
 40
3.299999952316284
  1
  
 50
0.000002504478167
 41
1.485714400175845
  7
STANDARD1
  0
TEXT
  8
0
  6
CONTINUOUS
 62
256
 10
515.789245605468750
 20
-142.875259399414060
 40
3.299999952316284
  1
SHY091
 50
0.000002504478167
 41
0.813913121261144
  7
STANDARD1
  0
TEXT
  8
0
  6
CONTINUOUS
 62
256
 10
509.969757080078130
 20
-142.875259399414060
 40
3.299999952316284
  1
  
 50
0.000002504478167
 41
1.485714400175845
  7
STANDARD1
  0
ENDSEC
  0
EOF
