  0
SECTION
  2
HEADER
  9
$TEXTSIZE
 40
2.5
  9
$ACADVER
  1
AC1009
  9
$DIMASZ
 40
3.863703297614046
  9
$DIMEXE
 40
2.000000000000000
  9
$DIMEXO
 40
1.000000000000000
  9
$DIMLFAC
 40
1.000000000000000
  9
$DIMSCALE
 40
1.000000000000000
  9
$DIMTAD
 70
1
  9
$DIMTFAC
 40
0.625000000000000
  9
$DIMTXT
 40
3.200000047683716
  9
$LUPREC
 70
3
  9
$REGENMODE
 70
1
  9
$TEXTSTYLE
  7
STANDARD1
  0
ENDSEC
  0
SECTION
  2
TABLES
  0
TABLE
  2
LTYPE
 70
4
  0
LTYPE
  2
CONTINUOUS
 70
64
  3
Solid line
 72
65
 73
0
 40
0.0
  0
LTYPE
  2
DASHED
 70
64
  3
-- -- -- -- -- -- -- -- -- -- -- -- -- -- --
 72
65
 73
2
 40
0.75
 49
0.5
 49
-0.25
  0
LTYPE
  2
DASHDOT
 70
64
  3
__ . __ . __ . __ . __ . __ . __ . __ . __ . __
 72
65
 73
4
 40
1.0
 49
0.5
 49
-0.25
 49
0.0
 49
-0.25
  0
LTYPE
  2
DIVIDE
 70
64
  3
__ . . __ . . __ . . __ . . __ . . __ . . __
 72
65
 73
6
 40
1.25
 49
0.5
 49
-0.25
 49
0.0
 49
-0.25
 49
0.0
 49
-0.25
  0
ENDTAB
  0
TABLE
  2
LAYER
 70
3
  0
LAYER
  2
0
 70
64
 62
53
  6
CONTINUOUS
  0
LAYER
  2
1
 70
64
 62
102
  6
CONTINUOUS
  0
LAYER
  2
2
 70
64
 62
102
  6
CONTINUOUS
  0
ENDTAB
  0
TABLE
  2
STYLE
 70
4
  0
STYLE
  2
STANDARD1
 70
64
 40
0.0
 41
1.0
 50
0.0
 71
0
 42
3.200000047683716
  3
MONOTXT
  4
BIGFONT
  0
STYLE
  2
STANDARD2
 70
68
 40
0.0
 41
1.0
 50
0.0
 71
0
 42
3.200000047683716
  3
MONOTXT
  4
BIGFONT
  0
STYLE
  2
STANDARD3
 70
64
 40
0.0
 41
1.0
 50
0.0
 71
0
 42
3.200000047683716
  3
MONOTXT
  4

  0
STYLE
  2
STANDARD4
 70
68
 40
0.0
 41
1.0
 50
0.0
 71
0
 42
3.200000047683716
  3
MONOTXT
  4

  0
ENDTAB
  0
TABLE
  2
VIEW
 70
0
  0
ENDTAB
  0
ENDSEC
  0
SECTION
  2
BLOCKS
  0
ENDSEC
  0
SECTION
  2
ENTITIES
  0
TEXT
  8
0
  6
CONTINUOUS
 62
256
 10
-70.375488281250000
 20
-13.156250000000000
 40
2.799999952316284
  1
ü@
 50
0.000002504478167
 41
0.996000017370497
  7
STANDARD1
  0
TEXT
  8
0
  6
CONTINUOUS
 62
256
 10
1.624511957168579
 20
-253.406250000000000
 40
2.799999952316284
  1
ü@
 50
0.000002504478167
 41
0.996000017370497
  7
STANDARD1
  0
POINT
  8
0
  6
DASHED
 62
256
 10
-189.722525999999990
 20
-12.536903000000001
  0
POINT
  8
0
  6
CONTINUOUS
 62
256
 10
-35.597977000000000
 20
-26.536902999999999
  0
LINE
  8
0
  6
CONTINUOUS
 62
256
 10
-99.597977000000000
 20
-131.536903000000000
 11
24.402023000000000
 21
-131.536903000000000
  0
LINE
  8
0
  6
CONTINUOUS
 62
256
 10
30.349882999999998
 20
-125.334335999999990
 11
52.402042999999999
 21
-124.951014000000000
  0
LINE
  8
0
  6
CONTINUOUS
 62
256
 10
30.349882999999998
 20
-17.567692999999998
 11
52.402042999999999
 21
-17.951014000000001
  0
LINE
  8
0
  6
CONTINUOUS
 62
256
 10
48.402042999999999
 20
-51.451014000000001
 11
52.402042999999999
 21
-51.451014000000001
  0
LINE
  8
0
  6
CONTINUOUS
 62
256
 10
48.402042999999999
 20
-91.451014000000001
 11
52.402042999999999
 21
-91.451014000000001
  0
LINE
  8
0
  6
CONTINUOUS
 62
256
 10
34.402042999999999
 20
-122.246064000000000
 11
34.402042999999999
 21
-20.655964999999998
  0
LINE
  8
0
  6
CONTINUOUS
 62
256
 10
37.402042999999999
 20
-37.558849000000002
 11
45.402042999999999
 21
-37.558849000000002
  0
LINE
  8
0
  6
CONTINUOUS
 62
256
 10
46.402042999999999
 20
-30.021363000000001
 11
39.402042999999999
 21
-30.021363000000001
  0
LINE
  8
0
  6
CONTINUOUS
 62
256
 10
48.402042999999999
 20
-71.451014000000001
 11
48.402042999999999
 21
-32.021363000000001
  0
LINE
  8
0
  6
CONTINUOUS
 62
256
 10
45.402042999999999
 20
-26.951014000000001
 11
39.402042999999999
 21
-26.951014000000001
  0
LINE
  8
0
  6
CONTINUOUS
 62
256
 10
48.402042999999999
 20
-23.951014000000001
 11
48.402042999999999
 21
-19.898954000000000
  0
LINE
  8
0
  6
CONTINUOUS
 62
256
 10
48.402042999999999
 20
-118.951014000000000
 11
48.402042999999999
 21
-123.003075000000000
  0
LINE
  8
0
  6
CONTINUOUS
 62
256
 10
45.402042999999999
 20
-115.951014000000000
 11
39.402042999999999
 21
-115.951014000000000
  0
LINE
  8
0
  6
CONTINUOUS
 62
256
 10
46.402042999999999
 20
-112.880666000000010
 11
39.402042999999999
 21
-112.880666000000010
  0
LINE
  8
0
  6
CONTINUOUS
 62
256
 10
37.402042999999999
 20
-105.343180000000000
 11
45.402042999999999
 21
-105.343180000000000
  0
LINE
  8
0
  6
CONTINUOUS
 62
256
 10
48.402042999999999
 20
-71.451014000000001
 11
48.402042999999999
 21
-110.880666000000010
  0
ARC
  8
0
  6
CONTINUOUS
 62
256
 10
-99.597977000000000
 20
-134.536903000000000
 40
3.000000000000000
 50
90.000000000000000
 51
180.000000000000000
  0
ARC
  8
0
  6
CONTINUOUS
 62
256
 10
24.402023000000000
 20
-134.536903000000000
 40
3.000000000000000
 50
0.000000000000000
 51
90.000000000000000
  0
ARC
  8
0
  6
CONTINUOUS
 62
256
 10
37.402042999999999
 20
-20.655964999999998
 40
3.000000000000000
 50
89.004157000000063
 51
180.000000000000000
  0
ARC
  8
0
  6
CONTINUOUS
 62
256
 10
37.402042999999999
 20
-122.246064000000000
 40
3.000000000000000
 50
180.000000000000000
 51
270.995842999999920
  0
ARC
  8
0
  6
CONTINUOUS
 62
256
 10
39.402042999999999
 20
-35.021363000000001
 40
5.000000000000000
 50
90.000000000000000
 51
180.000000000000000
  0
ARC
  8
0
  6
CONTINUOUS
 62
256
 10
39.402042999999999
 20
-31.951014000000001
 40
5.000000000000000
 50
90.000000000000000
 51
180.000000000000000
  0
ARC
  8
0
  6
CONTINUOUS
 62
256
 10
39.402042999999999
 20
-107.880666000000010
 40
5.000000000000000
 50
180.000000000000000
 51
270.000000000000000
  0
ARC
  8
0
  6
CONTINUOUS
 62
256
 10
39.402042999999999
 20
-110.951014000000000
 40
5.000000000000000
 50
180.000000000000000
 51
270.000000000000000
  0
ARC
  8
0
  6
CONTINUOUS
 62
256
 10
37.402042999999999
 20
-40.558849000000002
 40
3.000000000000000
 50
90.000000000000000
 51
180.000000000000000
  0
ARC
  8
0
  6
CONTINUOUS
 62
256
 10
37.402042999999999
 20
-102.343180000000000
 40
3.000000000000000
 50
180.000000000000000
 51
270.000000000000000
  0
ARC
  8
0
  6
CONTINUOUS
 62
256
 10
46.402042999999999
 20
-32.021363000000001
 40
2.000000000000000
 50
0.000000000000000
 51
90.000000000000000
  0
ARC
  8
0
  6
CONTINUOUS
 62
256
 10
45.402042999999999
 20
-23.951014000000001
 40
3.000000000000000
 50
270.000000000000000
 51
0.000000000000000
  0
ARC
  8
0
  6
CONTINUOUS
 62
256
 10
45.402042999999999
 20
-40.558849000000002
 40
3.000000000000000
 50
0.000000000000000
 51
90.000000000000000
  0
ARC
  8
0
  6
CONTINUOUS
 62
256
 10
50.402042999999999
 20
-19.898954000000000
 40
2.000000000000001
 50
89.000000000000057
 51
180.000000000000000
  0
ARC
  8
0
  6
CONTINUOUS
 62
256
 10
50.402042999999999
 20
-123.003075000000000
 40
2.000000000000000
 50
180.000000000000000
 51
270.999999999999940
  0
ARC
  8
0
  6
CONTINUOUS
 62
256
 10
45.402042999999999
 20
-102.343180000000000
 40
3.000000000000000
 50
270.000000000000000
 51
0.000000000000000
  0
ARC
  8
0
  6
CONTINUOUS
 62
256
 10
46.402042999999999
 20
-110.880666000000010
 40
2.000000000000000
 50
270.000000000000000
 51
0.000000000000000
  0
ARC
  8
0
  6
CONTINUOUS
 62
256
 10
45.402042999999999
 20
-118.951014000000000
 40
3.000000000000000
 50
0.000000000000000
 51
90.000000000000000
  0
CIRCLE
  8
0
  6
CONTINUOUS
 62
256
 10
-35.597977000000000
 20
-26.536902999999999
 40
4.000000000000000
  0
CIRCLE
  8
0
  6
CONTINUOUS
 62
256
 10
-35.597977000000000
 20
-26.536902999999999
 40
3.500000000000000
  0
LINE
  8
0
  6
CONTINUOUS
 62
256
 10
-39.597977000000000
 20
-16.536902999999999
 11
-31.597977000000000
 21
-16.536902999999999
  0
LINE
  8
0
  6
CONTINUOUS
 62
256
 10
-31.597977000000000
 20
-9.536903000000001
 11
-31.597977000000000
 21
-16.536902999999999
  0
ARC
  8
0
  6
CONTINUOUS
 62
256
 10
-35.597977000000000
 20
-26.536902999999999
 40
14.000000000000000
 50
106.601550000000000
 51
73.398449999999997
  0
LINE
  8
0
  6
CONTINUOUS
 62
256
 10
-39.597977000000000
 20
-9.536903000000001
 11
-31.597977000000000
 21
-9.536903000000001
  0
LINE
  8
0
  6
CONTINUOUS
 62
256
 10
-39.597977000000000
 20
-9.536903000000001
 11
-39.597977000000000
 21
-16.536902999999999
  0
LINE
  8
0
  6
CONTINUOUS
 62
256
 10
-35.597976000000003
 20
-146.536903000000000
 11
27.402023000000000
 21
-146.536903000000000
  0
LINE
  8
0
  6
CONTINUOUS
 62
256
 10
-102.597977000000000
 20
-146.536903000000000
 11
-35.597976000000003
 21
-146.536903000000000
  0
LINE
  8
0
  6
DASHDOT
 62
256
 10
-110.726817999999990
 20
-26.536902999999999
 11
48.157888999999997
 21
-26.536902999999999
  0
LINE
  8
0
  6
DASHDOT
 62
256
 10
15.402023000000000
 20
-129.249156000000000
 11
15.402023000000000
 21
-153.201420000000010
  0
LINE
  8
0
  6
DASHDOT
 62
256
 10
-90.597977000000000
 20
-126.688869000000000
 11
-90.597977000000000
 21
-153.951186000000010
  0
LINE
  8
0
  6
DASHDOT
 62
256
 10
-35.597977000000000
 20
46.534708999999999
 11
-35.597977000000000
 21
-152.354936000000010
  0
LINE
  8
0
  6
CONTINUOUS
 62
256
 10
27.402023000000000
 20
-14.620293999999999
 11
27.402023000000000
 21
6.463097000000000
  0
ARC
  8
0
  6
CONTINUOUS
 62
256
 10
30.402023000000000
 20
-14.620293999999999
 40
3.000000000000000
 50
180.000000000000000
 51
269.004157000000020
  0
LINE
  8
0
  6
CONTINUOUS
 62
256
 10
27.402023000000000
 20
-146.536903000000000
 11
27.402023000000000
 21
-128.281735000000000
  0
ARC
  8
0
  6
CONTINUOUS
 62
256
 10
30.402023000000000
 20
-128.281735000000000
 40
3.000000000000000
 50
90.995843000000008
 51
180.000000000000000
  0
LINE
  8
0
  6
CONTINUOUS
 62
256
 10
-102.597977000000000
 20
-146.536903000000000
 11
-102.597977000000000
 21
6.463097000000000
  0
ARC
  8
0
  6
CONTINUOUS
 62
256
 10
-2.597977000000000
 20
6.463097000000000
 40
30.000000000000000
 50
0.000000000000000
 51
90.000000000000000
  0
LINE
  8
0
  6
CONTINUOUS
 62
256
 10
-72.597977000000000
 20
36.463096999999998
 11
-2.597977000000000
 21
36.463096999999998
  0
ARC
  8
0
  6
CONTINUOUS
 62
256
 10
-72.597977000000000
 20
6.463097000000000
 40
29.999999999999996
 50
90.000000000000000
 51
180.000000000000000
  0
ARC
  8
0
  6
CONTINUOUS
 62
256
 10
-35.597977000000000
 20
-26.536902999999999
 40
50.000000000000000
 50
0.000000000000000
 51
180.000000000000000
  0
LINE
  8
0
  6
CONTINUOUS
 62
256
 10
14.402023000000000
 20
-26.536902999999999
 11
14.402023000000000
 21
-83.536902999999995
  0
ARC
  8
0
  6
CONTINUOUS
 62
256
 10
-15.597977000000000
 20
-83.536902999999995
 40
30.000000000000000
 50
270.000000000000000
 51
0.000000000000000
  0
LINE
  8
0
  6
CONTINUOUS
 62
256
 10
-55.597977000000000
 20
-113.536903000000000
 11
-15.597977000000000
 21
-113.536903000000000
  0
ARC
  8
0
  6
CONTINUOUS
 62
256
 10
-55.597977000000000
 20
-83.536902999999995
 40
30.000000000000000
 50
180.000000000000000
 51
270.000000000000000
  0
LINE
  8
0
  6
CONTINUOUS
 62
256
 10
-85.597977000000000
 20
-26.536902999999999
 11
-85.597977000000000
 21
-83.536902999999995
  0
CIRCLE
  8
0
  6
CONTINUOUS
 62
256
 10
-35.597977000000000
 20
-26.536902999999999
 40
43.658234000000000
  0
CIRCLE
  8
0
  6
CONTINUOUS
 62
256
 10
-35.597977000000000
 20
-26.536902999999999
 40
38.000000000000000
  0
CIRCLE
  8
0
  6
CONTINUOUS
 62
256
 10
-35.597977000000000
 20
-26.536902999999999
 40
29.500000000000000
  0
CIRCLE
  8
0
  6
CONTINUOUS
 62
256
 10
-35.597977000000000
 20
-26.536902999999999
 40
22.500000000000000
  0
CIRCLE
  8
0
  6
CONTINUOUS
 62
256
 10
-35.597977000000000
 20
-26.536902999999999
 40
26.500000000000000
  0
ARC
  8
0
  6
CONTINUOUS
 62
256
 10
-329.288351999999970
 20
-110.881881000000010
 40
6.600000000000017
 50
315.000000000000170
 51
354.256318000000020
  0
ARC
  8
0
  6
CONTINUOUS
 62
256
 10
-721.310297999999990
 20
-71.451014000000001
 40
400.600000000000020
 50
354.256318000000020
 51
0.735879999999999
  0
LINE
  8
0
  6
CONTINUOUS
 62
256
 10
-332.080142000000020
 20
-123.007481000000000
 11
-324.621446999999990
 21
-115.548786000000010
  0
ARC
  8
0
  6
CONTINUOUS
 62
256
 10
-346.646542000000010
 20
-108.441081999999990
 40
20.600000000000012
 50
312.572039000000020
 51
314.999999999999940
  0
ARC
  8
0
  6
CONTINUOUS
 62
256
 10
-420.132245000000010
 20
-110.881881000000010
 40
6.599999999999973
 50
185.743682000000060
 51
224.999999999999830
  0
LINE
  8
0
  6
CONTINUOUS
 62
256
 10
-419.710015000000000
 20
-120.637921000000010
 11
-424.799150000000000
 21
-115.548786000000010
  0
ARC
  8
0
  6
CONTINUOUS
 62
256
 10
-28.110298000000000
 20
-71.451014000000001
 40
400.600000000000020
 50
179.264114000000010
 51
185.743681999999980
  0
LINE
  8
0
  6
DASHDOT
 62
256
 10
-446.651528999999980
 20
-26.536902999999999
 11
-256.002278999999990
 21
-26.536902999999999
  0
LINE
  8
0
  6
CONTINUOUS
 62
256
 10
-310.210068999999980
 20
-0.036903000000000
 11
-308.010068999999990
 21
-0.036903000000000
  0
LINE
  8
0
  6
CONTINUOUS
 62
256
 10
-310.210068999999980
 20
-53.036903000000002
 11
-308.010068999999990
 21
-53.036903000000002
  0
LINE
  8
0
  6
CONTINUOUS
 62
256
 10
-419.710015000000000
 20
-116.804863000000000
 11
-419.710015000000000
 21
-72.082662999999997
  0
LINE
  8
0
  6
CONTINUOUS
 62
256
 10
-439.210298000000020
 20
-53.036903000000002
 11
-441.310297999999990
 21
-53.036903000000002
  0
LINE
  8
0
  6
CONTINUOUS
 62
256
 10
-439.210298000000020
 20
-0.036903000000000
 11
-441.310297999999990
 21
-0.036903000000000
  0
LINE
  8
0
  6
CONTINUOUS
 62
256
 10
-439.210298000000020
 20
-61.931440000000002
 11
-439.210298000000020
 21
-26.536902999999999
  0
LINE
  8
0
  6
CONTINUOUS
 62
256
 10
-312.689124999999990
 20
-64.885863000000001
 11
-325.598445000000030
 21
-67.162125000000003
  0
LINE
  8
0
  6
CONTINUOUS
 62
256
 10
-308.010068999999990
 20
-0.036903000000000
 11
-307.710068999999980
 21
-0.336903000000000
  0
LINE
  8
0
  6
CONTINUOUS
 62
256
 10
-312.689124999999990
 20
11.812058000000000
 11
-325.578594000000010
 21
14.084819000000000
  0
LINE
  8
0
  6
CONTINUOUS
 62
256
 10
-308.010068999999990
 20
-53.036903000000002
 11
-307.710068999999980
 21
-52.736902999999998
  0
LINE
  8
0
  6
CONTINUOUS
 62
256
 10
-419.710015000000000
 20
35.340764999999998
 11
-419.710015000000000
 21
-72.082662999999997
  0
LINE
  8
0
  6
CONTINUOUS
 62
256
 10
-436.731243000000010
 20
-64.885863000000001
 11
-428.210298000000020
 21
-66.388335999999995
  0
LINE
  8
0
  6
CONTINUOUS
 62
256
 10
-419.710015000000000
 20
-129.536903000000000
 11
-419.710015000000000
 21
-116.804863000000000
  0
LINE
  8
0
  6
CONTINUOUS
 62
256
 10
-436.231243000000010
 20
-64.974027000000007
 11
-428.210298000000020
 21
-66.388335999999995
  0
ARC
  8
0
  6
CONTINUOUS
 62
256
 10
-424.710015000000000
 20
-72.082662999999997
 40
5.000000000000000
 50
0.000000000000000
 51
80.000000000000142
  0
LINE
  8
0
  6
CONTINUOUS
 62
256
 10
-428.210298000000020
 20
-66.388335999999995
 11
-423.841773999999990
 21
-67.158625000000001
  0
LINE
  8
0
  6
CONTINUOUS
 62
256
 10
-436.731243000000010
 20
11.812058000000000
 11
-423.841773999999990
 21
14.084819000000000
  0
ARC
  8
0
  6
CONTINUOUS
 62
256
 10
-424.710015000000000
 20
19.008858000000000
 40
4.999999999999999
 50
279.999999999999890
 51
0.000000000000000
  0
ARC
  8
0
  6
CONTINUOUS
 62
256
 10
-424.710015000000000
 20
19.008858000000000
 40
4.999999999999999
 50
279.999999999999890
 51
0.000000000000000
  0
LINE
  8
0
  6
CONTINUOUS
 62
256
 10
-438.762655000000000
 20
-131.485451000000010
 11
-412.210298000000020
 21
-131.021977999999990
  0
LINE
  8
0
  6
CONTINUOUS
 62
256
 10
-411.710298000000020
 20
36.463096999999998
 11
-335.657940999999990
 21
35.135598999999999
  0
LINE
  8
0
  6
CONTINUOUS
 62
256
 10
-441.710298000000020
 20
-146.536903000000000
 11
-441.710298000000020
 21
-133.984994000000000
  0
LINE
  8
0
  6
CONTINUOUS
 62
256
 10
-307.710298000000020
 20
-146.536903000000000
 11
-307.710298000000020
 21
-134.484994000000000
  0
LINE
  8
0
  6
CONTINUOUS
 62
256
 10
-332.710298000000020
 20
-119.316426000000010
 11
-332.710298000000020
 21
32.136054999999999
  0
LINE
  8
0
  6
DASHDOT
 62
256
 10
-429.710298000000020
 20
-150.782787000000010
 11
-429.710298000000020
 21
-126.728733000000010
  0
LINE
  8
0
  6
DASHDOT
 62
256
 10
-319.710298000000020
 20
-150.782787000000010
 11
-319.710298000000020
 21
-126.728733000000010
  0
LINE
  8
0
  6
CONTINUOUS
 62
256
 10
-428.210298000000020
 20
-66.388335999999995
 11
-428.210298000000020
 21
-90.951014000000001
  0
LINE
  8
0
  6
CONTINUOUS
 62
256
 10
-321.210298000000020
 20
-90.951014000000001
 11
-321.210298000000020
 21
-66.388375999999994
  0
LINE
  8
0
  6
CONTINUOUS
 62
256
 10
-329.710581999999990
 20
21.267109000000001
 11
-329.710581999999990
 21
-74.340913999999998
  0
LINE
  8
0
  6
CONTINUOUS
 62
256
 10
-332.710298000000020
 20
-119.316426000000010
 11
-332.710298000000020
 21
-127.169737000000000
  0
LINE
  8
0
  6
CONTINUOUS
 62
256
 10
-310.657940999999990
 20
-131.485451000000010
 11
-328.780107999999980
 21
-131.169128000000000
  0
ARC
  8
0
  6
CONTINUOUS
 62
256
 10
-402.210298000000020
 20
-98.951014000000001
 40
25.000000000000000
 50
180.000000000000000
 51
225.573905999999970
  0
ARC
  8
0
  6
CONTINUOUS
 62
256
 10
-335.710298000000020
 20
32.136054999999999
 40
3.000000000000000
 50
0.000000000000000
 51
89.000000000000398
  0
ARC
  8
0
  6
CONTINUOUS
 62
256
 10
-329.710298000000020
 20
26.463097000000001
 40
3.000000000000000
 50
180.000000000000000
 51
239.996872999999970
  0
ARC
  8
0
  6
CONTINUOUS
 62
256
 10
-332.710581999999990
 20
21.267109000000001
 40
3.000000000000000
 50
0.000000000000000
 51
59.996872999999944
  0
ARC
  8
0
  6
CONTINUOUS
 62
256
 10
-329.710298000000020
 20
-79.536902999999995
 40
3.000000000000006
 50
120.003127000000020
 51
180.000000000000000
  0
ARC
  8
0
  6
CONTINUOUS
 62
256
 10
-332.710581999999990
 20
-74.340913999999998
 40
3.000000000000006
 50
300.003127000000060
 51
0.000000000000000
  0
ARC
  8
0
  6
CONTINUOUS
 62
256
 10
-324.710581999999990
 20
-72.082662999999997
 40
4.999999999999999
 50
99.999999999999858
 51
180.000000000000000
  0
ARC
  8
0
  6
CONTINUOUS
 62
256
 10
-427.710298000000020
 20
-90.951014000000001
 40
0.500000000000000
 50
180.000000000000000
 51
270.000000000000000
  0
ARC
  8
0
  6
CONTINUOUS
 62
256
 10
-427.710298000000020
 20
-91.951014000000001
 40
0.500000000000000
 50
0.000000000000000
 51
90.000000000000000
  0
ARC
  8
0
  6
CONTINUOUS
 62
256
 10
-321.710298000000020
 20
-90.951014000000001
 40
0.500000000000000
 50
270.000000000000000
 51
0.000000000000000
  0
ARC
  8
0
  6
CONTINUOUS
 62
256
 10
-321.710298000000020
 20
-91.951014000000001
 40
0.500000000000000
 50
90.000000000000000
 51
180.000000000000000
  0
ARC
  8
0
  6
CONTINUOUS
 62
256
 10
-347.210298000000020
 20
-98.951014000000001
 40
25.000000000000004
 50
305.450542999999980
 51
0.000000000000000
  0
ARC
  8
0
  6
CONTINUOUS
 62
256
 10
-324.710581999999990
 20
19.008858000000000
 40
5.000000000000000
 50
180.000000000000000
 51
260.000000000000110
  0
ARC
  8
0
  6
CONTINUOUS
 62
256
 10
-438.710298000000020
 20
-134.484994000000000
 40
3.000000000000011
 50
90.999999999999602
 51
180.000000000000000
  0
ARC
  8
0
  6
CONTINUOUS
 62
256
 10
-310.710298000000020
 20
-134.484994000000000
 40
3.000000000000000
 50
0.000000000000000
 51
89.000000000000412
  0
ARC
  8
0
  6
CONTINUOUS
 62
256
 10
-328.710298000000020
 20
-127.169737000000000
 40
4.000000000000000
 50
180.000000000000000
 51
268.999999999999830
  0
ARC
  8
0
  6
CONTINUOUS
 62
256
 10
-27.210298000000002
 20
-91.451014000000001
 40
400.000000000000000
 50
180.071529999999970
 51
181.134752999999960
  0
ARC
  8
0
  6
CONTINUOUS
 62
256
 10
-722.210297999999970
 20
-91.451014000000001
 40
400.000000000000000
 50
358.865247000000010
 51
359.928470000000000
  0
LINE
  8
0
  6
CONTINUOUS
 62
256
 10
-305.710298000000020
 20
-12.536903000000001
 11
-260.710298000000020
 21
-12.536903000000001
  0
LINE
  8
0
  6
CONTINUOUS
 62
256
 10
-260.710298000000020
 20
-26.536902999999999
 11
-260.710298000000020
 21
-9.536903000000001
  0
LINE
  8
0
  6
CONTINUOUS
 62
256
 10
-296.710298000000020
 20
-9.536903000000001
 11
-260.710298000000020
 21
-9.536903000000001
  0
LINE
  8
0
  6
CONTINUOUS
 62
256
 10
-296.710298000000020
 20
-12.536903000000001
 11
-296.710298000000020
 21
-9.536903000000001
  0
LINE
  8
0
  6
CONTINUOUS
 62
256
 10
-305.710298000000020
 20
-40.536903000000002
 11
-260.710298000000020
 21
-40.536903000000002
  0
LINE
  8
0
  6
CONTINUOUS
 62
256
 10
-260.710298000000020
 20
-26.536902999999999
 11
-260.710298000000020
 21
-40.536903000000002
  0
LINE
  8
0
  6
CONTINUOUS
 62
256
 10
-305.710298000000020
 20
-26.536902999999999
 11
-305.710298000000020
 21
-41.036903000000002
  0
LINE
  8
0
  6
CONTINUOUS
 62
256
 10
-305.710298000000020
 20
-26.536902999999999
 11
-305.710298000000020
 21
-41.036903000000002
  0
LINE
  8
0
  6
CONTINUOUS
 62
256
 10
-305.710298000000020
 20
-41.036903000000002
 11
-307.710298000000020
 21
-41.036903000000002
  0
LINE
  8
0
  6
CONTINUOUS
 62
256
 10
-305.710298000000020
 20
-26.536902999999999
 11
-305.710298000000020
 21
-12.036903000000001
  0
LINE
  8
0
  6
CONTINUOUS
 62
256
 10
-305.710298000000020
 20
-26.536902999999999
 11
-305.710298000000020
 21
-12.036903000000001
  0
LINE
  8
0
  6
CONTINUOUS
 62
256
 10
-305.710298000000020
 20
-12.036903000000001
 11
-307.710298000000020
 21
-12.036903000000001
  0
LINE
  8
0
  6
CONTINUOUS
 62
256
 10
-310.210068999999980
 20
-61.931440000000002
 11
-310.210068999999980
 21
-26.536902999999999
  0
LINE
  8
0
  6
CONTINUOUS
 62
256
 10
-310.210068999999980
 20
8.857635000000000
 11
-310.210068999999980
 21
-26.536902999999999
  0
ARC
  8
0
  6
CONTINUOUS
 62
256
 10
-313.210068999999980
 20
8.857635000000000
 40
3.000000000000000
 50
0.000000000000000
 51
80.000000000000355
  0
ARC
  8
0
  6
CONTINUOUS
 62
256
 10
-313.210068999999980
 20
-61.931440000000002
 40
2.999999999999996
 50
279.999999999999660
 51
0.000000000000000
  0
LINE
  8
0
  6
CONTINUOUS
 62
256
 10
-411.710298000000020
 20
-131.036903000000000
 11
-411.710298000000020
 21
-122.075677000000000
  0
LINE
  8
0
  6
CONTINUOUS
 62
256
 10
-412.210298000000020
 20
-131.036903000000000
 11
-411.710298000000020
 21
-131.036903000000000
  0
LINE
  8
0
  6
CONTINUOUS
 62
256
 10
-411.710298000000020
 20
-122.075677000000000
 11
-411.710298000000020
 21
36.463098000000002
  0
LINE
  8
0
  6
CONTINUOUS
 62
256
 10
-441.710298000000020
 20
-146.536903000000000
 11
-307.710298000000020
 21
-146.536903000000000
  0
POINT
  8
0
  6
CONTINUOUS
 62
256
 10
-441.710298000000020
 20
-131.536903000000000
  0
POINT
  8
0
  6
CONTINUOUS
 62
256
 10
-307.710298000000020
 20
-131.536903000000000
  0
LINE
  8
0
  6
CONTINUOUS
 62
256
 10
-439.210298000000020
 20
-26.536902999999999
 11
-439.210298000000020
 21
8.857635000000000
  0
LINE
  8
0
  6
CONTINUOUS
 62
256
 10
-307.710298000000020
 20
-52.737130999999998
 11
-307.710298000000020
 21
-0.336674000000000
  0
ARC
  8
0
  6
CONTINUOUS
 62
256
 10
-418.710015000000000
 20
-129.536903000000000
 40
1.000000000000000
 50
180.000000000000000
 51
270.000000000000000
  0
LINE
  8
0
  6
CONTINUOUS
 62
256
 10
-411.710298000000020
 20
-130.536903000000000
 11
-418.710015000000000
 21
-130.536903000000000
  0
ARC
  8
0
  6
CONTINUOUS
 62
256
 10
-418.710015000000000
 20
35.340764999999998
 40
0.999999999999998
 50
90.999999999998522
 51
180.000000000000000
  0
LINE
  8
0
  6
CONTINUOUS
 62
256
 10
-411.710298000000020
 20
36.463096999999998
 11
-418.727466999999990
 21
36.340612000000000
  0
ARC
  8
0
  6
CONTINUOUS
 62
256
 10
-436.210298000000020
 20
-61.931440000000002
 40
3.000000000000000
 50
180.000000000000000
 51
260.000000000000340
  0
LINE
  8
0
  6
CONTINUOUS
 62
256
 10
-441.710298000000020
 20
-52.636902999999997
 11
-441.310297999999990
 21
-53.036903000000002
  0
LINE
  8
0
  6
CONTINUOUS
 62
256
 10
-441.710298000000020
 20
-0.436903000000000
 11
-441.310297999999990
 21
-0.036903000000000
  0
ARC
  8
0
  6
CONTINUOUS
 62
256
 10
-436.210298000000020
 20
8.857635000000000
 40
2.999999999999998
 50
99.999999999999645
 51
180.000000000000000
  0
LINE
  8
0
  6
CONTINUOUS
 62
256
 10
-441.710298000000020
 20
-52.636902999999997
 11
-441.710298000000020
 21
-0.436903000000000
  0
LINE
  8
0
  6
DASHDOT
 62
256
 10
-398.418655000000000
 20
-71.451014000000001
 11
-356.011661000000000
 21
-71.451014000000001
  0
LINE
  8
0
  6
DASHDOT
 62
256
 10
-374.710298000000020
 20
-151.392881999999990
 11
-374.710298000000020
 21
44.516353000000002
  0
CIRCLE
  8
0
  6
CONTINUOUS
 62
256
 10
-189.722525999999990
 20
-26.536902999999999
 40
4.000000000000000
  0
CIRCLE
  8
0
  6
CONTINUOUS
 62
256
 10
-189.722525999999990
 20
-26.536902999999999
 40
3.500000000000000
  0
LINE
  8
0
  6
DASHDOT
 62
256
 10
-208.925456000000000
 20
-26.536902999999999
 11
-167.193864999999990
 21
-26.536902999999999
  0
LINE
  8
0
  6
DASHDOT
 62
256
 10
-189.722525999999990
 20
-47.585225000000001
 11
-189.722525999999990
 21
-5.853635000000000
  0
LINE
  8
0
  6
CONTINUOUS
 62
256
 10
-193.722525999999990
 20
-9.536903000000001
 11
-185.722525999999990
 21
-9.536903000000001
  0
LINE
  8
0
  6
CONTINUOUS
 62
256
 10
-193.722525999999990
 20
-9.536903000000001
 11
-193.722525999999990
 21
-16.536902999999999
  0
LINE
  8
0
  6
CONTINUOUS
 62
256
 10
-193.722525999999990
 20
-16.536902999999999
 11
-185.722525999999990
 21
-16.536902999999999
  0
LINE
  8
0
  6
CONTINUOUS
 62
256
 10
-185.722525999999990
 20
-9.536903000000001
 11
-185.722525999999990
 21
-16.536902999999999
  0
ARC
  8
0
  6
CONTINUOUS
 62
256
 10
-189.722525999999990
 20
-26.536902999999999
 40
14.000000000000000
 50
106.601550000000000
 51
73.398450000000011
  0
LINE
  8
0
  6
CONTINUOUS
 62
256
 10
52.402042999999999
 20
-18.951014000000001
 11
52.402042999999999
 21
-123.951014000000000
  0
LINE
  8
0
  6
DASHDOT
 62
256
 10
4.822844000000000
 20
-71.451014000000001
 11
246.184077000000000
 21
-71.451014000000001
  0
LINE
  8
0
  6
CONTINUOUS
 62
256
 10
52.402042999999999
 20
-17.951014000000001
 11
52.402042999999999
 21
-71.451014000000001
  0
LINE
  8
0
  6
CONTINUOUS
 62
256
 10
52.402042999999999
 20
-71.451014000000001
 11
52.402042999999999
 21
-124.951014000000000
  0
LINE
  8
0
  6
CONTINUOUS
 62
256
 10
52.402042999999999
 20
-71.451014000000001
 11
52.402042999999999
 21
-18.951014000000001
  0
LINE
  8
0
  6
CONTINUOUS
 62
256
 10
144.202043000000000
 20
0.048986000000000
 11
144.202043000000000
 21
12.048985999999999
  0
LINE
  8
0
  6
CONTINUOUS
 62
256
 10
144.202043000000000
 20
-17.002685000000000
 11
144.202043000000000
 21
0.048986000000000
  0
LINE
  8
0
  6
CONTINUOUS
 62
256
 10
144.202043000000000
 20
12.048985999999999
 11
144.202043000000000
 21
19.048985999999999
  0
ARC
  8
0
  6
CONTINUOUS
 62
256
 10
213.906888000000010
 20
-33.051014000000002
 40
20.599999999999998
 50
55.000000000000028
 51
90.000000000000000
  0
ARC
  8
0
  6
CONTINUOUS
 62
256
 10
231.802043000000000
 20
-23.607393999999999
 40
2.599999999999994
 50
0.000000000000000
 51
54.999999999999929
  0
LINE
  8
0
  6
CONTINUOUS
 62
256
 10
225.722563000000010
 20
-16.176482000000000
 11
233.293342000000000
 21
-21.477599000000001
  0
LINE
  8
0
  6
CONTINUOUS
 62
256
 10
234.402042999999990
 20
-23.607393999999999
 11
234.402042999999990
 21
-71.451014000000001
  0
LINE
  8
0
  6
CONTINUOUS
 62
256
 10
136.402042999999990
 20
-30.409101000000000
 11
52.402042999999999
 21
-30.409101000000000
  0
LINE
  8
0
  6
CONTINUOUS
 62
256
 10
136.402042999999990
 20
-25.317931999999999
 11
52.402042999999999
 21
-25.317931999999999
  0
LINE
  8
0
  6
CONTINUOUS
 62
256
 10
136.402042999999990
 20
-20.951014000000001
 11
52.402042999999999
 21
-20.951014000000001
  0
LINE
  8
0
  6
CONTINUOUS
 62
256
 10
136.402042999999990
 20
-20.451014000000001
 11
52.402042999999999
 21
-20.451014000000001
  0
LINE
  8
0
  6
CONTINUOUS
 62
256
 10
52.402042999999999
 20
-17.951014000000001
 11
54.202043000000003
 21
-17.951014000000001
  0
LINE
  8
0
  6
CONTINUOUS
 62
256
 10
54.202043000000003
 20
-18.951014000000001
 11
54.202043000000003
 21
19.048985999999999
  0
ARC
  8
0
  6
CONTINUOUS
 62
256
 10
55.202043000000003
 20
19.048985999999999
 40
1.000000000000000
 50
90.000000000000000
 51
180.000000000000000
  0
LINE
  8
0
  6
CONTINUOUS
 62
256
 10
143.202043000000000
 20
20.048985999999999
 11
55.202043000000003
 21
20.048985999999999
  0
ARC
  8
0
  6
CONTINUOUS
 62
256
 10
143.202043000000000
 20
19.048985999999999
 40
1.000000000000000
 50
0.000000000000000
 51
90.000000000000000
  0
LINE
  8
0
  6
CONTINUOUS
 62
256
 10
137.202043000000000
 20
20.548985999999999
 11
129.202043000000000
 21
20.548985999999999
  0
LINE
  8
0
  6
CONTINUOUS
 62
256
 10
69.202043000000003
 20
20.548985999999999
 11
61.202043000000003
 21
20.548985999999999
  0
LINE
  8
0
  6
CONTINUOUS
 62
256
 10
69.202043000000003
 20
20.048985999999999
 11
69.202043000000003
 21
20.548985999999999
  0
LINE
  8
0
  6
CONTINUOUS
 62
256
 10
61.202043000000003
 20
20.048985999999999
 11
61.202043000000003
 21
20.548985999999999
  0
LINE
  8
0
  6
CONTINUOUS
 62
256
 10
129.202043000000000
 20
20.048985999999999
 11
129.202043000000000
 21
20.548985999999999
  0
LINE
  8
0
  6
CONTINUOUS
 62
256
 10
137.202043000000000
 20
20.048985999999999
 11
137.202043000000000
 21
20.548985999999999
  0
LINE
  8
0
  6
CONTINUOUS
 62
256
 10
54.202043000000003
 20
-18.951014000000001
 11
136.402042999999990
 21
-18.951014000000001
  0
POLYLINE
  8
0
  6
CONTINUOUS
 62
256
 66
1
 70
1
  0
VERTEX
  8
0
  6
CONTINUOUS
 62
256
 10
152.102042999999980
 20
-24.123684000000001
  0
VERTEX
  8
0
  6
CONTINUOUS
 62
256
 10
152.011733817895160
 20
-23.420727489441834
  0
VERTEX
  8
0
  6
CONTINUOUS
 62
256
 10
151.744276802803030
 20
-22.744785203361861
  0
VERTEX
  8
0
  6
CONTINUOUS
 62
256
 10
151.309950177821950
 20
-22.121833224741341
  0
VERTEX
  8
0
  6
CONTINUOUS
 62
256
 10
150.725444871576770
 20
-21.575811248763159
  0
VERTEX
  8
0
  6
CONTINUOUS
 62
256
 10
150.013223095192100
 20
-21.127702593751511
  0
VERTEX
  8
0
  6
CONTINUOUS
 62
256
 10
149.200655132115910
 20
-20.794727824016263
  0
VERTEX
  8
0
  6
CONTINUOUS
 62
256
 10
148.318967513475800
 20
-20.589682973223940
  0
VERTEX
  8
0
  6
CONTINUOUS
 62
256
 10
147.402042999999990
 20
-20.520447800000010
  0
VERTEX
  8
0
  6
CONTINUOUS
 62
256
 10
146.485118486524190
 20
-20.589682973223940
  0
VERTEX
  8
0
  6
CONTINUOUS
 62
256
 10
145.603430867884070
 20
-20.794727824016263
  0
VERTEX
  8
0
  6
CONTINUOUS
 62
256
 10
144.790862904807880
 20
-21.127702593751511
  0
VERTEX
  8
0
  6
CONTINUOUS
 62
256
 10
144.078641128423210
 20
-21.575811248763159
  0
VERTEX
  8
0
  6
CONTINUOUS
 62
256
 10
143.494135822178040
 20
-22.121833224741341
  0
VERTEX
  8
0
  6
CONTINUOUS
 62
256
 10
143.059809197196960
 20
-22.744785203361861
  0
VERTEX
  8
0
  6
CONTINUOUS
 62
256
 10
142.792352182104820
 20
-23.420727489441830
  0
VERTEX
  8
0
  6
CONTINUOUS
 62
256
 10
142.702043000000000
 20
-24.123684000000001
  0
VERTEX
  8
0
  6
CONTINUOUS
 62
256
 10
142.792352182104820
 20
-24.826640510558168
  0
VERTEX
  8
0
  6
CONTINUOUS
 62
256
 10
143.059809197196960
 20
-25.502582796638137
  0
VERTEX
  8
0
  6
CONTINUOUS
 62
256
 10
143.494135822178040
 20
-26.125534775258661
  0
VERTEX
  8
0
  6
CONTINUOUS
 62
256
 10
144.078641128423210
 20
-26.671556751236839
  0
VERTEX
  8
0
  6
CONTINUOUS
 62
256
 10
144.790862904807880
 20
-27.119665406248487
  0
VERTEX
  8
0
  6
CONTINUOUS
 62
256
 10
145.603430867884070
 20
-27.452640175983735
  0
VERTEX
  8
0
  6
CONTINUOUS
 62
256
 10
146.485118486524190
 20
-27.657685026776061
  0
VERTEX
  8
0
  6
CONTINUOUS
 62
256
 10
147.402042999999990
 20
-27.726920199999988
  0
VERTEX
  8
0
  6
CONTINUOUS
 62
256
 10
148.318967513475800
 20
-27.657685026776061
  0
VERTEX
  8
0
  6
CONTINUOUS
 62
256
 10
149.200655132115910
 20
-27.452640175983738
  0
VERTEX
  8
0
  6
CONTINUOUS
 62
256
 10
150.013223095192100
 20
-27.119665406248490
  0
VERTEX
  8
0
  6
CONTINUOUS
 62
256
 10
150.725444871576740
 20
-26.671556751236842
  0
VERTEX
  8
0
  6
CONTINUOUS
 62
256
 10
151.309950177821950
 20
-26.125534775258661
  0
VERTEX
  8
0
  6
CONTINUOUS
 62
256
 10
151.744276802803030
 20
-25.502582796638141
  0
VERTEX
  8
0
  6
CONTINUOUS
 62
256
 10
152.011733817895160
 20
-24.826640510558171
  0
SEQEND
  8
0
  6
CONTINUOUS
 62
256
  0
LINE
  8
0
  6
CONTINUOUS
 62
256
 10
149.402042999999990
 20
-21.131308000000001
 11
147.402042999999990
 21
-22.307092999999998
  0
LINE
  8
0
  6
CONTINUOUS
 62
256
 10
147.402042999999990
 20
-22.307092999999998
 11
145.402042999999990
 21
-23.959734999999998
  0
LINE
  8
0
  6
CONTINUOUS
 62
256
 10
145.402042999999990
 20
-21.131308000000001
 11
147.402042999999990
 21
-22.307092999999998
  0
LINE
  8
0
  6
CONTINUOUS
 62
256
 10
147.402042999999990
 20
-22.307092999999998
 11
149.402042999999990
 21
-23.959734999999998
  0
LINE
  8
0
  6
CONTINUOUS
 62
256
 10
136.402042999999990
 20
-20.111318000000001
 11
136.402042999999990
 21
-71.451014000000001
  0
ARC
  8
0
  6
CONTINUOUS
 62
256
 10
139.402042999999990
 20
-20.111318000000001
 40
3.000000000000000
 50
90.000000000000000
 51
180.000000000000000
  0
LINE
  8
0
  6
CONTINUOUS
 62
256
 10
143.402042999999990
 20
-17.111318000000001
 11
139.402042999999990
 21
-17.111318000000001
  0
ARC
  8
0
  6
CONTINUOUS
 62
256
 10
143.402042999999990
 20
-14.111318000000001
 40
3.000000000000000
 50
270.000000000000000
 51
0.000000000000000
  0
LINE
  8
0
  6
CONTINUOUS
 62
256
 10
146.402042999999990
 20
-12.451014000000001
 11
213.906888000000010
 21
-12.451014000000001
  0
LINE
  8
0
  6
CONTINUOUS
 62
256
 10
146.402042999999990
 20
-12.451014000000001
 11
146.402042999999990
 21
-14.111318000000001
  0
LINE
  8
0
  6
CONTINUOUS
 62
256
 10
144.202043000000000
 20
-13.951014000000001
 11
54.202043000000003
 21
-13.951014000000001
  0
POLYLINE
  8
0
  6
CONTINUOUS
 62
256
 66
1
 70
1
  0
VERTEX
  8
0
  6
CONTINUOUS
 62
256
 10
152.102042999999980
 20
-118.778345000000000
  0
VERTEX
  8
0
  6
CONTINUOUS
 62
256
 10
152.011733817895160
 20
-118.075388489441830
  0
VERTEX
  8
0
  6
CONTINUOUS
 62
256
 10
151.744276802803030
 20
-117.399446203361860
  0
VERTEX
  8
0
  6
CONTINUOUS
 62
256
 10
151.309950177821950
 20
-116.776494224741340
  0
VERTEX
  8
0
  6
CONTINUOUS
 62
256
 10
150.725444871576770
 20
-116.230472248763160
  0
VERTEX
  8
0
  6
CONTINUOUS
 62
256
 10
150.013223095192100
 20
-115.782363593751510
  0
VERTEX
  8
0
  6
CONTINUOUS
 62
256
 10
149.200655132115910
 20
-115.449388824016250
  0
VERTEX
  8
0
  6
CONTINUOUS
 62
256
 10
148.318967513475800
 20
-115.244343973223930
  0
VERTEX
  8
0
  6
CONTINUOUS
 62
256
 10
147.402042999999990
 20
-115.175108800000000
  0
VERTEX
  8
0
  6
CONTINUOUS
 62
256
 10
146.485118486524190
 20
-115.244343973223930
  0
VERTEX
  8
0
  6
CONTINUOUS
 62
256
 10
145.603430867884070
 20
-115.449388824016250
  0
VERTEX
  8
0
  6
CONTINUOUS
 62
256
 10
144.790862904807880
 20
-115.782363593751510
  0
VERTEX
  8
0
  6
CONTINUOUS
 62
256
 10
144.078641128423210
 20
-116.230472248763160
  0
VERTEX
  8
0
  6
CONTINUOUS
 62
256
 10
143.494135822178040
 20
-116.776494224741340
  0
VERTEX
  8
0
  6
CONTINUOUS
 62
256
 10
143.059809197196960
 20
-117.399446203361860
  0
VERTEX
  8
0
  6
CONTINUOUS
 62
256
 10
142.792352182104820
 20
-118.075388489441830
  0
VERTEX
  8
0
  6
CONTINUOUS
 62
256
 10
142.702043000000000
 20
-118.778345000000000
  0
VERTEX
  8
0
  6
CONTINUOUS
 62
256
 10
142.792352182104820
 20
-119.481301510558170
  0
VERTEX
  8
0
  6
CONTINUOUS
 62
256
 10
143.059809197196960
 20
-120.157243796638140
  0
VERTEX
  8
0
  6
CONTINUOUS
 62
256
 10
143.494135822178040
 20
-120.780195775258660
  0
VERTEX
  8
0
  6
CONTINUOUS
 62
256
 10
144.078641128423210
 20
-121.326217751236840
  0
VERTEX
  8
0
  6
CONTINUOUS
 62
256
 10
144.790862904807880
 20
-121.774326406248490
  0
VERTEX
  8
0
  6
CONTINUOUS
 62
256
 10
145.603430867884070
 20
-122.107301175983740
  0
VERTEX
  8
0
  6
CONTINUOUS
 62
256
 10
146.485118486524190
 20
-122.312346026776070
  0
VERTEX
  8
0
  6
CONTINUOUS
 62
256
 10
147.402042999999990
 20
-122.381581200000000
  0
VERTEX
  8
0
  6
CONTINUOUS
 62
256
 10
148.318967513475800
 20
-122.312346026776070
  0
VERTEX
  8
0
  6
CONTINUOUS
 62
256
 10
149.200655132115910
 20
-122.107301175983750
  0
VERTEX
  8
0
  6
CONTINUOUS
 62
256
 10
150.013223095192100
 20
-121.774326406248490
  0
VERTEX
  8
0
  6
CONTINUOUS
 62
256
 10
150.725444871576740
 20
-121.326217751236840
  0
VERTEX
  8
0
  6
CONTINUOUS
 62
256
 10
151.309950177821950
 20
-120.780195775258660
  0
VERTEX
  8
0
  6
CONTINUOUS
 62
256
 10
151.744276802803030
 20
-120.157243796638140
  0
VERTEX
  8
0
  6
CONTINUOUS
 62
256
 10
152.011733817895160
 20
-119.481301510558170
  0
SEQEND
  8
0
  6
CONTINUOUS
 62
256
  0
LINE
  8
0
  6
CONTINUOUS
 62
256
 10
149.402042999999990
 20
-121.770720999999990
 11
147.402042999999990
 21
-120.594936000000000
  0
LINE
  8
0
  6
CONTINUOUS
 62
256
 10
147.402042999999990
 20
-120.594936000000000
 11
145.402042999999990
 21
-118.942294000000000
  0
LINE
  8
0
  6
CONTINUOUS
 62
256
 10
145.402042999999990
 20
-121.770720999999990
 11
147.402042999999990
 21
-120.594936000000000
  0
LINE
  8
0
  6
CONTINUOUS
 62
256
 10
147.402042999999990
 20
-120.594936000000000
 11
149.402042999999990
 21
-118.942294000000000
  0
LINE
  8
0
  6
CONTINUOUS
 62
256
 10
136.402042999999990
 20
-130.451013999999990
 11
136.402042999999990
 21
-71.451014000000001
  0
ARC
  8
0
  6
CONTINUOUS
 62
256
 10
213.906888000000010
 20
-109.851014000000010
 40
20.600000000000009
 50
270.000000000000000
 51
304.999999999999940
  0
ARC
  8
0
  6
CONTINUOUS
 62
256
 10
231.802043000000000
 20
-119.294635000000000
 40
2.600000000000007
 50
305.000000000000000
 51
0.000000000000000
  0
LINE
  8
0
  6
CONTINUOUS
 62
256
 10
234.402042999999990
 20
-119.294635000000000
 11
234.402042999999990
 21
-71.451014000000001
  0
LINE
  8
0
  6
CONTINUOUS
 62
256
 10
225.722563000000010
 20
-126.725547000000010
 11
233.293342000000000
 21
-121.424430000000000
  0
LINE
  8
0
  6
CONTINUOUS
 62
256
 10
136.402042999999990
 20
-130.451013999999990
 11
213.906888000000010
 21
-130.451013999999990
  0
LINE
  8
0
  6
CONTINUOUS
 62
256
 10
136.402042999999990
 20
-57.451014000000001
 11
52.402042999999999
 21
-57.451014000000001
  0
LINE
  8
0
  6
CONTINUOUS
 62
256
 10
136.402042999999990
 20
-53.064900000000002
 11
52.402042999999999
 21
-53.064900000000002
  0
LINE
  8
0
  6
CONTINUOUS
 62
256
 10
136.402042999999990
 20
-51.822980000000001
 11
52.402042999999999
 21
-51.822980000000001
  0
LINE
  8
0
  6
CONTINUOUS
 62
256
 10
136.402042999999990
 20
-48.612774999999999
 11
52.402042999999999
 21
-48.612774999999999
  0
LINE
  8
0
  6
CONTINUOUS
 62
256
 10
136.402042999999990
 20
-47.266373000000002
 11
52.402042999999999
 21
-47.266373000000002
  0
LINE
  8
0
  6
CONTINUOUS
 62
256
 10
136.402042999999990
 20
-44.173642000000001
 11
52.402042999999999
 21
-44.173642000000001
  0
LINE
  8
0
  6
CONTINUOUS
 62
256
 10
136.402042999999990
 20
-42.694619000000003
 11
52.402042999999999
 21
-42.694619000000003
  0
LINE
  8
0
  6
CONTINUOUS
 62
256
 10
136.402042999999990
 20
-39.736623000000002
 11
52.402042999999999
 21
-39.736623000000002
  0
LINE
  8
0
  6
CONTINUOUS
 62
256
 10
136.402042999999990
 20
-38.147413999999998
 11
52.402042999999999
 21
-38.147413999999998
  0
LINE
  8
0
  6
CONTINUOUS
 62
256
 10
136.402042999999990
 20
-122.451014000000000
 11
52.402042999999999
 21
-122.451014000000000
  0
LINE
  8
0
  6
CONTINUOUS
 62
256
 10
136.402042999999990
 20
-121.951014000000000
 11
52.402042999999999
 21
-121.951014000000000
  0
LINE
  8
0
  6
CONTINUOUS
 62
256
 10
136.402042999999990
 20
-117.584097000000000
 11
52.402042999999999
 21
-117.584097000000000
  0
LINE
  8
0
  6
CONTINUOUS
 62
256
 10
136.402042999999990
 20
-112.492928000000010
 11
52.402042999999999
 21
-112.492928000000010
  0
LINE
  8
0
  6
CONTINUOUS
 62
256
 10
136.402042999999990
 20
-104.754615000000000
 11
52.402042999999999
 21
-104.754615000000000
  0
LINE
  8
0
  6
CONTINUOUS
 62
256
 10
136.402042999999990
 20
-103.165406000000000
 11
52.402042999999999
 21
-103.165406000000000
  0
LINE
  8
0
  6
CONTINUOUS
 62
256
 10
136.402042999999990
 20
-100.207410000000000
 11
52.402042999999999
 21
-100.207410000000000
  0
LINE
  8
0
  6
CONTINUOUS
 62
256
 10
136.402042999999990
 20
-98.728386999999998
 11
52.402042999999999
 21
-98.728386999999998
  0
LINE
  8
0
  6
CONTINUOUS
 62
256
 10
136.402042999999990
 20
-95.635655999999997
 11
52.402042999999999
 21
-95.635655999999997
  0
LINE
  8
0
  6
CONTINUOUS
 62
256
 10
136.402042999999990
 20
-94.289254000000000
 11
52.402042999999999
 21
-94.289254000000000
  0
LINE
  8
0
  6
CONTINUOUS
 62
256
 10
136.402042999999990
 20
-89.837129000000004
 11
52.402042999999999
 21
-89.837129000000004
  0
LINE
  8
0
  6
CONTINUOUS
 62
256
 10
136.402042999999990
 20
-91.079048999999998
 11
52.402042999999999
 21
-91.079048999999998
  0
LINE
  8
0
  6
CONTINUOUS
 62
256
 10
136.402042999999990
 20
-85.451014000000001
 11
52.402042999999999
 21
-85.451014000000001
  0
LINE
  8
0
  6
CONTINUOUS
 62
256
 10
52.402042999999999
 20
-124.951014000000000
 11
136.402042999999990
 21
-124.951014000000000
  0
LINE
  8
0
  6
CONTINUOUS
 62
256
 10
287.288444000000030
 20
-26.536902999999999
 11
287.288444000000030
 21
-9.536903000000001
  0
LINE
  8
0
  6
CONTINUOUS
 62
256
 10
287.288444000000030
 20
-26.536902999999999
 11
287.288444000000030
 21
-40.536903000000002
  0
LINE
  8
0
  6
CONTINUOUS
 62
256
 10
463.309389000000010
 20
-64.885863000000001
 11
455.255404000000000
 21
-66.305998000000002
  0
LINE
  8
0
  6
CONTINUOUS
 62
256
 10
462.809389000000010
 20
-64.974027000000007
 11
455.255404000000000
 21
-66.305998000000002
  0
LINE
  8
0
  6
CONTINUOUS
 62
256
 10
446.288161000000000
 20
35.340764999999998
 11
446.288161000000000
 21
-22.264108000000000
  0
LINE
  8
0
  6
CONTINUOUS
 62
256
 10
446.288161000000000
 20
-129.536903000000000
 11
446.288161000000000
 21
-120.637921000000010
  0
LINE
  8
0
  6
CONTINUOUS
 62
256
 10
438.288444000000030
 20
-131.036903000000000
 11
438.288444000000030
 21
-127.001889000000010
  0
LINE
  8
0
  6
CONTINUOUS
 62
256
 10
438.288444000000030
 20
-15.900140000000000
 11
438.288444000000030
 21
36.463098000000002
  0
LINE
  8
0
  6
CONTINUOUS
 62
256
 10
356.288727999999990
 20
21.267109000000001
 11
356.288727999999990
 21
-22.264108000000000
  0
LINE
  8
0
  6
CONTINUOUS
 62
256
 10
339.267270999999990
 20
-64.885863000000001
 11
347.321485000000000
 21
-66.306038999999998
  0
LINE
  8
0
  6
CONTINUOUS
 62
256
 10
359.288444000000030
 20
-123.637638000000000
 11
359.288444000000030
 21
-127.169737000000000
  0
LINE
  8
0
  6
CONTINUOUS
 62
256
 10
359.288444000000030
 20
-19.290544000000001
 11
359.288444000000030
 21
32.136054999999999
  0
LINE
  8
0
  6
DASHDOT
 62
256
 10
401.288444000000030
 20
-149.571407999999990
 11
401.288444000000030
 21
40.840591000000003
  0
LINE
  8
0
  6
DASHDOT
 62
256
 10
457.355881000000010
 20
-71.451014000000001
 11
343.980797999999990
 21
-71.451014000000001
  0
LINE
  8
0
  6
CONTINUOUS
 62
256
 10
365.288444000000030
 20
-13.951014000000001
 11
365.288444000000030
 21
13.415649999999999
  0
LINE
  8
0
  6
CONTINUOUS
 62
256
 10
437.288444000000030
 20
-13.951014000000001
 11
437.288444000000030
 21
13.415649999999999
  0
LINE
  8
0
  6
CONTINUOUS
 62
256
 10
398.788444000000030
 20
20.548985999999999
 11
398.788444000000030
 21
20.038568999999999
  0
LINE
  8
0
  6
CONTINUOUS
 62
256
 10
403.788444000000030
 20
20.548985999999999
 11
398.788444000000030
 21
20.548985999999999
  0
LINE
  8
0
  6
CONTINUOUS
 62
256
 10
403.788444000000030
 20
20.548985999999999
 11
403.788444000000030
 21
20.038568999999999
  0
ARC
  8
0
  6
CONTINUOUS
 62
256
 10
432.288444000000030
 20
13.415649999999999
 40
5.000000000000000
 50
0.000000000000000
 51
83.967950999999999
  0
ARC
  8
0
  6
CONTINUOUS
 62
256
 10
370.288444000000030
 20
13.415649999999999
 40
5.000000000000002
 50
96.032049000000001
 51
180.000000000000000
  0
ARC
  8
0
  6
CONTINUOUS
 62
256
 10
401.288444000000030
 20
-279.951013999999990
 40
300.000000000000000
 50
83.967950999999999
 51
96.032049000000001
  0
ARC
  8
0
  6
CONTINUOUS
 62
256
 10
383.632001000000000
 20
-67.951014000000001
 40
1.000000000000000
 50
270.000000000000000
 51
348.787729000000300
  0
LINE
  8
0
  6
CONTINUOUS
 62
256
 10
380.582164999999970
 20
-68.951014000000001
 11
383.632001000000000
 21
-68.951014000000001
  0
ARC
  8
0
  6
CONTINUOUS
 62
256
 10
380.582164999999970
 20
-67.951014000000001
 40
0.999999999999978
 50
170.405932000000040
 51
270.000000000000000
  0
ARC
  8
0
  6
CONTINUOUS
 62
256
 10
375.020593000000020
 20
-67.951014000000001
 40
1.000000000000000
 50
270.000000000000000
 51
352.410458000000010
  0
LINE
  8
0
  6
CONTINUOUS
 62
256
 10
371.996806999999990
 20
-68.951014000000001
 11
375.020593000000020
 21
-68.951014000000001
  0
ARC
  8
0
  6
CONTINUOUS
 62
256
 10
371.996806999999990
 20
-67.951014000000001
 40
1.000000000000019
 50
173.186146000000240
 51
270.000000000000000
  0
ARC
  8
0
  6
CONTINUOUS
 62
256
 10
366.463884000000010
 20
-67.951014000000001
 40
1.000000000000000
 50
270.000000000000000
 51
354.260829999999540
  0
LINE
  8
0
  6
CONTINUOUS
 62
256
 10
363.449972000000000
 20
-68.951014000000001
 11
366.463884000000010
 21
-68.951014000000001
  0
ARC
  8
0
  6
CONTINUOUS
 62
256
 10
363.449972000000000
 20
-67.951014000000001
 40
1.000000000000027
 50
174.715267000000240
 51
270.000000000000000
  0
ARC
  8
0
  6
CONTINUOUS
 62
256
 10
383.611537000000000
 20
-47.833713000000003
 40
0.999999999999984
 50
30.000000000000544
 51
126.813854000000730
  0
LINE
  8
0
  6
CONTINUOUS
 62
256
 10
384.477561999999980
 20
-47.333713000000003
 11
385.989455000000020
 21
-49.952387999999999
  0
ARC
  8
0
  6
CONTINUOUS
 62
256
 10
385.123429999999980
 20
-50.452387999999999
 40
0.999999999999987
 50
307.589541999999030
 51
30.000000000000544
  0
ARC
  8
0
  6
CONTINUOUS
 62
256
 10
379.338119000000010
 20
-40.431936000000000
 40
0.999999999999984
 50
30.000000000000544
 51
125.284733000001220
  0
LINE
  8
0
  6
CONTINUOUS
 62
256
 10
380.204144999999980
 20
-39.931936000000000
 11
381.711100999999990
 21
-42.542060999999997
  0
ARC
  8
0
  6
CONTINUOUS
 62
256
 10
380.845075000000010
 20
-43.042060999999997
 40
1.000000000000004
 50
305.739170000000000
 51
30.000000000000544
  0
ARC
  8
0
  6
CONTINUOUS
 62
256
 10
393.841475000000000
 20
-65.552485000000004
 40
0.999999999999985
 50
321.618271999998970
 51
30.000000000000544
  0
LINE
  8
0
  6
CONTINUOUS
 62
256
 10
393.123380999999990
 20
-62.308709999999998
 11
394.707499999999980
 21
-65.052485000000004
  0
ARC
  8
0
  6
CONTINUOUS
 62
256
 10
389.429133999999980
 20
-57.910086000000000
 40
1.000000000000000
 50
311.212271000000040
 51
30.000000000000544
  0
LINE
  8
0
  6
CONTINUOUS
 62
256
 10
388.770241000000000
 20
-54.768850999999998
 11
390.295159000000010
 21
-57.410086000000000
  0
ARC
  8
0
  6
CONTINUOUS
 62
256
 10
387.904216000000020
 20
-55.268850999999998
 40
0.999999999999984
 50
30.000000000000544
 51
129.594067999999310
  0
ARC
  8
0
  6
CONTINUOUS
 62
256
 10
392.456684000000000
 20
-67.951014000000001
 40
1.000000000000000
 50
270.000000000000000
 51
338.381728000000520
  0
ARC
  8
0
  6
CONTINUOUS
 62
256
 10
401.288444000000030
 20
-71.451014000000001
 40
8.500000000000005
 50
141.618272000000020
 51
158.381728000000040
  0
ARC
  8
0
  6
CONTINUOUS
 62
256
 10
392.257355000000020
 20
-62.808709999999998
 40
0.999999999999984
 50
30.000000000000544
 51
136.260205000000240
  0
LINE
  8
0
  6
CONTINUOUS
 62
256
 10
389.288444000000030
 20
-68.951014000000001
 11
392.456684000000000
 21
-68.951014000000001
  0
ARC
  8
0
  6
CONTINUOUS
 62
256
 10
389.288444000000030
 20
-67.951014000000001
 40
0.999999999999976
 50
163.739794999999330
 51
270.000000000000000
  0
ARC
  8
0
  6
CONTINUOUS
 62
256
 10
401.288444000000030
 20
-71.451014000000001
 40
13.500000000000000
 50
136.260205000000010
 51
163.739794999999960
  0
ARC
  8
0
  6
CONTINUOUS
 62
256
 10
401.288444000000030
 20
-71.451014000000001
 40
17.000000000000014
 50
131.212271000000020
 51
168.787728999999980
  0
ARC
  8
0
  6
CONTINUOUS
 62
256
 10
401.288444000000030
 20
-71.451014000000001
 40
21.999999999999986
 50
129.594067999999940
 51
170.405931999999980
  0
ARC
  8
0
  6
CONTINUOUS
 62
256
 10
401.288444000000030
 20
-71.451014000000001
 40
30.499999999999989
 50
126.813853999999980
 51
173.186145999999980
  0
ARC
  8
0
  6
CONTINUOUS
 62
256
 10
401.288444000000030
 20
-71.451014000000001
 40
25.499999999999996
 50
127.589541999999970
 51
172.410458000000010
  0
ARC
  8
0
  6
CONTINUOUS
 62
256
 10
401.288444000000030
 20
-71.451014000000001
 40
34.000000000000007
 50
125.739170000000040
 51
174.260830000000000
  0
ARC
  8
0
  6
CONTINUOUS
 62
256
 10
401.288444000000030
 20
-71.451014000000001
 40
39.000000000000000
 50
125.284733000000000
 51
174.715267000000010
  0
ARC
  8
0
  6
CONTINUOUS
 62
256
 10
389.673715000000020
 20
-44.333713000000003
 40
1.000000000000000
 50
113.186146000000120
 51
210.000000000000510
  0
LINE
  8
0
  6
CONTINUOUS
 62
256
 10
388.807688999999980
 20
-44.833713000000003
 11
390.319582000000030
 21
-47.452387999999999
  0
ARC
  8
0
  6
CONTINUOUS
 62
256
 10
391.185608000000000
 20
-46.952387999999999
 40
0.999999999999984
 50
210.000000000000510
 51
292.410458000000630
  0
ARC
  8
0
  6
CONTINUOUS
 62
256
 10
385.400297000000020
 20
-36.931936000000000
 40
1.000000000000004
 50
114.715267000000150
 51
210.000000000000510
  0
LINE
  8
0
  6
CONTINUOUS
 62
256
 10
384.534271999999990
 20
-37.431936000000000
 11
386.041227999999990
 21
-40.042060999999997
  0
ARC
  8
0
  6
CONTINUOUS
 62
256
 10
386.907253000000030
 20
-39.542060999999997
 40
0.999999999999984
 50
210.000000000000510
 51
294.260829999998690
  0
ARC
  8
0
  6
CONTINUOUS
 62
256
 10
399.903653000000020
 20
-62.052484999999997
 40
0.999999999999984
 50
210.000000000000510
 51
278.381727999998870
  0
LINE
  8
0
  6
CONTINUOUS
 62
256
 10
397.453508000000000
 20
-59.808709999999998
 11
399.037626999999990
 21
-62.552484999999997
  0
ARC
  8
0
  6
CONTINUOUS
 62
256
 10
395.491311999999990
 20
-54.410086000000000
 40
0.999999999999984
 50
210.000000000000510
 51
288.787729000000870
  0
LINE
  8
0
  6
CONTINUOUS
 62
256
 10
393.100368000000000
 20
-52.268850999999998
 11
394.625286000000020
 21
-54.910086000000000
  0
ARC
  8
0
  6
CONTINUOUS
 62
256
 10
393.966393999999980
 20
-51.768850999999998
 40
0.999999999999999
 50
110.405931999999720
 51
210.000000000000510
  0
ARC
  8
0
  6
CONTINUOUS
 62
256
 10
402.673235999999970
 20
-62.052484999999997
 40
0.999999999999998
 50
261.618272000001130
 51
329.999999999999490
  0
ARC
  8
0
  6
CONTINUOUS
 62
256
 10
401.288444000000030
 20
-71.451014000000001
 40
8.500000000000002
 50
81.618271999999948
 51
98.381728000000052
  0
ARC
  8
0
  6
CONTINUOUS
 62
256
 10
398.319532999999980
 20
-59.308709999999998
 40
1.000000000000004
 50
103.739795000001370
 51
210.000000000000510
  0
LINE
  8
0
  6
CONTINUOUS
 62
256
 10
405.123380999999990
 20
-59.808709999999998
 11
403.539261000000010
 21
-62.552484999999997
  0
ARC
  8
0
  6
CONTINUOUS
 62
256
 10
404.257355000000020
 20
-59.308709999999998
 40
0.999999999999984
 50
329.999999999999490
 51
76.260204999998635
  0
ARC
  8
0
  6
CONTINUOUS
 62
256
 10
401.288444000000030
 20
-71.451014000000001
 40
13.499999999999996
 50
76.260205000000070
 51
103.739794999999940
  0
ARC
  8
0
  6
CONTINUOUS
 62
256
 10
407.085577000000000
 20
-54.410086000000000
 40
1.000000000000004
 50
251.212270999999130
 51
329.999999999999490
  0
LINE
  8
0
  6
CONTINUOUS
 62
256
 10
409.476520999999990
 20
-52.268850999999998
 11
407.951602999999980
 21
-54.910086000000000
  0
ARC
  8
0
  6
CONTINUOUS
 62
256
 10
401.288444000000030
 20
-71.451014000000001
 40
16.999999999999993
 50
71.212271000000044
 51
108.787728999999960
  0
ARC
  8
0
  6
CONTINUOUS
 62
256
 10
408.610495000000010
 20
-51.768850999999998
 40
0.999999999999984
 50
329.999999999999490
 51
69.594068000000291
  0
ARC
  8
0
  6
CONTINUOUS
 62
256
 10
411.391280999999990
 20
-46.952387999999999
 40
1.000000000000003
 50
247.589541999999370
 51
329.999999999999490
  0
ARC
  8
0
  6
CONTINUOUS
 62
256
 10
415.669636000000030
 20
-39.542060999999997
 40
0.999999999999992
 50
245.739170000001340
 51
329.999999999999490
  0
ARC
  8
0
  6
CONTINUOUS
 62
256
 10
401.288444000000030
 20
-71.451014000000001
 40
21.999999999999996
 50
69.594067999999993
 51
110.405932000000020
  0
LINE
  8
0
  6
CONTINUOUS
 62
256
 10
413.769199000000010
 20
-44.833713000000003
 11
412.257306000000030
 21
-47.452387999999999
  0
ARC
  8
0
  6
CONTINUOUS
 62
256
 10
412.903173999999980
 20
-44.333713000000003
 40
0.999999999999984
 50
329.999999999999490
 51
66.813853999999878
  0
ARC
  8
0
  6
CONTINUOUS
 62
256
 10
401.288444000000030
 20
-71.451014000000001
 40
30.500000000000004
 50
66.813853999999992
 51
113.186146000000010
  0
ARC
  8
0
  6
CONTINUOUS
 62
256
 10
401.288444000000030
 20
-71.451014000000001
 40
25.500000000000007
 50
67.589541999999966
 51
112.410458000000050
  0
ARC
  8
0
  6
CONTINUOUS
 62
256
 10
401.288444000000030
 20
-71.451014000000001
 40
34.000000000000000
 50
65.739169999999987
 51
114.260830000000010
  0
ARC
  8
0
  6
CONTINUOUS
 62
256
 10
401.288444000000030
 20
-71.451014000000001
 40
38.999999999999993
 50
65.284733000000031
 51
114.715266999999980
  0
LINE
  8
0
  6
CONTINUOUS
 62
256
 10
418.042617000000010
 20
-37.431936000000000
 11
416.535661000000000
 21
-40.042060999999997
  0
ARC
  8
0
  6
CONTINUOUS
 62
256
 10
417.176592000000030
 20
-36.931936000000000
 40
0.999999999999984
 50
329.999999999999490
 51
65.284732999999861
  0
CIRCLE
  8
0
  6
CONTINUOUS
 62
256
 10
401.288444000000030
 20
-71.451014000000001
 40
5.000000000000000
  0
ARC
  8
0
  6
CONTINUOUS
 62
256
 10
423.238769999999990
 20
-40.431936000000000
 40
1.000000000000011
 50
54.715266999998782
 51
149.999999999999460
  0
ARC
  8
0
  6
CONTINUOUS
 62
256
 10
421.731812999999990
 20
-43.042060999999997
 40
0.999999999999984
 50
149.999999999999460
 51
234.260830000000000
  0
ARC
  8
0
  6
CONTINUOUS
 62
256
 10
436.113004999999990
 20
-67.951014000000001
 40
0.999999999999978
 50
185.739170000000430
 51
270.000000000000000
  0
ARC
  8
0
  6
CONTINUOUS
 62
256
 10
439.126916999999990
 20
-67.951014000000001
 40
1.000000000000000
 50
270.000000000000000
 51
5.284732999999778
  0
ARC
  8
0
  6
CONTINUOUS
 62
256
 10
427.556294999999980
 20
-67.951014000000001
 40
0.999999999999990
 50
187.589541999999990
 51
270.000000000000000
  0
ARC
  8
0
  6
CONTINUOUS
 62
256
 10
418.965352000000000
 20
-47.833713000000003
 40
1.000000000000011
 50
53.186145999999269
 51
149.999999999999460
  0
ARC
  8
0
  6
CONTINUOUS
 62
256
 10
417.453459000000010
 20
-50.452387999999999
 40
0.999999999999984
 50
149.999999999999460
 51
232.410458000000890
  0
ARC
  8
0
  6
CONTINUOUS
 62
256
 10
430.580081000000010
 20
-67.951014000000001
 40
1.000000000000000
 50
270.000000000000000
 51
6.813853999999752
  0
ARC
  8
0
  6
CONTINUOUS
 62
256
 10
421.994724000000020
 20
-67.951014000000001
 40
1.000000000000000
 50
270.000000000000000
 51
9.594067999999961
  0
ARC
  8
0
  6
CONTINUOUS
 62
256
 10
418.944887999999990
 20
-67.951014000000001
 40
1.000000000000016
 50
191.212270999999730
 51
270.000000000000000
  0
ARC
  8
0
  6
CONTINUOUS
 62
256
 10
414.672672999999970
 20
-55.268850999999998
 40
0.999999999999988
 50
50.405932000000682
 51
149.999999999999460
  0
ARC
  8
0
  6
CONTINUOUS
 62
256
 10
413.147755000000020
 20
-57.910086000000000
 40
0.999999999999984
 50
149.999999999999460
 51
228.787728999999960
  0
ARC
  8
0
  6
CONTINUOUS
 62
256
 10
410.319532999999980
 20
-62.808709999999998
 40
1.000000000000005
 50
43.739794999999773
 51
149.999999999999460
  0
ARC
  8
0
  6
CONTINUOUS
 62
256
 10
413.288444000000030
 20
-67.951014000000001
 40
1.000000000000000
 50
270.000000000000000
 51
16.260205000000671
  0
ARC
  8
0
  6
CONTINUOUS
 62
256
 10
410.120205000000000
 20
-67.951014000000001
 40
1.000000000000013
 50
201.618271999999450
 51
270.000000000000000
  0
ARC
  8
0
  6
CONTINUOUS
 62
256
 10
408.735413999999990
 20
-65.552485000000004
 40
0.999999999999984
 50
149.999999999999460
 51
218.381728000001000
  0
ARC
  8
0
  6
CONTINUOUS
 62
256
 10
401.288444000000030
 20
-71.451014000000001
 40
38.999999999999986
 50
5.284733000000007
 51
54.715266999999990
  0
ARC
  8
0
  6
CONTINUOUS
 62
256
 10
401.288444000000030
 20
-71.451014000000001
 40
30.499999999999986
 50
6.813854000000005
 51
53.186146000000036
  0
ARC
  8
0
  6
CONTINUOUS
 62
256
 10
401.288444000000030
 20
-71.451014000000001
 40
34.000000000000028
 50
5.739170000000004
 51
54.260829999999970
  0
ARC
  8
0
  6
CONTINUOUS
 62
256
 10
401.288444000000030
 20
-71.451014000000001
 40
25.500000000000011
 50
7.589541999999985
 51
52.410458000000027
  0
ARC
  8
0
  6
CONTINUOUS
 62
256
 10
401.288444000000030
 20
-71.451014000000001
 40
21.999999999999979
 50
9.594068000000020
 51
50.405932000000057
  0
ARC
  8
0
  6
CONTINUOUS
 62
256
 10
401.288444000000030
 20
-71.451014000000001
 40
16.999999999999993
 50
11.212271000000010
 51
48.787728999999985
  0
ARC
  8
0
  6
CONTINUOUS
 62
256
 10
401.288444000000030
 20
-71.451014000000001
 40
13.499999999999989
 50
16.260205000000035
 51
43.739795000000001
  0
ARC
  8
0
  6
CONTINUOUS
 62
256
 10
401.288444000000030
 20
-71.451014000000001
 40
8.500000000000016
 50
21.618271999999980
 51
38.381727999999960
  0
LINE
  8
0
  6
CONTINUOUS
 62
256
 10
418.099326000000020
 20
-47.333713000000003
 11
416.587432999999980
 21
-49.952387999999999
  0
LINE
  8
0
  6
CONTINUOUS
 62
256
 10
439.126916999999990
 20
-68.951014000000001
 11
436.113004999999990
 21
-68.951014000000001
  0
LINE
  8
0
  6
CONTINUOUS
 62
256
 10
422.372744000000010
 20
-39.931936000000000
 11
420.865788000000010
 21
-42.542060999999997
  0
LINE
  8
0
  6
CONTINUOUS
 62
256
 10
413.806648000000000
 20
-54.768850999999998
 11
412.281729999999980
 21
-57.410086000000000
  0
LINE
  8
0
  6
CONTINUOUS
 62
256
 10
409.453508000000000
 20
-62.308709999999998
 11
407.869388000000010
 21
-65.052485000000004
  0
LINE
  8
0
  6
CONTINUOUS
 62
256
 10
413.288444000000030
 20
-68.951014000000001
 11
410.120205000000000
 21
-68.951014000000001
  0
LINE
  8
0
  6
CONTINUOUS
 62
256
 10
421.994724000000020
 20
-68.951014000000001
 11
418.944887999999990
 21
-68.951014000000001
  0
LINE
  8
0
  6
CONTINUOUS
 62
256
 10
430.580081000000010
 20
-68.951014000000001
 11
427.556294999999980
 21
-68.951014000000001
  0
ARC
  8
0
  6
CONTINUOUS
 62
256
 10
401.288444000000030
 20
-71.451014000000001
 40
39.000000000000000
 50
245.284732999999960
 51
294.715266999999980
  0
ARC
  8
0
  6
CONTINUOUS
 62
256
 10
401.288444000000030
 20
-71.451014000000001
 40
34.000000000000000
 50
245.739170000000000
 51
294.260830000000000
  0
ARC
  8
0
  6
CONTINUOUS
 62
256
 10
401.288444000000030
 20
-71.451014000000001
 40
25.500000000000007
 50
247.589541999999940
 51
292.410458000000010
  0
ARC
  8
0
  6
CONTINUOUS
 62
256
 10
401.288444000000030
 20
-71.451014000000001
 40
30.499999999999996
 50
246.813853999999990
 51
293.186146000000010
  0
ARC
  8
0
  6
CONTINUOUS
 62
256
 10
401.288444000000030
 20
-71.451014000000001
 40
21.999999999999996
 50
249.594067999999990
 51
290.405932000000010
  0
ARC
  8
0
  6
CONTINUOUS
 62
256
 10
401.288444000000030
 20
-71.451014000000001
 40
16.999999999999993
 50
251.212271000000040
 51
288.787728999999960
  0
ARC
  8
0
  6
CONTINUOUS
 62
256
 10
401.288444000000030
 20
-71.451014000000001
 40
13.499999999999989
 50
256.260205000000040
 51
283.739794999999960
  0
ARC
  8
0
  6
CONTINUOUS
 62
256
 10
398.319532999999980
 20
-83.593318999999994
 40
0.999999999999984
 50
149.999999999999460
 51
256.260204999998730
  0
ARC
  8
0
  6
CONTINUOUS
 62
256
 10
393.966393999999980
 20
-91.133178000000001
 40
0.999999999999984
 50
149.999999999999460
 51
249.594068000000160
  0
LINE
  8
0
  6
CONTINUOUS
 62
256
 10
393.100368000000000
 20
-90.633178000000001
 11
394.625286000000020
 21
-87.991943000000006
  0
ARC
  8
0
  6
CONTINUOUS
 62
256
 10
395.491311999999990
 20
-88.491943000000006
 40
1.000000000000010
 50
71.212270999999262
 51
149.999999999999460
  0
LINE
  8
0
  6
CONTINUOUS
 62
256
 10
397.453508000000000
 20
-83.093318999999994
 11
399.037626999999990
 21
-80.349543999999995
  0
ARC
  8
0
  6
CONTINUOUS
 62
256
 10
399.903653000000020
 20
-80.849543999999995
 40
0.999999999999998
 50
81.618272000001099
 51
149.999999999999460
  0
ARC
  8
0
  6
CONTINUOUS
 62
256
 10
386.907253000000030
 20
-103.359967999999990
 40
0.999999999999992
 50
65.739170000001337
 51
149.999999999999460
  0
LINE
  8
0
  6
CONTINUOUS
 62
256
 10
384.534271999999990
 20
-105.470093000000010
 11
386.041227999999990
 21
-102.859967999999990
  0
ARC
  8
0
  6
CONTINUOUS
 62
256
 10
385.400297000000020
 20
-105.970093000000010
 40
0.999999999999984
 50
149.999999999999460
 51
245.284732999999870
  0
ARC
  8
0
  6
CONTINUOUS
 62
256
 10
391.185608000000000
 20
-95.949641000000000
 40
1.000000000000009
 50
67.589541999999554
 51
149.999999999999460
  0
LINE
  8
0
  6
CONTINUOUS
 62
256
 10
388.807688999999980
 20
-98.068315999999996
 11
390.319582000000030
 21
-95.449641000000000
  0
ARC
  8
0
  6
CONTINUOUS
 62
256
 10
389.673715000000020
 20
-98.568315999999996
 40
0.999999999999984
 50
149.999999999999460
 51
246.813853999999880
  0
ARC
  8
0
  6
CONTINUOUS
 62
256
 10
401.288444000000030
 20
-71.451014000000001
 40
38.999999999999986
 50
185.284732999999990
 51
234.715266999999980
  0
ARC
  8
0
  6
CONTINUOUS
 62
256
 10
401.288444000000030
 20
-71.451014000000001
 40
34.000000000000028
 50
185.739169999999970
 51
234.260829999999970
  0
ARC
  8
0
  6
CONTINUOUS
 62
256
 10
401.288444000000030
 20
-71.451014000000001
 40
25.500000000000011
 50
187.589541999999990
 51
232.410458000000030
  0
ARC
  8
0
  6
CONTINUOUS
 62
256
 10
401.288444000000030
 20
-71.451014000000001
 40
30.499999999999986
 50
186.813853999999990
 51
233.186146000000040
  0
ARC
  8
0
  6
CONTINUOUS
 62
256
 10
401.288444000000030
 20
-71.451014000000001
 40
21.999999999999975
 50
189.594067999999960
 51
230.405932000000060
  0
ARC
  8
0
  6
CONTINUOUS
 62
256
 10
401.288444000000030
 20
-71.451014000000001
 40
16.999999999999989
 50
191.212270999999960
 51
228.787728999999960
  0
ARC
  8
0
  6
CONTINUOUS
 62
256
 10
401.288444000000030
 20
-71.451014000000001
 40
13.499999999999989
 50
196.260205000000010
 51
223.739794999999990
  0
ARC
  8
0
  6
CONTINUOUS
 62
256
 10
389.288444000000030
 20
-74.951014000000001
 40
1.000000000000000
 50
90.000000000000000
 51
196.260205000000670
  0
LINE
  8
0
  6
CONTINUOUS
 62
256
 10
389.288444000000030
 20
-73.951014000000001
 11
392.456684000000000
 21
-73.951014000000001
  0
ARC
  8
0
  6
CONTINUOUS
 62
256
 10
392.257355000000020
 20
-80.093318999999994
 40
1.000000000000005
 50
223.739794999999760
 51
329.999999999999490
  0
ARC
  8
0
  6
CONTINUOUS
 62
256
 10
401.288444000000030
 20
-71.451014000000001
 40
8.500000000000016
 50
201.618271999999960
 51
218.381727999999950
  0
ARC
  8
0
  6
CONTINUOUS
 62
256
 10
392.456684000000000
 20
-74.951014000000001
 40
1.000000000000013
 50
21.618271999999475
 51
90.000000000000000
  0
ARC
  8
0
  6
CONTINUOUS
 62
256
 10
387.904216000000020
 20
-87.633178000000001
 40
0.999999999999988
 50
230.405932000000690
 51
329.999999999999490
  0
LINE
  8
0
  6
CONTINUOUS
 62
256
 10
388.770241000000000
 20
-88.133178000000001
 11
390.295159000000010
 21
-85.491943000000006
  0
ARC
  8
0
  6
CONTINUOUS
 62
256
 10
389.429133999999980
 20
-84.991943000000006
 40
0.999999999999984
 50
329.999999999999490
 51
48.787728999999715
  0
LINE
  8
0
  6
CONTINUOUS
 62
256
 10
393.123380999999990
 20
-80.593318999999994
 11
394.707499999999980
 21
-77.849543999999995
  0
ARC
  8
0
  6
CONTINUOUS
 62
256
 10
393.841475000000000
 20
-77.349543999999995
 40
0.999999999999984
 50
329.999999999999490
 51
38.381728000001026
  0
ARC
  8
0
  6
CONTINUOUS
 62
256
 10
380.845075000000010
 20
-99.859967999999995
 40
0.999999999999984
 50
329.999999999999490
 51
54.260829999999778
  0
LINE
  8
0
  6
CONTINUOUS
 62
256
 10
380.204144999999980
 20
-102.970093000000010
 11
381.711100999999990
 21
-100.359967999999990
  0
ARC
  8
0
  6
CONTINUOUS
 62
256
 10
379.338119000000010
 20
-102.470093000000010
 40
1.000000000000016
 50
234.715266999999020
 51
329.999999999999490
  0
ARC
  8
0
  6
CONTINUOUS
 62
256
 10
385.123429999999980
 20
-92.449641000000000
 40
0.999999999999984
 50
329.999999999999490
 51
52.410458000001171
  0
LINE
  8
0
  6
CONTINUOUS
 62
256
 10
384.477561999999980
 20
-95.568315999999996
 11
385.989455000000020
 21
-92.949641000000000
  0
ARC
  8
0
  6
CONTINUOUS
 62
256
 10
383.611537000000000
 20
-95.068315999999996
 40
1.000000000000011
 50
233.186145999999270
 51
329.999999999999490
  0
ARC
  8
0
  6
CONTINUOUS
 62
256
 10
363.449972000000000
 20
-74.951014000000001
 40
1.000000000000000
 50
90.000000000000000
 51
185.284732999999760
  0
LINE
  8
0
  6
CONTINUOUS
 62
256
 10
363.449972000000000
 20
-73.951014000000001
 11
366.463884000000010
 21
-73.951014000000001
  0
ARC
  8
0
  6
CONTINUOUS
 62
256
 10
366.463884000000010
 20
-74.951014000000001
 40
0.999999999999978
 50
5.739170000000447
 51
90.000000000000000
  0
ARC
  8
0
  6
CONTINUOUS
 62
256
 10
371.996806999999990
 20
-74.951014000000001
 40
1.000000000000000
 50
90.000000000000000
 51
186.813853999999760
  0
LINE
  8
0
  6
CONTINUOUS
 62
256
 10
371.996806999999990
 20
-73.951014000000001
 11
375.020593000000020
 21
-73.951014000000001
  0
ARC
  8
0
  6
CONTINUOUS
 62
256
 10
375.020593000000020
 20
-74.951014000000001
 40
0.999999999999990
 50
7.589541999999997
 51
90.000000000000000
  0
ARC
  8
0
  6
CONTINUOUS
 62
256
 10
380.582164999999970
 20
-74.951014000000001
 40
1.000000000000000
 50
90.000000000000000
 51
189.594067999999960
  0
LINE
  8
0
  6
CONTINUOUS
 62
256
 10
380.582164999999970
 20
-73.951014000000001
 11
383.632001000000000
 21
-73.951014000000001
  0
ARC
  8
0
  6
CONTINUOUS
 62
256
 10
383.632001000000000
 20
-74.951014000000001
 40
1.000000000000016
 50
11.212270999999729
 51
90.000000000000000
  0
ARC
  8
0
  6
CONTINUOUS
 62
256
 10
404.257355000000020
 20
-83.593318999999994
 40
1.000000000000011
 50
283.739795000001270
 51
30.000000000000544
  0
LINE
  8
0
  6
CONTINUOUS
 62
256
 10
405.123380999999990
 20
-83.093318999999994
 11
403.539261000000010
 21
-80.349543999999995
  0
ARC
  8
0
  6
CONTINUOUS
 62
256
 10
401.288444000000030
 20
-71.451014000000001
 40
8.500000000000002
 50
261.618271999999930
 51
278.381728000000070
  0
ARC
  8
0
  6
CONTINUOUS
 62
256
 10
402.673235999999970
 20
-80.849543999999995
 40
0.999999999999984
 50
30.000000000000544
 51
98.381727999998901
  0
LINE
  8
0
  6
CONTINUOUS
 62
256
 10
430.580081000000010
 20
-73.951014000000001
 11
427.556294999999980
 21
-73.951014000000001
  0
LINE
  8
0
  6
CONTINUOUS
 62
256
 10
421.994724000000020
 20
-73.951014000000001
 11
418.944887999999990
 21
-73.951014000000001
  0
LINE
  8
0
  6
CONTINUOUS
 62
256
 10
413.288444000000030
 20
-73.951014000000001
 11
410.120205000000000
 21
-73.951014000000001
  0
LINE
  8
0
  6
CONTINUOUS
 62
256
 10
409.453508000000000
 20
-80.593318999999994
 11
407.869388000000010
 21
-77.849543999999995
  0
LINE
  8
0
  6
CONTINUOUS
 62
256
 10
413.806648000000000
 20
-88.133178000000001
 11
412.281729999999980
 21
-85.491943000000006
  0
LINE
  8
0
  6
CONTINUOUS
 62
256
 10
422.372744000000010
 20
-102.970093000000010
 11
420.865788000000010
 21
-100.359967999999990
  0
LINE
  8
0
  6
CONTINUOUS
 62
256
 10
418.099326000000020
 20
-95.568315999999996
 11
416.587432999999980
 21
-92.949641000000000
  0
ARC
  8
0
  6
CONTINUOUS
 62
256
 10
401.288444000000030
 20
-71.451014000000001
 40
8.500000000000005
 50
321.618272000000050
 51
338.381728000000010
  0
ARC
  8
0
  6
CONTINUOUS
 62
256
 10
401.288444000000030
 20
-71.451014000000001
 40
13.500000000000004
 50
316.260204999999980
 51
343.739794999999960
  0
ARC
  8
0
  6
CONTINUOUS
 62
256
 10
401.288444000000030
 20
-71.451014000000001
 40
17.000000000000014
 50
311.212270999999990
 51
348.787729000000010
  0
ARC
  8
0
  6
CONTINUOUS
 62
256
 10
401.288444000000030
 20
-71.451014000000001
 40
21.999999999999986
 50
309.594067999999940
 51
350.405932000000010
  0
ARC
  8
0
  6
CONTINUOUS
 62
256
 10
401.288444000000030
 20
-71.451014000000001
 40
25.499999999999996
 50
307.589541999999990
 51
352.410458000000010
  0
ARC
  8
0
  6
CONTINUOUS
 62
256
 10
401.288444000000030
 20
-71.451014000000001
 40
33.999999999999986
 50
305.739169999999940
 51
354.260830000000000
  0
ARC
  8
0
  6
CONTINUOUS
 62
256
 10
401.288444000000030
 20
-71.451014000000001
 40
30.500000000000014
 50
306.813854000000050
 51
353.186146000000010
  0
ARC
  8
0
  6
CONTINUOUS
 62
256
 10
401.288444000000030
 20
-71.451014000000001
 40
39.000000000000014
 50
305.284733000000020
 51
354.715266999999980
  0
ARC
  8
0
  6
CONTINUOUS
 62
256
 10
408.735413999999990
 20
-77.349543999999995
 40
0.999999999999985
 50
141.618271999999000
 51
210.000000000000510
  0
ARC
  8
0
  6
CONTINUOUS
 62
256
 10
410.120205000000000
 20
-74.951014000000001
 40
1.000000000000000
 50
90.000000000000000
 51
158.381728000000550
  0
ARC
  8
0
  6
CONTINUOUS
 62
256
 10
413.288444000000030
 20
-74.951014000000001
 40
0.999999999999976
 50
343.739794999999330
 51
90.000000000000000
  0
ARC
  8
0
  6
CONTINUOUS
 62
256
 10
410.319532999999980
 20
-80.093318999999994
 40
0.999999999999984
 50
210.000000000000510
 51
316.260205000000270
  0
ARC
  8
0
  6
CONTINUOUS
 62
256
 10
413.147755000000020
 20
-84.991943000000006
 40
1.000000000000006
 50
131.212270999999760
 51
210.000000000000510
  0
ARC
  8
0
  6
CONTINUOUS
 62
256
 10
414.672672999999970
 20
-87.633178000000001
 40
0.999999999999984
 50
210.000000000000510
 51
309.594067999999310
  0
ARC
  8
0
  6
CONTINUOUS
 62
256
 10
418.944887999999990
 20
-74.951014000000001
 40
1.000000000000000
 50
90.000000000000000
 51
168.787729000000270
  0
ARC
  8
0
  6
CONTINUOUS
 62
256
 10
421.994724000000020
 20
-74.951014000000001
 40
0.999999999999978
 50
350.405932000000010
 51
90.000000000000000
  0
ARC
  8
0
  6
CONTINUOUS
 62
256
 10
417.453459000000010
 20
-92.449641000000000
 40
0.999999999999993
 50
127.589541999998830
 51
210.000000000000510
  0
ARC
  8
0
  6
CONTINUOUS
 62
256
 10
418.965352000000000
 20
-95.068315999999996
 40
0.999999999999984
 50
210.000000000000510
 51
306.813854000000730
  0
ARC
  8
0
  6
CONTINUOUS
 62
256
 10
427.556294999999980
 20
-74.951014000000001
 40
1.000000000000000
 50
90.000000000000000
 51
172.410458000000010
  0
ARC
  8
0
  6
CONTINUOUS
 62
256
 10
421.731812999999990
 20
-99.859967999999995
 40
0.999999999999998
 50
125.739170000000210
 51
210.000000000000510
  0
ARC
  8
0
  6
CONTINUOUS
 62
256
 10
423.238769999999990
 20
-102.470093000000010
 40
0.999999999999984
 50
210.000000000000510
 51
305.284733000000980
  0
ARC
  8
0
  6
CONTINUOUS
 62
256
 10
417.176592000000030
 20
-105.970093000000010
 40
1.000000000000004
 50
294.715267000000150
 51
30.000000000000544
  0
LINE
  8
0
  6
CONTINUOUS
 62
256
 10
418.042617000000010
 20
-105.470093000000010
 11
416.535661000000000
 21
-102.859967999999990
  0
ARC
  8
0
  6
CONTINUOUS
 62
256
 10
412.903173999999980
 20
-98.568315999999996
 40
1.000000000000000
 50
293.186146000000120
 51
30.000000000000544
  0
LINE
  8
0
  6
CONTINUOUS
 62
256
 10
413.769199000000010
 20
-98.068315999999996
 11
412.257306000000030
 21
-95.449641000000000
  0
ARC
  8
0
  6
CONTINUOUS
 62
256
 10
415.669636000000030
 20
-103.359967999999990
 40
0.999999999999984
 50
30.000000000000544
 51
114.260829999998650
  0
ARC
  8
0
  6
CONTINUOUS
 62
256
 10
411.391280999999990
 20
-95.949641000000000
 40
0.999999999999984
 50
30.000000000000544
 51
112.410458000000460
  0
ARC
  8
0
  6
CONTINUOUS
 62
256
 10
408.610495000000010
 20
-91.133178000000001
 40
0.999999999999993
 50
290.405931999999840
 51
30.000000000000544
  0
LINE
  8
0
  6
CONTINUOUS
 62
256
 10
409.476520999999990
 20
-90.633178000000001
 11
407.951602999999980
 21
-87.991943000000006
  0
ARC
  8
0
  6
CONTINUOUS
 62
256
 10
407.085577000000000
 20
-88.491943000000006
 40
0.999999999999984
 50
30.000000000000544
 51
108.787729000000750
  0
LINE
  8
0
  6
CONTINUOUS
 62
256
 10
439.126916999999990
 20
-73.951014000000001
 11
436.113004999999990
 21
-73.951014000000001
  0
ARC
  8
0
  6
CONTINUOUS
 62
256
 10
430.580081000000010
 20
-74.951014000000001
 40
1.000000000000019
 50
353.186146000000240
 51
90.000000000000000
  0
ARC
  8
0
  6
CONTINUOUS
 62
256
 10
439.126916999999990
 20
-74.951014000000001
 40
1.000000000000027
 50
354.715267000000210
 51
90.000000000000000
  0
ARC
  8
0
  6
CONTINUOUS
 62
256
 10
436.113004999999990
 20
-74.951014000000001
 40
1.000000000000000
 50
90.000000000000000
 51
174.260829999999570
  0
ARC
  8
0
  6
CONTINUOUS
 62
256
 10
747.888444000000050
 20
-71.451014000000001
 40
400.600000000000080
 50
174.256317999999990
 51
180.000000000000000
  0
ARC
  8
0
  6
CONTINUOUS
 62
256
 10
355.866497999999980
 20
-32.020147000000001
 40
6.600000000000019
 50
135.000000000000140
 51
174.256317999999960
  0
ARC
  8
0
  6
CONTINUOUS
 62
256
 10
747.888444000000050
 20
-71.451014000000001
 40
390.797000000000030
 50
174.582035999999990
 51
180.000000000000000
  0
ARC
  8
0
  6
CONTINUOUS
 62
256
 10
361.823961999999990
 20
-34.835050000000003
 40
3.000000000000014
 50
135.000000000000200
 51
174.582035999999930
  0
ARC
  8
0
  6
CONTINUOUS
 62
256
 10
440.752926000000000
 20
-34.835050000000003
 40
2.999999999999997
 50
5.417964000000066
 51
44.999999999999808
  0
ARC
  8
0
  6
CONTINUOUS
 62
256
 10
54.688443999999997
 20
-71.451014000000001
 40
390.797000000000030
 50
0.000000000000000
 51
5.417964000000000
  0
ARC
  8
0
  6
CONTINUOUS
 62
256
 10
424.828241999999990
 20
-44.079124000000000
 40
20.797000000000008
 50
44.999999999999979
 51
84.998349999999959
  0
LINE
  8
0
  6
CONTINUOUS
 62
256
 10
439.533942000000020
 20
-29.373424000000000
 11
442.874247000000030
 21
-32.713729000000001
  0
ARC
  8
0
  6
CONTINUOUS
 62
256
 10
401.288444000000030
 20
-313.051014000000010
 40
290.797000000000030
 50
84.998350000000002
 51
90.000000000000000
  0
ARC
  8
0
  6
CONTINUOUS
 62
256
 10
440.752926000000000
 20
-108.066979000000000
 40
3.000000000000014
 50
315.000000000000230
 51
354.582036000000070
  0
ARC
  8
0
  6
CONTINUOUS
 62
256
 10
54.688443999999997
 20
-71.451014000000001
 40
390.797000000000030
 50
354.582036000000020
 51
0.000000000000000
  0
ARC
  8
0
  6
CONTINUOUS
 62
256
 10
424.828241999999990
 20
-98.822905000000006
 40
20.797000000000001
 50
275.001650000000040
 51
315.000000000000060
  0
LINE
  8
0
  6
CONTINUOUS
 62
256
 10
439.533942000000020
 20
-113.528605000000000
 11
442.874247000000030
 21
-110.188300000000000
  0
ARC
  8
0
  6
CONTINUOUS
 62
256
 10
401.288444000000030
 20
170.148986000000010
 40
290.797000000000030
 50
270.000000000000000
 51
275.001649999999980
  0
ARC
  8
0
  6
CONTINUOUS
 62
256
 10
361.823961999999990
 20
-108.066979000000000
 40
2.999999999999996
 50
185.417963999999930
 51
224.999999999999800
  0
ARC
  8
0
  6
CONTINUOUS
 62
256
 10
747.888444000000050
 20
-71.451014000000001
 40
390.797000000000030
 50
180.000000000000000
 51
185.417963999999980
  0
ARC
  8
0
  6
CONTINUOUS
 62
256
 10
377.748647000000010
 20
-98.822905000000006
 40
20.797000000000008
 50
224.999999999999970
 51
264.998350000000070
  0
LINE
  8
0
  6
CONTINUOUS
 62
256
 10
363.042947000000030
 20
-113.528605000000000
 11
359.702642000000030
 21
-110.188300000000000
  0
ARC
  8
0
  6
CONTINUOUS
 62
256
 10
401.288444000000030
 20
170.148986000000010
 40
290.797000000000030
 50
264.998350000000070
 51
270.000000000000000
  0
ARC
  8
0
  6
CONTINUOUS
 62
256
 10
373.224688000000010
 20
-34.460946999999997
 40
20.600000000000005
 50
95.752283000000077
 51
135.000000000000000
  0
LINE
  8
0
  6
CONTINUOUS
 62
256
 10
358.658288000000030
 20
-19.894548000000000
 11
351.199592999999990
 21
-27.353242999999999
  0
ARC
  8
0
  6
CONTINUOUS
 62
256
 10
401.288444000000030
 20
-313.051014000000010
 40
300.600000000000020
 50
90.000000000000000
 51
95.752283000000006
  0
ARC
  8
0
  6
CONTINUOUS
 62
256
 10
373.224688000000010
 20
-34.460946999999997
 40
10.797000000000002
 50
95.752283000000034
 51
135.000000000000060
  0
LINE
  8
0
  6
CONTINUOUS
 62
256
 10
365.590056000000000
 20
-26.826315000000001
 11
359.702642000000030
 21
-32.713729000000001
  0
ARC
  8
0
  6
CONTINUOUS
 62
256
 10
401.288444000000030
 20
-313.051014000000010
 40
290.797000000000030
 50
90.000000000000000
 51
95.752283000000006
  0
ARC
  8
0
  6
CONTINUOUS
 62
256
 10
401.288444000000030
 20
-313.051014000000010
 40
300.600000000000020
 50
84.247716999999994
 51
90.000000000000000
  0
LINE
  8
0
  6
CONTINUOUS
 62
256
 10
443.918601000000020
 20
-19.894548000000000
 11
451.377296000000000
 21
-27.353242999999999
  0
ARC
  8
0
  6
CONTINUOUS
 62
256
 10
429.352200999999980
 20
-34.460946999999997
 40
20.599999999999994
 50
45.000000000000014
 51
84.247716999999938
  0
ARC
  8
0
  6
CONTINUOUS
 62
256
 10
54.688443999999997
 20
-71.451014000000001
 40
400.600000000000020
 50
0.000000000000000
 51
5.743682000000000
  0
ARC
  8
0
  6
CONTINUOUS
 62
256
 10
446.710391000000020
 20
-32.020147000000001
 40
6.599999999999973
 50
5.743682000000032
 51
44.999999999999829
  0
ARC
  8
0
  6
CONTINUOUS
 62
256
 10
401.288444000000030
 20
170.148986000000010
 40
300.600000000000020
 50
270.000000000000000
 51
275.752282999999980
  0
LINE
  8
0
  6
CONTINUOUS
 62
256
 10
443.918601000000020
 20
-123.007481000000000
 11
451.377296000000000
 21
-115.548786000000010
  0
ARC
  8
0
  6
CONTINUOUS
 62
256
 10
429.352200999999980
 20
-108.441081999999990
 40
20.599999999999991
 50
275.752282999999860
 51
314.999999999999940
  0
ARC
  8
0
  6
CONTINUOUS
 62
256
 10
54.688443999999997
 20
-71.451014000000001
 40
400.600000000000020
 50
354.256318000000020
 51
0.000000000000000
  0
ARC
  8
0
  6
CONTINUOUS
 62
256
 10
446.710391000000020
 20
-110.881881000000010
 40
6.600000000000017
 50
315.000000000000170
 51
354.256318000000020
  0
ARC
  8
0
  6
CONTINUOUS
 62
256
 10
401.288444000000030
 20
170.148986000000010
 40
300.600000000000020
 50
264.247717000000020
 51
270.000000000000000
  0
LINE
  8
0
  6
CONTINUOUS
 62
256
 10
358.658288000000030
 20
-123.007481000000000
 11
351.199592999999990
 21
-115.548786000000010
  0
ARC
  8
0
  6
CONTINUOUS
 62
256
 10
373.224688000000010
 20
-108.441081999999990
 40
20.599999999999991
 50
225.000000000000000
 51
264.247716999999910
  0
ARC
  8
0
  6
CONTINUOUS
 62
256
 10
747.888444000000050
 20
-71.451014000000001
 40
400.600000000000020
 50
180.000000000000000
 51
185.743681999999980
  0
ARC
  8
0
  6
CONTINUOUS
 62
256
 10
355.866497999999980
 20
-110.881881000000010
 40
6.599999999999973
 50
185.743682000000060
 51
224.999999999999830
  0
LINE
  8
0
  6
CONTINUOUS
 62
256
 10
371.300458999999990
 20
-13.951014000000001
 11
365.288444000000030
 21
-13.951014000000001
  0
LINE
  8
0
  6
CONTINUOUS
 62
256
 10
365.288444000000030
 20
-15.451053999999999
 11
365.288444000000030
 21
-13.951014000000001
  0
LINE
  8
0
  6
CONTINUOUS
 62
256
 10
437.288444000000030
 20
-15.451053999999999
 11
437.288444000000030
 21
-13.951014000000001
  0
LINE
  8
0
  6
CONTINUOUS
 62
256
 10
437.288444000000030
 20
-13.951014000000001
 11
431.280942999999980
 21
-13.951014000000001
  0
LINE
  8
0
  6
DASHDOT
 62
256
 10
473.229674999999990
 20
-26.536902999999999
 11
282.580424999999990
 21
-26.536902999999999
  0
LINE
  8
0
  6
CONTINUOUS
 62
256
 10
336.788215999999980
 20
-0.036903000000000
 11
334.588215999999990
 21
-0.036903000000000
  0
LINE
  8
0
  6
CONTINUOUS
 62
256
 10
336.788215999999980
 20
-53.036903000000002
 11
334.588215999999990
 21
-53.036903000000002
  0
LINE
  8
0
  6
CONTINUOUS
 62
256
 10
465.788444000000030
 20
-53.036903000000002
 11
467.888443999999990
 21
-53.036903000000002
  0
LINE
  8
0
  6
CONTINUOUS
 62
256
 10
465.788444000000030
 20
-0.036903000000000
 11
467.888443999999990
 21
-0.036903000000000
  0
LINE
  8
0
  6
CONTINUOUS
 62
256
 10
465.788444000000030
 20
-61.931440000000002
 11
465.788444000000030
 21
-26.536902999999999
  0
LINE
  8
0
  6
CONTINUOUS
 62
256
 10
334.588215999999990
 20
-0.036903000000000
 11
334.288215999999980
 21
-0.336903000000000
  0
LINE
  8
0
  6
CONTINUOUS
 62
256
 10
339.267270999999990
 20
11.812058000000000
 11
352.156740000000010
 21
14.084819000000000
  0
LINE
  8
0
  6
CONTINUOUS
 62
256
 10
334.588215999999990
 20
-53.036903000000002
 11
334.288215999999980
 21
-52.736902999999998
  0
LINE
  8
0
  6
CONTINUOUS
 62
256
 10
463.309389000000010
 20
11.812058000000000
 11
450.419919999999990
 21
14.084819000000000
  0
ARC
  8
0
  6
CONTINUOUS
 62
256
 10
451.288161000000000
 20
19.008858000000000
 40
5.000000000000000
 50
180.000000000000000
 51
260.000000000000110
  0
ARC
  8
0
  6
CONTINUOUS
 62
256
 10
451.288161000000000
 20
19.008858000000000
 40
5.000000000000000
 50
180.000000000000000
 51
260.000000000000110
  0
LINE
  8
0
  6
CONTINUOUS
 62
256
 10
465.340802000000000
 20
-131.485451000000010
 11
438.788444000000030
 21
-131.021977999999990
  0
LINE
  8
0
  6
CONTINUOUS
 62
256
 10
438.288444000000030
 20
36.463096999999998
 11
362.236087000000000
 21
35.135598999999999
  0
LINE
  8
0
  6
CONTINUOUS
 62
256
 10
468.288444000000030
 20
-146.536903000000000
 11
468.288444000000030
 21
-133.984994000000000
  0
LINE
  8
0
  6
CONTINUOUS
 62
256
 10
334.288444000000030
 20
-146.536903000000000
 11
334.288444000000030
 21
-134.484994000000000
  0
LINE
  8
0
  6
DASHDOT
 62
256
 10
456.288444000000030
 20
-150.782787000000010
 11
456.288444000000030
 21
-126.728733000000010
  0
LINE
  8
0
  6
DASHDOT
 62
256
 10
346.288444000000030
 20
-150.782787000000010
 11
346.288444000000030
 21
-126.728733000000010
  0
LINE
  8
0
  6
CONTINUOUS
 62
256
 10
337.236087000000000
 20
-131.485451000000010
 11
355.358253999999990
 21
-131.169128000000000
  0
ARC
  8
0
  6
CONTINUOUS
 62
256
 10
362.288444000000030
 20
32.136054999999999
 40
2.999999999999996
 50
90.999999999999602
 51
180.000000000000000
  0
ARC
  8
0
  6
CONTINUOUS
 62
256
 10
356.288444000000030
 20
26.463097000000001
 40
3.000000000000003
 50
300.003127000000060
 51
0.000000000000000
  0
ARC
  8
0
  6
CONTINUOUS
 62
256
 10
359.288727999999990
 20
21.267109000000001
 40
3.000000000000003
 50
120.003127000000060
 51
180.000000000000000
  0
ARC
  8
0
  6
CONTINUOUS
 62
256
 10
351.288727999999990
 20
19.008858000000000
 40
4.999999999999999
 50
279.999999999999890
 51
0.000000000000000
  0
ARC
  8
0
  6
CONTINUOUS
 62
256
 10
465.288444000000030
 20
-134.484994000000000
 40
3.000000000000000
 50
0.000000000000000
 51
89.000000000000412
  0
ARC
  8
0
  6
CONTINUOUS
 62
256
 10
337.288444000000030
 20
-134.484994000000000
 40
3.000000000000011
 50
90.999999999999602
 51
180.000000000000000
  0
ARC
  8
0
  6
CONTINUOUS
 62
256
 10
355.288444000000030
 20
-127.169737000000000
 40
3.999999999999996
 50
271.000000000000110
 51
0.000000000000000
  0
LINE
  8
0
  6
CONTINUOUS
 62
256
 10
332.288444000000030
 20
-12.536903000000001
 11
287.288444000000030
 21
-12.536903000000001
  0
LINE
  8
0
  6
CONTINUOUS
 62
256
 10
323.288444000000030
 20
-9.536903000000001
 11
287.288444000000030
 21
-9.536903000000001
  0
LINE
  8
0
  6
CONTINUOUS
 62
256
 10
323.288444000000030
 20
-12.536903000000001
 11
323.288444000000030
 21
-9.536903000000001
  0
LINE
  8
0
  6
CONTINUOUS
 62
256
 10
332.288444000000030
 20
-40.536903000000002
 11
287.288444000000030
 21
-40.536903000000002
  0
LINE
  8
0
  6
CONTINUOUS
 62
256
 10
332.288444000000030
 20
-26.536902999999999
 11
332.288444000000030
 21
-41.036903000000002
  0
LINE
  8
0
  6
CONTINUOUS
 62
256
 10
332.288444000000030
 20
-26.536902999999999
 11
332.288444000000030
 21
-41.036903000000002
  0
LINE
  8
0
  6
CONTINUOUS
 62
256
 10
332.288444000000030
 20
-41.036903000000002
 11
334.288444000000030
 21
-41.036903000000002
  0
LINE
  8
0
  6
CONTINUOUS
 62
256
 10
332.288444000000030
 20
-26.536902999999999
 11
332.288444000000030
 21
-12.036903000000001
  0
LINE
  8
0
  6
CONTINUOUS
 62
256
 10
332.288444000000030
 20
-26.536902999999999
 11
332.288444000000030
 21
-12.036903000000001
  0
LINE
  8
0
  6
CONTINUOUS
 62
256
 10
332.288444000000030
 20
-12.036903000000001
 11
334.288444000000030
 21
-12.036903000000001
  0
LINE
  8
0
  6
CONTINUOUS
 62
256
 10
336.788215999999980
 20
-61.931440000000002
 11
336.788215999999980
 21
-26.536902999999999
  0
LINE
  8
0
  6
CONTINUOUS
 62
256
 10
336.788215999999980
 20
8.857635000000000
 11
336.788215999999980
 21
-26.536902999999999
  0
ARC
  8
0
  6
CONTINUOUS
 62
256
 10
339.788215999999980
 20
8.857635000000000
 40
2.999999999999998
 50
99.999999999999645
 51
180.000000000000000
  0
ARC
  8
0
  6
CONTINUOUS
 62
256
 10
339.788215999999980
 20
-61.931440000000002
 40
3.000000000000000
 50
180.000000000000000
 51
260.000000000000340
  0
LINE
  8
0
  6
CONTINUOUS
 62
256
 10
438.788444000000030
 20
-131.036903000000000
 11
438.288444000000030
 21
-131.036903000000000
  0
LINE
  8
0
  6
CONTINUOUS
 62
256
 10
468.288444000000030
 20
-146.536903000000000
 11
334.288444000000030
 21
-146.536903000000000
  0
POINT
  8
0
  6
CONTINUOUS
 62
256
 10
468.288444000000030
 20
-131.536903000000000
  0
POINT
  8
0
  6
CONTINUOUS
 62
256
 10
334.288444000000030
 20
-131.536903000000000
  0
LINE
  8
0
  6
CONTINUOUS
 62
256
 10
465.788444000000030
 20
-26.536902999999999
 11
465.788444000000030
 21
8.857635000000000
  0
LINE
  8
0
  6
CONTINUOUS
 62
256
 10
334.288444000000030
 20
-52.737130999999998
 11
334.288444000000030
 21
-0.336674000000000
  0
ARC
  8
0
  6
CONTINUOUS
 62
256
 10
445.288161000000000
 20
-129.536903000000000
 40
1.000000000000000
 50
270.000000000000000
 51
0.000000000000000
  0
LINE
  8
0
  6
CONTINUOUS
 62
256
 10
438.288444000000030
 20
-130.536903000000000
 11
445.288161000000000
 21
-130.536903000000000
  0
ARC
  8
0
  6
CONTINUOUS
 62
256
 10
445.288161000000000
 20
35.340764999999998
 40
1.000000000000000
 50
0.000000000000000
 51
89.000000000001492
  0
LINE
  8
0
  6
CONTINUOUS
 62
256
 10
438.288444000000030
 20
36.463096999999998
 11
445.305612999999990
 21
36.340612000000000
  0
ARC
  8
0
  6
CONTINUOUS
 62
256
 10
462.788444000000030
 20
-61.931440000000002
 40
2.999999999999996
 50
279.999999999999660
 51
0.000000000000000
  0
LINE
  8
0
  6
CONTINUOUS
 62
256
 10
468.288444000000030
 20
-52.636902999999997
 11
467.888443999999990
 21
-53.036903000000002
  0
LINE
  8
0
  6
CONTINUOUS
 62
256
 10
468.288444000000030
 20
-0.436903000000000
 11
467.888443999999990
 21
-0.036903000000000
  0
ARC
  8
0
  6
CONTINUOUS
 62
256
 10
462.788444000000030
 20
8.857635000000000
 40
3.000000000000000
 50
0.000000000000000
 51
80.000000000000355
  0
LINE
  8
0
  6
CONTINUOUS
 62
256
 10
468.288444000000030
 20
-52.636902999999997
 11
468.288444000000030
 21
-0.436903000000000
  0
ARC
  8
0
  6
CONTINUOUS
 62
256
 10
213.906888000000010
 20
183.557914000000010
 40
20.599999999999994
 50
270.000000000000000
 51
305.000000000000000
  0
ARC
  8
0
  6
CONTINUOUS
 62
256
 10
231.802043000000000
 20
174.114293000000000
 40
2.599999999999996
 50
305.000000000000230
 51
0.000000000000000
  0
LINE
  8
0
  6
CONTINUOUS
 62
256
 10
234.402042999999990
 20
174.114293000000000
 11
234.402042999999990
 21
216.957913999999990
  0
LINE
  8
0
  6
CONTINUOUS
 62
256
 10
225.722563000000010
 20
166.683381999999990
 11
233.293342000000000
 21
171.984498000000000
  0
ARC
  8
0
  6
CONTINUOUS
 62
256
 10
143.402042999999990
 20
181.957913999999990
 40
3.000000000000000
 50
270.000000000000000
 51
0.000000000000000
  0
LINE
  8
0
  6
CONTINUOUS
 62
256
 10
139.402042999999990
 20
178.957913999999990
 11
143.402042999999990
 21
178.957913999999990
  0
ARC
  8
0
  6
CONTINUOUS
 62
256
 10
139.402042999999990
 20
175.957913999999990
 40
3.000000000000000
 50
90.000000000000000
 51
180.000000000000000
  0
LINE
  8
0
  6
CONTINUOUS
 62
256
 10
144.202043000000000
 20
181.957913999999990
 11
144.202043000000000
 21
216.957913999999990
  0
ARC
  8
0
  6
CONTINUOUS
 62
256
 10
143.202043000000000
 20
181.957913999999990
 40
1.000000000000000
 50
270.000000000000000
 51
0.000000000000000
  0
LINE
  8
0
  6
CONTINUOUS
 62
256
 10
54.202043000000003
 20
181.957913999999990
 11
54.202043000000003
 21
216.957913999999990
  0
LINE
  8
0
  6
CONTINUOUS
 62
256
 10
55.202043000000003
 20
180.957913999999990
 11
143.202043000000000
 21
180.957913999999990
  0
ARC
  8
0
  6
CONTINUOUS
 62
256
 10
55.202043000000003
 20
181.957913999999990
 40
1.000000000000000
 50
180.000000000000000
 51
270.000000000000000
  0
LINE
  8
0
  6
CONTINUOUS
 62
256
 10
54.202043000000003
 20
183.654313000000000
 11
52.402042999999999
 21
183.654313000000000
  0
LINE
  8
0
  6
CONTINUOUS
 62
256
 10
54.202043000000003
 20
185.243522000000010
 11
52.402042999999999
 21
185.243522000000010
  0
LINE
  8
0
  6
CONTINUOUS
 62
256
 10
54.202043000000003
 20
196.957913999999990
 11
52.402042999999999
 21
196.957913999999990
  0
LINE
  8
0
  6
CONTINUOUS
 62
256
 10
54.202043000000003
 20
194.119674000000000
 11
52.402042999999999
 21
194.119674000000000
  0
LINE
  8
0
  6
CONTINUOUS
 62
256
 10
54.202043000000003
 20
192.773271999999990
 11
52.402042999999999
 21
192.773271999999990
  0
LINE
  8
0
  6
CONTINUOUS
 62
256
 10
54.202043000000003
 20
189.680541000000010
 11
52.402042999999999
 21
189.680541000000010
  0
LINE
  8
0
  6
CONTINUOUS
 62
256
 10
54.202043000000003
 20
188.201517999999990
 11
52.402042999999999
 21
188.201517999999990
  0
LINE
  8
0
  6
CONTINUOUS
 62
256
 10
146.402042999999990
 20
196.957913999999990
 11
144.202043000000000
 21
196.957913999999990
  0
LINE
  8
0
  6
CONTINUOUS
 62
256
 10
146.402042999999990
 20
194.119674000000000
 11
144.202043000000000
 21
194.119674000000000
  0
LINE
  8
0
  6
CONTINUOUS
 62
256
 10
146.402042999999990
 20
192.773271999999990
 11
144.202043000000000
 21
192.773271999999990
  0
LINE
  8
0
  6
CONTINUOUS
 62
256
 10
146.402042999999990
 20
189.680541000000010
 11
144.202043000000000
 21
189.680541000000010
  0
LINE
  8
0
  6
CONTINUOUS
 62
256
 10
146.402042999999990
 20
188.201517999999990
 11
144.202043000000000
 21
188.201517999999990
  0
LINE
  8
0
  6
CONTINUOUS
 62
256
 10
146.402042999999990
 20
185.243522000000010
 11
144.202043000000000
 21
185.243522000000010
  0
LINE
  8
0
  6
CONTINUOUS
 62
256
 10
146.402042999999990
 20
183.654313000000000
 11
144.202043000000000
 21
183.654313000000000
  0
LINE
  8
0
  6
CONTINUOUS
 62
256
 10
136.559643999999990
 20
176.917477999999990
 11
52.402042999999999
 21
176.917477999999990
  0
LINE
  8
0
  6
CONTINUOUS
 62
256
 10
136.402042999999990
 20
175.916000000000000
 11
52.402042999999999
 21
175.916000000000000
  0
LINE
  8
0
  6
CONTINUOUS
 62
256
 10
136.402042999999990
 20
172.453258000000010
 11
52.402042999999999
 21
172.453258000000010
  0
LINE
  8
0
  6
CONTINUOUS
 62
256
 10
136.402042999999990
 20
170.824830999999990
 11
52.402042999999999
 21
170.824830999999990
  0
LINE
  8
0
  6
CONTINUOUS
 62
256
 10
136.402042999999990
 20
165.957913999999990
 11
52.402042999999999
 21
165.957913999999990
  0
LINE
  8
0
  6
CONTINUOUS
 62
256
 10
136.402042999999990
 20
166.457913999999990
 11
52.402042999999999
 21
166.457913999999990
  0
LINE
  8
0
  6
CONTINUOUS
 62
256
 10
52.402042999999999
 20
164.457913999999990
 11
136.402042999999990
 21
164.457913999999990
  0
LINE
  8
0
  6
CONTINUOUS
 62
256
 10
146.402042999999990
 20
216.957913999999990
 11
146.402042999999990
 21
181.957913999999990
  0
ARC
  8
0
  6
CONTINUOUS
 62
256
 10
213.906888000000010
 20
250.357913999999990
 40
20.599999999999991
 50
55.000000000000007
 51
90.000000000000000
  0
ARC
  8
0
  6
CONTINUOUS
 62
256
 10
231.802043000000000
 20
259.801534000000000
 40
2.599999999999994
 50
0.000000000000000
 51
55.000000000000156
  0
LINE
  8
0
  6
CONTINUOUS
 62
256
 10
234.402042999999990
 20
259.801534000000000
 11
234.402042999999990
 21
216.957913999999990
  0
LINE
  8
0
  6
CONTINUOUS
 62
256
 10
225.722563000000010
 20
267.232445999999980
 11
233.293342000000000
 21
261.931329000000010
  0
ARC
  8
0
  6
CONTINUOUS
 62
256
 10
143.402042999999990
 20
251.957913999999990
 40
3.000000000000000
 50
0.000000000000000
 51
90.000000000000000
  0
LINE
  8
0
  6
CONTINUOUS
 62
256
 10
139.402042999999990
 20
254.957913999999990
 11
143.402042999999990
 21
254.957913999999990
  0
ARC
  8
0
  6
CONTINUOUS
 62
256
 10
139.402042999999990
 20
257.957914000000020
 40
3.000000000000000
 50
180.000000000000000
 51
270.000000000000000
  0
LINE
  8
0
  6
CONTINUOUS
 62
256
 10
144.202043000000000
 20
251.957913999999990
 11
144.202043000000000
 21
216.957913999999990
  0
ARC
  8
0
  6
CONTINUOUS
 62
256
 10
143.202043000000000
 20
251.957913999999990
 40
1.000000000000000
 50
0.000000000000000
 51
90.000000000000000
  0
LINE
  8
0
  6
CONTINUOUS
 62
256
 10
54.202043000000003
 20
251.957913999999990
 11
54.202043000000003
 21
216.957913999999990
  0
LINE
  8
0
  6
CONTINUOUS
 62
256
 10
55.202043000000003
 20
252.957913999999990
 11
143.202043000000000
 21
252.957913999999990
  0
ARC
  8
0
  6
CONTINUOUS
 62
256
 10
55.202043000000003
 20
251.957913999999990
 40
1.000000000000000
 50
90.000000000000000
 51
180.000000000000000
  0
LINE
  8
0
  6
CONTINUOUS
 62
256
 10
54.202043000000003
 20
250.261515000000000
 11
52.402042999999999
 21
250.261515000000000
  0
LINE
  8
0
  6
CONTINUOUS
 62
256
 10
54.202043000000003
 20
248.672304999999990
 11
52.402042999999999
 21
248.672304999999990
  0
LINE
  8
0
  6
CONTINUOUS
 62
256
 10
54.202043000000003
 20
236.957913999999990
 11
52.402042999999999
 21
236.957913999999990
  0
LINE
  8
0
  6
CONTINUOUS
 62
256
 10
54.202043000000003
 20
239.796153000000000
 11
52.402042999999999
 21
239.796153000000000
  0
LINE
  8
0
  6
CONTINUOUS
 62
256
 10
54.202043000000003
 20
241.142554999999990
 11
52.402042999999999
 21
241.142554999999990
  0
LINE
  8
0
  6
CONTINUOUS
 62
256
 10
54.202043000000003
 20
244.235286000000000
 11
52.402042999999999
 21
244.235286000000000
  0
LINE
  8
0
  6
CONTINUOUS
 62
256
 10
54.202043000000003
 20
245.714308999999990
 11
52.402042999999999
 21
245.714308999999990
  0
LINE
  8
0
  6
CONTINUOUS
 62
256
 10
146.402042999999990
 20
236.957913999999990
 11
144.202043000000000
 21
236.957913999999990
  0
LINE
  8
0
  6
CONTINUOUS
 62
256
 10
146.402042999999990
 20
239.796153000000000
 11
144.202043000000000
 21
239.796153000000000
  0
LINE
  8
0
  6
CONTINUOUS
 62
256
 10
146.402042999999990
 20
241.142554999999990
 11
144.202043000000000
 21
241.142554999999990
  0
LINE
  8
0
  6
CONTINUOUS
 62
256
 10
146.402042999999990
 20
244.235286000000000
 11
144.202043000000000
 21
244.235286000000000
  0
LINE
  8
0
  6
CONTINUOUS
 62
256
 10
146.402042999999990
 20
245.714308999999990
 11
144.202043000000000
 21
245.714308999999990
  0
LINE
  8
0
  6
CONTINUOUS
 62
256
 10
146.402042999999990
 20
248.672304999999990
 11
144.202043000000000
 21
248.672304999999990
  0
LINE
  8
0
  6
CONTINUOUS
 62
256
 10
146.402042999999990
 20
250.261515000000000
 11
144.202043000000000
 21
250.261515000000000
  0
LINE
  8
0
  6
CONTINUOUS
 62
256
 10
136.559643999999990
 20
256.998349000000020
 11
52.402042999999999
 21
256.998349000000020
  0
LINE
  8
0
  6
CONTINUOUS
 62
256
 10
136.402042999999990
 20
257.999826999999980
 11
52.402042999999999
 21
257.999826999999980
  0
LINE
  8
0
  6
CONTINUOUS
 62
256
 10
136.402042999999990
 20
261.462568999999970
 11
52.402042999999999
 21
261.462568999999970
  0
LINE
  8
0
  6
CONTINUOUS
 62
256
 10
136.402042999999990
 20
263.090996000000020
 11
52.402042999999999
 21
263.090996000000020
  0
LINE
  8
0
  6
CONTINUOUS
 62
256
 10
136.402042999999990
 20
267.957914000000020
 11
52.402042999999999
 21
267.957914000000020
  0
LINE
  8
0
  6
CONTINUOUS
 62
256
 10
136.402042999999990
 20
267.457914000000020
 11
52.402042999999999
 21
267.457914000000020
  0
LINE
  8
0
  6
CONTINUOUS
 62
256
 10
52.402042999999999
 20
269.457914000000020
 11
136.402042999999990
 21
269.457914000000020
  0
LINE
  8
0
  6
CONTINUOUS
 62
256
 10
146.402042999999990
 20
216.957913999999990
 11
146.402042999999990
 21
251.957913999999990
  0
LINE
  8
0
  6
DASHDOT
 62
256
 10
-113.091683000000000
 20
216.957913999999990
 11
244.129307000000010
 21
216.957913999999990
  0
POLYLINE
  8
0
  6
CONTINUOUS
 62
256
 66
1
 70
1
  0
VERTEX
  8
0
  6
CONTINUOUS
 62
256
 10
152.102042999999980
 20
264.285244999999970
  0
VERTEX
  8
0
  6
CONTINUOUS
 62
256
 10
152.011733817895160
 20
264.988201510558160
  0
VERTEX
  8
0
  6
CONTINUOUS
 62
256
 10
151.744276802803030
 20
265.664143796638090
  0
VERTEX
  8
0
  6
CONTINUOUS
 62
256
 10
151.309950177821950
 20
266.287095775258650
  0
VERTEX
  8
0
  6
CONTINUOUS
 62
256
 10
150.725444871576770
 20
266.833117751236780
  0
VERTEX
  8
0
  6
CONTINUOUS
 62
256
 10
150.013223095192100
 20
267.281226406248440
  0
VERTEX
  8
0
  6
CONTINUOUS
 62
256
 10
149.200655132115910
 20
267.614201175983680
  0
VERTEX
  8
0
  6
CONTINUOUS
 62
256
 10
148.318967513475800
 20
267.819246026776000
  0
VERTEX
  8
0
  6
CONTINUOUS
 62
256
 10
147.402042999999990
 20
267.888481199999940
  0
VERTEX
  8
0
  6
CONTINUOUS
 62
256
 10
146.485118486524190
 20
267.819246026776000
  0
VERTEX
  8
0
  6
CONTINUOUS
 62
256
 10
145.603430867884070
 20
267.614201175983680
  0
VERTEX
  8
0
  6
CONTINUOUS
 62
256
 10
144.790862904807880
 20
267.281226406248440
  0
VERTEX
  8
0
  6
CONTINUOUS
 62
256
 10
144.078641128423210
 20
266.833117751236780
  0
VERTEX
  8
0
  6
CONTINUOUS
 62
256
 10
143.494135822178040
 20
266.287095775258650
  0
VERTEX
  8
0
  6
CONTINUOUS
 62
256
 10
143.059809197196960
 20
265.664143796638090
  0
VERTEX
  8
0
  6
CONTINUOUS
 62
256
 10
142.792352182104820
 20
264.988201510558160
  0
VERTEX
  8
0
  6
CONTINUOUS
 62
256
 10
142.702043000000000
 20
264.285244999999970
  0
VERTEX
  8
0
  6
CONTINUOUS
 62
256
 10
142.792352182104820
 20
263.582288489441790
  0
VERTEX
  8
0
  6
CONTINUOUS
 62
256
 10
143.059809197196960
 20
262.906346203361860
  0
VERTEX
  8
0
  6
CONTINUOUS
 62
256
 10
143.494135822178040
 20
262.283394224741300
  0
VERTEX
  8
0
  6
CONTINUOUS
 62
256
 10
144.078641128423210
 20
261.737372248763170
  0
VERTEX
  8
0
  6
CONTINUOUS
 62
256
 10
144.790862904807880
 20
261.289263593751510
  0
VERTEX
  8
0
  6
CONTINUOUS
 62
256
 10
145.603430867884070
 20
260.956288824016270
  0
VERTEX
  8
0
  6
CONTINUOUS
 62
256
 10
146.485118486524190
 20
260.751243973223950
  0
VERTEX
  8
0
  6
CONTINUOUS
 62
256
 10
147.402042999999990
 20
260.682008800000010
  0
VERTEX
  8
0
  6
CONTINUOUS
 62
256
 10
148.318967513475800
 20
260.751243973223950
  0
VERTEX
  8
0
  6
CONTINUOUS
 62
256
 10
149.200655132115910
 20
260.956288824016270
  0
VERTEX
  8
0
  6
CONTINUOUS
 62
256
 10
150.013223095192100
 20
261.289263593751510
  0
VERTEX
  8
0
  6
CONTINUOUS
 62
256
 10
150.725444871576740
 20
261.737372248763170
  0
VERTEX
  8
0
  6
CONTINUOUS
 62
256
 10
151.309950177821950
 20
262.283394224741300
  0
VERTEX
  8
0
  6
CONTINUOUS
 62
256
 10
151.744276802803030
 20
262.906346203361860
  0
VERTEX
  8
0
  6
CONTINUOUS
 62
256
 10
152.011733817895160
 20
263.582288489441790
  0
SEQEND
  8
0
  6
CONTINUOUS
 62
256
  0
LINE
  8
0
  6
CONTINUOUS
 62
256
 10
149.402042999999990
 20
267.277620000000010
 11
147.402042999999990
 21
266.101834999999990
  0
LINE
  8
0
  6
CONTINUOUS
 62
256
 10
147.402042999999990
 20
266.101834999999990
 11
145.402042999999990
 21
264.449192999999980
  0
LINE
  8
0
  6
CONTINUOUS
 62
256
 10
145.402042999999990
 20
267.277620000000010
 11
147.402042999999990
 21
266.101834999999990
  0
LINE
  8
0
  6
CONTINUOUS
 62
256
 10
147.402042999999990
 20
266.101834999999990
 11
149.402042999999990
 21
264.449192999999980
  0
POLYLINE
  8
0
  6
CONTINUOUS
 62
256
 66
1
 70
1
  0
VERTEX
  8
0
  6
CONTINUOUS
 62
256
 10
152.102042999999980
 20
169.630583000000000
  0
VERTEX
  8
0
  6
CONTINUOUS
 62
256
 10
152.011733817895160
 20
170.333539510558180
  0
VERTEX
  8
0
  6
CONTINUOUS
 62
256
 10
151.744276802803030
 20
171.009481796638140
  0
VERTEX
  8
0
  6
CONTINUOUS
 62
256
 10
151.309950177821950
 20
171.632433775258680
  0
VERTEX
  8
0
  6
CONTINUOUS
 62
256
 10
150.725444871576770
 20
172.178455751236840
  0
VERTEX
  8
0
  6
CONTINUOUS
 62
256
 10
150.013223095192100
 20
172.626564406248490
  0
VERTEX
  8
0
  6
CONTINUOUS
 62
256
 10
149.200655132115910
 20
172.959539175983740
  0
VERTEX
  8
0
  6
CONTINUOUS
 62
256
 10
148.318967513475800
 20
173.164584026776080
  0
VERTEX
  8
0
  6
CONTINUOUS
 62
256
 10
147.402042999999990
 20
173.233819200000000
  0
VERTEX
  8
0
  6
CONTINUOUS
 62
256
 10
146.485118486524190
 20
173.164584026776080
  0
VERTEX
  8
0
  6
CONTINUOUS
 62
256
 10
145.603430867884070
 20
172.959539175983740
  0
VERTEX
  8
0
  6
CONTINUOUS
 62
256
 10
144.790862904807880
 20
172.626564406248490
  0
VERTEX
  8
0
  6
CONTINUOUS
 62
256
 10
144.078641128423210
 20
172.178455751236840
  0
VERTEX
  8
0
  6
CONTINUOUS
 62
256
 10
143.494135822178040
 20
171.632433775258680
  0
VERTEX
  8
0
  6
CONTINUOUS
 62
256
 10
143.059809197196960
 20
171.009481796638140
  0
VERTEX
  8
0
  6
CONTINUOUS
 62
256
 10
142.792352182104820
 20
170.333539510558180
  0
VERTEX
  8
0
  6
CONTINUOUS
 62
256
 10
142.702043000000000
 20
169.630583000000000
  0
VERTEX
  8
0
  6
CONTINUOUS
 62
256
 10
142.792352182104820
 20
168.927626489441820
  0
VERTEX
  8
0
  6
CONTINUOUS
 62
256
 10
143.059809197196960
 20
168.251684203361860
  0
VERTEX
  8
0
  6
CONTINUOUS
 62
256
 10
143.494135822178040
 20
167.628732224741330
  0
VERTEX
  8
0
  6
CONTINUOUS
 62
256
 10
144.078641128423210
 20
167.082710248763160
  0
VERTEX
  8
0
  6
CONTINUOUS
 62
256
 10
144.790862904807880
 20
166.634601593751510
  0
VERTEX
  8
0
  6
CONTINUOUS
 62
256
 10
145.603430867884070
 20
166.301626824016270
  0
VERTEX
  8
0
  6
CONTINUOUS
 62
256
 10
146.485118486524190
 20
166.096581973223950
  0
VERTEX
  8
0
  6
CONTINUOUS
 62
256
 10
147.402042999999990
 20
166.027346800000000
  0
VERTEX
  8
0
  6
CONTINUOUS
 62
256
 10
148.318967513475800
 20
166.096581973223950
  0
VERTEX
  8
0
  6
CONTINUOUS
 62
256
 10
149.200655132115910
 20
166.301626824016270
  0
VERTEX
  8
0
  6
CONTINUOUS
 62
256
 10
150.013223095192100
 20
166.634601593751510
  0
VERTEX
  8
0
  6
CONTINUOUS
 62
256
 10
150.725444871576740
 20
167.082710248763160
  0
VERTEX
  8
0
  6
CONTINUOUS
 62
256
 10
151.309950177821950
 20
167.628732224741330
  0
VERTEX
  8
0
  6
CONTINUOUS
 62
256
 10
151.744276802803030
 20
168.251684203361860
  0
VERTEX
  8
0
  6
CONTINUOUS
 62
256
 10
152.011733817895160
 20
168.927626489441820
  0
SEQEND
  8
0
  6
CONTINUOUS
 62
256
  0
LINE
  8
0
  6
CONTINUOUS
 62
256
 10
149.402042999999990
 20
166.638206999999990
 11
147.402042999999990
 21
167.813993000000010
  0
LINE
  8
0
  6
CONTINUOUS
 62
256
 10
147.402042999999990
 20
167.813993000000010
 11
145.402042999999990
 21
169.466634000000000
  0
LINE
  8
0
  6
CONTINUOUS
 62
256
 10
145.402042999999990
 20
166.638206999999990
 11
147.402042999999990
 21
167.813993000000010
  0
LINE
  8
0
  6
CONTINUOUS
 62
256
 10
147.402042999999990
 20
167.813993000000010
 11
149.402042999999990
 21
169.466634000000000
  0
LINE
  8
0
  6
CONTINUOUS
 62
256
 10
136.402042999999990
 20
270.957914000000020
 11
213.906888000000010
 21
270.957914000000020
  0
LINE
  8
0
  6
CONTINUOUS
 62
256
 10
136.402042999999990
 20
270.957914000000020
 11
136.402042999999990
 21
257.957914000000020
  0
LINE
  8
0
  6
CONTINUOUS
 62
256
 10
136.402042999999990
 20
162.957913999999990
 11
136.402042999999990
 21
175.957913999999990
  0
LINE
  8
0
  6
CONTINUOUS
 62
256
 10
136.402042999999990
 20
162.957913999999990
 11
213.906888000000010
 21
162.957913999999990
  0
LINE
  8
0
  6
CONTINUOUS
 62
256
 10
52.402042999999999
 20
216.957913999999990
 11
52.402042999999999
 21
163.457913999999990
  0
LINE
  8
0
  6
CONTINUOUS
 62
256
 10
52.402042999999999
 20
216.957913999999990
 11
52.402042999999999
 21
270.457914000000020
  0
LINE
  8
0
  6
DASHDOT
 62
256
 10
-90.597977000000000
 20
283.328806999999980
 11
-90.597977000000000
 21
260.848402000000020
  0
LINE
  8
0
  6
DASHDOT
 62
256
 10
-101.729382000000000
 20
271.957914000000020
 11
-79.626956000000007
 21
271.957914000000020
  0
CIRCLE
  8
0
  6
CONTINUOUS
 62
256
 10
-90.597977000000000
 20
271.957914000000020
 40
5.500000000000000
  0
CIRCLE
  8
0
  6
CONTINUOUS
 62
256
 10
15.402023000000000
 20
271.957914000000020
 40
5.500000000000000
  0
LINE
  8
0
  6
DASHDOT
 62
256
 10
4.541622000000000
 20
271.957914000000020
 11
26.438120000000001
 21
271.957914000000020
  0
LINE
  8
0
  6
DASHDOT
 62
256
 10
15.402023000000000
 20
283.328806999999980
 11
15.402023000000000
 21
260.556448999999990
  0
CIRCLE
  8
0
  6
CONTINUOUS
 62
256
 10
-90.597977000000000
 20
161.957913999999990
 40
5.500000000000000
  0
LINE
  8
0
  6
DASHDOT
 62
256
 10
-90.597977000000000
 20
172.678503000000010
 11
-90.597977000000000
 21
149.957913999999990
  0
LINE
  8
0
  6
DASHDOT
 62
256
 10
-101.437428999999990
 20
161.957913999999990
 11
-79.248977999999994
 21
161.957913999999990
  0
LINE
  8
0
  6
DASHDOT
 62
256
 10
15.402023000000000
 20
173.262409999999990
 11
15.402023000000000
 21
151.365912000000010
  0
LINE
  8
0
  6
DASHDOT
 62
256
 10
3.957715000000000
 20
161.957913999999990
 11
25.854213000000001
 21
161.957913999999990
  0
CIRCLE
  8
0
  6
CONTINUOUS
 62
256
 10
15.402023000000000
 20
161.957913999999990
 40
5.500000000000000
  0
ARC
  8
0
  6
CONTINUOUS
 62
256
 10
9.947804000000000
 20
166.958197000000010
 40
5.000000000000000
 50
90.000000000000000
 51
170.000000000000140
  0
ARC
  8
0
  6
CONTINUOUS
 62
256
 10
-81.143716999999995
 20
166.958197000000010
 40
4.999999999999999
 50
9.999999999999863
 51
90.000000000000000
  0
ARC
  8
0
  6
CONTINUOUS
 62
256
 10
-83.401967999999997
 20
174.958197000000010
 40
3.000000000000006
 50
210.003127000000010
 51
270.000000000000000
  0
ARC
  8
0
  6
CONTINUOUS
 62
256
 10
-88.597956999999994
 20
171.957913999999990
 40
3.000000000000006
 50
30.003127000000021
 51
90.000000000000000
  0
ARC
  8
0
  6
CONTINUOUS
 62
256
 10
12.206054999999999
 20
174.958197000000010
 40
3.000000000000000
 50
270.000000000000000
 51
329.996872999999880
  0
ARC
  8
0
  6
CONTINUOUS
 62
256
 10
17.402042999999999
 20
171.957913999999990
 40
3.000000000000000
 50
90.000000000000000
 51
149.996872999999940
  0
ARC
  8
0
  6
CONTINUOUS
 62
256
 10
23.075002000000001
 20
177.957913999999990
 40
3.000000000000000
 50
270.000000000000000
 51
358.999999999999830
  0
LINE
  8
0
  6
CONTINUOUS
 62
256
 10
12.206054999999999
 20
171.958197000000010
 11
-83.401967999999997
 21
171.958197000000010
  0
ARC
  8
0
  6
CONTINUOUS
 62
256
 10
9.947804000000000
 20
266.957629999999990
 40
4.999999999999997
 50
189.999999999999860
 51
270.000000000000000
  0
ARC
  8
0
  6
CONTINUOUS
 62
256
 10
9.947804000000000
 20
266.957629999999990
 40
4.999999999999997
 50
189.999999999999860
 51
270.000000000000000
  0
LINE
  8
0
  6
CONTINUOUS
 62
256
 10
2.751004000000000
 20
278.978858000000000
 11
5.023766000000000
 21
266.089388999999980
  0
ARC
  8
0
  6
CONTINUOUS
 62
256
 10
-0.203419000000000
 20
278.457914000000020
 40
2.999999999999997
 50
9.999999999999650
 51
90.000000000000000
  0
LINE
  8
0
  6
CONTINUOUS
 62
256
 10
-75.449389999999994
 20
270.457914000000020
 11
-76.219678999999999
 21
266.089388999999980
  0
ARC
  8
0
  6
CONTINUOUS
 62
256
 10
-81.143716999999995
 20
266.957629999999990
 40
5.000000000000000
 50
270.000000000000000
 51
350.000000000000110
  0
LINE
  8
0
  6
CONTINUOUS
 62
256
 10
-9.497957000000000
 20
283.957914000000020
 11
-9.097956999999999
 21
283.557913999999980
  0
LINE
  8
0
  6
CONTINUOUS
 62
256
 10
-61.697957000000002
 20
283.957914000000020
 11
-62.097957000000001
 21
283.557913999999980
  0
ARC
  8
0
  6
CONTINUOUS
 62
256
 10
-70.992493999999994
 20
278.457914000000020
 40
3.000000000000000
 50
90.000000000000000
 51
170.000000000000370
  0
ARC
  8
0
  6
CONTINUOUS
 62
256
 10
26.279710999999999
 20
260.957629999999990
 40
0.999999999999998
 50
0.999999999998520
 51
90.000000000000000
  0
LINE
  8
0
  6
CONTINUOUS
 62
256
 10
-74.035081000000005
 20
278.478858000000000
 11
-75.449389999999994
 21
270.457914000000020
  0
LINE
  8
0
  6
CONTINUOUS
 62
256
 10
-73.946916999999999
 20
278.978858000000000
 11
-75.449389999999994
 21
270.457914000000020
  0
LINE
  8
0
  6
CONTINUOUS
 62
256
 10
26.279710999999999
 20
261.957629999999990
 11
-81.143716999999995
 21
261.957629999999990
  0
LINE
  8
0
  6
CONTINUOUS
 62
256
 10
-62.097957000000001
 20
150.257685000000010
 11
-61.797956999999997
 21
149.957685000000000
  0
ARC
  8
0
  6
CONTINUOUS
 62
256
 10
-70.992493999999994
 20
155.457685000000000
 40
3.000000000000008
 50
190.000000000000170
 51
270.000000000000000
  0
LINE
  8
0
  6
CONTINUOUS
 62
256
 10
2.751004000000000
 20
154.936739999999990
 11
5.023766000000000
 21
167.826209000000010
  0
LINE
  8
0
  6
CONTINUOUS
 62
256
 10
-9.097956999999999
 20
150.257685000000010
 11
-9.397957000000000
 21
149.957685000000000
  0
ARC
  8
0
  6
CONTINUOUS
 62
256
 10
-0.203419000000000
 20
155.457685000000000
 40
3.000000000000000
 50
270.000000000000000
 51
349.999999999999830
  0
LINE
  8
0
  6
CONTINUOUS
 62
256
 10
-73.946916999999999
 20
154.936739999999990
 11
-76.223179000000002
 21
167.846060999999990
  0
LINE
  8
0
  6
CONTINUOUS
 62
256
 10
-35.597957000000001
 20
281.457914000000020
 11
-0.203419000000000
 21
281.457914000000020
  0
LINE
  8
0
  6
CONTINUOUS
 62
256
 10
-70.992493999999994
 20
281.457914000000020
 11
-35.597957000000001
 21
281.457914000000020
  0
LINE
  8
0
  6
CONTINUOUS
 62
256
 10
-9.097956999999999
 20
281.457914000000020
 11
-9.097956999999999
 21
283.557913999999980
  0
LINE
  8
0
  6
CONTINUOUS
 62
256
 10
-62.097957000000001
 20
281.457914000000020
 11
-62.097957000000001
 21
283.557913999999980
  0
LINE
  8
0
  6
CONTINUOUS
 62
256
 10
-0.203419000000000
 20
152.457685000000000
 11
-35.597957000000001
 21
152.457685000000000
  0
LINE
  8
0
  6
CONTINUOUS
 62
256
 10
-70.992493999999994
 20
152.457685000000000
 11
-35.597957000000001
 21
152.457685000000000
  0
LINE
  8
0
  6
CONTINUOUS
 62
256
 10
-62.097957000000001
 20
152.457685000000000
 11
-62.097957000000001
 21
150.257685000000010
  0
LINE
  8
0
  6
CONTINUOUS
 62
256
 10
-9.097956999999999
 20
152.457685000000000
 11
-9.097956999999999
 21
150.257685000000010
  0
LINE
  8
0
  6
CONTINUOUS
 62
256
 10
-102.597956999999990
 20
253.957913999999990
 11
27.402044000000000
 21
253.957913999999990
  0
LINE
  8
0
  6
CONTINUOUS
 62
256
 10
-98.270915000000002
 20
174.957913999999990
 11
23.075002000000001
 21
174.957913999999990
  0
ARC
  8
0
  6
CONTINUOUS
 62
256
 10
-98.270915000000002
 20
177.957913999999990
 40
2.999999999999997
 50
181.000000000000140
 51
270.000000000000000
  0
LINE
  8
0
  6
CONTINUOUS
 62
256
 10
-101.475624000000000
 20
261.957629999999990
 11
-81.143716999999995
 21
261.957629999999990
  0
ARC
  8
0
  6
CONTINUOUS
 62
256
 10
-101.475624000000000
 20
260.957629999999990
 40
1.000000000000000
 50
90.000000000000000
 51
179.000000000001480
  0
LINE
  8
0
  6
CONTINUOUS
 62
256
 10
27.402042999999999
 20
253.957913999999990
 11
25.638168000000000
 21
152.905555999999990
  0
ARC
  8
0
  6
CONTINUOUS
 62
256
 10
22.638625000000001
 20
152.957913999999990
 40
3.000000000000000
 50
270.000000000000000
 51
358.999999999999830
  0
LINE
  8
0
  6
CONTINUOUS
 62
256
 10
-102.597956999999990
 20
253.957913999999990
 11
-100.834081000000000
 21
152.905555999999990
  0
LINE
  8
0
  6
CONTINUOUS
 62
256
 10
-97.834537999999995
 20
149.957913999999990
 11
22.638625000000001
 21
149.957913999999990
  0
ARC
  8
0
  6
CONTINUOUS
 62
256
 10
-97.834537999999995
 20
152.957913999999990
 40
2.999999999999997
 50
181.000000000000140
 51
270.000000000000000
  0
LINE
  8
0
  6
CONTINUOUS
 62
256
 10
-102.125756000000000
 20
281.010270999999990
 11
-102.597956999999990
 21
253.957913999999990
  0
ARC
  8
0
  6
CONTINUOUS
 62
256
 10
-99.126213000000007
 20
280.957914000000020
 40
3.000000000000000
 50
90.000000000000000
 51
179.000000000000400
  0
LINE
  8
0
  6
CONTINUOUS
 62
256
 10
-99.126213000000007
 20
283.957914000000020
 11
23.930299999999999
 21
283.957914000000020
  0
LINE
  8
0
  6
CONTINUOUS
 62
256
 10
27.402042999999999
 20
253.957913999999990
 11
26.929843000000002
 21
281.010270999999990
  0
ARC
  8
0
  6
CONTINUOUS
 62
256
 10
23.930299999999999
 20
280.957914000000020
 40
3.000000000000000
 50
0.999999999999604
 51
90.000000000000000
  0
ARC
  8
0
  6
CONTINUOUS
 62
256
 10
45.402042999999999
 20
264.457914000000020
 40
3.000000000000000
 50
270.000000000000000
 51
0.000000000000000
  0
ARC
  8
0
  6
CONTINUOUS
 62
256
 10
46.402042999999999
 20
256.387565000000000
 40
2.000000000000000
 50
0.000000000000000
 51
90.000000000000000
  0
ARC
  8
0
  6
CONTINUOUS
 62
256
 10
45.402042999999999
 20
247.850079999999990
 40
3.000000000000000
 50
0.000000000000000
 51
90.000000000000000
  0
ARC
  8
0
  6
CONTINUOUS
 62
256
 10
50.402042999999999
 20
268.509974000000000
 40
2.000000000000026
 50
89.000000000000071
 51
180.000000000000000
  0
ARC
  8
0
  6
CONTINUOUS
 62
256
 10
50.402042999999999
 20
165.405853000000010
 40
2.000000000000000
 50
180.000000000000000
 51
270.999999999999940
  0
ARC
  8
0
  6
CONTINUOUS
 62
256
 10
45.402042999999999
 20
186.065748000000010
 40
3.000000000000000
 50
270.000000000000000
 51
0.000000000000000
  0
ARC
  8
0
  6
CONTINUOUS
 62
256
 10
45.402042999999999
 20
169.457913999999990
 40
3.000000000000000
 50
0.000000000000000
 51
90.000000000000000
  0
ARC
  8
0
  6
CONTINUOUS
 62
256
 10
46.402042999999999
 20
177.528262000000010
 40
2.000000000000000
 50
270.000000000000000
 51
0.000000000000000
  0
ARC
  8
0
  6
CONTINUOUS
 62
256
 10
37.402042999999999
 20
247.850079999999990
 40
3.000000000000000
 50
90.000000000000000
 51
180.000000000000000
  0
ARC
  8
0
  6
CONTINUOUS
 62
256
 10
37.402042999999999
 20
186.065748000000010
 40
3.000000000000000
 50
180.000000000000000
 51
270.000000000000000
  0
ARC
  8
0
  6
CONTINUOUS
 62
256
 10
39.402042999999999
 20
256.457914000000020
 40
5.000000000000000
 50
90.000000000000000
 51
180.000000000000000
  0
ARC
  8
0
  6
CONTINUOUS
 62
256
 10
39.402042999999999
 20
253.387565000000000
 40
5.000000000000000
 50
90.000000000000000
 51
180.000000000000000
  0
ARC
  8
0
  6
CONTINUOUS
 62
256
 10
39.402042999999999
 20
177.457913999999990
 40
5.000000000000000
 50
180.000000000000000
 51
270.000000000000000
  0
ARC
  8
0
  6
CONTINUOUS
 62
256
 10
39.402042999999999
 20
180.528262000000010
 40
5.000000000000000
 50
180.000000000000000
 51
270.000000000000000
  0
ARC
  8
0
  6
CONTINUOUS
 62
256
 10
37.402042999999999
 20
267.752963000000020
 40
2.999999999999985
 50
89.004157000000049
 51
180.000000000000000
  0
LINE
  8
0
  6
CONTINUOUS
 62
256
 10
48.402042999999999
 20
216.957913999999990
 11
48.402042999999999
 21
256.387565000000000
  0
LINE
  8
0
  6
CONTINUOUS
 62
256
 10
37.402042999999999
 20
250.850079999999990
 11
45.402042999999999
 21
250.850079999999990
  0
LINE
  8
0
  6
CONTINUOUS
 62
256
 10
46.402042999999999
 20
258.387565000000000
 11
39.402042999999999
 21
258.387565000000000
  0
LINE
  8
0
  6
CONTINUOUS
 62
256
 10
45.402042999999999
 20
261.457914000000020
 11
39.402042999999999
 21
261.457914000000020
  0
LINE
  8
0
  6
CONTINUOUS
 62
256
 10
48.402042999999999
 20
264.457914000000020
 11
48.402042999999999
 21
268.509974000000000
  0
LINE
  8
0
  6
CONTINUOUS
 62
256
 10
48.402042999999999
 20
169.457913999999990
 11
48.402042999999999
 21
165.405853000000010
  0
LINE
  8
0
  6
CONTINUOUS
 62
256
 10
45.402042999999999
 20
172.457913999999990
 11
39.402042999999999
 21
172.457913999999990
  0
LINE
  8
0
  6
CONTINUOUS
 62
256
 10
48.402042999999999
 20
216.957913999999990
 11
48.402042999999999
 21
177.528262000000010
  0
LINE
  8
0
  6
CONTINUOUS
 62
256
 10
46.402042999999999
 20
175.528262000000010
 11
39.402042999999999
 21
175.528262000000010
  0
LINE
  8
0
  6
CONTINUOUS
 62
256
 10
37.402042999999999
 20
183.065748000000010
 11
45.402042999999999
 21
183.065748000000010
  0
LINE
  8
0
  6
CONTINUOUS
 62
256
 10
34.402042999999999
 20
267.752963000000020
 11
34.402042999999999
 21
166.162864000000010
  0
LINE
  8
0
  6
CONTINUOUS
 62
256
 10
48.402042999999999
 20
236.957913999999990
 11
52.402042999999999
 21
236.957913999999990
  0
LINE
  8
0
  6
CONTINUOUS
 62
256
 10
48.402042999999999
 20
196.957913999999990
 11
52.402042999999999
 21
196.957913999999990
  0
ARC
  8
0
  6
CONTINUOUS
 62
256
 10
28.402023000000000
 20
253.957913999999990
 40
1.000000000000000
 50
180.000000000000000
 51
270.000000000000000
  0
LINE
  8
0
  6
CONTINUOUS
 62
256
 10
31.402042999999999
 20
252.957913999999990
 11
28.402023000000000
 21
252.957913999999990
  0
ARC
  8
0
  6
CONTINUOUS
 62
256
 10
31.402042999999999
 20
255.957913999999990
 40
3.000000000000000
 50
270.000000000000000
 51
0.000000000000000
  0
ARC
  8
0
  6
CONTINUOUS
 62
256
 10
31.402042999999999
 20
171.957685000000000
 40
3.000000000000000
 50
0.000000000000000
 51
90.000000000000000
  0
LINE
  8
0
  6
CONTINUOUS
 62
256
 10
26.023088999999999
 20
174.957685000000000
 11
31.402042999999999
 21
174.957685000000000
  0
LINE
  8
0
  6
CONTINUOUS
 62
256
 10
36.998291000000002
 20
163.190158000000000
 11
52.402042999999999
 21
163.457913999999990
  0
ARC
  8
0
  6
CONTINUOUS
 62
256
 10
37.402042999999999
 20
166.162864000000010
 40
3.000000000000000
 50
180.000000000000000
 51
270.995842999999920
  0
LINE
  8
0
  6
CONTINUOUS
 62
256
 10
36.998291000000002
 20
270.725668999999980
 11
52.402042999999999
 21
270.457914000000020
  0
LINE
  8
0
  6
CONTINUOUS
 62
256
 10
-31.597957000000001
 20
138.957913999999990
 11
-31.597957000000001
 21
102.957914000000000
  0
LINE
  8
0
  6
CONTINUOUS
 62
256
 10
-39.597957000000001
 20
138.957913999999990
 11
-39.597957000000001
 21
102.957914000000000
  0
LINE
  8
0
  6
CONTINUOUS
 62
256
 10
-21.097957000000001
 20
147.957913999999990
 11
-21.097957000000001
 21
149.957913999999990
  0
LINE
  8
0
  6
CONTINUOUS
 62
256
 10
-35.597957000000001
 20
147.957913999999990
 11
-21.097957000000001
 21
147.957913999999990
  0
LINE
  8
0
  6
CONTINUOUS
 62
256
 10
-35.597957000000001
 20
147.957913999999990
 11
-21.097957000000001
 21
147.957913999999990
  0
LINE
  8
0
  6
CONTINUOUS
 62
256
 10
-50.097957000000001
 20
147.957913999999990
 11
-50.097957000000001
 21
149.957913999999990
  0
LINE
  8
0
  6
CONTINUOUS
 62
256
 10
-35.597957000000001
 20
147.957913999999990
 11
-50.097957000000001
 21
147.957913999999990
  0
LINE
  8
0
  6
CONTINUOUS
 62
256
 10
-35.597957000000001
 20
147.957913999999990
 11
-50.097957000000001
 21
147.957913999999990
  0
LINE
  8
0
  6
CONTINUOUS
 62
256
 10
-21.597957000000001
 20
102.957914000000000
 11
-49.597957000000001
 21
102.957914000000000
  0
LINE
  8
0
  6
CONTINUOUS
 62
256
 10
-49.597957000000001
 20
147.957913999999990
 11
-49.597957000000001
 21
102.957914000000000
  0
LINE
  8
0
  6
CONTINUOUS
 62
256
 10
-39.597957000000001
 20
138.957913999999990
 11
-31.597957000000001
 21
138.957913999999990
  0
LINE
  8
0
  6
CONTINUOUS
 62
256
 10
-21.597957000000001
 20
147.957913999999990
 11
-21.597957000000001
 21
102.957914000000000
  0
LINE
  8
0
  6
DASHDOT
 62
256
 10
-35.597957000000001
 20
288.519391999999980
 11
-35.597957000000001
 21
100.212334000000000
  0
ARC
  8
0
  6
CONTINUOUS
 62
256
 10
-35.597957000000001
 20
138.957913999999990
 40
4.000000000000000
 50
0.000000000000000
 51
180.000000000000000
  0
TEXT
  8
0
  6
CONTINUOUS
 62
256
 10
523.024047851562500
 20
-179.042449951171870
 40
3.299999952316284
  1
1/1
 50
0.000002504478167
 41
0.850909097352304
  7
STANDARD1
  0
TEXT
  8
0
  6
CONTINUOUS
 62
256
 10
520.606079101562500
 20
-179.042449951171870
 40
3.299999952316284
  1
 
 50
0.000002504478167
 41
1.733333298293026
  7
STANDARD1
  0
TEXT
  8
0
  6
CONTINUOUS
 62
256
 10
507.555450439453130
 20
-179.042449951171870
 40
3.299999952316284
  1
SCALE
 50
0.000002504478167
 41
0.821052645401140
  7
STANDARD1
  0
TEXT
  8
0
  6
CONTINUOUS
 62
256
 10
504.304077148437500
 20
-179.042449951171870
 40
3.299999952316284
  1
 
 50
0.000002504478167
 41
1.733333298293026
  7
STANDARD1
  0
TEXT
  8
0
  6
CONTINUOUS
 62
256
 10
519.158264160156250
 20
-173.742446899414060
 40
3.299999952316284
  1
1/240
 50
0.000002504478167
 41
0.821052645401140
  7
STANDARD1
  0
TEXT
  8
0
  6
CONTINUOUS
 62
256
 10
515.376220703125000
 20
-173.742446899414060
 40
3.299999952316284
  1
ü`
 50
0.000002504478167
 41
1.176000019651471
  7
STANDARD1
  0
TEXT
  8
0
  6
CONTINUOUS
 62
256
 10
504.304077148437500
 20
-173.742446899414060
 40
3.299999952316284
  1
1/80
 50
0.000002504478167
 41
0.832000075658163
  7
STANDARD1
  0
TEXT
  8
0
  6
CONTINUOUS
 62
256
 10
507.538085937500000
 20
-168.442443847656250
 40
3.299999952316284
  1
GM-SHYB-RL
 50
0.000002504478167
 41
0.799999980493025
  7
STANDARD1
  0
TEXT
  8
0
  6
CONTINUOUS
 62
256
 10
504.304077148437500
 20
-168.442443847656250
 40
3.299999952316284
  1
 
 50
0.000002504478167
 41
1.733333298293026
  7
STANDARD1
  0
TEXT
  8
0
  6
CONTINUOUS
 62
256
 10
510.129455566406250
 20
-163.142456054687500
 40
3.299999952316284
  1
0.2kW
 50
0.000002504478167
 41
0.821052645401140
  7
STANDARD1
  0
TEXT
  8
0
  6
CONTINUOUS
 62
256
 10
504.304077148437500
 20
-163.142456054687500
 40
3.299999952316284
  1
  
 50
0.000002504478167
 41
1.485714400175845
  7
STANDARD1
  0
TEXT
  8
0
  6
CONTINUOUS
 62
256
 10
510.123565673828120
 20
-157.842453002929690
 40
3.299999952316284
  1
SHY093
 50
0.000002504478167
 41
0.813913121261144
  7
STANDARD1
  0
TEXT
  8
0
  6
CONTINUOUS
 62
256
 10
504.304077148437500
 20
-157.842453002929690
 40
3.299999952316284
  1
  
 50
0.000002504478167
 41
1.485714400175845
  7
STANDARD1
  0
ENDSEC
  0
EOF
