  0
SECTION
  2
HEADER
  9
$TEXTSIZE
 40
2.5
  9
$ACADVER
  1
AC1009
  9
$DIMASZ
 40
3.863703297614046
  9
$DIMEXE
 40
2.000000000000000
  9
$DIMEXO
 40
1.000000000000000
  9
$DIMLFAC
 40
1.000000000000000
  9
$DIMSCALE
 40
1.000000000000000
  9
$DIMTAD
 70
1
  9
$DIMTFAC
 40
0.625000000000000
  9
$DIMTXT
 40
3.200000047683716
  9
$LUPREC
 70
3
  9
$REGENMODE
 70
1
  9
$TEXTSTYLE
  7
STANDARD1
  0
ENDSEC
  0
SECTION
  2
TABLES
  0
TABLE
  2
LTYPE
 70
4
  0
LTYPE
  2
CONTINUOUS
 70
64
  3
Solid line
 72
65
 73
0
 40
0.0
  0
LTYPE
  2
DASHED
 70
64
  3
-- -- -- -- -- -- -- -- -- -- -- -- -- -- --
 72
65
 73
2
 40
0.75
 49
0.5
 49
-0.25
  0
LTYPE
  2
DASHDOT
 70
64
  3
__ . __ . __ . __ . __ . __ . __ . __ . __ . __
 72
65
 73
4
 40
1.0
 49
0.5
 49
-0.25
 49
0.0
 49
-0.25
  0
LTYPE
  2
DIVIDE
 70
64
  3
__ . . __ . . __ . . __ . . __ . . __ . . __
 72
65
 73
6
 40
1.25
 49
0.5
 49
-0.25
 49
0.0
 49
-0.25
 49
0.0
 49
-0.25
  0
ENDTAB
  0
TABLE
  2
LAYER
 70
2
  0
LAYER
  2
0
 70
64
 62
53
  6
CONTINUOUS
  0
LAYER
  2
1
 70
64
 62
102
  6
CONTINUOUS
  0
ENDTAB
  0
TABLE
  2
STYLE
 70
4
  0
STYLE
  2
STANDARD1
 70
64
 40
0.0
 41
1.0
 50
0.0
 71
0
 42
3.200000047683716
  3
MONOTXT
  4
BIGFONT
  0
STYLE
  2
STANDARD2
 70
68
 40
0.0
 41
1.0
 50
0.0
 71
0
 42
3.200000047683716
  3
MONOTXT
  4
BIGFONT
  0
STYLE
  2
STANDARD3
 70
64
 40
0.0
 41
1.0
 50
0.0
 71
0
 42
3.200000047683716
  3
MONOTXT
  4

  0
STYLE
  2
STANDARD4
 70
68
 40
0.0
 41
1.0
 50
0.0
 71
0
 42
3.200000047683716
  3
MONOTXT
  4

  0
ENDTAB
  0
TABLE
  2
VIEW
 70
0
  0
ENDTAB
  0
ENDSEC
  0
SECTION
  2
BLOCKS
  0
ENDSEC
  0
SECTION
  2
ENTITIES
  0
TEXT
  8
0
  6
CONTINUOUS
 62
256
 10
-70.375488281250000
 20
-13.156250000000000
 40
2.799999952316284
  1
ü@
 50
0.000002504478167
 41
0.996000017370497
  7
STANDARD1
  0
TEXT
  8
0
  6
CONTINUOUS
 62
256
 10
1.624511957168579
 20
-253.406250000000000
 40
2.799999952316284
  1
ü@
 50
0.000002504478167
 41
0.996000017370497
  7
STANDARD1
  0
LINE
  8
0
  6
CONTINUOUS
 62
256
 10
-528.516396999999980
 20
-188.794949000000000
 11
-529.516184999999950
 21
-187.774381000000010
  0
LINE
  8
0
  6
DASHDOT
 62
256
 10
-548.516184999999950
 20
-182.152693000000000
 11
-548.516184999999950
 21
-215.380524000000010
  0
LINE
  8
0
  6
DASHDOT
 62
256
 10
-410.516185000000010
 20
-182.152693000000000
 11
-410.516185000000010
 21
-215.380524000000010
  0
POINT
  8
0
  6
CONTINUOUS
 62
256
 10
-252.634222999999990
 20
-52.767524999999999
  0
LINE
  8
0
  6
CONTINUOUS
 62
256
 10
-148.073417000000010
 20
-208.225525000000000
 11
10.426583000000001
 21
-208.225525000000000
  0
ARC
  8
0
  6
CONTINUOUS
 62
256
 10
25.926583000000001
 20
-68.341257999999996
 40
3.000000000000000
 50
0.000000000000000
 51
90.000000000000000
  0
ARC
  8
0
  6
CONTINUOUS
 62
256
 10
25.926583000000001
 20
-62.157794000000003
 40
3.000000000000000
 50
0.000000000000000
 51
90.000000000000000
  0
ARC
  8
0
  6
CONTINUOUS
 62
256
 10
25.926583000000001
 20
-49.246217999999999
 40
3.000000000000000
 50
270.000000000000000
 51
0.000000000000000
  0
LINE
  8
0
  6
CONTINUOUS
 62
256
 10
28.926583000000001
 20
-48.842525000000002
 11
28.926583000000001
 21
-49.246217999999999
  0
LINE
  8
0
  6
CONTINUOUS
 62
256
 10
28.926583000000001
 20
-62.157794000000003
 11
28.926583000000001
 21
-104.342524999999990
  0
LINE
  8
0
  6
CONTINUOUS
 62
256
 10
28.926583000000001
 20
-48.842525000000002
 11
28.926583000000001
 21
-47.842525000000002
  0
ARC
  8
0
  6
CONTINUOUS
 62
256
 10
31.926583000000001
 20
-47.842525000000002
 40
3.000000000000000
 50
90.000000000000000
 51
180.000000000000000
  0
ARC
  8
0
  6
CONTINUOUS
 62
256
 10
25.926583000000001
 20
-140.343792000000010
 40
3.000000000000000
 50
270.000000000000000
 51
0.000000000000000
  0
ARC
  8
0
  6
CONTINUOUS
 62
256
 10
25.926583000000001
 20
-159.438832999999990
 40
3.000000000000000
 50
0.000000000000000
 51
90.000000000000000
  0
ARC
  8
0
  6
CONTINUOUS
 62
256
 10
25.926583000000001
 20
-146.527256999999990
 40
3.000000000000000
 50
270.000000000000000
 51
0.000000000000000
  0
ARC
  8
0
  6
CONTINUOUS
 62
256
 10
31.926583000000001
 20
-160.842524999999990
 40
3.000000000000000
 50
180.000000000000000
 51
270.000000000000000
  0
LINE
  8
0
  6
CONTINUOUS
 62
256
 10
28.926583000000001
 20
-146.527256999999990
 11
28.926583000000001
 21
-104.342524999999990
  0
LINE
  8
0
  6
CONTINUOUS
 62
256
 10
28.926583000000001
 20
-159.842524999999990
 11
28.926583000000001
 21
-159.438832999999990
  0
LINE
  8
0
  6
CONTINUOUS
 62
256
 10
28.926583000000001
 20
-159.842524999999990
 11
28.926583000000001
 21
-159.438832999999990
  0
LINE
  8
0
  6
CONTINUOUS
 62
256
 10
28.926583000000001
 20
-159.842524999999990
 11
28.926583000000001
 21
-160.842524999999990
  0
LINE
  8
0
  6
CONTINUOUS
 62
256
 10
28.926583000000001
 20
-124.342524999999990
 11
34.926583000000001
 21
-124.342524999999990
  0
LINE
  8
0
  6
CONTINUOUS
 62
256
 10
28.926583000000001
 20
-84.342524999999995
 11
34.926583000000001
 21
-84.342524999999995
  0
ARC
  8
0
  6
CONTINUOUS
 62
256
 10
-37.573416999999999
 20
-136.725525000000000
 40
30.000000000000000
 50
270.000000000000000
 51
0.000000000000000
  0
ARC
  8
0
  6
CONTINUOUS
 62
256
 10
-93.573417000000006
 20
-136.725525000000000
 40
30.000000000000000
 50
180.000000000000000
 51
270.000000000000000
  0
LINE
  8
0
  6
CONTINUOUS
 62
256
 10
-93.573417000000006
 20
-166.725525000000000
 11
-37.573416999999999
 21
-166.725525000000000
  0
LINE
  8
0
  6
CONTINUOUS
 62
256
 10
-123.573417000000010
 20
-68.225525000000005
 11
-123.573417000000010
 21
-136.725525000000000
  0
LINE
  8
0
  6
CONTINUOUS
 62
256
 10
-7.573417000000000
 20
-136.725525000000000
 11
-7.573417000000000
 21
-68.225525000000005
  0
ARC
  8
0
  6
CONTINUOUS
 62
256
 10
-65.573417000000006
 20
-68.225525000000005
 40
58.000000000000000
 50
0.000000000000000
 51
180.000000000000000
  0
LINE
  8
0
  6
DASHDOT
 62
256
 10
-131.573417000000010
 20
-185.665480000000000
 11
-131.573417000000010
 21
-216.425648000000000
  0
LINE
  8
0
  6
DASHDOT
 62
256
 10
-5.573417000000000
 20
-187.533199000000000
 11
-5.573417000000000
 21
-215.185228000000000
  0
ARC
  8
0
  6
CONTINUOUS
 62
256
 10
7.426583000000000
 20
-193.225525000000000
 40
3.000000000000001
 50
0.000000000000000
 51
90.000000000000000
  0
LINE
  8
0
  6
CONTINUOUS
 62
256
 10
10.426583000000001
 20
-208.225525000000000
 11
10.426583000000001
 21
-166.357899000000000
  0
ARC
  8
0
  6
CONTINUOUS
 62
256
 10
-145.073417000000010
 20
-193.225525000000000
 40
3.000000000000000
 50
90.000000000000000
 51
180.000000000000000
  0
LINE
  8
0
  6
CONTINUOUS
 62
256
 10
-145.073417000000010
 20
-190.225525000000000
 11
7.426583000000000
 21
-190.225525000000000
  0
LINE
  8
0
  6
CONTINUOUS
 62
256
 10
13.426583000000001
 20
-163.842524999999990
 11
34.926583000000001
 21
-163.842524999999990
  0
LINE
  8
0
  6
CONTINUOUS
 62
256
 10
13.426583000000001
 20
-44.842525000000002
 11
34.926583000000001
 21
-44.842525000000002
  0
ARC
  8
0
  6
CONTINUOUS
 62
256
 10
13.426583000000001
 20
-41.842525000000002
 40
3.000000000000000
 50
180.000000000000000
 51
270.000000000000000
  0
ARC
  8
0
  6
CONTINUOUS
 62
256
 10
13.426583000000001
 20
-166.842524999999990
 40
3.000000000000000
 50
90.000000000000000
 51
180.000000000000000
  0
ARC
  8
0
  6
CONTINUOUS
 62
256
 10
17.926583000000001
 20
-160.842524999999990
 40
3.000000000000000
 50
180.000000000000000
 51
270.000000000000000
  0
ARC
  8
0
  6
CONTINUOUS
 62
256
 10
17.926583000000001
 20
-47.842525000000002
 40
3.000000000000000
 50
90.000000000000000
 51
180.000000000000000
  0
ARC
  8
0
  6
CONTINUOUS
 62
256
 10
19.926583000000001
 20
-151.438832999999990
 40
5.000000000000000
 50
180.000000000000000
 51
270.000000000000000
  0
ARC
  8
0
  6
CONTINUOUS
 62
256
 10
19.926583000000001
 20
-144.527256999999990
 40
5.000000000000000
 50
180.000000000000000
 51
270.000000000000000
  0
LINE
  8
0
  6
CONTINUOUS
 62
256
 10
25.926583000000001
 20
-156.438832999999990
 11
19.926583000000001
 21
-156.438832999999990
  0
LINE
  8
0
  6
CONTINUOUS
 62
256
 10
25.926583000000001
 20
-149.527256999999990
 11
19.926583000000001
 21
-149.527256999999990
  0
LINE
  8
0
  6
CONTINUOUS
 62
256
 10
25.926583000000001
 20
-143.343792000000010
 11
20.926583000000001
 21
-143.343792000000010
  0
LINE
  8
0
  6
CONTINUOUS
 62
256
 10
25.926583000000001
 20
-59.157794000000003
 11
19.926583000000001
 21
-59.157794000000003
  0
LINE
  8
0
  6
CONTINUOUS
 62
256
 10
25.926583000000001
 20
-52.246217999999999
 11
19.926583000000001
 21
-52.246217999999999
  0
LINE
  8
0
  6
CONTINUOUS
 62
256
 10
25.926583000000001
 20
-65.341257999999996
 11
20.926583000000001
 21
-65.341257999999996
  0
LINE
  8
0
  6
CONTINUOUS
 62
256
 10
14.926583000000001
 20
-160.842524999999990
 11
14.926583000000001
 21
-47.842525000000002
  0
ARC
  8
0
  6
CONTINUOUS
 62
256
 10
19.926583000000001
 20
-64.157793999999996
 40
5.000000000000000
 50
90.000000000000000
 51
180.000000000000000
  0
ARC
  8
0
  6
CONTINUOUS
 62
256
 10
19.926583000000001
 20
-57.246217999999999
 40
5.000000000000000
 50
90.000000000000000
 51
180.000000000000000
  0
LINE
  8
0
  6
CONTINUOUS
 62
256
 10
10.426583000000001
 20
-176.225525000000000
 11
10.426583000000001
 21
-165.357899000000000
  0
LINE
  8
0
  6
CONTINUOUS
 62
256
 10
10.426583000000001
 20
-31.225525000000001
 11
10.426583000000001
 21
-166.308665999999990
  0
CIRCLE
  8
0
  6
CONTINUOUS
 62
256
 10
-65.573417000000006
 20
-68.225525000000005
 40
44.000000000000000
  0
POINT
  8
0
  6
CONTINUOUS
 62
256
 10
-65.573417000000006
 20
-68.225525000000005
  0
ARC
  8
0
  6
CONTINUOUS
 62
256
 10
-24.573416999999999
 20
-31.225525000000001
 40
35.000000000000000
 50
0.000000000000000
 51
90.000000000000000
  0
CIRCLE
  8
0
  6
CONTINUOUS
 62
256
 10
-65.573417000000006
 20
-68.225525000000005
 40
48.496338000000002
  0
CIRCLE
  8
0
  6
CONTINUOUS
 62
256
 10
-65.639066000000000
 20
-68.423264000000003
 40
29.000000000000000
  0
CIRCLE
  8
0
  6
CONTINUOUS
 62
256
 10
-65.639066000000000
 20
-68.423264000000003
 40
32.000000000000000
  0
CIRCLE
  8
0
  6
CONTINUOUS
 62
256
 10
-65.573417000000006
 20
-68.225525000000005
 40
26.000000000000000
  0
LINE
  8
0
  6
CONTINUOUS
 62
256
 10
-148.073417000000010
 20
-31.225525000000001
 11
-148.073417000000010
 21
-208.225525000000000
  0
ARC
  8
0
  6
CONTINUOUS
 62
256
 10
-113.073417000000010
 20
-31.225525000000001
 40
35.000000000000000
 50
90.000000000000000
 51
180.000000000000000
  0
LINE
  8
0
  6
CONTINUOUS
 62
256
 10
-60.573416999999999
 20
-49.225524999999998
 11
-60.573416999999999
 21
-57.225524999999998
  0
LINE
  8
0
  6
CONTINUOUS
 62
256
 10
-60.573416999999999
 20
-49.225524999999998
 11
-70.573417000000006
 21
-49.225524999999998
  0
LINE
  8
0
  6
CONTINUOUS
 62
256
 10
-70.573417000000006
 20
-57.225524999999998
 11
-60.573416999999999
 21
-57.225524999999998
  0
ARC
  8
0
  6
CONTINUOUS
 62
256
 10
-65.573417000000006
 20
-68.225525000000005
 40
16.000000000000000
 50
108.209957000000020
 51
71.790043000000011
  0
LINE
  8
0
  6
CONTINUOUS
 62
256
 10
-70.573417000000006
 20
-49.225524999999998
 11
-70.573417000000006
 21
-57.225524999999998
  0
CIRCLE
  8
0
  6
CONTINUOUS
 62
256
 10
-65.573417000000006
 20
-68.225525000000005
 40
4.000000000000000
  0
CIRCLE
  8
0
  6
CONTINUOUS
 62
256
 10
-65.573417000000006
 20
-68.225525000000005
 40
3.500000000000000
  0
LINE
  8
0
  6
DASHDOT
 62
256
 10
-65.573417000000006
 20
7.541754000000000
 11
-65.573417000000006
 21
-218.514146000000010
  0
LINE
  8
0
  6
DASHDOT
 62
256
 10
-154.006945000000000
 20
-68.225525000000005
 11
46.787218000000003
 21
-68.225525000000005
  0
LINE
  8
0
  6
CONTINUOUS
 62
256
 10
-24.573416999999999
 20
3.774475000000000
 11
-113.073417000000010
 21
3.774475000000000
  0
ARC
  8
0
  6
CONTINUOUS
 62
256
 10
-720.116184999999970
 20
-104.884525000000000
 40
300.600000000000020
 50
351.402918000000000
 51
357.751559999999980
  0
ARC
  8
0
  6
CONTINUOUS
 62
256
 10
-429.419571000000020
 20
-148.833113000000000
 40
6.599999999999993
 50
345.979694999999820
 51
351.402917999999940
  0
ARC
  8
0
  6
CONTINUOUS
 62
256
 10
-529.612799000000000
 20
-148.833113000000000
 40
6.600000000000022
 50
188.597082000000030
 51
194.020304999999890
  0
ARC
  8
0
  6
CONTINUOUS
 62
256
 10
-238.916185000000010
 20
-104.884525000000000
 40
300.600000000000020
 50
182.250299000000010
 51
188.597082000000000
  0
LINE
  8
0
  6
DASHDOT
 62
256
 10
-573.779524000000040
 20
-68.767525000000006
 11
-329.410793000000010
 21
-68.767525000000006
  0
ARC
  8
0
  6
CONTINUOUS
 62
256
 10
-339.316390000000010
 20
-83.967524999999995
 40
0.799999999999997
 50
270.000000000000000
 51
0.000000000000000
  0
LINE
  8
0
  6
CONTINUOUS
 62
256
 10
-395.516185000000010
 20
-86.267525000000006
 11
-393.916321999999980
 21
-86.267525000000006
  0
LINE
  8
0
  6
CONTINUOUS
 62
256
 10
-393.116322000000030
 20
-84.767525000000006
 11
-339.316390000000010
 21
-84.767525000000006
  0
ARC
  8
0
  6
CONTINUOUS
 62
256
 10
-393.116322000000030
 20
-85.167524999999998
 40
0.400000000000006
 50
90.000000000000000
 51
180.000000000000000
  0
ARC
  8
0
  6
CONTINUOUS
 62
256
 10
-393.916321999999980
 20
-85.867525000000001
 40
0.400000000000006
 50
270.000000000000000
 51
0.000000000000000
  0
LINE
  8
0
  6
CONTINUOUS
 62
256
 10
-338.516390000000000
 20
-49.767524999999999
 11
-338.516390000000000
 21
-83.967524999999995
  0
ARC
  8
0
  6
CONTINUOUS
 62
256
 10
-339.316390000000010
 20
-53.567525000000003
 40
0.800000000000011
 50
0.000000000000000
 51
90.000000000000000
  0
LINE
  8
0
  6
CONTINUOUS
 62
256
 10
-393.516322000000000
 20
-51.667524999999998
 11
-393.516322000000000
 21
-85.867525000000001
  0
LINE
  8
0
  6
CONTINUOUS
 62
256
 10
-395.516185000000010
 20
-51.267524999999999
 11
-393.916321999999980
 21
-51.267524999999999
  0
LINE
  8
0
  6
CONTINUOUS
 62
256
 10
-393.116322000000030
 20
-52.767524999999999
 11
-339.316390000000010
 21
-52.767524999999999
  0
LINE
  8
0
  6
CONTINUOUS
 62
256
 10
-378.516390000000000
 20
-49.767524999999999
 11
-338.516390000000000
 21
-49.767524999999999
  0
LINE
  8
0
  6
CONTINUOUS
 62
256
 10
-378.516390000000000
 20
-49.767524999999999
 11
-378.516390000000000
 21
-52.767524999999999
  0
ARC
  8
0
  6
CONTINUOUS
 62
256
 10
-393.116322000000030
 20
-52.367525000000001
 40
0.399999999999977
 50
180.000000000000000
 51
270.000000000000000
  0
ARC
  8
0
  6
CONTINUOUS
 62
256
 10
-393.916321999999980
 20
-51.667524999999998
 40
0.399999999999977
 50
0.000000000000000
 51
90.000000000000000
  0
ARC
  8
0
  6
CONTINUOUS
 62
256
 10
-418.016185000000010
 20
-121.439442000000000
 40
4.999999999999998
 50
100.680801000000170
 51
180.000000000000000
  0
LINE
  8
0
  6
CONTINUOUS
 62
256
 10
-398.995172000000030
 20
-112.763831999999990
 11
-418.942872000000020
 21
-116.526067000000000
  0
LINE
  8
0
  6
CONTINUOUS
 62
256
 10
-423.016185000000010
 20
-13.767524999999999
 11
-423.016185000000010
 21
-133.099850000000000
  0
LINE
  8
0
  6
DASHED
 62
256
 10
-420.016185000000010
 20
-104.884525000000000
 11
-420.016185000000010
 21
-116.876786000000000
  0
ARC
  8
0
  6
DASHED
 62
256
 10
-452.969730000000030
 20
-131.430980000000010
 40
29.999999999999989
 50
274.114344999999960
 51
356.811048000000030
  0
LINE
  8
0
  6
CONTINUOUS
 62
256
 10
-420.016185000000010
 20
-116.876786000000000
 11
-420.016185000000010
 21
-124.384525000000000
  0
LINE
  8
0
  6
CONTINUOUS
 62
256
 10
-420.516185000000010
 20
-124.884525000000000
 11
-422.041185999999980
 21
-124.884525000000000
  0
ARC
  8
0
  6
CONTINUOUS
 62
256
 10
-420.516185000000010
 20
-124.384525000000000
 40
0.500000000000000
 50
270.000000000000000
 51
0.000000000000000
  0
ARC
  8
0
  6
CONTINUOUS
 62
256
 10
-822.016184999999950
 20
-104.884525000000000
 40
399.999999999999940
 50
355.885654999999990
 51
357.065974999999980
  0
ARC
  8
0
  6
CONTINUOUS
 62
256
 10
-422.041185999999980
 20
-125.384525000000000
 40
0.500000000000000
 50
90.000000000000000
 51
177.065974999999950
  0
ARC
  8
0
  6
DASHED
 62
256
 10
-506.062639999999990
 20
-131.430980000000010
 40
29.999999999999947
 50
183.188951999999970
 51
265.885655000000040
  0
LINE
  8
0
  6
DASHED
 62
256
 10
-539.016184999999950
 20
-104.884525000000000
 11
-539.016184999999950
 21
-116.734882000000000
  0
ARC
  8
0
  6
CONTINUOUS
 62
256
 10
-137.016185000000010
 20
-104.884525000000000
 40
400.000000000000000
 50
182.934024999999990
 51
184.114344999999960
  0
LINE
  8
0
  6
CONTINUOUS
 62
256
 10
-536.016184999999950
 20
-164.192921000000010
 11
-536.016184999999950
 21
-17.753888000000000
  0
LINE
  8
0
  6
CONTINUOUS
 62
256
 10
-539.016184999999950
 20
-116.645199000000010
 11
-539.016184999999950
 21
-124.384525000000000
  0
ARC
  8
0
  6
CONTINUOUS
 62
256
 10
-536.991183999999980
 20
-125.384525000000000
 40
0.500000000000028
 50
2.934025000000031
 51
90.000000000000000
  0
LINE
  8
0
  6
CONTINUOUS
 62
256
 10
-538.516184999999950
 20
-124.884525000000000
 11
-536.991183999999980
 21
-124.884525000000000
  0
ARC
  8
0
  6
CONTINUOUS
 62
256
 10
-538.516184999999950
 20
-124.384525000000000
 40
0.500000000000000
 50
180.000000000000000
 51
270.000000000000000
  0
ARC
  8
0
  6
CONTINUOUS
 62
256
 10
-536.991183999999980
 20
-125.384525000000000
 40
0.500000000000028
 50
2.934025000000031
 51
90.000000000000000
  0
LINE
  8
0
  6
CONTINUOUS
 62
256
 10
-529.516184999999950
 20
-170.204952999999990
 11
-529.516184999999950
 21
2.232475000000000
  0
ARC
  8
0
  6
CONTINUOUS
 62
256
 10
-539.016184999999950
 20
-119.781161999999990
 40
3.000000000000000
 50
0.000000000000000
 51
79.999999999999304
  0
LINE
  8
0
  6
CONTINUOUS
 62
256
 10
-560.037130000000050
 20
-113.028323000000000
 11
-538.495239999999970
 21
-116.826739000000000
  0
LINE
  8
0
  6
CONTINUOUS
 62
256
 10
-524.516184999999950
 20
3.223747000000000
 11
-524.516184999999950
 21
-155.084027999999990
  0
LINE
  8
0
  6
CONTINUOUS
 62
256
 10
-430.516253000000010
 20
-151.326742999999990
 11
-430.516253000000010
 21
-1.365120000000000
  0
LINE
  8
0
  6
DASHED
 62
256
 10
-479.516185000000010
 20
-45.384524999999996
 11
-460.016185000000010
 21
-45.384524999999996
  0
LINE
  8
0
  6
DASHED
 62
256
 10
-459.516185000000010
 20
-45.884524999999996
 11
-459.516185000000010
 21
-47.409526000000000
  0
ARC
  8
0
  6
DASHED
 62
256
 10
-460.016185000000010
 20
-45.884524999999996
 40
0.500000000000000
 50
0.000000000000000
 51
90.000000000000000
  0
ARC
  8
0
  6
DASHED
 62
256
 10
-479.516185000000010
 20
-447.384525000000000
 40
400.000000000000060
 50
85.885655000000000
 51
87.065974999999995
  0
ARC
  8
0
  6
DASHED
 62
256
 10
-452.969730000000030
 20
-78.338070999999999
 40
30.000000000000018
 50
4.114344999999991
 51
85.885655000000028
  0
ARC
  8
0
  6
DASHED
 62
256
 10
-459.016185000000010
 20
-47.409526000000000
 40
0.500000000000000
 50
180.000000000000000
 51
267.065974999999810
  0
LINE
  8
0
  6
DASHED
 62
256
 10
-479.516185000000010
 20
-45.384524999999996
 11
-499.016185000000010
 21
-45.384524999999996
  0
LINE
  8
0
  6
DASHED
 62
256
 10
-499.516185000000010
 20
-45.884524999999996
 11
-499.516185000000010
 21
-47.409526000000000
  0
ARC
  8
0
  6
DASHED
 62
256
 10
-479.516185000000010
 20
-447.384525000000000
 40
400.000000000000000
 50
92.934025000000005
 51
94.114345000000000
  0
ARC
  8
0
  6
DASHED
 62
256
 10
-499.016185000000010
 20
-45.884524999999996
 40
0.500000000000000
 50
90.000000000000000
 51
180.000000000000000
  0
ARC
  8
0
  6
DASHED
 62
256
 10
-500.016185000000010
 20
-47.409526000000000
 40
0.499999999999999
 50
272.934025000000190
 51
0.000000000000000
  0
ARC
  8
0
  6
DASHED
 62
256
 10
-506.062639999999990
 20
-78.338070999999999
 40
30.000000000000004
 50
94.114344999999972
 51
175.885655000000010
  0
LINE
  8
0
  6
DASHED
 62
256
 10
-539.016184999999950
 20
-104.884525000000000
 11
-539.016184999999950
 21
-85.384524999999996
  0
LINE
  8
0
  6
DASHED
 62
256
 10
-538.516184999999950
 20
-84.884524999999996
 11
-536.991183999999980
 21
-84.884524999999996
  0
ARC
  8
0
  6
DASHED
 62
256
 10
-538.516184999999950
 20
-85.384524999999996
 40
0.500000000000000
 50
90.000000000000000
 51
180.000000000000000
  0
ARC
  8
0
  6
DASHED
 62
256
 10
-536.991183999999980
 20
-84.384524999999996
 40
0.500000000000000
 50
270.000000000000000
 51
357.065974999999980
  0
ARC
  8
0
  6
DASHED
 62
256
 10
-538.516184999999950
 20
-85.384524999999996
 40
0.500000000000000
 50
90.000000000000000
 51
180.000000000000000
  0
ARC
  8
0
  6
DASHED
 62
256
 10
-536.991183999999980
 20
-84.384524999999996
 40
0.500000000000000
 50
270.000000000000000
 51
357.065974999999980
  0
ARC
  8
0
  6
DASHED
 62
256
 10
-137.016185000000010
 20
-104.884525000000000
 40
399.999999999999940
 50
175.885655000000010
 51
177.065975000000010
  0
LINE
  8
0
  6
DASHED
 62
256
 10
-479.516185000000010
 20
-164.384525000000000
 11
-499.016185000000010
 21
-164.384525000000000
  0
LINE
  8
0
  6
DASHED
 62
256
 10
-499.516185000000010
 20
-163.884525000000000
 11
-499.516185000000010
 21
-162.359524999999990
  0
LINE
  8
0
  6
DASHED
 62
256
 10
-479.516185000000010
 20
-164.384525000000000
 11
-499.016185000000010
 21
-164.384525000000000
  0
LINE
  8
0
  6
DASHED
 62
256
 10
-499.516185000000010
 20
-163.884525000000000
 11
-499.516185000000010
 21
-162.359524999999990
  0
ARC
  8
0
  6
DASHED
 62
256
 10
-499.016185000000010
 20
-163.884525000000000
 40
0.500000000000000
 50
180.000000000000000
 51
270.000000000000000
  0
ARC
  8
0
  6
DASHED
 62
256
 10
-500.016185000000010
 20
-162.359524999999990
 40
0.500000000000000
 50
0.000000000000000
 51
87.065974999999796
  0
ARC
  8
0
  6
DASHED
 62
256
 10
-499.016185000000010
 20
-163.884525000000000
 40
0.500000000000000
 50
180.000000000000000
 51
270.000000000000000
  0
ARC
  8
0
  6
DASHED
 62
256
 10
-500.016185000000010
 20
-162.359524999999990
 40
0.500000000000000
 50
0.000000000000000
 51
87.065974999999796
  0
ARC
  8
0
  6
DASHED
 62
256
 10
-479.516185000000010
 20
237.615475000000000
 40
399.999999999999940
 50
265.885654999999990
 51
267.065974999999980
  0
LINE
  8
0
  6
DASHED
 62
256
 10
-479.516185000000010
 20
-164.384525000000000
 11
-460.016185000000010
 21
-164.384525000000000
  0
LINE
  8
0
  6
DASHED
 62
256
 10
-459.516185000000010
 20
-163.884525000000000
 11
-459.516185000000010
 21
-162.359524999999990
  0
ARC
  8
0
  6
DASHED
 62
256
 10
-479.516185000000010
 20
237.615475000000000
 40
400.000000000000000
 50
272.934025000000020
 51
274.114345000000010
  0
ARC
  8
0
  6
DASHED
 62
256
 10
-460.016185000000010
 20
-163.884525000000000
 40
0.500000000000000
 50
270.000000000000000
 51
0.000000000000000
  0
ARC
  8
0
  6
DASHED
 62
256
 10
-459.016185000000010
 20
-162.359524999999990
 40
0.499999999999999
 50
92.934025000000204
 51
180.000000000000000
  0
LINE
  8
0
  6
DASHED
 62
256
 10
-420.516185000000010
 20
-84.884524999999996
 11
-422.041185999999980
 21
-84.884524999999996
  0
LINE
  8
0
  6
DASHED
 62
256
 10
-420.016185000000010
 20
-104.884525000000000
 11
-420.016185000000010
 21
-85.384524999999996
  0
ARC
  8
0
  6
DASHED
 62
256
 10
-420.516185000000010
 20
-85.384524999999996
 40
0.500000000000000
 50
0.000000000000000
 51
90.000000000000000
  0
ARC
  8
0
  6
DASHED
 62
256
 10
-822.016184999999950
 20
-104.884525000000000
 40
400.000000000000000
 50
2.934025000000001
 51
4.114344999999999
  0
ARC
  8
0
  6
DASHED
 62
256
 10
-422.041185999999980
 20
-84.384524999999996
 40
0.500000000000028
 50
182.934025000000020
 51
270.000000000000000
  0
LINE
  8
0
  6
CONTINUOUS
 62
256
 10
-524.516184999999950
 20
-155.084027999999990
 11
-524.516184999999950
 21
-189.767525000000010
  0
LINE
  8
0
  6
CONTINUOUS
 62
256
 10
-563.116184999999970
 20
-39.767524999999999
 11
-562.516184999999950
 21
-39.767524999999999
  0
LINE
  8
0
  6
CONTINUOUS
 62
256
 10
-563.116184999999970
 20
-97.767525000000006
 11
-562.516184999999950
 21
-97.767525000000006
  0
LINE
  8
0
  6
CONTINUOUS
 62
256
 10
-562.516184999999950
 20
-110.073899000000000
 11
-562.516184999999950
 21
-97.767525000000006
  0
LINE
  8
0
  6
CONTINUOUS
 62
256
 10
-562.516184999999950
 20
-27.461151000000001
 11
-562.516184999999950
 21
-97.767525000000006
  0
ARC
  8
0
  6
CONTINUOUS
 62
256
 10
-532.516184999999950
 20
-170.204952999999990
 40
3.000000000000000
 50
0.000000000000000
 51
88.777847000000691
  0
LINE
  8
0
  6
CONTINUOUS
 62
256
 10
-532.452197999999950
 20
-167.205636000000000
 11
-533.080171999999950
 21
-167.192239000000000
  0
ARC
  8
0
  6
CONTINUOUS
 62
256
 10
-533.016184999999950
 20
-164.192921000000010
 40
3.000000000000000
 50
180.000000000000000
 51
268.777847000000690
  0
LINE
  8
0
  6
CONTINUOUS
 62
256
 10
-529.516184999999950
 20
-187.774381000000010
 11
-529.516184999999950
 21
-170.204952999999990
  0
LINE
  8
0
  6
CONTINUOUS
 62
256
 10
-524.516184999999950
 20
-188.877241000000000
 11
-528.516396999999980
 21
-188.794949000000000
  0
ARC
  8
0
  6
CONTINUOUS
 62
256
 10
-559.516184999999950
 20
-110.073899000000000
 40
3.000000000000000
 50
180.000000000000000
 51
259.999999999999320
  0
ARC
  8
0
  6
CONTINUOUS
 62
256
 10
-559.516184999999950
 20
-27.461151000000001
 40
3.000000000000006
 50
100.000000000000720
 51
180.000000000000000
  0
LINE
  8
0
  6
CONTINUOUS
 62
256
 10
-533.016184999999950
 20
-10.767524999999999
 11
-532.516184999999950
 21
-10.767524999999999
  0
LINE
  8
0
  6
CONTINUOUS
 62
256
 10
-563.516184999999950
 20
-97.367525000000001
 11
-563.516184999999950
 21
-68.767525000000006
  0
LINE
  8
0
  6
CONTINUOUS
 62
256
 10
-563.516184999999950
 20
-40.167524999999998
 11
-563.516184999999950
 21
-68.767525000000006
  0
LINE
  8
0
  6
CONTINUOUS
 62
256
 10
-563.516184999999950
 20
-97.367525000000001
 11
-563.116184999999970
 21
-97.767525000000006
  0
LINE
  8
0
  6
CONTINUOUS
 62
256
 10
-563.516184999999950
 20
-40.167524999999998
 11
-563.116184999999970
 21
-39.767524999999999
  0
ARC
  8
0
  6
CONTINUOUS
 62
256
 10
-533.016184999999950
 20
-13.767524999999999
 40
3.000000000000000
 50
90.000000000000000
 51
180.000000000000000
  0
ARC
  8
0
  6
CONTINUOUS
 62
256
 10
-532.516184999999950
 20
-7.767525000000000
 40
2.999999999999999
 50
270.000000000000000
 51
0.000000000000000
  0
LINE
  8
0
  6
CONTINUOUS
 62
256
 10
-529.516184999999950
 20
2.232475000000000
 11
-528.516184999999950
 21
3.232475000000000
  0
LINE
  8
0
  6
CONTINUOUS
 62
256
 10
-528.516184999999950
 20
3.232475000000000
 11
-524.516184999999950
 21
3.232475000000000
  0
ARC
  8
0
  6
CONTINUOUS
 62
256
 10
-539.016184999999950
 20
-17.753888000000000
 40
3.000000000000006
 50
280.000000000000680
 51
0.000000000000000
  0
LINE
  8
0
  6
CONTINUOUS
 62
256
 10
-560.037130000000050
 20
-24.506727999999999
 11
-538.495239999999970
 21
-20.708311999999999
  0
ARC
  8
0
  6
CONTINUOUS
 62
256
 10
-539.016184999999950
 20
-17.753888000000000
 40
3.000000000000006
 50
280.000000000000680
 51
0.000000000000000
  0
LINE
  8
0
  6
CONTINUOUS
 62
256
 10
-536.016184999999950
 20
-13.767524999999999
 11
-536.016184999999950
 21
-17.753888000000000
  0
LINE
  8
0
  6
CONTINUOUS
 62
256
 10
-395.916116999999990
 20
-39.767524999999999
 11
-395.516117000000010
 21
-40.167524999999998
  0
LINE
  8
0
  6
CONTINUOUS
 62
256
 10
-396.516117000000010
 20
-68.767525000000006
 11
-396.516117000000010
 21
-27.725642000000001
  0
LINE
  8
0
  6
CONTINUOUS
 62
256
 10
-395.916116999999990
 20
-97.767525000000006
 11
-395.516117000000010
 21
-97.367525000000001
  0
LINE
  8
0
  6
CONTINUOUS
 62
256
 10
-396.516117000000010
 20
-109.809409000000000
 11
-396.516117000000010
 21
-68.767525000000006
  0
ARC
  8
0
  6
CONTINUOUS
 62
256
 10
-525.516184999999950
 20
-189.767525000000010
 40
1.000000000000000
 50
270.000000000000000
 51
0.000000000000000
  0
LINE
  8
0
  6
CONTINUOUS
 62
256
 10
-563.503512000000000
 20
-208.767525000000010
 11
-395.528858000000010
 21
-208.767525000000010
  0
LINE
  8
0
  6
CONTINUOUS
 62
256
 10
-398.995172000000030
 20
-24.771218000000001
 11
-418.942872000000020
 21
-21.008984000000002
  0
ARC
  8
0
  6
CONTINUOUS
 62
256
 10
-399.516117000000010
 20
-27.725642000000001
 40
3.000000000000000
 50
0.000000000000000
 51
80.000000000000355
  0
LINE
  8
0
  6
CONTINUOUS
 62
256
 10
-396.516117000000010
 20
-39.767524999999999
 11
-395.916116999999990
 21
-39.767524999999999
  0
LINE
  8
0
  6
CONTINUOUS
 62
256
 10
-395.516117000000010
 20
-97.367525000000001
 11
-395.516117000000010
 21
-40.167524999999998
  0
ARC
  8
0
  6
CONTINUOUS
 62
256
 10
-399.516117000000010
 20
-109.809409000000000
 40
3.000000000000003
 50
279.999999999999660
 51
0.000000000000000
  0
LINE
  8
0
  6
CONTINUOUS
 62
256
 10
-396.516117000000010
 20
-97.767525000000006
 11
-395.916116999999990
 21
-97.767525000000006
  0
LINE
  8
0
  6
CONTINUOUS
 62
256
 10
-430.516253000000010
 20
-187.767525000000010
 11
-430.516253000000010
 21
-151.326742999999990
  0
LINE
  8
0
  6
CONTINUOUS
 62
256
 10
-423.016185000000010
 20
-164.169524999999990
 11
-423.016185000000010
 21
-133.099850000000000
  0
ARC
  8
0
  6
CONTINUOUS
 62
256
 10
-452.559512999999980
 20
-78.853992000000005
 40
30.000000000000011
 50
38.138563999999981
 51
46.250824999999985
  0
ARC
  8
0
  6
CONTINUOUS
 62
256
 10
-430.536966000000010
 20
-61.562161000000003
 40
1.999999999999981
 50
9.711408000000015
 51
38.138564000000251
  0
ARC
  8
0
  6
CONTINUOUS
 62
256
 10
-427.516253000000010
 20
-7.767525000000000
 40
3.000000000000000
 50
180.000000000000000
 51
270.000000000000000
  0
LINE
  8
0
  6
CONTINUOUS
 62
256
 10
-425.986214000000020
 20
-10.767524999999999
 11
-427.516253000000010
 21
-10.767524999999999
  0
LINE
  8
0
  6
CONTINUOUS
 62
256
 10
-524.516184999999950
 20
3.223747000000000
 11
-433.463895999999980
 21
1.634424000000000
  0
LINE
  8
0
  6
CONTINUOUS
 62
256
 10
-560.122368000000050
 20
-190.767525000000010
 11
-398.910002000000020
 21
-190.767525000000010
  0
ARC
  8
0
  6
CONTINUOUS
 62
256
 10
-433.516253000000010
 20
-1.365120000000000
 40
3.000000000000000
 50
0.000000000000000
 51
89.000000000000412
  0
LINE
  8
0
  6
CONTINUOUS
 62
256
 10
-426.016185000000010
 20
-167.169524999999990
 11
-427.516253000000010
 21
-167.169524999999990
  0
ARC
  8
0
  6
CONTINUOUS
 62
256
 10
-426.016185000000010
 20
-164.169524999999990
 40
3.000000000000000
 50
270.000000000000000
 51
0.000000000000000
  0
ARC
  8
0
  6
CONTINUOUS
 62
256
 10
-427.516253000000010
 20
-170.169524999999990
 40
3.000000000000000
 50
90.000000000000000
 51
180.000000000000000
  0
LINE
  8
0
  6
CONTINUOUS
 62
256
 10
-563.121340000000030
 20
-193.688995000000010
 11
-563.503512000000000
 21
-208.767525000000010
  0
ARC
  8
0
  6
CONTINUOUS
 62
256
 10
-560.122368000000050
 20
-193.767525000000010
 40
3.000000000000000
 50
90.000000000000000
 51
178.500000000000030
  0
ARC
  8
0
  6
CONTINUOUS
 62
256
 10
-398.910002000000020
 20
-193.767525000000010
 40
3.000000000000018
 50
1.499999999999996
 51
90.000000000000000
  0
LINE
  8
0
  6
CONTINUOUS
 62
256
 10
-395.911029999999980
 20
-193.688995000000010
 11
-395.528858000000010
 21
-208.767525000000010
  0
ARC
  8
0
  6
CONTINUOUS
 62
256
 10
-427.516253000000010
 20
-187.767525000000010
 40
3.000000000000000
 50
180.000000000000000
 51
270.000000000000000
  0
ARC
  8
0
  6
CONTINUOUS
 62
256
 10
-418.016185000000010
 20
-16.075689000000001
 40
5.000000000000021
 50
184.961107999999970
 51
260.000000000000110
  0
ARC
  8
0
  6
CONTINUOUS
 62
256
 10
-425.986214000000020
 20
-13.767524999999999
 40
2.999999999999979
 50
4.961108000000031
 51
90.000000000000000
  0
LINE
  8
0
  6
DASHDOT
 62
256
 10
-479.516185000000010
 20
-215.944483999999990
 11
-479.516185000000010
 21
9.460919000000001
  0
LINE
  8
0
  6
DASHDOT
 62
256
 10
-460.114053000000010
 20
-104.884525000000000
 11
-497.103288000000020
 21
-104.884525000000000
  0
LINE
  8
0
  6
DASHDOT
 62
256
 10
-273.854042999999990
 20
-68.767525000000006
 11
-232.757268000000010
 21
-68.767525000000006
  0
LINE
  8
0
  6
DASHDOT
 62
256
 10
-252.634222999999990
 20
-45.269511999999999
 11
-252.634222999999990
 21
-89.791017999999994
  0
LINE
  8
0
  6
CONTINUOUS
 62
256
 10
-247.634222999999990
 20
-49.767524999999999
 11
-247.634222999999990
 21
-57.767524999999999
  0
LINE
  8
0
  6
CONTINUOUS
 62
256
 10
-247.634222999999990
 20
-49.767524999999999
 11
-257.634223000000020
 21
-49.767524999999999
  0
LINE
  8
0
  6
CONTINUOUS
 62
256
 10
-257.634223000000020
 20
-49.767524999999999
 11
-257.634223000000020
 21
-57.767524999999999
  0
LINE
  8
0
  6
CONTINUOUS
 62
256
 10
-257.634223000000020
 20
-57.767524999999999
 11
-247.634222999999990
 21
-57.767524999999999
  0
ARC
  8
0
  6
CONTINUOUS
 62
256
 10
-252.634222999999990
 20
-68.767525000000006
 40
15.999999999999995
 50
108.209956999999970
 51
71.790043000000026
  0
CIRCLE
  8
0
  6
CONTINUOUS
 62
256
 10
-252.634222999999990
 20
-68.767525000000006
 40
4.000000000000000
  0
CIRCLE
  8
0
  6
CONTINUOUS
 62
256
 10
-252.634222999999990
 20
-68.767525000000006
 40
3.500000000000000
  0
LINE
  8
0
  6
CONTINUOUS
 62
256
 10
34.926583000000001
 20
-45.894933000000002
 11
34.926583000000001
 21
-162.790118000000010
  0
LINE
  8
0
  6
DASHDOT
 62
256
 10
-14.391518000000000
 20
-104.342524999999990
 11
247.552944000000000
 21
-104.342524999999990
  0
LINE
  8
0
  6
CONTINUOUS
 62
256
 10
34.926583000000001
 20
-45.844963000000000
 11
34.926583000000001
 21
-162.842524999999990
  0
LINE
  8
0
  6
CONTINUOUS
 62
256
 10
34.926582000000003
 20
-162.842529000000010
 11
34.926582000000003
 21
-160.592529000000010
  0
LINE
  8
0
  6
CONTINUOUS
 62
256
 10
34.926583000000001
 20
-45.851253000000000
 11
34.926583000000001
 21
-104.342524999999990
  0
LINE
  8
0
  6
CONTINUOUS
 62
256
 10
34.926583000000001
 20
-162.833798000000000
 11
34.926583000000001
 21
-104.342524999999990
  0
LINE
  8
0
  6
CONTINUOUS
 62
256
 10
34.927089000000002
 20
-160.592524999999990
 11
34.927089000000002
 21
-162.760487000000010
  0
LINE
  8
0
  6
CONTINUOUS
 62
256
 10
34.927089000000002
 20
-162.842524999999990
 11
34.927089000000002
 21
-160.592524999999990
  0
LINE
  8
0
  6
CONTINUOUS
 62
256
 10
34.927089000000002
 20
-45.842525000000002
 11
34.927089000000002
 21
-48.092525000000002
  0
LINE
  8
0
  6
CONTINUOUS
 62
256
 10
34.926583000000001
 20
-163.842524999999990
 11
34.926583000000001
 21
-104.342524999999990
  0
LINE
  8
0
  6
CONTINUOUS
 62
256
 10
34.926583000000001
 20
-44.842525000000002
 11
34.926583000000001
 21
-104.342524999999990
  0
LINE
  8
0
  6
CONTINUOUS
 62
256
 10
34.926583000000001
 20
-104.342524999999990
 11
34.926583000000001
 21
-44.868710999999998
  0
LINE
  8
0
  6
CONTINUOUS
 62
256
 10
34.926583000000001
 20
-104.342524999999990
 11
34.926583000000001
 21
-163.816339000000000
  0
LINE
  8
0
  6
CONTINUOUS
 62
256
 10
139.726583000000010
 20
-40.842525000000002
 11
139.726583000000010
 21
-42.614671000000001
  0
LINE
  8
0
  6
CONTINUOUS
 62
256
 10
49.726582999999998
 20
-40.842525000000002
 11
139.726583000000010
 21
-40.842525000000002
  0
LINE
  8
0
  6
CONTINUOUS
 62
256
 10
49.726582999999998
 20
-40.842525000000002
 11
49.726582999999998
 21
-45.842525000000002
  0
LINE
  8
0
  6
CONTINUOUS
 62
256
 10
49.726582999999998
 20
-45.842525000000002
 11
131.926582999999990
 21
-45.842525000000002
  0
LINE
  8
0
  6
CONTINUOUS
 62
256
 10
138.726583000000010
 20
-6.842525000000000
 11
50.726582999999998
 21
-6.842525000000000
  0
LINE
  8
0
  6
CONTINUOUS
 62
256
 10
139.726583000000010
 20
-40.842525000000002
 11
139.726583000000010
 21
-26.842524999999998
  0
ARC
  8
0
  6
CONTINUOUS
 62
256
 10
138.726583000000010
 20
-7.842525000000000
 40
1.000000000000000
 50
0.000000000000000
 51
90.000000000000000
  0
LINE
  8
0
  6
CONTINUOUS
 62
256
 10
139.726583000000010
 20
-40.842525000000002
 11
49.726582999999998
 21
-40.842525000000002
  0
LINE
  8
0
  6
CONTINUOUS
 62
256
 10
49.726582999999998
 20
-40.842525000000002
 11
49.726582999999998
 21
-7.842525000000000
  0
ARC
  8
0
  6
CONTINUOUS
 62
256
 10
50.726582999999998
 20
-7.842525000000000
 40
1.000000000000000
 50
90.000000000000000
 51
180.000000000000000
  0
LINE
  8
0
  6
CONTINUOUS
 62
256
 10
64.726583000000005
 20
-6.342525000000000
 11
56.726582999999998
 21
-6.342525000000000
  0
LINE
  8
0
  6
CONTINUOUS
 62
256
 10
132.726583000000010
 20
-6.342525000000000
 11
124.726583000000010
 21
-6.342525000000000
  0
LINE
  8
0
  6
CONTINUOUS
 62
256
 10
56.726582999999998
 20
-6.842525000000000
 11
56.726582999999998
 21
-6.342525000000000
  0
LINE
  8
0
  6
CONTINUOUS
 62
256
 10
64.726583000000005
 20
-6.842525000000000
 11
64.726583000000005
 21
-6.342525000000000
  0
LINE
  8
0
  6
CONTINUOUS
 62
256
 10
124.726583000000010
 20
-6.842525000000000
 11
124.726583000000010
 21
-6.342525000000000
  0
LINE
  8
0
  6
CONTINUOUS
 62
256
 10
132.726583000000010
 20
-6.842525000000000
 11
132.726583000000010
 21
-6.342525000000000
  0
LINE
  8
0
  6
CONTINUOUS
 62
256
 10
130.226583000000010
 20
-6.842525000000000
 11
130.226583000000010
 21
-6.342525000000000
  0
LINE
  8
0
  6
CONTINUOUS
 62
256
 10
59.226582999999998
 20
-6.842525000000000
 11
59.226582999999998
 21
-6.342525000000000
  0
LINE
  8
0
  6
CONTINUOUS
 62
256
 10
138.926582999999990
 20
-42.723303999999999
 11
134.926582999999990
 21
-42.723303999999999
  0
LINE
  8
0
  6
CONTINUOUS
 62
256
 10
234.926582999999990
 20
-104.342524999999990
 11
234.926582999999990
 21
-51.899320000000003
  0
LINE
  8
0
  6
CONTINUOUS
 62
256
 10
34.926583000000001
 20
-44.842525000000002
 11
34.926583000000001
 21
-104.342524999999990
  0
LINE
  8
0
  6
CONTINUOUS
 62
256
 10
131.926582999999990
 20
-104.342524999999990
 11
131.926582999999990
 21
-45.723303999999999
  0
ARC
  8
0
  6
CONTINUOUS
 62
256
 10
138.926582999999990
 20
-39.723303999999999
 40
3.000000000000000
 50
270.000000000000000
 51
0.000000000000000
  0
ARC
  8
0
  6
CONTINUOUS
 62
256
 10
134.926582999999990
 20
-45.723303999999999
 40
3.000000000000000
 50
90.000000000000000
 51
180.000000000000000
  0
ARC
  8
0
  6
CONTINUOUS
 62
256
 10
232.326583000000000
 20
-156.785730000000000
 40
2.599999999999996
 50
305.000000000000230
 51
0.000000000000000
  0
LINE
  8
0
  6
CONTINUOUS
 62
256
 10
224.092135000000010
 20
-165.725565999999990
 11
233.817881000000000
 21
-158.915526000000000
  0
ARC
  8
0
  6
CONTINUOUS
 62
256
 10
212.620607000000010
 20
-149.342524999999990
 40
20.000000000000000
 50
270.000000000000000
 51
305.000000000000000
  0
LINE
  8
0
  6
CONTINUOUS
 62
256
 10
234.926582999999990
 20
-104.342524999999990
 11
234.926582999999990
 21
-156.785730000000000
  0
LINE
  8
0
  6
CONTINUOUS
 62
256
 10
131.926582999999990
 20
-169.342524999999990
 11
212.620607000000010
 21
-169.342524999999990
  0
LINE
  8
0
  6
CONTINUOUS
 62
256
 10
34.926583000000001
 20
-163.842524999999990
 11
34.926583000000001
 21
-104.342524999999990
  0
LINE
  8
0
  6
CONTINUOUS
 62
256
 10
64.926582999999994
 20
-163.842524999999990
 11
34.926583000000001
 21
-163.842524999999990
  0
LINE
  8
0
  6
CONTINUOUS
 62
256
 10
131.926582999999990
 20
-161.342524999999990
 11
34.926583000000001
 21
-161.342524999999990
  0
LINE
  8
0
  6
CONTINUOUS
 62
256
 10
131.926582999999990
 20
-160.342524999999990
 11
34.926583000000001
 21
-160.342524999999990
  0
LINE
  8
0
  6
CONTINUOUS
 62
256
 10
131.926582999999990
 20
-159.342524999999990
 11
34.926583000000001
 21
-159.342524999999990
  0
LINE
  8
0
  6
CONTINUOUS
 62
256
 10
131.926582999999990
 20
-104.342524999999990
 11
131.926582999999990
 21
-169.342524999999990
  0
LINE
  8
0
  6
CONTINUOUS
 62
256
 10
131.926582999999990
 20
-154.658060000000010
 11
34.926583000000001
 21
-154.658060000000010
  0
LINE
  8
0
  6
CONTINUOUS
 62
256
 10
131.926582999999990
 20
-149.708312000000010
 11
34.926583000000001
 21
-149.708312000000010
  0
LINE
  8
0
  6
CONTINUOUS
 62
256
 10
131.926582999999990
 20
-119.342524999999990
 11
34.926583000000001
 21
-119.342524999999990
  0
LINE
  8
0
  6
CONTINUOUS
 62
256
 10
131.926582999999990
 20
-123.715787000000010
 11
34.926583000000001
 21
-123.715787000000010
  0
LINE
  8
0
  6
CONTINUOUS
 62
256
 10
131.926582999999990
 20
-124.982024999999990
 11
34.926583000000001
 21
-124.982024999999990
  0
LINE
  8
0
  6
CONTINUOUS
 62
256
 10
131.926582999999990
 20
-129.172579000000010
 11
34.926583000000001
 21
-129.172579000000010
  0
LINE
  8
0
  6
CONTINUOUS
 62
256
 10
131.926582999999990
 20
-130.534459000000000
 11
34.926583000000001
 21
-130.534459000000000
  0
LINE
  8
0
  6
CONTINUOUS
 62
256
 10
131.926582999999990
 20
-134.624959999999990
 11
34.926583000000001
 21
-134.624959999999990
  0
LINE
  8
0
  6
CONTINUOUS
 62
256
 10
131.926582999999990
 20
-136.093317000000010
 11
34.926583000000001
 21
-136.093317000000010
  0
LINE
  8
0
  6
CONTINUOUS
 62
256
 10
131.926582999999990
 20
-140.057062000000000
 11
34.926583000000001
 21
-140.057062000000000
  0
LINE
  8
0
  6
CONTINUOUS
 62
256
 10
131.926582999999990
 20
-141.661710000000000
 11
34.926583000000001
 21
-141.661710000000000
  0
LINE
  8
0
  6
CONTINUOUS
 62
256
 10
131.926582999999990
 20
-89.342524999999995
 11
34.926583000000001
 21
-89.342524999999995
  0
LINE
  8
0
  6
CONTINUOUS
 62
256
 10
131.926582999999990
 20
-84.969263999999995
 11
34.926583000000001
 21
-84.969263999999995
  0
LINE
  8
0
  6
CONTINUOUS
 62
256
 10
131.926582999999990
 20
-83.703025999999994
 11
34.926583000000001
 21
-83.703025999999994
  0
LINE
  8
0
  6
CONTINUOUS
 62
256
 10
131.926582999999990
 20
-79.512472000000002
 11
34.926583000000001
 21
-79.512472000000002
  0
LINE
  8
0
  6
CONTINUOUS
 62
256
 10
131.926582999999990
 20
-78.150592000000003
 11
34.926583000000001
 21
-78.150592000000003
  0
LINE
  8
0
  6
CONTINUOUS
 62
256
 10
131.926582999999990
 20
-74.060091000000000
 11
34.926583000000001
 21
-74.060091000000000
  0
LINE
  8
0
  6
CONTINUOUS
 62
256
 10
131.926582999999990
 20
-72.591734000000002
 11
34.926583000000001
 21
-72.591734000000002
  0
LINE
  8
0
  6
CONTINUOUS
 62
256
 10
131.926582999999990
 20
-68.627988000000002
 11
34.926583000000001
 21
-68.627988000000002
  0
LINE
  8
0
  6
CONTINUOUS
 62
256
 10
131.926582999999990
 20
-67.023340000000005
 11
34.926583000000001
 21
-67.023340000000005
  0
LINE
  8
0
  6
CONTINUOUS
 62
256
 10
131.926582999999990
 20
-58.976739000000002
 11
34.926583000000001
 21
-58.976739000000002
  0
LINE
  8
0
  6
CONTINUOUS
 62
256
 10
131.926582999999990
 20
-49.342525000000002
 11
34.926583000000001
 21
-49.342525000000002
  0
LINE
  8
0
  6
CONTINUOUS
 62
256
 10
131.926582999999990
 20
-48.342525000000002
 11
34.926583000000001
 21
-48.342525000000002
  0
LINE
  8
0
  6
CONTINUOUS
 62
256
 10
131.926582999999990
 20
-47.342525000000002
 11
34.926583000000001
 21
-47.342525000000002
  0
LINE
  8
0
  6
CONTINUOUS
 62
256
 10
142.926582999999990
 20
-158.082640000000000
 11
144.926582999999990
 21
-156.429999000000010
  0
LINE
  8
0
  6
CONTINUOUS
 62
256
 10
140.926582999999990
 20
-159.258425999999990
 11
142.926582999999990
 21
-158.082640000000000
  0
LINE
  8
0
  6
CONTINUOUS
 62
256
 10
142.926582999999990
 20
-158.082640000000000
 11
140.926582999999990
 21
-156.429999000000010
  0
LINE
  8
0
  6
CONTINUOUS
 62
256
 10
144.926582999999990
 20
-159.258425999999990
 11
142.926582999999990
 21
-158.082640000000000
  0
POLYLINE
  8
0
  6
CONTINUOUS
 62
256
 66
1
 70
1
  0
VERTEX
  8
0
  6
CONTINUOUS
 62
256
 10
147.626582999999980
 20
-156.266050000000010
  0
VERTEX
  8
0
  6
CONTINUOUS
 62
256
 10
147.536273817895160
 20
-155.563093489441830
  0
VERTEX
  8
0
  6
CONTINUOUS
 62
256
 10
147.268816802803030
 20
-154.887151203361870
  0
VERTEX
  8
0
  6
CONTINUOUS
 62
256
 10
146.834490177821950
 20
-154.264199224741330
  0
VERTEX
  8
0
  6
CONTINUOUS
 62
256
 10
146.249984871576770
 20
-153.718177248763170
  0
VERTEX
  8
0
  6
CONTINUOUS
 62
256
 10
145.537763095192100
 20
-153.270068593751520
  0
VERTEX
  8
0
  6
CONTINUOUS
 62
256
 10
144.725195132115910
 20
-152.937093824016270
  0
VERTEX
  8
0
  6
CONTINUOUS
 62
256
 10
143.843507513475800
 20
-152.732048973223930
  0
VERTEX
  8
0
  6
CONTINUOUS
 62
256
 10
142.926582999999990
 20
-152.662813800000010
  0
VERTEX
  8
0
  6
CONTINUOUS
 62
256
 10
142.009658486524190
 20
-152.732048973223930
  0
VERTEX
  8
0
  6
CONTINUOUS
 62
256
 10
141.127970867884070
 20
-152.937093824016270
  0
VERTEX
  8
0
  6
CONTINUOUS
 62
256
 10
140.315402904807880
 20
-153.270068593751520
  0
VERTEX
  8
0
  6
CONTINUOUS
 62
256
 10
139.603181128423220
 20
-153.718177248763170
  0
VERTEX
  8
0
  6
CONTINUOUS
 62
256
 10
139.018675822178040
 20
-154.264199224741330
  0
VERTEX
  8
0
  6
CONTINUOUS
 62
256
 10
138.584349197196960
 20
-154.887151203361870
  0
VERTEX
  8
0
  6
CONTINUOUS
 62
256
 10
138.316892182104820
 20
-155.563093489441830
  0
VERTEX
  8
0
  6
CONTINUOUS
 62
256
 10
138.226583000000010
 20
-156.266050000000010
  0
VERTEX
  8
0
  6
CONTINUOUS
 62
256
 10
138.316892182104820
 20
-156.969006510558190
  0
VERTEX
  8
0
  6
CONTINUOUS
 62
256
 10
138.584349197196960
 20
-157.644948796638150
  0
VERTEX
  8
0
  6
CONTINUOUS
 62
256
 10
139.018675822178040
 20
-158.267900775258680
  0
VERTEX
  8
0
  6
CONTINUOUS
 62
256
 10
139.603181128423220
 20
-158.813922751236840
  0
VERTEX
  8
0
  6
CONTINUOUS
 62
256
 10
140.315402904807880
 20
-159.262031406248500
  0
VERTEX
  8
0
  6
CONTINUOUS
 62
256
 10
141.127970867884070
 20
-159.595006175983740
  0
VERTEX
  8
0
  6
CONTINUOUS
 62
256
 10
142.009658486524190
 20
-159.800051026776060
  0
VERTEX
  8
0
  6
CONTINUOUS
 62
256
 10
142.926582999999990
 20
-159.869286200000000
  0
VERTEX
  8
0
  6
CONTINUOUS
 62
256
 10
143.843507513475800
 20
-159.800051026776060
  0
VERTEX
  8
0
  6
CONTINUOUS
 62
256
 10
144.725195132115910
 20
-159.595006175983740
  0
VERTEX
  8
0
  6
CONTINUOUS
 62
256
 10
145.537763095192100
 20
-159.262031406248500
  0
VERTEX
  8
0
  6
CONTINUOUS
 62
256
 10
146.249984871576740
 20
-158.813922751236840
  0
VERTEX
  8
0
  6
CONTINUOUS
 62
256
 10
146.834490177821950
 20
-158.267900775258680
  0
VERTEX
  8
0
  6
CONTINUOUS
 62
256
 10
147.268816802803030
 20
-157.644948796638150
  0
VERTEX
  8
0
  6
CONTINUOUS
 62
256
 10
147.536273817895160
 20
-156.969006510558190
  0
SEQEND
  8
0
  6
CONTINUOUS
 62
256
  0
LINE
  8
0
  6
CONTINUOUS
 62
256
 10
142.926582999999990
 20
-50.602409999999999
 11
144.926582999999990
 21
-52.255051999999999
  0
LINE
  8
0
  6
CONTINUOUS
 62
256
 10
140.926582999999990
 20
-49.426625000000001
 11
142.926582999999990
 21
-50.602409999999999
  0
LINE
  8
0
  6
CONTINUOUS
 62
256
 10
49.726582999999998
 20
-44.842525000000002
 11
34.926583000000001
 21
-44.842525000000002
  0
ARC
  8
0
  6
CONTINUOUS
 62
256
 10
212.620607000000010
 20
-59.342525000000002
 40
19.999999999999993
 50
55.000000000000028
 51
90.000000000000000
  0
LINE
  8
0
  6
CONTINUOUS
 62
256
 10
142.926582999999990
 20
-50.602409999999999
 11
140.926582999999990
 21
-52.255051999999999
  0
LINE
  8
0
  6
CONTINUOUS
 62
256
 10
144.926582999999990
 20
-49.426625000000001
 11
142.926582999999990
 21
-50.602409999999999
  0
POLYLINE
  8
0
  6
CONTINUOUS
 62
256
 66
1
 70
1
  0
VERTEX
  8
0
  6
CONTINUOUS
 62
256
 10
147.626582999999980
 20
-52.418999999999997
  0
VERTEX
  8
0
  6
CONTINUOUS
 62
256
 10
147.536273817895160
 20
-51.716043489441830
  0
VERTEX
  8
0
  6
CONTINUOUS
 62
256
 10
147.268816802803030
 20
-51.040101203361857
  0
VERTEX
  8
0
  6
CONTINUOUS
 62
256
 10
146.834490177821950
 20
-50.417149224741337
  0
VERTEX
  8
0
  6
CONTINUOUS
 62
256
 10
146.249984871576770
 20
-49.871127248763159
  0
VERTEX
  8
0
  6
CONTINUOUS
 62
256
 10
145.537763095192100
 20
-49.423018593751507
  0
VERTEX
  8
0
  6
CONTINUOUS
 62
256
 10
144.725195132115910
 20
-49.090043824016263
  0
VERTEX
  8
0
  6
CONTINUOUS
 62
256
 10
143.843507513475800
 20
-48.884998973223937
  0
VERTEX
  8
0
  6
CONTINUOUS
 62
256
 10
142.926582999999990
 20
-48.815763800000006
  0
VERTEX
  8
0
  6
CONTINUOUS
 62
256
 10
142.009658486524190
 20
-48.884998973223937
  0
VERTEX
  8
0
  6
CONTINUOUS
 62
256
 10
141.127970867884070
 20
-49.090043824016263
  0
VERTEX
  8
0
  6
CONTINUOUS
 62
256
 10
140.315402904807880
 20
-49.423018593751507
  0
VERTEX
  8
0
  6
CONTINUOUS
 62
256
 10
139.603181128423220
 20
-49.871127248763159
  0
VERTEX
  8
0
  6
CONTINUOUS
 62
256
 10
139.018675822178040
 20
-50.417149224741337
  0
VERTEX
  8
0
  6
CONTINUOUS
 62
256
 10
138.584349197196960
 20
-51.040101203361857
  0
VERTEX
  8
0
  6
CONTINUOUS
 62
256
 10
138.316892182104820
 20
-51.716043489441830
  0
VERTEX
  8
0
  6
CONTINUOUS
 62
256
 10
138.226583000000010
 20
-52.418999999999997
  0
VERTEX
  8
0
  6
CONTINUOUS
 62
256
 10
138.316892182104820
 20
-53.121956510558164
  0
VERTEX
  8
0
  6
CONTINUOUS
 62
256
 10
138.584349197196960
 20
-53.797898796638137
  0
VERTEX
  8
0
  6
CONTINUOUS
 62
256
 10
139.018675822178040
 20
-54.420850775258657
  0
VERTEX
  8
0
  6
CONTINUOUS
 62
256
 10
139.603181128423220
 20
-54.966872751236835
  0
VERTEX
  8
0
  6
CONTINUOUS
 62
256
 10
140.315402904807880
 20
-55.414981406248486
  0
VERTEX
  8
0
  6
CONTINUOUS
 62
256
 10
141.127970867884070
 20
-55.747956175983731
  0
VERTEX
  8
0
  6
CONTINUOUS
 62
256
 10
142.009658486524190
 20
-55.953001026776057
  0
VERTEX
  8
0
  6
CONTINUOUS
 62
256
 10
142.926582999999990
 20
-56.022236199999988
  0
VERTEX
  8
0
  6
CONTINUOUS
 62
256
 10
143.843507513475800
 20
-55.953001026776057
  0
VERTEX
  8
0
  6
CONTINUOUS
 62
256
 10
144.725195132115910
 20
-55.747956175983731
  0
VERTEX
  8
0
  6
CONTINUOUS
 62
256
 10
145.537763095192100
 20
-55.414981406248486
  0
VERTEX
  8
0
  6
CONTINUOUS
 62
256
 10
146.249984871576740
 20
-54.966872751236835
  0
VERTEX
  8
0
  6
CONTINUOUS
 62
256
 10
146.834490177821950
 20
-54.420850775258657
  0
VERTEX
  8
0
  6
CONTINUOUS
 62
256
 10
147.268816802803030
 20
-53.797898796638137
  0
VERTEX
  8
0
  6
CONTINUOUS
 62
256
 10
147.536273817895160
 20
-53.121956510558164
  0
SEQEND
  8
0
  6
CONTINUOUS
 62
256
  0
LINE
  8
0
  6
CONTINUOUS
 62
256
 10
141.926582999999990
 20
-39.342525000000002
 11
212.620607000000010
 21
-39.342525000000002
  0
ARC
  8
0
  6
CONTINUOUS
 62
256
 10
232.326583000000000
 20
-51.899320000000003
 40
2.599999999999994
 50
0.000000000000000
 51
54.999999999999886
  0
LINE
  8
0
  6
CONTINUOUS
 62
256
 10
224.092135000000010
 20
-42.959484000000003
 11
233.817881000000000
 21
-49.769525000000002
  0
LINE
  8
0
  6
CONTINUOUS
 62
256
 10
131.926582999999990
 20
-163.842524999999990
 11
34.926583000000001
 21
-163.842524999999990
  0
LINE
  8
0
  6
CONTINUOUS
 62
256
 10
141.926582999999990
 20
-39.342525000000002
 11
141.926582999999990
 21
-39.723303999999999
  0
LINE
  8
0
  6
CONTINUOUS
 62
256
 10
131.926582999999990
 20
-54.026991000000002
 11
34.926583000000001
 21
-54.026991000000002
  0
LINE
  8
0
  6
CONTINUOUS
 62
256
 10
139.726583000000010
 20
-14.842525000000000
 11
139.726583000000010
 21
-7.842525000000000
  0
LINE
  8
0
  6
CONTINUOUS
 62
256
 10
139.726583000000010
 20
-26.842524999999998
 11
139.726583000000010
 21
-14.842525000000000
  0
LINE
  8
0
  6
DASHDOT
 62
256
 10
376.566195999999990
 20
-104.884525000000000
 11
504.085224999999980
 21
-104.884525000000000
  0
LINE
  8
0
  6
CONTINUOUS
 62
256
 10
521.039437000000020
 20
-113.028323000000000
 11
500.286678999999990
 21
-116.687594000000000
  0
LINE
  8
0
  6
CONTINUOUS
 62
256
 10
485.518491999999980
 20
-162.922596000000000
 11
485.518491999999980
 21
-189.767525000000010
  0
LINE
  8
0
  6
CONTINUOUS
 62
256
 10
391.518559999999980
 20
-187.767525000000010
 11
391.518559999999980
 21
-159.263605000000010
  0
LINE
  8
0
  6
CONTINUOUS
 62
256
 10
384.018491999999980
 20
-164.169524999999990
 11
384.018491999999980
 21
-150.432066999999990
  0
ARC
  8
0
  6
CONTINUOUS
 62
256
 10
379.018491999999980
 20
-121.439442000000000
 40
4.999999999999998
 50
69.705037999999931
 51
79.319198999999841
  0
LINE
  8
0
  6
CONTINUOUS
 62
256
 10
497.018491999999980
 20
-59.146684999999998
 11
497.018491999999980
 21
-17.753888000000000
  0
LINE
  8
0
  6
CONTINUOUS
 62
256
 10
497.018491999999980
 20
-164.192921000000010
 11
497.018491999999980
 21
-150.622365000000000
  0
LINE
  8
0
  6
CONTINUOUS
 62
256
 10
490.518491999999980
 20
-51.505513999999998
 11
490.518491999999980
 21
2.232475000000000
  0
LINE
  8
0
  6
CONTINUOUS
 62
256
 10
490.518491999999980
 20
-170.204952999999990
 11
490.518491999999980
 21
-158.263537000000010
  0
LINE
  8
0
  6
CONTINUOUS
 62
256
 10
384.018491999999980
 20
-13.767524999999999
 11
384.018491999999980
 21
-59.146684999999998
  0
LINE
  8
0
  6
CONTINUOUS
 62
256
 10
391.518559999999980
 20
-50.505445999999999
 11
391.518559999999980
 21
-1.365120000000000
  0
LINE
  8
0
  6
CONTINUOUS
 62
256
 10
485.518491999999980
 20
3.223747000000000
 11
485.518491999999980
 21
-46.846454999999999
  0
ARC
  8
0
  6
CONTINUOUS
 62
256
 10
681.118491999999950
 20
-104.884525000000000
 40
289.396999999999990
 50
180.000000000000000
 51
187.897988999999970
  0
ARC
  8
0
  6
CONTINUOUS
 62
256
 10
400.409715000000010
 20
-143.826043000000000
 40
5.999999999999990
 50
187.897989000000000
 51
225.000000000000170
  0
ARC
  8
0
  6
CONTINUOUS
 62
256
 10
390.421877999999990
 20
-148.833113000000000
 40
6.600000000000022
 50
188.597082000000030
 51
224.999999999999830
  0
ARC
  8
0
  6
CONTINUOUS
 62
256
 10
411.795679000000010
 20
-108.884525000000000
 40
1.500000000000004
 50
7.928142000000149
 51
90.000000000000000
  0
ARC
  8
0
  6
CONTINUOUS
 62
256
 10
440.518491999999980
 20
-104.884525000000000
 40
33.500000000000007
 50
187.180756000000000
 51
232.819244000000000
  0
ARC
  8
0
  6
CONTINUOUS
 62
256
 10
440.518491999999980
 20
-104.884525000000000
 40
42.999999999999979
 50
185.531071999999990
 51
234.468927999999950
  0
ARC
  8
0
  6
CONTINUOUS
 62
256
 10
440.518491999999980
 20
-104.884525000000000
 40
36.999999999999979
 50
185.963570000000000
 51
234.036429999999970
  0
ARC
  8
0
  6
CONTINUOUS
 62
256
 10
422.692984000000020
 20
-127.759210999999990
 40
1.499999999999975
 50
329.999999999999490
 51
52.071857999999288
  0
ARC
  8
0
  6
CONTINUOUS
 62
256
 10
421.179883000000020
 20
-130.379979999999990
 40
1.499999999999994
 50
232.819243999999940
 51
329.999999999999490
  0
ARC
  8
0
  6
CONTINUOUS
 62
256
 10
417.908569000000000
 20
-136.046062000000010
 40
1.499999999999975
 50
329.999999999999490
 51
54.036429999999186
  0
LINE
  8
0
  6
CONTINUOUS
 62
256
 10
423.992022000000020
 20
-128.509210999999990
 11
422.478921000000010
 21
-131.129979999999990
  0
LINE
  8
0
  6
CONTINUOUS
 62
256
 10
419.207607000000000
 20
-136.796062000000010
 11
417.700039000000000
 21
-139.407244999999990
  0
ARC
  8
0
  6
CONTINUOUS
 62
256
 10
416.401001000000010
 20
-138.657244999999990
 40
1.499999999999989
 50
234.468928000000520
 51
329.999999999999490
  0
ARC
  8
0
  6
CONTINUOUS
 62
256
 10
452.928898000000000
 20
-134.379979999999990
 40
1.500000000000002
 50
292.819243999998830
 51
29.999999999999456
  0
LINE
  8
0
  6
CONTINUOUS
 62
256
 10
454.227937000000000
 20
-133.629979999999990
 11
452.714834999999990
 21
-131.009210999999990
  0
ARC
  8
0
  6
CONTINUOUS
 62
256
 10
456.200213000000020
 20
-140.046062000000010
 40
1.499999999999975
 50
30.000000000000544
 51
114.036429999999850
  0
LINE
  8
0
  6
CONTINUOUS
 62
256
 10
459.006818000000010
 20
-141.907244999999990
 11
457.499251000000020
 21
-139.296062000000010
  0
ARC
  8
0
  6
CONTINUOUS
 62
256
 10
457.707780000000010
 20
-142.657244999999990
 40
1.499999999999989
 50
294.468928000000010
 51
30.000000000000544
  0
ARC
  8
0
  6
CONTINUOUS
 62
256
 10
451.415797000000000
 20
-131.759210999999990
 40
1.500000000000025
 50
29.999999999999456
 51
112.071857999999120
  0
ARC
  8
0
  6
CONTINUOUS
 62
256
 10
440.518491999999980
 20
-104.884525000000000
 40
33.500000000000007
 50
247.180756000000030
 51
292.819243999999970
  0
ARC
  8
0
  6
CONTINUOUS
 62
256
 10
440.518491999999980
 20
-104.884525000000000
 40
43.000000000000021
 50
245.531072000000020
 51
294.468927999999950
  0
ARC
  8
0
  6
CONTINUOUS
 62
256
 10
440.518491999999980
 20
-104.884525000000000
 40
37.000000000000021
 50
245.963569999999950
 51
294.036429999999940
  0
ARC
  8
0
  6
CONTINUOUS
 62
256
 10
440.518491999999980
 20
-104.884525000000000
 40
27.500000000000014
 50
247.928142000000040
 51
292.071857999999960
  0
ARC
  8
0
  6
CONTINUOUS
 62
256
 10
429.621187000000020
 20
-131.759210999999990
 40
1.499999999999998
 50
67.928142000000889
 51
149.999999999999460
  0
ARC
  8
0
  6
CONTINUOUS
 62
256
 10
428.108086000000010
 20
-134.379979999999990
 40
1.499999999999975
 50
149.999999999999460
 51
247.180756000001140
  0
ARC
  8
0
  6
CONTINUOUS
 62
256
 10
424.836772000000000
 20
-140.046062000000010
 40
1.499999999999986
 50
65.963570000000146
 51
150.000000000000540
  0
LINE
  8
0
  6
CONTINUOUS
 62
256
 10
428.322149000000020
 20
-131.009210999999990
 11
426.809048000000020
 21
-133.629979999999990
  0
LINE
  8
0
  6
CONTINUOUS
 62
256
 10
423.537734000000000
 20
-139.296062000000010
 11
422.030166000000010
 21
-141.907244999999990
  0
ARC
  8
0
  6
CONTINUOUS
 62
256
 10
423.329204000000000
 20
-142.657244999999990
 40
1.500000000000025
 50
150.000000000000540
 51
245.531072000000020
  0
ARC
  8
0
  6
CONTINUOUS
 62
256
 10
459.857102000000000
 20
-130.379979999999990
 40
1.499999999999975
 50
210.000000000000510
 51
307.180756000000090
  0
LINE
  8
0
  6
CONTINUOUS
 62
256
 10
458.558064000000000
 20
-131.129979999999990
 11
457.044962000000000
 21
-128.509210999999990
  0
ARC
  8
0
  6
CONTINUOUS
 62
256
 10
463.128416000000020
 20
-136.046062000000010
 40
1.500000000000007
 50
125.963570000000810
 51
210.000000000000510
  0
LINE
  8
0
  6
CONTINUOUS
 62
256
 10
463.336945000000010
 20
-139.407244999999990
 11
461.829378000000020
 21
-136.796062000000010
  0
ARC
  8
0
  6
CONTINUOUS
 62
256
 10
464.635983000000010
 20
-138.657244999999990
 40
1.499999999999975
 50
210.000000000000510
 51
305.531071999999480
  0
ARC
  8
0
  6
CONTINUOUS
 62
256
 10
458.343999999999990
 20
-127.759210999999990
 40
1.500000000000018
 50
127.928142000000730
 51
210.000000000000510
  0
ARC
  8
0
  6
CONTINUOUS
 62
256
 10
440.518491999999980
 20
-104.884525000000000
 40
33.499999999999972
 50
307.180755999999920
 51
352.819244000000030
  0
ARC
  8
0
  6
CONTINUOUS
 62
256
 10
440.518491999999980
 20
-104.884525000000000
 40
43.000000000000021
 50
305.531071999999990
 51
354.468928000000010
  0
ARC
  8
0
  6
CONTINUOUS
 62
256
 10
440.518491999999980
 20
-104.884525000000000
 40
36.999999999999993
 50
305.963570000000000
 51
354.036429999999940
  0
ARC
  8
0
  6
CONTINUOUS
 62
256
 10
440.518491999999980
 20
-104.884525000000000
 40
27.500000000000004
 50
307.928141999999980
 51
352.071858000000020
  0
ARC
  8
0
  6
CONTINUOUS
 62
256
 10
469.241305000000010
 20
-108.884525000000000
 40
1.500000000000000
 50
90.000000000000000
 51
172.071857999999850
  0
ARC
  8
0
  6
CONTINUOUS
 62
256
 10
472.267508000000020
 20
-108.884525000000000
 40
1.500000000000028
 50
352.819243999999910
 51
90.000000000000000
  0
ARC
  8
0
  6
CONTINUOUS
 62
256
 10
478.810136000000000
 20
-108.884525000000000
 40
1.500000000000000
 50
90.000000000000000
 51
174.036430000000220
  0
LINE
  8
0
  6
CONTINUOUS
 62
256
 10
469.241305000000010
 20
-107.384525000000000
 11
472.267508000000020
 21
-107.384525000000000
  0
LINE
  8
0
  6
CONTINUOUS
 62
256
 10
478.810136000000000
 20
-107.384525000000000
 11
481.825270999999990
 21
-107.384525000000000
  0
ARC
  8
0
  6
CONTINUOUS
 62
256
 10
481.825270999999990
 20
-108.884525000000000
 40
1.499999999999979
 50
354.468927999999720
 51
90.000000000000000
  0
ARC
  8
0
  6
CONTINUOUS
 62
256
 10
459.857102000000000
 20
-79.389071000000001
 40
1.499999999999994
 50
52.819243999999927
 51
149.999999999999460
  0
LINE
  8
0
  6
CONTINUOUS
 62
256
 10
458.558064000000000
 20
-78.639071000000001
 11
457.044962000000000
 21
-81.259838999999999
  0
ARC
  8
0
  6
CONTINUOUS
 62
256
 10
463.128416000000020
 20
-73.722988999999998
 40
1.500000000000025
 50
150.000000000000540
 51
234.036429999999170
  0
ARC
  8
0
  6
CONTINUOUS
 62
256
 10
458.343999999999990
 20
-82.009838999999999
 40
1.499999999999975
 50
149.999999999999460
 51
232.071857999999280
  0
ARC
  8
0
  6
CONTINUOUS
 62
256
 10
440.518491999999980
 20
-104.884525000000000
 40
33.500000000000007
 50
7.180755999999994
 51
52.819243999999983
  0
ARC
  8
0
  6
CONTINUOUS
 62
256
 10
440.518491999999980
 20
-104.884525000000000
 40
42.999999999999979
 50
5.531071999999997
 51
54.468927999999977
  0
ARC
  8
0
  6
CONTINUOUS
 62
256
 10
440.518491999999980
 20
-104.884525000000000
 40
36.999999999999979
 50
5.963570000000011
 51
54.036430000000010
  0
ARC
  8
0
  6
CONTINUOUS
 62
256
 10
440.518491999999980
 20
-104.884525000000000
 40
27.499999999999986
 50
7.928141999999994
 51
52.071858000000006
  0
ARC
  8
0
  6
CONTINUOUS
 62
256
 10
469.241305000000010
 20
-100.884525000000000
 40
1.500000000000004
 50
187.928142000000150
 51
270.000000000000000
  0
ARC
  8
0
  6
CONTINUOUS
 62
256
 10
472.267508000000020
 20
-100.884525000000000
 40
1.500000000000000
 50
270.000000000000000
 51
7.180756000000089
  0
ARC
  8
0
  6
CONTINUOUS
 62
256
 10
478.810136000000000
 20
-100.884525000000000
 40
1.500000000000012
 50
185.963569999999780
 51
270.000000000000000
  0
LINE
  8
0
  6
CONTINUOUS
 62
256
 10
469.241305000000010
 20
-102.384525000000000
 11
472.267508000000020
 21
-102.384525000000000
  0
LINE
  8
0
  6
CONTINUOUS
 62
256
 10
478.810136000000000
 20
-102.384525000000000
 11
481.825270999999990
 21
-102.384525000000000
  0
ARC
  8
0
  6
CONTINUOUS
 62
256
 10
481.825270999999990
 20
-100.884525000000000
 40
1.500000000000000
 50
270.000000000000000
 51
5.531072000000276
  0
ARC
  8
0
  6
CONTINUOUS
 62
256
 10
452.928898000000000
 20
-75.389071000000001
 40
1.499999999999975
 50
329.999999999999490
 51
67.180756000000954
  0
LINE
  8
0
  6
CONTINUOUS
 62
256
 10
454.227937000000000
 20
-76.139071000000001
 11
452.714834999999990
 21
-78.759838999999999
  0
ARC
  8
0
  6
CONTINUOUS
 62
256
 10
451.415797000000000
 20
-78.009838999999999
 40
1.499999999999998
 50
247.928142000000830
 51
329.999999999999490
  0
ARC
  8
0
  6
CONTINUOUS
 62
256
 10
440.518491999999980
 20
-104.884525000000000
 40
33.500000000000000
 50
67.180756000000002
 51
112.819244000000000
  0
ARC
  8
0
  6
CONTINUOUS
 62
256
 10
440.518491999999980
 20
-104.884525000000000
 40
27.499999999999989
 50
67.928142000000008
 51
112.071857999999980
  0
ARC
  8
0
  6
CONTINUOUS
 62
256
 10
429.621187000000020
 20
-78.009838999999999
 40
1.499999999999975
 50
210.000000000000510
 51
292.071857999999110
  0
ARC
  8
0
  6
CONTINUOUS
 62
256
 10
428.108086000000010
 20
-75.389071000000001
 40
1.499999999999989
 50
112.819243999999050
 51
210.000000000000510
  0
LINE
  8
0
  6
CONTINUOUS
 62
256
 10
428.322149000000020
 20
-78.759838999999999
 11
426.809048000000020
 21
-76.139071000000001
  0
ARC
  8
0
  6
CONTINUOUS
 62
256
 10
440.518491999999980
 20
-104.884525000000000
 40
33.500000000000007
 50
127.180756000000020
 51
172.819244000000000
  0
ARC
  8
0
  6
CONTINUOUS
 62
256
 10
440.518491999999980
 20
-104.884525000000000
 40
37.000000000000000
 50
125.963569999999990
 51
174.036430000000000
  0
ARC
  8
0
  6
CONTINUOUS
 62
256
 10
417.908569000000000
 20
-73.722988999999998
 40
1.500000000000007
 50
305.963570000000860
 51
30.000000000000544
  0
ARC
  8
0
  6
CONTINUOUS
 62
256
 10
421.179883000000020
 20
-79.389071000000001
 40
1.500000000000025
 50
29.999999999999456
 51
127.180756000000090
  0
ARC
  8
0
  6
CONTINUOUS
 62
256
 10
440.518491999999980
 20
-104.884525000000000
 40
27.500000000000004
 50
127.928141999999990
 51
172.071857999999990
  0
ARC
  8
0
  6
CONTINUOUS
 62
256
 10
411.795679000000010
 20
-100.884525000000000
 40
1.500000000000000
 50
270.000000000000000
 51
352.071857999999850
  0
LINE
  8
0
  6
CONTINUOUS
 62
256
 10
423.992022000000020
 20
-81.259838999999999
 11
422.478921000000010
 21
-78.639071000000001
  0
ARC
  8
0
  6
CONTINUOUS
 62
256
 10
422.692984000000020
 20
-82.009838999999999
 40
1.500000000000018
 50
307.928142000000720
 51
29.999999999999456
  0
CIRCLE
  8
0
  6
CONTINUOUS
 62
256
 10
440.518491999999980
 20
-104.884525000000000
 40
5.000000000000000
  0
ARC
  8
0
  6
CONTINUOUS
 62
256
 10
432.471814999999990
 20
-98.947271000000001
 40
1.500000000000000
 50
323.578178000000040
 51
29.999999999999456
  0
ARC
  8
0
  6
CONTINUOUS
 62
256
 10
431.353341000000000
 20
-100.884525000000000
 40
1.500000000000000
 50
270.000000000000000
 51
336.421821999999620
  0
ARC
  8
0
  6
CONTINUOUS
 62
256
 10
425.983595999999980
 20
-87.709345999999996
 40
1.499999999999975
 50
30.000000000000544
 51
130.240347999999780
  0
ARC
  8
0
  6
CONTINUOUS
 62
256
 10
428.149175000000010
 20
-100.884525000000000
 40
1.500000000000024
 50
162.079787000000550
 51
270.000000000000000
  0
ARC
  8
0
  6
CONTINUOUS
 62
256
 10
421.433156999999990
 20
-100.884525000000000
 40
1.500000000000000
 50
270.000000000000000
 51
348.162996000000190
  0
ARC
  8
0
  6
CONTINUOUS
 62
256
 10
427.511723000000020
 20
-90.356140999999994
 40
1.499999999999989
 50
311.837003999999810
 51
30.000000000000544
  0
ARC
  8
0
  6
CONTINUOUS
 62
256
 10
418.376901999999970
 20
-100.884525000000000
 40
1.500000000000009
 50
169.759652000000300
 51
270.000000000000000
  0
ARC
  8
0
  6
CONTINUOUS
 62
256
 10
430.869732000000000
 20
-96.172382999999996
 40
1.500000000000025
 50
29.999999999999456
 51
137.920212999999820
  0
LINE
  8
0
  6
CONTINUOUS
 62
256
 10
428.810761000000010
 20
-89.606140999999994
 11
427.282633999999970
 21
-86.959345999999996
  0
ARC
  8
0
  6
CONTINUOUS
 62
256
 10
440.518491999999980
 20
-104.884525000000000
 40
14.500000000000012
 50
137.920213000000070
 51
162.079787000000070
  0
LINE
  8
0
  6
CONTINUOUS
 62
256
 10
428.149175000000010
 20
-102.384525000000000
 11
431.353341000000000
 21
-102.384525000000000
  0
LINE
  8
0
  6
CONTINUOUS
 62
256
 10
418.376901999999970
 20
-102.384525000000000
 11
421.433156999999990
 21
-102.384525000000000
  0
LINE
  8
0
  6
CONTINUOUS
 62
256
 10
433.770852999999990
 20
-98.197271000000001
 11
432.168769999999990
 21
-95.422382999999996
  0
ARC
  8
0
  6
CONTINUOUS
 62
256
 10
440.518491999999980
 20
-104.884525000000000
 40
24.000000000000004
 50
130.240347999999980
 51
169.759651999999960
  0
ARC
  8
0
  6
CONTINUOUS
 62
256
 10
440.518491999999980
 20
-104.884525000000000
 40
8.499999999999989
 50
143.578177999999950
 51
156.421821999999930
  0
ARC
  8
0
  6
CONTINUOUS
 62
256
 10
443.239049000000020
 20
-92.172382999999996
 40
1.499999999999975
 50
329.999999999999490
 51
77.920213000000771
  0
LINE
  8
0
  6
CONTINUOUS
 62
256
 10
444.538087000000020
 20
-92.922382999999996
 11
442.936004000000030
 21
-95.697271000000001
  0
ARC
  8
0
  6
CONTINUOUS
 62
256
 10
441.636965999999970
 20
-94.947271000000001
 40
1.500000000000001
 50
263.578178000000780
 51
329.999999999999490
  0
ARC
  8
0
  6
CONTINUOUS
 62
256
 10
440.518491999999980
 20
-104.884525000000000
 40
8.500000000000007
 50
83.578177999999994
 51
96.421822000000020
  0
ARC
  8
0
  6
CONTINUOUS
 62
256
 10
439.400017999999990
 20
-94.947271000000001
 40
1.499999999999975
 50
210.000000000000510
 51
276.421821999999220
  0
LINE
  8
0
  6
CONTINUOUS
 62
256
 10
438.100979999999990
 20
-95.697271000000001
 11
436.498897000000000
 21
-92.922382999999996
  0
ARC
  8
0
  6
CONTINUOUS
 62
256
 10
437.797935000000000
 20
-92.172382999999996
 40
1.499999999999989
 50
102.079786999999230
 51
210.000000000000510
  0
ARC
  8
0
  6
CONTINUOUS
 62
256
 10
440.518491999999980
 20
-104.884525000000000
 40
14.500000000000002
 50
77.920213000000032
 51
102.079786999999980
  0
ARC
  8
0
  6
CONTINUOUS
 62
256
 10
448.125184999999990
 20
-83.709345999999996
 40
1.499999999999975
 50
329.999999999999490
 51
70.240347999999329
  0
LINE
  8
0
  6
CONTINUOUS
 62
256
 10
449.424223999999980
 20
-84.459345999999996
 11
447.896096000000000
 21
-87.106140999999994
  0
ARC
  8
0
  6
CONTINUOUS
 62
256
 10
446.597058000000000
 20
-86.356140999999994
 40
1.500000000000007
 50
251.837003999999720
 51
329.999999999999490
  0
ARC
  8
0
  6
CONTINUOUS
 62
256
 10
440.518491999999980
 20
-104.884525000000000
 40
17.999999999999996
 50
71.837004000000007
 51
108.162996000000010
  0
ARC
  8
0
  6
CONTINUOUS
 62
256
 10
434.439926000000010
 20
-86.356140999999994
 40
1.499999999999975
 50
210.000000000000510
 51
288.162996000000310
  0
LINE
  8
0
  6
CONTINUOUS
 62
256
 10
433.140888000000020
 20
-87.106140999999994
 11
431.612760999999980
 21
-84.459345999999996
  0
ARC
  8
0
  6
CONTINUOUS
 62
256
 10
432.911798999999970
 20
-83.709345999999996
 40
1.500000000000012
 50
109.759652000000680
 51
210.000000000000510
  0
ARC
  8
0
  6
CONTINUOUS
 62
256
 10
440.518491999999980
 20
-104.884525000000000
 40
23.999999999999993
 50
70.240348000000012
 51
109.759651999999990
  0
ARC
  8
0
  6
CONTINUOUS
 62
256
 10
443.239049000000020
 20
-117.596667999999990
 40
1.499999999999989
 50
282.079786999999270
 51
29.999999999999456
  0
LINE
  8
0
  6
CONTINUOUS
 62
256
 10
444.538087000000020
 20
-116.846667999999990
 11
442.936004000000030
 21
-114.071779000000010
  0
ARC
  8
0
  6
CONTINUOUS
 62
256
 10
441.636965999999970
 20
-114.821779000000010
 40
1.499999999999975
 50
30.000000000000544
 51
96.421821999999253
  0
ARC
  8
0
  6
CONTINUOUS
 62
256
 10
440.518491999999980
 20
-104.884525000000000
 40
8.500000000000007
 50
263.578177999999980
 51
276.421822000000020
  0
ARC
  8
0
  6
CONTINUOUS
 62
256
 10
439.400017999999990
 20
-114.821779000000010
 40
1.500000000000001
 50
83.578178000000747
 51
149.999999999999460
  0
LINE
  8
0
  6
CONTINUOUS
 62
256
 10
438.100979999999990
 20
-114.071779000000010
 11
436.498897000000000
 21
-116.846667999999990
  0
ARC
  8
0
  6
CONTINUOUS
 62
256
 10
437.797935000000000
 20
-117.596667999999990
 40
1.499999999999975
 50
149.999999999999460
 51
257.920213000000730
  0
ARC
  8
0
  6
CONTINUOUS
 62
256
 10
440.518491999999980
 20
-104.884525000000000
 40
14.500000000000002
 50
257.920213000000050
 51
282.079786999999950
  0
ARC
  8
0
  6
CONTINUOUS
 62
256
 10
448.125184999999990
 20
-126.059704999999990
 40
1.500000000000012
 50
289.759652000000640
 51
29.999999999999456
  0
LINE
  8
0
  6
CONTINUOUS
 62
256
 10
449.424223999999980
 20
-125.309704999999990
 11
447.896096000000000
 21
-122.662910000000000
  0
ARC
  8
0
  6
CONTINUOUS
 62
256
 10
446.597058000000000
 20
-123.412910000000000
 40
1.499999999999975
 50
30.000000000000544
 51
108.162996000000290
  0
ARC
  8
0
  6
CONTINUOUS
 62
256
 10
440.518491999999980
 20
-104.884525000000000
 40
17.999999999999996
 50
251.837003999999980
 51
288.162995999999960
  0
ARC
  8
0
  6
CONTINUOUS
 62
256
 10
434.439926000000010
 20
-123.412910000000000
 40
1.500000000000007
 50
71.837003999999709
 51
150.000000000000540
  0
LINE
  8
0
  6
CONTINUOUS
 62
256
 10
433.140888000000020
 20
-122.662910000000000
 11
431.612760999999980
 21
-125.309704999999990
  0
ARC
  8
0
  6
CONTINUOUS
 62
256
 10
432.911798999999970
 20
-126.059704999999990
 40
1.500000000000025
 50
150.000000000000540
 51
250.240347999999300
  0
ARC
  8
0
  6
CONTINUOUS
 62
256
 10
440.518491999999980
 20
-104.884525000000000
 40
23.999999999999993
 50
250.240348000000010
 51
289.759652000000020
  0
ARC
  8
0
  6
CONTINUOUS
 62
256
 10
450.167252000000020
 20
-113.596667999999990
 40
1.499999999999975
 50
210.000000000000510
 51
317.920212999999820
  0
LINE
  8
0
  6
CONTINUOUS
 62
256
 10
448.868214000000020
 20
-114.346667999999990
 11
447.266130999999970
 21
-111.571779000000010
  0
ARC
  8
0
  6
CONTINUOUS
 62
256
 10
448.565169000000030
 20
-110.821779000000010
 40
1.500000000000000
 50
143.578178000000040
 51
210.000000000000510
  0
ARC
  8
0
  6
CONTINUOUS
 62
256
 10
440.518491999999980
 20
-104.884525000000000
 40
8.499999999999989
 50
323.578177999999920
 51
336.421821999999910
  0
ARC
  8
0
  6
CONTINUOUS
 62
256
 10
449.683644000000020
 20
-108.884525000000000
 40
1.500000000000000
 50
90.000000000000000
 51
156.421821999999620
  0
LINE
  8
0
  6
CONTINUOUS
 62
256
 10
449.683644000000020
 20
-107.384525000000000
 11
452.887809000000000
 21
-107.384525000000000
  0
ARC
  8
0
  6
CONTINUOUS
 62
256
 10
452.887809000000000
 20
-108.884525000000000
 40
1.500000000000024
 50
342.079787000000580
 51
90.000000000000000
  0
ARC
  8
0
  6
CONTINUOUS
 62
256
 10
440.518491999999980
 20
-104.884525000000000
 40
14.500000000000021
 50
317.920213000000050
 51
342.079787000000010
  0
ARC
  8
0
  6
CONTINUOUS
 62
256
 10
455.053388999999980
 20
-122.059704999999990
 40
1.499999999999975
 50
210.000000000000510
 51
310.240347999999810
  0
LINE
  8
0
  6
CONTINUOUS
 62
256
 10
453.754350999999990
 20
-122.809704999999990
 11
452.226223000000000
 21
-120.162910000000000
  0
ARC
  8
0
  6
CONTINUOUS
 62
256
 10
453.525261000000000
 20
-119.412910000000000
 40
1.499999999999989
 50
131.837003999999810
 51
210.000000000000510
  0
ARC
  8
0
  6
CONTINUOUS
 62
256
 10
440.518491999999980
 20
-104.884525000000000
 40
17.999999999999989
 50
311.837003999999920
 51
348.162995999999960
  0
ARC
  8
0
  6
CONTINUOUS
 62
256
 10
459.603827000000020
 20
-108.884525000000000
 40
1.500000000000000
 50
90.000000000000000
 51
168.162996000000190
  0
LINE
  8
0
  6
CONTINUOUS
 62
256
 10
459.603827000000020
 20
-107.384525000000000
 11
462.660081999999990
 21
-107.384525000000000
  0
ARC
  8
0
  6
CONTINUOUS
 62
256
 10
462.660081999999990
 20
-108.884525000000000
 40
1.500000000000009
 50
349.759652000000300
 51
90.000000000000000
  0
ARC
  8
0
  6
CONTINUOUS
 62
256
 10
440.518491999999980
 20
-104.884525000000000
 40
24.000000000000004
 50
310.240347999999980
 51
349.759652000000020
  0
ARC
  8
0
  6
CONTINUOUS
 62
256
 10
450.167252000000020
 20
-96.172382999999996
 40
1.499999999999994
 50
42.079787000000181
 51
149.999999999999460
  0
LINE
  8
0
  6
CONTINUOUS
 62
256
 10
448.868214000000020
 20
-95.422382999999996
 11
447.266130999999970
 21
-98.197271000000001
  0
ARC
  8
0
  6
CONTINUOUS
 62
256
 10
448.565169000000030
 20
-98.947271000000001
 40
1.499999999999975
 50
149.999999999999460
 51
216.421821999999960
  0
ARC
  8
0
  6
CONTINUOUS
 62
256
 10
440.518491999999980
 20
-104.884525000000000
 40
8.499999999999991
 50
23.578178000000058
 51
36.421822000000063
  0
ARC
  8
0
  6
CONTINUOUS
 62
256
 10
449.683644000000020
 20
-100.884525000000000
 40
1.499999999999984
 50
203.578178000000380
 51
270.000000000000000
  0
LINE
  8
0
  6
CONTINUOUS
 62
256
 10
449.683644000000020
 20
-102.384525000000000
 11
452.887809000000000
 21
-102.384525000000000
  0
ARC
  8
0
  6
CONTINUOUS
 62
256
 10
452.887809000000000
 20
-100.884525000000000
 40
1.500000000000000
 50
270.000000000000000
 51
17.920212999999450
  0
ARC
  8
0
  6
CONTINUOUS
 62
256
 10
440.518491999999980
 20
-104.884525000000000
 40
14.500000000000014
 50
17.920213000000000
 51
42.079786999999946
  0
ARC
  8
0
  6
CONTINUOUS
 62
256
 10
455.053388999999980
 20
-87.709345999999996
 40
1.499999999999991
 50
49.759652000000230
 51
149.999999999999460
  0
LINE
  8
0
  6
CONTINUOUS
 62
256
 10
453.754350999999990
 20
-86.959345999999996
 11
452.226223000000000
 21
-89.606140999999994
  0
ARC
  8
0
  6
CONTINUOUS
 62
256
 10
453.525261000000000
 20
-90.356140999999994
 40
1.500000000000025
 50
150.000000000000540
 51
228.162996000000190
  0
ARC
  8
0
  6
CONTINUOUS
 62
256
 10
440.518491999999980
 20
-104.884525000000000
 40
17.999999999999975
 50
11.837004000000027
 51
48.162996000000071
  0
ARC
  8
0
  6
CONTINUOUS
 62
256
 10
459.603827000000020
 20
-100.884525000000000
 40
1.499999999999997
 50
191.837003999999810
 51
270.000000000000000
  0
LINE
  8
0
  6
CONTINUOUS
 62
256
 10
459.603827000000020
 20
-102.384525000000000
 11
462.660081999999990
 21
-102.384525000000000
  0
ARC
  8
0
  6
CONTINUOUS
 62
256
 10
462.660081999999990
 20
-100.884525000000000
 40
1.500000000000000
 50
270.000000000000000
 51
10.240347999999715
  0
ARC
  8
0
  6
CONTINUOUS
 62
256
 10
440.518491999999980
 20
-104.884525000000000
 40
23.999999999999993
 50
10.240347999999988
 51
49.759652000000010
  0
ARC
  8
0
  6
CONTINUOUS
 62
256
 10
428.149175000000010
 20
-108.884525000000000
 40
1.500000000000000
 50
90.000000000000000
 51
197.920212999999450
  0
LINE
  8
0
  6
CONTINUOUS
 62
256
 10
428.149175000000010
 20
-107.384525000000000
 11
431.353341000000000
 21
-107.384525000000000
  0
ARC
  8
0
  6
CONTINUOUS
 62
256
 10
431.353341000000000
 20
-108.884525000000000
 40
1.499999999999984
 50
23.578178000000403
 51
90.000000000000000
  0
ARC
  8
0
  6
CONTINUOUS
 62
256
 10
440.518491999999980
 20
-104.884525000000000
 40
8.499999999999991
 50
203.578178000000070
 51
216.421822000000050
  0
ARC
  8
0
  6
CONTINUOUS
 62
256
 10
432.471814999999990
 20
-110.821779000000010
 40
1.499999999999975
 50
329.999999999999490
 51
36.421821999999963
  0
LINE
  8
0
  6
CONTINUOUS
 62
256
 10
433.770852999999990
 20
-111.571779000000010
 11
432.168769999999990
 21
-114.346667999999990
  0
ARC
  8
0
  6
CONTINUOUS
 62
256
 10
430.869732000000000
 20
-113.596667999999990
 40
1.499999999999994
 50
222.079787000000180
 51
329.999999999999490
  0
ARC
  8
0
  6
CONTINUOUS
 62
256
 10
440.518491999999980
 20
-104.884525000000000
 40
14.500000000000011
 50
197.920212999999930
 51
222.079786999999930
  0
ARC
  8
0
  6
CONTINUOUS
 62
256
 10
418.376901999999970
 20
-108.884525000000000
 40
1.500000000000000
 50
90.000000000000000
 51
190.240347999999700
  0
LINE
  8
0
  6
CONTINUOUS
 62
256
 10
418.376901999999970
 20
-107.384525000000000
 11
421.433156999999990
 21
-107.384525000000000
  0
ARC
  8
0
  6
CONTINUOUS
 62
256
 10
421.433156999999990
 20
-108.884525000000000
 40
1.499999999999997
 50
11.837003999999803
 51
90.000000000000000
  0
ARC
  8
0
  6
CONTINUOUS
 62
256
 10
440.518491999999980
 20
-104.884525000000000
 40
17.999999999999975
 50
191.837004000000010
 51
228.162996000000020
  0
ARC
  8
0
  6
CONTINUOUS
 62
256
 10
427.511723000000020
 20
-119.412910000000000
 40
1.499999999999975
 50
329.999999999999490
 51
48.162996000000220
  0
LINE
  8
0
  6
CONTINUOUS
 62
256
 10
428.810761000000010
 20
-120.162910000000000
 11
427.282633999999970
 21
-122.809704999999990
  0
ARC
  8
0
  6
CONTINUOUS
 62
256
 10
425.983595999999980
 20
-122.059704999999990
 40
1.499999999999991
 50
229.759652000000220
 51
329.999999999999490
  0
ARC
  8
0
  6
CONTINUOUS
 62
256
 10
440.518491999999980
 20
-104.884525000000000
 40
23.999999999999996
 50
190.240348000000040
 51
229.759652000000020
  0
ARC
  8
0
  6
CONTINUOUS
 62
256
 10
408.769476000000000
 20
-108.884525000000000
 40
1.500000000000000
 50
90.000000000000000
 51
187.180756000000090
  0
LINE
  8
0
  6
CONTINUOUS
 62
256
 10
408.769476000000000
 20
-107.384525000000000
 11
411.795679000000010
 21
-107.384525000000000
  0
ARC
  8
0
  6
CONTINUOUS
 62
256
 10
402.226848000000020
 20
-108.884525000000000
 40
1.500000000000012
 50
5.963569999999792
 51
90.000000000000000
  0
LINE
  8
0
  6
CONTINUOUS
 62
256
 10
399.211712999999970
 20
-107.384525000000000
 11
402.226848000000020
 21
-107.384525000000000
  0
LINE
  8
0
  6
CONTINUOUS
 62
256
 10
463.336945000000010
 20
-70.361805000000004
 11
461.829378000000020
 21
-72.972988999999998
  0
ARC
  8
0
  6
CONTINUOUS
 62
256
 10
464.635983000000010
 20
-71.111805000000004
 40
1.499999999999989
 50
54.468928000000517
 51
150.000000000000540
  0
ARC
  8
0
  6
CONTINUOUS
 62
256
 10
456.200213000000020
 20
-69.722988999999998
 40
1.499999999999999
 50
245.963570000000350
 51
329.999999999999490
  0
LINE
  8
0
  6
CONTINUOUS
 62
256
 10
459.006818000000010
 20
-67.861805000000004
 11
457.499251000000020
 21
-70.472988999999998
  0
ARC
  8
0
  6
CONTINUOUS
 62
256
 10
457.707780000000010
 20
-67.111805000000004
 40
1.499999999999975
 50
329.999999999999490
 51
65.531072000000222
  0
ARC
  8
0
  6
CONTINUOUS
 62
256
 10
440.518491999999980
 20
-104.884525000000000
 40
43.000000000000007
 50
65.531071999999980
 51
114.468928000000030
  0
ARC
  8
0
  6
CONTINUOUS
 62
256
 10
440.518491999999980
 20
-104.884525000000000
 40
37.000000000000000
 50
65.963570000000033
 51
114.036429999999970
  0
ARC
  8
0
  6
CONTINUOUS
 62
256
 10
424.836772000000000
 20
-69.722988999999998
 40
1.499999999999975
 50
210.000000000000510
 51
294.036429999999600
  0
LINE
  8
0
  6
CONTINUOUS
 62
256
 10
423.537734000000000
 20
-70.472988999999998
 11
422.030166000000010
 21
-67.861805000000004
  0
ARC
  8
0
  6
CONTINUOUS
 62
256
 10
423.329204000000000
 20
-67.111805000000004
 40
1.500000000000002
 50
114.468927999999780
 51
210.000000000000510
  0
ARC
  8
0
  6
CONTINUOUS
 62
256
 10
440.518491999999980
 20
-104.884525000000000
 40
43.000000000000014
 50
125.531072000000020
 51
174.468928000000010
  0
ARC
  8
0
  6
CONTINUOUS
 62
256
 10
416.401001000000010
 20
-71.111805000000004
 40
1.499999999999975
 50
30.000000000000544
 51
125.531071999999480
  0
ARC
  8
0
  6
CONTINUOUS
 62
256
 10
402.226848000000020
 20
-100.884525000000000
 40
1.500000000000000
 50
270.000000000000000
 51
354.036430000000220
  0
ARC
  8
0
  6
CONTINUOUS
 62
256
 10
408.769476000000000
 20
-100.884525000000000
 40
1.500000000000028
 50
172.819243999999910
 51
270.000000000000000
  0
LINE
  8
0
  6
CONTINUOUS
 62
256
 10
408.769476000000000
 20
-102.384525000000000
 11
411.795679000000010
 21
-102.384525000000000
  0
LINE
  8
0
  6
CONTINUOUS
 62
256
 10
419.207607000000000
 20
-72.972988999999998
 11
417.700039000000000
 21
-70.361805000000004
  0
LINE
  8
0
  6
CONTINUOUS
 62
256
 10
399.211712999999970
 20
-102.384525000000000
 11
402.226848000000020
 21
-102.384525000000000
  0
ARC
  8
0
  6
CONTINUOUS
 62
256
 10
440.518491999999980
 20
-104.884525000000000
 40
27.499999999999989
 50
187.928142000000010
 51
232.071858000000050
  0
ARC
  8
0
  6
CONTINUOUS
 62
256
 10
440.518491999999980
 20
-104.884525000000000
 40
17.999999999999989
 50
131.837003999999920
 51
168.162995999999990
  0
ARC
  8
0
  6
CONTINUOUS
 62
256
 10
399.211712999999970
 20
-108.884525000000000
 40
1.500000000000000
 50
90.000000000000000
 51
185.531072000000280
  0
ARC
  8
0
  6
CONTINUOUS
 62
256
 10
399.211712999999970
 20
-100.884525000000000
 40
1.499999999999979
 50
174.468927999999720
 51
270.000000000000000
  0
ARC
  8
0
  6
CONTINUOUS
 62
256
 10
681.118491999999950
 20
-104.884525000000000
 40
300.600000000000020
 50
180.000000000000000
 51
188.597082000000000
  0
ARC
  8
0
  6
CONTINUOUS
 62
256
 10
199.918491999999990
 20
-104.884525000000000
 40
300.600000000000020
 50
0.000000000000000
 51
8.597082000000000
  0
ARC
  8
0
  6
CONTINUOUS
 62
256
 10
390.421877999999990
 20
-60.935938000000000
 40
6.600000000000017
 50
135.000000000000170
 51
171.402918000000030
  0
ARC
  8
0
  6
CONTINUOUS
 62
256
 10
681.118491999999950
 20
-104.884525000000000
 40
300.600000000000020
 50
171.402918000000000
 51
180.000000000000000
  0
ARC
  8
0
  6
CONTINUOUS
 62
256
 10
490.615107000000020
 20
-60.935938000000000
 40
6.600000000000021
 50
8.597081999999979
 51
44.999999999999829
  0
ARC
  8
0
  6
CONTINUOUS
 62
256
 10
199.918491999999990
 20
-104.884525000000000
 40
300.600000000000020
 50
351.402918000000000
 51
0.000000000000000
  0
ARC
  8
0
  6
CONTINUOUS
 62
256
 10
490.615107000000020
 20
-148.833113000000000
 40
6.600000000000017
 50
315.000000000000170
 51
351.402917999999940
  0
LINE
  8
0
  6
CONTINUOUS
 62
256
 10
385.754973000000010
 20
-56.269033000000000
 11
392.821421999999980
 21
-49.202584000000002
  0
ARC
  8
0
  6
CONTINUOUS
 62
256
 10
411.630462000000020
 20
-68.011623999999998
 40
26.599999999999994
 50
96.051984999999974
 51
135.000000000000060
  0
LINE
  8
0
  6
CONTINUOUS
 62
256
 10
385.754973000000010
 20
-153.500018000000010
 11
392.821421999999980
 21
-160.566466999999990
  0
ARC
  8
0
  6
CONTINUOUS
 62
256
 10
411.630462000000020
 20
-141.757426000000010
 40
26.600000000000016
 50
224.999999999999940
 51
263.948015000000050
  0
LINE
  8
0
  6
CONTINUOUS
 62
256
 10
495.282011000000010
 20
-153.500018000000010
 11
488.215561999999980
 21
-160.566466999999990
  0
ARC
  8
0
  6
CONTINUOUS
 62
256
 10
440.518491999999980
 20
130.715475000000000
 40
300.600000000000020
 50
263.948015000000000
 51
276.051985000000000
  0
ARC
  8
0
  6
CONTINUOUS
 62
256
 10
469.406522000000000
 20
-141.757426000000010
 40
26.600000000000009
 50
276.051984999999950
 51
314.999999999999940
  0
ARC
  8
0
  6
CONTINUOUS
 62
256
 10
440.518491999999980
 20
-340.484525000000020
 40
300.600000000000020
 50
83.948014999999998
 51
96.051985000000002
  0
LINE
  8
0
  6
CONTINUOUS
 62
256
 10
495.282011000000010
 20
-56.269033000000000
 11
488.215561999999980
 21
-49.202584000000002
  0
ARC
  8
0
  6
CONTINUOUS
 62
256
 10
469.406522000000000
 20
-68.011623999999998
 40
26.600000000000016
 50
44.999999999999957
 51
83.948015000000026
  0
ARC
  8
0
  6
CONTINUOUS
 62
256
 10
411.630462000000020
 20
-141.757426000000010
 40
15.397000000000016
 50
224.999999999999910
 51
263.948015000000110
  0
LINE
  8
0
  6
CONTINUOUS
 62
256
 10
396.167074000000010
 20
-148.068683999999990
 11
400.743138999999990
 21
-152.644748999999990
  0
ARC
  8
0
  6
CONTINUOUS
 62
256
 10
440.518491999999980
 20
130.715475000000000
 40
289.397000000000050
 50
263.948015000000000
 51
270.000000000000000
  0
ARC
  8
0
  6
CONTINUOUS
 62
256
 10
681.118491999999950
 20
-104.884525000000000
 40
289.396999999999990
 50
172.102011000000030
 51
180.000000000000000
  0
ARC
  8
0
  6
CONTINUOUS
 62
256
 10
400.409715000000010
 20
-65.943006999999994
 40
5.999999999999983
 50
134.999999999999890
 51
172.102011000000000
  0
LINE
  8
0
  6
CONTINUOUS
 62
256
 10
396.167074000000010
 20
-61.700367000000000
 11
400.743138999999990
 21
-57.124301000000003
  0
ARC
  8
0
  6
CONTINUOUS
 62
256
 10
411.630462000000020
 20
-68.011623999999998
 40
15.397000000000000
 50
96.051984999999931
 51
135.000000000000090
  0
ARC
  8
0
  6
CONTINUOUS
 62
256
 10
440.518491999999980
 20
-340.484525000000020
 40
289.396999999999990
 50
90.000000000000000
 51
96.051985000000002
  0
ARC
  8
0
  6
CONTINUOUS
 62
256
 10
199.918491999999990
 20
-104.884525000000000
 40
289.396999999999930
 50
0.000000000000000
 51
7.897989000000000
  0
ARC
  8
0
  6
CONTINUOUS
 62
256
 10
480.627270000000010
 20
-65.943006999999994
 40
5.999999999999990
 50
7.897989000000010
 51
45.000000000000149
  0
LINE
  8
0
  6
CONTINUOUS
 62
256
 10
484.869910000000000
 20
-61.700367000000000
 11
480.293844999999980
 21
-57.124301000000003
  0
ARC
  8
0
  6
CONTINUOUS
 62
256
 10
469.406522000000000
 20
-68.011623999999998
 40
15.397000000000016
 50
44.999999999999929
 51
83.948015000000069
  0
ARC
  8
0
  6
CONTINUOUS
 62
256
 10
440.518491999999980
 20
-340.484525000000020
 40
289.396999999999990
 50
83.948014999999998
 51
90.000000000000000
  0
ARC
  8
0
  6
CONTINUOUS
 62
256
 10
199.918491999999990
 20
-104.884525000000000
 40
289.396999999999990
 50
352.102011000000000
 51
360.000000000000000
  0
ARC
  8
0
  6
CONTINUOUS
 62
256
 10
480.627270000000010
 20
-143.826043000000000
 40
5.999999999999989
 50
314.999999999999770
 51
352.102010999999950
  0
LINE
  8
0
  6
CONTINUOUS
 62
256
 10
484.869910000000000
 20
-148.068683999999990
 11
480.293844999999980
 21
-152.644748999999990
  0
ARC
  8
0
  6
CONTINUOUS
 62
256
 10
469.406522000000000
 20
-141.757426000000010
 40
15.397000000000000
 50
276.051984999999890
 51
315.000000000000060
  0
ARC
  8
0
  6
CONTINUOUS
 62
256
 10
440.518491999999980
 20
130.715475000000000
 40
289.396999999999990
 50
270.000000000000000
 51
276.051985000000000
  0
LINE
  8
0
  6
CONTINUOUS
 62
256
 10
410.525993000000030
 20
-41.384524999999996
 11
404.518491999999980
 21
-41.384524999999996
  0
LINE
  8
0
  6
CONTINUOUS
 62
256
 10
470.510990999999990
 20
-41.384524999999996
 11
476.518491999999980
 21
-41.384524999999996
  0
ARC
  8
0
  6
CONTINUOUS
 62
256
 10
409.518491999999980
 20
-14.017861000000000
 40
5.000000000000000
 50
96.032049000000015
 51
180.000000000000000
  0
LINE
  8
0
  6
CONTINUOUS
 62
256
 10
404.518491999999980
 20
-42.578221999999997
 11
404.518491999999980
 21
-14.017861000000000
  0
LINE
  8
0
  6
CONTINUOUS
 62
256
 10
476.518491999999980
 20
-42.578221999999997
 11
476.518491999999980
 21
-14.017861000000000
  0
ARC
  8
0
  6
CONTINUOUS
 62
256
 10
471.518491999999980
 20
-14.017861000000000
 40
5.000000000000000
 50
0.000000000000000
 51
83.967950999999999
  0
LINE
  8
0
  6
CONTINUOUS
 62
256
 10
443.018491999999980
 20
-6.884525000000000
 11
438.018491999999980
 21
-6.884525000000000
  0
LINE
  8
0
  6
CONTINUOUS
 62
256
 10
438.018491999999980
 20
-7.384527000000000
 11
438.018491999999980
 21
-6.884525000000000
  0
LINE
  8
0
  6
CONTINUOUS
 62
256
 10
443.018491999999980
 20
-7.394942000000000
 11
443.018491999999980
 21
-6.884525000000000
  0
ARC
  8
0
  6
CONTINUOUS
 62
256
 10
440.518491999999980
 20
-307.384525000000000
 40
300.000000000000000
 50
83.967950999999999
 51
96.032049000000001
  0
ARC
  8
0
  6
CONTINUOUS
 62
256
 10
390.421877999999990
 20
-148.833113000000000
 40
6.600000000000022
 50
188.597082000000030
 51
194.020304999999890
  0
ARC
  8
0
  6
CONTINUOUS
 62
256
 10
490.615107000000020
 20
-148.833113000000000
 40
6.599999999999993
 50
345.979694999999820
 51
351.402917999999940
  0
LINE
  8
0
  6
DASHDOT
 62
256
 10
534.781831000000010
 20
-68.767525000000006
 11
290.413100999999980
 21
-68.767525000000006
  0
ARC
  8
0
  6
CONTINUOUS
 62
256
 10
300.318696999999990
 20
-83.967524999999995
 40
0.800000000000011
 50
180.000000000000000
 51
270.000000000000000
  0
LINE
  8
0
  6
CONTINUOUS
 62
256
 10
356.518491999999980
 20
-86.267525000000006
 11
354.918629000000010
 21
-86.267525000000006
  0
LINE
  8
0
  6
CONTINUOUS
 62
256
 10
354.118629000000000
 20
-84.767525000000006
 11
300.318696999999990
 21
-84.767525000000006
  0
ARC
  8
0
  6
CONTINUOUS
 62
256
 10
354.118629000000000
 20
-85.167524999999998
 40
0.399999999999977
 50
0.000000000000000
 51
90.000000000000000
  0
ARC
  8
0
  6
CONTINUOUS
 62
256
 10
354.918629000000010
 20
-85.867525000000001
 40
0.399999999999977
 50
180.000000000000000
 51
270.000000000000000
  0
LINE
  8
0
  6
CONTINUOUS
 62
256
 10
299.518696999999970
 20
-49.767524999999999
 11
299.518696999999970
 21
-83.967524999999995
  0
ARC
  8
0
  6
CONTINUOUS
 62
256
 10
300.318696999999990
 20
-53.567525000000003
 40
0.799999999999997
 50
90.000000000000000
 51
180.000000000000000
  0
LINE
  8
0
  6
CONTINUOUS
 62
256
 10
354.518628999999980
 20
-51.667524999999998
 11
354.518628999999980
 21
-85.867525000000001
  0
LINE
  8
0
  6
CONTINUOUS
 62
256
 10
356.518491999999980
 20
-51.267524999999999
 11
354.918629000000010
 21
-51.267524999999999
  0
LINE
  8
0
  6
CONTINUOUS
 62
256
 10
354.118629000000000
 20
-52.767524999999999
 11
300.318696999999990
 21
-52.767524999999999
  0
LINE
  8
0
  6
CONTINUOUS
 62
256
 10
339.518696999999970
 20
-49.767524999999999
 11
299.518696999999970
 21
-49.767524999999999
  0
LINE
  8
0
  6
CONTINUOUS
 62
256
 10
339.518696999999970
 20
-49.767524999999999
 11
339.518696999999970
 21
-52.767524999999999
  0
ARC
  8
0
  6
CONTINUOUS
 62
256
 10
354.118629000000000
 20
-52.367525000000001
 40
0.399999999999999
 50
270.000000000000000
 51
0.000000000000000
  0
ARC
  8
0
  6
CONTINUOUS
 62
256
 10
354.918629000000010
 20
-51.667524999999998
 40
0.399999999999999
 50
90.000000000000000
 51
180.000000000000000
  0
LINE
  8
0
  6
CONTINUOUS
 62
256
 10
359.997479000000000
 20
-112.763831999999990
 11
379.945179000000000
 21
-116.526067000000000
  0
LINE
  8
0
  6
CONTINUOUS
 62
256
 10
524.118491999999950
 20
-39.767524999999999
 11
523.518492000000040
 21
-39.767524999999999
  0
LINE
  8
0
  6
CONTINUOUS
 62
256
 10
524.118491999999950
 20
-97.767525000000006
 11
523.518492000000040
 21
-97.767525000000006
  0
LINE
  8
0
  6
CONTINUOUS
 62
256
 10
523.518492000000040
 20
-110.073899000000000
 11
523.518492000000040
 21
-97.767525000000006
  0
LINE
  8
0
  6
CONTINUOUS
 62
256
 10
523.518492000000040
 20
-27.461151000000001
 11
523.518492000000040
 21
-97.767525000000006
  0
ARC
  8
0
  6
CONTINUOUS
 62
256
 10
493.518491999999980
 20
-170.204952999999990
 40
2.999999999999999
 50
91.222153000000404
 51
180.000000000000000
  0
LINE
  8
0
  6
CONTINUOUS
 62
256
 10
493.454504999999980
 20
-167.205636000000000
 11
494.082478999999980
 21
-167.192239000000000
  0
ARC
  8
0
  6
CONTINUOUS
 62
256
 10
494.018491999999980
 20
-164.192921000000010
 40
2.999999999999999
 50
271.222153000000390
 51
0.000000000000000
  0
LINE
  8
0
  6
CONTINUOUS
 62
256
 10
490.518491999999980
 20
-187.774381000000010
 11
490.518491999999980
 21
-170.204952999999990
  0
LINE
  8
0
  6
CONTINUOUS
 62
256
 10
485.518491999999980
 20
-188.877241000000000
 11
489.518704000000010
 21
-188.794949000000000
  0
ARC
  8
0
  6
CONTINUOUS
 62
256
 10
520.518492000000040
 20
-110.073899000000000
 40
3.000000000000013
 50
280.000000000000680
 51
0.000000000000000
  0
ARC
  8
0
  6
CONTINUOUS
 62
256
 10
520.518492000000040
 20
-27.461151000000001
 40
3.000000000000000
 50
0.000000000000000
 51
79.999999999999289
  0
LINE
  8
0
  6
CONTINUOUS
 62
256
 10
494.018491999999980
 20
-10.767524999999999
 11
493.518491999999980
 21
-10.767524999999999
  0
LINE
  8
0
  6
CONTINUOUS
 62
256
 10
524.518492000000040
 20
-97.367525000000001
 11
524.518492000000040
 21
-68.767525000000006
  0
LINE
  8
0
  6
CONTINUOUS
 62
256
 10
524.518492000000040
 20
-40.167524999999998
 11
524.518492000000040
 21
-68.767525000000006
  0
LINE
  8
0
  6
CONTINUOUS
 62
256
 10
524.518492000000040
 20
-97.367525000000001
 11
524.118491999999950
 21
-97.767525000000006
  0
LINE
  8
0
  6
CONTINUOUS
 62
256
 10
524.518492000000040
 20
-40.167524999999998
 11
524.118491999999950
 21
-39.767524999999999
  0
ARC
  8
0
  6
CONTINUOUS
 62
256
 10
494.018491999999980
 20
-13.767524999999999
 40
3.000000000000000
 50
0.000000000000000
 51
90.000000000000000
  0
ARC
  8
0
  6
CONTINUOUS
 62
256
 10
493.518491999999980
 20
-7.767525000000000
 40
3.000000000000000
 50
180.000000000000000
 51
270.000000000000000
  0
LINE
  8
0
  6
CONTINUOUS
 62
256
 10
490.518491999999980
 20
2.232475000000000
 11
489.518491999999980
 21
3.232475000000000
  0
LINE
  8
0
  6
CONTINUOUS
 62
256
 10
489.518491999999980
 20
3.232475000000000
 11
485.518491999999980
 21
3.232475000000000
  0
ARC
  8
0
  6
CONTINUOUS
 62
256
 10
500.018491999999980
 20
-17.753888000000000
 40
3.000000000000000
 50
180.000000000000000
 51
260.000000000000340
  0
LINE
  8
0
  6
CONTINUOUS
 62
256
 10
521.039437000000020
 20
-24.506727999999999
 11
499.497547999999990
 21
-20.708311999999999
  0
ARC
  8
0
  6
CONTINUOUS
 62
256
 10
500.018491999999980
 20
-17.753888000000000
 40
3.000000000000000
 50
180.000000000000000
 51
260.000000000000340
  0
LINE
  8
0
  6
CONTINUOUS
 62
256
 10
497.018491999999980
 20
-13.767524999999999
 11
497.018491999999980
 21
-17.753888000000000
  0
LINE
  8
0
  6
CONTINUOUS
 62
256
 10
356.918424000000020
 20
-39.767524999999999
 11
356.518423999999980
 21
-40.167524999999998
  0
LINE
  8
0
  6
CONTINUOUS
 62
256
 10
357.518423999999980
 20
-68.767525000000006
 11
357.518423999999980
 21
-27.725642000000001
  0
LINE
  8
0
  6
CONTINUOUS
 62
256
 10
356.918424000000020
 20
-97.767525000000006
 11
356.518423999999980
 21
-97.367525000000001
  0
LINE
  8
0
  6
CONTINUOUS
 62
256
 10
357.518423999999980
 20
-109.809409000000000
 11
357.518423999999980
 21
-68.767525000000006
  0
ARC
  8
0
  6
CONTINUOUS
 62
256
 10
486.518491999999980
 20
-189.767525000000010
 40
1.000000000000000
 50
180.000000000000000
 51
270.000000000000000
  0
LINE
  8
0
  6
CONTINUOUS
 62
256
 10
524.505818999999970
 20
-208.767525000000010
 11
356.531164999999990
 21
-208.767525000000010
  0
LINE
  8
0
  6
CONTINUOUS
 62
256
 10
359.997479000000000
 20
-24.771218000000001
 11
379.945179000000000
 21
-21.008984000000002
  0
ARC
  8
0
  6
CONTINUOUS
 62
256
 10
360.518423999999980
 20
-27.725642000000001
 40
2.999999999999996
 50
99.999999999999659
 51
180.000000000000000
  0
LINE
  8
0
  6
CONTINUOUS
 62
256
 10
357.518423999999980
 20
-39.767524999999999
 11
356.918424000000020
 21
-39.767524999999999
  0
LINE
  8
0
  6
CONTINUOUS
 62
256
 10
356.518423999999980
 20
-97.367525000000001
 11
356.518423999999980
 21
-40.167524999999998
  0
ARC
  8
0
  6
CONTINUOUS
 62
256
 10
360.518423999999980
 20
-109.809409000000000
 40
3.000000000000000
 50
180.000000000000000
 51
260.000000000000340
  0
LINE
  8
0
  6
CONTINUOUS
 62
256
 10
357.518423999999980
 20
-97.767525000000006
 11
356.918424000000020
 21
-97.767525000000006
  0
ARC
  8
0
  6
CONTINUOUS
 62
256
 10
388.518559999999980
 20
-7.767525000000000
 40
2.999999999999999
 50
270.000000000000000
 51
360.000000000000000
  0
LINE
  8
0
  6
CONTINUOUS
 62
256
 10
386.988520999999990
 20
-10.767524999999999
 11
388.518559999999980
 21
-10.767524999999999
  0
LINE
  8
0
  6
CONTINUOUS
 62
256
 10
485.518491999999980
 20
3.223747000000000
 11
394.466203000000010
 21
1.634424000000000
  0
LINE
  8
0
  6
CONTINUOUS
 62
256
 10
521.124675000000020
 20
-190.767525000000010
 11
359.912308999999990
 21
-190.767525000000010
  0
ARC
  8
0
  6
CONTINUOUS
 62
256
 10
394.518559999999980
 20
-1.365120000000000
 40
3.000000000000000
 50
90.999999999999602
 51
180.000000000000000
  0
LINE
  8
0
  6
CONTINUOUS
 62
256
 10
387.018491999999980
 20
-167.169524999999990
 11
388.518559999999980
 21
-167.169524999999990
  0
ARC
  8
0
  6
CONTINUOUS
 62
256
 10
387.018491999999980
 20
-164.169524999999990
 40
3.000000000000000
 50
180.000000000000000
 51
270.000000000000000
  0
ARC
  8
0
  6
CONTINUOUS
 62
256
 10
388.518559999999980
 20
-170.169524999999990
 40
3.000000000000000
 50
0.000000000000000
 51
90.000000000000000
  0
LINE
  8
0
  6
CONTINUOUS
 62
256
 10
524.123647000000010
 20
-193.688995000000010
 11
524.505818999999970
 21
-208.767525000000010
  0
ARC
  8
0
  6
CONTINUOUS
 62
256
 10
521.124675000000020
 20
-193.767525000000010
 40
3.000000000000018
 50
1.499999999999996
 51
90.000000000000000
  0
ARC
  8
0
  6
CONTINUOUS
 62
256
 10
359.912308999999990
 20
-193.767525000000010
 40
3.000000000000000
 50
90.000000000000000
 51
178.500000000000030
  0
LINE
  8
0
  6
CONTINUOUS
 62
256
 10
356.913337000000010
 20
-193.688995000000010
 11
356.531164999999990
 21
-208.767525000000010
  0
ARC
  8
0
  6
CONTINUOUS
 62
256
 10
388.518559999999980
 20
-187.767525000000010
 40
3.000000000000000
 50
270.000000000000000
 51
0.000000000000000
  0
ARC
  8
0
  6
CONTINUOUS
 62
256
 10
379.018491999999980
 20
-16.075689000000001
 40
4.999999999999999
 50
279.999999999999890
 51
355.038891999999980
  0
ARC
  8
0
  6
CONTINUOUS
 62
256
 10
386.988520999999990
 20
-13.767524999999999
 40
3.000000000000000
 50
90.000000000000000
 51
175.038891999999980
  0
LINE
  8
0
  6
CONTINUOUS
 62
256
 10
489.518704000000010
 20
-188.794949000000000
 11
490.518491999999980
 21
-187.774381000000010
  0
LINE
  8
0
  6
DASHDOT
 62
256
 10
509.518491999999980
 20
-182.152693000000000
 11
509.518491999999980
 21
-215.380524000000010
  0
LINE
  8
0
  6
DASHDOT
 62
256
 10
371.518491999999980
 20
-182.152693000000000
 11
371.518491999999980
 21
-215.380524000000010
  0
LINE
  8
0
  6
DASHDOT
 62
256
 10
440.518491999999980
 20
-215.944483999999990
 11
440.518491999999980
 21
9.460919000000001
  0
LINE
  8
0
  6
CONTINUOUS
 62
256
 10
50.026985000000003
 20
161.474117000000010
 11
34.926583000000001
 21
161.474117000000010
  0
LINE
  8
0
  6
CONTINUOUS
 62
256
 10
50.026985000000003
 20
232.903190999999990
 11
34.926583000000001
 21
232.903190999999990
  0
LINE
  8
0
  6
CONTINUOUS
 62
256
 10
49.726582999999998
 20
228.939446000000000
 11
34.926583000000001
 21
228.939446000000000
  0
LINE
  8
0
  6
CONTINUOUS
 62
256
 10
50.726582999999998
 20
161.188654000000010
 11
138.726583000000010
 21
161.188654000000010
  0
LINE
  8
0
  6
CONTINUOUS
 62
256
 10
50.726582999999998
 20
233.188654000000010
 11
138.726583000000010
 21
233.188654000000010
  0
LINE
  8
0
  6
CONTINUOUS
 62
256
 10
139.726583000000010
 20
232.188654000000010
 11
139.726583000000010
 21
162.188654000000010
  0
ARC
  8
0
  6
CONTINUOUS
 62
256
 10
138.726583000000010
 20
162.188654000000010
 40
1.000000000000000
 50
270.000000000000000
 51
0.000000000000000
  0
ARC
  8
0
  6
CONTINUOUS
 62
256
 10
138.726583000000010
 20
232.188654000000010
 40
1.000000000000000
 50
0.000000000000000
 51
90.000000000000000
  0
LINE
  8
0
  6
CONTINUOUS
 62
256
 10
49.726582999999998
 20
232.188654000000010
 11
49.726582999999998
 21
162.188654000000010
  0
ARC
  8
0
  6
CONTINUOUS
 62
256
 10
50.726582999999998
 20
232.188654000000010
 40
1.000000000000000
 50
90.000000000000000
 51
180.000000000000000
  0
ARC
  8
0
  6
CONTINUOUS
 62
256
 10
50.726582999999998
 20
162.188654000000010
 40
1.000000000000000
 50
180.000000000000000
 51
270.000000000000000
  0
LINE
  8
0
  6
CONTINUOUS
 62
256
 10
34.926583000000001
 20
137.688654000000010
 11
34.926583000000001
 21
197.188654000000010
  0
LINE
  8
0
  6
CONTINUOUS
 62
256
 10
34.926583000000001
 20
138.688654000000010
 11
131.926582999999990
 21
138.688654000000010
  0
LINE
  8
0
  6
DASHDOT
 62
256
 10
-159.588880999999990
 20
197.188654000000010
 11
244.855795000000000
 21
197.188654000000010
  0
LINE
  8
0
  6
CONTINUOUS
 62
256
 10
142.926582999999990
 20
250.928768999999990
 11
144.926582999999990
 21
249.276128000000000
  0
LINE
  8
0
  6
CONTINUOUS
 62
256
 10
140.926582999999990
 20
252.104555000000000
 11
142.926582999999990
 21
250.928768999999990
  0
LINE
  8
0
  6
CONTINUOUS
 62
256
 10
142.926582999999990
 20
250.928768999999990
 11
140.926582999999990
 21
249.276128000000000
  0
LINE
  8
0
  6
CONTINUOUS
 62
256
 10
144.926582999999990
 20
252.104555000000000
 11
142.926582999999990
 21
250.928768999999990
  0
POLYLINE
  8
0
  6
CONTINUOUS
 62
256
 66
1
 70
1
  0
VERTEX
  8
0
  6
CONTINUOUS
 62
256
 10
147.626582999999980
 20
249.112179000000000
  0
VERTEX
  8
0
  6
CONTINUOUS
 62
256
 10
147.536273817895160
 20
249.815135510558180
  0
VERTEX
  8
0
  6
CONTINUOUS
 62
256
 10
147.268816802803030
 20
250.491077796638140
  0
VERTEX
  8
0
  6
CONTINUOUS
 62
256
 10
146.834490177821950
 20
251.114029775258670
  0
VERTEX
  8
0
  6
CONTINUOUS
 62
256
 10
146.249984871576770
 20
251.660051751236840
  0
VERTEX
  8
0
  6
CONTINUOUS
 62
256
 10
145.537763095192100
 20
252.108160406248490
  0
VERTEX
  8
0
  6
CONTINUOUS
 62
256
 10
144.725195132115910
 20
252.441135175983730
  0
VERTEX
  8
0
  6
CONTINUOUS
 62
256
 10
143.843507513475800
 20
252.646180026776080
  0
VERTEX
  8
0
  6
CONTINUOUS
 62
256
 10
142.926582999999990
 20
252.715415200000000
  0
VERTEX
  8
0
  6
CONTINUOUS
 62
256
 10
142.009658486524190
 20
252.646180026776080
  0
VERTEX
  8
0
  6
CONTINUOUS
 62
256
 10
141.127970867884070
 20
252.441135175983730
  0
VERTEX
  8
0
  6
CONTINUOUS
 62
256
 10
140.315402904807880
 20
252.108160406248490
  0
VERTEX
  8
0
  6
CONTINUOUS
 62
256
 10
139.603181128423220
 20
251.660051751236840
  0
VERTEX
  8
0
  6
CONTINUOUS
 62
256
 10
139.018675822178040
 20
251.114029775258670
  0
VERTEX
  8
0
  6
CONTINUOUS
 62
256
 10
138.584349197196960
 20
250.491077796638140
  0
VERTEX
  8
0
  6
CONTINUOUS
 62
256
 10
138.316892182104820
 20
249.815135510558180
  0
VERTEX
  8
0
  6
CONTINUOUS
 62
256
 10
138.226583000000010
 20
249.112179000000000
  0
VERTEX
  8
0
  6
CONTINUOUS
 62
256
 10
138.316892182104820
 20
248.409222489441820
  0
VERTEX
  8
0
  6
CONTINUOUS
 62
256
 10
138.584349197196960
 20
247.733280203361860
  0
VERTEX
  8
0
  6
CONTINUOUS
 62
256
 10
139.018675822178040
 20
247.110328224741320
  0
VERTEX
  8
0
  6
CONTINUOUS
 62
256
 10
139.603181128423220
 20
246.564306248763160
  0
VERTEX
  8
0
  6
CONTINUOUS
 62
256
 10
140.315402904807880
 20
246.116197593751510
  0
VERTEX
  8
0
  6
CONTINUOUS
 62
256
 10
141.127970867884070
 20
245.783222824016260
  0
VERTEX
  8
0
  6
CONTINUOUS
 62
256
 10
142.009658486524190
 20
245.578177973223940
  0
VERTEX
  8
0
  6
CONTINUOUS
 62
256
 10
142.926582999999990
 20
245.508942800000000
  0
VERTEX
  8
0
  6
CONTINUOUS
 62
256
 10
143.843507513475800
 20
245.578177973223940
  0
VERTEX
  8
0
  6
CONTINUOUS
 62
256
 10
144.725195132115910
 20
245.783222824016260
  0
VERTEX
  8
0
  6
CONTINUOUS
 62
256
 10
145.537763095192100
 20
246.116197593751510
  0
VERTEX
  8
0
  6
CONTINUOUS
 62
256
 10
146.249984871576740
 20
246.564306248763160
  0
VERTEX
  8
0
  6
CONTINUOUS
 62
256
 10
146.834490177821950
 20
247.110328224741320
  0
VERTEX
  8
0
  6
CONTINUOUS
 62
256
 10
147.268816802803030
 20
247.733280203361860
  0
VERTEX
  8
0
  6
CONTINUOUS
 62
256
 10
147.536273817895160
 20
248.409222489441820
  0
SEQEND
  8
0
  6
CONTINUOUS
 62
256
  0
LINE
  8
0
  6
CONTINUOUS
 62
256
 10
131.926582999999990
 20
142.188654000000010
 11
34.926583000000001
 21
142.188654000000010
  0
LINE
  8
0
  6
CONTINUOUS
 62
256
 10
131.926582999999990
 20
141.188654000000010
 11
34.926583000000001
 21
141.188654000000010
  0
LINE
  8
0
  6
CONTINUOUS
 62
256
 10
131.926582999999990
 20
140.188654000000010
 11
34.926583000000001
 21
140.188654000000010
  0
LINE
  8
0
  6
CONTINUOUS
 62
256
 10
131.926582999999990
 20
139.688654000000010
 11
34.926583000000001
 21
139.688654000000010
  0
ARC
  8
0
  6
CONTINUOUS
 62
256
 10
232.326583000000000
 20
244.631858999999990
 40
2.599999999999994
 50
0.000000000000000
 51
54.999999999999801
  0
LINE
  8
0
  6
CONTINUOUS
 62
256
 10
224.092135000000010
 20
253.571695000000010
 11
233.817881000000000
 21
246.761653999999990
  0
ARC
  8
0
  6
CONTINUOUS
 62
256
 10
212.620607000000010
 20
237.188654000000010
 40
19.999999999999979
 50
55.000000000000000
 51
90.000000000000000
  0
LINE
  8
0
  6
CONTINUOUS
 62
256
 10
234.926582999999990
 20
197.188654000000010
 11
234.926582999999990
 21
244.631858999999990
  0
LINE
  8
0
  6
CONTINUOUS
 62
256
 10
131.926582999999990
 20
257.188653999999990
 11
212.620607000000010
 21
257.188653999999990
  0
LINE
  8
0
  6
CONTINUOUS
 62
256
 10
34.926583000000001
 20
256.688653999999990
 11
34.926583000000001
 21
197.188654000000010
  0
LINE
  8
0
  6
CONTINUOUS
 62
256
 10
34.926583000000001
 20
255.688654000000010
 11
131.926582999999990
 21
255.688654000000010
  0
LINE
  8
0
  6
CONTINUOUS
 62
256
 10
141.926582999999990
 20
232.188654000000010
 11
141.926582999999990
 21
197.188654000000010
  0
ARC
  8
0
  6
CONTINUOUS
 62
256
 10
134.926582999999990
 20
238.188654000000010
 40
3.000000000000000
 50
180.000000000000000
 51
270.000000000000000
  0
LINE
  8
0
  6
CONTINUOUS
 62
256
 10
134.926582999999990
 20
235.188654000000010
 11
138.926582999999990
 21
235.188654000000010
  0
ARC
  8
0
  6
CONTINUOUS
 62
256
 10
138.926582999999990
 20
232.188654000000010
 40
3.000000000000000
 50
0.000000000000000
 51
90.000000000000000
  0
LINE
  8
0
  6
CONTINUOUS
 62
256
 10
131.926582999999990
 20
238.188654000000010
 11
131.926582999999990
 21
257.188653999999990
  0
LINE
  8
0
  6
CONTINUOUS
 62
256
 10
141.926582999999990
 20
228.939446000000000
 11
139.726583000000010
 21
228.939446000000000
  0
LINE
  8
0
  6
CONTINUOUS
 62
256
 10
141.840246000000010
 20
232.903190999999990
 11
139.426179999999990
 21
232.903190999999990
  0
LINE
  8
0
  6
CONTINUOUS
 62
256
 10
140.829575000000010
 20
234.507838999999990
 11
34.926583000000001
 21
234.507838999999990
  0
LINE
  8
0
  6
CONTINUOUS
 62
256
 10
131.926582999999990
 20
242.554441000000000
 11
34.926583000000001
 21
242.554441000000000
  0
LINE
  8
0
  6
CONTINUOUS
 62
256
 10
131.926582999999990
 20
247.504188000000000
 11
34.926583000000001
 21
247.504188000000000
  0
LINE
  8
0
  6
CONTINUOUS
 62
256
 10
131.926582999999990
 20
252.188654000000010
 11
34.926583000000001
 21
252.188654000000010
  0
LINE
  8
0
  6
CONTINUOUS
 62
256
 10
131.926582999999990
 20
253.188654000000010
 11
34.926583000000001
 21
253.188654000000010
  0
LINE
  8
0
  6
CONTINUOUS
 62
256
 10
131.926582999999990
 20
254.688654000000010
 11
34.926583000000001
 21
254.688654000000010
  0
LINE
  8
0
  6
CONTINUOUS
 62
256
 10
131.926582999999990
 20
254.188654000000010
 11
34.926583000000001
 21
254.188654000000010
  0
LINE
  8
0
  6
CONTINUOUS
 62
256
 10
141.926582999999990
 20
217.188654000000010
 11
139.726583000000010
 21
217.188654000000010
  0
LINE
  8
0
  6
CONTINUOUS
 62
256
 10
49.726582999999998
 20
217.188654000000010
 11
34.926583000000001
 21
217.188654000000010
  0
LINE
  8
0
  6
CONTINUOUS
 62
256
 10
141.926582999999990
 20
223.380587999999990
 11
139.726583000000010
 21
223.380587999999990
  0
LINE
  8
0
  6
CONTINUOUS
 62
256
 10
49.726582999999998
 20
223.380587999999990
 11
34.926583000000001
 21
223.380587999999990
  0
LINE
  8
0
  6
CONTINUOUS
 62
256
 10
49.726582999999998
 20
170.996720000000010
 11
34.926583000000001
 21
170.996720000000010
  0
LINE
  8
0
  6
CONTINUOUS
 62
256
 10
141.926582999999990
 20
222.018708000000000
 11
139.726583000000010
 21
222.018708000000000
  0
LINE
  8
0
  6
CONTINUOUS
 62
256
 10
49.726582999999998
 20
177.188654000000010
 11
34.926583000000001
 21
177.188654000000010
  0
LINE
  8
0
  6
CONTINUOUS
 62
256
 10
49.726582999999998
 20
222.018708000000000
 11
34.926583000000001
 21
222.018708000000000
  0
LINE
  8
0
  6
CONTINUOUS
 62
256
 10
49.726582999999998
 20
166.906219999999990
 11
34.926583000000001
 21
166.906219999999990
  0
LINE
  8
0
  6
CONTINUOUS
 62
256
 10
141.926582999999990
 20
227.471088000000010
 11
139.726583000000010
 21
227.471088000000010
  0
LINE
  8
0
  6
CONTINUOUS
 62
256
 10
49.726582999999998
 20
172.358600999999990
 11
34.926583000000001
 21
172.358600999999990
  0
LINE
  8
0
  6
CONTINUOUS
 62
256
 10
49.726582999999998
 20
227.471088000000010
 11
34.926583000000001
 21
227.471088000000010
  0
LINE
  8
0
  6
CONTINUOUS
 62
256
 10
141.926582999999990
 20
177.188654000000010
 11
139.726583000000010
 21
177.188654000000010
  0
LINE
  8
0
  6
CONTINUOUS
 62
256
 10
141.926582999999990
 20
172.358600999999990
 11
139.726583000000010
 21
172.358600999999990
  0
LINE
  8
0
  6
CONTINUOUS
 62
256
 10
141.926582999999990
 20
170.996720000000010
 11
139.726583000000010
 21
170.996720000000010
  0
LINE
  8
0
  6
CONTINUOUS
 62
256
 10
141.926582999999990
 20
166.906219999999990
 11
139.726583000000010
 21
166.906219999999990
  0
LINE
  8
0
  6
CONTINUOUS
 62
256
 10
49.726582999999998
 20
165.437862000000000
 11
34.926583000000001
 21
165.437862000000000
  0
LINE
  8
0
  6
CONTINUOUS
 62
256
 10
141.840246000000010
 20
161.474117000000010
 11
139.426179999999990
 21
161.474117000000010
  0
LINE
  8
0
  6
CONTINUOUS
 62
256
 10
140.829575000000010
 20
159.869469000000010
 11
34.926583000000001
 21
159.869469000000010
  0
LINE
  8
0
  6
CONTINUOUS
 62
256
 10
131.926582999999990
 20
151.822867000000000
 11
34.926583000000001
 21
151.822867000000000
  0
LINE
  8
0
  6
CONTINUOUS
 62
256
 10
131.926582999999990
 20
146.873120000000000
 11
34.926583000000001
 21
146.873120000000000
  0
LINE
  8
0
  6
CONTINUOUS
 62
256
 10
141.926582999999990
 20
162.188654000000010
 11
141.926582999999990
 21
197.188654000000010
  0
ARC
  8
0
  6
CONTINUOUS
 62
256
 10
134.926582999999990
 20
156.188654000000010
 40
3.000000000000000
 50
90.000000000000000
 51
180.000000000000000
  0
LINE
  8
0
  6
CONTINUOUS
 62
256
 10
134.926582999999990
 20
159.188654000000010
 11
138.926582999999990
 21
159.188654000000010
  0
ARC
  8
0
  6
CONTINUOUS
 62
256
 10
138.926582999999990
 20
162.188654000000010
 40
3.000000000000000
 50
270.000000000000000
 51
0.000000000000000
  0
LINE
  8
0
  6
CONTINUOUS
 62
256
 10
131.926582999999990
 20
156.188654000000010
 11
131.926582999999990
 21
137.188654000000010
  0
ARC
  8
0
  6
CONTINUOUS
 62
256
 10
232.326583000000000
 20
149.745449000000010
 40
2.599999999999996
 50
305.000000000000230
 51
0.000000000000000
  0
LINE
  8
0
  6
CONTINUOUS
 62
256
 10
224.092135000000010
 20
140.805612999999990
 11
233.817881000000000
 21
147.615654000000010
  0
ARC
  8
0
  6
CONTINUOUS
 62
256
 10
212.620607000000010
 20
157.188654000000010
 40
20.000000000000000
 50
270.000000000000000
 51
305.000000000000000
  0
LINE
  8
0
  6
CONTINUOUS
 62
256
 10
234.926582999999990
 20
197.188654000000010
 11
234.926582999999990
 21
149.745449000000010
  0
LINE
  8
0
  6
CONTINUOUS
 62
256
 10
131.926582999999990
 20
137.188654000000010
 11
212.620607000000010
 21
137.188654000000010
  0
LINE
  8
0
  6
CONTINUOUS
 62
256
 10
142.926582999999990
 20
143.448539000000010
 11
144.926582999999990
 21
145.101181000000000
  0
LINE
  8
0
  6
CONTINUOUS
 62
256
 10
140.926582999999990
 20
142.272753999999990
 11
142.926582999999990
 21
143.448539000000010
  0
LINE
  8
0
  6
CONTINUOUS
 62
256
 10
142.926582999999990
 20
143.448539000000010
 11
140.926582999999990
 21
145.101181000000000
  0
LINE
  8
0
  6
CONTINUOUS
 62
256
 10
144.926582999999990
 20
142.272753999999990
 11
142.926582999999990
 21
143.448539000000010
  0
POLYLINE
  8
0
  6
CONTINUOUS
 62
256
 66
1
 70
1
  0
VERTEX
  8
0
  6
CONTINUOUS
 62
256
 10
147.626582999999980
 20
145.265129000000000
  0
VERTEX
  8
0
  6
CONTINUOUS
 62
256
 10
147.536273817895160
 20
145.968085510558180
  0
VERTEX
  8
0
  6
CONTINUOUS
 62
256
 10
147.268816802803030
 20
146.644027796638140
  0
VERTEX
  8
0
  6
CONTINUOUS
 62
256
 10
146.834490177821950
 20
147.266979775258680
  0
VERTEX
  8
0
  6
CONTINUOUS
 62
256
 10
146.249984871576770
 20
147.813001751236840
  0
VERTEX
  8
0
  6
CONTINUOUS
 62
256
 10
145.537763095192100
 20
148.261110406248490
  0
VERTEX
  8
0
  6
CONTINUOUS
 62
256
 10
144.725195132115910
 20
148.594085175983740
  0
VERTEX
  8
0
  6
CONTINUOUS
 62
256
 10
143.843507513475800
 20
148.799130026776080
  0
VERTEX
  8
0
  6
CONTINUOUS
 62
256
 10
142.926582999999990
 20
148.868365200000000
  0
VERTEX
  8
0
  6
CONTINUOUS
 62
256
 10
142.009658486524190
 20
148.799130026776080
  0
VERTEX
  8
0
  6
CONTINUOUS
 62
256
 10
141.127970867884070
 20
148.594085175983740
  0
VERTEX
  8
0
  6
CONTINUOUS
 62
256
 10
140.315402904807880
 20
148.261110406248490
  0
VERTEX
  8
0
  6
CONTINUOUS
 62
256
 10
139.603181128423220
 20
147.813001751236840
  0
VERTEX
  8
0
  6
CONTINUOUS
 62
256
 10
139.018675822178040
 20
147.266979775258680
  0
VERTEX
  8
0
  6
CONTINUOUS
 62
256
 10
138.584349197196960
 20
146.644027796638140
  0
VERTEX
  8
0
  6
CONTINUOUS
 62
256
 10
138.316892182104820
 20
145.968085510558180
  0
VERTEX
  8
0
  6
CONTINUOUS
 62
256
 10
138.226583000000010
 20
145.265129000000000
  0
VERTEX
  8
0
  6
CONTINUOUS
 62
256
 10
138.316892182104820
 20
144.562172489441820
  0
VERTEX
  8
0
  6
CONTINUOUS
 62
256
 10
138.584349197196960
 20
143.886230203361860
  0
VERTEX
  8
0
  6
CONTINUOUS
 62
256
 10
139.018675822178040
 20
143.263278224741330
  0
VERTEX
  8
0
  6
CONTINUOUS
 62
256
 10
139.603181128423220
 20
142.717256248763160
  0
VERTEX
  8
0
  6
CONTINUOUS
 62
256
 10
140.315402904807880
 20
142.269147593751510
  0
VERTEX
  8
0
  6
CONTINUOUS
 62
256
 10
141.127970867884070
 20
141.936172824016270
  0
VERTEX
  8
0
  6
CONTINUOUS
 62
256
 10
142.009658486524190
 20
141.731127973223950
  0
VERTEX
  8
0
  6
CONTINUOUS
 62
256
 10
142.926582999999990
 20
141.661892800000000
  0
VERTEX
  8
0
  6
CONTINUOUS
 62
256
 10
143.843507513475800
 20
141.731127973223950
  0
VERTEX
  8
0
  6
CONTINUOUS
 62
256
 10
144.725195132115910
 20
141.936172824016270
  0
VERTEX
  8
0
  6
CONTINUOUS
 62
256
 10
145.537763095192100
 20
142.269147593751510
  0
VERTEX
  8
0
  6
CONTINUOUS
 62
256
 10
146.249984871576740
 20
142.717256248763160
  0
VERTEX
  8
0
  6
CONTINUOUS
 62
256
 10
146.834490177821950
 20
143.263278224741330
  0
VERTEX
  8
0
  6
CONTINUOUS
 62
256
 10
147.268816802803030
 20
143.886230203361860
  0
VERTEX
  8
0
  6
CONTINUOUS
 62
256
 10
147.536273817895160
 20
144.562172489441820
  0
SEQEND
  8
0
  6
CONTINUOUS
 62
256
  0
LINE
  8
0
  6
DASHDOT
 62
256
 10
-20.642775000000000
 20
266.188653999999990
 11
12.343278000000000
 21
266.188653999999990
  0
LINE
  8
0
  6
DASHDOT
 62
256
 10
-5.573417000000000
 20
149.859206000000000
 11
-5.573417000000000
 21
111.068290000000000
  0
LINE
  8
0
  6
DASHDOT
 62
256
 10
-131.573417000000010
 20
149.859206000000000
 11
-131.573417000000010
 21
111.282664000000000
  0
ARC
  8
0
  6
CONTINUOUS
 62
256
 10
-24.531534000000001
 20
116.688586000000000
 40
3.000000000000002
 50
303.557309999999970
 51
350.000000000000060
  0
LINE
  8
0
  6
CONTINUOUS
 62
256
 10
-36.573416999999999
 20
113.488586000000000
 11
-36.873417000000003
 21
113.188586000000000
  0
ARC
  8
0
  6
CONTINUOUS
 62
256
 10
-106.615301000000000
 20
116.688586000000000
 40
3.000000000000006
 50
189.999999999999890
 51
236.442690000000060
  0
LINE
  8
0
  6
CONTINUOUS
 62
256
 10
-94.573417000000006
 20
113.488586000000000
 11
-94.273416999999995
 21
113.188586000000000
  0
CIRCLE
  8
0
  6
DASHDOT
 62
256
 10
-5.573417000000000
 20
266.188653999999990
 40
11.500000000000000
  0
CIRCLE
  8
0
  6
DASHDOT
 62
256
 10
-5.573417000000000
 20
128.188654000000010
 40
11.500000000000000
  0
CIRCLE
  8
0
  6
DASHDOT
 62
256
 10
-131.573417000000010
 20
128.188654000000010
 40
11.500000000000000
  0
CIRCLE
  8
0
  6
DASHDOT
 62
256
 10
-131.573417000000010
 20
266.188653999999990
 40
11.500000000000000
  0
LINE
  8
0
  6
CONTINUOUS
 62
256
 10
-36.873348999999997
 20
113.188654000000000
 11
5.218067000000000
 21
113.188654000000000
  0
LINE
  8
0
  6
CONTINUOUS
 62
256
 10
10.426583000000001
 20
242.688256000000000
 11
10.426583000000001
 21
242.223161000000000
  0
ARC
  8
0
  6
CONTINUOUS
 62
256
 10
12.418160000000000
 20
242.188256000000000
 40
2.000000000000000
 50
178.999999999999860
 51
270.000000000000000
  0
ARC
  8
0
  6
CONTINUOUS
 62
256
 10
12.917856000000000
 20
242.188256000000000
 40
2.000000000000000
 50
270.000000000000000
 51
0.000000000000000
  0
LINE
  8
0
  6
CONTINUOUS
 62
256
 10
12.418160000000000
 20
240.188256000000000
 11
12.917856000000000
 21
240.188256000000000
  0
ARC
  8
0
  6
CONTINUOUS
 62
256
 10
11.917856000000000
 20
145.188654000000010
 40
3.000000000000000
 50
0.000000000000000
 51
90.000000000000000
  0
ARC
  8
0
  6
CONTINUOUS
 62
256
 10
6.806464000000000
 20
278.188653999999990
 40
3.000000000000000
 50
0.999999999999604
 51
90.000000000000000
  0
LINE
  8
0
  6
CONTINUOUS
 62
256
 10
10.426583000000001
 20
242.688256000000000
 11
9.806006999999999
 21
278.241011000000010
  0
ARC
  8
0
  6
CONTINUOUS
 62
256
 10
5.218067000000000
 20
116.188654000000000
 40
3.000000000000000
 50
270.000000000000000
 51
359.000000000000110
  0
ARC
  8
0
  6
CONTINUOUS
 62
256
 10
-144.453298999999990
 20
278.188653999999990
 40
3.000000000000000
 50
90.000000000000000
 51
179.000000000000430
  0
LINE
  8
0
  6
CONTINUOUS
 62
256
 10
-148.073417000000010
 20
242.688256000000000
 11
-147.452842000000000
 21
278.241011000000010
  0
ARC
  8
0
  6
CONTINUOUS
 62
256
 10
-142.864902000000000
 20
116.188654000000000
 40
3.000000000000011
 50
180.999999999999860
 51
270.000000000000000
  0
LINE
  8
0
  6
CONTINUOUS
 62
256
 10
-142.864902000000000
 20
113.188654000000000
 11
-94.273486000000005
 21
113.188654000000000
  0
LINE
  8
0
  6
CONTINUOUS
 62
256
 10
-144.453298999999990
 20
281.188653999999990
 11
6.806464000000000
 21
281.188653999999990
  0
CIRCLE
  8
0
  6
CONTINUOUS
 62
256
 10
-5.573417000000000
 20
266.188653999999990
 40
7.000000000000000
  0
CIRCLE
  8
0
  6
CONTINUOUS
 62
256
 10
-5.573417000000000
 20
128.188654000000010
 40
7.000000000000000
  0
CIRCLE
  8
0
  6
CONTINUOUS
 62
256
 10
-131.573417000000010
 20
128.188654000000010
 40
7.000000000000000
  0
CIRCLE
  8
0
  6
CONTINUOUS
 62
256
 10
-131.573417000000010
 20
266.188653999999990
 40
7.000000000000000
  0
LINE
  8
0
  6
DASHDOT
 62
256
 10
-150.795517999999990
 20
266.188653999999990
 11
-113.829606000000000
 21
266.188653999999990
  0
LINE
  8
0
  6
DASHDOT
 62
256
 10
-5.573417000000000
 20
283.210804000000000
 11
-5.573417000000000
 21
245.442270000000010
  0
LINE
  8
0
  6
DASHDOT
 62
256
 10
-131.573417000000010
 20
283.210804000000000
 11
-131.573417000000010
 21
245.708518000000000
  0
LINE
  8
0
  6
CONTINUOUS
 62
256
 10
14.917856000000000
 20
242.188256000000000
 11
14.917856000000000
 21
253.688654000000010
  0
ARC
  8
0
  6
CONTINUOUS
 62
256
 10
17.917856000000000
 20
253.688654000000010
 40
3.000000000000028
 50
90.000000000000000
 51
180.000000000000000
  0
ARC
  8
0
  6
CONTINUOUS
 62
256
 10
17.917856000000000
 20
140.688654000000010
 40
3.000000000000000
 50
180.000000000000000
 51
270.000000000000000
  0
LINE
  8
0
  6
CONTINUOUS
 62
256
 10
14.917856000000000
 20
145.188654000000010
 11
14.917856000000000
 21
140.688654000000010
  0
ARC
  8
0
  6
CONTINUOUS
 62
256
 10
-126.573417000000010
 20
145.188654000000010
 40
3.000000000000000
 50
0.000000000000000
 51
90.000000000000000
  0
ARC
  8
0
  6
CONTINUOUS
 62
256
 10
-120.573417000000010
 20
143.688585999999990
 40
3.000000000000000
 50
180.000000000000000
 51
270.000000000000000
  0
LINE
  8
0
  6
CONTINUOUS
 62
256
 10
-123.573417000000010
 20
143.688585999999990
 11
-123.573417000000010
 21
145.188654000000010
  0
ARC
  8
0
  6
CONTINUOUS
 62
256
 10
-143.475829000000000
 20
151.188654000000010
 40
3.000000000000011
 50
181.000000000000140
 51
270.000000000000000
  0
LINE
  8
0
  6
CONTINUOUS
 62
256
 10
-126.573417000000010
 20
148.188654000000010
 11
-143.475829000000000
 21
148.188654000000010
  0
LINE
  8
0
  6
CONTINUOUS
 62
256
 10
-146.475371999999990
 20
151.136297000000010
 11
-145.864444999999990
 21
116.136297000000000
  0
LINE
  8
0
  6
CONTINUOUS
 62
256
 10
17.917856000000000
 20
256.688653999999990
 11
34.917856000000000
 21
256.688653999999990
  0
LINE
  8
0
  6
CONTINUOUS
 62
256
 10
34.917856000000000
 20
137.688654000000010
 11
17.917856000000000
 21
137.688654000000010
  0
LINE
  8
0
  6
CONTINUOUS
 62
256
 10
-21.577110999999999
 20
116.167641000000000
 11
-17.514203999999999
 21
138.209530000000000
  0
LINE
  8
0
  6
CONTINUOUS
 62
256
 10
-109.569723999999990
 20
116.167641000000000
 11
-113.632631000000000
 21
138.209530000000000
  0
ARC
  8
0
  6
CONTINUOUS
 62
256
 10
-116.587053999999990
 20
137.688585999999990
 40
3.000000000000008
 50
10.000000000000165
 51
90.000000000000000
  0
ARC
  8
0
  6
CONTINUOUS
 62
256
 10
-14.559780999999999
 20
137.688585999999990
 40
3.000000000000000
 50
90.000000000000000
 51
169.999999999999830
  0
LINE
  8
0
  6
CONTINUOUS
 62
256
 10
-4.300417000000000
 20
143.688585999999990
 11
-4.300417000000000
 21
145.188654000000010
  0
ARC
  8
0
  6
CONTINUOUS
 62
256
 10
-7.300417000000000
 20
143.688585999999990
 40
3.000000000000000
 50
270.000000000000000
 51
0.000000000000000
  0
ARC
  8
0
  6
CONTINUOUS
 62
256
 10
-1.300417000000000
 20
145.188654000000010
 40
3.000000000000000
 50
90.000000000000000
 51
180.000000000000000
  0
LINE
  8
0
  6
CONTINUOUS
 62
256
 10
-120.573417000000010
 20
140.688585999999990
 11
-116.587053999999990
 21
140.688585999999990
  0
LINE
  8
0
  6
CONTINUOUS
 62
256
 10
-36.873417000000003
 20
113.188586000000000
 11
-94.273416999999995
 21
113.188586000000000
  0
ARC
  8
0
  6
CONTINUOUS
 62
256
 10
-116.587053999999990
 20
256.688256000000020
 40
3.000000000000000
 50
270.000000000000000
 51
350.000000000000340
  0
LINE
  8
0
  6
CONTINUOUS
 62
256
 10
-109.834215000000000
 20
277.709201000000010
 11
-113.632631000000000
 21
256.167311999999980
  0
ARC
  8
0
  6
CONTINUOUS
 62
256
 10
-116.587053999999990
 20
256.688256000000020
 40
3.000000000000000
 50
270.000000000000000
 51
350.000000000000340
  0
LINE
  8
0
  6
CONTINUOUS
 62
256
 10
-137.573417000000010
 20
246.188256000000000
 11
-137.573417000000010
 21
242.188256000000000
  0
LINE
  8
0
  6
CONTINUOUS
 62
256
 10
-136.573417000000010
 20
247.188256000000000
 11
-137.573417000000010
 21
246.188256000000000
  0
ARC
  8
0
  6
CONTINUOUS
 62
256
 10
-126.573417000000010
 20
250.188256000000000
 40
3.000000000000000
 50
270.000000000000000
 51
0.000000000000000
  0
ARC
  8
0
  6
CONTINUOUS
 62
256
 10
-120.573417000000010
 20
250.688256000000000
 40
3.000000000000000
 50
90.000000000000000
 51
180.000000000000000
  0
LINE
  8
0
  6
CONTINUOUS
 62
256
 10
-94.173417000000001
 20
281.188256000000020
 11
-94.573417000000006
 21
280.788255999999990
  0
LINE
  8
0
  6
CONTINUOUS
 62
256
 10
-36.973416999999998
 20
281.188256000000020
 11
-36.573416999999999
 21
280.788255999999990
  0
LINE
  8
0
  6
CONTINUOUS
 62
256
 10
-94.173417000000001
 20
281.188256000000020
 11
-65.573417000000006
 21
281.188256000000020
  0
LINE
  8
0
  6
CONTINUOUS
 62
256
 10
-36.973416999999998
 20
281.188256000000020
 11
-65.573417000000006
 21
281.188256000000020
  0
LINE
  8
0
  6
CONTINUOUS
 62
256
 10
-123.573417000000010
 20
250.688256000000000
 11
-123.573417000000010
 21
250.188256000000000
  0
ARC
  8
0
  6
CONTINUOUS
 62
256
 10
-106.879791999999990
 20
277.188256000000020
 40
3.000000000000000
 50
90.000000000000000
 51
170.000000000000370
  0
ARC
  8
0
  6
CONTINUOUS
 62
256
 10
-24.267043000000001
 20
277.188256000000020
 40
2.999999999999996
 50
9.999999999999654
 51
90.000000000000000
  0
LINE
  8
0
  6
CONTINUOUS
 62
256
 10
-106.879791999999990
 20
280.188256000000020
 11
-36.573416999999999
 21
280.188256000000020
  0
LINE
  8
0
  6
CONTINUOUS
 62
256
 10
-24.267043000000001
 20
280.188256000000020
 11
-36.573416999999999
 21
280.188256000000020
  0
LINE
  8
0
  6
CONTINUOUS
 62
256
 10
-36.573416999999999
 20
280.788255999999990
 11
-36.573416999999999
 21
280.188256000000020
  0
LINE
  8
0
  6
CONTINUOUS
 62
256
 10
-94.573417000000006
 20
280.788255999999990
 11
-94.573417000000006
 21
280.188256000000020
  0
LINE
  8
0
  6
CONTINUOUS
 62
256
 10
6.426583000000000
 20
246.188256000000000
 11
6.426583000000000
 21
242.188256000000000
  0
LINE
  8
0
  6
CONTINUOUS
 62
256
 10
5.426583000000000
 20
247.188256000000000
 11
6.426583000000000
 21
246.188256000000000
  0
LINE
  8
0
  6
CONTINUOUS
 62
256
 10
-4.573417000000000
 20
247.188256000000000
 11
5.426583000000000
 21
247.188256000000000
  0
ARC
  8
0
  6
CONTINUOUS
 62
256
 10
-14.559780999999999
 20
256.688256000000020
 40
2.999999999999998
 50
189.999999999999630
 51
270.000000000000000
  0
ARC
  8
0
  6
CONTINUOUS
 62
256
 10
-14.559780999999999
 20
256.688256000000020
 40
2.999999999999998
 50
189.999999999999630
 51
270.000000000000000
  0
ARC
  8
0
  6
CONTINUOUS
 62
256
 10
-4.573417000000000
 20
250.188256000000000
 40
3.000000000000000
 50
180.000000000000000
 51
270.000000000000000
  0
ARC
  8
0
  6
CONTINUOUS
 62
256
 10
-10.573416999999999
 20
250.688256000000000
 40
3.000000000000000
 50
0.000000000000000
 51
90.000000000000000
  0
LINE
  8
0
  6
CONTINUOUS
 62
256
 10
-7.573417000000000
 20
250.688256000000000
 11
-7.573417000000000
 21
250.188256000000000
  0
LINE
  8
0
  6
CONTINUOUS
 62
256
 10
-10.573416999999999
 20
253.688256000000000
 11
-14.559780999999999
 21
253.688256000000000
  0
LINE
  8
0
  6
CONTINUOUS
 62
256
 10
-21.312619999999999
 20
277.709201000000010
 11
-17.514203999999999
 21
256.167311999999980
  0
LINE
  8
0
  6
CONTINUOUS
 62
256
 10
-148.073417000000010
 20
242.188256000000000
 11
10.426583000000001
 21
242.188256000000000
  0
LINE
  8
0
  6
CONTINUOUS
 62
256
 10
-22.873221000000001
 20
114.188586000000000
 11
-36.573416999999999
 21
114.188586000000000
  0
LINE
  8
0
  6
CONTINUOUS
 62
256
 10
-94.573417000000006
 20
114.188586000000000
 11
-94.573417000000006
 21
113.488586000000000
  0
LINE
  8
0
  6
CONTINUOUS
 62
256
 10
-36.573416999999999
 20
114.188586000000000
 11
-36.573416999999999
 21
113.488586000000000
  0
LINE
  8
0
  6
DASHDOT
 62
256
 10
-21.175270999999999
 20
128.188654000000010
 11
9.443260000000000
 21
128.188654000000010
  0
LINE
  8
0
  6
DASHDOT
 62
256
 10
-147.643113000000000
 20
128.188654000000010
 11
-114.095854000000000
 21
128.188654000000010
  0
LINE
  8
0
  6
CONTINUOUS
 62
256
 10
8.777086000000001
 20
148.188654000000010
 11
8.217610000000001
 21
116.136297000000000
  0
LINE
  8
0
  6
CONTINUOUS
 62
256
 10
-148.073417000000010
 20
242.688256000000000
 11
-146.475371999999990
 21
151.136297000000010
  0
LINE
  8
0
  6
CONTINUOUS
 62
256
 10
10.417854999999999
 20
242.188256000000000
 11
8.777086000000001
 21
148.188654000000010
  0
ARC
  8
0
  6
CONTINUOUS
 62
256
 10
31.926583000000001
 20
140.688654000000010
 40
3.000000000000000
 50
180.000000000000000
 51
270.000000000000000
  0
LINE
  8
0
  6
CONTINUOUS
 62
256
 10
28.926583000000001
 20
141.688654000000010
 11
28.926583000000001
 21
140.688654000000010
  0
LINE
  8
0
  6
CONTINUOUS
 62
256
 10
28.926583000000001
 20
141.688654000000010
 11
28.926583000000001
 21
142.092346999999990
  0
ARC
  8
0
  6
CONTINUOUS
 62
256
 10
19.926583000000001
 20
157.003922999999990
 40
5.000000000000000
 50
180.000000000000000
 51
270.000000000000000
  0
ARC
  8
0
  6
CONTINUOUS
 62
256
 10
19.926583000000001
 20
150.092346999999990
 40
5.000000000000000
 50
180.000000000000000
 51
270.000000000000000
  0
LINE
  8
0
  6
CONTINUOUS
 62
256
 10
28.926583000000001
 20
177.188654000000010
 11
34.926583000000001
 21
177.188654000000010
  0
LINE
  8
0
  6
CONTINUOUS
 62
256
 10
25.926583000000001
 20
152.003922999999990
 11
19.926583000000001
 21
152.003922999999990
  0
LINE
  8
0
  6
CONTINUOUS
 62
256
 10
25.926583000000001
 20
145.092346999999990
 11
19.926583000000001
 21
145.092346999999990
  0
LINE
  8
0
  6
CONTINUOUS
 62
256
 10
25.926583000000001
 20
158.187387000000000
 11
20.926583000000001
 21
158.187387000000000
  0
LINE
  8
0
  6
CONTINUOUS
 62
256
 10
28.926583000000001
 20
155.003922999999990
 11
28.926583000000001
 21
197.188654000000010
  0
ARC
  8
0
  6
CONTINUOUS
 62
256
 10
25.926583000000001
 20
142.092346999999990
 40
3.000000000000000
 50
0.000000000000000
 51
90.000000000000000
  0
ARC
  8
0
  6
CONTINUOUS
 62
256
 10
25.926583000000001
 20
155.003922999999990
 40
3.000000000000000
 50
270.000000000000000
 51
0.000000000000000
  0
ARC
  8
0
  6
CONTINUOUS
 62
256
 10
25.926583000000001
 20
161.187387000000000
 40
3.000000000000000
 50
270.000000000000000
 51
0.000000000000000
  0
ARC
  8
0
  6
CONTINUOUS
 62
256
 10
17.926583000000001
 20
140.688654000000010
 40
3.000000000000000
 50
180.000000000000000
 51
270.000000000000000
  0
ARC
  8
0
  6
CONTINUOUS
 62
256
 10
17.926583000000001
 20
253.688654000000010
 40
3.000000000000028
 50
90.000000000000000
 51
180.000000000000000
  0
LINE
  8
0
  6
CONTINUOUS
 62
256
 10
28.926583000000001
 20
252.688654000000010
 11
28.926583000000001
 21
253.688654000000010
  0
LINE
  8
0
  6
CONTINUOUS
 62
256
 10
28.926583000000001
 20
252.688654000000010
 11
28.926583000000001
 21
252.284962000000010
  0
LINE
  8
0
  6
CONTINUOUS
 62
256
 10
28.926583000000001
 20
252.688654000000010
 11
28.926583000000001
 21
252.284962000000010
  0
ARC
  8
0
  6
CONTINUOUS
 62
256
 10
31.926583000000001
 20
253.688654000000010
 40
3.000000000000028
 50
90.000000000000000
 51
180.000000000000000
  0
LINE
  8
0
  6
CONTINUOUS
 62
256
 10
28.926583000000001
 20
217.188654000000010
 11
34.926583000000001
 21
217.188654000000010
  0
ARC
  8
0
  6
CONTINUOUS
 62
256
 10
19.926583000000001
 20
244.284962000000010
 40
5.000000000000000
 50
90.000000000000000
 51
180.000000000000000
  0
ARC
  8
0
  6
CONTINUOUS
 62
256
 10
19.926583000000001
 20
237.373385000000010
 40
5.000000000000000
 50
90.000000000000000
 51
180.000000000000000
  0
LINE
  8
0
  6
CONTINUOUS
 62
256
 10
25.926583000000001
 20
249.284962000000010
 11
19.926583000000001
 21
249.284962000000010
  0
LINE
  8
0
  6
CONTINUOUS
 62
256
 10
25.926583000000001
 20
242.373385000000010
 11
19.926583000000001
 21
242.373385000000010
  0
LINE
  8
0
  6
CONTINUOUS
 62
256
 10
25.926583000000001
 20
236.189921000000000
 11
20.926583000000001
 21
236.189921000000000
  0
LINE
  8
0
  6
CONTINUOUS
 62
256
 10
28.926583000000001
 20
239.373385000000010
 11
28.926583000000001
 21
197.188654000000010
  0
ARC
  8
0
  6
CONTINUOUS
 62
256
 10
25.926583000000001
 20
239.373385000000010
 40
3.000000000000000
 50
0.000000000000000
 51
90.000000000000000
  0
ARC
  8
0
  6
CONTINUOUS
 62
256
 10
25.926583000000001
 20
252.284962000000010
 40
3.000000000000000
 50
270.000000000000000
 51
0.000000000000000
  0
ARC
  8
0
  6
CONTINUOUS
 62
256
 10
25.926583000000001
 20
233.189921000000000
 40
3.000000000000000
 50
0.000000000000000
 51
90.000000000000000
  0
LINE
  8
0
  6
CONTINUOUS
 62
256
 10
14.926583000000001
 20
253.688654000000010
 11
14.926583000000001
 21
140.688654000000010
  0
LINE
  8
0
  6
CONTINUOUS
 62
256
 10
-4.573417000000000
 20
247.188256000000000
 11
-136.573417000000010
 21
247.188256000000000
  0
LINE
  8
0
  6
CONTINUOUS
 62
256
 10
-120.573417000000010
 20
253.688256000000000
 11
-14.559780999999999
 21
253.688256000000000
  0
LINE
  8
0
  6
CONTINUOUS
 62
256
 10
-7.300417000000000
 20
140.688585999999990
 11
-116.587053999999990
 21
140.688585999999990
  0
LINE
  8
0
  6
CONTINUOUS
 62
256
 10
11.917856000000000
 20
148.188654000000010
 11
-126.573417000000010
 21
148.188654000000010
  0
LINE
  8
0
  6
CONTINUOUS
 62
256
 10
-36.573416999999999
 20
114.188586000000000
 11
-108.273613999999990
 21
114.188586000000000
  0
LINE
  8
0
  6
CONTINUOUS
 62
256
 10
-48.073020000000000
 20
113.188654000000000
 11
-48.073020000000000
 21
111.588791000000000
  0
LINE
  8
0
  6
CONTINUOUS
 62
256
 10
-83.073020000000000
 20
113.188654000000000
 11
-83.073020000000000
 21
111.588791000000000
  0
LINE
  8
0
  6
DASHDOT
 62
256
 10
-65.573417000000006
 20
286.769568999999990
 11
-65.573417000000006
 21
54.240715000000002
  0
ARC
  8
0
  6
CONTINUOUS
 62
256
 10
-48.473019999999998
 20
111.588791000000000
 40
0.400000000000006
 50
270.000000000000000
 51
0.000000000000000
  0
ARC
  8
0
  6
CONTINUOUS
 62
256
 10
-49.173020000000001
 20
110.788791000000000
 40
0.400000000000006
 50
90.000000000000000
 51
180.000000000000000
  0
LINE
  8
0
  6
CONTINUOUS
 62
256
 10
-49.573020000000000
 20
110.788791000000000
 11
-49.573020000000000
 21
56.988858999999998
  0
LINE
  8
0
  6
CONTINUOUS
 62
256
 10
-48.473019999999998
 20
111.188790999999990
 11
-82.673019999999994
 21
111.188790999999990
  0
ARC
  8
0
  6
CONTINUOUS
 62
256
 10
-50.373019999999997
 20
56.988858999999998
 40
0.799999999999997
 50
270.000000000000000
 51
0.000000000000000
  0
LINE
  8
0
  6
CONTINUOUS
 62
256
 10
-49.573020000000000
 20
56.188859000000001
 11
-80.773020000000002
 21
56.188859000000001
  0
ARC
  8
0
  6
CONTINUOUS
 62
256
 10
-82.673019999999994
 20
111.588791000000000
 40
0.400000000000006
 50
180.000000000000000
 51
270.000000000000000
  0
ARC
  8
0
  6
CONTINUOUS
 62
256
 10
-81.973020000000005
 20
110.788791000000000
 40
0.400000000000006
 50
0.000000000000000
 51
90.000000000000000
  0
LINE
  8
0
  6
CONTINUOUS
 62
256
 10
-81.573020000000000
 20
110.788791000000000
 11
-81.573020000000000
 21
56.988858999999998
  0
ARC
  8
0
  6
CONTINUOUS
 62
256
 10
-80.773020000000002
 20
56.988858999999998
 40
0.799999999999997
 50
180.000000000000000
 51
270.000000000000000
  0
LINE
  8
0
  6
CONTINUOUS
 62
256
 10
-70.573417000000006
 20
56.188859000000001
 11
-70.573417000000006
 21
96.188858999999994
  0
LINE
  8
0
  6
CONTINUOUS
 62
256
 10
-60.573416999999999
 20
96.188858999999994
 11
-70.573417000000006
 21
96.188858999999994
  0
LINE
  8
0
  6
CONTINUOUS
 62
256
 10
-60.573416999999999
 20
56.188859000000001
 11
-60.573416999999999
 21
96.188858999999994
  0
ARC
  8
0
  6
CONTINUOUS
 62
256
 10
-65.573417000000006
 20
96.188858999999994
 40
5.000000000000000
 50
0.000000000000000
 51
180.000000000000000
  0
LINE
  8
0
  6
CONTINUOUS
 62
256
 10
34.926583000000001
 20
255.688654000000010
 11
34.926583000000001
 21
197.188654000000010
  0
LINE
  8
0
  6
CONTINUOUS
 62
256
 10
34.926583000000001
 20
138.688654000000010
 11
34.926583000000001
 21
197.188654000000010
  0
TEXT
  8
0
  6
CONTINUOUS
 62
256
 10
591.266235351562500
 20
-232.810867309570310
 40
3.299999952316284
  1
1/1
 50
0.000002504478167
 41
0.850909097352304
  7
STANDARD1
  0
TEXT
  8
0
  6
CONTINUOUS
 62
256
 10
588.848266601562500
 20
-232.810867309570310
 40
3.299999952316284
  1
 
 50
0.000002504478167
 41
1.733333298293026
  7
STANDARD1
  0
TEXT
  8
0
  6
CONTINUOUS
 62
256
 10
575.797607421875000
 20
-232.810867309570310
 40
3.299999952316284
  1
SCALE
 50
0.000002504478167
 41
0.821052645401140
  7
STANDARD1
  0
TEXT
  8
0
  6
CONTINUOUS
 62
256
 10
572.546264648437500
 20
-232.810867309570310
 40
3.299999952316284
  1
 
 50
0.000002504478167
 41
1.733333298293026
  7
STANDARD1
  0
TEXT
  8
0
  6
CONTINUOUS
 62
256
 10
587.400451660156250
 20
-227.510864257812500
 40
3.299999952316284
  1
1/240
 50
0.000002504478167
 41
0.821052645401140
  7
STANDARD1
  0
TEXT
  8
0
  6
CONTINUOUS
 62
256
 10
583.618408203125000
 20
-227.510864257812500
 40
3.299999952316284
  1
ü`
 50
0.000002504478167
 41
1.176000019651471
  7
STANDARD1
  0
TEXT
  8
0
  6
CONTINUOUS
 62
256
 10
572.546264648437500
 20
-227.510864257812500
 40
3.299999952316284
  1
1/80
 50
0.000002504478167
 41
0.832000075658163
  7
STANDARD1
  0
TEXT
  8
0
  6
CONTINUOUS
 62
256
 10
575.780273437500000
 20
-222.210861206054690
 40
3.299999952316284
  1
GM-SHYB-RL
 50
0.000002504478167
 41
0.799999980493025
  7
STANDARD1
  0
TEXT
  8
0
  6
CONTINUOUS
 62
256
 10
572.546264648437500
 20
-222.210861206054690
 40
3.299999952316284
  1
 
 50
0.000002504478167
 41
1.733333298293026
  7
STANDARD1
  0
TEXT
  8
0
  6
CONTINUOUS
 62
256
 10
578.371643066406250
 20
-216.910873413085940
 40
3.299999952316284
  1
0.4kW
 50
0.000002504478167
 41
0.821052645401140
  7
STANDARD1
  0
TEXT
  8
0
  6
CONTINUOUS
 62
256
 10
572.546264648437500
 20
-216.910873413085940
 40
3.299999952316284
  1
  
 50
0.000002504478167
 41
1.485714400175845
  7
STANDARD1
  0
TEXT
  8
0
  6
CONTINUOUS
 62
256
 10
578.365722656250000
 20
-211.610870361328120
 40
3.299999952316284
  1
SHY095
 50
0.000002504478167
 41
0.813913121261144
  7
STANDARD1
  0
TEXT
  8
0
  6
CONTINUOUS
 62
256
 10
572.546264648437500
 20
-211.610870361328120
 40
3.299999952316284
  1
  
 50
0.000002504478167
 41
1.485714400175845
  7
STANDARD1
  0
ENDSEC
  0
EOF
