  0
SECTION
  2
HEADER
  9
$ACADVER
  1
AC1015
  9
$ACADMAINTVER
 70
     6
  9
$DWGCODEPAGE
  3
ANSI_932
  9
$INSBASE
 10
0.0
 20
0.0
 30
0.0
  9
$EXTMIN
 10
1.000000E+20
 20
1.000000E+20
 30
1.000000E+20
  9
$EXTMAX
 10
-1.000000E+20
 20
-1.000000E+20
 30
-1.000000E+20
  9
$LIMMIN
 10
0.0
 20
0.0
  9
$LIMMAX
 10
0.0
 20
0.0
  9
$ORTHOMODE
 70
     0
  9
$REGENMODE
 70
     1
  9
$FILLMODE
 70
     1
  9
$QTEXTMODE
 70
     0
  9
$MIRRTEXT
 70
     1
  9
$LTSCALE
 40
1.0
  9
$ATTMODE
 70
     1
  9
$TEXTSIZE
 40
3.2
  9
$TRACEWID
 40
0.05
  9
$TEXTSTYLE
  7
Standard
  9
$CLAYER
  8
0
  9
$CELTYPE
  6
Continuous
  9
$CECOLOR
 62
   256
  9
$CELTSCALE
 40
1.0
  9
$DISPSILH
 70
     0
  9
$DIMSCALE
 40
1.0
  9
$DIMASZ
 40
3.863703
  9
$DIMEXO
 40
1.0
  9
$DIMDLI
 40
0.38
  9
$DIMRND
 40
0.0
  9
$DIMDLE
 40
0.0
  9
$DIMEXE
 40
2.0
  9
$DIMTP
 40
0.0
  9
$DIMTM
 40
0.0
  9
$DIMTXT
 40
3.2
  9
$DIMCEN
 40
0.09
  9
$DIMTSZ
 40
0.0
  9
$DIMTOL
 70
     0
  9
$DIMLIM
 70
     0
  9
$DIMTIH
 70
     1
  9
$DIMTOH
 70
     1
  9
$DIMSE1
 70
     0
  9
$DIMSE2
 70
     0
  9
$DIMTAD
 70
     1
  9
$DIMZIN
 70
     0
  9
$DIMBLK
  1

  9
$DIMASO
 70
     1
  9
$DIMSHO
 70
     1
  9
$DIMPOST
  1

  9
$DIMAPOST
  1

  9
$DIMALT
 70
     0
  9
$DIMALTD
 70
     2
  9
$DIMALTF
 40
25.4
  9
$DIMLFAC
 40
1.0
  9
$DIMTOFL
 70
     0
  9
$DIMTVP
 40
0.0
  9
$DIMTIX
 70
     0
  9
$DIMSOXD
 70
     0
  9
$DIMSAH
 70
     0
  9
$DIMBLK1
  1

  9
$DIMBLK2
  1

  9
$DIMSTYLE
  2
Standard
  9
$DIMCLRD
 70
     0
  9
$DIMCLRE
 70
     0
  9
$DIMCLRT
 70
     0
  9
$DIMTFAC
 40
0.625
  9
$DIMGAP
 40
0.09
  9
$DIMJUST
 70
     0
  9
$DIMSD1
 70
     0
  9
$DIMSD2
 70
     0
  9
$DIMTOLJ
 70
     1
  9
$DIMTZIN
 70
     0
  9
$DIMALTZ
 70
     0
  9
$DIMALTTZ
 70
     0
  9
$DIMUPT
 70
     0
  9
$DIMDEC
 70
     4
  9
$DIMTDEC
 70
     4
  9
$DIMALTU
 70
     2
  9
$DIMALTTD
 70
     2
  9
$DIMTXSTY
  7
Standard
  9
$DIMAUNIT
 70
     0
  9
$DIMADEC
 70
     0
  9
$DIMALTRND
 40
0.0
  9
$DIMAZIN
 70
     0
  9
$DIMDSEP
 70
     0
  9
$DIMATFIT
 70
     3
  9
$DIMFRAC
 70
     0
  9
$DIMLDRBLK
  1

  9
$DIMLUNIT
 70
     2
  9
$DIMLWD
 70
     0
  9
$DIMLWE
 70
     0
  9
$DIMTMOVE
 70
     0
  9
$LUNITS
 70
     2
  9
$LUPREC
 70
     3
  9
$SKETCHINC
 40
0.1
  9
$FILLETRAD
 40
0.0
  9
$AUNITS
 70
     0
  9
$AUPREC
 70
     0
  9
$MENU
  1
acad
  9
$ELEVATION
 40
0.0
  9
$PELEVATION
 40
0.0
  9
$THICKNESS
 40
0.0
  9
$LIMCHECK
 70
     0
  9
$CHAMFERA
 40
0.0
  9
$CHAMFERB
 40
0.0
  9
$CHAMFERC
 40
0.0
  9
$CHAMFERD
 40
0.0
  9
$SKPOLY
 70
     0
  9
$TDCREATE
 40
0.000000000
  9
$TDUCREATE
 40
0.000000000
  9
$TDUPDATE
 40
0.000000000
  9
$TDUUPDATE
 40
0.000000000
  9
$TDINDWG
 40
0.0000000000
  9
$TDUSRTIMER
 40
0.0000000000
  9
$USRTIMER
 70
     1
  9
$ANGBASE
 50
0.0
  9
$ANGDIR
 70
     0
  9
$PDMODE
 70
     0
  9
$PDSIZE
 40
0.0
  9
$PLINEWID
 40
0.0
  9
$SPLFRAME
 70
     0
  9
$SPLINETYPE
 70
     6
  9
$SPLINESEGS
 70
     8
  9
$HANDSEED
  5
57A
  9
$SURFTAB1
 70
     6
  9
$SURFTAB2
 70
     6
  9
$SURFTYPE
 70
     6
  9
$SURFU
 70
     6
  9
$SURFV
 70
     6
  9
$UCSBASE
  2

  9
$UCSNAME
  2

  9
$UCSORG
 10
0.0
 20
0.0
 30
0.0
  9
$UCSXDIR
 10
1.0
 20
0.0
 30
0.0
  9
$UCSYDIR
 10
0.0
 20
1.0
 30
0.0
  9
$UCSORTHOREF
  2

  9
$UCSORTHOVIEW
 70
     0
  9
$UCSORGTOP
 10
0.0
 20
0.0
 30
0.0
  9
$UCSORGBOTTOM
 10
0.0
 20
0.0
 30
0.0
  9
$UCSORGLEFT
 10
0.0
 20
0.0
 30
0.0
  9
$UCSORGRIGHT
 10
0.0
 20
0.0
 30
0.0
  9
$UCSORGFRONT
 10
0.0
 20
0.0
 30
0.0
  9
$UCSORGBACK
 10
0.0
 20
0.0
 30
0.0
  9
$PUCSBASE
  2

  9
$PUCSNAME
  2

  9
$PUCSORG
 10
0.0
 20
0.0
 30
0.0
  9
$PUCSXDIR
 10
1.0
 20
0.0
 30
0.0
  9
$PUCSYDIR
 10
0.0
 20
1.0
 30
0.0
  9
$PUCSORTHOREF
  2

  9
$PUCSORTHOVIEW
 70
     0
  9
$PUCSORGTOP
 10
0.0
 20
0.0
 30
0.0
  9
$PUCSORGBOTTOM
 10
0.0
 20
0.0
 30
0.0
  9
$PUCSORGLEFT
 10
0.0
 20
0.0
 30
0.0
  9
$PUCSORGRIGHT
 10
0.0
 20
0.0
 30
0.0
  9
$PUCSORGFRONT
 10
0.0
 20
0.0
 30
0.0
  9
$PUCSORGBACK
 10
0.0
 20
0.0
 30
0.0
  9
$USERI1
 70
     0
  9
$USERI2
 70
     0
  9
$USERI3
 70
     0
  9
$USERI4
 70
     0
  9
$USERI5
 70
     0
  9
$USERR1
 40
0.0
  9
$USERR2
 40
0.0
  9
$USERR3
 40
0.0
  9
$USERR4
 40
0.0
  9
$USERR5
 40
0.0
  9
$WORLDVIEW
 70
     1
  9
$SHADEDGE
 70
     3
  9
$SHADEDIF
 70
    70
  9
$TILEMODE
 70
     1
  9
$MAXACTVP
 70
    16
  9
$PINSBASE
 10
0.0
 20
0.0
 30
0.0
  9
$PLIMCHECK
 70
     0
  9
$PEXTMIN
 10
1.000000E+20
 20
1.000000E+20
 30
1.000000E+20
  9
$PEXTMAX
 10
-1.000000E+20
 20
-1.000000E+20
 30
-1.000000E+20
  9
$PLIMMIN
 10
0.0
 20
0.0
  9
$PLIMMAX
 10
12.0
 20
9.0
  9
$UNITMODE
 70
     0
  9
$VISRETAIN
 70
     0
  9
$PLINEGEN
 70
     1
  9
$PSLTSCALE
 70
     0
  9
$TREEDEPTH
 70
  3020
  9
$CMLSTYLE
  2
Standard
  9
$CMLJUST
 70
     0
  9
$CMLSCALE
 40
1.0
  9
$PROXYGRAPHICS
 70
     0
  9
$MEASUREMENT
 70
     0
  9
$CELWEIGHT
370
     0
  9
$ENDCAPS
280
     0
  9
$JOINSTYLE
280
     0
  9
$LWDISPLAY
290
     0
  9
$INSUNITS
 70
     0
  9
$HYPERLINKBASE
  1

  9
$STYLESHEET
  1

  9
$XEDIT
290
     1
  9
$CEPSNTYPE
380
     0
  9
$PSTYLEMODE
290
     1
  9
$FINGERPRINTGUID
  2

  9
$VERSIONGUID
  2

  9
$EXTNAMES
290
     1
  9
$PSVPSCALE
 40
0.0
  0
ENDSEC
  0
SECTION
  2
CLASSES
  0
CLASS
  1
LWPOLYLINE
  2
AcDbPolyline
  3
AutoCAD 2000
 90
        0
280
     0
281
     1
  0
CLASS
  1
IMAGE
  2
AcDbRasterImage
  3
ISM
 90
      127
280
     0
281
     1
  0
CLASS
  1
OLE2FRAME
  2
AcDbOle2Frame
  3
AutoCAD 2000
 90
        0
280
     0
281
     1
  0
CLASS
  1
HATCH
  2
AcDbHatch
  3
AutoCAD 2000
 90
        0
280
     0
281
     1
  0
CLASS
  1
DICTIONARYVAR
  2
AcDbDictionaryVar
  3
AutoCAD 2000
 90
        0
280
     0
281
     0
  0
CLASS
  1
RASTERVARIABLES
  2
AcDbRasterVariables
  3
ISM
 90
        0
280
     0
281
     0
  0
CLASS
  1
IMAGEDEF
  2
AcDbRasterImageDef
  3
ISM
 90
        0
280
     0
281
     0
  0
CLASS
  1
IMAGEDEF_REACTOR
  2
AcDbRasterImageDefReactor
  3
ISM
 90
        1
280
     0
281
     0
  0
CLASS
  1
IDBUFFER
  2
AcDbIdBuffer
  3
AutoCAD 2000
 90
        0
280
     0
281
     0
  0
CLASS
  1
SPATIAL_FILTER
  2
AcDbSpatialFilter
  3
AutoCAD 2000
 90
        0
280
     0
281
     0
  0
CLASS
  1
XRECORD
  2
AcDbXrecord
  3
AutoCAD 2000
 90
        0
280
     0
281
     0
  0
CLASS
  1
SORTENTSTABLE
  2
AcDbSortentsTable
  3
AutoCAD 2000
 90
        0
280
     0
281
     0
  0
CLASS
  1
LAYER_INDEX
  2
AcDbLayerIndex
  3
AutoCAD 2000
 90
        0
280
     0
281
     0
  0
CLASS
  1
SPATIAL_INDEX
  2
AcDbSpatialIndex
  3
AutoCAD 2000
 90
        0
280
     0
281
     0
  0
CLASS
  1
OBJECT_PTR
  2
CAseDLPNTableRecord
  3
"ASE-LPNTableRecord"
 90
        1
280
     0
281
     0
  0
CLASS
  1
LAYOUT
  2
AcDbLayout
  3
AutoCAD 2000
 90
        0
280
     0
281
     0
  0
CLASS
  1
PLOTSETTINGS
  2
AcDbPlotSettings
  3
AutoCAD 2000
 90
        0
280
     0
281
     0
  0
CLASS
  1
ACDBDICTIONARYWDFLT
  2
AcDbDictionaryWithDefault
  3
AutoCAD 2000
 90
        0
280
     0
281
     0
  0
CLASS
  1
ACDBPLACEHOLDER
  2
AcDbPlaceHolder
  3
AutoCAD 2000
 90
        0
280
     0
281
     0
  0
CLASS
  1
VBA_PROJECT
  2
AcDbVbaProject
  3
acadvba
 90
        0
280
     0
281
     0
  0
CLASS
  1
WIPEOUT
  2
AcDbWipeout
  3
WipeOut|AutoCAD Express Tool|expresstools@autodesk.com
 90
      127
280
     0
281
     1
  0
CLASS
  1
WIPEOUTVARIABLES
  2
AcDbWipeoutVariables
  3
WipeOut|AutoCAD Express Tool|expresstools@autodesk.com
 90
        0
280
     0
281
     0
  0
CLASS
  1
RTEXT
  2
RText
  3
RText|AutoCAD Express Tool|expresstools@autodesk.com
 90
        0
280
     0
281
     1
  0
CLASS
  1
ARCALIGNEDTEXT
  2
AcDbArcAlignedText
  3
ATEXT|AutoCAD Express Tool|expresstools@autodesk.com
 90
        0
280
     0
281
     1
  0
ENDSEC
  0
SECTION
  2
TABLES
  0
TABLE
  2
VPORT
  5
7
100
AcDbSymbolTable
 70
     1
  0
VPORT
  5
15
100
AcDbSymbolTableRecord
100
AcDbViewportTableRecord
  2
*ACTIVE
 70
     0
 10
0.0
 20
0.0
 11
1.0
 21
1.0
 12
0.0
 22
0.0
 13
0.0
 23
0.0
 14
1.0
 24
1.0
 15
0.0
 25
0.0
 16
0.0
 26
0.0
 36
1.0
 17
0.0
 27
0.0
 37
0.0
 40
100.0
 41
1.0
 42
50.0
 43
0.0
 44
0.0
 50
0.0
 51
0.0
 71
     0
 72
   100
 73
     1
 74
     1
 75
     0
 76
     0
 77
     0
 78
     0
281
     0
 65
     0
110
0.0
120
0.0
130
0.0
111
1.0
121
0.0
131
0.0
112
0.0
122
1.0
132
0.0
345
0
346
0
 79
     0
146
0.0
  0
ENDTAB
  0
TABLE
  2
LTYPE
  5
4
100
AcDbSymbolTable
 70
     7
  0
LTYPE
  5
11
100
AcDbSymbolTableRecord
100
AcDbLinetypeTableRecord
  2
ByBlock
 70
    64
  3

 72
    65
 73
     0
 40
0.0
  0
LTYPE
  5
12
100
AcDbSymbolTableRecord
100
AcDbLinetypeTableRecord
  2
ByLayer
 70
    64
  3

 72
    65
 73
     0
 40
0.0
  0
LTYPE
  5
13
100
AcDbSymbolTableRecord
100
AcDbLinetypeTableRecord
  2
Continuous
 70
    64
  3
Solid line
 72
    65
 73
     0
 40
0.0
  0
LTYPE
  5
24
100
AcDbSymbolTableRecord
100
AcDbLinetypeTableRecord
  2
DASHED
 70
    64
  3
Dashed __ __ __ __ __ __ __ __ __ __ __ __ __ _
 72
    65
 73
     2
 40
0.75
 49
0.5
 74
     0
 49
-0.25
 74
     0
  0
LTYPE
  5
25
100
AcDbSymbolTableRecord
100
AcDbLinetypeTableRecord
  2
CENTER
 70
    64
  3
Center ____ _ ____ _ ____ _ ____ _ ____ _ ____
 72
    65
 73
     4
 40
1.0
 49
0.5
 74
     0
 49
-0.25
 74
     0
 49
0.0
 74
     0
 49
-0.25
 74
     0
  0
LTYPE
  5
26
100
AcDbSymbolTableRecord
100
AcDbLinetypeTableRecord
  2
DIVIDE
 70
    64
  3
Divide ____ . . ____ . . ____ . . ____ . . ____
 72
    65
 73
     6
 40
1.25
 49
0.5
 74
     0
 49
-0.25
 74
     0
 49
0.0
 74
     0
 49
-0.25
 74
     0
 49
0.0
 74
     0
 49
-0.25
 74
     0
  0
LTYPE
  5
27
100
AcDbSymbolTableRecord
100
AcDbLinetypeTableRecord
  2
PHANTOM
 70
    64
  3
Phantom ______  __  __  ______  __  __  ______
 72
    65
 73
     6
 40
9.0
 49
4.3
 74
     0
 49
-0.7
 74
     0
 49
1.3
 74
     0
 49
-0.7
 74
     0
 49
1.3
 74
     0
 49
-0.7
 74
     0
  0
ENDTAB
  0
TABLE
  2
LAYER
  5
2
100
AcDbSymbolTable
 70
     1
  0
LAYER
  5
14
100
AcDbSymbolTableRecord
100
AcDbLayerTableRecord
  2
0
 70
    64
 62
   102
  6
Continuous
290
     1
370
    -3
390
1D
  0
ENDTAB
  0
TABLE
  2
STYLE
  5
3
100
AcDbSymbolTable
 70
     2
  0
STYLE
  5
17
100
AcDbSymbolTableRecord
100
AcDbTextStyleTableRecord
  2
Standard
 70
     0
 40
0.0
 41
1.0
 50
0.0
 71
     0
 42
0.0
  3
txt
  4

  0
STYLE
  5
1FB
100
AcDbSymbolTableRecord
100
AcDbTextStyleTableRecord
  2
ZU_SHPTB00001
 70
     0
 40
0.0
 41
1.0
 50
0.0
 71
     0
 42
0.0
  3
monotxt
  4
bigfont
  0
ENDTAB
  0
TABLE
  2
VIEW
  5
5
100
AcDbSymbolTable
 70
     0
  0
ENDTAB
  0
TABLE
  2
UCS
  5
6
100
AcDbSymbolTable
 70
     0
  0
ENDTAB
  0
TABLE
  2
APPID
  5
8
100
AcDbSymbolTable
 70
     1
  0
APPID
  5
16
100
AcDbSymbolTableRecord
100
AcDbRegAppTableRecord
  2
ACAD
 70
     0
  0
ENDTAB
  0
TABLE
  2
DIMSTYLE
  5
9
100
AcDbSymbolTable
 70
     1
100
AcDbDimStyleTable
 71
     0
  0
DIMSTYLE
105
18
100
AcDbSymbolTableRecord
100
AcDbDimStyleTableRecord
  2
Standard
 70
     0
  3

  4

 40
1.0
 41
0.18
 42
0.0625
 43
0.38
 44
0.18
 45
0.0
 46
0.0
 47
0.0
 48
0.0
 71
     0
 72
     0
 73
     1
 74
     1
 75
     0
 76
     0
 77
     0
 78
     0
 79
     0
140
0.18
141
0.09
142
0.0
143
25.4
144
1.0
145
0.0
146
1.0
147
0.09
148
0.0
170
     0
171
     2
172
     0
173
     0
174
     0
175
     0
176
     0
177
     0
178
     0
179
     0
271
     4
272
     4
273
     2
274
     2
275
     0
276
     0
277
     2
278
    46
279
     0
280
     0
281
     0
282
     0
283
     1
284
     0
285
     0
286
     0
288
     0
289
     3
340
17
341
0
342
0
343
0
344
0
371
    -2
372
    -2
  0
ENDTAB
  0
TABLE
  2
BLOCK_RECORD
  5
1
100
AcDbSymbolTable
 70
     9
  0
BLOCK_RECORD
  5
A
100
AcDbSymbolTableRecord
100
AcDbBlockTableRecord
  2
*MODEL_SPACE
340
20
  0
BLOCK_RECORD
  5
B
100
AcDbSymbolTableRecord
100
AcDbBlockTableRecord
  2
*PAPER_SPACE
340
21
  0
BLOCK_RECORD
  5
96
100
AcDbSymbolTableRecord
100
AcDbBlockTableRecord
  2
ZU_SYM__USERS_HOME_SYMBOL_POO_SYM_B20_18
340
0
102
{BLKREFS
331
A1
102
}
  0
BLOCK_RECORD
  5
167
100
AcDbSymbolTableRecord
100
AcDbBlockTableRecord
  2
ZU_SYM_K__CAD_SYM_POO_SYM_B20_07
340
0
102
{BLKREFS
331
173
102
}
  0
BLOCK_RECORD
  5
174
100
AcDbSymbolTableRecord
100
AcDbBlockTableRecord
  2
ZU_SYM_K__CAD_SYM_POO_SYM_B20_0000107
340
0
102
{BLKREFS
331
180
102
}
  0
BLOCK_RECORD
  5
181
100
AcDbSymbolTableRecord
100
AcDbBlockTableRecord
  2
ZU_SYM_K__CAD_SYM_POO_SYM_B20_0000207
340
0
102
{BLKREFS
331
18D
102
}
  0
BLOCK_RECORD
  5
18E
100
AcDbSymbolTableRecord
100
AcDbBlockTableRecord
  2
ZU_SYM_K__CAD_SYM_POO_SYM_B20_0000307
340
0
102
{BLKREFS
331
19A
102
}
  0
BLOCK_RECORD
  5
19B
100
AcDbSymbolTableRecord
100
AcDbBlockTableRecord
  2
ZU_SYM_K__CAD_SYM_POO_SYM_B20_0000407
340
0
102
{BLKREFS
331
1A7
102
}
  0
BLOCK_RECORD
  5
1A8
100
AcDbSymbolTableRecord
100
AcDbBlockTableRecord
  2
ZU_SYM_K__CAD_SYM_POO_SYM_B20_0000507
340
0
102
{BLKREFS
331
1B4
102
}
  0
BLOCK_RECORD
  5
25D
100
AcDbSymbolTableRecord
100
AcDbBlockTableRecord
  2
ZU_SYM__USR_MELCAD_MD_SYM_SYM_SYM1_00
340
0
102
{BLKREFS
331
268
102
}
  0
BLOCK_RECORD
  5
26A
100
AcDbSymbolTableRecord
100
AcDbBlockTableRecord
  2
ZU_SYM__USR_MELCAD_MD_SYM_SYM_SYM1_0000600
340
0
102
{BLKREFS
331
275
102
}
  0
ENDTAB
  0
ENDSEC
  0
SECTION
  2
BLOCKS
  0
BLOCK
  5
D
100
AcDbEntity
  8
0
390
0
100
AcDbBlockBegin
  2
*MODEL_SPACE
 70
     0
 10
0.0
 20
0.0
 30
0.0
  3
*MODEL_SPACE
  1

  0
ENDBLK
  5
E
100
AcDbEntity
  8
0
390
0
100
AcDbBlockEnd
  0
BLOCK
  5
F
100
AcDbEntity
 67
     1
  8
0
390
0
100
AcDbBlockBegin
  2
*PAPER_SPACE
 70
     0
 10
0.0
 20
0.0
 30
0.0
  3
*PAPER_SPACE
  1

  0
ENDBLK
  5
10
100
AcDbEntity
 67
     1
  8
0
390
0
100
AcDbBlockEnd
  0
BLOCK
  5
97
100
AcDbEntity
  8
0
390
0
100
AcDbBlockBegin
  2
ZU_SYM__USERS_HOME_SYMBOL_POO_SYM_B20_18
 70
    64
 10
0.0
 20
0.0
 30
0.0
  3
ZU_SYM__USERS_HOME_SYMBOL_POO_SYM_B20_18
  1

  0
LINE
  5
98
100
AcDbEntity
  8
0
370
    -3
390
0
  6
Continuous
100
AcDbLine
 10
-7.499999
 20
6.5
 30
0.0
 11
-7.499999
 21
-6.5
 31
0.0
  0
LINE
  5
99
100
AcDbEntity
  8
0
370
    -3
390
0
  6
Continuous
100
AcDbLine
 10
-7.499998
 20
-6.499999
 30
0.0
 11
-7.999999
 21
-5.63407
 31
0.0
  0
LINE
  5
9A
100
AcDbEntity
  8
0
370
    -3
390
0
  6
Continuous
100
AcDbLine
 10
-7.499999
 20
6.5
 30
0.0
 11
-7.999999
 21
5.633876
 31
0.0
  0
LINE
  5
9B
100
AcDbEntity
  8
0
370
    -3
390
0
  6
Continuous
100
AcDbLine
 10
0.0
 20
-6.5
 30
0.0
 11
-7.499998
 21
-6.5
 31
0.0
  0
LINE
  5
9C
100
AcDbEntity
  8
0
370
    -3
390
0
  6
Continuous
100
AcDbLine
 10
0.0
 20
6.5
 30
0.0
 11
-7.499999
 21
6.5
 31
0.0
  0
LINE
  5
9D
100
AcDbEntity
  8
0
370
    -3
390
0
  6
Continuous
100
AcDbLine
 10
-7.999999
 20
5.633876
 30
0.0
 11
-7.999999
 21
-5.63407
 31
0.0
  0
LINE
  5
9E
100
AcDbEntity
  8
0
370
    -3
390
0
  6
Continuous
100
AcDbLine
 10
0.0
 20
-6.5
 30
0.0
 11
0.0
 21
6.5
 31
0.0
  0
POINT
  5
9F
100
AcDbEntity
  8
0
370
    -3
390
0
  6
Continuous
100
AcDbPoint
 10
0.0
 20
0.0
 30
0.0
  0
ENDBLK
  5
A0
100
AcDbEntity
  8
0
390
0
100
AcDbBlockEnd
  0
BLOCK
  5
168
100
AcDbEntity
  8
0
390
0
100
AcDbBlockBegin
  2
ZU_SYM_K__CAD_SYM_POO_SYM_B20_07
 70
    64
 10
0.0
 20
0.0
 30
0.0
  3
ZU_SYM_K__CAD_SYM_POO_SYM_B20_07
  1

  0
CIRCLE
  5
169
100
AcDbEntity
  8
0
370
    -3
390
0
  6
Continuous
100
AcDbCircle
 10
0.0
 20
0.0
 30
0.0
 40
7.787524
  0
CIRCLE
  5
16A
100
AcDbEntity
  8
0
370
    -3
390
0
  6
Continuous
100
AcDbCircle
 10
0.0
 20
0.0
 30
0.0
 40
9.0
  0
POINT
  5
16B
100
AcDbEntity
  8
0
370
    -3
390
0
  6
Continuous
100
AcDbPoint
 10
0.0
 20
0.0
 30
0.0
  0
LINE
  5
16C
100
AcDbEntity
  8
0
370
    -3
390
0
  6
Continuous
100
AcDbLine
 10
-4.999998
 20
-2.886744
 30
0.0
 11
-4.999999
 21
2.886755
 31
0.0
  0
LINE
  5
16D
100
AcDbEntity
  8
0
370
    -3
390
0
  6
Continuous
100
AcDbLine
 10
4.999998
 20
2.886743
 30
0.0
 11
4.999999
 21
-2.886755
 31
0.0
  0
LINE
  5
16E
100
AcDbEntity
  8
0
370
    -3
390
0
  6
Continuous
100
AcDbLine
 10
4.999998
 20
2.886744
 30
0.0
 11
0.000009
 21
5.7735
 31
0.0
  0
LINE
  5
16F
100
AcDbEntity
  8
0
370
    -3
390
0
  6
Continuous
100
AcDbLine
 10
-0.000009
 20
-5.773499
 30
0.0
 11
-4.999998
 21
-2.886745
 31
0.0
  0
LINE
  5
170
100
AcDbEntity
  8
0
370
    -3
390
0
  6
Continuous
100
AcDbLine
 10
-4.999999
 20
2.886755
 30
0.0
 11
0.000008
 21
5.773499
 31
0.0
  0
LINE
  5
171
100
AcDbEntity
  8
0
370
    -3
390
0
  6
Continuous
100
AcDbLine
 10
4.999999
 20
-2.886755
 30
0.0
 11
-0.000009
 21
-5.7735
 31
0.0
  0
ENDBLK
  5
172
100
AcDbEntity
  8
0
390
0
100
AcDbBlockEnd
  0
BLOCK
  5
175
100
AcDbEntity
  8
0
390
0
100
AcDbBlockBegin
  2
ZU_SYM_K__CAD_SYM_POO_SYM_B20_0000107
 70
    64
 10
0.0
 20
0.0
 30
0.0
  3
ZU_SYM_K__CAD_SYM_POO_SYM_B20_0000107
  1

  0
CIRCLE
  5
176
100
AcDbEntity
  8
0
370
    -3
390
0
  6
Continuous
100
AcDbCircle
 10
0.0
 20
0.0
 30
0.0
 40
7.787524
  0
CIRCLE
  5
177
100
AcDbEntity
  8
0
370
    -3
390
0
  6
Continuous
100
AcDbCircle
 10
0.0
 20
0.0
 30
0.0
 40
9.0
  0
POINT
  5
178
100
AcDbEntity
  8
0
370
    -3
390
0
  6
Continuous
100
AcDbPoint
 10
0.0
 20
0.0
 30
0.0
  0
LINE
  5
179
100
AcDbEntity
  8
0
370
    -3
390
0
  6
Continuous
100
AcDbLine
 10
-4.999998
 20
-2.886744
 30
0.0
 11
-4.999999
 21
2.886755
 31
0.0
  0
LINE
  5
17A
100
AcDbEntity
  8
0
370
    -3
390
0
  6
Continuous
100
AcDbLine
 10
4.999998
 20
2.886743
 30
0.0
 11
4.999999
 21
-2.886755
 31
0.0
  0
LINE
  5
17B
100
AcDbEntity
  8
0
370
    -3
390
0
  6
Continuous
100
AcDbLine
 10
4.999998
 20
2.886744
 30
0.0
 11
0.000009
 21
5.7735
 31
0.0
  0
LINE
  5
17C
100
AcDbEntity
  8
0
370
    -3
390
0
  6
Continuous
100
AcDbLine
 10
-0.000009
 20
-5.773499
 30
0.0
 11
-4.999998
 21
-2.886745
 31
0.0
  0
LINE
  5
17D
100
AcDbEntity
  8
0
370
    -3
390
0
  6
Continuous
100
AcDbLine
 10
-4.999999
 20
2.886755
 30
0.0
 11
0.000008
 21
5.773499
 31
0.0
  0
LINE
  5
17E
100
AcDbEntity
  8
0
370
    -3
390
0
  6
Continuous
100
AcDbLine
 10
4.999999
 20
-2.886755
 30
0.0
 11
-0.000009
 21
-5.7735
 31
0.0
  0
ENDBLK
  5
17F
100
AcDbEntity
  8
0
390
0
100
AcDbBlockEnd
  0
BLOCK
  5
182
100
AcDbEntity
  8
0
390
0
100
AcDbBlockBegin
  2
ZU_SYM_K__CAD_SYM_POO_SYM_B20_0000207
 70
    64
 10
0.0
 20
0.0
 30
0.0
  3
ZU_SYM_K__CAD_SYM_POO_SYM_B20_0000207
  1

  0
CIRCLE
  5
183
100
AcDbEntity
  8
0
370
    -3
390
0
  6
Continuous
100
AcDbCircle
 10
0.0
 20
0.0
 30
0.0
 40
7.787524
  0
CIRCLE
  5
184
100
AcDbEntity
  8
0
370
    -3
390
0
  6
Continuous
100
AcDbCircle
 10
0.0
 20
0.0
 30
0.0
 40
9.0
  0
POINT
  5
185
100
AcDbEntity
  8
0
370
    -3
390
0
  6
Continuous
100
AcDbPoint
 10
0.0
 20
0.0
 30
0.0
  0
LINE
  5
186
100
AcDbEntity
  8
0
370
    -3
390
0
  6
Continuous
100
AcDbLine
 10
-4.999998
 20
-2.886744
 30
0.0
 11
-4.999999
 21
2.886755
 31
0.0
  0
LINE
  5
187
100
AcDbEntity
  8
0
370
    -3
390
0
  6
Continuous
100
AcDbLine
 10
4.999998
 20
2.886743
 30
0.0
 11
4.999999
 21
-2.886755
 31
0.0
  0
LINE
  5
188
100
AcDbEntity
  8
0
370
    -3
390
0
  6
Continuous
100
AcDbLine
 10
4.999998
 20
2.886744
 30
0.0
 11
0.000009
 21
5.7735
 31
0.0
  0
LINE
  5
189
100
AcDbEntity
  8
0
370
    -3
390
0
  6
Continuous
100
AcDbLine
 10
-0.000009
 20
-5.773499
 30
0.0
 11
-4.999998
 21
-2.886745
 31
0.0
  0
LINE
  5
18A
100
AcDbEntity
  8
0
370
    -3
390
0
  6
Continuous
100
AcDbLine
 10
-4.999999
 20
2.886755
 30
0.0
 11
0.000008
 21
5.773499
 31
0.0
  0
LINE
  5
18B
100
AcDbEntity
  8
0
370
    -3
390
0
  6
Continuous
100
AcDbLine
 10
4.999999
 20
-2.886755
 30
0.0
 11
-0.000009
 21
-5.7735
 31
0.0
  0
ENDBLK
  5
18C
100
AcDbEntity
  8
0
390
0
100
AcDbBlockEnd
  0
BLOCK
  5
18F
100
AcDbEntity
  8
0
390
0
100
AcDbBlockBegin
  2
ZU_SYM_K__CAD_SYM_POO_SYM_B20_0000307
 70
    64
 10
0.0
 20
0.0
 30
0.0
  3
ZU_SYM_K__CAD_SYM_POO_SYM_B20_0000307
  1

  0
CIRCLE
  5
190
100
AcDbEntity
  8
0
370
    -3
390
0
  6
Continuous
100
AcDbCircle
 10
0.0
 20
0.0
 30
0.0
 40
7.787524
  0
CIRCLE
  5
191
100
AcDbEntity
  8
0
370
    -3
390
0
  6
Continuous
100
AcDbCircle
 10
0.0
 20
0.0
 30
0.0
 40
9.0
  0
POINT
  5
192
100
AcDbEntity
  8
0
370
    -3
390
0
  6
Continuous
100
AcDbPoint
 10
0.0
 20
0.0
 30
0.0
  0
LINE
  5
193
100
AcDbEntity
  8
0
370
    -3
390
0
  6
Continuous
100
AcDbLine
 10
-4.999998
 20
-2.886744
 30
0.0
 11
-4.999999
 21
2.886755
 31
0.0
  0
LINE
  5
194
100
AcDbEntity
  8
0
370
    -3
390
0
  6
Continuous
100
AcDbLine
 10
4.999998
 20
2.886743
 30
0.0
 11
4.999999
 21
-2.886755
 31
0.0
  0
LINE
  5
195
100
AcDbEntity
  8
0
370
    -3
390
0
  6
Continuous
100
AcDbLine
 10
4.999998
 20
2.886744
 30
0.0
 11
0.000009
 21
5.7735
 31
0.0
  0
LINE
  5
196
100
AcDbEntity
  8
0
370
    -3
390
0
  6
Continuous
100
AcDbLine
 10
-0.000009
 20
-5.773499
 30
0.0
 11
-4.999998
 21
-2.886745
 31
0.0
  0
LINE
  5
197
100
AcDbEntity
  8
0
370
    -3
390
0
  6
Continuous
100
AcDbLine
 10
-4.999999
 20
2.886755
 30
0.0
 11
0.000008
 21
5.773499
 31
0.0
  0
LINE
  5
198
100
AcDbEntity
  8
0
370
    -3
390
0
  6
Continuous
100
AcDbLine
 10
4.999999
 20
-2.886755
 30
0.0
 11
-0.000009
 21
-5.7735
 31
0.0
  0
ENDBLK
  5
199
100
AcDbEntity
  8
0
390
0
100
AcDbBlockEnd
  0
BLOCK
  5
19C
100
AcDbEntity
  8
0
390
0
100
AcDbBlockBegin
  2
ZU_SYM_K__CAD_SYM_POO_SYM_B20_0000407
 70
    64
 10
0.0
 20
0.0
 30
0.0
  3
ZU_SYM_K__CAD_SYM_POO_SYM_B20_0000407
  1

  0
CIRCLE
  5
19D
100
AcDbEntity
  8
0
370
    -3
390
0
  6
Continuous
100
AcDbCircle
 10
0.0
 20
0.0
 30
0.0
 40
7.787524
  0
CIRCLE
  5
19E
100
AcDbEntity
  8
0
370
    -3
390
0
  6
Continuous
100
AcDbCircle
 10
0.0
 20
0.0
 30
0.0
 40
9.0
  0
POINT
  5
19F
100
AcDbEntity
  8
0
370
    -3
390
0
  6
Continuous
100
AcDbPoint
 10
0.0
 20
0.0
 30
0.0
  0
LINE
  5
1A0
100
AcDbEntity
  8
0
370
    -3
390
0
  6
Continuous
100
AcDbLine
 10
-4.999998
 20
-2.886744
 30
0.0
 11
-4.999999
 21
2.886755
 31
0.0
  0
LINE
  5
1A1
100
AcDbEntity
  8
0
370
    -3
390
0
  6
Continuous
100
AcDbLine
 10
4.999998
 20
2.886743
 30
0.0
 11
4.999999
 21
-2.886755
 31
0.0
  0
LINE
  5
1A2
100
AcDbEntity
  8
0
370
    -3
390
0
  6
Continuous
100
AcDbLine
 10
4.999998
 20
2.886744
 30
0.0
 11
0.000009
 21
5.7735
 31
0.0
  0
LINE
  5
1A3
100
AcDbEntity
  8
0
370
    -3
390
0
  6
Continuous
100
AcDbLine
 10
-0.000009
 20
-5.773499
 30
0.0
 11
-4.999998
 21
-2.886745
 31
0.0
  0
LINE
  5
1A4
100
AcDbEntity
  8
0
370
    -3
390
0
  6
Continuous
100
AcDbLine
 10
-4.999999
 20
2.886755
 30
0.0
 11
0.000008
 21
5.773499
 31
0.0
  0
LINE
  5
1A5
100
AcDbEntity
  8
0
370
    -3
390
0
  6
Continuous
100
AcDbLine
 10
4.999999
 20
-2.886755
 30
0.0
 11
-0.000009
 21
-5.7735
 31
0.0
  0
ENDBLK
  5
1A6
100
AcDbEntity
  8
0
390
0
100
AcDbBlockEnd
  0
BLOCK
  5
1A9
100
AcDbEntity
  8
0
390
0
100
AcDbBlockBegin
  2
ZU_SYM_K__CAD_SYM_POO_SYM_B20_0000507
 70
    64
 10
0.0
 20
0.0
 30
0.0
  3
ZU_SYM_K__CAD_SYM_POO_SYM_B20_0000507
  1

  0
CIRCLE
  5
1AA
100
AcDbEntity
  8
0
370
    -3
390
0
  6
Continuous
100
AcDbCircle
 10
0.0
 20
0.0
 30
0.0
 40
7.787524
  0
CIRCLE
  5
1AB
100
AcDbEntity
  8
0
370
    -3
390
0
  6
Continuous
100
AcDbCircle
 10
0.0
 20
0.0
 30
0.0
 40
9.0
  0
POINT
  5
1AC
100
AcDbEntity
  8
0
370
    -3
390
0
  6
Continuous
100
AcDbPoint
 10
0.0
 20
0.0
 30
0.0
  0
LINE
  5
1AD
100
AcDbEntity
  8
0
370
    -3
390
0
  6
Continuous
100
AcDbLine
 10
-4.999998
 20
-2.886744
 30
0.0
 11
-4.999999
 21
2.886755
 31
0.0
  0
LINE
  5
1AE
100
AcDbEntity
  8
0
370
    -3
390
0
  6
Continuous
100
AcDbLine
 10
4.999998
 20
2.886743
 30
0.0
 11
4.999999
 21
-2.886755
 31
0.0
  0
LINE
  5
1AF
100
AcDbEntity
  8
0
370
    -3
390
0
  6
Continuous
100
AcDbLine
 10
4.999998
 20
2.886744
 30
0.0
 11
0.000009
 21
5.7735
 31
0.0
  0
LINE
  5
1B0
100
AcDbEntity
  8
0
370
    -3
390
0
  6
Continuous
100
AcDbLine
 10
-0.000009
 20
-5.773499
 30
0.0
 11
-4.999998
 21
-2.886745
 31
0.0
  0
LINE
  5
1B1
100
AcDbEntity
  8
0
370
    -3
390
0
  6
Continuous
100
AcDbLine
 10
-4.999999
 20
2.886755
 30
0.0
 11
0.000008
 21
5.773499
 31
0.0
  0
LINE
  5
1B2
100
AcDbEntity
  8
0
370
    -3
390
0
  6
Continuous
100
AcDbLine
 10
4.999999
 20
-2.886755
 30
0.0
 11
-0.000009
 21
-5.7735
 31
0.0
  0
ENDBLK
  5
1B3
100
AcDbEntity
  8
0
390
0
100
AcDbBlockEnd
  0
BLOCK
  5
25E
100
AcDbEntity
  8
0
390
0
100
AcDbBlockBegin
  2
ZU_SYM__USR_MELCAD_MD_SYM_SYM_SYM1_00
 70
    64
 10
0.0
 20
0.0
 30
0.0
  3
ZU_SYM__USR_MELCAD_MD_SYM_SYM_SYM1_00
  1

  0
POINT
  5
25F
100
AcDbEntity
  8
0
370
    -3
390
0
  6
Continuous
100
AcDbPoint
 10
0.0
 20
0.0
 30
0.0
  0
LINE
  5
260
100
AcDbEntity
  8
0
370
    -3
390
0
  6
Continuous
100
AcDbLine
 10
0.0
 20
-6.5
 30
0.0
 11
0.0
 21
6.5
 31
0.0
  0
LINE
  5
261
100
AcDbEntity
  8
0
370
    -3
390
0
  6
Continuous
100
AcDbLine
 10
-7.999999
 20
5.633876
 30
0.0
 11
-7.999999
 21
-5.63407
 31
0.0
  0
LINE
  5
262
100
AcDbEntity
  8
0
370
    -3
390
0
  6
Continuous
100
AcDbLine
 10
0.0
 20
6.5
 30
0.0
 11
-7.499999
 21
6.5
 31
0.0
  0
LINE
  5
263
100
AcDbEntity
  8
0
370
    -3
390
0
  6
Continuous
100
AcDbLine
 10
0.0
 20
-6.5
 30
0.0
 11
-7.499998
 21
-6.5
 31
0.0
  0
LINE
  5
264
100
AcDbEntity
  8
0
370
    -3
390
0
  6
Continuous
100
AcDbLine
 10
-7.499999
 20
6.5
 30
0.0
 11
-7.999999
 21
5.633876
 31
0.0
  0
LINE
  5
265
100
AcDbEntity
  8
0
370
    -3
390
0
  6
Continuous
100
AcDbLine
 10
-7.499998
 20
-6.499999
 30
0.0
 11
-7.999999
 21
-5.63407
 31
0.0
  0
LINE
  5
266
100
AcDbEntity
  8
0
370
    -3
390
0
  6
Continuous
100
AcDbLine
 10
-7.499999
 20
6.5
 30
0.0
 11
-7.499999
 21
-6.5
 31
0.0
  0
ENDBLK
  5
267
100
AcDbEntity
  8
0
390
0
100
AcDbBlockEnd
  0
BLOCK
  5
26B
100
AcDbEntity
  8
0
390
0
100
AcDbBlockBegin
  2
ZU_SYM__USR_MELCAD_MD_SYM_SYM_SYM1_0000600
 70
    64
 10
0.0
 20
0.0
 30
0.0
  3
ZU_SYM__USR_MELCAD_MD_SYM_SYM_SYM1_0000600
  1

  0
POINT
  5
26C
100
AcDbEntity
  8
0
370
    -3
390
0
  6
Continuous
100
AcDbPoint
 10
0.0
 20
0.0
 30
0.0
  0
LINE
  5
26D
100
AcDbEntity
  8
0
370
    -3
390
0
  6
Continuous
100
AcDbLine
 10
0.0
 20
-6.5
 30
0.0
 11
0.0
 21
6.5
 31
0.0
  0
LINE
  5
26E
100
AcDbEntity
  8
0
370
    -3
390
0
  6
Continuous
100
AcDbLine
 10
-7.999999
 20
5.633876
 30
0.0
 11
-7.999999
 21
-5.63407
 31
0.0
  0
LINE
  5
26F
100
AcDbEntity
  8
0
370
    -3
390
0
  6
Continuous
100
AcDbLine
 10
0.0
 20
6.5
 30
0.0
 11
-7.499999
 21
6.5
 31
0.0
  0
LINE
  5
270
100
AcDbEntity
  8
0
370
    -3
390
0
  6
Continuous
100
AcDbLine
 10
0.0
 20
-6.5
 30
0.0
 11
-7.499998
 21
-6.5
 31
0.0
  0
LINE
  5
271
100
AcDbEntity
  8
0
370
    -3
390
0
  6
Continuous
100
AcDbLine
 10
-7.499999
 20
6.5
 30
0.0
 11
-7.999999
 21
5.633876
 31
0.0
  0
LINE
  5
272
100
AcDbEntity
  8
0
370
    -3
390
0
  6
Continuous
100
AcDbLine
 10
-7.499998
 20
-6.499999
 30
0.0
 11
-7.999999
 21
-5.63407
 31
0.0
  0
LINE
  5
273
100
AcDbEntity
  8
0
370
    -3
390
0
  6
Continuous
100
AcDbLine
 10
-7.499999
 20
6.5
 30
0.0
 11
-7.499999
 21
-6.5
 31
0.0
  0
ENDBLK
  5
274
100
AcDbEntity
  8
0
390
0
100
AcDbBlockEnd
  0
ENDSEC
  0
SECTION
  2
ENTITIES
  0
LINE
  5
28
100
AcDbEntity
  8
0
370
    -3
390
0
  6
CENTER
100
AcDbLine
 10
-25.042931
 20
-187.213544
 30
0.0
 11
352.247043
 21
-187.213544
 31
0.0
  0
LINE
  5
29
100
AcDbEntity
  8
0
370
    -3
390
0
  6
Continuous
100
AcDbLine
 10
8.114212
 20
-266.413544
 30
0.0
 11
8.114212
 21
-186.213544
 31
0.0
  0
LINE
  5
2A
100
AcDbEntity
  8
0
370
    -3
390
0
  6
Continuous
100
AcDbLine
 10
8.114212
 20
-109.013544
 30
0.0
 11
8.114212
 21
-189.213544
 31
0.0
  0
LINE
  5
2B
100
AcDbEntity
  8
0
370
    -3
390
0
  6
Continuous
100
AcDbLine
 10
-496.997244
 20
-141.213544
 30
0.0
 11
-496.997244
 21
-193.213544
 31
0.0
  0
LINE
  5
2C
100
AcDbEntity
  8
0
370
    -3
390
0
  6
Continuous
100
AcDbLine
 10
-498.997244
 20
-193.213544
 30
0.0
 11
-496.997244
 21
-193.213544
 31
0.0
  0
LINE
  5
2D
100
AcDbEntity
  8
0
370
    -3
390
0
  6
Continuous
100
AcDbLine
 10
-496.997244
 20
-192.213544
 30
0.0
 11
-421.997244
 21
-192.213544
 31
0.0
  0
LINE
  5
2E
100
AcDbEntity
  8
0
370
    -3
390
0
  6
Continuous
100
AcDbLine
 10
-166.885788
 20
-138.713544
 30
0.0
 11
-166.885788
 21
-147.713544
 31
0.0
  0
LINE
  5
2F
100
AcDbEntity
  8
0
370
    -3
390
0
  6
Continuous
100
AcDbLine
 10
-180.885788
 20
-138.713544
 30
0.0
 11
-180.885788
 21
-147.713544
 31
0.0
  0
LINE
  5
30
100
AcDbEntity
  8
0
370
    -3
390
0
  6
Continuous
100
AcDbLine
 10
-180.885788
 20
-147.713544
 30
0.0
 11
-166.885788
 21
-147.713544
 31
0.0
  0
LINE
  5
31
100
AcDbEntity
  8
0
370
    -3
390
0
  6
Continuous
100
AcDbLine
 10
-180.885788
 20
-138.713544
 30
0.0
 11
-166.885788
 21
-138.713544
 31
0.0
  0
ARC
  5
32
100
AcDbEntity
  8
0
370
    -3
390
0
  6
Continuous
100
AcDbCircle
 10
-173.885788
 20
-167.213544
 30
0.0
 40
25.0
100
AcDbArc
 50
106.260205
 51
73.739795
  0
CIRCLE
  5
33
100
AcDbEntity
  8
0
370
    -3
390
0
  6
Continuous
100
AcDbCircle
 10
-173.885788
 20
-167.213544
 30
0.0
 40
3.5
  0
CIRCLE
  5
34
100
AcDbEntity
  8
0
370
    -3
390
0
  6
Continuous
100
AcDbCircle
 10
-173.885788
 20
-167.213544
 30
0.0
 40
4.0
  0
ARC
  5
35
100
AcDbEntity
  8
0
370
    -3
390
0
  6
Continuous
100
AcDbCircle
 10
-350.293515
 20
-167.213544
 30
0.0
 40
25.0
100
AcDbArc
 50
106.260205
 51
73.739795
  0
LINE
  5
36
100
AcDbEntity
  8
0
370
    -3
390
0
  6
Continuous
100
AcDbLine
 10
-357.293515
 20
-138.713544
 30
0.0
 11
-357.293515
 21
-147.713544
 31
0.0
  0
LINE
  5
37
100
AcDbEntity
  8
0
370
    -3
390
0
  6
Continuous
100
AcDbLine
 10
-357.293515
 20
-147.713544
 30
0.0
 11
-343.293515
 21
-147.713544
 31
0.0
  0
LINE
  5
38
100
AcDbEntity
  8
0
370
    -3
390
0
  6
Continuous
100
AcDbLine
 10
-357.293515
 20
-138.713544
 30
0.0
 11
-343.293515
 21
-138.713544
 31
0.0
  0
LINE
  5
39
100
AcDbEntity
  8
0
370
    -3
390
0
  6
Continuous
100
AcDbLine
 10
-343.293515
 20
-138.713544
 30
0.0
 11
-343.293515
 21
-147.713544
 31
0.0
  0
LINE
  5
3A
100
AcDbEntity
  8
0
370
    -3
390
0
  6
CENTER
100
AcDbLine
 10
-386.746499
 20
-167.213544
 30
0.0
 11
-315.241123
 21
-167.213544
 31
0.0
  0
LINE
  5
3B
100
AcDbEntity
  8
0
370
    -3
390
0
  6
CENTER
100
AcDbLine
 10
-350.293515
 20
-127.981956
 30
0.0
 11
-350.293515
 21
-200.992708
 31
0.0
  0
CIRCLE
  5
3C
100
AcDbEntity
  8
0
370
    -3
390
0
  6
Continuous
100
AcDbCircle
 10
-350.293515
 20
-167.213544
 30
0.0
 40
3.5
  0
CIRCLE
  5
3D
100
AcDbEntity
  8
0
370
    -3
390
0
  6
Continuous
100
AcDbCircle
 10
-350.293515
 20
-167.213544
 30
0.0
 40
4.0
  0
LINE
  5
3E
100
AcDbEntity
  8
0
370
    -3
390
0
  6
Continuous
100
AcDbLine
 10
-421.997244
 20
-138.713544
 30
0.0
 11
-421.997244
 21
-192.213544
 31
0.0
  0
LINE
  5
3F
100
AcDbEntity
  8
0
370
    -3
390
0
  6
Continuous
100
AcDbLine
 10
-496.997244
 20
-142.213544
 30
0.0
 11
-421.997244
 21
-142.213544
 31
0.0
  0
LINE
  5
40
100
AcDbEntity
  8
0
370
    -3
390
0
  6
Continuous
100
AcDbLine
 10
-498.997244
 20
-141.213544
 30
0.0
 11
-496.997244
 21
-141.213544
 31
0.0
  0
LINE
  5
41
100
AcDbEntity
  8
0
370
    -3
390
0
  6
Continuous
100
AcDbLine
 10
-484.997244
 20
-142.213544
 30
0.0
 11
-484.997244
 21
-138.713544
 31
0.0
  0
LINE
  5
42
100
AcDbEntity
  8
0
370
    -3
390
0
  6
Continuous
100
AcDbLine
 10
-484.997244
 20
-138.713544
 30
0.0
 11
-421.997244
 21
-138.713544
 31
0.0
  0
LINE
  5
43
100
AcDbEntity
  8
0
370
    -3
390
0
  6
Continuous
100
AcDbLine
 10
8.114212
 20
-106.213544
 30
0.0
 11
8.114212
 21
-266.213416
 31
0.0
  0
LINE
  5
44
100
AcDbEntity
  8
0
370
    -3
390
0
  6
Continuous
100
AcDbLine
 10
-264.885788
 20
-133.72418
 30
0.0
 11
-264.885788
 21
-246.702908
 31
0.0
  0
ARC
  5
45
100
AcDbEntity
  8
0
370
    -3
390
0
  6
Continuous
100
AcDbCircle
 10
-255.885788
 20
-133.72418
 30
0.0
 40
9.0
100
AcDbArc
 50
109.876874
 51
180.0
  0
ARC
  5
46
100
AcDbEntity
  8
0
370
    -3
390
0
  6
Continuous
100
AcDbCircle
 10
-264.385788
 20
-110.213544
 30
0.0
 40
16.0
100
AcDbArc
 50
289.876874
 51
349.518535
  0
ARC
  5
47
100
AcDbEntity
  8
0
370
    -3
390
0
  6
Continuous
100
AcDbCircle
 10
-239.802943
 20
-114.76148
 30
0.0
 40
9.0
100
AcDbArc
 50
119.214548
 51
169.518535
  0
ARC
  5
48
100
AcDbEntity
  8
0
370
    -3
390
0
  6
Continuous
100
AcDbCircle
 10
-256.885788
 20
-84.213544
 30
0.0
 40
26.0
100
AcDbArc
 50
299.214548
 51
358.362755
  0
ARC
  5
49
100
AcDbEntity
  8
0
370
    -3
390
0
  6
Continuous
100
AcDbCircle
 10
-221.900077
 20
-85.213544
 30
0.0
 40
9.0
100
AcDbArc
 50
90.0
 51
178.362755
  0
LINE
  5
4A
100
AcDbEntity
  8
0
370
    -3
390
0
  6
Continuous
100
AcDbLine
 10
-221.900077
 20
-76.213544
 30
0.0
 11
-130.396424
 21
-76.213544
 31
0.0
  0
ARC
  5
4B
100
AcDbEntity
  8
0
370
    -3
390
0
  6
Continuous
100
AcDbCircle
 10
-130.396424
 20
-85.213544
 30
0.0
 40
9.0
100
AcDbArc
 50
19.876874
 51
90.0
  0
ARC
  5
4C
100
AcDbEntity
  8
0
370
    -3
390
0
  6
Continuous
100
AcDbCircle
 10
-106.885788
 20
-76.713544
 30
0.0
 40
16.0
100
AcDbArc
 50
199.876874
 51
340.123126
  0
ARC
  5
4D
100
AcDbEntity
  8
0
370
    -3
390
0
  6
Continuous
100
AcDbCircle
 10
-83.375152
 20
-85.213544
 30
0.0
 40
9.0
100
AcDbArc
 50
90.0
 51
160.123126
  0
LINE
  5
4E
100
AcDbEntity
  8
0
370
    -3
390
0
  6
Continuous
100
AcDbLine
 10
-83.375152
 20
-76.213544
 30
0.0
 11
-56.871499
 21
-76.213544
 31
0.0
  0
ARC
  5
4F
100
AcDbEntity
  8
0
370
    -3
390
0
  6
Continuous
100
AcDbCircle
 10
-56.871499
 20
-85.213544
 30
0.0
 40
9.0
100
AcDbArc
 50
1.637245
 51
90.0
  0
ARC
  5
50
100
AcDbEntity
  8
0
370
    -3
390
0
  6
Continuous
100
AcDbCircle
 10
-21.885788
 20
-84.213544
 30
0.0
 40
26.0
100
AcDbArc
 50
181.637245
 51
240.785452
  0
ARC
  5
51
100
AcDbEntity
  8
0
370
    -3
390
0
  6
Continuous
100
AcDbCircle
 10
-38.968633
 20
-114.76148
 30
0.0
 40
9.0
100
AcDbArc
 50
10.481465
 51
60.785452
  0
ARC
  5
52
100
AcDbEntity
  8
0
370
    -3
390
0
  6
Continuous
100
AcDbCircle
 10
-14.385788
 20
-110.213544
 30
0.0
 40
16.0
100
AcDbArc
 50
190.481465
 51
250.123126
  0
ARC
  5
53
100
AcDbEntity
  8
0
370
    -3
390
0
  6
Continuous
100
AcDbCircle
 10
-22.885788
 20
-133.72418
 30
0.0
 40
9.0
100
AcDbArc
 50
0.0
 51
70.123126
  0
LINE
  5
54
100
AcDbEntity
  8
0
370
    -3
390
0
  6
Continuous
100
AcDbLine
 10
-13.885788
 20
-246.702908
 30
0.0
 11
-13.885788
 21
-133.72418
 31
0.0
  0
ARC
  5
55
100
AcDbEntity
  8
0
370
    -3
390
0
  6
Continuous
100
AcDbCircle
 10
-22.885788
 20
-246.702908
 30
0.0
 40
9.0
100
AcDbArc
 50
289.876874
 51
0.0
  0
ARC
  5
56
100
AcDbEntity
  8
0
370
    -3
390
0
  6
Continuous
100
AcDbCircle
 10
-14.385788
 20
-270.213544
 30
0.0
 40
16.0
100
AcDbArc
 50
109.876874
 51
169.518535
  0
ARC
  5
57
100
AcDbEntity
  8
0
370
    -3
390
0
  6
Continuous
100
AcDbCircle
 10
-38.968633
 20
-265.665608
 30
0.0
 40
9.0
100
AcDbArc
 50
299.214548
 51
349.518535
  0
ARC
  5
58
100
AcDbEntity
  8
0
370
    -3
390
0
  6
Continuous
100
AcDbCircle
 10
-21.885788
 20
-296.213544
 30
0.0
 40
26.0
100
AcDbArc
 50
119.214548
 51
178.362755
  0
ARC
  5
59
100
AcDbEntity
  8
0
370
    -3
390
0
  6
Continuous
100
AcDbCircle
 10
-56.871499
 20
-295.213544
 30
0.0
 40
9.0
100
AcDbArc
 50
270.0
 51
358.362755
  0
LINE
  5
5A
100
AcDbEntity
  8
0
370
    -3
390
0
  6
Continuous
100
AcDbLine
 10
-130.416985
 20
-304.213544
 30
0.0
 11
-56.871499
 21
-304.213544
 31
0.0
  0
ARC
  5
5B
100
AcDbEntity
  8
0
370
    -3
390
0
  6
Continuous
100
AcDbCircle
 10
-130.416985
 20
-295.213544
 30
0.0
 40
9.0
100
AcDbArc
 50
200.156963
 51
270.0
  0
ARC
  5
5C
100
AcDbEntity
  8
0
370
    -3
390
0
  6
Continuous
100
AcDbCircle
 10
-153.885788
 20
-303.828373
 30
0.0
 40
16.0
100
AcDbArc
 50
20.156963
 51
159.843037
  0
ARC
  5
5D
100
AcDbEntity
  8
0
370
    -3
390
0
  6
Continuous
100
AcDbCircle
 10
-177.354591
 20
-295.213544
 30
0.0
 40
9.0
100
AcDbArc
 50
270.0
 51
339.843037
  0
LINE
  5
5E
100
AcDbEntity
  8
0
370
    -3
390
0
  6
Continuous
100
AcDbLine
 10
-221.900077
 20
-304.213544
 30
0.0
 11
-177.354591
 21
-304.213544
 31
0.0
  0
ARC
  5
5F
100
AcDbEntity
  8
0
370
    -3
390
0
  6
Continuous
100
AcDbCircle
 10
-221.900077
 20
-295.213544
 30
0.0
 40
9.0
100
AcDbArc
 50
181.637245
 51
270.0
  0
ARC
  5
60
100
AcDbEntity
  8
0
370
    -3
390
0
  6
Continuous
100
AcDbCircle
 10
-256.885788
 20
-296.213544
 30
0.0
 40
26.0
100
AcDbArc
 50
1.637245
 51
60.785452
  0
ARC
  5
61
100
AcDbEntity
  8
0
370
    -3
390
0
  6
Continuous
100
AcDbCircle
 10
-239.802943
 20
-265.665608
 30
0.0
 40
9.0
100
AcDbArc
 50
190.481465
 51
240.785452
  0
ARC
  5
62
100
AcDbEntity
  8
0
370
    -3
390
0
  6
Continuous
100
AcDbCircle
 10
-264.385788
 20
-270.213544
 30
0.0
 40
16.0
100
AcDbArc
 50
10.481465
 51
70.123126
  0
ARC
  5
63
100
AcDbEntity
  8
0
370
    -3
390
0
  6
Continuous
100
AcDbCircle
 10
-255.885788
 20
-246.702908
 30
0.0
 40
9.0
100
AcDbArc
 50
180.0
 51
250.123126
  0
LINE
  5
64
100
AcDbEntity
  8
0
370
    -3
390
0
  6
CENTER
100
AcDbLine
 10
-21.885788
 20
-64.048501
 30
0.0
 11
-21.885788
 21
-104.192134
 31
0.0
  0
LINE
  5
65
100
AcDbEntity
  8
0
370
    -3
390
0
  6
CENTER
100
AcDbLine
 10
7.34399
 20
-84.213544
 30
0.0
 11
-40.97724
 21
-84.213544
 31
0.0
  0
LINE
  5
66
100
AcDbEntity
  8
0
370
    -3
390
0
  6
CENTER
100
AcDbLine
 10
-276.983525
 20
-84.213544
 30
0.0
 11
-237.794336
 21
-84.213544
 31
0.0
  0
LINE
  5
67
100
AcDbEntity
  8
0
370
    -3
390
0
  6
CENTER
100
AcDbLine
 10
-256.885788
 20
-64.848351
 30
0.0
 11
-256.885788
 21
-104.30781
 31
0.0
  0
LINE
  5
68
100
AcDbEntity
  8
0
370
    -3
390
0
  6
CENTER
100
AcDbLine
 10
-276.983525
 20
-296.213544
 30
0.0
 11
-237.794336
 21
-296.213544
 31
0.0
  0
LINE
  5
69
100
AcDbEntity
  8
0
370
    -3
390
0
  6
CENTER
100
AcDbLine
 10
-256.885788
 20
-315.578737
 30
0.0
 11
-256.885788
 21
-276.119278
 31
0.0
  0
LINE
  5
6A
100
AcDbEntity
  8
0
370
    -3
390
0
  6
CENTER
100
AcDbLine
 10
-21.885788
 20
-315.578737
 30
0.0
 11
-21.885788
 21
-276.119278
 31
0.0
  0
LINE
  5
6B
100
AcDbEntity
  8
0
370
    -3
390
0
  6
CENTER
100
AcDbLine
 10
5.715568
 20
-296.213544
 30
0.0
 11
-40.97724
 21
-296.213544
 31
0.0
  0
LINE
  5
6C
100
AcDbEntity
  8
0
370
    -3
390
0
  6
CENTER
100
AcDbLine
 10
-173.885788
 20
-56.58269
 30
0.0
 11
-173.885788
 21
-326.873506
 31
0.0
  0
LINE
  5
6D
100
AcDbEntity
  8
0
370
    -3
390
0
  6
CENTER
100
AcDbLine
 10
-285.639848
 20
-167.213544
 30
0.0
 11
-67.582235
 21
-167.213544
 31
0.0
  0
LINE
  5
6E
100
AcDbEntity
  8
0
370
    -3
390
0
  6
Continuous
100
AcDbLine
 10
-2.885788
 20
-164.238742
 30
0.0
 11
1.114212
 21
-138.236983
 31
0.0
  0
LINE
  5
6F
100
AcDbEntity
  8
0
370
    -3
390
0
  6
Continuous
100
AcDbLine
 10
-2.885788
 20
-208.188337
 30
0.0
 11
1.114212
 21
-233.737522
 31
0.0
  0
ARC
  5
70
100
AcDbEntity
  8
0
370
    -3
390
0
  6
Continuous
100
AcDbCircle
 10
-264.885788
 20
-304.213544
 30
0.0
 40
11.0
100
AcDbArc
 50
180.0
 51
270.0
  0
ARC
  5
71
100
AcDbEntity
  8
0
370
    -3
390
0
  6
Continuous
100
AcDbCircle
 10
-264.885788
 20
-76.213544
 30
0.0
 40
15.0
100
AcDbArc
 50
90.0
 51
180.0
  0
ARC
  5
72
100
AcDbEntity
  8
0
370
    -3
390
0
  6
Continuous
100
AcDbCircle
 10
-264.885788
 20
-76.213544
 30
0.0
 40
11.0
100
AcDbArc
 50
90.0
 51
180.0
  0
ARC
  5
73
100
AcDbEntity
  8
0
370
    -3
390
0
  6
Continuous
100
AcDbCircle
 10
-13.885788
 20
-76.213544
 30
0.0
 40
15.0
100
AcDbArc
 50
0.0
 51
90.0
  0
ARC
  5
74
100
AcDbEntity
  8
0
370
    -3
390
0
  6
Continuous
100
AcDbCircle
 10
-13.885788
 20
-76.213544
 30
0.0
 40
11.0
100
AcDbArc
 50
0.0
 51
90.0
  0
ARC
  5
75
100
AcDbEntity
  8
0
370
    -3
390
0
  6
Continuous
100
AcDbCircle
 10
-13.885788
 20
-304.213544
 30
0.0
 40
11.0
100
AcDbArc
 50
270.0
 51
0.0
  0
LINE
  5
76
100
AcDbEntity
  8
0
370
    -3
390
0
  6
Continuous
100
AcDbLine
 10
1.114212
 20
-304.213544
 30
0.0
 11
1.114212
 21
-233.737522
 31
0.0
  0
ARC
  5
77
100
AcDbEntity
  8
0
370
    -3
390
0
  6
Continuous
100
AcDbCircle
 10
6.114212
 20
-273.213544
 30
0.0
 40
5.0
100
AcDbArc
 50
90.0
 51
180.0
  0
LINE
  5
78
100
AcDbEntity
  8
0
370
    -3
390
0
  6
Continuous
100
AcDbLine
 10
8.114212
 20
-266.213416
 30
0.0
 11
6.114084
 21
-268.213544
 31
0.0
  0
LINE
  5
79
100
AcDbEntity
  8
0
370
    -3
390
0
  6
Continuous
100
AcDbLine
 10
6.114212
 20
-104.213544
 30
0.0
 11
8.114212
 21
-106.213544
 31
0.0
  0
ARC
  5
7A
100
AcDbEntity
  8
0
370
    -3
390
0
  6
Continuous
100
AcDbCircle
 10
6.114212
 20
-99.213544
 30
0.0
 40
5.0
100
AcDbArc
 50
180.0
 51
270.0
  0
LINE
  5
7B
100
AcDbEntity
  8
0
370
    -3
390
0
  6
Continuous
100
AcDbLine
 10
-2.885788
 20
-304.213544
 30
0.0
 11
-2.885788
 21
-208.188337
 31
0.0
  0
LINE
  5
7C
100
AcDbEntity
  8
0
370
    -3
390
0
  6
Continuous
100
AcDbLine
 10
-2.885788
 20
-164.238742
 30
0.0
 11
-2.885788
 21
-76.213544
 31
0.0
  0
LINE
  5
7D
100
AcDbEntity
  8
0
370
    -3
390
0
  6
Continuous
100
AcDbLine
 10
-275.885788
 20
-76.213544
 30
0.0
 11
-275.885788
 21
-304.213544
 31
0.0
  0
LINE
  5
7E
100
AcDbEntity
  8
0
370
    -3
390
0
  6
Continuous
100
AcDbLine
 10
-13.885788
 20
-65.213544
 30
0.0
 11
-264.885788
 21
-65.213544
 31
0.0
  0
LINE
  5
7F
100
AcDbEntity
  8
0
370
    -3
390
0
  6
Continuous
100
AcDbLine
 10
-264.885788
 20
-315.213544
 30
0.0
 11
-13.885788
 21
-315.213544
 31
0.0
  0
ARC
  5
80
100
AcDbEntity
  8
0
370
    -3
390
0
  6
Continuous
100
AcDbCircle
 10
-13.885788
 20
-304.213544
 30
0.0
 40
15.0
100
AcDbArc
 50
270.0
 51
0.0
  0
ARC
  5
81
100
AcDbEntity
  8
0
370
    -3
390
0
  6
Continuous
100
AcDbCircle
 10
-264.885788
 20
-304.213544
 30
0.0
 40
15.0
100
AcDbArc
 50
180.0
 51
270.0
  0
LINE
  5
82
100
AcDbEntity
  8
0
370
    -3
390
0
  6
Continuous
100
AcDbLine
 10
-264.885788
 20
-319.213544
 30
0.0
 11
-13.885788
 21
-319.213544
 31
0.0
  0
LINE
  5
83
100
AcDbEntity
  8
0
370
    -3
390
0
  6
Continuous
100
AcDbLine
 10
-264.885788
 20
-61.213544
 30
0.0
 11
-13.885788
 21
-61.213544
 31
0.0
  0
LINE
  5
84
100
AcDbEntity
  8
0
370
    -3
390
0
  6
Continuous
100
AcDbLine
 10
1.114212
 20
-76.213544
 30
0.0
 11
1.114212
 21
-138.236983
 31
0.0
  0
LINE
  5
85
100
AcDbEntity
  8
0
370
    -3
390
0
  6
Continuous
100
AcDbLine
 10
-279.885788
 20
-76.213544
 30
0.0
 11
-279.885788
 21
-304.213544
 31
0.0
  0
LINE
  5
86
100
AcDbEntity
  8
0
370
    -3
390
0
  6
Continuous
100
AcDbLine
 10
8.114212
 20
-108.049544
 30
0.0
 11
8.114212
 21
-188.249544
 31
0.0
  0
LINE
  5
87
100
AcDbEntity
  8
0
370
    -3
390
0
  6
Continuous
100
AcDbLine
 10
5.875119
 20
-226.213823
 30
0.0
 11
5.875119
 21
-226.213811
 31
0.0
  0
CIRCLE
  5
88
100
AcDbEntity
  8
0
370
    -3
390
0
  6
Continuous
100
AcDbCircle
 10
-256.885788
 20
-84.213544
 30
0.0
 40
16.0
  0
CIRCLE
  5
89
100
AcDbEntity
  8
0
370
    -3
390
0
  6
Continuous
100
AcDbCircle
 10
-256.885788
 20
-84.213544
 30
0.0
 40
11.0
  0
CIRCLE
  5
8A
100
AcDbEntity
  8
0
370
    -3
390
0
  6
Continuous
100
AcDbCircle
 10
-21.885788
 20
-84.213544
 30
0.0
 40
11.0
  0
CIRCLE
  5
8B
100
AcDbEntity
  8
0
370
    -3
390
0
  6
Continuous
100
AcDbCircle
 10
-21.885788
 20
-84.213544
 30
0.0
 40
16.0
  0
CIRCLE
  5
8C
100
AcDbEntity
  8
0
370
    -3
390
0
  6
Continuous
100
AcDbCircle
 10
-21.885788
 20
-296.213544
 30
0.0
 40
11.0
  0
CIRCLE
  5
8D
100
AcDbEntity
  8
0
370
    -3
390
0
  6
Continuous
100
AcDbCircle
 10
-21.885788
 20
-296.213544
 30
0.0
 40
16.0
  0
CIRCLE
  5
8E
100
AcDbEntity
  8
0
370
    -3
390
0
  6
Continuous
100
AcDbCircle
 10
-256.885788
 20
-296.213544
 30
0.0
 40
11.0
  0
CIRCLE
  5
8F
100
AcDbEntity
  8
0
370
    -3
390
0
  6
Continuous
100
AcDbCircle
 10
-256.885788
 20
-296.213544
 30
0.0
 40
16.0
  0
CIRCLE
  5
90
100
AcDbEntity
  8
0
370
    -3
390
0
  6
Continuous
100
AcDbCircle
 10
-173.885788
 20
-167.213544
 30
0.0
 40
50.0
  0
CIRCLE
  5
91
100
AcDbEntity
  8
0
370
    -3
390
0
  6
Continuous
100
AcDbCircle
 10
-173.885788
 20
-167.213544
 30
0.0
 40
75.0
  0
CIRCLE
  5
92
100
AcDbEntity
  8
0
370
    -3
390
0
  6
Continuous
100
AcDbCircle
 10
-173.885788
 20
-167.213544
 30
0.0
 40
82.5
  0
CIRCLE
  5
93
100
AcDbEntity
  8
0
370
    -3
390
0
  6
Continuous
100
AcDbCircle
 10
-173.885788
 20
-167.213544
 30
0.0
 40
85.5
  0
LINE
  5
94
100
AcDbEntity
  8
0
370
    -3
390
0
  6
CENTER
100
AcDbLine
 10
36.52931
 20
-62.213492
 30
0.0
 11
22.065961
 21
-62.213492
 31
0.0
  0
LINE
  5
95
100
AcDbEntity
  8
0
370
    -3
390
0
  6
CENTER
100
AcDbLine
 10
43.548288
 20
-87.213492
 30
0.0
 11
20.577087
 21
-87.213492
 31
0.0
  0
INSERT
  5
A1
100
AcDbEntity
  8
0
390
0
100
AcDbBlockReference
  2
ZU_SYM__USERS_HOME_SYMBOL_POO_SYM_B20_18
 10
29.614212
 20
-87.213492
 30
0.0
 41
-1.0
  0
LINE
  5
A2
100
AcDbEntity
  8
0
370
    -3
390
0
  6
Continuous
100
AcDbLine
 10
25.114212
 20
-42.213492
 30
0.0
 11
25.114212
 21
-97.213492
 31
0.0
  0
LINE
  5
A3
100
AcDbEntity
  8
0
370
    -3
390
0
  6
Continuous
100
AcDbLine
 10
-581.001356
 20
-63.05672
 30
0.0
 11
-583.997244
 21
-63.213728
 31
0.0
  0
LINE
  5
A4
100
AcDbEntity
  8
0
370
    -3
390
0
  6
Continuous
100
AcDbLine
 10
-580.997244
 20
-61.31849
 30
0.0
 11
-517.497244
 21
-63.535959
 31
0.0
  0
LINE
  5
A5
100
AcDbEntity
  8
0
370
    -3
390
0
  6
Continuous
100
AcDbLine
 10
-581.001356
 20
-317.370736
 30
0.0
 11
-583.997244
 21
-317.213728
 31
0.0
  0
LINE
  5
A6
100
AcDbEntity
  8
0
370
    -3
390
0
  6
Continuous
100
AcDbLine
 10
-503.997244
 20
-242.213728
 30
0.0
 11
-498.997244
 21
-242.213728
 31
0.0
  0
LINE
  5
A7
100
AcDbEntity
  8
0
370
    -3
390
0
  6
Continuous
100
AcDbLine
 10
-503.997244
 20
-92.213728
 30
0.0
 11
-498.997244
 21
-92.213728
 31
0.0
  0
LINE
  5
A8
100
AcDbEntity
  8
0
370
    -3
390
0
  6
Continuous
100
AcDbLine
 10
-503.997244
 20
-66.566895
 30
0.0
 11
-503.997244
 21
-313.873654
 31
0.0
  0
LINE
  5
A9
100
AcDbEntity
  8
0
370
    -3
390
0
  6
Continuous
100
AcDbLine
 10
-498.997244
 20
-92.213728
 30
0.0
 11
-498.997244
 21
-242.213728
 31
0.0
  0
LINE
  5
AA
100
AcDbEntity
  8
0
370
    -3
390
0
  6
Continuous
100
AcDbLine
 10
-583.997244
 20
-63.213728
 30
0.0
 11
-583.997244
 21
-317.213728
 31
0.0
  0
LINE
  5
AB
100
AcDbEntity
  8
0
370
    -3
390
0
  6
Continuous
100
AcDbLine
 10
-662.99793
 20
-65.54107
 30
0.0
 11
-663.997244
 21
-66.566895
 31
0.0
  0
LINE
  5
AC
100
AcDbEntity
  8
0
370
    -3
390
0
  6
Continuous
100
AcDbLine
 10
-650.497244
 20
-65.213728
 30
0.0
 11
-662.99793
 21
-65.54107
 31
0.0
  0
LINE
  5
AD
100
AcDbEntity
  8
0
370
    -3
390
0
  6
Continuous
100
AcDbLine
 10
-662.99793
 20
-314.899479
 30
0.0
 11
-663.997244
 21
-313.873654
 31
0.0
  0
LINE
  5
AE
100
AcDbEntity
  8
0
370
    -3
390
0
  6
Continuous
100
AcDbLine
 10
-583.997244
 20
-61.213728
 30
0.0
 11
-650.497244
 21
-63.535959
 31
0.0
  0
LINE
  5
AF
100
AcDbEntity
  8
0
370
    -3
390
0
  6
Continuous
100
AcDbLine
 10
-583.997244
 20
-61.213728
 30
0.0
 11
-583.997244
 21
-319.248649
 31
0.0
  0
LINE
  5
B0
100
AcDbEntity
  8
0
370
    -3
390
0
  6
Continuous
100
AcDbLine
 10
-668.997244
 20
-92.213544
 30
0.0
 11
-668.997244
 21
-242.213544
 31
0.0
  0
LINE
  5
B1
100
AcDbEntity
  8
0
370
    -3
390
0
  6
Continuous
100
AcDbLine
 10
-517.497244
 20
-63.535959
 30
0.0
 11
-517.497244
 21
-316.891497
 31
0.0
  0
LINE
  5
B2
100
AcDbEntity
  8
0
370
    -3
390
0
  6
Continuous
100
AcDbLine
 10
-580.997244
 20
-319.108966
 30
0.0
 11
-517.497244
 21
-316.891497
 31
0.0
  0
LINE
  5
B3
100
AcDbEntity
  8
0
370
    -3
390
0
  6
Continuous
100
AcDbLine
 10
-650.497244
 20
-63.535959
 30
0.0
 11
-650.497244
 21
-316.891497
 31
0.0
  0
LINE
  5
B4
100
AcDbEntity
  8
0
370
    -3
390
0
  6
Continuous
100
AcDbLine
 10
-583.997244
 20
-319.213728
 30
0.0
 11
-650.497244
 21
-316.891497
 31
0.0
  0
LINE
  5
B5
100
AcDbEntity
  8
0
370
    -3
390
0
  6
Continuous
100
AcDbLine
 10
-580.997244
 20
-61.31849
 30
0.0
 11
-580.997244
 21
-167.213728
 31
0.0
  0
LINE
  5
B6
100
AcDbEntity
  8
0
370
    -3
390
0
  6
Continuous
100
AcDbLine
 10
-580.997244
 20
-167.213728
 30
0.0
 11
-580.997244
 21
-319.108966
 31
0.0
  0
LINE
  5
B7
100
AcDbEntity
  8
0
370
    -3
390
0
  6
Continuous
100
AcDbLine
 10
-504.996559
 20
-314.899479
 30
0.0
 11
-517.497244
 21
-315.226821
 31
0.0
  0
LINE
  5
B8
100
AcDbEntity
  8
0
370
    -3
390
0
  6
Continuous
100
AcDbLine
 10
-662.99793
 20
-314.899479
 30
0.0
 11
-650.497244
 21
-315.226821
 31
0.0
  0
LINE
  5
B9
100
AcDbEntity
  8
0
370
    -3
390
0
  6
Continuous
100
AcDbLine
 10
-662.99793
 20
-65.54107
 30
0.0
 11
-663.997244
 21
-66.566895
 31
0.0
  0
LINE
  5
BA
100
AcDbEntity
  8
0
370
    -3
390
0
  6
Continuous
100
AcDbLine
 10
-663.997244
 20
-66.566895
 30
0.0
 11
-663.997244
 21
-313.873654
 31
0.0
  0
LINE
  5
BB
100
AcDbEntity
  8
0
370
    -3
390
0
  6
Continuous
100
AcDbLine
 10
-563.497413
 20
-61.929598
 30
0.0
 11
-563.497413
 21
-61.713544
 31
0.0
  0
LINE
  5
BC
100
AcDbEntity
  8
0
370
    -3
390
0
  6
Continuous
100
AcDbLine
 10
-604.497413
 20
-61.92961
 30
0.0
 11
-604.497413
 21
-61.713544
 31
0.0
  0
ARC
  5
BD
100
AcDbEntity
  8
0
370
    -3
390
0
  6
Continuous
100
AcDbCircle
 10
-594.497571
 20
-52.213309
 30
0.0
 40
10.0
100
AcDbArc
 50
90.000139
 51
180.00007
  0
LINE
  5
BE
100
AcDbEntity
  8
0
370
    -3
390
0
  6
Continuous
100
AcDbLine
 10
-594.497595
 20
-42.213309
 30
0.0
 11
-573.497595
 21
-42.213258
 31
0.0
  0
LINE
  5
BF
100
AcDbEntity
  8
0
370
    -3
390
0
  6
Continuous
100
AcDbLine
 10
-604.497571
 20
-52.213321
 30
0.0
 11
-604.497559
 21
-61.929615
 31
0.0
  0
ARC
  5
C0
100
AcDbEntity
  8
0
370
    -3
390
0
  6
Continuous
100
AcDbCircle
 10
-573.497571
 20
-52.213258
 30
0.0
 40
10.0
100
AcDbArc
 50
0.00007
 51
90.000139
  0
LINE
  5
C1
100
AcDbEntity
  8
0
370
    -3
390
0
  6
Continuous
100
AcDbLine
 10
-563.497571
 20
-52.213246
 30
0.0
 11
-563.497559
 21
-61.929593
 31
0.0
  0
ARC
  5
C2
100
AcDbEntity
  8
0
370
    -3
390
0
  6
Continuous
100
AcDbCircle
 10
-583.997558
 20
-62.213283
 30
0.0
 40
10.0
100
AcDbArc
 50
3.733167
 51
176.26696
  0
LINE
  5
C3
100
AcDbEntity
  8
0
370
    -3
390
0
  6
Continuous
100
AcDbLine
 10
-663.997244
 20
-242.213544
 30
0.0
 11
-668.997244
 21
-242.213544
 31
0.0
  0
LINE
  5
C4
100
AcDbEntity
  8
0
370
    -3
390
0
  6
Continuous
100
AcDbLine
 10
-663.997244
 20
-92.213544
 30
0.0
 11
-668.997244
 21
-92.213544
 31
0.0
  0
LINE
  5
C5
100
AcDbEntity
  8
0
370
    -3
390
0
  6
Continuous
100
AcDbLine
 10
-517.497244
 20
-65.213728
 30
0.0
 11
-504.996559
 21
-65.54107
 31
0.0
  0
LINE
  5
C6
100
AcDbEntity
  8
0
370
    -3
390
0
  6
Continuous
100
AcDbLine
 10
-504.996559
 20
-65.54107
 30
0.0
 11
-503.997244
 21
-66.566895
 31
0.0
  0
LINE
  5
C7
100
AcDbEntity
  8
0
370
    -3
390
0
  6
Continuous
100
AcDbLine
 10
-504.996559
 20
-314.899479
 30
0.0
 11
-503.997244
 21
-313.873654
 31
0.0
  0
LINE
  5
C8
100
AcDbEntity
  8
0
370
    -3
390
0
  6
Continuous
100
AcDbLine
 10
26.114212
 20
-112.213713
 30
0.0
 11
196.114213
 21
-112.213713
 31
0.0
  0
LINE
  5
C9
100
AcDbEntity
  8
0
370
    -3
390
0
  6
Continuous
100
AcDbLine
 10
26.114212
 20
-121.334501
 30
0.0
 11
196.114213
 21
-121.334501
 31
0.0
  0
LINE
  5
CA
100
AcDbEntity
  8
0
370
    -3
390
0
  6
Continuous
100
AcDbLine
 10
26.114212
 20
-128.405568
 30
0.0
 11
196.114213
 21
-128.405568
 31
0.0
  0
LINE
  5
CB
100
AcDbEntity
  8
0
370
    -3
390
0
  6
Continuous
100
AcDbLine
 10
26.114212
 20
-107.213713
 30
0.0
 11
196.114213
 21
-107.213713
 31
0.0
  0
LINE
  5
CC
100
AcDbEntity
  8
0
370
    -3
390
0
  6
Continuous
100
AcDbLine
 10
26.114212
 20
-187.213713
 30
0.0
 11
26.114212
 21
-107.213713
 31
0.0
  0
LINE
  5
CD
100
AcDbEntity
  8
0
370
    -3
390
0
  6
Continuous
100
AcDbLine
 10
26.114212
 20
-141.075989
 30
0.0
 11
196.114213
 21
-141.075989
 31
0.0
  0
LINE
  5
CE
100
AcDbEntity
  8
0
370
    -3
390
0
  6
Continuous
100
AcDbLine
 10
26.114212
 20
-143.298316
 30
0.0
 11
196.114213
 21
-143.298316
 31
0.0
  0
LINE
  5
CF
100
AcDbEntity
  8
0
370
    -3
390
0
  6
Continuous
100
AcDbLine
 10
26.114212
 20
-151.108775
 30
0.0
 11
196.114213
 21
-151.108775
 31
0.0
  0
LINE
  5
D0
100
AcDbEntity
  8
0
370
    -3
390
0
  6
Continuous
100
AcDbLine
 10
26.114212
 20
-153.275485
 30
0.0
 11
196.114213
 21
-153.275485
 31
0.0
  0
LINE
  5
D1
100
AcDbEntity
  8
0
370
    -3
390
0
  6
Continuous
100
AcDbLine
 10
26.114212
 20
-161.171093
 30
0.0
 11
196.114213
 21
-161.171093
 31
0.0
  0
LINE
  5
D2
100
AcDbEntity
  8
0
370
    -3
390
0
  6
Continuous
100
AcDbLine
 10
26.114212
 20
-163.235856
 30
0.0
 11
196.114213
 21
-163.235856
 31
0.0
  0
LINE
  5
D3
100
AcDbEntity
  8
0
370
    -3
390
0
  6
Continuous
100
AcDbLine
 10
26.114212
 20
-171.241985
 30
0.0
 11
196.114213
 21
-171.241985
 31
0.0
  0
LINE
  5
D4
100
AcDbEntity
  8
0
370
    -3
390
0
  6
Continuous
100
AcDbLine
 10
26.114212
 20
-173.184368
 30
0.0
 11
196.114213
 21
-173.184368
 31
0.0
  0
LINE
  5
D5
100
AcDbEntity
  8
0
370
    -3
390
0
  6
Continuous
100
AcDbLine
 10
26.114212
 20
-181.274443
 30
0.0
 11
196.114213
 21
-181.274443
 31
0.0
  0
LINE
  5
D6
100
AcDbEntity
  8
0
370
    -3
390
0
  6
Continuous
100
AcDbLine
 10
26.114212
 20
-183.169216
 30
0.0
 11
196.114213
 21
-183.169216
 31
0.0
  0
LINE
  5
D7
100
AcDbEntity
  8
0
370
    -3
390
0
  6
Continuous
100
AcDbLine
 10
26.114212
 20
-191.25821
 30
0.0
 11
196.114213
 21
-191.25821
 31
0.0
  0
LINE
  5
D8
100
AcDbEntity
  8
0
370
    -3
390
0
  6
Continuous
100
AcDbLine
 10
26.114212
 20
-193.152983
 30
0.0
 11
196.114213
 21
-193.152983
 31
0.0
  0
LINE
  5
D9
100
AcDbEntity
  8
0
370
    -3
390
0
  6
Continuous
100
AcDbLine
 10
26.114212
 20
-201.243058
 30
0.0
 11
196.114213
 21
-201.243058
 31
0.0
  0
LINE
  5
DA
100
AcDbEntity
  8
0
370
    -3
390
0
  6
Continuous
100
AcDbLine
 10
26.114212
 20
-203.185441
 30
0.0
 11
196.114213
 21
-203.185441
 31
0.0
  0
LINE
  5
DB
100
AcDbEntity
  8
0
370
    -3
390
0
  6
Continuous
100
AcDbLine
 10
26.114212
 20
-211.191571
 30
0.0
 11
196.114213
 21
-211.191571
 31
0.0
  0
LINE
  5
DC
100
AcDbEntity
  8
0
370
    -3
390
0
  6
Continuous
100
AcDbLine
 10
26.114212
 20
-213.256333
 30
0.0
 11
196.114213
 21
-213.256333
 31
0.0
  0
LINE
  5
DD
100
AcDbEntity
  8
0
370
    -3
390
0
  6
Continuous
100
AcDbLine
 10
26.114212
 20
-221.151941
 30
0.0
 11
196.114213
 21
-221.151941
 31
0.0
  0
LINE
  5
DE
100
AcDbEntity
  8
0
370
    -3
390
0
  6
Continuous
100
AcDbLine
 10
26.114212
 20
-223.318651
 30
0.0
 11
196.114213
 21
-223.318651
 31
0.0
  0
LINE
  5
DF
100
AcDbEntity
  8
0
370
    -3
390
0
  6
Continuous
100
AcDbLine
 10
26.114212
 20
-231.129111
 30
0.0
 11
196.114213
 21
-231.129111
 31
0.0
  0
LINE
  5
E0
100
AcDbEntity
  8
0
370
    -3
390
0
  6
Continuous
100
AcDbLine
 10
26.114212
 20
-233.351437
 30
0.0
 11
196.114213
 21
-233.351437
 31
0.0
  0
LINE
  5
E1
100
AcDbEntity
  8
0
370
    -3
390
0
  6
Continuous
100
AcDbLine
 10
26.114212
 20
-246.021858
 30
0.0
 11
196.114213
 21
-246.021858
 31
0.0
  0
LINE
  5
E2
100
AcDbEntity
  8
0
370
    -3
390
0
  6
Continuous
100
AcDbLine
 10
26.114212
 20
-253.092926
 30
0.0
 11
196.114213
 21
-253.092926
 31
0.0
  0
LINE
  5
E3
100
AcDbEntity
  8
0
370
    -3
390
0
  6
Continuous
100
AcDbLine
 10
26.114212
 20
-262.213713
 30
0.0
 11
196.114213
 21
-262.213713
 31
0.0
  0
LINE
  5
E4
100
AcDbEntity
  8
0
370
    -3
390
0
  6
Continuous
100
AcDbLine
 10
26.114212
 20
-187.213713
 30
0.0
 11
26.114212
 21
-270.713713
 31
0.0
  0
LINE
  5
E5
100
AcDbEntity
  8
0
370
    -3
390
0
  6
Continuous
100
AcDbLine
 10
196.114213
 20
-270.713713
 30
0.0
 11
26.114212
 21
-270.713713
 31
0.0
  0
LINE
  5
E6
100
AcDbEntity
  8
0
370
    -3
390
0
  6
Continuous
100
AcDbLine
 10
26.114212
 20
-267.213713
 30
0.0
 11
196.114213
 21
-267.213713
 31
0.0
  0
LINE
  5
E7
100
AcDbEntity
  8
0
370
    -3
390
0
  6
Continuous
100
AcDbLine
 10
26.114212
 20
-269.713713
 30
0.0
 11
196.114213
 21
-269.713713
 31
0.0
  0
LINE
  5
E8
100
AcDbEntity
  8
0
370
    -3
390
0
  6
Continuous
100
AcDbLine
 10
26.114212
 20
-270.213713
 30
0.0
 11
196.114213
 21
-270.213713
 31
0.0
  0
LINE
  5
E9
100
AcDbEntity
  8
0
370
    -3
390
0
  6
CENTER
100
AcDbLine
 10
-14.385788
 20
-96.30496
 30
0.0
 11
-14.385788
 21
-122.923686
 31
0.0
  0
LINE
  5
EA
100
AcDbEntity
  8
0
370
    -3
390
0
  6
CENTER
100
AcDbLine
 10
-0.480556
 20
-110.213544
 30
0.0
 11
-26.786121
 21
-110.213544
 31
0.0
  0
CIRCLE
  5
EB
100
AcDbEntity
  8
0
370
    -3
390
0
  6
Continuous
100
AcDbCircle
 10
-14.385788
 20
-110.213544
 30
0.0
 40
10.0
  0
LINE
  5
EC
100
AcDbEntity
  8
0
370
    -3
390
0
  6
CENTER
100
AcDbLine
 10
-106.885788
 20
-91.294355
 30
0.0
 11
-106.885788
 21
-58.197581
 31
0.0
  0
LINE
  5
ED
100
AcDbEntity
  8
0
370
    -3
390
0
  6
CENTER
100
AcDbLine
 10
-121.214116
 20
-76.713544
 30
0.0
 11
-93.343148
 21
-76.713544
 31
0.0
  0
CIRCLE
  5
EE
100
AcDbEntity
  8
0
370
    -3
390
0
  6
Continuous
100
AcDbCircle
 10
-106.885788
 20
-76.713544
 30
0.0
 40
10.0
  0
LINE
  5
EF
100
AcDbEntity
  8
0
370
    -3
390
0
  6
CENTER
100
AcDbLine
 10
-264.385788
 20
-95.649194
 30
0.0
 11
-264.385788
 21
-124.39113
 31
0.0
  0
LINE
  5
F0
100
AcDbEntity
  8
0
370
    -3
390
0
  6
CENTER
100
AcDbLine
 10
-281.47218
 20
-110.213544
 30
0.0
 11
-249.246374
 21
-110.213544
 31
0.0
  0
CIRCLE
  5
F1
100
AcDbEntity
  8
0
370
    -3
390
0
  6
Continuous
100
AcDbCircle
 10
-264.385788
 20
-110.213544
 30
0.0
 40
10.0
  0
LINE
  5
F2
100
AcDbEntity
  8
0
370
    -3
390
0
  6
CENTER
100
AcDbLine
 10
-264.385788
 20
-288.504033
 30
0.0
 11
-264.385788
 21
-256.778226
 31
0.0
  0
LINE
  5
F3
100
AcDbEntity
  8
0
370
    -3
390
0
  6
CENTER
100
AcDbLine
 10
-281.907664
 20
-270.213544
 30
0.0
 11
-250.552825
 21
-270.213544
 31
0.0
  0
CIRCLE
  5
F4
100
AcDbEntity
  8
0
370
    -3
390
0
  6
Continuous
100
AcDbCircle
 10
-264.385788
 20
-270.213544
 30
0.0
 40
10.0
  0
LINE
  5
F5
100
AcDbEntity
  8
0
370
    -3
390
0
  6
CENTER
100
AcDbLine
 10
-153.885788
 20
-322.100807
 30
0.0
 11
-153.885788
 21
-289.004033
 31
0.0
  0
LINE
  5
F6
100
AcDbEntity
  8
0
370
    -3
390
0
  6
CENTER
100
AcDbLine
 10
-169.117341
 20
-303.713544
 30
0.0
 11
-139.068954
 21
-303.713544
 31
0.0
  0
CIRCLE
  5
F7
100
AcDbEntity
  8
0
370
    -3
390
0
  6
Continuous
100
AcDbCircle
 10
-153.885788
 20
-303.713544
 30
0.0
 40
10.0
  0
LINE
  5
F8
100
AcDbEntity
  8
0
370
    -3
390
0
  6
CENTER
100
AcDbLine
 10
-0.480556
 20
-270.213544
 30
0.0
 11
-27.099282
 21
-270.213544
 31
0.0
  0
LINE
  5
F9
100
AcDbEntity
  8
0
370
    -3
390
0
  6
CENTER
100
AcDbLine
 10
-14.385788
 20
-283.504033
 30
0.0
 11
-14.385788
 21
-256.64364
 31
0.0
  0
CIRCLE
  5
FA
100
AcDbEntity
  8
0
370
    -3
390
0
  6
Continuous
100
AcDbCircle
 10
-14.385788
 20
-270.213544
 30
0.0
 40
10.0
  0
LINE
  5
FB
100
AcDbEntity
  8
0
370
    -3
390
0
  6
CENTER
100
AcDbLine
 10
-583.997244
 20
-36.467319
 30
0.0
 11
-583.997244
 21
-326.98112
 31
0.0
  0
POINT
  5
FC
100
AcDbEntity
  8
0
370
    -3
390
0
  6
DASHED
100
AcDbPoint
 10
-350.293515
 20
-142.213544
 30
0.0
  0
ARC
  5
FD
100
AcDbEntity
  8
0
370
    -3
390
0
  6
Continuous
100
AcDbCircle
 10
26.114212
 20
-112.213639
 30
0.0
 40
1.0
100
AcDbArc
 50
180.0
 51
270.0
  0
ARC
  5
FE
100
AcDbEntity
  8
0
370
    -3
390
0
  6
Continuous
100
AcDbCircle
 10
23.114212
 20
-268.713544
 30
0.0
 40
2.0
100
AcDbArc
 50
270.0
 51
0.0
  0
ARC
  5
FF
100
AcDbEntity
  8
0
370
    -3
390
0
  6
Continuous
100
AcDbCircle
 10
11.442639
 20
-268.713544
 30
0.0
 40
2.0
100
AcDbArc
 50
225.0
 51
270.0
  0
LINE
  5
100
100
AcDbEntity
  8
0
370
    -3
390
0
  6
Continuous
100
AcDbLine
 10
23.114212
 20
-270.713544
 30
0.0
 11
11.442639
 21
-270.713544
 31
0.0
  0
LINE
  5
101
100
AcDbEntity
  8
0
370
    -3
390
0
  6
Continuous
100
AcDbLine
 10
10.114212
 20
-104.213544
 30
0.0
 11
8.114212
 21
-106.213544
 31
0.0
  0
LINE
  5
102
100
AcDbEntity
  8
0
370
    -3
390
0
  6
Continuous
100
AcDbLine
 10
8.114212
 20
-106.213544
 30
0.0
 11
8.114212
 21
-268.213544
 31
0.0
  0
LINE
  5
103
100
AcDbEntity
  8
0
370
    -3
390
0
  6
Continuous
100
AcDbLine
 10
10.114212
 20
-270.213544
 30
0.0
 11
8.114212
 21
-268.213544
 31
0.0
  0
LINE
  5
104
100
AcDbEntity
  8
0
370
    -3
390
0
  6
Continuous
100
AcDbLine
 10
26.114212
 20
-261.213449
 30
0.0
 11
26.114212
 21
-113.213639
 31
0.0
  0
ARC
  5
105
100
AcDbEntity
  8
0
370
    -3
390
0
  6
Continuous
100
AcDbCircle
 10
26.114212
 20
-262.213449
 30
0.0
 40
1.0
100
AcDbArc
 50
90.0
 51
180.0
  0
LINE
  5
106
100
AcDbEntity
  8
0
370
    -3
390
0
  6
Continuous
100
AcDbLine
 10
25.114212
 20
-268.713544
 30
0.0
 11
25.114212
 21
-187.213544
 31
0.0
  0
ARC
  5
107
100
AcDbEntity
  8
0
370
    -3
390
0
  6
Continuous
100
AcDbCircle
 10
23.114212
 20
-105.713544
 30
0.0
 40
2.0
100
AcDbArc
 50
0.0
 51
90.0
  0
ARC
  5
108
100
AcDbEntity
  8
0
370
    -3
390
0
  6
Continuous
100
AcDbCircle
 10
11.442639
 20
-105.713544
 30
0.0
 40
2.0
100
AcDbArc
 50
90.0
 51
135.0
  0
LINE
  5
109
100
AcDbEntity
  8
0
370
    -3
390
0
  6
Continuous
100
AcDbLine
 10
23.114212
 20
-103.713544
 30
0.0
 11
11.442639
 21
-103.713544
 31
0.0
  0
LINE
  5
10A
100
AcDbEntity
  8
0
370
    -3
390
0
  6
Continuous
100
AcDbLine
 10
25.114212
 20
-105.713544
 30
0.0
 11
25.114212
 21
-187.213544
 31
0.0
  0
LINE
  5
10B
100
AcDbEntity
  8
0
370
    -3
390
0
  6
Continuous
100
AcDbLine
 10
10.614212
 20
-270.533903
 30
0.0
 11
10.614212
 21
-103.893185
 31
0.0
  0
LINE
  5
10C
100
AcDbEntity
  8
0
370
    -3
390
0
  6
Continuous
100
AcDbLine
 10
10.614212
 20
-168.713544
 30
0.0
 11
25.114212
 21
-168.713544
 31
0.0
  0
LINE
  5
10D
100
AcDbEntity
  8
0
370
    -3
390
0
  6
Continuous
100
AcDbLine
 10
10.614212
 20
-205.713544
 30
0.0
 11
25.114212
 21
-205.713544
 31
0.0
  0
LINE
  5
10E
100
AcDbEntity
  8
0
370
    -3
390
0
  6
Continuous
100
AcDbLine
 10
22.114212
 20
-77.213544
 30
0.0
 11
13.114212
 21
-77.213544
 31
0.0
  0
LINE
  5
10F
100
AcDbEntity
  8
0
370
    -3
390
0
  6
Continuous
100
AcDbLine
 10
29.614212
 20
-42.213492
 30
0.0
 11
29.614212
 21
-97.213492
 31
0.0
  0
ARC
  5
110
100
AcDbEntity
  8
0
370
    -3
390
0
  6
Continuous
100
AcDbCircle
 10
22.114212
 20
-80.213544
 30
0.0
 40
3.0
100
AcDbArc
 50
0.0
 51
90.0
  0
LINE
  5
111
100
AcDbEntity
  8
0
370
    -3
390
0
  6
Continuous
100
AcDbLine
 10
25.114212
 20
-80.213544
 30
0.0
 11
25.114212
 21
-112.213639
 31
0.0
  0
LINE
  5
112
100
AcDbEntity
  8
0
370
    -3
390
0
  6
Continuous
100
AcDbLine
 10
29.614212
 20
-42.213492
 30
0.0
 11
25.114212
 21
-42.213492
 31
0.0
  0
ARC
  5
113
100
AcDbEntity
  8
0
370
    -3
390
0
  6
Continuous
100
AcDbCircle
 10
13.114212
 20
-80.213544
 30
0.0
 40
3.0
100
AcDbArc
 50
90.0
 51
180.0
  0
LINE
  5
114
100
AcDbEntity
  8
0
370
    -3
390
0
  6
Continuous
100
AcDbLine
 10
29.614212
 20
-97.213492
 30
0.0
 11
25.114212
 21
-97.213492
 31
0.0
  0
LINE
  5
115
100
AcDbEntity
  8
0
370
    -3
390
0
  6
Continuous
100
AcDbLine
 10
10.114212
 20
-80.213544
 30
0.0
 11
10.114212
 21
-104.213544
 31
0.0
  0
LINE
  5
116
100
AcDbEntity
  8
0
370
    -3
390
0
  6
CENTER
100
AcDbLine
 10
-561.689657
 20
-187.213544
 30
0.0
 11
-600.662182
 21
-187.213544
 31
0.0
  0
LINE
  5
117
100
AcDbEntity
  8
0
370
    -3
390
0
  6
DASHED
100
AcDbLine
 10
-503.997243
 20
-100.213719
 30
0.0
 11
-529.997243
 21
-100.213719
 31
0.0
  0
LINE
  5
118
100
AcDbEntity
  8
0
370
    -3
390
0
  6
DASHED
100
AcDbLine
 10
-503.997243
 20
-68.213719
 30
0.0
 11
-529.997243
 21
-68.213719
 31
0.0
  0
LINE
  5
119
100
AcDbEntity
  8
0
370
    -3
390
0
  6
DASHED
100
AcDbLine
 10
-529.997243
 20
-68.213719
 30
0.0
 11
-529.997243
 21
-100.213719
 31
0.0
  0
LINE
  5
11A
100
AcDbEntity
  8
0
370
    -3
390
0
  6
DASHED
100
AcDbLine
 10
-637.997243
 20
-68.213719
 30
0.0
 11
-663.997243
 21
-68.213719
 31
0.0
  0
LINE
  5
11B
100
AcDbEntity
  8
0
370
    -3
390
0
  6
DASHED
100
AcDbLine
 10
-637.997243
 20
-68.213719
 30
0.0
 11
-637.997243
 21
-100.213719
 31
0.0
  0
LINE
  5
11C
100
AcDbEntity
  8
0
370
    -3
390
0
  6
DASHED
100
AcDbLine
 10
-637.997243
 20
-100.213719
 30
0.0
 11
-663.997243
 21
-100.213719
 31
0.0
  0
POINT
  5
11D
100
AcDbEntity
  8
0
370
    -3
390
0
  6
Continuous
100
AcDbPoint
 10
-325.293515
 20
-167.213544
 30
0.0
  0
LINE
  5
11E
100
AcDbEntity
  8
0
370
    -3
390
0
  6
CENTER
100
AcDbLine
 10
-412.898353
 20
-167.213544
 30
0.0
 11
-678.117639
 21
-167.213544
 31
0.0
  0
LINE
  5
11F
100
AcDbEntity
  8
0
370
    -3
390
0
  6
CENTER
100
AcDbLine
 10
-491.877325
 20
-84.213544
 30
0.0
 11
-673.659048
 21
-84.213544
 31
0.0
  0
LINE
  5
120
100
AcDbEntity
  8
0
370
    -3
390
0
  6
CENTER
100
AcDbLine
 10
-492.711186
 20
-296.213544
 30
0.0
 11
-678.117639
 21
-296.213544
 31
0.0
  0
LINE
  5
121
100
AcDbEntity
  8
0
370
    -3
390
0
  6
DASHED
100
AcDbLine
 10
-637.997243
 20
-280.213719
 30
0.0
 11
-637.997243
 21
-312.213719
 31
0.0
  0
LINE
  5
122
100
AcDbEntity
  8
0
370
    -3
390
0
  6
DASHED
100
AcDbLine
 10
-637.997243
 20
-280.213719
 30
0.0
 11
-663.997243
 21
-280.213719
 31
0.0
  0
LINE
  5
123
100
AcDbEntity
  8
0
370
    -3
390
0
  6
DASHED
100
AcDbLine
 10
-637.997243
 20
-312.213719
 30
0.0
 11
-663.997243
 21
-312.213719
 31
0.0
  0
LINE
  5
124
100
AcDbEntity
  8
0
370
    -3
390
0
  6
DASHED
100
AcDbLine
 10
-529.997243
 20
-280.213719
 30
0.0
 11
-529.997243
 21
-312.213719
 31
0.0
  0
LINE
  5
125
100
AcDbEntity
  8
0
370
    -3
390
0
  6
DASHED
100
AcDbLine
 10
-503.997243
 20
-312.213719
 30
0.0
 11
-529.997243
 21
-312.213719
 31
0.0
  0
LINE
  5
126
100
AcDbEntity
  8
0
370
    -3
390
0
  6
DASHED
100
AcDbLine
 10
-503.997243
 20
-280.213719
 30
0.0
 11
-529.997243
 21
-280.213719
 31
0.0
  0
LINE
  5
127
100
AcDbEntity
  8
0
370
    -3
390
0
  6
DASHED
100
AcDbLine
 10
-637.997243
 20
-73.213544
 30
0.0
 11
-529.997243
 21
-73.213544
 31
0.0
  0
LINE
  5
128
100
AcDbEntity
  8
0
370
    -3
390
0
  6
DASHED
100
AcDbLine
 10
-637.997243
 20
-95.213544
 30
0.0
 11
-529.997243
 21
-95.213544
 31
0.0
  0
LINE
  5
129
100
AcDbEntity
  8
0
370
    -3
390
0
  6
DASHED
100
AcDbLine
 10
-637.997243
 20
-285.213544
 30
0.0
 11
-529.997243
 21
-285.213544
 31
0.0
  0
LINE
  5
12A
100
AcDbEntity
  8
0
370
    -3
390
0
  6
DASHED
100
AcDbLine
 10
-637.997243
 20
-307.213544
 30
0.0
 11
-529.997243
 21
-307.213544
 31
0.0
  0
LINE
  5
12B
100
AcDbEntity
  8
0
370
    -3
390
0
  6
Continuous
100
AcDbLine
 10
-604.497406
 20
-61.370379
 30
0.0
 11
-645.329096
 21
-43.191059
 31
0.0
  0
LINE
  5
12C
100
AcDbEntity
  8
0
370
    -3
390
0
  6
Continuous
100
AcDbLine
 10
-604.390936
 20
-57.258169
 30
0.0
 11
-642.869959
 21
-40.126317
 31
0.0
  0
LINE
  5
12D
100
AcDbEntity
  8
0
370
    -3
390
0
  6
Continuous
100
AcDbLine
 10
-640.768802
 20
-41.061806
 30
0.0
 11
-640.370599
 21
-40.167421
 31
0.0
  0
LINE
  5
12E
100
AcDbEntity
  8
0
370
    -3
390
0
  6
Continuous
100
AcDbLine
 10
-634.373977
 20
-43.908947
 30
0.0
 11
-633.975773
 21
-43.014562
 31
0.0
  0
ARC
  5
12F
100
AcDbEntity
  8
0
370
    -3
390
0
  6
Continuous
100
AcDbCircle
 10
-639.182989
 20
-40.696175
 30
0.0
 40
1.299999
100
AcDbArc
 50
82.601688
 51
156.000157
  0
ARC
  5
130
100
AcDbEntity
  8
0
370
    -3
390
0
  6
Continuous
100
AcDbCircle
 10
-635.163383
 20
-42.485807
 30
0.0
 40
1.299999
100
AcDbArc
 50
336.000139
 51
49.398608
  0
ARC
  5
131
100
AcDbEntity
  8
0
370
    -3
390
0
  6
Continuous
100
AcDbCircle
 10
-583.996137
 20
-642.213544
 30
0.0
 40
600.0
100
AcDbArc
 50
88.317371
 51
88.849079
  0
ARC
  5
132
100
AcDbEntity
  8
0
370
    -3
390
0
  6
Continuous
100
AcDbCircle
 10
-633.400754
 20
-43.247615
 30
0.0
 40
1.0
100
AcDbArc
 50
246.000139
 51
274.715264
  0
LINE
  5
133
100
AcDbEntity
  8
0
370
    -3
390
0
  6
Continuous
100
AcDbLine
 10
-630.497547
 20
-62.837657
 30
0.0
 11
-630.497579
 21
-49.794432
 31
0.0
  0
LINE
  5
134
100
AcDbEntity
  8
0
370
    -3
390
0
  6
Continuous
100
AcDbLine
 10
-644.19024
 20
-40.633129
 30
0.0
 11
-645.329096
 21
-43.191059
 31
0.0
  0
ARC
  5
135
100
AcDbEntity
  8
0
370
    -3
390
0
  6
Continuous
100
AcDbCircle
 10
-643.276693
 20
-41.039863
 30
0.0
 40
1.0
100
AcDbArc
 50
66.000139
 51
156.000139
  0
ARC
  5
136
100
AcDbEntity
  8
0
370
    -3
390
0
  6
Continuous
100
AcDbCircle
 10
-630.76983
 20
-44.418971
 30
0.0
 40
1.0
100
AcDbArc
 50
246.000139
 51
336.000139
  0
ARC
  5
137
100
AcDbEntity
  8
0
370
    -3
390
0
  6
Continuous
100
AcDbCircle
 10
-628.120223
 20
-45.843638
 30
0.0
 40
2.0
100
AcDbArc
 50
94.231478
 51
156.000139
  0
LINE
  5
138
100
AcDbEntity
  8
0
370
    -3
390
0
  6
Continuous
100
AcDbLine
 10
-550.812973
 20
-62.372478
 30
0.0
 11
-552.016602
 21
-55.037016
 31
0.0
  0
ARC
  5
139
100
AcDbEntity
  8
0
370
    -3
390
0
  6
Continuous
100
AcDbCircle
 10
-566.818664
 20
-57.465791
 30
0.0
 40
15.0
100
AcDbArc
 50
9.318263
 51
88.317371
  0
LINE
  5
13A
100
AcDbEntity
  8
0
370
    -3
390
0
  6
CENTER
100
AcDbLine
 10
-636.083148
 20
-39.14271
 30
0.0
 11
-639.21138
 21
-46.16888
 31
0.0
  0
ARC
  5
13B
100
AcDbEntity
  8
0
370
    -3
390
0
  6
Continuous
100
AcDbCircle
 10
-640.174489
 20
-48.332073
 30
0.0
 40
9.0
100
AcDbArc
 50
49.398608
 51
82.601688
  0
LINE
  5
13C
100
AcDbEntity
  8
0
370
    -3
390
0
  6
Continuous
100
AcDbLine
 10
217.114212
 20
-91.213713
 30
0.0
 11
217.114212
 21
-90.213713
 31
0.0
  0
LINE
  5
13D
100
AcDbEntity
  8
0
370
    -3
390
0
  6
Continuous
100
AcDbLine
 10
155.114212
 20
-91.213713
 30
0.0
 11
155.114212
 21
-90.213713
 31
0.0
  0
LINE
  5
13E
100
AcDbEntity
  8
0
370
    -3
390
0
  6
Continuous
100
AcDbLine
 10
219.914212
 20
-90.213713
 30
0.0
 11
152.314212
 21
-90.213713
 31
0.0
  0
LINE
  5
13F
100
AcDbEntity
  8
0
370
    -3
390
0
  6
Continuous
100
AcDbLine
 10
183.056956
 20
-40.039888
 30
0.0
 11
150.664212
 21
-40.039888
 31
0.0
  0
ARC
  5
140
100
AcDbEntity
  8
0
370
    -3
390
0
  6
Continuous
100
AcDbCircle
 10
186.114212
 20
-48.39621
 30
0.0
 40
9.0
100
AcDbArc
 50
73.398469
 51
106.601548
  0
CIRCLE
  5
141
100
AcDbEntity
  8
0
370
    -3
390
0
  6
DASHED
100
AcDbCircle
 10
186.114212
 20
-66.213713
 30
0.0
 40
13.5
  0
LINE
  5
142
100
AcDbEntity
  8
0
370
    -3
390
0
  6
CENTER
100
AcDbLine
 10
208.937844
 20
-66.213713
 30
0.0
 11
164.650126
 21
-66.213713
 31
0.0
  0
ARC
  5
143
100
AcDbEntity
  8
0
370
    -3
390
0
  6
Continuous
100
AcDbCircle
 10
219.914212
 20
-85.213713
 30
0.0
 40
5.0
100
AcDbArc
 50
270.0
 51
315.074044
  0
ARC
  5
144
100
AcDbEntity
  8
0
370
    -3
390
0
  6
Continuous
100
AcDbCircle
 10
152.314212
 20
-85.213713
 30
0.0
 40
5.0
100
AcDbArc
 50
224.925956
 51
270.0
  0
ARC
  5
145
100
AcDbEntity
  8
0
370
    -3
390
0
  6
Continuous
100
AcDbCircle
 10
221.564212
 20
-77.908277
 30
0.0
 40
11.0
100
AcDbArc
 50
270.0
 51
0.0
  0
ARC
  5
146
100
AcDbEntity
  8
0
370
    -3
390
0
  6
Continuous
100
AcDbCircle
 10
221.564212
 20
-74.436804
 30
0.0
 40
11.0
100
AcDbArc
 50
270.0
 51
0.0
  0
ARC
  5
147
100
AcDbEntity
  8
0
370
    -3
390
0
  6
Continuous
100
AcDbCircle
 10
150.664212
 20
-77.908277
 30
0.0
 40
11.0
100
AcDbArc
 50
180.0
 51
270.0
  0
ARC
  5
148
100
AcDbEntity
  8
0
370
    -3
390
0
  6
Continuous
100
AcDbCircle
 10
150.664212
 20
-74.436804
 30
0.0
 40
11.0
100
AcDbArc
 50
180.0
 51
270.0
  0
ARC
  5
149
100
AcDbEntity
  8
0
370
    -3
390
0
  6
Continuous
100
AcDbCircle
 10
220.364212
 20
-48.013713
 30
0.0
 40
5.8
100
AcDbArc
 50
0.0
 51
90.0
  0
ARC
  5
14A
100
AcDbEntity
  8
0
370
    -3
390
0
  6
Continuous
100
AcDbCircle
 10
151.864212
 20
-48.013713
 30
0.0
 40
5.8
100
AcDbArc
 50
90.0
 51
180.0
  0
LINE
  5
14B
100
AcDbEntity
  8
0
370
    -3
390
0
  6
Continuous
100
AcDbLine
 10
220.364212
 20
-42.213713
 30
0.0
 11
151.864212
 21
-42.213713
 31
0.0
  0
ARC
  5
14C
100
AcDbEntity
  8
0
370
    -3
390
0
  6
Continuous
100
AcDbCircle
 10
221.564212
 20
-51.039888
 30
0.0
 40
11.0
100
AcDbArc
 50
0.0
 51
90.0
  0
ARC
  5
14D
100
AcDbEntity
  8
0
370
    -3
390
0
  6
Continuous
100
AcDbCircle
 10
150.664212
 20
-51.039888
 30
0.0
 40
11.0
100
AcDbArc
 50
90.0
 51
180.0
  0
ARC
  5
14E
100
AcDbEntity
  8
0
370
    -3
390
0
  6
Continuous
100
AcDbCircle
 10
221.164212
 20
-77.589648
 30
0.0
 40
5.0
100
AcDbArc
 50
270.0
 51
0.0
  0
ARC
  5
14F
100
AcDbEntity
  8
0
370
    -3
390
0
  6
Continuous
100
AcDbCircle
 10
151.064212
 20
-77.589648
 30
0.0
 40
5.0
100
AcDbArc
 50
180.0
 51
270.0
  0
LINE
  5
150
100
AcDbEntity
  8
0
370
    -3
390
0
  6
Continuous
100
AcDbLine
 10
221.164212
 20
-82.589648
 30
0.0
 11
151.064212
 21
-82.589648
 31
0.0
  0
LINE
  5
151
100
AcDbEntity
  8
0
370
    -3
390
0
  6
Continuous
100
AcDbLine
 10
226.164212
 20
-48.013713
 30
0.0
 11
226.164212
 21
-77.589648
 31
0.0
  0
LINE
  5
152
100
AcDbEntity
  8
0
370
    -3
390
0
  6
Continuous
100
AcDbLine
 10
146.064212
 20
-48.013713
 30
0.0
 11
146.064212
 21
-77.589648
 31
0.0
  0
LINE
  5
153
100
AcDbEntity
  8
0
370
    -3
390
0
  6
Continuous
100
AcDbLine
 10
232.564212
 20
-77.908277
 30
0.0
 11
232.564212
 21
-51.039888
 31
0.0
  0
LINE
  5
154
100
AcDbEntity
  8
0
370
    -3
390
0
  6
Continuous
100
AcDbLine
 10
139.664212
 20
-77.908277
 30
0.0
 11
139.664212
 21
-51.039888
 31
0.0
  0
LINE
  5
155
100
AcDbEntity
  8
0
370
    -3
390
0
  6
Continuous
100
AcDbLine
 10
221.564212
 20
-85.436804
 30
0.0
 11
150.664212
 21
-85.436804
 31
0.0
  0
LINE
  5
156
100
AcDbEntity
  8
0
370
    -3
390
0
  6
Continuous
100
AcDbLine
 10
221.564212
 20
-88.908277
 30
0.0
 11
150.664212
 21
-88.908277
 31
0.0
  0
LINE
  5
157
100
AcDbEntity
  8
0
370
    -3
390
0
  6
Continuous
100
AcDbLine
 10
221.564212
 20
-40.039888
 30
0.0
 11
189.171468
 21
-40.039888
 31
0.0
  0
LINE
  5
158
100
AcDbEntity
  8
0
370
    -3
390
0
  6
CENTER
100
AcDbLine
 10
186.114212
 20
-110.388351
 30
0.0
 11
186.114212
 21
-34.985013
 31
0.0
  0
LINE
  5
159
100
AcDbEntity
  8
0
370
    -3
390
0
  6
Continuous
100
AcDbLine
 10
217.114212
 20
-92.813713
 30
0.0
 11
186.114212
 21
-92.813713
 31
0.0
  0
LINE
  5
15A
100
AcDbEntity
  8
0
370
    -3
390
0
  6
Continuous
100
AcDbLine
 10
217.114212
 20
-91.213713
 30
0.0
 11
217.114212
 21
-92.813713
 31
0.0
  0
ARC
  5
15B
100
AcDbEntity
  8
0
370
    -3
390
0
  6
Continuous
100
AcDbCircle
 10
213.314212
 20
-94.413713
 30
0.0
 40
1.6
100
AcDbArc
 50
90.0
 51
180.0
  0
LINE
  5
15C
100
AcDbEntity
  8
0
370
    -3
390
0
  6
Continuous
100
AcDbLine
 10
217.114212
 20
-91.213713
 30
0.0
 11
155.114212
 21
-91.213713
 31
0.0
  0
LINE
  5
15D
100
AcDbEntity
  8
0
370
    -3
390
0
  6
Continuous
100
AcDbLine
 10
186.114212
 20
-91.213713
 30
0.0
 11
217.114212
 21
-91.213713
 31
0.0
  0
LINE
  5
15E
100
AcDbEntity
  8
0
370
    -3
390
0
  6
Continuous
100
AcDbLine
 10
160.514212
 20
-103.013713
 30
0.0
 11
160.514212
 21
-94.413713
 31
0.0
  0
LINE
  5
15F
100
AcDbEntity
  8
0
370
    -3
390
0
  6
Continuous
100
AcDbLine
 10
155.114212
 20
-92.813713
 30
0.0
 11
186.114212
 21
-92.813713
 31
0.0
  0
LINE
  5
160
100
AcDbEntity
  8
0
370
    -3
390
0
  6
Continuous
100
AcDbLine
 10
155.114212
 20
-91.213713
 30
0.0
 11
155.114212
 21
-92.813713
 31
0.0
  0
ARC
  5
161
100
AcDbEntity
  8
0
370
    -3
390
0
  6
Continuous
100
AcDbCircle
 10
158.914212
 20
-94.413713
 30
0.0
 40
1.6
100
AcDbArc
 50
0.0
 51
90.0
  0
LINE
  5
162
100
AcDbEntity
  8
0
370
    -3
390
0
  6
Continuous
100
AcDbLine
 10
186.114212
 20
-91.213713
 30
0.0
 11
155.114212
 21
-91.213713
 31
0.0
  0
LINE
  5
163
100
AcDbEntity
  8
0
370
    -3
390
0
  6
Continuous
100
AcDbLine
 10
211.714212
 20
-100.854203
 30
0.0
 11
211.714212
 21
-94.413713
 31
0.0
  0
LINE
  5
164
100
AcDbEntity
  8
0
370
    -3
390
0
  6
Continuous
100
AcDbLine
 10
162.114212
 20
-107.213713
 30
0.0
 11
162.114212
 21
-106.213713
 31
0.0
  0
LINE
  5
165
100
AcDbEntity
  8
0
370
    -3
390
0
  6
Continuous
100
AcDbLine
 10
196.114212
 20
-106.213713
 30
0.0
 11
162.114212
 21
-106.213713
 31
0.0
  0
ARC
  5
166
100
AcDbEntity
  8
0
370
    -3
390
0
  6
Continuous
100
AcDbCircle
 10
163.714212
 20
-103.013713
 30
0.0
 40
3.2
100
AcDbArc
 50
180.0
 51
270.0
  0
INSERT
  5
173
100
AcDbEntity
  8
0
390
0
100
AcDbBlockReference
  2
ZU_SYM_K__CAD_SYM_POO_SYM_B20_07
 10
-14.385788
 20
-110.213544
 30
0.0
  0
INSERT
  5
180
100
AcDbEntity
  8
0
390
0
100
AcDbBlockReference
  2
ZU_SYM_K__CAD_SYM_POO_SYM_B20_0000107
 10
-106.885788
 20
-76.713544
 30
0.0
  0
INSERT
  5
18D
100
AcDbEntity
  8
0
390
0
100
AcDbBlockReference
  2
ZU_SYM_K__CAD_SYM_POO_SYM_B20_0000207
 10
-264.385788
 20
-110.213544
 30
0.0
  0
INSERT
  5
19A
100
AcDbEntity
  8
0
390
0
100
AcDbBlockReference
  2
ZU_SYM_K__CAD_SYM_POO_SYM_B20_0000307
 10
-264.385788
 20
-270.213544
 30
0.0
  0
INSERT
  5
1A7
100
AcDbEntity
  8
0
390
0
100
AcDbBlockReference
  2
ZU_SYM_K__CAD_SYM_POO_SYM_B20_0000407
 10
-153.885788
 20
-303.713544
 30
0.0
  0
INSERT
  5
1B4
100
AcDbEntity
  8
0
390
0
100
AcDbBlockReference
  2
ZU_SYM_K__CAD_SYM_POO_SYM_B20_0000507
 10
-14.385788
 20
-270.213544
 30
0.0
  0
ARC
  5
1B5
100
AcDbEntity
  8
0
370
    -3
390
0
  6
Continuous
100
AcDbCircle
 10
-583.996137
 20
-642.213544
 30
0.0
 40
600.0
100
AcDbArc
 50
91.151199
 51
94.715264
  0
LINE
  5
1B6
100
AcDbEntity
  8
0
370
    -3
390
0
  6
Continuous
100
AcDbLine
 10
182.614212
 20
-41.017186
 30
0.0
 11
182.614212
 21
-41.413713
 31
0.0
  0
ARC
  5
1B7
100
AcDbEntity
  8
0
370
    -3
390
0
  6
Continuous
100
AcDbCircle
 10
183.914211
 20
-41.017186
 30
0.0
 40
1.299999
100
AcDbArc
 50
106.601531
 51
180.0
  0
ARC
  5
1B8
100
AcDbEntity
  8
0
370
    -3
390
0
  6
Continuous
100
AcDbCircle
 10
184.114212
 20
-41.413713
 30
0.0
 40
1.5
100
AcDbArc
 50
180.0
 51
212.230953
  0
ARC
  5
1B9
100
AcDbEntity
  8
0
370
    -3
390
0
  6
Continuous
100
AcDbCircle
 10
188.114212
 20
-41.413713
 30
0.0
 40
1.5
100
AcDbArc
 50
327.769047
 51
0.0
  0
LINE
  5
1BA
100
AcDbEntity
  8
0
370
    -3
390
0
  6
Continuous
100
AcDbLine
 10
189.614212
 20
-41.017186
 30
0.0
 11
189.614212
 21
-41.413713
 31
0.0
  0
ARC
  5
1BB
100
AcDbEntity
  8
0
370
    -3
390
0
  6
Continuous
100
AcDbCircle
 10
188.314213
 20
-41.017186
 30
0.0
 40
1.299999
100
AcDbArc
 50
0.0
 51
73.398469
  0
ELLIPSE
  5
1BC
100
AcDbEntity
  8
0
370
    -3
390
0
  6
Continuous
100
AcDbEllipse
 10
221.614212
 20
-121.561682
 30
0.0
 11
5.0
 21
0.0
 31
0.0
210
0.0
220
0.0
230
1.0
 40
0.707107
 41
3.1415926535897931
 42
0.0
  0
LINE
  5
1BD
100
AcDbEntity
  8
0
370
    -3
390
0
  6
Continuous
100
AcDbLine
 10
226.614212
 20
-120.745079
 30
0.0
 11
226.614212
 21
-121.561682
 31
0.0
  0
LINE
  5
1BE
100
AcDbEntity
  8
0
370
    -3
390
0
  6
Continuous
100
AcDbLine
 10
216.614212
 20
-120.745079
 30
0.0
 11
216.614212
 21
-121.561682
 31
0.0
  0
ELLIPSE
  5
1BF
100
AcDbEntity
  8
0
370
    -3
390
0
  6
Continuous
100
AcDbEllipse
 10
221.614212
 20
-120.745079
 30
0.0
 11
4.5
 21
0.0
 31
0.0
210
0.0
220
0.0
230
1.0
 40
0.707107
 41
3.1415926535897931
 42
0.0
  0
LINE
  5
1C0
100
AcDbEntity
  8
0
370
    -3
390
0
  6
Continuous
100
AcDbLine
 10
226.114212
 20
-120.179394
 30
0.0
 11
226.114212
 21
-120.745079
 31
0.0
  0
LINE
  5
1C1
100
AcDbEntity
  8
0
370
    -3
390
0
  6
Continuous
100
AcDbLine
 10
217.114212
 20
-120.179394
 30
0.0
 11
217.114212
 21
-120.745079
 31
0.0
  0
ELLIPSE
  5
1C2
100
AcDbEntity
  8
0
370
    -3
390
0
  6
Continuous
100
AcDbEllipse
 10
221.614212
 20
-120.745079
 30
0.0
 11
5.0
 21
0.0
 31
0.0
210
0.0
220
0.0
230
1.0
 40
0.707107
 41
2.4023208266491727
 42
3.1415926535897931
  0
ELLIPSE
  5
1C3
100
AcDbEntity
  8
0
370
    -3
390
0
  6
Continuous
100
AcDbEllipse
 10
221.614212
 20
-120.745079
 30
0.0
 11
5.0
 21
0.0
 31
0.0
210
0.0
220
0.0
230
1.0
 40
0.707107
 41
0.0
 42
0.7392718269406207
  0
ELLIPSE
  5
1C4
100
AcDbEntity
  8
0
370
    -3
390
0
  6
Continuous
100
AcDbEllipse
 10
221.614212
 20
-119.642875
 30
0.0
 11
3.5
 21
0.0
 31
0.0
210
0.0
220
0.0
230
1.0
 40
0.860398
 41
0.0
 42
6.2831853071795862
  0
ELLIPSE
  5
1C5
100
AcDbEntity
  8
0
370
    -3
390
0
  6
Continuous
100
AcDbEllipse
 10
221.614212
 20
-120.179394
 30
0.0
 11
4.5
 21
0.0
 31
0.0
210
0.0
220
0.0
230
1.0
 40
0.707107
 41
2.158706662346169
 42
0.9828859912436241
  0
LINE
  5
1C6
100
AcDbEntity
  8
0
370
    -3
390
0
  6
Continuous
100
AcDbLine
 10
221.614212
 20
-118.340916
 30
0.0
 11
219.614212
 21
-119.914254
 31
0.0
  0
LINE
  5
1C7
100
AcDbEntity
  8
0
370
    -3
390
0
  6
Continuous
100
AcDbLine
 10
221.614212
 20
-118.340916
 30
0.0
 11
219.685007
 21
-117.130254
 31
0.0
  0
LINE
  5
1C8
100
AcDbEntity
  8
0
370
    -3
390
0
  6
Continuous
100
AcDbLine
 10
221.614212
 20
-118.340916
 30
0.0
 11
223.614212
 21
-119.914254
 31
0.0
  0
LINE
  5
1C9
100
AcDbEntity
  8
0
370
    -3
390
0
  6
Continuous
100
AcDbLine
 10
221.614212
 20
-118.340916
 30
0.0
 11
223.543417
 21
-117.130254
 31
0.0
  0
ARC
  5
1CA
100
AcDbEntity
  8
0
370
    -3
390
0
  6
Continuous
100
AcDbCircle
 10
302.182245
 20
-140.713117
 30
0.0
 40
40.8
100
AcDbArc
 50
60.0
 51
90.0
  0
LINE
  5
1CB
100
AcDbEntity
  8
0
370
    -3
390
0
  6
Continuous
100
AcDbLine
 10
339.214213
 20
-114.981751
 30
0.0
 11
322.582245
 21
-105.37928
 31
0.0
  0
ARC
  5
1CC
100
AcDbEntity
  8
0
370
    -3
390
0
  6
Continuous
100
AcDbCircle
 10
337.314213
 20
-118.272648
 30
0.0
 40
3.8
100
AcDbArc
 50
0.0
 51
60.0
  0
LINE
  5
1CD
100
AcDbEntity
  8
0
370
    -3
390
0
  6
Continuous
100
AcDbLine
 10
341.114213
 20
-118.272648
 30
0.0
 11
341.114213
 21
-187.213117
 31
0.0
  0
LINE
  5
1CE
100
AcDbEntity
  8
0
370
    -3
390
0
  6
Continuous
100
AcDbLine
 10
341.114213
 20
-256.153585
 30
0.0
 11
341.114213
 21
-187.213117
 31
0.0
  0
LINE
  5
1CF
100
AcDbEntity
  8
0
370
    -3
390
0
  6
Continuous
100
AcDbLine
 10
339.214213
 20
-259.444482
 30
0.0
 11
322.582245
 21
-269.046953
 31
0.0
  0
ARC
  5
1D0
100
AcDbEntity
  8
0
370
    -3
390
0
  6
Continuous
100
AcDbCircle
 10
302.182245
 20
-233.713117
 30
0.0
 40
40.8
100
AcDbArc
 50
270.0
 51
300.0
  0
ARC
  5
1D1
100
AcDbEntity
  8
0
370
    -3
390
0
  6
Continuous
100
AcDbCircle
 10
337.314213
 20
-256.153585
 30
0.0
 40
3.8
100
AcDbArc
 50
300.0
 51
0.0
  0
LINE
  5
1D2
100
AcDbEntity
  8
0
370
    -3
390
0
  6
Continuous
100
AcDbLine
 10
302.182245
 20
-274.513117
 30
0.0
 11
196.114213
 21
-274.513117
 31
0.0
  0
LINE
  5
1D3
100
AcDbEntity
  8
0
370
    -3
390
0
  6
Continuous
100
AcDbLine
 10
196.114213
 20
-103.853607
 30
0.0
 11
196.114213
 21
-187.213117
 31
0.0
  0
ARC
  5
1D4
100
AcDbEntity
  8
0
370
    -3
390
0
  6
Continuous
100
AcDbCircle
 10
199.114213
 20
-103.853607
 30
0.0
 40
3.0
100
AcDbArc
 50
90.0
 51
180.0
  0
ARC
  5
1D5
100
AcDbEntity
  8
0
370
    -3
390
0
  6
Continuous
100
AcDbCircle
 10
215.114213
 20
-99.853607
 30
0.0
 40
1.0
100
AcDbArc
 50
270.0
 51
356.588332
  0
LINE
  5
1D6
100
AcDbEntity
  8
0
370
    -3
390
0
  6
Continuous
100
AcDbLine
 10
199.114213
 20
-100.853607
 30
0.0
 11
215.114213
 21
-100.853607
 31
0.0
  0
LINE
  5
1D7
100
AcDbEntity
  8
0
370
    -3
390
0
  6
Continuous
100
AcDbLine
 10
302.182245
 20
-99.913117
 30
0.0
 11
216.112441
 21
-99.913117
 31
0.0
  0
LINE
  5
1D8
100
AcDbEntity
  8
0
370
    -3
390
0
  6
Continuous
100
AcDbLine
 10
196.114213
 20
-274.513117
 30
0.0
 11
196.114213
 21
-187.213117
 31
0.0
  0
ELLIPSE
  5
1D9
100
AcDbEntity
  8
0
370
    -3
390
0
  6
Continuous
100
AcDbEllipse
 10
221.614212
 20
-252.864551
 30
0.0
 11
5.0
 21
0.0
 31
0.0
210
0.0
220
0.0
230
1.0
 40
0.707107
 41
0.0
 42
3.1415926535897931
  0
LINE
  5
1DA
100
AcDbEntity
  8
0
370
    -3
390
0
  6
Continuous
100
AcDbLine
 10
226.614212
 20
-253.681154
 30
0.0
 11
226.614212
 21
-252.864551
 31
0.0
  0
LINE
  5
1DB
100
AcDbEntity
  8
0
370
    -3
390
0
  6
Continuous
100
AcDbLine
 10
216.614212
 20
-253.681154
 30
0.0
 11
216.614212
 21
-252.864551
 31
0.0
  0
ELLIPSE
  5
1DC
100
AcDbEntity
  8
0
370
    -3
390
0
  6
Continuous
100
AcDbEllipse
 10
221.614212
 20
-253.681154
 30
0.0
 11
4.5
 21
0.0
 31
0.0
210
0.0
220
0.0
230
1.0
 40
0.707107
 41
0.0
 42
3.1415926535897931
  0
LINE
  5
1DD
100
AcDbEntity
  8
0
370
    -3
390
0
  6
Continuous
100
AcDbLine
 10
226.114212
 20
-254.246839
 30
0.0
 11
226.114212
 21
-253.681154
 31
0.0
  0
LINE
  5
1DE
100
AcDbEntity
  8
0
370
    -3
390
0
  6
Continuous
100
AcDbLine
 10
217.114212
 20
-254.246839
 30
0.0
 11
217.114212
 21
-253.681154
 31
0.0
  0
ELLIPSE
  5
1DF
100
AcDbEntity
  8
0
370
    -3
390
0
  6
Continuous
100
AcDbEllipse
 10
221.614212
 20
-253.681154
 30
0.0
 11
5.0
 21
0.0
 31
0.0
210
0.0
220
0.0
230
1.0
 40
0.707107
 41
3.1415926535897931
 42
3.8808644805304136
  0
ELLIPSE
  5
1E0
100
AcDbEntity
  8
0
370
    -3
390
0
  6
Continuous
100
AcDbEllipse
 10
221.614212
 20
-253.681154
 30
0.0
 11
5.0
 21
0.0
 31
0.0
210
0.0
220
0.0
230
1.0
 40
0.707107
 41
5.5439134802389658
 42
0.0
  0
ELLIPSE
  5
1E1
100
AcDbEntity
  8
0
370
    -3
390
0
  6
Continuous
100
AcDbEllipse
 10
221.614212
 20
-254.783358
 30
0.0
 11
3.5
 21
0.0
 31
0.0
210
0.0
220
0.0
230
1.0
 40
0.860398
 41
0.0
 42
6.2831853071795862
  0
ELLIPSE
  5
1E2
100
AcDbEntity
  8
0
370
    -3
390
0
  6
Continuous
100
AcDbEllipse
 10
221.614212
 20
-254.246839
 30
0.0
 11
4.5
 21
0.0
 31
0.0
210
0.0
220
0.0
230
1.0
 40
0.707107
 41
5.3002993159359626
 42
4.1244786448334168
  0
LINE
  5
1E3
100
AcDbEntity
  8
0
370
    -3
390
0
  6
Continuous
100
AcDbLine
 10
221.614212
 20
-256.085317
 30
0.0
 11
219.614212
 21
-254.51198
 31
0.0
  0
LINE
  5
1E4
100
AcDbEntity
  8
0
370
    -3
390
0
  6
Continuous
100
AcDbLine
 10
221.614212
 20
-256.085317
 30
0.0
 11
219.685007
 21
-257.295979
 31
0.0
  0
LINE
  5
1E5
100
AcDbEntity
  8
0
370
    -3
390
0
  6
Continuous
100
AcDbLine
 10
221.614212
 20
-256.085317
 30
0.0
 11
223.614212
 21
-254.51198
 31
0.0
  0
LINE
  5
1E6
100
AcDbEntity
  8
0
370
    -3
390
0
  6
Continuous
100
AcDbLine
 10
221.614212
 20
-256.085317
 30
0.0
 11
223.543417
 21
-257.295979
 31
0.0
  0
ARC
  5
1E7
100
AcDbEntity
  8
0
370
    -3
390
0
  6
DASHED
100
AcDbCircle
 10
-562.936704
 20
-170.318175
 30
0.0
 40
65.8
100
AcDbArc
 50
13.657552
 51
38.737581
  0
ARC
  5
1E8
100
AcDbEntity
  8
0
370
    -3
390
0
  6
Continuous
100
AcDbCircle
 10
-280.497248
 20
-187.213544
 30
0.0
 40
390.8
100
AcDbArc
 50
177.020093
 51
182.979907
  0
ARC
  5
1E9
100
AcDbEntity
  8
0
370
    -3
390
0
  6
Continuous
100
AcDbCircle
 10
-562.936704
 20
-204.108913
 30
0.0
 40
65.8
100
AcDbArc
 50
346.342448
 51
357.020093
  0
ARC
  5
1EA
100
AcDbEntity
  8
0
370
    -3
390
0
  6
DASHED
100
AcDbCircle
 10
-583.997248
 20
-490.713544
 30
0.0
 40
390.8
100
AcDbArc
 50
87.020093
 51
92.979907
  0
ARC
  5
1EB
100
AcDbEntity
  8
0
370
    -3
390
0
  6
DASHED
100
AcDbCircle
 10
-605.057792
 20
-204.108913
 30
0.0
 40
65.8
100
AcDbArc
 50
193.657579
 51
218.737581
  0
ARC
  5
1EC
100
AcDbEntity
  8
0
370
    -3
390
0
  6
Continuous
100
AcDbCircle
 10
-887.497248
 20
-187.213544
 30
0.0
 40
390.8
100
AcDbArc
 50
357.020093
 51
2.979907
  0
ARC
  5
1ED
100
AcDbEntity
  8
0
370
    -3
390
0
  6
Continuous
100
AcDbCircle
 10
-605.057792
 20
-170.318175
 30
0.0
 40
65.8
100
AcDbArc
 50
166.342421
 51
177.020093
  0
ARC
  5
1EE
100
AcDbEntity
  8
0
370
    -3
390
0
  6
DASHED
100
AcDbCircle
 10
-600.892617
 20
-208.274088
 30
0.0
 40
65.8
100
AcDbArc
 50
231.262419
 51
267.020093
  0
ARC
  5
1EF
100
AcDbEntity
  8
0
370
    -3
390
0
  6
DASHED
100
AcDbCircle
 10
-583.997248
 20
116.286456
 30
0.0
 40
390.8
100
AcDbArc
 50
267.020093
 51
272.979907
  0
ARC
  5
1F0
100
AcDbEntity
  8
0
370
    -3
390
0
  6
DASHED
100
AcDbCircle
 10
-567.101879
 20
-208.274088
 30
0.0
 40
65.8
100
AcDbArc
 50
272.979907
 51
308.737581
  0
ARC
  5
1F1
100
AcDbEntity
  8
0
370
    -3
390
0
  6
DASHED
100
AcDbCircle
 10
-562.936704
 20
-204.108913
 30
0.0
 40
65.8
100
AcDbArc
 50
321.262419
 51
346.342448
  0
ARC
  5
1F2
100
AcDbEntity
  8
0
370
    -3
390
0
  6
DASHED
100
AcDbCircle
 10
-583.997248
 20
-187.213544
 30
0.0
 40
92.8
100
AcDbArc
 50
308.737581
 51
321.262419
  0
ARC
  5
1F3
100
AcDbEntity
  8
0
370
    -3
390
0
  6
Continuous
100
AcDbCircle
 10
-562.936704
 20
-170.318175
 30
0.0
 40
65.8
100
AcDbArc
 50
2.979907
 51
13.657552
  0
ARC
  5
1F4
100
AcDbEntity
  8
0
370
    -3
390
0
  6
DASHED
100
AcDbCircle
 10
-567.101879
 20
-166.153
 30
0.0
 40
65.8
100
AcDbArc
 50
51.262419
 51
87.020093
  0
ARC
  5
1F5
100
AcDbEntity
  8
0
370
    -3
390
0
  6
DASHED
100
AcDbCircle
 10
-583.997248
 20
-187.213544
 30
0.0
 40
92.8
100
AcDbArc
 50
38.737581
 51
51.262419
  0
ARC
  5
1F6
100
AcDbEntity
  8
0
370
    -3
390
0
  6
DASHED
100
AcDbCircle
 10
-600.892617
 20
-166.153
 30
0.0
 40
65.8
100
AcDbArc
 50
92.979907
 51
128.737581
  0
ARC
  5
1F7
100
AcDbEntity
  8
0
370
    -3
390
0
  6
DASHED
100
AcDbCircle
 10
-605.057792
 20
-170.318175
 30
0.0
 40
65.8
100
AcDbArc
 50
141.262419
 51
166.342421
  0
ARC
  5
1F8
100
AcDbEntity
  8
0
370
    -3
390
0
  6
DASHED
100
AcDbCircle
 10
-583.997248
 20
-187.213544
 30
0.0
 40
92.8
100
AcDbArc
 50
128.737581
 51
141.262419
  0
ARC
  5
1F9
100
AcDbEntity
  8
0
370
    -3
390
0
  6
Continuous
100
AcDbCircle
 10
-605.057792
 20
-204.108913
 30
0.0
 40
65.8
100
AcDbArc
 50
182.979907
 51
193.657579
  0
ARC
  5
1FA
100
AcDbEntity
  8
0
370
    -3
390
0
  6
DASHED
100
AcDbCircle
 10
-583.997248
 20
-187.213544
 30
0.0
 40
92.8
100
AcDbArc
 50
218.737581
 51
231.262419
  0
MTEXT
  5
1FC
100
AcDbEntity
  8
0
370
    -3
390
0
  6
Continuous
100
AcDbMText
 10
-503.427338
 20
176.877747
 30
0.0
 40
10.0
 41
0.0
 71
     7
 72
     1
  1
\W0.63;三菱ギヤードモータ  
  7
ZU_SHPTB00001
 11
1.0
 21
0.0
 31
0.0
 73
     1
 44
1.0
  0
MTEXT
  5
1FD
100
AcDbEntity
  8
0
370
    -3
390
0
  6
Continuous
100
AcDbMText
 10
-503.427338
 20
165.577744
 30
0.0
 40
10.0
 41
0.0
 71
     7
 72
     1
  1
\W0.47;GM-SHYPFB-RL(R)
  7
ZU_SHPTB00001
 11
1.0
 21
0.0
 31
0.0
 73
     1
 44
1.0
  0
MTEXT
  5
1FE
100
AcDbEntity
  8
0
370
    -3
390
0
  6
Continuous
100
AcDbMText
 10
-503.427338
 20
154.277756
 30
0.0
 40
10.0
 41
0.0
 71
     7
 72
     1
  1
\W0.47;1.5(kW)
  7
ZU_SHPTB00001
 11
1.0
 21
0.0
 31
0.0
 73
     1
 44
1.0
  0
MTEXT
  5
1FF
100
AcDbEntity
  8
0
370
    -3
390
0
  6
Continuous
100
AcDbMText
 10
-503.427338
 20
142.977753
 30
0.0
 40
10.0
 41
0.0
 71
     7
 72
     1
  1
\W0.47;1/80\W0.63;～\W0.47;1/240
  7
ZU_SHPTB00001
 11
1.0
 21
0.0
 31
0.0
 73
     1
 44
1.0
  0
MTEXT
  5
200
100
AcDbEntity
  8
0
370
    -3
390
0
  6
Continuous
100
AcDbMText
 10
-503.427338
 20
131.67775
 30
0.0
 40
10.0
 41
0.0
 71
     7
 72
     1
  1
\W0.47;SCALE\W0.78; \W0.47;1/1
  7
ZU_SHPTB00001
 11
1.0
 21
0.0
 31
0.0
 73
     1
 44
1.0
  0
ARC
  5
201
100
AcDbEntity
  8
0
370
    -3
390
0
  6
Continuous
100
AcDbCircle
 10
164.038806
 20
789.885327
 30
0.0
 40
54.0
100
AcDbArc
 50
329.521804
 51
329.731817
  0
LINE
  5
202
100
AcDbEntity
  8
0
370
    -3
390
0
  6
Continuous
100
AcDbLine
 10
509.010013
 20
-62.372374
 30
0.0
 11
475.694557
 21
-63.535775
 31
0.0
  0
LINE
  5
203
100
AcDbEntity
  8
0
370
    -3
390
0
  6
Continuous
100
AcDbLine
 10
588.694557
 20
-62.83736
 30
0.0
 11
608.694557
 21
-63.535775
 31
0.0
  0
LINE
  5
204
100
AcDbEntity
  8
0
370
    -3
390
0
  6
Continuous
100
AcDbLine
 10
627.194557
 20
-219.645513
 30
0.0
 11
627.194557
 21
-242.213544
 31
0.0
  0
LINE
  5
205
100
AcDbEntity
  8
0
370
    -3
390
0
  6
Continuous
100
AcDbLine
 10
622.194557
 20
-242.213544
 30
0.0
 11
627.194557
 21
-242.213544
 31
0.0
  0
LINE
  5
206
100
AcDbEntity
  8
0
370
    -3
390
0
  6
Continuous
100
AcDbLine
 10
462.194557
 20
-242.213544
 30
0.0
 11
457.194557
 21
-242.213544
 31
0.0
  0
LINE
  5
207
100
AcDbEntity
  8
0
370
    -3
390
0
  6
Continuous
100
AcDbLine
 10
457.194557
 20
-219.645513
 30
0.0
 11
457.194557
 21
-242.213544
 31
0.0
  0
LINE
  5
208
100
AcDbEntity
  8
0
370
    -3
390
0
  6
Continuous
100
AcDbLine
 10
463.193872
 20
-314.899295
 30
0.0
 11
475.194557
 21
-315.213544
 31
0.0
  0
LINE
  5
209
100
AcDbEntity
  8
0
370
    -3
390
0
  6
Continuous
100
AcDbLine
 10
463.193872
 20
-314.899295
 30
0.0
 11
462.194557
 21
-313.87347
 31
0.0
  0
LINE
  5
20A
100
AcDbEntity
  8
0
370
    -3
390
0
  6
Continuous
100
AcDbLine
 10
475.194557
 20
-257.520764
 30
0.0
 11
475.194557
 21
-316.873852
 31
0.0
  0
LINE
  5
20B
100
AcDbEntity
  8
0
370
    -3
390
0
  6
Continuous
100
AcDbLine
 10
495.694557
 20
-317.589728
 30
0.0
 11
475.194557
 21
-316.873852
 31
0.0
  0
LINE
  5
20C
100
AcDbEntity
  8
0
370
    -3
390
0
  6
Continuous
100
AcDbLine
 10
462.194557
 20
-233.362639
 30
0.0
 11
462.194557
 21
-313.87347
 31
0.0
  0
LINE
  5
20D
100
AcDbEntity
  8
0
370
    -3
390
0
  6
Continuous
100
AcDbLine
 10
574.339434
 20
-318.09102
 30
0.0
 11
609.194557
 21
-316.873852
 31
0.0
  0
LINE
  5
20E
100
AcDbEntity
  8
0
370
    -3
390
0
  6
Continuous
100
AcDbLine
 10
609.194557
 20
-257.520764
 30
0.0
 11
609.194557
 21
-316.873852
 31
0.0
  0
LINE
  5
20F
100
AcDbEntity
  8
0
370
    -3
390
0
  6
Continuous
100
AcDbLine
 10
621.195243
 20
-314.899295
 30
0.0
 11
609.194557
 21
-315.213544
 31
0.0
  0
LINE
  5
210
100
AcDbEntity
  8
0
370
    -3
390
0
  6
Continuous
100
AcDbLine
 10
621.195243
 20
-314.899295
 30
0.0
 11
622.194557
 21
-313.87347
 31
0.0
  0
LINE
  5
211
100
AcDbEntity
  8
0
370
    -3
390
0
  6
Continuous
100
AcDbLine
 10
622.194557
 20
-233.362639
 30
0.0
 11
622.194557
 21
-313.87347
 31
0.0
  0
LINE
  5
212
100
AcDbEntity
  8
0
370
    -3
390
0
  6
Continuous
100
AcDbLine
 10
627.194557
 20
-92.213544
 30
0.0
 11
627.194557
 21
-154.781575
 31
0.0
  0
LINE
  5
213
100
AcDbEntity
  8
0
370
    -3
390
0
  6
Continuous
100
AcDbLine
 10
608.694557
 20
-65.213544
 30
0.0
 11
621.195243
 21
-65.540886
 31
0.0
  0
LINE
  5
214
100
AcDbEntity
  8
0
370
    -3
390
0
  6
Continuous
100
AcDbLine
 10
608.694557
 20
-63.535775
 30
0.0
 11
608.694557
 21
-116.674398
 31
0.0
  0
LINE
  5
215
100
AcDbEntity
  8
0
370
    -3
390
0
  6
Continuous
100
AcDbLine
 10
621.195243
 20
-65.540886
 30
0.0
 11
622.194557
 21
-66.566711
 31
0.0
  0
LINE
  5
216
100
AcDbEntity
  8
0
370
    -3
390
0
  6
Continuous
100
AcDbLine
 10
622.194557
 20
-66.566711
 30
0.0
 11
621.195243
 21
-65.540886
 31
0.0
  0
LINE
  5
217
100
AcDbEntity
  8
0
370
    -3
390
0
  6
Continuous
100
AcDbLine
 10
622.194557
 20
-66.566711
 30
0.0
 11
622.194557
 21
-141.064449
 31
0.0
  0
LINE
  5
218
100
AcDbEntity
  8
0
370
    -3
390
0
  6
Continuous
100
AcDbLine
 10
622.194557
 20
-92.213544
 30
0.0
 11
627.194557
 21
-92.213544
 31
0.0
  0
LINE
  5
219
100
AcDbEntity
  8
0
370
    -3
390
0
  6
Continuous
100
AcDbLine
 10
462.194557
 20
-92.213544
 30
0.0
 11
457.194557
 21
-92.213544
 31
0.0
  0
LINE
  5
21A
100
AcDbEntity
  8
0
370
    -3
390
0
  6
Continuous
100
AcDbLine
 10
462.194557
 20
-66.566711
 30
0.0
 11
462.194557
 21
-141.064449
 31
0.0
  0
LINE
  5
21B
100
AcDbEntity
  8
0
370
    -3
390
0
  6
Continuous
100
AcDbLine
 10
457.194557
 20
-92.213544
 30
0.0
 11
457.194557
 21
-154.781575
 31
0.0
  0
LINE
  5
21C
100
AcDbEntity
  8
0
370
    -3
390
0
  6
Continuous
100
AcDbLine
 10
475.694557
 20
-63.535775
 30
0.0
 11
475.694557
 21
-116.674398
 31
0.0
  0
LINE
  5
21D
100
AcDbEntity
  8
0
370
    -3
390
0
  6
Continuous
100
AcDbLine
 10
475.694557
 20
-65.213544
 30
0.0
 11
463.193872
 21
-65.540886
 31
0.0
  0
LINE
  5
21E
100
AcDbEntity
  8
0
370
    -3
390
0
  6
Continuous
100
AcDbLine
 10
463.193872
 20
-65.540886
 30
0.0
 11
462.194557
 21
-66.566711
 31
0.0
  0
LINE
  5
21F
100
AcDbEntity
  8
0
370
    -3
390
0
  6
CENTER
100
AcDbLine
 10
436.903926
 20
-187.213544
 30
0.0
 11
641.198943
 21
-187.213544
 31
0.0
  0
LINE
  5
220
100
AcDbEntity
  8
0
370
    -3
390
0
  6
CENTER
100
AcDbLine
 10
542.194557
 20
-334.658757
 30
0.0
 11
542.194557
 21
-36.331495
 31
0.0
  0
LINE
  5
221
100
AcDbEntity
  8
0
370
    -3
390
0
  6
Continuous
100
AcDbLine
 10
8.114212
 20
100.019581
 30
0.0
 11
8.114212
 21
260.019581
 31
0.0
  0
LINE
  5
222
100
AcDbEntity
  8
0
370
    -3
390
0
  6
Continuous
100
AcDbLine
 10
8.114212
 20
258.019581
 30
0.0
 11
6.114212
 21
260.019581
 31
0.0
  0
LINE
  5
223
100
AcDbEntity
  8
0
370
    -3
390
0
  6
Continuous
100
AcDbLine
 10
6.114212
 20
100.019581
 30
0.0
 11
8.114212
 21
102.019581
 31
0.0
  0
LINE
  5
224
100
AcDbEntity
  8
0
370
    -3
390
0
  6
Continuous
100
AcDbLine
 10
8.114212
 20
102.019581
 30
0.0
 11
8.114212
 21
258.019581
 31
0.0
  0
LINE
  5
225
100
AcDbEntity
  8
0
370
    -3
390
0
  6
Continuous
100
AcDbLine
 10
-279.885788
 20
180.019581
 30
0.0
 11
1.114212
 21
180.019581
 31
0.0
  0
LINE
  5
226
100
AcDbEntity
  8
0
370
    -3
390
0
  6
Continuous
100
AcDbLine
 10
-0.885103
 20
180.071935
 30
0.0
 11
-0.965031
 21
177.019581
 31
0.0
  0
LINE
  5
227
100
AcDbEntity
  8
0
370
    -3
390
0
  6
Continuous
100
AcDbLine
 10
-277.886473
 20
180.071935
 30
0.0
 11
-277.806545
 21
177.019581
 31
0.0
  0
LINE
  5
228
100
AcDbEntity
  8
0
370
    -3
390
0
  6
Continuous
100
AcDbLine
 10
-279.80723
 20
177.019581
 30
0.0
 11
1.035654
 21
177.019581
 31
0.0
  0
LINE
  5
229
100
AcDbEntity
  8
0
370
    -3
390
0
  6
Continuous
100
AcDbLine
 10
-248.885788
 20
96.019581
 30
0.0
 11
-247.885788
 21
95.019581
 31
0.0
  0
LINE
  5
22A
100
AcDbEntity
  8
0
370
    -3
390
0
  6
Continuous
100
AcDbLine
 10
-279.80723
 20
177.019581
 30
0.0
 11
-278.144424
 21
113.519581
 31
0.0
  0
LINE
  5
22B
100
AcDbEntity
  8
0
370
    -3
390
0
  6
Continuous
100
AcDbLine
 10
-248.885788
 20
100.019581
 30
0.0
 11
-248.885788
 21
96.019581
 31
0.0
  0
LINE
  5
22C
100
AcDbEntity
  8
0
370
    -3
390
0
  6
Continuous
100
AcDbLine
 10
-275.885788
 20
113.519581
 30
0.0
 11
-275.558455
 21
101.019238
 31
0.0
  0
LINE
  5
22D
100
AcDbEntity
  8
0
370
    -3
390
0
  6
Continuous
100
AcDbLine
 10
-274.532278
 20
100.019581
 30
0.0
 11
-275.558455
 21
101.019238
 31
0.0
  0
LINE
  5
22E
100
AcDbEntity
  8
0
370
    -3
390
0
  6
Continuous
100
AcDbLine
 10
-99.885788
 20
95.019581
 30
0.0
 11
-98.885788
 21
96.019581
 31
0.0
  0
LINE
  5
22F
100
AcDbEntity
  8
0
370
    -3
390
0
  6
Continuous
100
AcDbLine
 10
-247.885788
 20
95.019581
 30
0.0
 11
-99.885788
 21
95.019581
 31
0.0
  0
LINE
  5
230
100
AcDbEntity
  8
0
370
    -3
390
0
  6
Continuous
100
AcDbLine
 10
-278.144424
 20
113.519581
 30
0.0
 11
-0.627152
 21
113.519581
 31
0.0
  0
LINE
  5
231
100
AcDbEntity
  8
0
370
    -3
390
0
  6
Continuous
100
AcDbLine
 10
1.035654
 20
177.019581
 30
0.0
 11
-0.627152
 21
113.519581
 31
0.0
  0
LINE
  5
232
100
AcDbEntity
  8
0
370
    -3
390
0
  6
Continuous
100
AcDbLine
 10
-98.885788
 20
100.019581
 30
0.0
 11
-98.885788
 21
96.019581
 31
0.0
  0
LINE
  5
233
100
AcDbEntity
  8
0
370
    -3
390
0
  6
Continuous
100
AcDbLine
 10
-3.213121
 20
101.019238
 30
0.0
 11
-2.885788
 21
113.519581
 31
0.0
  0
LINE
  5
234
100
AcDbEntity
  8
0
370
    -3
390
0
  6
Continuous
100
AcDbLine
 10
-4.239298
 20
100.019581
 30
0.0
 11
-3.213121
 21
101.019238
 31
0.0
  0
LINE
  5
235
100
AcDbEntity
  8
0
370
    -3
390
0
  6
Continuous
100
AcDbLine
 10
-274.532278
 20
100.019581
 30
0.0
 11
6.114212
 21
100.019581
 31
0.0
  0
LINE
  5
236
100
AcDbEntity
  8
0
370
    -3
390
0
  6
Continuous
100
AcDbLine
 10
-274.532278
 20
260.019581
 30
0.0
 11
-275.558455
 21
259.019924
 31
0.0
  0
LINE
  5
237
100
AcDbEntity
  8
0
370
    -3
390
0
  6
Continuous
100
AcDbLine
 10
-4.239298
 20
260.019581
 30
0.0
 11
-3.213121
 21
259.019924
 31
0.0
  0
LINE
  5
238
100
AcDbEntity
  8
0
370
    -3
390
0
  6
Continuous
100
AcDbLine
 10
-278.144424
 20
246.519581
 30
0.0
 11
-0.627152
 21
246.519581
 31
0.0
  0
LINE
  5
239
100
AcDbEntity
  8
0
370
    -3
390
0
  6
Continuous
100
AcDbLine
 10
-3.213121
 20
259.019924
 30
0.0
 11
-2.885788
 21
246.519581
 31
0.0
  0
LINE
  5
23A
100
AcDbEntity
  8
0
370
    -3
390
0
  6
Continuous
100
AcDbLine
 10
-275.885788
 20
246.519581
 30
0.0
 11
-275.558455
 21
259.019924
 31
0.0
  0
LINE
  5
23B
100
AcDbEntity
  8
0
370
    -3
390
0
  6
Continuous
100
AcDbLine
 10
-274.532278
 20
260.019581
 30
0.0
 11
6.114212
 21
260.019581
 31
0.0
  0
LINE
  5
23C
100
AcDbEntity
  8
0
370
    -3
390
0
  6
Continuous
100
AcDbLine
 10
-248.885788
 20
264.019581
 30
0.0
 11
-247.885788
 21
265.019581
 31
0.0
  0
LINE
  5
23D
100
AcDbEntity
  8
0
370
    -3
390
0
  6
Continuous
100
AcDbLine
 10
-99.885788
 20
265.019581
 30
0.0
 11
-98.885788
 21
264.019581
 31
0.0
  0
LINE
  5
23E
100
AcDbEntity
  8
0
370
    -3
390
0
  6
Continuous
100
AcDbLine
 10
-248.885788
 20
260.019581
 30
0.0
 11
-248.885788
 21
264.019581
 31
0.0
  0
LINE
  5
23F
100
AcDbEntity
  8
0
370
    -3
390
0
  6
Continuous
100
AcDbLine
 10
-98.885788
 20
260.019581
 30
0.0
 11
-98.885788
 21
264.019581
 31
0.0
  0
LINE
  5
240
100
AcDbEntity
  8
0
370
    -3
390
0
  6
CENTER
100
AcDbLine
 10
-173.885788
 20
5.126749
 30
0.0
 11
-173.885788
 21
276.391842
 31
0.0
  0
LINE
  5
241
100
AcDbEntity
  8
0
370
    -3
390
0
  6
Continuous
100
AcDbLine
 10
-247.885788
 20
265.019581
 30
0.0
 11
-99.885788
 21
265.019581
 31
0.0
  0
LINE
  5
242
100
AcDbEntity
  8
0
370
    -3
390
0
  6
Continuous
100
AcDbLine
 10
1.114212
 20
180.019581
 30
0.0
 11
-0.627152
 21
246.519581
 31
0.0
  0
LINE
  5
243
100
AcDbEntity
  8
0
370
    -3
390
0
  6
Continuous
100
AcDbLine
 10
-279.885788
 20
180.019581
 30
0.0
 11
-278.144424
 21
246.519581
 31
0.0
  0
LINE
  5
244
100
AcDbEntity
  8
0
370
    -3
390
0
  6
CENTER
100
AcDbLine
 10
-297.771637
 20
180.019581
 30
0.0
 11
351.42455
 21
180.019581
 31
0.0
  0
LINE
  5
245
100
AcDbEntity
  8
0
370
    -3
390
0
  6
Continuous
100
AcDbLine
 10
-148.885788
 20
18.019581
 30
0.0
 11
-198.885788
 21
18.019581
 31
0.0
  0
LINE
  5
246
100
AcDbEntity
  8
0
370
    -3
390
0
  6
Continuous
100
AcDbLine
 10
-148.885788
 20
93.019581
 30
0.0
 11
-148.885788
 21
18.019581
 31
0.0
  0
LINE
  5
247
100
AcDbEntity
  8
0
370
    -3
390
0
  6
Continuous
100
AcDbLine
 10
-147.885788
 20
95.019581
 30
0.0
 11
-147.885788
 21
93.019581
 31
0.0
  0
LINE
  5
248
100
AcDbEntity
  8
0
370
    -3
390
0
  6
Continuous
100
AcDbLine
 10
-180.885788
 20
81.019581
 30
0.0
 11
-166.885788
 21
81.019581
 31
0.0
  0
LINE
  5
249
100
AcDbEntity
  8
0
370
    -3
390
0
  6
Continuous
100
AcDbLine
 10
-198.885788
 20
93.019581
 30
0.0
 11
-198.885788
 21
18.019581
 31
0.0
  0
LINE
  5
24A
100
AcDbEntity
  8
0
370
    -3
390
0
  6
Continuous
100
AcDbLine
 10
-199.885788
 20
95.019581
 30
0.0
 11
-199.885788
 21
93.019581
 31
0.0
  0
LINE
  5
24B
100
AcDbEntity
  8
0
370
    -3
390
0
  6
Continuous
100
AcDbLine
 10
-147.885788
 20
93.019581
 30
0.0
 11
-199.885788
 21
93.019581
 31
0.0
  0
LINE
  5
24C
100
AcDbEntity
  8
0
370
    -3
390
0
  6
Continuous
100
AcDbLine
 10
-180.885788
 20
18.019581
 30
0.0
 11
-180.885788
 21
81.019581
 31
0.0
  0
LINE
  5
24D
100
AcDbEntity
  8
0
370
    -3
390
0
  6
Continuous
100
AcDbLine
 10
-166.885788
 20
18.019581
 30
0.0
 11
-166.885788
 21
81.019581
 31
0.0
  0
ARC
  5
24E
100
AcDbEntity
  8
0
370
    -3
390
0
  6
Continuous
100
AcDbCircle
 10
-173.885788
 20
81.019581
 30
0.0
 40
7.0
100
AcDbArc
 50
0.0
 51
180.0
  0
LINE
  5
24F
100
AcDbEntity
  8
0
370
    -3
390
0
  6
Continuous
100
AcDbLine
 10
539.194587
 20
-319.108782
 30
0.0
 11
475.194587
 21
-316.873852
 31
0.0
  0
LINE
  5
250
100
AcDbEntity
  8
0
370
    -3
390
0
  6
Continuous
100
AcDbLine
 10
539.194587
 20
-274.502029
 30
0.0
 11
539.194587
 21
-319.108782
 31
0.0
  0
LINE
  5
251
100
AcDbEntity
  8
0
370
    -3
390
0
  6
Continuous
100
AcDbLine
 10
542.194587
 20
-274.513544
 30
0.0
 11
542.194587
 21
-319.213544
 31
0.0
  0
LINE
  5
252
100
AcDbEntity
  8
0
370
    -3
390
0
  6
Continuous
100
AcDbLine
 10
542.194587
 20
-319.213544
 30
0.0
 11
609.194587
 21
-316.873852
 31
0.0
  0
LINE
  5
253
100
AcDbEntity
  8
0
370
    -3
390
0
  6
Continuous
100
AcDbLine
 10
539.198698
 20
-317.370552
 30
0.0
 11
542.194587
 21
-317.213544
 31
0.0
  0
LINE
  5
254
100
AcDbEntity
  8
0
370
    -3
390
0
  6
Continuous
100
AcDbLine
 10
455.194587
 20
-142.213544
 30
0.0
 11
380.194587
 21
-142.213544
 31
0.0
  0
LINE
  5
255
100
AcDbEntity
  8
0
370
    -3
390
0
  6
Continuous
100
AcDbLine
 10
457.194587
 20
-141.213544
 30
0.0
 11
455.194587
 21
-141.213544
 31
0.0
  0
LINE
  5
256
100
AcDbEntity
  8
0
370
    -3
390
0
  6
Continuous
100
AcDbLine
 10
455.194587
 20
-141.213544
 30
0.0
 11
455.194587
 21
-171.902998
 31
0.0
  0
LINE
  5
257
100
AcDbEntity
  8
0
370
    -3
390
0
  6
Continuous
100
AcDbLine
 10
454.926544
 20
-192.213544
 30
0.0
 11
380.194587
 21
-192.213544
 31
0.0
  0
LINE
  5
258
100
AcDbEntity
  8
0
370
    -3
390
0
  6
Continuous
100
AcDbLine
 10
380.194587
 20
-138.713544
 30
0.0
 11
380.194587
 21
-192.213544
 31
0.0
  0
LINE
  5
259
100
AcDbEntity
  8
0
370
    -3
390
0
  6
Continuous
100
AcDbLine
 10
443.194587
 20
-142.213544
 30
0.0
 11
443.194587
 21
-138.713544
 31
0.0
  0
LINE
  5
25A
100
AcDbEntity
  8
0
370
    -3
390
0
  6
Continuous
100
AcDbLine
 10
443.194587
 20
-138.713544
 30
0.0
 11
380.194587
 21
-138.713544
 31
0.0
  0
LINE
  5
25B
100
AcDbEntity
  8
0
370
    -3
390
0
  6
CENTER
100
AcDbLine
 10
367.268684
 20
-167.213544
 30
0.0
 11
642.864476
 21
-167.213544
 31
0.0
  0
LINE
  5
25C
100
AcDbEntity
  8
0
370
    -3
390
0
  6
Continuous
100
AcDbLine
 10
26.114212
 20
157.519581
 30
0.0
 11
26.114212
 21
96.519581
 31
0.0
  0
INSERT
  5
268
100
AcDbEntity
  8
0
390
0
100
AcDbBlockReference
  2
ZU_SYM__USR_MELCAD_MD_SYM_SYM_SYM1_00
 10
34.114212
 20
169.519581
 30
0.0
 50
180.0
  0
LINE
  5
269
100
AcDbEntity
  8
0
370
    -3
390
0
  6
CENTER
100
AcDbLine
 10
47.293757
 20
169.519581
 30
0.0
 11
14.553968
 21
169.519581
 31
0.0
  0
INSERT
  5
275
100
AcDbEntity
  8
0
390
0
100
AcDbBlockReference
  2
ZU_SYM__USR_MELCAD_MD_SYM_SYM_SYM1_0000600
 10
34.114212
 20
190.519581
 30
0.0
 41
-1.0
  0
LINE
  5
276
100
AcDbEntity
  8
0
370
    -3
390
0
  6
Continuous
100
AcDbLine
 10
26.114212
 20
157.519581
 30
0.0
 11
26.114212
 21
109.019676
 31
0.0
  0
LINE
  5
277
100
AcDbEntity
  8
0
370
    -3
390
0
  6
Continuous
100
AcDbLine
 10
34.114212
 20
157.519581
 30
0.0
 11
25.114212
 21
157.519581
 31
0.0
  0
LINE
  5
278
100
AcDbEntity
  8
0
370
    -3
390
0
  6
Continuous
100
AcDbLine
 10
34.114212
 20
202.519581
 30
0.0
 11
25.114212
 21
202.519581
 31
0.0
  0
LINE
  5
279
100
AcDbEntity
  8
0
370
    -3
390
0
  6
Continuous
100
AcDbLine
 10
34.114212
 20
202.519581
 30
0.0
 11
34.114212
 21
157.519581
 31
0.0
  0
LINE
  5
27A
100
AcDbEntity
  8
0
370
    -3
390
0
  6
CENTER
100
AcDbLine
 10
47.293757
 20
190.519581
 30
0.0
 11
14.553968
 21
190.519581
 31
0.0
  0
ARC
  5
27B
100
AcDbEntity
  8
0
370
    -3
390
0
  6
Continuous
100
AcDbCircle
 10
22.114212
 20
160.519581
 30
0.0
 40
3.0
100
AcDbArc
 50
270.0
 51
0.0
  0
ARC
  5
27C
100
AcDbEntity
  8
0
370
    -3
390
0
  6
Continuous
100
AcDbCircle
 10
22.114212
 20
199.519581
 30
0.0
 40
3.0
100
AcDbArc
 50
0.0
 51
90.0
  0
LINE
  5
27D
100
AcDbEntity
  8
0
370
    -3
390
0
  6
Continuous
100
AcDbLine
 10
22.114212
 20
157.519581
 30
0.0
 11
10.114212
 21
157.519581
 31
0.0
  0
LINE
  5
27E
100
AcDbEntity
  8
0
370
    -3
390
0
  6
Continuous
100
AcDbLine
 10
22.114212
 20
202.519581
 30
0.0
 11
10.114212
 21
202.519581
 31
0.0
  0
LINE
  5
27F
100
AcDbEntity
  8
0
370
    -3
390
0
  6
Continuous
100
AcDbLine
 10
25.114212
 20
202.519581
 30
0.0
 11
25.114212
 21
157.519581
 31
0.0
  0
LINE
  5
280
100
AcDbEntity
  8
0
370
    -3
390
0
  6
Continuous
100
AcDbLine
 10
10.202774
 20
97.931019
 30
0.0
 11
8.114212
 21
100.019581
 31
0.0
  0
ARC
  5
281
100
AcDbEntity
  8
0
370
    -3
390
0
  6
Continuous
100
AcDbCircle
 10
12.114212
 20
98.519581
 30
0.0
 40
2.0
100
AcDbArc
 50
180.0
 51
270.0
  0
LINE
  5
282
100
AcDbEntity
  8
0
370
    -3
390
0
  6
Continuous
100
AcDbLine
 10
23.114212
 20
96.519581
 30
0.0
 11
12.114212
 21
96.519581
 31
0.0
  0
LINE
  5
283
100
AcDbEntity
  8
0
370
    -3
390
0
  6
Continuous
100
AcDbLine
 10
10.114212
 20
180.019581
 30
0.0
 11
10.114212
 21
98.519581
 31
0.0
  0
LINE
  5
284
100
AcDbEntity
  8
0
370
    -3
390
0
  6
Continuous
100
AcDbLine
 10
25.114212
 20
157.519581
 30
0.0
 11
25.114212
 21
98.519581
 31
0.0
  0
ARC
  5
285
100
AcDbEntity
  8
0
370
    -3
390
0
  6
Continuous
100
AcDbCircle
 10
26.114212
 20
108.019676
 30
0.0
 40
1.0
100
AcDbArc
 50
90.0
 51
180.0
  0
ARC
  5
286
100
AcDbEntity
  8
0
370
    -3
390
0
  6
Continuous
100
AcDbCircle
 10
23.114212
 20
98.519581
 30
0.0
 40
2.0
100
AcDbArc
 50
270.0
 51
0.0
  0
LINE
  5
287
100
AcDbEntity
  8
0
370
    -3
390
0
  6
Continuous
100
AcDbLine
 10
10.114212
 20
180.019581
 30
0.0
 11
10.114212
 21
261.519581
 31
0.0
  0
LINE
  5
288
100
AcDbEntity
  8
0
370
    -3
390
0
  6
Continuous
100
AcDbLine
 10
26.114212
 20
202.519581
 30
0.0
 11
26.114212
 21
263.519581
 31
0.0
  0
LINE
  5
289
100
AcDbEntity
  8
0
370
    -3
390
0
  6
Continuous
100
AcDbLine
 10
25.114212
 20
202.519581
 30
0.0
 11
25.114212
 21
261.519581
 31
0.0
  0
ARC
  5
28A
100
AcDbEntity
  8
0
370
    -3
390
0
  6
Continuous
100
AcDbCircle
 10
23.114212
 20
261.519581
 30
0.0
 40
2.0
100
AcDbArc
 50
0.0
 51
90.0
  0
LINE
  5
28B
100
AcDbEntity
  8
0
370
    -3
390
0
  6
Continuous
100
AcDbLine
 10
23.114212
 20
263.519581
 30
0.0
 11
12.114212
 21
263.519581
 31
0.0
  0
ARC
  5
28C
100
AcDbEntity
  8
0
370
    -3
390
0
  6
Continuous
100
AcDbCircle
 10
26.114212
 20
252.019486
 30
0.0
 40
1.0
100
AcDbArc
 50
180.0
 51
270.0
  0
LINE
  5
28D
100
AcDbEntity
  8
0
370
    -3
390
0
  6
Continuous
100
AcDbLine
 10
10.202774
 20
262.108143
 30
0.0
 11
8.114212
 21
260.019581
 31
0.0
  0
ARC
  5
28E
100
AcDbEntity
  8
0
370
    -3
390
0
  6
Continuous
100
AcDbCircle
 10
12.114212
 20
261.519581
 30
0.0
 40
2.0
100
AcDbArc
 50
90.0
 51
180.0
  0
LINE
  5
28F
100
AcDbEntity
  8
0
370
    -3
390
0
  6
Continuous
100
AcDbLine
 10
26.114212
 20
238.827726
 30
0.0
 11
144.066924
 21
238.827726
 31
0.0
  0
LINE
  5
290
100
AcDbEntity
  8
0
370
    -3
390
0
  6
Continuous
100
AcDbLine
 10
26.114212
 20
226.157305
 30
0.0
 11
139.664212
 21
226.157305
 31
0.0
  0
LINE
  5
291
100
AcDbEntity
  8
0
370
    -3
390
0
  6
Continuous
100
AcDbLine
 10
26.114212
 20
223.934979
 30
0.0
 11
139.664212
 21
223.934979
 31
0.0
  0
LINE
  5
292
100
AcDbEntity
  8
0
370
    -3
390
0
  6
Continuous
100
AcDbLine
 10
26.114212
 20
216.124519
 30
0.0
 11
139.664212
 21
216.124519
 31
0.0
  0
LINE
  5
293
100
AcDbEntity
  8
0
370
    -3
390
0
  6
Continuous
100
AcDbLine
 10
186.114212
 20
150.019581
 30
0.0
 11
221.164212
 21
150.019581
 31
0.0
  0
LINE
  5
294
100
AcDbEntity
  8
0
370
    -3
390
0
  6
Continuous
100
AcDbLine
 10
186.114212
 20
150.019581
 30
0.0
 11
151.064212
 21
150.019581
 31
0.0
  0
LINE
  5
295
100
AcDbEntity
  8
0
370
    -3
390
0
  6
Continuous
100
AcDbLine
 10
26.114212
 20
263.519581
 30
0.0
 11
196.114213
 21
263.519581
 31
0.0
  0
LINE
  5
296
100
AcDbEntity
  8
0
370
    -3
390
0
  6
Continuous
100
AcDbLine
 10
26.114212
 20
204.019581
 30
0.0
 11
139.664212
 21
204.019581
 31
0.0
  0
LINE
  5
297
100
AcDbEntity
  8
0
370
    -3
390
0
  6
Continuous
100
AcDbLine
 10
26.114212
 20
213.957809
 30
0.0
 11
139.916337
 21
213.957809
 31
0.0
  0
LINE
  5
298
100
AcDbEntity
  8
0
370
    -3
390
0
  6
Continuous
100
AcDbLine
 10
26.114212
 20
245.898794
 30
0.0
 11
196.114213
 21
245.898794
 31
0.0
  0
LINE
  5
299
100
AcDbEntity
  8
0
370
    -3
390
0
  6
Continuous
100
AcDbLine
 10
26.114212
 20
255.019581
 30
0.0
 11
196.114213
 21
255.019581
 31
0.0
  0
LINE
  5
29A
100
AcDbEntity
  8
0
370
    -3
390
0
  6
Continuous
100
AcDbLine
 10
26.114212
 20
260.019581
 30
0.0
 11
196.114213
 21
260.019581
 31
0.0
  0
LINE
  5
29B
100
AcDbEntity
  8
0
370
    -3
390
0
  6
Continuous
100
AcDbLine
 10
26.114212
 20
262.519581
 30
0.0
 11
196.114213
 21
262.519581
 31
0.0
  0
LINE
  5
29C
100
AcDbEntity
  8
0
370
    -3
390
0
  6
Continuous
100
AcDbLine
 10
26.114212
 20
263.019581
 30
0.0
 11
196.114213
 21
263.019581
 31
0.0
  0
LINE
  5
29D
100
AcDbEntity
  8
0
370
    -3
390
0
  6
Continuous
100
AcDbLine
 10
26.114212
 20
156.019581
 30
0.0
 11
139.664212
 21
156.019581
 31
0.0
  0
LINE
  5
29E
100
AcDbEntity
  8
0
370
    -3
390
0
  6
Continuous
100
AcDbLine
 10
26.114212
 20
121.211436
 30
0.0
 11
196.114213
 21
121.211436
 31
0.0
  0
LINE
  5
29F
100
AcDbEntity
  8
0
370
    -3
390
0
  6
Continuous
100
AcDbLine
 10
26.114212
 20
136.104184
 30
0.0
 11
196.114213
 21
136.104184
 31
0.0
  0
LINE
  5
2A0
100
AcDbEntity
  8
0
370
    -3
390
0
  6
Continuous
100
AcDbLine
 10
26.114212
 20
133.881857
 30
0.0
 11
196.114213
 21
133.881857
 31
0.0
  0
LINE
  5
2A1
100
AcDbEntity
  8
0
370
    -3
390
0
  6
Continuous
100
AcDbLine
 10
26.114212
 20
143.914643
 30
0.0
 11
140.630521
 21
143.914643
 31
0.0
  0
LINE
  5
2A2
100
AcDbEntity
  8
0
370
    -3
390
0
  6
Continuous
100
AcDbLine
 10
26.114212
 20
146.081353
 30
0.0
 11
139.916337
 21
146.081353
 31
0.0
  0
LINE
  5
2A3
100
AcDbEntity
  8
0
370
    -3
390
0
  6
Continuous
100
AcDbLine
 10
26.114212
 20
114.140369
 30
0.0
 11
196.114213
 21
114.140369
 31
0.0
  0
LINE
  5
2A4
100
AcDbEntity
  8
0
370
    -3
390
0
  6
Continuous
100
AcDbLine
 10
26.114212
 20
105.019581
 30
0.0
 11
196.114213
 21
105.019581
 31
0.0
  0
LINE
  5
2A5
100
AcDbEntity
  8
0
370
    -3
390
0
  6
Continuous
100
AcDbLine
 10
26.114212
 20
100.019581
 30
0.0
 11
196.114213
 21
100.019581
 31
0.0
  0
LINE
  5
2A6
100
AcDbEntity
  8
0
370
    -3
390
0
  6
Continuous
100
AcDbLine
 10
26.114212
 20
97.519581
 30
0.0
 11
196.114213
 21
97.519581
 31
0.0
  0
LINE
  5
2A7
100
AcDbEntity
  8
0
370
    -3
390
0
  6
Continuous
100
AcDbLine
 10
26.114212
 20
97.019581
 30
0.0
 11
196.114213
 21
97.019581
 31
0.0
  0
LINE
  5
2A8
100
AcDbEntity
  8
0
370
    -3
390
0
  6
Continuous
100
AcDbLine
 10
26.114212
 20
96.519581
 30
0.0
 11
196.114213
 21
96.519581
 31
0.0
  0
LINE
  5
2A9
100
AcDbEntity
  8
0
370
    -3
390
0
  6
Continuous
100
AcDbLine
 10
196.114213
 20
92.719581
 30
0.0
 11
196.114213
 21
137.422973
 31
0.0
  0
LINE
  5
2AA
100
AcDbEntity
  8
0
370
    -3
390
0
  6
Continuous
100
AcDbLine
 10
302.182245
 20
92.719581
 30
0.0
 11
196.114213
 21
92.719581
 31
0.0
  0
LINE
  5
2AB
100
AcDbEntity
  8
0
370
    -3
390
0
  6
Continuous
100
AcDbLine
 10
196.114213
 20
267.319581
 30
0.0
 11
196.114213
 21
241.025693
 31
0.0
  0
LINE
  5
2AC
100
AcDbEntity
  8
0
370
    -3
390
0
  6
Continuous
100
AcDbLine
 10
302.182245
 20
267.319581
 30
0.0
 11
196.114213
 21
267.319581
 31
0.0
  0
LINE
  5
2AD
100
AcDbEntity
  8
0
370
    -3
390
0
  6
Continuous
100
AcDbLine
 10
221.564212
 20
137.422973
 30
0.0
 11
186.114212
 21
137.422973
 31
0.0
  0
LINE
  5
2AE
100
AcDbEntity
  8
0
370
    -3
390
0
  6
Continuous
100
AcDbLine
 10
186.114212
 20
143.517792
 30
0.0
 11
221.164212
 21
143.517792
 31
0.0
  0
LINE
  5
2AF
100
AcDbEntity
  8
0
370
    -3
390
0
  6
Continuous
100
AcDbLine
 10
226.164212
 20
148.517792
 30
0.0
 11
226.164212
 21
224.595536
 31
0.0
  0
LINE
  5
2B0
100
AcDbEntity
  8
0
370
    -3
390
0
  6
Continuous
100
AcDbLine
 10
232.564212
 20
148.422973
 30
0.0
 11
232.564212
 21
230.025693
 31
0.0
  0
LINE
  5
2B1
100
AcDbEntity
  8
0
370
    -3
390
0
  6
Continuous
100
AcDbLine
 10
221.564212
 20
241.025693
 30
0.0
 11
186.114212
 21
241.025693
 31
0.0
  0
LINE
  5
2B2
100
AcDbEntity
  8
0
370
    -3
390
0
  6
Continuous
100
AcDbLine
 10
221.564212
 20
239.805483
 30
0.0
 11
186.114212
 21
239.805483
 31
0.0
  0
LINE
  5
2B3
100
AcDbEntity
  8
0
370
    -3
390
0
  6
Continuous
100
AcDbLine
 10
194.601686
 20
229.595536
 30
0.0
 11
221.164212
 21
229.595536
 31
0.0
  0
LINE
  5
2B4
100
AcDbEntity
  8
0
370
    -3
390
0
  6
CENTER
100
AcDbLine
 10
186.114212
 20
134.519981
 30
0.0
 11
186.114212
 21
247.173701
 31
0.0
  0
LINE
  5
2B5
100
AcDbEntity
  8
0
370
    -3
390
0
  6
Continuous
100
AcDbLine
 10
188.114212
 20
234.454479
 30
0.0
 11
184.114212
 21
230.800298
 31
0.0
  0
LINE
  5
2B6
100
AcDbEntity
  8
0
370
    -3
390
0
  6
Continuous
100
AcDbLine
 10
184.114212
 20
234.454479
 30
0.0
 11
188.114212
 21
230.800298
 31
0.0
  0
LINE
  5
2B7
100
AcDbEntity
  8
0
370
    -3
390
0
  6
Continuous
100
AcDbLine
 10
146.064212
 20
148.517792
 30
0.0
 11
146.064212
 21
224.595536
 31
0.0
  0
LINE
  5
2B8
100
AcDbEntity
  8
0
370
    -3
390
0
  6
Continuous
100
AcDbLine
 10
177.626738
 20
229.595536
 30
0.0
 11
151.064212
 21
229.595536
 31
0.0
  0
LINE
  5
2B9
100
AcDbEntity
  8
0
370
    -3
390
0
  6
Continuous
100
AcDbLine
 10
186.114212
 20
143.517792
 30
0.0
 11
151.064212
 21
143.517792
 31
0.0
  0
LINE
  5
2BA
100
AcDbEntity
  8
0
370
    -3
390
0
  6
Continuous
100
AcDbLine
 10
150.664212
 20
137.422973
 30
0.0
 11
186.114212
 21
137.422973
 31
0.0
  0
LINE
  5
2BB
100
AcDbEntity
  8
0
370
    -3
390
0
  6
Continuous
100
AcDbLine
 10
139.664212
 20
148.422973
 30
0.0
 11
139.664212
 21
230.025693
 31
0.0
  0
LINE
  5
2BC
100
AcDbEntity
  8
0
370
    -3
390
0
  6
Continuous
100
AcDbLine
 10
150.664212
 20
241.025693
 30
0.0
 11
186.114212
 21
241.025693
 31
0.0
  0
LINE
  5
2BD
100
AcDbEntity
  8
0
370
    -3
390
0
  6
Continuous
100
AcDbLine
 10
150.664212
 20
239.805483
 30
0.0
 11
186.114212
 21
239.805483
 31
0.0
  0
LINE
  5
2BE
100
AcDbEntity
  8
0
370
    -3
390
0
  6
Continuous
100
AcDbLine
 10
339.214213
 20
107.788216
 30
0.0
 11
322.582245
 21
98.185745
 31
0.0
  0
LINE
  5
2BF
100
AcDbEntity
  8
0
370
    -3
390
0
  6
Continuous
100
AcDbLine
 10
341.114213
 20
111.079112
 30
0.0
 11
341.114213
 21
180.019581
 31
0.0
  0
LINE
  5
2C0
100
AcDbEntity
  8
0
370
    -3
390
0
  6
Continuous
100
AcDbLine
 10
221.614212
 20
248.891782
 30
0.0
 11
223.543417
 21
250.102444
 31
0.0
  0
LINE
  5
2C1
100
AcDbEntity
  8
0
370
    -3
390
0
  6
Continuous
100
AcDbLine
 10
221.614212
 20
248.891782
 30
0.0
 11
223.614212
 21
247.318444
 31
0.0
  0
LINE
  5
2C2
100
AcDbEntity
  8
0
370
    -3
390
0
  6
Continuous
100
AcDbLine
 10
221.614212
 20
248.891782
 30
0.0
 11
219.685007
 21
250.102444
 31
0.0
  0
LINE
  5
2C3
100
AcDbEntity
  8
0
370
    -3
390
0
  6
Continuous
100
AcDbLine
 10
221.614212
 20
248.891782
 30
0.0
 11
219.614212
 21
247.318444
 31
0.0
  0
LINE
  5
2C4
100
AcDbEntity
  8
0
370
    -3
390
0
  6
Continuous
100
AcDbLine
 10
217.114212
 20
247.053304
 30
0.0
 11
217.114212
 21
246.487618
 31
0.0
  0
LINE
  5
2C5
100
AcDbEntity
  8
0
370
    -3
390
0
  6
Continuous
100
AcDbLine
 10
226.114212
 20
247.053304
 30
0.0
 11
226.114212
 21
246.487618
 31
0.0
  0
LINE
  5
2C6
100
AcDbEntity
  8
0
370
    -3
390
0
  6
Continuous
100
AcDbLine
 10
216.614212
 20
246.487618
 30
0.0
 11
216.614212
 21
245.671015
 31
0.0
  0
LINE
  5
2C7
100
AcDbEntity
  8
0
370
    -3
390
0
  6
Continuous
100
AcDbLine
 10
226.614212
 20
246.487618
 30
0.0
 11
226.614212
 21
245.671015
 31
0.0
  0
LINE
  5
2C8
100
AcDbEntity
  8
0
370
    -3
390
0
  6
Continuous
100
AcDbLine
 10
221.614212
 20
111.14738
 30
0.0
 11
223.543417
 21
109.936718
 31
0.0
  0
LINE
  5
2C9
100
AcDbEntity
  8
0
370
    -3
390
0
  6
Continuous
100
AcDbLine
 10
221.614212
 20
111.14738
 30
0.0
 11
223.614212
 21
112.720718
 31
0.0
  0
LINE
  5
2CA
100
AcDbEntity
  8
0
370
    -3
390
0
  6
Continuous
100
AcDbLine
 10
221.614212
 20
111.14738
 30
0.0
 11
219.685007
 21
109.936718
 31
0.0
  0
LINE
  5
2CB
100
AcDbEntity
  8
0
370
    -3
390
0
  6
Continuous
100
AcDbLine
 10
221.614212
 20
111.14738
 30
0.0
 11
219.614212
 21
112.720718
 31
0.0
  0
LINE
  5
2CC
100
AcDbEntity
  8
0
370
    -3
390
0
  6
Continuous
100
AcDbLine
 10
217.114212
 20
112.985858
 30
0.0
 11
217.114212
 21
113.551544
 31
0.0
  0
LINE
  5
2CD
100
AcDbEntity
  8
0
370
    -3
390
0
  6
Continuous
100
AcDbLine
 10
226.114212
 20
112.985858
 30
0.0
 11
226.114212
 21
113.551544
 31
0.0
  0
LINE
  5
2CE
100
AcDbEntity
  8
0
370
    -3
390
0
  6
Continuous
100
AcDbLine
 10
216.614212
 20
113.551544
 30
0.0
 11
216.614212
 21
114.368147
 31
0.0
  0
LINE
  5
2CF
100
AcDbEntity
  8
0
370
    -3
390
0
  6
Continuous
100
AcDbLine
 10
226.614212
 20
113.551544
 30
0.0
 11
226.614212
 21
114.368147
 31
0.0
  0
LINE
  5
2D0
100
AcDbEntity
  8
0
370
    -3
390
0
  6
Continuous
100
AcDbLine
 10
339.214213
 20
252.250947
 30
0.0
 11
322.582245
 21
261.853418
 31
0.0
  0
LINE
  5
2D1
100
AcDbEntity
  8
0
370
    -3
390
0
  6
Continuous
100
AcDbLine
 10
341.114213
 20
248.96005
 30
0.0
 11
341.114213
 21
180.019581
 31
0.0
  0
ARC
  5
2D2
100
AcDbEntity
  8
0
370
    -3
390
0
  6
Continuous
100
AcDbCircle
 10
221.164212
 20
155.019581
 30
0.0
 40
5.0
100
AcDbArc
 50
270.0
 51
0.0
  0
ARC
  5
2D3
100
AcDbEntity
  8
0
370
    -3
390
0
  6
Continuous
100
AcDbCircle
 10
151.064212
 20
155.019581
 30
0.0
 40
5.0
100
AcDbArc
 50
180.0
 51
270.0
  0
ARC
  5
2D4
100
AcDbEntity
  8
0
370
    -3
390
0
  6
Continuous
100
AcDbCircle
 10
221.564212
 20
148.422973
 30
0.0
 40
11.0
100
AcDbArc
 50
270.0
 51
0.0
  0
ARC
  5
2D5
100
AcDbEntity
  8
0
370
    -3
390
0
  6
Continuous
100
AcDbCircle
 10
221.164212
 20
148.517792
 30
0.0
 40
5.0
100
AcDbArc
 50
270.0
 51
0.0
  0
ARC
  5
2D6
100
AcDbEntity
  8
0
370
    -3
390
0
  6
Continuous
100
AcDbCircle
 10
221.564212
 20
228.805483
 30
0.0
 40
11.0
100
AcDbArc
 50
0.0
 51
90.0
  0
ARC
  5
2D7
100
AcDbEntity
  8
0
370
    -3
390
0
  6
Continuous
100
AcDbCircle
 10
221.564212
 20
230.025693
 30
0.0
 40
11.0
100
AcDbArc
 50
0.0
 51
90.0
  0
ARC
  5
2D8
100
AcDbEntity
  8
0
370
    -3
390
0
  6
Continuous
100
AcDbCircle
 10
221.164212
 20
224.595536
 30
0.0
 40
5.0
100
AcDbArc
 50
0.0
 51
90.0
  0
ARC
  5
2D9
100
AcDbEntity
  8
0
370
    -3
390
0
  6
Continuous
100
AcDbCircle
 10
176.853994
 20
225.595536
 30
0.0
 40
4.0
100
AcDbArc
 50
41.178434
 51
90.0
  0
ARC
  5
2DA
100
AcDbEntity
  8
0
370
    -3
390
0
  6
Continuous
100
AcDbCircle
 10
177.626738
 20
225.595536
 30
0.0
 40
4.0
100
AcDbArc
 50
46.698421
 51
90.0
  0
ARC
  5
2DB
100
AcDbEntity
  8
0
370
    -3
390
0
  6
Continuous
100
AcDbCircle
 10
194.601686
 20
225.595536
 30
0.0
 40
4.0
100
AcDbArc
 50
90.0
 51
133.301579
  0
ARC
  5
2DC
100
AcDbEntity
  8
0
370
    -3
390
0
  6
Continuous
100
AcDbCircle
 10
195.37443
 20
225.595536
 30
0.0
 40
4.0
100
AcDbArc
 50
90.0
 51
138.821566
  0
ARC
  5
2DD
100
AcDbEntity
  8
0
370
    -3
390
0
  6
Continuous
100
AcDbCircle
 10
150.664212
 20
230.025693
 30
0.0
 40
11.0
100
AcDbArc
 50
90.0
 51
180.0
  0
ARC
  5
2DE
100
AcDbEntity
  8
0
370
    -3
390
0
  6
Continuous
100
AcDbCircle
 10
150.664212
 20
228.805483
 30
0.0
 40
11.0
100
AcDbArc
 50
90.0
 51
180.0
  0
ARC
  5
2DF
100
AcDbEntity
  8
0
370
    -3
390
0
  6
Continuous
100
AcDbCircle
 10
151.064212
 20
224.595536
 30
0.0
 40
5.0
100
AcDbArc
 50
90.0
 51
180.0
  0
ARC
  5
2E0
100
AcDbEntity
  8
0
370
    -3
390
0
  6
Continuous
100
AcDbCircle
 10
151.064212
 20
148.517792
 30
0.0
 40
5.0
100
AcDbArc
 50
180.0
 51
270.0
  0
ARC
  5
2E1
100
AcDbEntity
  8
0
370
    -3
390
0
  6
Continuous
100
AcDbCircle
 10
150.664212
 20
148.422973
 30
0.0
 40
11.0
100
AcDbArc
 50
180.0
 51
270.0
  0
ARC
  5
2E2
100
AcDbEntity
  8
0
370
    -3
390
0
  6
Continuous
100
AcDbCircle
 10
337.314213
 20
111.079112
 30
0.0
 40
3.8
100
AcDbArc
 50
300.0
 51
0.0
  0
ARC
  5
2E3
100
AcDbEntity
  8
0
370
    -3
390
0
  6
Continuous
100
AcDbCircle
 10
302.182245
 20
133.519581
 30
0.0
 40
40.8
100
AcDbArc
 50
270.0
 51
300.0
  0
ARC
  5
2E4
100
AcDbEntity
  8
0
370
    -3
390
0
  6
Continuous
100
AcDbCircle
 10
337.314213
 20
248.96005
 30
0.0
 40
3.8
100
AcDbArc
 50
0.0
 51
60.0
  0
ARC
  5
2E5
100
AcDbEntity
  8
0
370
    -3
390
0
  6
Continuous
100
AcDbCircle
 10
302.182245
 20
226.519581
 30
0.0
 40
40.8
100
AcDbArc
 50
60.0
 51
90.0
  0
LINE
  5
2E6
100
AcDbEntity
  8
0
370
    -3
390
0
  6
Continuous
100
AcDbLine
 10
184.687361
 20
225.600489
 30
0.0
 11
186.114212
 21
225.483306
 31
0.0
  0
LINE
  5
2E7
100
AcDbEntity
  8
0
370
    -3
390
0
  6
Continuous
100
AcDbLine
 10
183.306266
 20
225.948279
 30
0.0
 11
184.687361
 21
225.600489
 31
0.0
  0
LINE
  5
2E8
100
AcDbEntity
  8
0
370
    -3
390
0
  6
Continuous
100
AcDbLine
 10
182.015217
 20
226.515524
 30
0.0
 11
183.306266
 21
225.948279
 31
0.0
  0
LINE
  5
2E9
100
AcDbEntity
  8
0
370
    -3
390
0
  6
Continuous
100
AcDbLine
 10
180.855614
 20
227.284032
 30
0.0
 11
182.015217
 21
226.515524
 31
0.0
  0
LINE
  5
2EA
100
AcDbEntity
  8
0
370
    -3
390
0
  6
Continuous
100
AcDbLine
 10
179.864645
 20
228.229161
 30
0.0
 11
180.855614
 21
227.284032
 31
0.0
  0
LINE
  5
2EB
100
AcDbEntity
  8
0
370
    -3
390
0
  6
Continuous
100
AcDbLine
 10
184.838172
 20
226.378578
 30
0.0
 11
186.114212
 21
226.28501
 31
0.0
  0
LINE
  5
2EC
100
AcDbEntity
  8
0
370
    -3
390
0
  6
Continuous
100
AcDbLine
 10
183.594805
 20
226.656887
 30
0.0
 11
184.838172
 21
226.378578
 31
0.0
  0
LINE
  5
2ED
100
AcDbEntity
  8
0
370
    -3
390
0
  6
Continuous
100
AcDbLine
 10
182.41595
 20
227.11281
 30
0.0
 11
183.594805
 21
226.656887
 31
0.0
  0
LINE
  5
2EE
100
AcDbEntity
  8
0
370
    -3
390
0
  6
Continuous
100
AcDbLine
 10
181.331792
 20
227.734672
 30
0.0
 11
182.41595
 21
227.11281
 31
0.0
  0
LINE
  5
2EF
100
AcDbEntity
  8
0
370
    -3
390
0
  6
Continuous
100
AcDbLine
 10
180.370092
 20
228.506551
 30
0.0
 11
181.331792
 21
227.734672
 31
0.0
  0
LINE
  5
2F0
100
AcDbEntity
  8
0
370
    -3
390
0
  6
Continuous
100
AcDbLine
 10
189.546961
 20
232.664486
 30
0.0
 11
189.614212
 21
233.338076
 31
0.0
  0
LINE
  5
2F1
100
AcDbEntity
  8
0
370
    -3
390
0
  6
Continuous
100
AcDbLine
 10
189.34779
 20
232.016782
 30
0.0
 11
189.546961
 21
232.664486
 31
0.0
  0
LINE
  5
2F2
100
AcDbEntity
  8
0
370
    -3
390
0
  6
Continuous
100
AcDbLine
 10
189.024356
 20
231.419854
 30
0.0
 11
189.34779
 21
232.016782
 31
0.0
  0
LINE
  5
2F3
100
AcDbEntity
  8
0
370
    -3
390
0
  6
Continuous
100
AcDbLine
 10
188.589086
 20
230.896643
 30
0.0
 11
189.024356
 21
231.419854
 31
0.0
  0
LINE
  5
2F4
100
AcDbEntity
  8
0
370
    -3
390
0
  6
Continuous
100
AcDbLine
 10
188.058708
 20
230.467254
 30
0.0
 11
188.589086
 21
230.896643
 31
0.0
  0
LINE
  5
2F5
100
AcDbEntity
  8
0
370
    -3
390
0
  6
Continuous
100
AcDbLine
 10
187.453604
 20
230.14819
 30
0.0
 11
188.058708
 21
230.467254
 31
0.0
  0
LINE
  5
2F6
100
AcDbEntity
  8
0
370
    -3
390
0
  6
Continuous
100
AcDbLine
 10
186.797028
 20
229.951711
 30
0.0
 11
187.453604
 21
230.14819
 31
0.0
  0
LINE
  5
2F7
100
AcDbEntity
  8
0
370
    -3
390
0
  6
Continuous
100
AcDbLine
 10
186.114212
 20
229.885368
 30
0.0
 11
186.797028
 21
229.951711
 31
0.0
  0
LINE
  5
2F8
100
AcDbEntity
  8
0
370
    -3
390
0
  6
Continuous
100
AcDbLine
 10
185.431396
 20
229.951711
 30
0.0
 11
186.114212
 21
229.885368
 31
0.0
  0
LINE
  5
2F9
100
AcDbEntity
  8
0
370
    -3
390
0
  6
Continuous
100
AcDbLine
 10
184.77482
 20
230.14819
 30
0.0
 11
185.431396
 21
229.951711
 31
0.0
  0
LINE
  5
2FA
100
AcDbEntity
  8
0
370
    -3
390
0
  6
Continuous
100
AcDbLine
 10
184.169716
 20
230.467254
 30
0.0
 11
184.77482
 21
230.14819
 31
0.0
  0
LINE
  5
2FB
100
AcDbEntity
  8
0
370
    -3
390
0
  6
Continuous
100
AcDbLine
 10
183.639338
 20
230.896643
 30
0.0
 11
184.169716
 21
230.467254
 31
0.0
  0
LINE
  5
2FC
100
AcDbEntity
  8
0
370
    -3
390
0
  6
Continuous
100
AcDbLine
 10
183.204068
 20
231.419854
 30
0.0
 11
183.639338
 21
230.896643
 31
0.0
  0
LINE
  5
2FD
100
AcDbEntity
  8
0
370
    -3
390
0
  6
Continuous
100
AcDbLine
 10
182.880634
 20
232.016782
 30
0.0
 11
183.204068
 21
231.419854
 31
0.0
  0
LINE
  5
2FE
100
AcDbEntity
  8
0
370
    -3
390
0
  6
Continuous
100
AcDbLine
 10
182.681464
 20
232.664486
 30
0.0
 11
182.880634
 21
232.016782
 31
0.0
  0
LINE
  5
2FF
100
AcDbEntity
  8
0
370
    -3
390
0
  6
Continuous
100
AcDbLine
 10
182.614212
 20
233.338076
 30
0.0
 11
182.681464
 21
232.664486
 31
0.0
  0
LINE
  5
300
100
AcDbEntity
  8
0
370
    -3
390
0
  6
Continuous
100
AcDbLine
 10
182.681464
 20
234.011665
 30
0.0
 11
182.614212
 21
233.338076
 31
0.0
  0
LINE
  5
301
100
AcDbEntity
  8
0
370
    -3
390
0
  6
Continuous
100
AcDbLine
 10
182.880634
 20
234.659369
 30
0.0
 11
182.681464
 21
234.011665
 31
0.0
  0
LINE
  5
302
100
AcDbEntity
  8
0
370
    -3
390
0
  6
Continuous
100
AcDbLine
 10
183.204068
 20
235.256297
 30
0.0
 11
182.880634
 21
234.659369
 31
0.0
  0
LINE
  5
303
100
AcDbEntity
  8
0
370
    -3
390
0
  6
Continuous
100
AcDbLine
 10
183.639338
 20
235.779508
 30
0.0
 11
183.204068
 21
235.256297
 31
0.0
  0
LINE
  5
304
100
AcDbEntity
  8
0
370
    -3
390
0
  6
Continuous
100
AcDbLine
 10
184.169716
 20
236.208897
 30
0.0
 11
183.639338
 21
235.779508
 31
0.0
  0
LINE
  5
305
100
AcDbEntity
  8
0
370
    -3
390
0
  6
Continuous
100
AcDbLine
 10
184.77482
 20
236.527961
 30
0.0
 11
184.169716
 21
236.208897
 31
0.0
  0
LINE
  5
306
100
AcDbEntity
  8
0
370
    -3
390
0
  6
Continuous
100
AcDbLine
 10
185.431396
 20
236.72444
 30
0.0
 11
184.77482
 21
236.527961
 31
0.0
  0
LINE
  5
307
100
AcDbEntity
  8
0
370
    -3
390
0
  6
Continuous
100
AcDbLine
 10
186.114212
 20
236.790783
 30
0.0
 11
185.431396
 21
236.72444
 31
0.0
  0
LINE
  5
308
100
AcDbEntity
  8
0
370
    -3
390
0
  6
Continuous
100
AcDbLine
 10
186.797028
 20
236.72444
 30
0.0
 11
186.114212
 21
236.790783
 31
0.0
  0
LINE
  5
309
100
AcDbEntity
  8
0
370
    -3
390
0
  6
Continuous
100
AcDbLine
 10
187.453604
 20
236.527961
 30
0.0
 11
186.797028
 21
236.72444
 31
0.0
  0
LINE
  5
30A
100
AcDbEntity
  8
0
370
    -3
390
0
  6
Continuous
100
AcDbLine
 10
188.058708
 20
236.208897
 30
0.0
 11
187.453604
 21
236.527961
 31
0.0
  0
LINE
  5
30B
100
AcDbEntity
  8
0
370
    -3
390
0
  6
Continuous
100
AcDbLine
 10
188.589086
 20
235.779508
 30
0.0
 11
188.058708
 21
236.208897
 31
0.0
  0
LINE
  5
30C
100
AcDbEntity
  8
0
370
    -3
390
0
  6
Continuous
100
AcDbLine
 10
189.024356
 20
235.256297
 30
0.0
 11
188.589086
 21
235.779508
 31
0.0
  0
LINE
  5
30D
100
AcDbEntity
  8
0
370
    -3
390
0
  6
Continuous
100
AcDbLine
 10
189.34779
 20
234.659369
 30
0.0
 11
189.024356
 21
235.256297
 31
0.0
  0
LINE
  5
30E
100
AcDbEntity
  8
0
370
    -3
390
0
  6
Continuous
100
AcDbLine
 10
189.546961
 20
234.011665
 30
0.0
 11
189.34779
 21
234.659369
 31
0.0
  0
LINE
  5
30F
100
AcDbEntity
  8
0
370
    -3
390
0
  6
Continuous
100
AcDbLine
 10
189.614212
 20
233.338076
 30
0.0
 11
189.546961
 21
234.011665
 31
0.0
  0
LINE
  5
310
100
AcDbEntity
  8
0
370
    -3
390
0
  6
Continuous
100
AcDbLine
 10
190.896632
 20
227.734672
 30
0.0
 11
191.858333
 21
228.506551
 31
0.0
  0
LINE
  5
311
100
AcDbEntity
  8
0
370
    -3
390
0
  6
Continuous
100
AcDbLine
 10
189.812474
 20
227.11281
 30
0.0
 11
190.896632
 21
227.734672
 31
0.0
  0
LINE
  5
312
100
AcDbEntity
  8
0
370
    -3
390
0
  6
Continuous
100
AcDbLine
 10
188.633619
 20
226.656887
 30
0.0
 11
189.812474
 21
227.11281
 31
0.0
  0
LINE
  5
313
100
AcDbEntity
  8
0
370
    -3
390
0
  6
Continuous
100
AcDbLine
 10
187.390252
 20
226.378578
 30
0.0
 11
188.633619
 21
226.656887
 31
0.0
  0
LINE
  5
314
100
AcDbEntity
  8
0
370
    -3
390
0
  6
Continuous
100
AcDbLine
 10
186.114212
 20
226.28501
 30
0.0
 11
187.390252
 21
226.378578
 31
0.0
  0
LINE
  5
315
100
AcDbEntity
  8
0
370
    -3
390
0
  6
Continuous
100
AcDbLine
 10
191.37281
 20
227.284032
 30
0.0
 11
192.363779
 21
228.229161
 31
0.0
  0
LINE
  5
316
100
AcDbEntity
  8
0
370
    -3
390
0
  6
Continuous
100
AcDbLine
 10
190.213208
 20
226.515524
 30
0.0
 11
191.37281
 21
227.284032
 31
0.0
  0
LINE
  5
317
100
AcDbEntity
  8
0
370
    -3
390
0
  6
Continuous
100
AcDbLine
 10
188.922158
 20
225.948279
 30
0.0
 11
190.213208
 21
226.515524
 31
0.0
  0
LINE
  5
318
100
AcDbEntity
  8
0
370
    -3
390
0
  6
Continuous
100
AcDbLine
 10
187.541063
 20
225.600489
 30
0.0
 11
188.922158
 21
225.948279
 31
0.0
  0
LINE
  5
319
100
AcDbEntity
  8
0
370
    -3
390
0
  6
Continuous
100
AcDbLine
 10
186.114212
 20
225.483306
 30
0.0
 11
187.541063
 21
225.600489
 31
0.0
  0
LINE
  5
31A
100
AcDbEntity
  8
0
370
    -3
390
0
  6
Continuous
100
AcDbLine
 10
224.769589
 20
249.32196
 30
0.0
 11
224.110017
 21
249.701035
 31
0.0
  0
LINE
  5
31B
100
AcDbEntity
  8
0
370
    -3
390
0
  6
Continuous
100
AcDbLine
 10
225.31659
 20
248.861949
 30
0.0
 11
224.769589
 21
249.32196
 31
0.0
  0
LINE
  5
31C
100
AcDbEntity
  8
0
370
    -3
390
0
  6
Continuous
100
AcDbLine
 10
225.731508
 20
248.337414
 30
0.0
 11
225.31659
 21
248.861949
 31
0.0
  0
LINE
  5
31D
100
AcDbEntity
  8
0
370
    -3
390
0
  6
Continuous
100
AcDbLine
 10
225.999538
 20
247.767068
 30
0.0
 11
225.731508
 21
248.337414
 31
0.0
  0
LINE
  5
31E
100
AcDbEntity
  8
0
370
    -3
390
0
  6
Continuous
100
AcDbLine
 10
226.111119
 20
247.171257
 30
0.0
 11
225.999538
 21
247.767068
 31
0.0
  0
LINE
  5
31F
100
AcDbEntity
  8
0
370
    -3
390
0
  6
Continuous
100
AcDbLine
 10
226.062271
 20
246.571239
 30
0.0
 11
226.111119
 21
247.171257
 31
0.0
  0
LINE
  5
320
100
AcDbEntity
  8
0
370
    -3
390
0
  6
Continuous
100
AcDbLine
 10
225.854736
 20
245.988419
 30
0.0
 11
226.062271
 21
246.571239
 31
0.0
  0
LINE
  5
321
100
AcDbEntity
  8
0
370
    -3
390
0
  6
Continuous
100
AcDbLine
 10
225.495917
 20
245.443589
 30
0.0
 11
225.854736
 21
245.988419
 31
0.0
  0
LINE
  5
322
100
AcDbEntity
  8
0
370
    -3
390
0
  6
Continuous
100
AcDbLine
 10
224.998617
 20
244.956186
 30
0.0
 11
225.495917
 21
245.443589
 31
0.0
  0
LINE
  5
323
100
AcDbEntity
  8
0
370
    -3
390
0
  6
Continuous
100
AcDbLine
 10
224.380576
 20
244.5436
 30
0.0
 11
224.998617
 21
244.956186
 31
0.0
  0
LINE
  5
324
100
AcDbEntity
  8
0
370
    -3
390
0
  6
Continuous
100
AcDbLine
 10
223.663843
 20
244.220548
 30
0.0
 11
224.380576
 21
244.5436
 31
0.0
  0
LINE
  5
325
100
AcDbEntity
  8
0
370
    -3
390
0
  6
Continuous
100
AcDbLine
 10
222.873989
 20
243.998557
 30
0.0
 11
223.663843
 21
244.220548
 31
0.0
  0
LINE
  5
326
100
AcDbEntity
  8
0
370
    -3
390
0
  6
Continuous
100
AcDbLine
 10
222.039192
 20
243.885545
 30
0.0
 11
222.873989
 21
243.998557
 31
0.0
  0
LINE
  5
327
100
AcDbEntity
  8
0
370
    -3
390
0
  6
Continuous
100
AcDbLine
 10
221.189233
 20
243.885545
 30
0.0
 11
222.039192
 21
243.885545
 31
0.0
  0
LINE
  5
328
100
AcDbEntity
  8
0
370
    -3
390
0
  6
Continuous
100
AcDbLine
 10
220.354435
 20
243.998557
 30
0.0
 11
221.189233
 21
243.885545
 31
0.0
  0
LINE
  5
329
100
AcDbEntity
  8
0
370
    -3
390
0
  6
Continuous
100
AcDbLine
 10
219.564581
 20
244.220548
 30
0.0
 11
220.354435
 21
243.998557
 31
0.0
  0
LINE
  5
32A
100
AcDbEntity
  8
0
370
    -3
390
0
  6
Continuous
100
AcDbLine
 10
218.847848
 20
244.5436
 30
0.0
 11
219.564581
 21
244.220548
 31
0.0
  0
LINE
  5
32B
100
AcDbEntity
  8
0
370
    -3
390
0
  6
Continuous
100
AcDbLine
 10
218.229807
 20
244.956186
 30
0.0
 11
218.847848
 21
244.5436
 31
0.0
  0
LINE
  5
32C
100
AcDbEntity
  8
0
370
    -3
390
0
  6
Continuous
100
AcDbLine
 10
217.732507
 20
245.443589
 30
0.0
 11
218.229807
 21
244.956186
 31
0.0
  0
LINE
  5
32D
100
AcDbEntity
  8
0
370
    -3
390
0
  6
Continuous
100
AcDbLine
 10
217.373689
 20
245.988419
 30
0.0
 11
217.732507
 21
245.443589
 31
0.0
  0
LINE
  5
32E
100
AcDbEntity
  8
0
370
    -3
390
0
  6
Continuous
100
AcDbLine
 10
217.166153
 20
246.571239
 30
0.0
 11
217.373689
 21
245.988419
 31
0.0
  0
LINE
  5
32F
100
AcDbEntity
  8
0
370
    -3
390
0
  6
Continuous
100
AcDbLine
 10
217.117305
 20
247.171257
 30
0.0
 11
217.166153
 21
246.571239
 31
0.0
  0
LINE
  5
330
100
AcDbEntity
  8
0
370
    -3
390
0
  6
Continuous
100
AcDbLine
 10
217.228886
 20
247.767068
 30
0.0
 11
217.117305
 21
247.171257
 31
0.0
  0
LINE
  5
331
100
AcDbEntity
  8
0
370
    -3
390
0
  6
Continuous
100
AcDbLine
 10
217.496917
 20
248.337414
 30
0.0
 11
217.228886
 21
247.767068
 31
0.0
  0
LINE
  5
332
100
AcDbEntity
  8
0
370
    -3
390
0
  6
Continuous
100
AcDbLine
 10
217.911834
 20
248.861949
 30
0.0
 11
217.496917
 21
248.337414
 31
0.0
  0
LINE
  5
333
100
AcDbEntity
  8
0
370
    -3
390
0
  6
Continuous
100
AcDbLine
 10
218.458835
 20
249.32196
 30
0.0
 11
217.911834
 21
248.861949
 31
0.0
  0
LINE
  5
334
100
AcDbEntity
  8
0
370
    -3
390
0
  6
Continuous
100
AcDbLine
 10
219.118407
 20
249.701035
 30
0.0
 11
218.458835
 21
249.32196
 31
0.0
  0
LINE
  5
335
100
AcDbEntity
  8
0
370
    -3
390
0
  6
Continuous
100
AcDbLine
 10
225.046961
 20
247.002329
 30
0.0
 11
225.114212
 21
247.589822
 31
0.0
  0
LINE
  5
336
100
AcDbEntity
  8
0
370
    -3
390
0
  6
Continuous
100
AcDbLine
 10
224.84779
 20
246.437412
 30
0.0
 11
225.046961
 21
247.002329
 31
0.0
  0
LINE
  5
337
100
AcDbEntity
  8
0
370
    -3
390
0
  6
Continuous
100
AcDbLine
 10
224.524356
 20
245.916782
 30
0.0
 11
224.84779
 21
246.437412
 31
0.0
  0
LINE
  5
338
100
AcDbEntity
  8
0
370
    -3
390
0
  6
Continuous
100
AcDbLine
 10
224.089086
 20
245.460446
 30
0.0
 11
224.524356
 21
245.916782
 31
0.0
  0
LINE
  5
339
100
AcDbEntity
  8
0
370
    -3
390
0
  6
Continuous
100
AcDbLine
 10
223.558708
 20
245.085941
 30
0.0
 11
224.089086
 21
245.460446
 31
0.0
  0
LINE
  5
33A
100
AcDbEntity
  8
0
370
    -3
390
0
  6
Continuous
100
AcDbLine
 10
222.953604
 20
244.807659
 30
0.0
 11
223.558708
 21
245.085941
 31
0.0
  0
LINE
  5
33B
100
AcDbEntity
  8
0
370
    -3
390
0
  6
Continuous
100
AcDbLine
 10
222.297028
 20
244.636293
 30
0.0
 11
222.953604
 21
244.807659
 31
0.0
  0
LINE
  5
33C
100
AcDbEntity
  8
0
370
    -3
390
0
  6
Continuous
100
AcDbLine
 10
221.614212
 20
244.57843
 30
0.0
 11
222.297028
 21
244.636293
 31
0.0
  0
LINE
  5
33D
100
AcDbEntity
  8
0
370
    -3
390
0
  6
Continuous
100
AcDbLine
 10
220.931396
 20
244.636293
 30
0.0
 11
221.614212
 21
244.57843
 31
0.0
  0
LINE
  5
33E
100
AcDbEntity
  8
0
370
    -3
390
0
  6
Continuous
100
AcDbLine
 10
220.27482
 20
244.807659
 30
0.0
 11
220.931396
 21
244.636293
 31
0.0
  0
LINE
  5
33F
100
AcDbEntity
  8
0
370
    -3
390
0
  6
Continuous
100
AcDbLine
 10
219.669716
 20
245.085941
 30
0.0
 11
220.27482
 21
244.807659
 31
0.0
  0
LINE
  5
340
100
AcDbEntity
  8
0
370
    -3
390
0
  6
Continuous
100
AcDbLine
 10
219.139338
 20
245.460446
 30
0.0
 11
219.669716
 21
245.085941
 31
0.0
  0
LINE
  5
341
100
AcDbEntity
  8
0
370
    -3
390
0
  6
Continuous
100
AcDbLine
 10
218.704068
 20
245.916782
 30
0.0
 11
219.139338
 21
245.460446
 31
0.0
  0
LINE
  5
342
100
AcDbEntity
  8
0
370
    -3
390
0
  6
Continuous
100
AcDbLine
 10
218.380634
 20
246.437412
 30
0.0
 11
218.704068
 21
245.916782
 31
0.0
  0
LINE
  5
343
100
AcDbEntity
  8
0
370
    -3
390
0
  6
Continuous
100
AcDbLine
 10
218.181464
 20
247.002329
 30
0.0
 11
218.380634
 21
246.437412
 31
0.0
  0
LINE
  5
344
100
AcDbEntity
  8
0
370
    -3
390
0
  6
Continuous
100
AcDbLine
 10
218.114212
 20
247.589822
 30
0.0
 11
218.181464
 21
247.002329
 31
0.0
  0
LINE
  5
345
100
AcDbEntity
  8
0
370
    -3
390
0
  6
Continuous
100
AcDbLine
 10
218.181464
 20
248.177316
 30
0.0
 11
218.114212
 21
247.589822
 31
0.0
  0
LINE
  5
346
100
AcDbEntity
  8
0
370
    -3
390
0
  6
Continuous
100
AcDbLine
 10
218.380634
 20
248.742232
 30
0.0
 11
218.181464
 21
248.177316
 31
0.0
  0
LINE
  5
347
100
AcDbEntity
  8
0
370
    -3
390
0
  6
Continuous
100
AcDbLine
 10
218.704068
 20
249.262862
 30
0.0
 11
218.380634
 21
248.742232
 31
0.0
  0
LINE
  5
348
100
AcDbEntity
  8
0
370
    -3
390
0
  6
Continuous
100
AcDbLine
 10
219.139338
 20
249.719198
 30
0.0
 11
218.704068
 21
249.262862
 31
0.0
  0
LINE
  5
349
100
AcDbEntity
  8
0
370
    -3
390
0
  6
Continuous
100
AcDbLine
 10
219.669716
 20
250.093703
 30
0.0
 11
219.139338
 21
249.719198
 31
0.0
  0
LINE
  5
34A
100
AcDbEntity
  8
0
370
    -3
390
0
  6
Continuous
100
AcDbLine
 10
220.27482
 20
250.371985
 30
0.0
 11
219.669716
 21
250.093703
 31
0.0
  0
LINE
  5
34B
100
AcDbEntity
  8
0
370
    -3
390
0
  6
Continuous
100
AcDbLine
 10
220.931396
 20
250.543351
 30
0.0
 11
220.27482
 21
250.371985
 31
0.0
  0
LINE
  5
34C
100
AcDbEntity
  8
0
370
    -3
390
0
  6
Continuous
100
AcDbLine
 10
221.614212
 20
250.601214
 30
0.0
 11
220.931396
 21
250.543351
 31
0.0
  0
LINE
  5
34D
100
AcDbEntity
  8
0
370
    -3
390
0
  6
Continuous
100
AcDbLine
 10
222.297028
 20
250.543351
 30
0.0
 11
221.614212
 21
250.601214
 31
0.0
  0
LINE
  5
34E
100
AcDbEntity
  8
0
370
    -3
390
0
  6
Continuous
100
AcDbLine
 10
222.953604
 20
250.371985
 30
0.0
 11
222.297028
 21
250.543351
 31
0.0
  0
LINE
  5
34F
100
AcDbEntity
  8
0
370
    -3
390
0
  6
Continuous
100
AcDbLine
 10
223.558708
 20
250.093703
 30
0.0
 11
222.953604
 21
250.371985
 31
0.0
  0
LINE
  5
350
100
AcDbEntity
  8
0
370
    -3
390
0
  6
Continuous
100
AcDbLine
 10
224.089086
 20
249.719198
 30
0.0
 11
223.558708
 21
250.093703
 31
0.0
  0
LINE
  5
351
100
AcDbEntity
  8
0
370
    -3
390
0
  6
Continuous
100
AcDbLine
 10
224.524356
 20
249.262862
 30
0.0
 11
224.089086
 21
249.719198
 31
0.0
  0
LINE
  5
352
100
AcDbEntity
  8
0
370
    -3
390
0
  6
Continuous
100
AcDbLine
 10
224.84779
 20
248.742232
 30
0.0
 11
224.524356
 21
249.262862
 31
0.0
  0
LINE
  5
353
100
AcDbEntity
  8
0
370
    -3
390
0
  6
Continuous
100
AcDbLine
 10
225.046961
 20
248.177316
 30
0.0
 11
224.84779
 21
248.742232
 31
0.0
  0
LINE
  5
354
100
AcDbEntity
  8
0
370
    -3
390
0
  6
Continuous
100
AcDbLine
 10
225.114212
 20
247.589822
 30
0.0
 11
225.046961
 21
248.177316
 31
0.0
  0
LINE
  5
355
100
AcDbEntity
  8
0
370
    -3
390
0
  6
Continuous
100
AcDbLine
 10
225.865153
 20
248.349003
 30
0.0
 11
225.309009
 21
248.869684
 31
0.0
  0
LINE
  5
356
100
AcDbEntity
  8
0
370
    -3
390
0
  6
Continuous
100
AcDbLine
 10
226.276507
 20
247.764922
 30
0.0
 11
225.865153
 21
248.349003
 31
0.0
  0
LINE
  5
357
100
AcDbEntity
  8
0
370
    -3
390
0
  6
Continuous
100
AcDbLine
 10
226.529061
 20
247.137335
 30
0.0
 11
226.276507
 21
247.764922
 31
0.0
  0
LINE
  5
358
100
AcDbEntity
  8
0
370
    -3
390
0
  6
Continuous
100
AcDbLine
 10
226.614212
 20
246.487618
 30
0.0
 11
226.529061
 21
247.137335
 31
0.0
  0
LINE
  5
359
100
AcDbEntity
  8
0
370
    -3
390
0
  6
Continuous
100
AcDbLine
 10
216.699363
 20
247.137335
 30
0.0
 11
216.614212
 21
246.487618
 31
0.0
  0
LINE
  5
35A
100
AcDbEntity
  8
0
370
    -3
390
0
  6
Continuous
100
AcDbLine
 10
216.951917
 20
247.764922
 30
0.0
 11
216.699363
 21
247.137335
 31
0.0
  0
LINE
  5
35B
100
AcDbEntity
  8
0
370
    -3
390
0
  6
Continuous
100
AcDbLine
 10
217.363272
 20
248.349003
 30
0.0
 11
216.951917
 21
247.764922
 31
0.0
  0
LINE
  5
35C
100
AcDbEntity
  8
0
370
    -3
390
0
  6
Continuous
100
AcDbLine
 10
217.919415
 20
248.869684
 30
0.0
 11
217.363272
 21
248.349003
 31
0.0
  0
LINE
  5
35D
100
AcDbEntity
  8
0
370
    -3
390
0
  6
Continuous
100
AcDbLine
 10
226.027746
 20
245.866845
 30
0.0
 11
226.114212
 21
246.487618
 31
0.0
  0
LINE
  5
35E
100
AcDbEntity
  8
0
370
    -3
390
0
  6
Continuous
100
AcDbLine
 10
225.77167
 20
245.269927
 30
0.0
 11
226.027746
 21
245.866845
 31
0.0
  0
LINE
  5
35F
100
AcDbEntity
  8
0
370
    -3
390
0
  6
Continuous
100
AcDbLine
 10
225.355825
 20
244.719805
 30
0.0
 11
225.77167
 21
245.269927
 31
0.0
  0
LINE
  5
360
100
AcDbEntity
  8
0
370
    -3
390
0
  6
Continuous
100
AcDbLine
 10
224.796193
 20
244.237618
 30
0.0
 11
225.355825
 21
244.719805
 31
0.0
  0
LINE
  5
361
100
AcDbEntity
  8
0
370
    -3
390
0
  6
Continuous
100
AcDbLine
 10
224.114278
 20
243.841898
 30
0.0
 11
224.796193
 21
244.237618
 31
0.0
  0
LINE
  5
362
100
AcDbEntity
  8
0
370
    -3
390
0
  6
Continuous
100
AcDbLine
 10
223.336288
 20
243.547852
 30
0.0
 11
224.114278
 21
243.841898
 31
0.0
  0
LINE
  5
363
100
AcDbEntity
  8
0
370
    -3
390
0
  6
Continuous
100
AcDbLine
 10
222.492119
 20
243.366779
 30
0.0
 11
223.336288
 21
243.547852
 31
0.0
  0
LINE
  5
364
100
AcDbEntity
  8
0
370
    -3
390
0
  6
Continuous
100
AcDbLine
 10
221.614212
 20
243.305638
 30
0.0
 11
222.492119
 21
243.366779
 31
0.0
  0
LINE
  5
365
100
AcDbEntity
  8
0
370
    -3
390
0
  6
Continuous
100
AcDbLine
 10
220.736306
 20
243.366779
 30
0.0
 11
221.614212
 21
243.305638
 31
0.0
  0
LINE
  5
366
100
AcDbEntity
  8
0
370
    -3
390
0
  6
Continuous
100
AcDbLine
 10
219.892137
 20
243.547852
 30
0.0
 11
220.736306
 21
243.366779
 31
0.0
  0
LINE
  5
367
100
AcDbEntity
  8
0
370
    -3
390
0
  6
Continuous
100
AcDbLine
 10
219.114146
 20
243.841898
 30
0.0
 11
219.892137
 21
243.547852
 31
0.0
  0
LINE
  5
368
100
AcDbEntity
  8
0
370
    -3
390
0
  6
Continuous
100
AcDbLine
 10
218.432232
 20
244.237618
 30
0.0
 11
219.114146
 21
243.841898
 31
0.0
  0
LINE
  5
369
100
AcDbEntity
  8
0
370
    -3
390
0
  6
Continuous
100
AcDbLine
 10
217.872599
 20
244.719805
 30
0.0
 11
218.432232
 21
244.237618
 31
0.0
  0
LINE
  5
36A
100
AcDbEntity
  8
0
370
    -3
390
0
  6
Continuous
100
AcDbLine
 10
217.456754
 20
245.269927
 30
0.0
 11
217.872599
 21
244.719805
 31
0.0
  0
LINE
  5
36B
100
AcDbEntity
  8
0
370
    -3
390
0
  6
Continuous
100
AcDbLine
 10
217.200678
 20
245.866845
 30
0.0
 11
217.456754
 21
245.269927
 31
0.0
  0
LINE
  5
36C
100
AcDbEntity
  8
0
370
    -3
390
0
  6
Continuous
100
AcDbLine
 10
217.114212
 20
246.487618
 30
0.0
 11
217.200678
 21
245.866845
 31
0.0
  0
LINE
  5
36D
100
AcDbEntity
  8
0
370
    -3
390
0
  6
Continuous
100
AcDbLine
 10
226.518138
 20
244.981267
 30
0.0
 11
226.614212
 21
245.671015
 31
0.0
  0
LINE
  5
36E
100
AcDbEntity
  8
0
370
    -3
390
0
  6
Continuous
100
AcDbLine
 10
226.23361
 20
244.318025
 30
0.0
 11
226.518138
 21
244.981267
 31
0.0
  0
LINE
  5
36F
100
AcDbEntity
  8
0
370
    -3
390
0
  6
Continuous
100
AcDbLine
 10
225.77156
 20
243.706778
 30
0.0
 11
226.23361
 21
244.318025
 31
0.0
  0
LINE
  5
370
100
AcDbEntity
  8
0
370
    -3
390
0
  6
Continuous
100
AcDbLine
 10
225.149746
 20
243.171015
 30
0.0
 11
225.77156
 21
243.706778
 31
0.0
  0
LINE
  5
371
100
AcDbEntity
  8
0
370
    -3
390
0
  6
Continuous
100
AcDbLine
 10
224.392063
 20
242.731326
 30
0.0
 11
225.149746
 21
243.171015
 31
0.0
  0
LINE
  5
372
100
AcDbEntity
  8
0
370
    -3
390
0
  6
Continuous
100
AcDbLine
 10
223.527629
 20
242.404608
 30
0.0
 11
224.392063
 21
242.731326
 31
0.0
  0
LINE
  5
373
100
AcDbEntity
  8
0
370
    -3
390
0
  6
Continuous
100
AcDbLine
 10
222.589664
 20
242.203416
 30
0.0
 11
223.527629
 21
242.404608
 31
0.0
  0
LINE
  5
374
100
AcDbEntity
  8
0
370
    -3
390
0
  6
Continuous
100
AcDbLine
 10
221.614212
 20
242.135481
 30
0.0
 11
222.589664
 21
242.203416
 31
0.0
  0
LINE
  5
375
100
AcDbEntity
  8
0
370
    -3
390
0
  6
Continuous
100
AcDbLine
 10
220.63876
 20
242.203416
 30
0.0
 11
221.614212
 21
242.135481
 31
0.0
  0
LINE
  5
376
100
AcDbEntity
  8
0
370
    -3
390
0
  6
Continuous
100
AcDbLine
 10
219.700795
 20
242.404608
 30
0.0
 11
220.63876
 21
242.203416
 31
0.0
  0
LINE
  5
377
100
AcDbEntity
  8
0
370
    -3
390
0
  6
Continuous
100
AcDbLine
 10
218.836361
 20
242.731326
 30
0.0
 11
219.700795
 21
242.404608
 31
0.0
  0
LINE
  5
378
100
AcDbEntity
  8
0
370
    -3
390
0
  6
Continuous
100
AcDbLine
 10
218.078678
 20
243.171015
 30
0.0
 11
218.836361
 21
242.731326
 31
0.0
  0
LINE
  5
379
100
AcDbEntity
  8
0
370
    -3
390
0
  6
Continuous
100
AcDbLine
 10
217.456864
 20
243.706778
 30
0.0
 11
218.078678
 21
243.171015
 31
0.0
  0
LINE
  5
37A
100
AcDbEntity
  8
0
370
    -3
390
0
  6
Continuous
100
AcDbLine
 10
216.994814
 20
244.318025
 30
0.0
 11
217.456864
 21
243.706778
 31
0.0
  0
LINE
  5
37B
100
AcDbEntity
  8
0
370
    -3
390
0
  6
Continuous
100
AcDbLine
 10
216.710286
 20
244.981267
 30
0.0
 11
216.994814
 21
244.318025
 31
0.0
  0
LINE
  5
37C
100
AcDbEntity
  8
0
370
    -3
390
0
  6
Continuous
100
AcDbLine
 10
216.614212
 20
245.671015
 30
0.0
 11
216.710286
 21
244.981267
 31
0.0
  0
LINE
  5
37D
100
AcDbEntity
  8
0
370
    -3
390
0
  6
Continuous
100
AcDbLine
 10
218.458835
 20
110.717203
 30
0.0
 11
219.118407
 21
110.338128
 31
0.0
  0
LINE
  5
37E
100
AcDbEntity
  8
0
370
    -3
390
0
  6
Continuous
100
AcDbLine
 10
217.911834
 20
111.177213
 30
0.0
 11
218.458835
 21
110.717203
 31
0.0
  0
LINE
  5
37F
100
AcDbEntity
  8
0
370
    -3
390
0
  6
Continuous
100
AcDbLine
 10
217.496917
 20
111.701748
 30
0.0
 11
217.911834
 21
111.177213
 31
0.0
  0
LINE
  5
380
100
AcDbEntity
  8
0
370
    -3
390
0
  6
Continuous
100
AcDbLine
 10
217.228886
 20
112.272094
 30
0.0
 11
217.496917
 21
111.701748
 31
0.0
  0
LINE
  5
381
100
AcDbEntity
  8
0
370
    -3
390
0
  6
Continuous
100
AcDbLine
 10
217.117305
 20
112.867905
 30
0.0
 11
217.228886
 21
112.272094
 31
0.0
  0
LINE
  5
382
100
AcDbEntity
  8
0
370
    -3
390
0
  6
Continuous
100
AcDbLine
 10
217.166153
 20
113.467923
 30
0.0
 11
217.117305
 21
112.867905
 31
0.0
  0
LINE
  5
383
100
AcDbEntity
  8
0
370
    -3
390
0
  6
Continuous
100
AcDbLine
 10
217.373689
 20
114.050743
 30
0.0
 11
217.166153
 21
113.467923
 31
0.0
  0
LINE
  5
384
100
AcDbEntity
  8
0
370
    -3
390
0
  6
Continuous
100
AcDbLine
 10
217.732507
 20
114.595573
 30
0.0
 11
217.373689
 21
114.050743
 31
0.0
  0
LINE
  5
385
100
AcDbEntity
  8
0
370
    -3
390
0
  6
Continuous
100
AcDbLine
 10
218.229807
 20
115.082976
 30
0.0
 11
217.732507
 21
114.595573
 31
0.0
  0
LINE
  5
386
100
AcDbEntity
  8
0
370
    -3
390
0
  6
Continuous
100
AcDbLine
 10
218.847848
 20
115.495563
 30
0.0
 11
218.229807
 21
115.082976
 31
0.0
  0
LINE
  5
387
100
AcDbEntity
  8
0
370
    -3
390
0
  6
Continuous
100
AcDbLine
 10
219.564581
 20
115.818614
 30
0.0
 11
218.847848
 21
115.495563
 31
0.0
  0
LINE
  5
388
100
AcDbEntity
  8
0
370
    -3
390
0
  6
Continuous
100
AcDbLine
 10
220.354435
 20
116.040605
 30
0.0
 11
219.564581
 21
115.818614
 31
0.0
  0
LINE
  5
389
100
AcDbEntity
  8
0
370
    -3
390
0
  6
Continuous
100
AcDbLine
 10
221.189233
 20
116.153617
 30
0.0
 11
220.354435
 21
116.040605
 31
0.0
  0
LINE
  5
38A
100
AcDbEntity
  8
0
370
    -3
390
0
  6
Continuous
100
AcDbLine
 10
222.039192
 20
116.153617
 30
0.0
 11
221.189233
 21
116.153617
 31
0.0
  0
LINE
  5
38B
100
AcDbEntity
  8
0
370
    -3
390
0
  6
Continuous
100
AcDbLine
 10
222.873989
 20
116.040605
 30
0.0
 11
222.039192
 21
116.153617
 31
0.0
  0
LINE
  5
38C
100
AcDbEntity
  8
0
370
    -3
390
0
  6
Continuous
100
AcDbLine
 10
223.663843
 20
115.818614
 30
0.0
 11
222.873989
 21
116.040605
 31
0.0
  0
LINE
  5
38D
100
AcDbEntity
  8
0
370
    -3
390
0
  6
Continuous
100
AcDbLine
 10
224.380576
 20
115.495563
 30
0.0
 11
223.663843
 21
115.818614
 31
0.0
  0
LINE
  5
38E
100
AcDbEntity
  8
0
370
    -3
390
0
  6
Continuous
100
AcDbLine
 10
224.998617
 20
115.082976
 30
0.0
 11
224.380576
 21
115.495563
 31
0.0
  0
LINE
  5
38F
100
AcDbEntity
  8
0
370
    -3
390
0
  6
Continuous
100
AcDbLine
 10
225.495917
 20
114.595573
 30
0.0
 11
224.998617
 21
115.082976
 31
0.0
  0
LINE
  5
390
100
AcDbEntity
  8
0
370
    -3
390
0
  6
Continuous
100
AcDbLine
 10
225.854736
 20
114.050743
 30
0.0
 11
225.495917
 21
114.595573
 31
0.0
  0
LINE
  5
391
100
AcDbEntity
  8
0
370
    -3
390
0
  6
Continuous
100
AcDbLine
 10
226.062271
 20
113.467923
 30
0.0
 11
225.854736
 21
114.050743
 31
0.0
  0
LINE
  5
392
100
AcDbEntity
  8
0
370
    -3
390
0
  6
Continuous
100
AcDbLine
 10
226.111119
 20
112.867905
 30
0.0
 11
226.062271
 21
113.467923
 31
0.0
  0
LINE
  5
393
100
AcDbEntity
  8
0
370
    -3
390
0
  6
Continuous
100
AcDbLine
 10
225.999538
 20
112.272094
 30
0.0
 11
226.111119
 21
112.867905
 31
0.0
  0
LINE
  5
394
100
AcDbEntity
  8
0
370
    -3
390
0
  6
Continuous
100
AcDbLine
 10
225.731508
 20
111.701748
 30
0.0
 11
225.999538
 21
112.272094
 31
0.0
  0
LINE
  5
395
100
AcDbEntity
  8
0
370
    -3
390
0
  6
Continuous
100
AcDbLine
 10
225.31659
 20
111.177213
 30
0.0
 11
225.731508
 21
111.701748
 31
0.0
  0
LINE
  5
396
100
AcDbEntity
  8
0
370
    -3
390
0
  6
Continuous
100
AcDbLine
 10
224.769589
 20
110.717203
 30
0.0
 11
225.31659
 21
111.177213
 31
0.0
  0
LINE
  5
397
100
AcDbEntity
  8
0
370
    -3
390
0
  6
Continuous
100
AcDbLine
 10
224.110017
 20
110.338128
 30
0.0
 11
224.769589
 21
110.717203
 31
0.0
  0
LINE
  5
398
100
AcDbEntity
  8
0
370
    -3
390
0
  6
Continuous
100
AcDbLine
 10
225.046961
 20
111.861847
 30
0.0
 11
225.114212
 21
112.44934
 31
0.0
  0
LINE
  5
399
100
AcDbEntity
  8
0
370
    -3
390
0
  6
Continuous
100
AcDbLine
 10
224.84779
 20
111.29693
 30
0.0
 11
225.046961
 21
111.861847
 31
0.0
  0
LINE
  5
39A
100
AcDbEntity
  8
0
370
    -3
390
0
  6
Continuous
100
AcDbLine
 10
224.524356
 20
110.7763
 30
0.0
 11
224.84779
 21
111.29693
 31
0.0
  0
LINE
  5
39B
100
AcDbEntity
  8
0
370
    -3
390
0
  6
Continuous
100
AcDbLine
 10
224.089086
 20
110.319964
 30
0.0
 11
224.524356
 21
110.7763
 31
0.0
  0
LINE
  5
39C
100
AcDbEntity
  8
0
370
    -3
390
0
  6
Continuous
100
AcDbLine
 10
223.558708
 20
109.945459
 30
0.0
 11
224.089086
 21
110.319964
 31
0.0
  0
LINE
  5
39D
100
AcDbEntity
  8
0
370
    -3
390
0
  6
Continuous
100
AcDbLine
 10
222.953604
 20
109.667177
 30
0.0
 11
223.558708
 21
109.945459
 31
0.0
  0
LINE
  5
39E
100
AcDbEntity
  8
0
370
    -3
390
0
  6
Continuous
100
AcDbLine
 10
222.297028
 20
109.495811
 30
0.0
 11
222.953604
 21
109.667177
 31
0.0
  0
LINE
  5
39F
100
AcDbEntity
  8
0
370
    -3
390
0
  6
Continuous
100
AcDbLine
 10
221.614212
 20
109.437948
 30
0.0
 11
222.297028
 21
109.495811
 31
0.0
  0
LINE
  5
3A0
100
AcDbEntity
  8
0
370
    -3
390
0
  6
Continuous
100
AcDbLine
 10
220.931396
 20
109.495811
 30
0.0
 11
221.614212
 21
109.437948
 31
0.0
  0
LINE
  5
3A1
100
AcDbEntity
  8
0
370
    -3
390
0
  6
Continuous
100
AcDbLine
 10
220.27482
 20
109.667177
 30
0.0
 11
220.931396
 21
109.495811
 31
0.0
  0
LINE
  5
3A2
100
AcDbEntity
  8
0
370
    -3
390
0
  6
Continuous
100
AcDbLine
 10
219.669716
 20
109.945459
 30
0.0
 11
220.27482
 21
109.667177
 31
0.0
  0
LINE
  5
3A3
100
AcDbEntity
  8
0
370
    -3
390
0
  6
Continuous
100
AcDbLine
 10
219.139338
 20
110.319964
 30
0.0
 11
219.669716
 21
109.945459
 31
0.0
  0
LINE
  5
3A4
100
AcDbEntity
  8
0
370
    -3
390
0
  6
Continuous
100
AcDbLine
 10
218.704068
 20
110.7763
 30
0.0
 11
219.139338
 21
110.319964
 31
0.0
  0
LINE
  5
3A5
100
AcDbEntity
  8
0
370
    -3
390
0
  6
Continuous
100
AcDbLine
 10
218.380634
 20
111.29693
 30
0.0
 11
218.704068
 21
110.7763
 31
0.0
  0
LINE
  5
3A6
100
AcDbEntity
  8
0
370
    -3
390
0
  6
Continuous
100
AcDbLine
 10
218.181464
 20
111.861847
 30
0.0
 11
218.380634
 21
111.29693
 31
0.0
  0
LINE
  5
3A7
100
AcDbEntity
  8
0
370
    -3
390
0
  6
Continuous
100
AcDbLine
 10
218.114212
 20
112.44934
 30
0.0
 11
218.181464
 21
111.861847
 31
0.0
  0
LINE
  5
3A8
100
AcDbEntity
  8
0
370
    -3
390
0
  6
Continuous
100
AcDbLine
 10
218.181464
 20
113.036833
 30
0.0
 11
218.114212
 21
112.44934
 31
0.0
  0
LINE
  5
3A9
100
AcDbEntity
  8
0
370
    -3
390
0
  6
Continuous
100
AcDbLine
 10
218.380634
 20
113.60175
 30
0.0
 11
218.181464
 21
113.036833
 31
0.0
  0
LINE
  5
3AA
100
AcDbEntity
  8
0
370
    -3
390
0
  6
Continuous
100
AcDbLine
 10
218.704068
 20
114.12238
 30
0.0
 11
218.380634
 21
113.60175
 31
0.0
  0
LINE
  5
3AB
100
AcDbEntity
  8
0
370
    -3
390
0
  6
Continuous
100
AcDbLine
 10
219.139338
 20
114.578716
 30
0.0
 11
218.704068
 21
114.12238
 31
0.0
  0
LINE
  5
3AC
100
AcDbEntity
  8
0
370
    -3
390
0
  6
Continuous
100
AcDbLine
 10
219.669716
 20
114.953221
 30
0.0
 11
219.139338
 21
114.578716
 31
0.0
  0
LINE
  5
3AD
100
AcDbEntity
  8
0
370
    -3
390
0
  6
Continuous
100
AcDbLine
 10
220.27482
 20
115.231503
 30
0.0
 11
219.669716
 21
114.953221
 31
0.0
  0
LINE
  5
3AE
100
AcDbEntity
  8
0
370
    -3
390
0
  6
Continuous
100
AcDbLine
 10
220.931396
 20
115.402869
 30
0.0
 11
220.27482
 21
115.231503
 31
0.0
  0
LINE
  5
3AF
100
AcDbEntity
  8
0
370
    -3
390
0
  6
Continuous
100
AcDbLine
 10
221.614212
 20
115.460732
 30
0.0
 11
220.931396
 21
115.402869
 31
0.0
  0
LINE
  5
3B0
100
AcDbEntity
  8
0
370
    -3
390
0
  6
Continuous
100
AcDbLine
 10
222.297028
 20
115.402869
 30
0.0
 11
221.614212
 21
115.460732
 31
0.0
  0
LINE
  5
3B1
100
AcDbEntity
  8
0
370
    -3
390
0
  6
Continuous
100
AcDbLine
 10
222.953604
 20
115.231503
 30
0.0
 11
222.297028
 21
115.402869
 31
0.0
  0
LINE
  5
3B2
100
AcDbEntity
  8
0
370
    -3
390
0
  6
Continuous
100
AcDbLine
 10
223.558708
 20
114.953221
 30
0.0
 11
222.953604
 21
115.231503
 31
0.0
  0
LINE
  5
3B3
100
AcDbEntity
  8
0
370
    -3
390
0
  6
Continuous
100
AcDbLine
 10
224.089086
 20
114.578716
 30
0.0
 11
223.558708
 21
114.953221
 31
0.0
  0
LINE
  5
3B4
100
AcDbEntity
  8
0
370
    -3
390
0
  6
Continuous
100
AcDbLine
 10
224.524356
 20
114.12238
 30
0.0
 11
224.089086
 21
114.578716
 31
0.0
  0
LINE
  5
3B5
100
AcDbEntity
  8
0
370
    -3
390
0
  6
Continuous
100
AcDbLine
 10
224.84779
 20
113.60175
 30
0.0
 11
224.524356
 21
114.12238
 31
0.0
  0
LINE
  5
3B6
100
AcDbEntity
  8
0
370
    -3
390
0
  6
Continuous
100
AcDbLine
 10
225.046961
 20
113.036833
 30
0.0
 11
224.84779
 21
113.60175
 31
0.0
  0
LINE
  5
3B7
100
AcDbEntity
  8
0
370
    -3
390
0
  6
Continuous
100
AcDbLine
 10
225.114212
 20
112.44934
 30
0.0
 11
225.046961
 21
113.036833
 31
0.0
  0
LINE
  5
3B8
100
AcDbEntity
  8
0
370
    -3
390
0
  6
Continuous
100
AcDbLine
 10
226.529061
 20
112.901827
 30
0.0
 11
226.614212
 21
113.551544
 31
0.0
  0
LINE
  5
3B9
100
AcDbEntity
  8
0
370
    -3
390
0
  6
Continuous
100
AcDbLine
 10
226.276507
 20
112.27424
 30
0.0
 11
226.529061
 21
112.901827
 31
0.0
  0
LINE
  5
3BA
100
AcDbEntity
  8
0
370
    -3
390
0
  6
Continuous
100
AcDbLine
 10
225.865153
 20
111.690159
 30
0.0
 11
226.276507
 21
112.27424
 31
0.0
  0
LINE
  5
3BB
100
AcDbEntity
  8
0
370
    -3
390
0
  6
Continuous
100
AcDbLine
 10
225.309009
 20
111.169478
 30
0.0
 11
225.865153
 21
111.690159
 31
0.0
  0
LINE
  5
3BC
100
AcDbEntity
  8
0
370
    -3
390
0
  6
Continuous
100
AcDbLine
 10
217.363272
 20
111.690159
 30
0.0
 11
217.919415
 21
111.169478
 31
0.0
  0
LINE
  5
3BD
100
AcDbEntity
  8
0
370
    -3
390
0
  6
Continuous
100
AcDbLine
 10
216.951917
 20
112.27424
 30
0.0
 11
217.363272
 21
111.690159
 31
0.0
  0
LINE
  5
3BE
100
AcDbEntity
  8
0
370
    -3
390
0
  6
Continuous
100
AcDbLine
 10
216.699363
 20
112.901827
 30
0.0
 11
216.951917
 21
112.27424
 31
0.0
  0
LINE
  5
3BF
100
AcDbEntity
  8
0
370
    -3
390
0
  6
Continuous
100
AcDbLine
 10
216.614212
 20
113.551544
 30
0.0
 11
216.699363
 21
112.901827
 31
0.0
  0
LINE
  5
3C0
100
AcDbEntity
  8
0
370
    -3
390
0
  6
Continuous
100
AcDbLine
 10
217.200678
 20
114.172317
 30
0.0
 11
217.114212
 21
113.551544
 31
0.0
  0
LINE
  5
3C1
100
AcDbEntity
  8
0
370
    -3
390
0
  6
Continuous
100
AcDbLine
 10
217.456754
 20
114.769235
 30
0.0
 11
217.200678
 21
114.172317
 31
0.0
  0
LINE
  5
3C2
100
AcDbEntity
  8
0
370
    -3
390
0
  6
Continuous
100
AcDbLine
 10
217.872599
 20
115.319357
 30
0.0
 11
217.456754
 21
114.769235
 31
0.0
  0
LINE
  5
3C3
100
AcDbEntity
  8
0
370
    -3
390
0
  6
Continuous
100
AcDbLine
 10
218.432232
 20
115.801544
 30
0.0
 11
217.872599
 21
115.319357
 31
0.0
  0
LINE
  5
3C4
100
AcDbEntity
  8
0
370
    -3
390
0
  6
Continuous
100
AcDbLine
 10
219.114146
 20
116.197264
 30
0.0
 11
218.432232
 21
115.801544
 31
0.0
  0
LINE
  5
3C5
100
AcDbEntity
  8
0
370
    -3
390
0
  6
Continuous
100
AcDbLine
 10
219.892137
 20
116.49131
 30
0.0
 11
219.114146
 21
116.197264
 31
0.0
  0
LINE
  5
3C6
100
AcDbEntity
  8
0
370
    -3
390
0
  6
Continuous
100
AcDbLine
 10
220.736306
 20
116.672383
 30
0.0
 11
219.892137
 21
116.49131
 31
0.0
  0
LINE
  5
3C7
100
AcDbEntity
  8
0
370
    -3
390
0
  6
Continuous
100
AcDbLine
 10
221.614212
 20
116.733524
 30
0.0
 11
220.736306
 21
116.672383
 31
0.0
  0
LINE
  5
3C8
100
AcDbEntity
  8
0
370
    -3
390
0
  6
Continuous
100
AcDbLine
 10
222.492119
 20
116.672383
 30
0.0
 11
221.614212
 21
116.733524
 31
0.0
  0
LINE
  5
3C9
100
AcDbEntity
  8
0
370
    -3
390
0
  6
Continuous
100
AcDbLine
 10
223.336288
 20
116.49131
 30
0.0
 11
222.492119
 21
116.672383
 31
0.0
  0
LINE
  5
3CA
100
AcDbEntity
  8
0
370
    -3
390
0
  6
Continuous
100
AcDbLine
 10
224.114278
 20
116.197264
 30
0.0
 11
223.336288
 21
116.49131
 31
0.0
  0
LINE
  5
3CB
100
AcDbEntity
  8
0
370
    -3
390
0
  6
Continuous
100
AcDbLine
 10
224.796193
 20
115.801544
 30
0.0
 11
224.114278
 21
116.197264
 31
0.0
  0
LINE
  5
3CC
100
AcDbEntity
  8
0
370
    -3
390
0
  6
Continuous
100
AcDbLine
 10
225.355825
 20
115.319357
 30
0.0
 11
224.796193
 21
115.801544
 31
0.0
  0
LINE
  5
3CD
100
AcDbEntity
  8
0
370
    -3
390
0
  6
Continuous
100
AcDbLine
 10
225.77167
 20
114.769235
 30
0.0
 11
225.355825
 21
115.319357
 31
0.0
  0
LINE
  5
3CE
100
AcDbEntity
  8
0
370
    -3
390
0
  6
Continuous
100
AcDbLine
 10
226.027746
 20
114.172317
 30
0.0
 11
225.77167
 21
114.769235
 31
0.0
  0
LINE
  5
3CF
100
AcDbEntity
  8
0
370
    -3
390
0
  6
Continuous
100
AcDbLine
 10
226.114212
 20
113.551544
 30
0.0
 11
226.027746
 21
114.172317
 31
0.0
  0
LINE
  5
3D0
100
AcDbEntity
  8
0
370
    -3
390
0
  6
Continuous
100
AcDbLine
 10
216.710286
 20
115.057895
 30
0.0
 11
216.614212
 21
114.368147
 31
0.0
  0
LINE
  5
3D1
100
AcDbEntity
  8
0
370
    -3
390
0
  6
Continuous
100
AcDbLine
 10
216.994814
 20
115.721137
 30
0.0
 11
216.710286
 21
115.057895
 31
0.0
  0
LINE
  5
3D2
100
AcDbEntity
  8
0
370
    -3
390
0
  6
Continuous
100
AcDbLine
 10
217.456864
 20
116.332384
 30
0.0
 11
216.994814
 21
115.721137
 31
0.0
  0
LINE
  5
3D3
100
AcDbEntity
  8
0
370
    -3
390
0
  6
Continuous
100
AcDbLine
 10
218.078678
 20
116.868147
 30
0.0
 11
217.456864
 21
116.332384
 31
0.0
  0
LINE
  5
3D4
100
AcDbEntity
  8
0
370
    -3
390
0
  6
Continuous
100
AcDbLine
 10
218.836361
 20
117.307836
 30
0.0
 11
218.078678
 21
116.868147
 31
0.0
  0
LINE
  5
3D5
100
AcDbEntity
  8
0
370
    -3
390
0
  6
Continuous
100
AcDbLine
 10
219.700795
 20
117.634554
 30
0.0
 11
218.836361
 21
117.307836
 31
0.0
  0
LINE
  5
3D6
100
AcDbEntity
  8
0
370
    -3
390
0
  6
Continuous
100
AcDbLine
 10
220.63876
 20
117.835746
 30
0.0
 11
219.700795
 21
117.634554
 31
0.0
  0
LINE
  5
3D7
100
AcDbEntity
  8
0
370
    -3
390
0
  6
Continuous
100
AcDbLine
 10
221.614212
 20
117.903681
 30
0.0
 11
220.63876
 21
117.835746
 31
0.0
  0
LINE
  5
3D8
100
AcDbEntity
  8
0
370
    -3
390
0
  6
Continuous
100
AcDbLine
 10
222.589664
 20
117.835746
 30
0.0
 11
221.614212
 21
117.903681
 31
0.0
  0
LINE
  5
3D9
100
AcDbEntity
  8
0
370
    -3
390
0
  6
Continuous
100
AcDbLine
 10
223.527629
 20
117.634554
 30
0.0
 11
222.589664
 21
117.835746
 31
0.0
  0
LINE
  5
3DA
100
AcDbEntity
  8
0
370
    -3
390
0
  6
Continuous
100
AcDbLine
 10
224.392063
 20
117.307836
 30
0.0
 11
223.527629
 21
117.634554
 31
0.0
  0
LINE
  5
3DB
100
AcDbEntity
  8
0
370
    -3
390
0
  6
Continuous
100
AcDbLine
 10
225.149746
 20
116.868147
 30
0.0
 11
224.392063
 21
117.307836
 31
0.0
  0
LINE
  5
3DC
100
AcDbEntity
  8
0
370
    -3
390
0
  6
Continuous
100
AcDbLine
 10
225.77156
 20
116.332384
 30
0.0
 11
225.149746
 21
116.868147
 31
0.0
  0
LINE
  5
3DD
100
AcDbEntity
  8
0
370
    -3
390
0
  6
Continuous
100
AcDbLine
 10
226.23361
 20
115.721137
 30
0.0
 11
225.77156
 21
116.332384
 31
0.0
  0
LINE
  5
3DE
100
AcDbEntity
  8
0
370
    -3
390
0
  6
Continuous
100
AcDbLine
 10
226.518138
 20
115.057895
 30
0.0
 11
226.23361
 21
115.721137
 31
0.0
  0
LINE
  5
3DF
100
AcDbEntity
  8
0
370
    -3
390
0
  6
Continuous
100
AcDbLine
 10
226.614212
 20
114.368147
 30
0.0
 11
226.518138
 21
115.057895
 31
0.0
  0
ARC
  5
3E0
100
AcDbEntity
  8
0
370
    -3
390
0
  6
Continuous
100
AcDbCircle
 10
608.36492
 20
-117.93191
 30
0.0
 40
1.299999
100
AcDbArc
 50
61.601531
 51
135.000001
  0
ARC
  5
3E1
100
AcDbEntity
  8
0
370
    -3
390
0
  6
Continuous
100
AcDbCircle
 10
611.476191
 20
-121.043181
 30
0.0
 40
1.299999
100
AcDbArc
 50
314.999982
 51
28.398452
  0
LINE
  5
3E2
100
AcDbEntity
  8
0
370
    -3
390
0
  6
Continuous
100
AcDbLine
 10
606.753407
 20
-117.704947
 30
0.0
 11
607.445682
 21
-117.012672
 31
0.0
  0
LINE
  5
3E3
100
AcDbEntity
  8
0
370
    -3
390
0
  6
Continuous
100
AcDbLine
 10
611.703154
 20
-122.654695
 30
0.0
 11
612.395429
 21
-121.962419
 31
0.0
  0
LINE
  5
3E4
100
AcDbEntity
  8
0
370
    -3
390
0
  6
Continuous
100
AcDbLine
 10
606.753407
 20
-117.704947
 30
0.0
 11
611.703154
 21
-122.654695
 31
0.0
  0
LINE
  5
3E5
100
AcDbEntity
  8
0
370
    -3
390
0
  6
Continuous
100
AcDbLine
 10
606.753407
 20
-117.704947
 30
0.0
 11
611.703154
 21
-122.654695
 31
0.0
  0
POINT
  5
3E6
100
AcDbEntity
  8
0
370
    -3
390
0
  6
Continuous
100
AcDbPoint
 10
609.22828
 20
-120.179821
 30
0.0
  0
ARC
  5
3E7
100
AcDbEntity
  8
0
370
    -3
390
0
  6
Continuous
100
AcDbCircle
 10
604.702797
 20
-124.705304
 30
0.0
 40
9.0
100
AcDbArc
 50
28.398452
 51
61.601531
  0
ARC
  5
3E8
100
AcDbEntity
  8
0
370
    -3
390
0
  6
Continuous
100
AcDbCircle
 10
608.36492
 20
-256.495178
 30
0.0
 40
1.299999
100
AcDbArc
 50
224.999999
 51
298.398469
  0
ARC
  5
3E9
100
AcDbEntity
  8
0
370
    -3
390
0
  6
Continuous
100
AcDbCircle
 10
611.476191
 20
-253.383907
 30
0.0
 40
1.299999
100
AcDbArc
 50
331.601548
 51
45.000018
  0
LINE
  5
3EA
100
AcDbEntity
  8
0
370
    -3
390
0
  6
Continuous
100
AcDbLine
 10
606.753407
 20
-256.722141
 30
0.0
 11
607.445682
 21
-257.414416
 31
0.0
  0
LINE
  5
3EB
100
AcDbEntity
  8
0
370
    -3
390
0
  6
Continuous
100
AcDbLine
 10
611.703154
 20
-251.772393
 30
0.0
 11
612.395429
 21
-252.464669
 31
0.0
  0
LINE
  5
3EC
100
AcDbEntity
  8
0
370
    -3
390
0
  6
Continuous
100
AcDbLine
 10
606.753407
 20
-256.722141
 30
0.0
 11
611.703154
 21
-251.772393
 31
0.0
  0
LINE
  5
3ED
100
AcDbEntity
  8
0
370
    -3
390
0
  6
Continuous
100
AcDbLine
 10
606.753407
 20
-256.722141
 30
0.0
 11
611.703154
 21
-251.772393
 31
0.0
  0
POINT
  5
3EE
100
AcDbEntity
  8
0
370
    -3
390
0
  6
Continuous
100
AcDbPoint
 10
609.22828
 20
-254.247267
 30
0.0
  0
ARC
  5
3EF
100
AcDbEntity
  8
0
370
    -3
390
0
  6
Continuous
100
AcDbCircle
 10
604.702797
 20
-249.721784
 30
0.0
 40
9.0
100
AcDbArc
 50
298.398469
 51
331.601548
  0
ARC
  5
3F0
100
AcDbEntity
  8
0
370
    -3
390
0
  6
Continuous
100
AcDbCircle
 10
476.024195
 20
-256.495178
 30
0.0
 40
1.299999
100
AcDbArc
 50
241.601531
 51
315.000001
  0
ARC
  5
3F1
100
AcDbEntity
  8
0
370
    -3
390
0
  6
Continuous
100
AcDbCircle
 10
472.912924
 20
-253.383907
 30
0.0
 40
1.299999
100
AcDbArc
 50
134.999982
 51
208.398452
  0
LINE
  5
3F2
100
AcDbEntity
  8
0
370
    -3
390
0
  6
Continuous
100
AcDbLine
 10
477.635708
 20
-256.722141
 30
0.0
 11
476.943433
 21
-257.414416
 31
0.0
  0
LINE
  5
3F3
100
AcDbEntity
  8
0
370
    -3
390
0
  6
Continuous
100
AcDbLine
 10
472.685961
 20
-251.772393
 30
0.0
 11
471.993685
 21
-252.464669
 31
0.0
  0
LINE
  5
3F4
100
AcDbEntity
  8
0
370
    -3
390
0
  6
Continuous
100
AcDbLine
 10
477.635708
 20
-256.722141
 30
0.0
 11
472.685961
 21
-251.772393
 31
0.0
  0
LINE
  5
3F5
100
AcDbEntity
  8
0
370
    -3
390
0
  6
Continuous
100
AcDbLine
 10
477.635708
 20
-256.722141
 30
0.0
 11
472.685961
 21
-251.772393
 31
0.0
  0
POINT
  5
3F6
100
AcDbEntity
  8
0
370
    -3
390
0
  6
Continuous
100
AcDbPoint
 10
475.160835
 20
-254.247267
 30
0.0
  0
ARC
  5
3F7
100
AcDbEntity
  8
0
370
    -3
390
0
  6
Continuous
100
AcDbCircle
 10
479.686318
 20
-249.721784
 30
0.0
 40
9.0
100
AcDbArc
 50
208.398452
 51
241.601531
  0
ARC
  5
3F8
100
AcDbEntity
  8
0
370
    -3
390
0
  6
Continuous
100
AcDbCircle
 10
476.024195
 20
-117.93191
 30
0.0
 40
1.299999
100
AcDbArc
 50
44.999999
 51
118.398469
  0
ARC
  5
3F9
100
AcDbEntity
  8
0
370
    -3
390
0
  6
Continuous
100
AcDbCircle
 10
472.912924
 20
-121.043181
 30
0.0
 40
1.299999
100
AcDbArc
 50
151.601548
 51
225.000018
  0
LINE
  5
3FA
100
AcDbEntity
  8
0
370
    -3
390
0
  6
Continuous
100
AcDbLine
 10
477.635708
 20
-117.704947
 30
0.0
 11
476.943433
 21
-117.012672
 31
0.0
  0
LINE
  5
3FB
100
AcDbEntity
  8
0
370
    -3
390
0
  6
Continuous
100
AcDbLine
 10
472.685961
 20
-122.654695
 30
0.0
 11
471.993685
 21
-121.962419
 31
0.0
  0
LINE
  5
3FC
100
AcDbEntity
  8
0
370
    -3
390
0
  6
Continuous
100
AcDbLine
 10
477.635708
 20
-117.704947
 30
0.0
 11
472.685961
 21
-122.654695
 31
0.0
  0
LINE
  5
3FD
100
AcDbEntity
  8
0
370
    -3
390
0
  6
Continuous
100
AcDbLine
 10
477.635708
 20
-117.704947
 30
0.0
 11
472.685961
 21
-122.654695
 31
0.0
  0
POINT
  5
3FE
100
AcDbEntity
  8
0
370
    -3
390
0
  6
Continuous
100
AcDbPoint
 10
475.160835
 20
-120.179821
 30
0.0
  0
ARC
  5
3FF
100
AcDbEntity
  8
0
370
    -3
390
0
  6
Continuous
100
AcDbCircle
 10
479.686318
 20
-124.705304
 30
0.0
 40
9.0
100
AcDbArc
 50
118.398469
 51
151.601548
  0
ARC
  5
400
100
AcDbEntity
  8
0
370
    -3
390
0
  6
Continuous
100
AcDbCircle
 10
500.618232
 20
-85.943444
 30
0.0
 40
1.0
100
AcDbArc
 50
114.0
 51
204.0
  0
LINE
  5
401
100
AcDbEntity
  8
0
370
    -3
390
0
  6
Continuous
100
AcDbLine
 10
502.537045
 20
-88.154115
 30
0.0
 11
503.537887
 21
-88.578947
 31
0.0
  0
LINE
  5
402
100
AcDbEntity
  8
0
370
    -3
390
0
  6
Continuous
100
AcDbLine
 10
503.536338
 20
-87.709201
 30
0.0
 11
503.850472
 21
-87.842543
 31
0.0
  0
LINE
  5
403
100
AcDbEntity
  8
0
370
    -3
390
0
  6
Continuous
100
AcDbLine
 10
503.537887
 20
-88.578947
 30
0.0
 11
503.850472
 21
-87.842543
 31
0.0
  0
LINE
  5
404
100
AcDbEntity
  8
0
370
    -3
390
0
  6
Continuous
100
AcDbLine
 10
500.211495
 20
-85.029899
 30
0.0
 11
542.194557
 21
-66.337835
 31
0.0
  0
ARC
  5
405
100
AcDbEntity
  8
0
370
    -3
390
0
  6
Continuous
100
AcDbCircle
 10
502.99435
 20
-80.506983
 30
0.0
 40
3.0
100
AcDbArc
 50
294.0
 51
350.681877
  0
LINE
  5
406
100
AcDbEntity
  8
0
370
    -3
390
0
  6
Continuous
100
AcDbLine
 10
505.954764
 20
-80.992731
 30
0.0
 11
510.213593
 21
-55.037094
 31
0.0
  0
LINE
  5
407
100
AcDbEntity
  8
0
370
    -3
390
0
  6
Continuous
100
AcDbLine
 10
499.704686
 20
-86.350181
 30
0.0
 11
500.843549
 21
-88.908108
 31
0.0
  0
LINE
  5
408
100
AcDbEntity
  8
0
370
    -3
390
0
  6
Continuous
100
AcDbLine
 10
505.959404
 20
-86.630383
 30
0.0
 11
506.762316
 21
-88.433754
 31
0.0
  0
ARC
  5
409
100
AcDbEntity
  8
0
370
    -3
390
0
  6
Continuous
100
AcDbCircle
 10
509.502953
 20
-87.213544
 30
0.0
 40
3.0
100
AcDbArc
 50
204.0
 51
270.0
  0
LINE
  5
40A
100
AcDbEntity
  8
0
370
    -3
390
0
  6
Continuous
100
AcDbLine
 10
500.843549
 20
-88.908108
 30
0.0
 11
603.526058
 21
-43.190909
 31
0.0
  0
LINE
  5
40B
100
AcDbEntity
  8
0
370
    -3
390
0
  6
Continuous
100
AcDbLine
 10
598.821299
 20
-45.285603
 30
0.0
 11
600.529593
 21
-49.122494
 31
0.0
  0
LINE
  5
40C
100
AcDbEntity
  8
0
370
    -3
390
0
  6
Continuous
100
AcDbLine
 10
595.806599
 20
-46.627834
 30
0.0
 11
597.514893
 21
-50.464725
 31
0.0
  0
LINE
  5
40D
100
AcDbEntity
  8
0
370
    -3
390
0
  6
Continuous
100
AcDbLine
 10
597.052795
 20
-50.287342
 30
0.0
 11
597.514893
 21
-50.464725
 31
0.0
  0
LINE
  5
40E
100
AcDbEntity
  8
0
370
    -3
390
0
  6
Continuous
100
AcDbLine
 10
600.706976
 20
-48.660395
 30
0.0
 11
600.529593
 21
-49.122494
 31
0.0
  0
LINE
  5
40F
100
AcDbEntity
  8
0
370
    -3
390
0
  6
Continuous
100
AcDbLine
 10
597.514893
 20
-50.464725
 30
0.0
 11
600.529593
 21
-49.122494
 31
0.0
  0
POINT
  5
410
100
AcDbEntity
  8
0
370
    -3
390
0
  6
Continuous
100
AcDbPoint
 10
595.76835
 20
-42.485246
 30
0.0
  0
LINE
  5
411
100
AcDbEntity
  8
0
370
    -3
390
0
  6
Continuous
100
AcDbLine
 10
592.570941
 20
-43.908824
 30
0.0
 11
598.965759
 21
-41.061667
 31
0.0
  0
LINE
  5
412
100
AcDbEntity
  8
0
370
    -3
390
0
  6
Continuous
100
AcDbLine
 10
592.570941
 20
-43.908824
 30
0.0
 11
598.965759
 21
-41.061667
 31
0.0
  0
LINE
  5
413
100
AcDbEntity
  8
0
370
    -3
390
0
  6
Continuous
100
AcDbLine
 10
598.965759
 20
-41.061667
 30
0.0
 11
598.567554
 21
-40.167283
 31
0.0
  0
LINE
  5
414
100
AcDbEntity
  8
0
370
    -3
390
0
  6
Continuous
100
AcDbLine
 10
592.570941
 20
-43.908824
 30
0.0
 11
592.172736
 21
-43.01444
 31
0.0
  0
ARC
  5
415
100
AcDbEntity
  8
0
370
    -3
390
0
  6
Continuous
100
AcDbCircle
 10
593.360344
 20
-42.485683
 30
0.0
 40
1.299999
100
AcDbArc
 50
130.601531
 51
204.000001
  0
ARC
  5
416
100
AcDbEntity
  8
0
370
    -3
390
0
  6
Continuous
100
AcDbCircle
 10
542.194557
 20
-642.213544
 30
0.0
 40
600.0
100
AcDbArc
 50
85.284875
 51
91.682769
  0
ARC
  5
417
100
AcDbEntity
  8
0
370
    -3
390
0
  6
Continuous
100
AcDbCircle
 10
591.597717
 20
-43.247495
 30
0.0
 40
1.0
100
AcDbArc
 50
265.284875
 51
294.0
  0
ARC
  5
418
100
AcDbEntity
  8
0
370
    -3
390
0
  6
Continuous
100
AcDbCircle
 10
583.694557
 20
-85.213544
 30
0.0
 40
5.0
100
AcDbArc
 50
270.0
 51
0.0
  0
LINE
  5
419
100
AcDbEntity
  8
0
370
    -3
390
0
  6
Continuous
100
AcDbLine
 10
588.694557
 20
-85.213544
 30
0.0
 11
588.694557
 21
-49.794319
 31
0.0
  0
LINE
  5
41A
100
AcDbEntity
  8
0
370
    -3
390
0
  6
Continuous
100
AcDbLine
 10
602.387196
 20
-40.632982
 30
0.0
 11
603.526058
 21
-43.190909
 31
0.0
  0
ARC
  5
41B
100
AcDbEntity
  8
0
370
    -3
390
0
  6
Continuous
100
AcDbCircle
 10
601.47365
 20
-41.039719
 30
0.0
 40
1.0
100
AcDbArc
 50
24.0
 51
114.0
  0
LINE
  5
41C
100
AcDbEntity
  8
0
370
    -3
390
0
  6
Continuous
100
AcDbLine
 10
542.194557
 20
-66.337835
 30
0.0
 11
601.066914
 21
-40.126173
 31
0.0
  0
ARC
  5
41D
100
AcDbEntity
  8
0
370
    -3
390
0
  6
Continuous
100
AcDbCircle
 10
588.966795
 20
-44.418857
 30
0.0
 40
1.0
100
AcDbArc
 50
204.0
 51
294.0
  0
ARC
  5
41E
100
AcDbEntity
  8
0
370
    -3
390
0
  6
Continuous
100
AcDbCircle
 10
586.317192
 20
-45.84353
 30
0.0
 40
2.0
100
AcDbArc
 50
24.0
 51
85.768662
  0
LINE
  5
41F
100
AcDbEntity
  8
0
370
    -3
390
0
  6
Continuous
100
AcDbLine
 10
595.486858
 20
-46.770192
 30
0.0
 11
597.052795
 21
-50.287342
 31
0.0
  0
LINE
  5
420
100
AcDbEntity
  8
0
370
    -3
390
0
  6
Continuous
100
AcDbLine
 10
599.14104
 20
-45.143245
 30
0.0
 11
600.706976
 21
-48.660395
 31
0.0
  0
LINE
  5
421
100
AcDbEntity
  8
0
370
    -3
390
0
  6
Continuous
100
AcDbLine
 10
509.502953
 20
-90.213544
 30
0.0
 11
583.694557
 21
-90.213544
 31
0.0
  0
LINE
  5
422
100
AcDbEntity
  8
0
370
    -3
390
0
  6
CENTER
100
AcDbLine
 10
574.312034
 20
-66.213544
 30
0.0
 11
597.180543
 21
-66.213544
 31
0.0
  0
ARC
  5
423
100
AcDbEntity
  8
0
370
    -3
390
0
  6
Continuous
100
AcDbCircle
 10
597.379945
 20
-40.696041
 30
0.0
 40
1.299999
100
AcDbArc
 50
23.999982
 51
97.398452
  0
ARC
  5
424
100
AcDbEntity
  8
0
370
    -3
390
0
  6
Continuous
100
AcDbCircle
 10
598.371464
 20
-48.331936
 30
0.0
 40
9.0
100
AcDbArc
 50
97.398452
 51
130.601531
  0
ARC
  5
425
100
AcDbEntity
  8
0
370
    -3
390
0
  6
Continuous
100
AcDbCircle
 10
525.015662
 20
-57.465833
 30
0.0
 40
15.0
100
AcDbArc
 50
91.682769
 51
170.681877
  0
LINE
  5
426
100
AcDbEntity
  8
0
370
    -3
390
0
  6
Continuous
100
AcDbLine
 10
573.194557
 20
-91.213544
 30
0.0
 11
573.194557
 21
-90.213544
 31
0.0
  0
LINE
  5
427
100
AcDbEntity
  8
0
370
    -3
390
0
  6
Continuous
100
AcDbLine
 10
511.194557
 20
-91.213544
 30
0.0
 11
511.194557
 21
-90.213544
 31
0.0
  0
LINE
  5
428
100
AcDbEntity
  8
0
370
    -3
390
0
  6
Continuous
100
AcDbLine
 10
566.794557
 20
-94.813544
 30
0.0
 11
566.794557
 21
-100.805631
 31
0.0
  0
LINE
  5
429
100
AcDbEntity
  8
0
370
    -3
390
0
  6
Continuous
100
AcDbLine
 10
517.594557
 20
-94.813544
 30
0.0
 11
517.594557
 21
-100.805631
 31
0.0
  0
LINE
  5
42A
100
AcDbEntity
  8
0
370
    -3
390
0
  6
Continuous
100
AcDbLine
 10
573.194557
 20
-92.813544
 30
0.0
 11
511.194557
 21
-92.813544
 31
0.0
  0
ARC
  5
42B
100
AcDbEntity
  8
0
370
    -3
390
0
  6
Continuous
100
AcDbCircle
 10
515.594557
 20
-94.813544
 30
0.0
 40
2.0
100
AcDbArc
 50
0.0
 51
90.0
  0
LINE
  5
42C
100
AcDbEntity
  8
0
370
    -3
390
0
  6
Continuous
100
AcDbLine
 10
573.194557
 20
-91.213544
 30
0.0
 11
511.194557
 21
-91.213544
 31
0.0
  0
LINE
  5
42D
100
AcDbEntity
  8
0
370
    -3
390
0
  6
Continuous
100
AcDbLine
 10
511.194557
 20
-91.213544
 30
0.0
 11
511.194557
 21
-92.813544
 31
0.0
  0
LINE
  5
42E
100
AcDbEntity
  8
0
370
    -3
390
0
  6
Continuous
100
AcDbLine
 10
573.194557
 20
-91.213544
 30
0.0
 11
573.194557
 21
-92.813544
 31
0.0
  0
ARC
  5
42F
100
AcDbEntity
  8
0
370
    -3
390
0
  6
Continuous
100
AcDbCircle
 10
568.794557
 20
-94.813544
 30
0.0
 40
2.0
100
AcDbArc
 50
90.0
 51
180.0
  0
LINE
  5
430
100
AcDbEntity
  8
0
370
    -3
390
0
  6
Continuous
100
AcDbLine
 10
475.72652
 20
-253.681581
 30
0.0
 11
472.403118
 21
-250.35818
 31
0.0
  0
LINE
  5
431
100
AcDbEntity
  8
0
370
    -3
390
0
  6
Continuous
100
AcDbLine
 10
475.160835
 20
-254.247267
 30
0.0
 11
471.978854
 21
-251.065286
 31
0.0
  0
LINE
  5
432
100
AcDbEntity
  8
0
370
    -3
390
0
  6
Continuous
100
AcDbLine
 10
472.403118
 20
-249.933916
 30
0.0
 11
473.13483
 21
-249.202204
 31
0.0
  0
LINE
  5
433
100
AcDbEntity
  8
0
370
    -3
390
0
  6
Continuous
100
AcDbLine
 10
474.20624
 20
-252.161302
 30
0.0
 11
472.403118
 21
-250.35818
 31
0.0
  0
LINE
  5
434
100
AcDbEntity
  8
0
370
    -3
390
0
  6
Continuous
100
AcDbLine
 10
471.978854
 20
-251.065286
 30
0.0
 11
472.544539
 21
-250.499601
 31
0.0
  0
ARC
  5
435
100
AcDbEntity
  8
0
370
    -3
390
0
  6
Continuous
100
AcDbCircle
 10
472.61525
 20
-250.146048
 30
0.0
 40
0.3
100
AcDbArc
 50
135.0
 51
225.0
  0
LINE
  5
436
100
AcDbEntity
  8
0
370
    -3
390
0
  6
Continuous
100
AcDbLine
 10
475.72652
 20
-253.681581
 30
0.0
 11
479.049922
 21
-257.004983
 31
0.0
  0
LINE
  5
437
100
AcDbEntity
  8
0
370
    -3
390
0
  6
Continuous
100
AcDbLine
 10
475.160835
 20
-254.247267
 30
0.0
 11
478.342815
 21
-257.429247
 31
0.0
  0
LINE
  5
438
100
AcDbEntity
  8
0
370
    -3
390
0
  6
Continuous
100
AcDbLine
 10
479.474186
 20
-257.004983
 30
0.0
 11
480.205897
 21
-256.273272
 31
0.0
  0
LINE
  5
439
100
AcDbEntity
  8
0
370
    -3
390
0
  6
Continuous
100
AcDbLine
 10
474.20624
 20
-252.161302
 30
0.0
 11
472.544539
 21
-250.499601
 31
0.0
  0
LINE
  5
43A
100
AcDbEntity
  8
0
370
    -3
390
0
  6
Continuous
100
AcDbLine
 10
477.2468
 20
-255.201861
 30
0.0
 11
479.049922
 21
-257.004983
 31
0.0
  0
LINE
  5
43B
100
AcDbEntity
  8
0
370
    -3
390
0
  6
Continuous
100
AcDbLine
 10
478.342815
 20
-257.429247
 30
0.0
 11
478.908501
 21
-256.863562
 31
0.0
  0
ARC
  5
43C
100
AcDbEntity
  8
0
370
    -3
390
0
  6
Continuous
100
AcDbCircle
 10
479.262054
 20
-256.792851
 30
0.0
 40
0.3
100
AcDbArc
 50
225.0
 51
315.0
  0
LINE
  5
43D
100
AcDbEntity
  8
0
370
    -3
390
0
  6
Continuous
100
AcDbLine
 10
608.662595
 20
-253.681581
 30
0.0
 11
611.985997
 21
-250.35818
 31
0.0
  0
LINE
  5
43E
100
AcDbEntity
  8
0
370
    -3
390
0
  6
Continuous
100
AcDbLine
 10
609.22828
 20
-254.247267
 30
0.0
 11
612.410261
 21
-251.065286
 31
0.0
  0
LINE
  5
43F
100
AcDbEntity
  8
0
370
    -3
390
0
  6
Continuous
100
AcDbLine
 10
611.985997
 20
-249.933916
 30
0.0
 11
611.254285
 21
-249.202204
 31
0.0
  0
LINE
  5
440
100
AcDbEntity
  8
0
370
    -3
390
0
  6
Continuous
100
AcDbLine
 10
610.182874
 20
-252.161302
 30
0.0
 11
611.985997
 21
-250.35818
 31
0.0
  0
LINE
  5
441
100
AcDbEntity
  8
0
370
    -3
390
0
  6
Continuous
100
AcDbLine
 10
612.410261
 20
-251.065286
 30
0.0
 11
611.844575
 21
-250.499601
 31
0.0
  0
ARC
  5
442
100
AcDbEntity
  8
0
370
    -3
390
0
  6
Continuous
100
AcDbCircle
 10
611.773865
 20
-250.146048
 30
0.0
 40
0.3
100
AcDbArc
 50
315.0
 51
45.0
  0
LINE
  5
443
100
AcDbEntity
  8
0
370
    -3
390
0
  6
Continuous
100
AcDbLine
 10
608.662595
 20
-253.681581
 30
0.0
 11
605.339193
 21
-257.004983
 31
0.0
  0
LINE
  5
444
100
AcDbEntity
  8
0
370
    -3
390
0
  6
Continuous
100
AcDbLine
 10
609.22828
 20
-254.247267
 30
0.0
 11
606.0463
 21
-257.429247
 31
0.0
  0
LINE
  5
445
100
AcDbEntity
  8
0
370
    -3
390
0
  6
Continuous
100
AcDbLine
 10
604.914929
 20
-257.004983
 30
0.0
 11
604.183218
 21
-256.273272
 31
0.0
  0
LINE
  5
446
100
AcDbEntity
  8
0
370
    -3
390
0
  6
Continuous
100
AcDbLine
 10
610.182874
 20
-252.161302
 30
0.0
 11
611.844575
 21
-250.499601
 31
0.0
  0
LINE
  5
447
100
AcDbEntity
  8
0
370
    -3
390
0
  6
Continuous
100
AcDbLine
 10
607.142315
 20
-255.201861
 30
0.0
 11
605.339193
 21
-257.004983
 31
0.0
  0
LINE
  5
448
100
AcDbEntity
  8
0
370
    -3
390
0
  6
Continuous
100
AcDbLine
 10
606.0463
 20
-257.429247
 30
0.0
 11
605.480614
 21
-256.863562
 31
0.0
  0
ARC
  5
449
100
AcDbEntity
  8
0
370
    -3
390
0
  6
Continuous
100
AcDbCircle
 10
605.127061
 20
-256.792851
 30
0.0
 40
0.3
100
AcDbArc
 50
225.0
 51
315.0
  0
LINE
  5
44A
100
AcDbEntity
  8
0
370
    -3
390
0
  6
Continuous
100
AcDbLine
 10
608.662595
 20
-120.745507
 30
0.0
 11
611.985997
 21
-124.068908
 31
0.0
  0
LINE
  5
44B
100
AcDbEntity
  8
0
370
    -3
390
0
  6
Continuous
100
AcDbLine
 10
609.22828
 20
-120.179821
 30
0.0
 11
612.410261
 21
-123.361802
 31
0.0
  0
LINE
  5
44C
100
AcDbEntity
  8
0
370
    -3
390
0
  6
Continuous
100
AcDbLine
 10
611.985997
 20
-124.493173
 30
0.0
 11
611.254285
 21
-125.224884
 31
0.0
  0
LINE
  5
44D
100
AcDbEntity
  8
0
370
    -3
390
0
  6
Continuous
100
AcDbLine
 10
610.182874
 20
-122.265786
 30
0.0
 11
611.985997
 21
-124.068908
 31
0.0
  0
LINE
  5
44E
100
AcDbEntity
  8
0
370
    -3
390
0
  6
Continuous
100
AcDbLine
 10
612.410261
 20
-123.361802
 30
0.0
 11
611.844575
 21
-123.927487
 31
0.0
  0
ARC
  5
44F
100
AcDbEntity
  8
0
370
    -3
390
0
  6
Continuous
100
AcDbCircle
 10
611.773865
 20
-124.281041
 30
0.0
 40
0.3
100
AcDbArc
 50
315.0
 51
45.0
  0
LINE
  5
450
100
AcDbEntity
  8
0
370
    -3
390
0
  6
Continuous
100
AcDbLine
 10
608.662595
 20
-120.745507
 30
0.0
 11
605.339193
 21
-117.422105
 31
0.0
  0
LINE
  5
451
100
AcDbEntity
  8
0
370
    -3
390
0
  6
Continuous
100
AcDbLine
 10
609.22828
 20
-120.179821
 30
0.0
 11
606.0463
 21
-116.997841
 31
0.0
  0
LINE
  5
452
100
AcDbEntity
  8
0
370
    -3
390
0
  6
Continuous
100
AcDbLine
 10
604.914929
 20
-117.422105
 30
0.0
 11
604.183218
 21
-118.153816
 31
0.0
  0
LINE
  5
453
100
AcDbEntity
  8
0
370
    -3
390
0
  6
Continuous
100
AcDbLine
 10
610.182874
 20
-122.265786
 30
0.0
 11
611.844575
 21
-123.927487
 31
0.0
  0
LINE
  5
454
100
AcDbEntity
  8
0
370
    -3
390
0
  6
Continuous
100
AcDbLine
 10
607.142315
 20
-119.225227
 30
0.0
 11
605.339193
 21
-117.422105
 31
0.0
  0
LINE
  5
455
100
AcDbEntity
  8
0
370
    -3
390
0
  6
Continuous
100
AcDbLine
 10
606.0463
 20
-116.997841
 30
0.0
 11
605.480614
 21
-117.563526
 31
0.0
  0
ARC
  5
456
100
AcDbEntity
  8
0
370
    -3
390
0
  6
Continuous
100
AcDbCircle
 10
605.127061
 20
-117.634237
 30
0.0
 40
0.3
100
AcDbArc
 50
45.0
 51
135.0
  0
LINE
  5
457
100
AcDbEntity
  8
0
370
    -3
390
0
  6
Continuous
100
AcDbLine
 10
475.72652
 20
-120.745507
 30
0.0
 11
472.403118
 21
-124.068908
 31
0.0
  0
LINE
  5
458
100
AcDbEntity
  8
0
370
    -3
390
0
  6
Continuous
100
AcDbLine
 10
475.160835
 20
-120.179821
 30
0.0
 11
471.978854
 21
-123.361802
 31
0.0
  0
LINE
  5
459
100
AcDbEntity
  8
0
370
    -3
390
0
  6
Continuous
100
AcDbLine
 10
472.403118
 20
-124.493173
 30
0.0
 11
473.13483
 21
-125.224884
 31
0.0
  0
LINE
  5
45A
100
AcDbEntity
  8
0
370
    -3
390
0
  6
Continuous
100
AcDbLine
 10
474.20624
 20
-122.265786
 30
0.0
 11
472.403118
 21
-124.068908
 31
0.0
  0
LINE
  5
45B
100
AcDbEntity
  8
0
370
    -3
390
0
  6
Continuous
100
AcDbLine
 10
471.978854
 20
-123.361802
 30
0.0
 11
472.544539
 21
-123.927487
 31
0.0
  0
ARC
  5
45C
100
AcDbEntity
  8
0
370
    -3
390
0
  6
Continuous
100
AcDbCircle
 10
472.61525
 20
-124.281041
 30
0.0
 40
0.3
100
AcDbArc
 50
135.0
 51
225.0
  0
LINE
  5
45D
100
AcDbEntity
  8
0
370
    -3
390
0
  6
Continuous
100
AcDbLine
 10
475.72652
 20
-120.745507
 30
0.0
 11
479.049922
 21
-117.422105
 31
0.0
  0
LINE
  5
45E
100
AcDbEntity
  8
0
370
    -3
390
0
  6
Continuous
100
AcDbLine
 10
475.160835
 20
-120.179821
 30
0.0
 11
478.342815
 21
-116.997841
 31
0.0
  0
LINE
  5
45F
100
AcDbEntity
  8
0
370
    -3
390
0
  6
Continuous
100
AcDbLine
 10
479.474186
 20
-117.422105
 30
0.0
 11
480.205897
 21
-118.153816
 31
0.0
  0
LINE
  5
460
100
AcDbEntity
  8
0
370
    -3
390
0
  6
Continuous
100
AcDbLine
 10
474.20624
 20
-122.265786
 30
0.0
 11
472.544539
 21
-123.927487
 31
0.0
  0
LINE
  5
461
100
AcDbEntity
  8
0
370
    -3
390
0
  6
Continuous
100
AcDbLine
 10
477.2468
 20
-119.225227
 30
0.0
 11
479.049922
 21
-117.422105
 31
0.0
  0
LINE
  5
462
100
AcDbEntity
  8
0
370
    -3
390
0
  6
Continuous
100
AcDbLine
 10
478.342815
 20
-116.997841
 30
0.0
 11
478.908501
 21
-117.563526
 31
0.0
  0
ARC
  5
463
100
AcDbEntity
  8
0
370
    -3
390
0
  6
Continuous
100
AcDbCircle
 10
479.262054
 20
-117.634237
 30
0.0
 40
0.3
100
AcDbArc
 50
45.0
 51
135.0
  0
ARC
  5
464
100
AcDbEntity
  8
0
370
    -3
390
0
  6
Continuous
100
AcDbCircle
 10
578.747527
 20
-238.525145
 30
0.0
 40
2.0
100
AcDbArc
 50
210.0
 51
305.465024
  0
ARC
  5
465
100
AcDbEntity
  8
0
370
    -3
390
0
  6
Continuous
100
AcDbCircle
 10
578.747527
 20
-135.901943
 30
0.0
 40
2.0
100
AcDbArc
 50
54.534976
 51
150.0
  0
ARC
  5
466
100
AcDbEntity
  8
0
370
    -3
390
0
  6
Continuous
100
AcDbCircle
 10
578.245207
 20
-136.771987
 30
0.0
 40
2.0
100
AcDbArc
 50
150.0
 51
234.446556
  0
ARC
  5
467
100
AcDbEntity
  8
0
370
    -3
390
0
  6
Continuous
100
AcDbCircle
 10
573.720351
 20
-144.609268
 30
0.0
 40
2.0
100
AcDbArc
 50
53.49975
 51
150.0
  0
ARC
  5
468
100
AcDbEntity
  8
0
370
    -3
390
0
  6
Continuous
100
AcDbCircle
 10
571.958219
 20
-147.66137
 30
0.0
 40
2.0
100
AcDbArc
 50
150.0
 51
233.037937
  0
ARC
  5
469
100
AcDbEntity
  8
0
370
    -3
390
0
  6
Continuous
100
AcDbCircle
 10
567.417255
 20
-155.526551
 30
0.0
 40
2.0
100
AcDbArc
 50
51.480376
 51
150.0
  0
ARC
  5
46A
100
AcDbEntity
  8
0
370
    -3
390
0
  6
Continuous
100
AcDbCircle
 10
565.645846
 20
-158.594721
 30
0.0
 40
2.0
100
AcDbArc
 50
150.0
 51
230.667582
  0
ARC
  5
46B
100
AcDbEntity
  8
0
370
    -3
390
0
  6
Continuous
100
AcDbCircle
 10
561.065504
 20
-166.528105
 30
0.0
 40
2.0
100
AcDbArc
 50
47.626375
 51
150.0
  0
ARC
  5
46C
100
AcDbEntity
  8
0
370
    -3
390
0
  6
Continuous
100
AcDbCircle
 10
559.267683
 20
-169.642022
 30
0.0
 40
2.0
100
AcDbArc
 50
150.0
 51
225.824196
  0
ARC
  5
46D
100
AcDbEntity
  8
0
370
    -3
390
0
  6
Continuous
100
AcDbCircle
 10
554.536513
 20
-177.83665
 30
0.0
 40
2.0
100
AcDbArc
 50
37.226028
 51
150.0
  0
ARC
  5
46E
100
AcDbEntity
  8
0
370
    -3
390
0
  6
Continuous
100
AcDbCircle
 10
552.586862
 20
-181.213544
 30
0.0
 40
2.0
100
AcDbArc
 50
150.0
 51
210.0
  0
ARC
  5
46F
100
AcDbEntity
  8
0
370
    -3
390
0
  6
Continuous
100
AcDbCircle
 10
542.194557
 20
-175.213544
 30
0.0
 40
2.0
100
AcDbArc
 50
270.0
 51
330.0
  0
ARC
  5
470
100
AcDbEntity
  8
0
370
    -3
390
0
  6
Continuous
100
AcDbCircle
 10
544.144208
 20
-171.83665
 30
0.0
 40
2.0
100
AcDbArc
 50
330.0
 51
82.773972
  0
ARC
  5
471
100
AcDbEntity
  8
0
370
    -3
390
0
  6
Continuous
100
AcDbCircle
 10
548.875379
 20
-163.642022
 30
0.0
 40
2.0
100
AcDbArc
 50
254.175804
 51
330.0
  0
ARC
  5
472
100
AcDbEntity
  8
0
370
    -3
390
0
  6
Continuous
100
AcDbCircle
 10
550.673199
 20
-160.528105
 30
0.0
 40
2.0
100
AcDbArc
 50
330.0
 51
72.373625
  0
ARC
  5
473
100
AcDbEntity
  8
0
370
    -3
390
0
  6
Continuous
100
AcDbCircle
 10
555.253541
 20
-152.594721
 30
0.0
 40
2.0
100
AcDbArc
 50
249.332418
 51
330.0
  0
ARC
  5
474
100
AcDbEntity
  8
0
370
    -3
390
0
  6
Continuous
100
AcDbCircle
 10
557.02495
 20
-149.526551
 30
0.0
 40
2.0
100
AcDbArc
 50
330.0
 51
68.519624
  0
ARC
  5
475
100
AcDbEntity
  8
0
370
    -3
390
0
  6
Continuous
100
AcDbCircle
 10
561.565914
 20
-141.66137
 30
0.0
 40
2.0
100
AcDbArc
 50
246.962063
 51
330.0
  0
ARC
  5
476
100
AcDbEntity
  8
0
370
    -3
390
0
  6
Continuous
100
AcDbCircle
 10
563.328046
 20
-138.609268
 30
0.0
 40
2.0
100
AcDbArc
 50
330.0
 51
66.50025
  0
ARC
  5
477
100
AcDbEntity
  8
0
370
    -3
390
0
  6
Continuous
100
AcDbCircle
 10
567.852902
 20
-130.771987
 30
0.0
 40
2.0
100
AcDbArc
 50
245.553444
 51
330.0
  0
ARC
  5
478
100
AcDbEntity
  8
0
370
    -3
390
0
  6
Continuous
100
AcDbCircle
 10
568.355222
 20
-129.901943
 30
0.0
 40
2.0
100
AcDbArc
 50
330.0
 51
65.465024
  0
LINE
  5
479
100
AcDbEntity
  8
0
370
    -3
390
0
  6
Continuous
100
AcDbLine
 10
576.513156
 20
-135.771987
 30
0.0
 11
577.015476
 21
-134.901943
 31
0.0
  0
LINE
  5
47A
100
AcDbEntity
  8
0
370
    -3
390
0
  6
Continuous
100
AcDbLine
 10
570.226168
 20
-146.66137
 30
0.0
 11
571.9883
 21
-143.609268
 31
0.0
  0
LINE
  5
47B
100
AcDbEntity
  8
0
370
    -3
390
0
  6
Continuous
100
AcDbLine
 10
563.913795
 20
-157.594721
 30
0.0
 11
565.685204
 21
-154.526551
 31
0.0
  0
LINE
  5
47C
100
AcDbEntity
  8
0
370
    -3
390
0
  6
Continuous
100
AcDbLine
 10
557.535633
 20
-168.642022
 30
0.0
 11
559.333453
 21
-165.528105
 31
0.0
  0
LINE
  5
47D
100
AcDbEntity
  8
0
370
    -3
390
0
  6
Continuous
100
AcDbLine
 10
550.607429
 20
-164.642022
 30
0.0
 11
552.40525
 21
-161.528105
 31
0.0
  0
LINE
  5
47E
100
AcDbEntity
  8
0
370
    -3
390
0
  6
Continuous
100
AcDbLine
 10
556.985592
 20
-153.594721
 30
0.0
 11
558.757001
 21
-150.526551
 31
0.0
  0
LINE
  5
47F
100
AcDbEntity
  8
0
370
    -3
390
0
  6
Continuous
100
AcDbLine
 10
563.297965
 20
-142.66137
 30
0.0
 11
565.060097
 21
-139.609268
 31
0.0
  0
LINE
  5
480
100
AcDbEntity
  8
0
370
    -3
390
0
  6
Continuous
100
AcDbLine
 10
569.584953
 20
-131.771987
 30
0.0
 11
570.087273
 21
-130.901943
 31
0.0
  0
LINE
  5
481
100
AcDbEntity
  8
0
370
    -3
390
0
  6
Continuous
100
AcDbLine
 10
550.854811
 20
-180.213544
 30
0.0
 11
552.804462
 21
-176.83665
 31
0.0
  0
LINE
  5
482
100
AcDbEntity
  8
0
370
    -3
390
0
  6
Continuous
100
AcDbLine
 10
543.926608
 20
-176.213544
 30
0.0
 11
545.876259
 21
-172.83665
 31
0.0
  0
ARC
  5
483
100
AcDbEntity
  8
0
370
    -3
390
0
  6
Continuous
100
AcDbCircle
 10
561.065504
 20
-207.898983
 30
0.0
 40
2.0
100
AcDbArc
 50
210.0
 51
312.373625
  0
ARC
  5
484
100
AcDbEntity
  8
0
370
    -3
390
0
  6
Continuous
100
AcDbCircle
 10
559.267683
 20
-204.785066
 30
0.0
 40
2.0
100
AcDbArc
 50
134.175804
 51
210.0
  0
LINE
  5
485
100
AcDbEntity
  8
0
370
    -3
390
0
  6
Continuous
100
AcDbLine
 10
557.535633
 20
-205.785066
 30
0.0
 11
559.333453
 21
-208.898983
 31
0.0
  0
ARC
  5
486
100
AcDbEntity
  8
0
370
    -3
390
0
  6
Continuous
100
AcDbCircle
 10
561.565914
 20
-232.765718
 30
0.0
 40
2.0
100
AcDbArc
 50
30.0
 51
113.037937
  0
ARC
  5
487
100
AcDbEntity
  8
0
370
    -3
390
0
  6
Continuous
100
AcDbCircle
 10
532.749707
 20
-213.572505
 30
0.0
 40
2.0
100
AcDbArc
 50
150.0
 51
250.286561
  0
ARC
  5
488
100
AcDbEntity
  8
0
370
    -3
390
0
  6
Continuous
100
AcDbCircle
 10
534.532499
 20
-210.484618
 30
0.0
 40
2.0
100
AcDbArc
 50
71.775744
 51
150.0
  0
ARC
  5
489
100
AcDbEntity
  8
0
370
    -3
390
0
  6
Continuous
100
AcDbCircle
 10
548.875379
 20
-210.785066
 30
0.0
 40
2.0
100
AcDbArc
 50
30.0
 51
105.824196
  0
ARC
  5
48A
100
AcDbEntity
  8
0
370
    -3
390
0
  6
Continuous
100
AcDbCircle
 10
550.673199
 20
-213.898983
 30
0.0
 40
2.0
100
AcDbArc
 50
287.626375
 51
30.0
  0
ARC
  5
48B
100
AcDbEntity
  8
0
370
    -3
390
0
  6
Continuous
100
AcDbCircle
 10
557.02495
 20
-224.900537
 30
0.0
 40
2.0
100
AcDbArc
 50
291.480376
 51
30.0
  0
ARC
  5
48C
100
AcDbEntity
  8
0
370
    -3
390
0
  6
Continuous
100
AcDbCircle
 10
555.253541
 20
-221.832368
 30
0.0
 40
2.0
100
AcDbArc
 50
30.0
 51
110.667582
  0
ARC
  5
48D
100
AcDbEntity
  8
0
370
    -3
390
0
  6
Continuous
100
AcDbCircle
 10
565.645846
 20
-215.832368
 30
0.0
 40
2.0
100
AcDbArc
 50
129.332418
 51
210.0
  0
ARC
  5
48E
100
AcDbEntity
  8
0
370
    -3
390
0
  6
Continuous
100
AcDbCircle
 10
567.417255
 20
-218.900537
 30
0.0
 40
2.0
100
AcDbArc
 50
210.0
 51
308.519624
  0
ARC
  5
48F
100
AcDbEntity
  8
0
370
    -3
390
0
  6
Continuous
100
AcDbCircle
 10
566.178927
 20
-192.213544
 30
0.0
 40
2.0
100
AcDbArc
 50
90.0
 51
168.224256
  0
ARC
  5
490
100
AcDbEntity
  8
0
370
    -3
390
0
  6
Continuous
100
AcDbCircle
 10
569.744512
 20
-192.213544
 30
0.0
 40
2.0
100
AcDbArc
 50
349.713439
 51
90.0
  0
ARC
  5
491
100
AcDbEntity
  8
0
370
    -3
390
0
  6
Continuous
100
AcDbCircle
 10
578.855163
 20
-192.213544
 30
0.0
 40
2.0
100
AcDbArc
 50
90.0
 51
172.233566
  0
ARC
  5
492
100
AcDbEntity
  8
0
370
    -3
390
0
  6
Continuous
100
AcDbCircle
 10
582.38473
 20
-192.213544
 30
0.0
 40
2.0
100
AcDbArc
 50
352.908354
 51
90.0
  0
ARC
  5
493
100
AcDbEntity
  8
0
370
    -3
390
0
  6
Continuous
100
AcDbCircle
 10
582.38473
 20
-182.213544
 30
0.0
 40
2.0
100
AcDbArc
 50
270.0
 51
7.091646
  0
ARC
  5
494
100
AcDbEntity
  8
0
370
    -3
390
0
  6
Continuous
100
AcDbCircle
 10
578.855163
 20
-182.213544
 30
0.0
 40
2.0
100
AcDbArc
 50
187.766434
 51
270.0
  0
ARC
  5
495
100
AcDbEntity
  8
0
370
    -3
390
0
  6
Continuous
100
AcDbCircle
 10
569.744512
 20
-182.213544
 30
0.0
 40
2.0
100
AcDbArc
 50
270.0
 51
10.286561
  0
ARC
  5
496
100
AcDbEntity
  8
0
370
    -3
390
0
  6
Continuous
100
AcDbCircle
 10
566.178927
 20
-182.213544
 30
0.0
 40
2.0
100
AcDbArc
 50
191.775744
 51
270.0
  0
ARC
  5
497
100
AcDbEntity
  8
0
370
    -3
390
0
  6
Continuous
100
AcDbCircle
 10
526.429598
 20
-149.907833
 30
0.0
 40
2.0
100
AcDbArc
 50
112.908354
 51
210.0
  0
ARC
  5
498
100
AcDbEntity
  8
0
370
    -3
390
0
  6
Continuous
100
AcDbCircle
 10
528.194382
 20
-152.964528
 30
0.0
 40
2.0
100
AcDbArc
 50
210.0
 51
292.233566
  0
ARC
  5
499
100
AcDbEntity
  8
0
370
    -3
390
0
  6
Continuous
100
AcDbCircle
 10
532.749707
 20
-160.854583
 30
0.0
 40
2.0
100
AcDbArc
 50
109.713439
 51
210.0
  0
ARC
  5
49A
100
AcDbEntity
  8
0
370
    -3
390
0
  6
Continuous
100
AcDbCircle
 10
534.532499
 20
-163.94247
 30
0.0
 40
2.0
100
AcDbArc
 50
210.0
 51
288.224256
  0
ARC
  5
49B
100
AcDbEntity
  8
0
370
    -3
390
0
  6
Continuous
100
AcDbCircle
 10
539.188984
 20
-172.007738
 30
0.0
 40
2.0
100
AcDbArc
 50
101.180937
 51
210.0
  0
ARC
  5
49C
100
AcDbEntity
  8
0
370
    -3
390
0
  6
Continuous
100
AcDbCircle
 10
541.070328
 20
-175.266322
 30
0.0
 40
2.0
100
AcDbArc
 50
210.0
 51
275.375682
  0
ARC
  5
49D
100
AcDbEntity
  8
0
370
    -3
390
0
  6
Continuous
100
AcDbCircle
 10
553.10327
 20
-182.213544
 30
0.0
 40
2.0
100
AcDbArc
 50
204.624318
 51
270.0
  0
ARC
  5
49E
100
AcDbEntity
  8
0
370
    -3
390
0
  6
Continuous
100
AcDbCircle
 10
556.865958
 20
-182.213544
 30
0.0
 40
2.0
100
AcDbArc
 50
270.0
 51
18.819063
  0
ARC
  5
49F
100
AcDbEntity
  8
0
370
    -3
390
0
  6
Continuous
100
AcDbCircle
 10
556.865958
 20
-192.213544
 30
0.0
 40
2.0
100
AcDbArc
 50
341.180937
 51
90.0
  0
ARC
  5
4A0
100
AcDbEntity
  8
0
370
    -3
390
0
  6
Continuous
100
AcDbCircle
 10
554.536513
 20
-196.590438
 30
0.0
 40
2.0
100
AcDbArc
 50
210.0
 51
322.773972
  0
ARC
  5
4A1
100
AcDbEntity
  8
0
370
    -3
390
0
  6
Continuous
100
AcDbCircle
 10
553.10327
 20
-192.213544
 30
0.0
 40
2.0
100
AcDbArc
 50
90.0
 51
155.375682
  0
ARC
  5
4A2
100
AcDbEntity
  8
0
370
    -3
390
0
  6
Continuous
100
AcDbCircle
 10
552.586862
 20
-193.213544
 30
0.0
 40
2.0
100
AcDbArc
 50
150.0
 51
210.0
  0
ARC
  5
4A3
100
AcDbEntity
  8
0
370
    -3
390
0
  6
Continuous
100
AcDbCircle
 10
542.194557
 20
-199.213544
 30
0.0
 40
2.0
100
AcDbArc
 50
30.0
 51
90.0
  0
ARC
  5
4A4
100
AcDbEntity
  8
0
370
    -3
390
0
  6
Continuous
100
AcDbCircle
 10
544.144208
 20
-202.590438
 30
0.0
 40
2.0
100
AcDbArc
 50
277.226028
 51
30.0
  0
ARC
  5
4A5
100
AcDbEntity
  8
0
370
    -3
390
0
  6
Continuous
100
AcDbCircle
 10
539.188984
 20
-202.41935
 30
0.0
 40
2.0
100
AcDbArc
 50
150.0
 51
258.819063
  0
ARC
  5
4A6
100
AcDbEntity
  8
0
370
    -3
390
0
  6
Continuous
100
AcDbCircle
 10
541.070328
 20
-199.160766
 30
0.0
 40
2.0
100
AcDbArc
 50
84.624318
 51
150.0
  0
ARC
  5
4A7
100
AcDbEntity
  8
0
370
    -3
390
0
  6
Continuous
100
AcDbCircle
 10
532.410074
 20
-194.160766
 30
0.0
 40
2.0
100
AcDbArc
 50
330.0
 51
35.375682
  0
ARC
  5
4A8
100
AcDbEntity
  8
0
370
    -3
390
0
  6
Continuous
100
AcDbCircle
 10
531.802253
 20
-193.213544
 30
0.0
 40
2.0
100
AcDbArc
 50
30.0
 51
90.0
  0
ARC
  5
4A9
100
AcDbEntity
  8
0
370
    -3
390
0
  6
Continuous
100
AcDbCircle
 10
530.52873
 20
-197.41935
 30
0.0
 40
2.0
100
AcDbArc
 50
221.180937
 51
330.0
  0
ARC
  5
4AA
100
AcDbEntity
  8
0
370
    -3
390
0
  6
Continuous
100
AcDbCircle
 10
527.902951
 20
-193.213544
 30
0.0
 40
2.0
100
AcDbArc
 50
90.0
 51
202.773972
  0
ARC
  5
4AB
100
AcDbEntity
  8
0
370
    -3
390
0
  6
Continuous
100
AcDbCircle
 10
518.44061
 20
-193.213544
 30
0.0
 40
2.0
100
AcDbArc
 50
14.175804
 51
90.0
  0
ARC
  5
4AC
100
AcDbEntity
  8
0
370
    -3
390
0
  6
Continuous
100
AcDbCircle
 10
525.872245
 20
-205.484618
 30
0.0
 40
2.0
100
AcDbArc
 50
330.0
 51
48.224256
  0
ARC
  5
4AD
100
AcDbEntity
  8
0
370
    -3
390
0
  6
Continuous
100
AcDbCircle
 10
524.089453
 20
-208.572505
 30
0.0
 40
2.0
100
AcDbArc
 50
229.713439
 51
330.0
  0
ARC
  5
4AE
100
AcDbEntity
  8
0
370
    -3
390
0
  6
Continuous
100
AcDbCircle
 10
514.844969
 20
-193.213544
 30
0.0
 40
2.0
100
AcDbArc
 50
90.0
 51
192.373625
  0
ARC
  5
4AF
100
AcDbEntity
  8
0
370
    -3
390
0
  6
Continuous
100
AcDbCircle
 10
521.901271
 20
-232.362548
 30
0.0
 40
2.0
100
AcDbArc
 50
65.79734
 51
150.0
  0
ARC
  5
4B0
100
AcDbEntity
  8
0
370
    -3
390
0
  6
Continuous
100
AcDbCircle
 10
526.429598
 20
-224.519255
 30
0.0
 40
2.0
100
AcDbArc
 50
150.0
 51
247.091646
  0
ARC
  5
4B1
100
AcDbEntity
  8
0
370
    -3
390
0
  6
Continuous
100
AcDbCircle
 10
528.194382
 20
-221.46256
 30
0.0
 40
2.0
100
AcDbArc
 50
67.766434
 51
150.0
  0
ARC
  5
4B2
100
AcDbEntity
  8
0
370
    -3
390
0
  6
Continuous
100
AcDbCircle
 10
517.769344
 20
-219.519255
 30
0.0
 40
2.0
100
AcDbArc
 50
232.908354
 51
330.0
  0
ARC
  5
4B3
100
AcDbEntity
  8
0
370
    -3
390
0
  6
Continuous
100
AcDbCircle
 10
519.534128
 20
-216.46256
 30
0.0
 40
2.0
100
AcDbArc
 50
330.0
 51
52.233566
  0
ARC
  5
4B4
100
AcDbEntity
  8
0
370
    -3
390
0
  6
Continuous
100
AcDbCircle
 10
505.684285
 20
-193.213544
 30
0.0
 40
2.0
100
AcDbArc
 50
9.332418
 51
90.0
  0
ARC
  5
4B5
100
AcDbEntity
  8
0
370
    -3
390
0
  6
Continuous
100
AcDbCircle
 10
502.141468
 20
-193.213544
 30
0.0
 40
2.0
100
AcDbArc
 50
90.0
 51
188.519624
  0
ARC
  5
4B6
100
AcDbEntity
  8
0
370
    -3
390
0
  6
Continuous
100
AcDbCircle
 10
513.241017
 20
-227.362548
 30
0.0
 40
2.0
100
AcDbArc
 50
330.0
 51
54.20266
  0
ARC
  5
4B7
100
AcDbEntity
  8
0
370
    -3
390
0
  6
Continuous
100
AcDbCircle
 10
493.059539
 20
-193.213544
 30
0.0
 40
2.0
100
AcDbArc
 50
6.962063
 51
90.0
  0
ARC
  5
4B8
100
AcDbEntity
  8
0
370
    -3
390
0
  6
Continuous
100
AcDbCircle
 10
489.535275
 20
-193.213544
 30
0.0
 40
2.0
100
AcDbArc
 50
90.0
 51
186.50025
  0
ARC
  5
4B9
100
AcDbEntity
  8
0
370
    -3
390
0
  6
Continuous
100
AcDbCircle
 10
511.482618
 20
-230.408183
 30
0.0
 40
2.0
100
AcDbArc
 50
234.586688
 51
330.0
  0
ARC
  5
4BA
100
AcDbEntity
  8
0
370
    -3
390
0
  6
Continuous
100
AcDbCircle
 10
520.142873
 20
-235.408183
 30
0.0
 40
2.0
100
AcDbArc
 50
150.0
 51
245.413312
  0
ARC
  5
4BB
100
AcDbEntity
  8
0
370
    -3
390
0
  6
Continuous
100
AcDbCircle
 10
563.328046
 20
-235.81782
 30
0.0
 40
2.0
100
AcDbArc
 50
293.49975
 51
30.0
  0
ARC
  5
4BC
100
AcDbEntity
  8
0
370
    -3
390
0
  6
Continuous
100
AcDbCircle
 10
573.720351
 20
-229.81782
 30
0.0
 40
2.0
100
AcDbArc
 50
210.0
 51
306.50025
  0
ARC
  5
4BD
100
AcDbEntity
  8
0
370
    -3
390
0
  6
Continuous
100
AcDbCircle
 10
571.958219
 20
-226.765718
 30
0.0
 40
2.0
100
AcDbArc
 50
126.962063
 51
210.0
  0
ARC
  5
4BE
100
AcDbEntity
  8
0
370
    -3
390
0
  6
Continuous
100
AcDbCircle
 10
591.441385
 20
-192.213544
 30
0.0
 40
2.0
100
AcDbArc
 50
90.0
 51
174.20266
  0
ARC
  5
4BF
100
AcDbEntity
  8
0
370
    -3
390
0
  6
Continuous
100
AcDbCircle
 10
594.958181
 20
-192.213544
 30
0.0
 40
2.0
100
AcDbArc
 50
354.586688
 51
90.0
  0
ARC
  5
4C0
100
AcDbEntity
  8
0
370
    -3
390
0
  6
Continuous
100
AcDbCircle
 10
594.958181
 20
-182.213544
 30
0.0
 40
2.0
100
AcDbArc
 50
270.0
 51
5.413312
  0
ARC
  5
4C1
100
AcDbEntity
  8
0
370
    -3
390
0
  6
Continuous
100
AcDbCircle
 10
591.441385
 20
-182.213544
 30
0.0
 40
2.0
100
AcDbArc
 50
185.79734
 51
270.0
  0
ARC
  5
4C2
100
AcDbEntity
  8
0
370
    -3
390
0
  6
Continuous
100
AcDbCircle
 10
521.901271
 20
-142.064541
 30
0.0
 40
2.0
100
AcDbArc
 50
210.0
 51
294.20266
  0
ARC
  5
4C3
100
AcDbEntity
  8
0
370
    -3
390
0
  6
Continuous
100
AcDbCircle
 10
520.142873
 20
-139.018905
 30
0.0
 40
2.0
100
AcDbArc
 50
114.586688
 51
210.0
  0
ARC
  5
4C4
100
AcDbEntity
  8
0
370
    -3
390
0
  6
Continuous
100
AcDbCircle
 10
542.194557
 20
-187.213544
 30
0.0
 40
10.0
100
AcDbArc
 50
264.624318
 51
270.0
  0
ARC
  5
4C5
100
AcDbEntity
  8
0
370
    -3
390
0
  6
Continuous
100
AcDbCircle
 10
542.194557
 20
-187.213544
 30
0.0
 40
17.5
100
AcDbArc
 50
258.819063
 51
277.226028
  0
ARC
  5
4C6
100
AcDbEntity
  8
0
370
    -3
390
0
  6
Continuous
100
AcDbCircle
 10
542.194557
 20
-187.213544
 30
0.0
 40
22.5
100
AcDbArc
 50
251.775744
 51
285.824196
  0
ARC
  5
4C7
100
AcDbEntity
  8
0
370
    -3
390
0
  6
Continuous
100
AcDbCircle
 10
542.194557
 20
-187.213544
 30
0.0
 40
30.0
100
AcDbArc
 50
250.286561
 51
287.626375
  0
ARC
  5
4C8
100
AcDbEntity
  8
0
370
    -3
390
0
  6
Continuous
100
AcDbCircle
 10
542.194557
 20
-187.213544
 30
0.0
 40
35.0
100
AcDbArc
 50
247.766434
 51
290.667582
  0
ARC
  5
4C9
100
AcDbEntity
  8
0
370
    -3
390
0
  6
Continuous
100
AcDbCircle
 10
542.194557
 20
-187.213544
 30
0.0
 40
42.5
100
AcDbArc
 50
247.091646
 51
291.480376
  0
ARC
  5
4CA
100
AcDbEntity
  8
0
370
    -3
390
0
  6
Continuous
100
AcDbCircle
 10
542.194557
 20
-187.213544
 30
0.0
 40
47.5
100
AcDbArc
 50
245.79734
 51
293.037937
  0
ARC
  5
4CB
100
AcDbEntity
  8
0
370
    -3
390
0
  6
Continuous
100
AcDbCircle
 10
542.194557
 20
-187.213544
 30
0.0
 40
55.0
100
AcDbArc
 50
245.413312
 51
293.49975
  0
ARC
  5
4CC
100
AcDbEntity
  8
0
370
    -3
390
0
  6
Continuous
100
AcDbCircle
 10
542.194557
 20
-187.213544
 30
0.0
 40
10.0
100
AcDbArc
 50
330.0
 51
335.375682
  0
ARC
  5
4CD
100
AcDbEntity
  8
0
370
    -3
390
0
  6
Continuous
100
AcDbCircle
 10
542.194557
 20
-187.213544
 30
0.0
 40
17.5
100
AcDbArc
 50
322.773972
 51
341.180937
  0
ARC
  5
4CE
100
AcDbEntity
  8
0
370
    -3
390
0
  6
Continuous
100
AcDbCircle
 10
542.194557
 20
-187.213544
 30
0.0
 40
22.5
100
AcDbArc
 50
314.175804
 51
348.224256
  0
ARC
  5
4CF
100
AcDbEntity
  8
0
370
    -3
390
0
  6
Continuous
100
AcDbCircle
 10
542.194557
 20
-187.213544
 30
0.0
 40
30.0
100
AcDbArc
 50
312.373625
 51
349.713439
  0
ARC
  5
4D0
100
AcDbEntity
  8
0
370
    -3
390
0
  6
Continuous
100
AcDbCircle
 10
542.194557
 20
-187.213544
 30
0.0
 40
35.0
100
AcDbArc
 50
309.332418
 51
352.233566
  0
ARC
  5
4D1
100
AcDbEntity
  8
0
370
    -3
390
0
  6
Continuous
100
AcDbCircle
 10
542.194557
 20
-187.213544
 30
0.0
 40
42.5
100
AcDbArc
 50
308.519624
 51
352.908354
  0
ARC
  5
4D2
100
AcDbEntity
  8
0
370
    -3
390
0
  6
Continuous
100
AcDbCircle
 10
542.194557
 20
-187.213544
 30
0.0
 40
47.5
100
AcDbArc
 50
306.962063
 51
354.20266
  0
ARC
  5
4D3
100
AcDbEntity
  8
0
370
    -3
390
0
  6
Continuous
100
AcDbCircle
 10
542.194557
 20
-187.213544
 30
0.0
 40
55.0
100
AcDbArc
 50
306.50025
 51
354.586688
  0
ARC
  5
4D4
100
AcDbEntity
  8
0
370
    -3
390
0
  6
Continuous
100
AcDbCircle
 10
542.194557
 20
-187.213544
 30
0.0
 40
55.0
100
AcDbArc
 50
5.413312
 51
53.49975
  0
ARC
  5
4D5
100
AcDbEntity
  8
0
370
    -3
390
0
  6
Continuous
100
AcDbCircle
 10
542.194557
 20
-187.213544
 30
0.0
 40
47.5
100
AcDbArc
 50
5.79734
 51
53.037937
  0
ARC
  5
4D6
100
AcDbEntity
  8
0
370
    -3
390
0
  6
Continuous
100
AcDbCircle
 10
542.194557
 20
-187.213544
 30
0.0
 40
42.5
100
AcDbArc
 50
7.091646
 51
51.480376
  0
ARC
  5
4D7
100
AcDbEntity
  8
0
370
    -3
390
0
  6
Continuous
100
AcDbCircle
 10
542.194557
 20
-187.213544
 30
0.0
 40
35.0
100
AcDbArc
 50
7.766434
 51
50.667582
  0
ARC
  5
4D8
100
AcDbEntity
  8
0
370
    -3
390
0
  6
Continuous
100
AcDbCircle
 10
542.194557
 20
-187.213544
 30
0.0
 40
30.0
100
AcDbArc
 50
10.286561
 51
47.626375
  0
ARC
  5
4D9
100
AcDbEntity
  8
0
370
    -3
390
0
  6
Continuous
100
AcDbCircle
 10
542.194557
 20
-187.213544
 30
0.0
 40
22.5
100
AcDbArc
 50
11.775744
 51
45.824196
  0
ARC
  5
4DA
100
AcDbEntity
  8
0
370
    -3
390
0
  6
Continuous
100
AcDbCircle
 10
542.194557
 20
-187.213544
 30
0.0
 40
17.5
100
AcDbArc
 50
18.819063
 51
37.226028
  0
ARC
  5
4DB
100
AcDbEntity
  8
0
370
    -3
390
0
  6
Continuous
100
AcDbCircle
 10
542.194557
 20
-187.213544
 30
0.0
 40
10.0
100
AcDbArc
 50
90.0
 51
95.375682
  0
ARC
  5
4DC
100
AcDbEntity
  8
0
370
    -3
390
0
  6
Continuous
100
AcDbCircle
 10
542.194557
 20
-187.213544
 30
0.0
 40
17.5
100
AcDbArc
 50
82.773972
 51
101.180937
  0
ARC
  5
4DD
100
AcDbEntity
  8
0
370
    -3
390
0
  6
Continuous
100
AcDbCircle
 10
542.194557
 20
-187.213544
 30
0.0
 40
22.5
100
AcDbArc
 50
74.175804
 51
108.224256
  0
ARC
  5
4DE
100
AcDbEntity
  8
0
370
    -3
390
0
  6
Continuous
100
AcDbCircle
 10
542.194557
 20
-187.213544
 30
0.0
 40
30.0
100
AcDbArc
 50
72.373625
 51
109.713439
  0
ARC
  5
4DF
100
AcDbEntity
  8
0
370
    -3
390
0
  6
Continuous
100
AcDbCircle
 10
542.194557
 20
-187.213544
 30
0.0
 40
35.0
100
AcDbArc
 50
69.332418
 51
112.233566
  0
ARC
  5
4E0
100
AcDbEntity
  8
0
370
    -3
390
0
  6
Continuous
100
AcDbCircle
 10
542.194557
 20
-187.213544
 30
0.0
 40
42.5
100
AcDbArc
 50
68.519624
 51
112.908354
  0
ARC
  5
4E1
100
AcDbEntity
  8
0
370
    -3
390
0
  6
Continuous
100
AcDbCircle
 10
542.194557
 20
-187.213544
 30
0.0
 40
47.5
100
AcDbArc
 50
66.962063
 51
114.20266
  0
ARC
  5
4E2
100
AcDbEntity
  8
0
370
    -3
390
0
  6
Continuous
100
AcDbCircle
 10
542.194557
 20
-187.213544
 30
0.0
 40
55.0
100
AcDbArc
 50
66.50025
 51
114.586688
  0
ARC
  5
4E3
100
AcDbEntity
  8
0
370
    -3
390
0
  6
Continuous
100
AcDbCircle
 10
532.410074
 20
-180.266322
 30
0.0
 40
2.0
100
AcDbArc
 50
324.624318
 51
30.0
  0
ARC
  5
4E4
100
AcDbEntity
  8
0
370
    -3
390
0
  6
Continuous
100
AcDbCircle
 10
531.802253
 20
-181.213544
 30
0.0
 40
2.0
100
AcDbArc
 50
270.0
 51
330.0
  0
ARC
  5
4E5
100
AcDbEntity
  8
0
370
    -3
390
0
  6
Continuous
100
AcDbCircle
 10
542.194557
 20
-187.213544
 30
0.0
 40
10.0
100
AcDbArc
 50
144.624318
 51
150.0
  0
ARC
  5
4E6
100
AcDbEntity
  8
0
370
    -3
390
0
  6
Continuous
100
AcDbCircle
 10
542.194557
 20
-187.213544
 30
0.0
 40
10.0
100
AcDbArc
 50
24.624318
 51
30.0
  0
ARC
  5
4E7
100
AcDbEntity
  8
0
370
    -3
390
0
  6
Continuous
100
AcDbCircle
 10
527.902951
 20
-181.213544
 30
0.0
 40
2.0
100
AcDbArc
 50
157.226028
 51
270.0
  0
ARC
  5
4E8
100
AcDbEntity
  8
0
370
    -3
390
0
  6
Continuous
100
AcDbCircle
 10
530.52873
 20
-177.007738
 30
0.0
 40
2.0
100
AcDbArc
 50
30.0
 51
138.819063
  0
ARC
  5
4E9
100
AcDbEntity
  8
0
370
    -3
390
0
  6
Continuous
100
AcDbCircle
 10
525.872245
 20
-168.94247
 30
0.0
 40
2.0
100
AcDbArc
 50
311.775744
 51
30.0
  0
ARC
  5
4EA
100
AcDbEntity
  8
0
370
    -3
390
0
  6
Continuous
100
AcDbCircle
 10
518.44061
 20
-181.213544
 30
0.0
 40
2.0
100
AcDbArc
 50
270.0
 51
345.824196
  0
ARC
  5
4EB
100
AcDbEntity
  8
0
370
    -3
390
0
  6
Continuous
100
AcDbCircle
 10
514.844969
 20
-181.213544
 30
0.0
 40
2.0
100
AcDbArc
 50
167.626375
 51
270.0
  0
ARC
  5
4EC
100
AcDbEntity
  8
0
370
    -3
390
0
  6
Continuous
100
AcDbCircle
 10
524.089453
 20
-165.854583
 30
0.0
 40
2.0
100
AcDbArc
 50
30.0
 51
130.286561
  0
ARC
  5
4ED
100
AcDbEntity
  8
0
370
    -3
390
0
  6
Continuous
100
AcDbCircle
 10
519.534128
 20
-157.964528
 30
0.0
 40
2.0
100
AcDbArc
 50
307.766434
 51
30.0
  0
ARC
  5
4EE
100
AcDbEntity
  8
0
370
    -3
390
0
  6
Continuous
100
AcDbCircle
 10
505.684285
 20
-181.213544
 30
0.0
 40
2.0
100
AcDbArc
 50
270.0
 51
350.667582
  0
ARC
  5
4EF
100
AcDbEntity
  8
0
370
    -3
390
0
  6
Continuous
100
AcDbCircle
 10
502.141468
 20
-181.213544
 30
0.0
 40
2.0
100
AcDbArc
 50
171.480376
 51
270.0
  0
ARC
  5
4F0
100
AcDbEntity
  8
0
370
    -3
390
0
  6
Continuous
100
AcDbCircle
 10
517.769344
 20
-154.907833
 30
0.0
 40
2.0
100
AcDbArc
 50
30.0
 51
127.091646
  0
ARC
  5
4F1
100
AcDbEntity
  8
0
370
    -3
390
0
  6
Continuous
100
AcDbCircle
 10
513.241017
 20
-147.064541
 30
0.0
 40
2.0
100
AcDbArc
 50
305.79734
 51
30.0
  0
ARC
  5
4F2
100
AcDbEntity
  8
0
370
    -3
390
0
  6
Continuous
100
AcDbCircle
 10
511.482618
 20
-144.018905
 30
0.0
 40
2.0
100
AcDbArc
 50
30.0
 51
125.413312
  0
ARC
  5
4F3
100
AcDbEntity
  8
0
370
    -3
390
0
  6
Continuous
100
AcDbCircle
 10
493.059539
 20
-181.213544
 30
0.0
 40
2.0
100
AcDbArc
 50
270.0
 51
353.037937
  0
ARC
  5
4F4
100
AcDbEntity
  8
0
370
    -3
390
0
  6
Continuous
100
AcDbCircle
 10
489.535275
 20
-181.213544
 30
0.0
 40
2.0
100
AcDbArc
 50
173.49975
 51
270.0
  0
ARC
  5
4F5
100
AcDbEntity
  8
0
370
    -3
390
0
  6
Continuous
100
AcDbCircle
 10
542.194557
 20
-187.213544
 30
0.0
 40
17.5
100
AcDbArc
 50
138.819063
 51
157.226028
  0
ARC
  5
4F6
100
AcDbEntity
  8
0
370
    -3
390
0
  6
Continuous
100
AcDbCircle
 10
542.194557
 20
-187.213544
 30
0.0
 40
22.5
100
AcDbArc
 50
131.775744
 51
165.824196
  0
ARC
  5
4F7
100
AcDbEntity
  8
0
370
    -3
390
0
  6
Continuous
100
AcDbCircle
 10
542.194557
 20
-187.213544
 30
0.0
 40
30.0
100
AcDbArc
 50
130.286561
 51
167.626375
  0
ARC
  5
4F8
100
AcDbEntity
  8
0
370
    -3
390
0
  6
Continuous
100
AcDbCircle
 10
542.194557
 20
-187.213544
 30
0.0
 40
35.0
100
AcDbArc
 50
127.766434
 51
170.667582
  0
ARC
  5
4F9
100
AcDbEntity
  8
0
370
    -3
390
0
  6
Continuous
100
AcDbCircle
 10
542.194557
 20
-187.213544
 30
0.0
 40
42.5
100
AcDbArc
 50
127.091646
 51
171.480376
  0
ARC
  5
4FA
100
AcDbEntity
  8
0
370
    -3
390
0
  6
Continuous
100
AcDbCircle
 10
542.194557
 20
-187.213544
 30
0.0
 40
47.5
100
AcDbArc
 50
125.79734
 51
173.037937
  0
ARC
  5
4FB
100
AcDbEntity
  8
0
370
    -3
390
0
  6
Continuous
100
AcDbCircle
 10
542.194557
 20
-187.213544
 30
0.0
 40
55.0
100
AcDbArc
 50
125.413312
 51
173.49975
  0
ARC
  5
4FC
100
AcDbEntity
  8
0
370
    -3
390
0
  6
Continuous
100
AcDbCircle
 10
542.194557
 20
-187.213544
 30
0.0
 40
10.0
100
AcDbArc
 50
210.0
 51
215.375682
  0
ARC
  5
4FD
100
AcDbEntity
  8
0
370
    -3
390
0
  6
Continuous
100
AcDbCircle
 10
542.194557
 20
-187.213544
 30
0.0
 40
17.5
100
AcDbArc
 50
202.773972
 51
221.180937
  0
ARC
  5
4FE
100
AcDbEntity
  8
0
370
    -3
390
0
  6
Continuous
100
AcDbCircle
 10
542.194557
 20
-187.213544
 30
0.0
 40
22.5
100
AcDbArc
 50
194.175804
 51
228.224256
  0
ARC
  5
4FF
100
AcDbEntity
  8
0
370
    -3
390
0
  6
Continuous
100
AcDbCircle
 10
542.194557
 20
-187.213544
 30
0.0
 40
30.0
100
AcDbArc
 50
192.373625
 51
229.713439
  0
ARC
  5
500
100
AcDbEntity
  8
0
370
    -3
390
0
  6
Continuous
100
AcDbCircle
 10
542.194557
 20
-187.213544
 30
0.0
 40
35.0
100
AcDbArc
 50
189.332418
 51
232.233566
  0
ARC
  5
501
100
AcDbEntity
  8
0
370
    -3
390
0
  6
Continuous
100
AcDbCircle
 10
542.194557
 20
-187.213544
 30
0.0
 40
42.5
100
AcDbArc
 50
188.519624
 51
232.908354
  0
ARC
  5
502
100
AcDbEntity
  8
0
370
    -3
390
0
  6
Continuous
100
AcDbCircle
 10
542.194557
 20
-187.213544
 30
0.0
 40
47.5
100
AcDbArc
 50
186.962063
 51
234.20266
  0
ARC
  5
503
100
AcDbEntity
  8
0
370
    -3
390
0
  6
Continuous
100
AcDbCircle
 10
542.194557
 20
-187.213544
 30
0.0
 40
55.0
100
AcDbArc
 50
186.50025
 51
234.586688
  0
ARC
  5
504
100
AcDbEntity
  8
0
370
    -3
390
0
  6
Continuous
100
AcDbCircle
 10
480.485563
 20
-193.213544
 30
0.0
 40
2.0
100
AcDbArc
 50
5.553444
 51
90.0
  0
ARC
  5
505
100
AcDbEntity
  8
0
370
    -3
390
0
  6
Continuous
100
AcDbCircle
 10
506.965401
 20
-238.232232
 30
0.0
 40
2.0
100
AcDbArc
 50
330.0
 51
55.374349
  0
ARC
  5
506
100
AcDbEntity
  8
0
370
    -3
390
0
  6
Continuous
100
AcDbCircle
 10
515.625655
 20
-243.232232
 30
0.0
 40
2.0
100
AcDbArc
 50
64.625651
 51
150.0
  0
ARC
  5
507
100
AcDbEntity
  8
0
370
    -3
390
0
  6
Continuous
100
AcDbCircle
 10
567.852902
 20
-243.655101
 30
0.0
 40
2.0
100
AcDbArc
 50
30.0
 51
114.446556
  0
ARC
  5
508
100
AcDbEntity
  8
0
370
    -3
390
0
  6
Continuous
100
AcDbCircle
 10
578.245207
 20
-237.655101
 30
0.0
 40
2.0
100
AcDbArc
 50
125.553444
 51
210.0
  0
ARC
  5
509
100
AcDbEntity
  8
0
370
    -3
390
0
  6
Continuous
100
AcDbCircle
 10
603.992616
 20
-192.213544
 30
0.0
 40
2.0
100
AcDbArc
 50
90.0
 51
175.374349
  0
ARC
  5
50A
100
AcDbEntity
  8
0
370
    -3
390
0
  6
Continuous
100
AcDbCircle
 10
603.992616
 20
-182.213544
 30
0.0
 40
2.0
100
AcDbArc
 50
184.625651
 51
270.0
  0
ARC
  5
50B
100
AcDbEntity
  8
0
370
    -3
390
0
  6
Continuous
100
AcDbCircle
 10
515.625655
 20
-131.194856
 30
0.0
 40
2.0
100
AcDbArc
 50
210.0
 51
295.374349
  0
ARC
  5
50C
100
AcDbEntity
  8
0
370
    -3
390
0
  6
Continuous
100
AcDbCircle
 10
506.965401
 20
-136.194856
 30
0.0
 40
2.0
100
AcDbArc
 50
304.625651
 51
30.0
  0
ARC
  5
50D
100
AcDbEntity
  8
0
370
    -3
390
0
  6
Continuous
100
AcDbCircle
 10
480.485563
 20
-181.213544
 30
0.0
 40
2.0
100
AcDbArc
 50
270.0
 51
354.446556
  0
ARC
  5
50E
100
AcDbEntity
  8
0
370
    -3
390
0
  6
Continuous
100
AcDbCircle
 10
542.194557
 20
-187.213544
 30
0.0
 40
60.0
100
AcDbArc
 50
124.625651
 51
174.446556
  0
ARC
  5
50F
100
AcDbEntity
  8
0
370
    -3
390
0
  6
Continuous
100
AcDbCircle
 10
542.194557
 20
-187.213544
 30
0.0
 40
60.0
100
AcDbArc
 50
65.553444
 51
115.374349
  0
ARC
  5
510
100
AcDbEntity
  8
0
370
    -3
390
0
  6
Continuous
100
AcDbCircle
 10
542.194557
 20
-187.213544
 30
0.0
 40
60.0
100
AcDbArc
 50
4.625651
 51
54.446556
  0
ARC
  5
511
100
AcDbEntity
  8
0
370
    -3
390
0
  6
Continuous
100
AcDbCircle
 10
542.194557
 20
-187.213544
 30
0.0
 40
60.0
100
AcDbArc
 50
305.553444
 51
355.374349
  0
ARC
  5
512
100
AcDbEntity
  8
0
370
    -3
390
0
  6
Continuous
100
AcDbCircle
 10
542.194557
 20
-187.213544
 30
0.0
 40
60.0
100
AcDbArc
 50
244.625651
 51
294.446556
  0
ARC
  5
513
100
AcDbEntity
  8
0
370
    -3
390
0
  6
Continuous
100
AcDbCircle
 10
542.194557
 20
-187.213544
 30
0.0
 40
60.0
100
AcDbArc
 50
185.553444
 51
235.374349
  0
ARC
  5
514
100
AcDbEntity
  8
0
370
    -3
390
0
  6
Continuous
100
AcDbCircle
 10
238.694557
 20
-187.213544
 30
0.0
 40
390.8
100
AcDbArc
 50
357.020093
 51
2.979907
  0
ARC
  5
515
100
AcDbEntity
  8
0
370
    -3
390
0
  6
Continuous
100
AcDbCircle
 10
542.194557
 20
116.286456
 30
0.0
 40
390.8
100
AcDbArc
 50
267.020093
 51
272.979907
  0
ARC
  5
516
100
AcDbEntity
  8
0
370
    -3
390
0
  6
Continuous
100
AcDbCircle
 10
845.694557
 20
-187.213544
 30
0.0
 40
390.8
100
AcDbArc
 50
177.020093
 51
182.979907
  0
ARC
  5
517
100
AcDbEntity
  8
0
370
    -3
390
0
  6
Continuous
100
AcDbCircle
 10
542.194557
 20
116.286456
 30
0.0
 40
374.8
100
AcDbArc
 50
267.020093
 51
270.0
  0
LINE
  5
518
100
AcDbEntity
  8
0
370
    -3
390
0
  6
Continuous
100
AcDbLine
 10
553.10327
 20
-184.213544
 30
0.0
 11
556.865958
 21
-184.213544
 31
0.0
  0
LINE
  5
519
100
AcDbEntity
  8
0
370
    -3
390
0
  6
Continuous
100
AcDbLine
 10
566.178927
 20
-184.213544
 30
0.0
 11
569.744512
 21
-184.213544
 31
0.0
  0
LINE
  5
51A
100
AcDbEntity
  8
0
370
    -3
390
0
  6
Continuous
100
AcDbLine
 10
578.855163
 20
-184.213544
 30
0.0
 11
582.38473
 21
-184.213544
 31
0.0
  0
LINE
  5
51B
100
AcDbEntity
  8
0
370
    -3
390
0
  6
Continuous
100
AcDbLine
 10
591.441385
 20
-184.213544
 30
0.0
 11
594.958181
 21
-184.213544
 31
0.0
  0
ARC
  5
51C
100
AcDbEntity
  8
0
370
    -3
390
0
  6
Continuous
100
AcDbCircle
 10
604.995831
 20
-182.213544
 30
0.0
 40
2.0
100
AcDbArc
 50
270.0
 51
4.552071
  0
LINE
  5
51D
100
AcDbEntity
  8
0
370
    -3
390
0
  6
Continuous
100
AcDbLine
 10
603.992616
 20
-184.213544
 30
0.0
 11
604.995831
 21
-184.213544
 31
0.0
  0
ARC
  5
51E
100
AcDbEntity
  8
0
370
    -3
390
0
  6
Continuous
100
AcDbCircle
 10
542.194557
 20
-187.213544
 30
0.0
 40
65.0
100
AcDbArc
 50
4.552071
 51
54.534976
  0
LINE
  5
51F
100
AcDbEntity
  8
0
370
    -3
390
0
  6
Continuous
100
AcDbLine
 10
566.178927
 20
-190.213544
 30
0.0
 11
569.744512
 21
-190.213544
 31
0.0
  0
LINE
  5
520
100
AcDbEntity
  8
0
370
    -3
390
0
  6
Continuous
100
AcDbLine
 10
578.855163
 20
-190.213544
 30
0.0
 11
582.38473
 21
-190.213544
 31
0.0
  0
LINE
  5
521
100
AcDbEntity
  8
0
370
    -3
390
0
  6
Continuous
100
AcDbLine
 10
591.441385
 20
-190.213544
 30
0.0
 11
594.958181
 21
-190.213544
 31
0.0
  0
ARC
  5
522
100
AcDbEntity
  8
0
370
    -3
390
0
  6
Continuous
100
AcDbCircle
 10
604.995831
 20
-192.213544
 30
0.0
 40
2.0
100
AcDbArc
 50
355.447929
 51
90.0
  0
LINE
  5
523
100
AcDbEntity
  8
0
370
    -3
390
0
  6
Continuous
100
AcDbLine
 10
603.992616
 20
-190.213544
 30
0.0
 11
604.995831
 21
-190.213544
 31
0.0
  0
LINE
  5
524
100
AcDbEntity
  8
0
370
    -3
390
0
  6
Continuous
100
AcDbLine
 10
576.513156
 20
-238.655101
 30
0.0
 11
577.015476
 21
-239.525145
 31
0.0
  0
LINE
  5
525
100
AcDbEntity
  8
0
370
    -3
390
0
  6
Continuous
100
AcDbLine
 10
570.226168
 20
-227.765718
 30
0.0
 11
571.9883
 21
-230.81782
 31
0.0
  0
LINE
  5
526
100
AcDbEntity
  8
0
370
    -3
390
0
  6
Continuous
100
AcDbLine
 10
563.913795
 20
-216.832368
 30
0.0
 11
565.685204
 21
-219.900537
 31
0.0
  0
LINE
  5
527
100
AcDbEntity
  8
0
370
    -3
390
0
  6
Continuous
100
AcDbLine
 10
550.854811
 20
-194.213544
 30
0.0
 11
552.804462
 21
-197.590438
 31
0.0
  0
LINE
  5
528
100
AcDbEntity
  8
0
370
    -3
390
0
  6
Continuous
100
AcDbLine
 10
553.10327
 20
-190.213544
 30
0.0
 11
556.865958
 21
-190.213544
 31
0.0
  0
ARC
  5
529
100
AcDbEntity
  8
0
370
    -3
390
0
  6
Continuous
100
AcDbCircle
 10
542.194557
 20
-187.213544
 30
0.0
 40
65.0
100
AcDbArc
 50
305.465024
 51
355.447929
  0
LINE
  5
52A
100
AcDbEntity
  8
0
370
    -3
390
0
  6
Continuous
100
AcDbLine
 10
532.800449
 20
-209.484618
 30
0.0
 11
531.017656
 21
-212.572505
 31
0.0
  0
LINE
  5
52B
100
AcDbEntity
  8
0
370
    -3
390
0
  6
Continuous
100
AcDbLine
 10
556.985592
 20
-220.832368
 30
0.0
 11
558.757001
 21
-223.900537
 31
0.0
  0
LINE
  5
52C
100
AcDbEntity
  8
0
370
    -3
390
0
  6
Continuous
100
AcDbLine
 10
550.607429
 20
-209.785066
 30
0.0
 11
552.40525
 21
-212.898983
 31
0.0
  0
LINE
  5
52D
100
AcDbEntity
  8
0
370
    -3
390
0
  6
Continuous
100
AcDbLine
 10
543.926608
 20
-198.213544
 30
0.0
 11
545.876259
 21
-201.590438
 31
0.0
  0
LINE
  5
52E
100
AcDbEntity
  8
0
370
    -3
390
0
  6
Continuous
100
AcDbLine
 10
539.338278
 20
-198.160766
 30
0.0
 11
537.456933
 21
-201.41935
 31
0.0
  0
LINE
  5
52F
100
AcDbEntity
  8
0
370
    -3
390
0
  6
Continuous
100
AcDbLine
 10
526.462331
 20
-220.46256
 30
0.0
 11
524.697547
 21
-223.519255
 31
0.0
  0
LINE
  5
530
100
AcDbEntity
  8
0
370
    -3
390
0
  6
Continuous
100
AcDbLine
 10
520.16922
 20
-231.362548
 30
0.0
 11
518.410822
 21
-234.408183
 31
0.0
  0
LINE
  5
531
100
AcDbEntity
  8
0
370
    -3
390
0
  6
Continuous
100
AcDbLine
 10
563.297965
 20
-231.765718
 30
0.0
 11
565.060097
 21
-234.81782
 31
0.0
  0
ARC
  5
532
100
AcDbEntity
  8
0
370
    -3
390
0
  6
Continuous
100
AcDbCircle
 10
568.355222
 20
-244.525145
 30
0.0
 40
2.0
100
AcDbArc
 50
294.534976
 51
30.0
  0
LINE
  5
533
100
AcDbEntity
  8
0
370
    -3
390
0
  6
Continuous
100
AcDbLine
 10
569.584953
 20
-242.655101
 30
0.0
 11
570.087273
 21
-243.525145
 31
0.0
  0
ARC
  5
534
100
AcDbEntity
  8
0
370
    -3
390
0
  6
Continuous
100
AcDbCircle
 10
515.124048
 20
-244.101043
 30
0.0
 40
2.0
100
AcDbArc
 50
150.0
 51
244.552071
  0
LINE
  5
535
100
AcDbEntity
  8
0
370
    -3
390
0
  6
Continuous
100
AcDbLine
 10
513.893605
 20
-242.232232
 30
0.0
 11
513.391997
 21
-243.101043
 31
0.0
  0
ARC
  5
536
100
AcDbEntity
  8
0
370
    -3
390
0
  6
Continuous
100
AcDbCircle
 10
542.194557
 20
-187.213544
 30
0.0
 40
65.0
100
AcDbArc
 50
244.552071
 51
294.534976
  0
ARC
  5
537
100
AcDbEntity
  8
0
370
    -3
390
0
  6
Continuous
100
AcDbCircle
 10
542.194557
 20
-187.213544
 30
0.0
 40
65.0
100
AcDbArc
 50
124.552071
 51
174.534976
  0
LINE
  5
538
100
AcDbEntity
  8
0
370
    -3
390
0
  6
Continuous
100
AcDbLine
 10
532.800449
 20
-164.94247
 30
0.0
 11
531.017656
 21
-161.854583
 31
0.0
  0
LINE
  5
539
100
AcDbEntity
  8
0
370
    -3
390
0
  6
Continuous
100
AcDbLine
 10
526.462331
 20
-153.964528
 30
0.0
 11
524.697547
 21
-150.907833
 31
0.0
  0
LINE
  5
53A
100
AcDbEntity
  8
0
370
    -3
390
0
  6
Continuous
100
AcDbLine
 10
520.16922
 20
-143.064541
 30
0.0
 11
518.410822
 21
-140.018905
 31
0.0
  0
LINE
  5
53B
100
AcDbEntity
  8
0
370
    -3
390
0
  6
Continuous
100
AcDbLine
 10
513.893605
 20
-132.194856
 30
0.0
 11
513.391997
 21
-131.326045
 31
0.0
  0
LINE
  5
53C
100
AcDbEntity
  8
0
370
    -3
390
0
  6
Continuous
100
AcDbLine
 10
527.604296
 20
-167.94247
 30
0.0
 11
525.821504
 21
-164.854583
 31
0.0
  0
LINE
  5
53D
100
AcDbEntity
  8
0
370
    -3
390
0
  6
Continuous
100
AcDbLine
 10
521.266178
 20
-156.964528
 30
0.0
 11
519.501395
 21
-153.907833
 31
0.0
  0
LINE
  5
53E
100
AcDbEntity
  8
0
370
    -3
390
0
  6
Continuous
100
AcDbLine
 10
514.973068
 20
-146.064541
 30
0.0
 11
513.214669
 21
-143.018905
 31
0.0
  0
LINE
  5
53F
100
AcDbEntity
  8
0
370
    -3
390
0
  6
Continuous
100
AcDbLine
 10
508.697452
 20
-135.194856
 30
0.0
 11
508.195844
 21
-134.326045
 31
0.0
  0
LINE
  5
540
100
AcDbEntity
  8
0
370
    -3
390
0
  6
Continuous
100
AcDbLine
 10
527.604296
 20
-206.484618
 30
0.0
 11
525.821504
 21
-209.572505
 31
0.0
  0
LINE
  5
541
100
AcDbEntity
  8
0
370
    -3
390
0
  6
Continuous
100
AcDbLine
 10
521.266178
 20
-217.46256
 30
0.0
 11
519.501395
 21
-220.519255
 31
0.0
  0
LINE
  5
542
100
AcDbEntity
  8
0
370
    -3
390
0
  6
Continuous
100
AcDbLine
 10
514.973068
 20
-228.362548
 30
0.0
 11
513.214669
 21
-231.408183
 31
0.0
  0
LINE
  5
543
100
AcDbEntity
  8
0
370
    -3
390
0
  6
Continuous
100
AcDbLine
 10
508.697452
 20
-239.232232
 30
0.0
 11
508.195844
 21
-240.101043
 31
0.0
  0
LINE
  5
544
100
AcDbEntity
  8
0
370
    -3
390
0
  6
Continuous
100
AcDbLine
 10
518.44061
 20
-183.213544
 30
0.0
 11
514.844969
 21
-183.213544
 31
0.0
  0
LINE
  5
545
100
AcDbEntity
  8
0
370
    -3
390
0
  6
Continuous
100
AcDbLine
 10
505.684285
 20
-183.213544
 30
0.0
 11
502.141468
 21
-183.213544
 31
0.0
  0
LINE
  5
546
100
AcDbEntity
  8
0
370
    -3
390
0
  6
Continuous
100
AcDbLine
 10
493.059539
 20
-183.213544
 30
0.0
 11
489.535275
 21
-183.213544
 31
0.0
  0
LINE
  5
547
100
AcDbEntity
  8
0
370
    -3
390
0
  6
Continuous
100
AcDbLine
 10
480.485563
 20
-183.213544
 30
0.0
 11
479.480923
 21
-183.213544
 31
0.0
  0
LINE
  5
548
100
AcDbEntity
  8
0
370
    -3
390
0
  6
Continuous
100
AcDbLine
 10
518.44061
 20
-191.213544
 30
0.0
 11
514.844969
 21
-191.213544
 31
0.0
  0
LINE
  5
549
100
AcDbEntity
  8
0
370
    -3
390
0
  6
Continuous
100
AcDbLine
 10
505.684285
 20
-191.213544
 30
0.0
 11
502.141468
 21
-191.213544
 31
0.0
  0
LINE
  5
54A
100
AcDbEntity
  8
0
370
    -3
390
0
  6
Continuous
100
AcDbLine
 10
493.059539
 20
-191.213544
 30
0.0
 11
489.535275
 21
-191.213544
 31
0.0
  0
LINE
  5
54B
100
AcDbEntity
  8
0
370
    -3
390
0
  6
Continuous
100
AcDbLine
 10
480.485563
 20
-191.213544
 30
0.0
 11
479.480923
 21
-191.213544
 31
0.0
  0
ARC
  5
54C
100
AcDbEntity
  8
0
370
    -3
390
0
  6
Continuous
100
AcDbCircle
 10
542.194557
 20
-187.213544
 30
0.0
 40
65.0
100
AcDbArc
 50
185.465024
 51
235.447929
  0
ARC
  5
54D
100
AcDbEntity
  8
0
370
    -3
390
0
  6
Continuous
100
AcDbCircle
 10
506.463793
 20
-239.101043
 30
0.0
 40
2.0
100
AcDbArc
 50
235.447929
 51
330.0
  0
LINE
  5
54E
100
AcDbEntity
  8
0
370
    -3
390
0
  6
Continuous
100
AcDbLine
 10
534.142125
 20
-195.160766
 30
0.0
 11
532.260781
 21
-198.41935
 31
0.0
  0
ARC
  5
54F
100
AcDbEntity
  8
0
370
    -3
390
0
  6
Continuous
100
AcDbCircle
 10
515.124048
 20
-130.326045
 30
0.0
 40
2.0
100
AcDbArc
 50
115.447929
 51
210.0
  0
ARC
  5
550
100
AcDbEntity
  8
0
370
    -3
390
0
  6
Continuous
100
AcDbCircle
 10
479.480923
 20
-193.213544
 30
0.0
 40
2.0
100
AcDbArc
 50
90.0
 51
185.465024
  0
ARC
  5
551
100
AcDbEntity
  8
0
370
    -3
390
0
  6
Continuous
100
AcDbCircle
 10
479.480923
 20
-181.213544
 30
0.0
 40
2.0
100
AcDbArc
 50
174.534976
 51
270.0
  0
ARC
  5
552
100
AcDbEntity
  8
0
370
    -3
390
0
  6
Continuous
100
AcDbCircle
 10
506.463793
 20
-135.326045
 30
0.0
 40
2.0
100
AcDbArc
 50
30.0
 51
124.552071
  0
ARC
  5
553
100
AcDbEntity
  8
0
370
    -3
390
0
  6
Continuous
100
AcDbCircle
 10
542.194557
 20
-187.213544
 30
0.0
 40
65.0
100
AcDbArc
 50
65.465024
 51
115.447929
  0
LINE
  5
554
100
AcDbEntity
  8
0
370
    -3
390
0
  6
Continuous
100
AcDbLine
 10
539.338278
 20
-176.266322
 30
0.0
 11
537.456933
 21
-173.007738
 31
0.0
  0
LINE
  5
555
100
AcDbEntity
  8
0
370
    -3
390
0
  6
Continuous
100
AcDbLine
 10
531.802253
 20
-191.213544
 30
0.0
 11
527.902951
 21
-191.213544
 31
0.0
  0
LINE
  5
556
100
AcDbEntity
  8
0
370
    -3
390
0
  6
Continuous
100
AcDbLine
 10
531.802253
 20
-183.213544
 30
0.0
 11
527.902951
 21
-183.213544
 31
0.0
  0
LINE
  5
557
100
AcDbEntity
  8
0
370
    -3
390
0
  6
Continuous
100
AcDbLine
 10
534.142125
 20
-179.266322
 30
0.0
 11
532.260781
 21
-176.007738
 31
0.0
  0
CIRCLE
  5
558
100
AcDbEntity
  8
0
370
    -3
390
0
  6
Continuous
100
AcDbCircle
 10
542.194557
 20
-187.213544
 30
0.0
 40
5.0
  0
ARC
  5
559
100
AcDbEntity
  8
0
370
    -3
390
0
  6
Continuous
100
AcDbCircle
 10
559.089927
 20
-166.153
 30
0.0
 40
65.8
100
AcDbArc
 50
51.262419
 51
87.020093
  0
ARC
  5
55A
100
AcDbEntity
  8
0
370
    -3
390
0
  6
Continuous
100
AcDbCircle
 10
542.194557
 20
-490.713544
 30
0.0
 40
390.8
100
AcDbArc
 50
87.020093
 51
92.979907
  0
ARC
  5
55B
100
AcDbEntity
  8
0
370
    -3
390
0
  6
Continuous
100
AcDbCircle
 10
525.299188
 20
-166.153
 30
0.0
 40
65.8
100
AcDbArc
 50
92.979907
 51
128.737581
  0
ARC
  5
55C
100
AcDbEntity
  8
0
370
    -3
390
0
  6
Continuous
100
AcDbCircle
 10
521.134014
 20
-170.318175
 30
0.0
 40
65.8
100
AcDbArc
 50
141.262419
 51
177.020093
  0
ARC
  5
55D
100
AcDbEntity
  8
0
370
    -3
390
0
  6
Continuous
100
AcDbCircle
 10
542.194557
 20
-187.213544
 30
0.0
 40
92.8
100
AcDbArc
 50
128.737581
 51
141.262419
  0
ARC
  5
55E
100
AcDbEntity
  8
0
370
    -3
390
0
  6
Continuous
100
AcDbCircle
 10
521.134014
 20
-204.108913
 30
0.0
 40
65.8
100
AcDbArc
 50
182.979907
 51
218.737581
  0
ARC
  5
55F
100
AcDbEntity
  8
0
370
    -3
390
0
  6
Continuous
100
AcDbCircle
 10
525.299188
 20
-208.274088
 30
0.0
 40
65.8
100
AcDbArc
 50
231.262419
 51
267.020093
  0
ARC
  5
560
100
AcDbEntity
  8
0
370
    -3
390
0
  6
Continuous
100
AcDbCircle
 10
542.194557
 20
-187.213544
 30
0.0
 40
92.8
100
AcDbArc
 50
218.737581
 51
231.262419
  0
ARC
  5
561
100
AcDbEntity
  8
0
370
    -3
390
0
  6
Continuous
100
AcDbCircle
 10
559.089927
 20
-208.274088
 30
0.0
 40
65.8
100
AcDbArc
 50
272.979907
 51
308.737581
  0
ARC
  5
562
100
AcDbEntity
  8
0
370
    -3
390
0
  6
Continuous
100
AcDbCircle
 10
563.255101
 20
-204.108913
 30
0.0
 40
65.8
100
AcDbArc
 50
321.262419
 51
357.020093
  0
ARC
  5
563
100
AcDbEntity
  8
0
370
    -3
390
0
  6
Continuous
100
AcDbCircle
 10
542.194557
 20
-187.213544
 30
0.0
 40
92.8
100
AcDbArc
 50
308.737581
 51
321.262419
  0
ARC
  5
564
100
AcDbEntity
  8
0
370
    -3
390
0
  6
Continuous
100
AcDbCircle
 10
563.255101
 20
-170.318175
 30
0.0
 40
65.8
100
AcDbArc
 50
2.979907
 51
38.737581
  0
ARC
  5
565
100
AcDbEntity
  8
0
370
    -3
390
0
  6
Continuous
100
AcDbCircle
 10
542.194557
 20
-187.213544
 30
0.0
 40
92.8
100
AcDbArc
 50
38.737581
 51
51.262419
  0
ARC
  5
566
100
AcDbEntity
  8
0
370
    -3
390
0
  6
Continuous
100
AcDbCircle
 10
525.299188
 20
-166.153
 30
0.0
 40
49.8
100
AcDbArc
 50
92.979907
 51
128.737581
  0
ARC
  5
567
100
AcDbEntity
  8
0
370
    -3
390
0
  6
Continuous
100
AcDbCircle
 10
521.134014
 20
-170.318175
 30
0.0
 40
49.8
100
AcDbArc
 50
141.262419
 51
177.020093
  0
ARC
  5
568
100
AcDbEntity
  8
0
370
    -3
390
0
  6
Continuous
100
AcDbCircle
 10
845.694557
 20
-187.213544
 30
0.0
 40
374.8
100
AcDbArc
 50
177.020093
 51
180.0
  0
ARC
  5
569
100
AcDbEntity
  8
0
370
    -3
390
0
  6
Continuous
100
AcDbCircle
 10
845.694557
 20
-187.213544
 30
0.0
 40
374.8
100
AcDbArc
 50
180.0
 51
182.979907
  0
ARC
  5
56A
100
AcDbEntity
  8
0
370
    -3
390
0
  6
Continuous
100
AcDbCircle
 10
521.134014
 20
-204.108913
 30
0.0
 40
49.8
100
AcDbArc
 50
182.979907
 51
218.737581
  0
ARC
  5
56B
100
AcDbEntity
  8
0
370
    -3
390
0
  6
Continuous
100
AcDbCircle
 10
542.194557
 20
-187.213544
 30
0.0
 40
76.8
100
AcDbArc
 50
218.737581
 51
231.262419
  0
ARC
  5
56C
100
AcDbEntity
  8
0
370
    -3
390
0
  6
Continuous
100
AcDbCircle
 10
525.299188
 20
-208.274088
 30
0.0
 40
49.8
100
AcDbArc
 50
231.262419
 51
267.020093
  0
ARC
  5
56D
100
AcDbEntity
  8
0
370
    -3
390
0
  6
Continuous
100
AcDbCircle
 10
542.194557
 20
116.286456
 30
0.0
 40
374.8
100
AcDbArc
 50
270.0
 51
272.979907
  0
ARC
  5
56E
100
AcDbEntity
  8
0
370
    -3
390
0
  6
Continuous
100
AcDbCircle
 10
559.089927
 20
-208.274088
 30
0.0
 40
49.8
100
AcDbArc
 50
272.979907
 51
308.737581
  0
ARC
  5
56F
100
AcDbEntity
  8
0
370
    -3
390
0
  6
Continuous
100
AcDbCircle
 10
563.255101
 20
-204.108913
 30
0.0
 40
49.8
100
AcDbArc
 50
321.262419
 51
357.020093
  0
ARC
  5
570
100
AcDbEntity
  8
0
370
    -3
390
0
  6
Continuous
100
AcDbCircle
 10
542.194557
 20
-187.213544
 30
0.0
 40
76.8
100
AcDbArc
 50
308.737581
 51
321.262419
  0
ARC
  5
571
100
AcDbEntity
  8
0
370
    -3
390
0
  6
Continuous
100
AcDbCircle
 10
238.694557
 20
-187.213544
 30
0.0
 40
374.8
100
AcDbArc
 50
357.020093
 51
0.0
  0
ARC
  5
572
100
AcDbEntity
  8
0
370
    -3
390
0
  6
Continuous
100
AcDbCircle
 10
563.255101
 20
-170.318175
 30
0.0
 40
49.8
100
AcDbArc
 50
2.979907
 51
38.737581
  0
ARC
  5
573
100
AcDbEntity
  8
0
370
    -3
390
0
  6
Continuous
100
AcDbCircle
 10
542.194557
 20
-187.213544
 30
0.0
 40
76.8
100
AcDbArc
 50
38.737581
 51
51.262419
  0
ARC
  5
574
100
AcDbEntity
  8
0
370
    -3
390
0
  6
Continuous
100
AcDbCircle
 10
559.089927
 20
-166.153
 30
0.0
 40
49.8
100
AcDbArc
 50
51.262419
 51
87.020093
  0
ARC
  5
575
100
AcDbEntity
  8
0
370
    -3
390
0
  6
Continuous
100
AcDbCircle
 10
542.194557
 20
-490.713544
 30
0.0
 40
374.8
100
AcDbArc
 50
87.020093
 51
90.0
  0
ARC
  5
576
100
AcDbEntity
  8
0
370
    -3
390
0
  6
Continuous
100
AcDbCircle
 10
542.194557
 20
-490.713544
 30
0.0
 40
374.8
100
AcDbArc
 50
90.0
 51
92.979907
  0
ARC
  5
577
100
AcDbEntity
  8
0
370
    -3
390
0
  6
Continuous
100
AcDbCircle
 10
238.694557
 20
-187.213544
 30
0.0
 40
374.8
100
AcDbArc
 50
0.0
 51
2.979907
  0
ARC
  5
578
100
AcDbEntity
  8
0
370
    -3
390
0
  6
Continuous
100
AcDbCircle
 10
542.194557
 20
-187.213544
 30
0.0
 40
76.8
100
AcDbArc
 50
128.737581
 51
141.262419
  0
ENDSEC
  0
SECTION
  2
OBJECTS
  0
DICTIONARY
  5
19
100
AcDbDictionary
280
     0
281
     1
  3
ACAD_GROUP
350
1A
  3
ACAD_MLINESTYLE
350
1B
  3
ACAD_LAYOUT
350
1E
  3
ACAD_PLOTSETTINGS
350
22
  3
ACAD_PLOTSTYLENAME
350
1F
  3
ACAD_WIPEOUT_VARS
350
23
  3
DWGPROPS
350
579
  0
DICTIONARY
  5
1A
102
{ACAD_REACTORS
330
19
102
}
100
AcDbDictionary
280
     0
281
     1
  0
DICTIONARY
  5
1B
102
{ACAD_REACTORS
330
19
102
}
100
AcDbDictionary
280
     0
281
     1
  3
Standard
350
1C
  0
MLINESTYLE
  5
1C
102
{ACAD_REACTORS
330
1B
102
}
100
AcDbMlineStyle
  2
Standard
 70
     0
  3

 62
     0
 51
90.0
 52
90.0
 71
     2
 49
0.5
 62
   256
  6
ByLayer
 49
-0.5
 62
   256
  6
ByLayer
  0
ACDBDICTIONARYWDFLT
  5
1F
102
{ACAD_REACTORS
330
19
102
}
100
AcDbDictionary
281
     1
  3
Normal
350
1D
100
AcDbDictionaryWithDefault
340
1D
  0
ACDBPLACEHOLDER
  5
1D
102
{ACAD_REACTORS
330
1F
102
}
  0
LAYOUT
  5
20
102
{ACAD_REACTORS
330
1E
102
}
100
AcDbPlotSettings
  1

  2

  4

  6

 40
0.0
 41
0.0
 42
0.0
 43
0.0
 44
0.0
 45
0.0
 46
0.0
 47
0.0
 48
0.0
 49
0.0
140
0.0
141
0.0
142
1.0
143
1.0
 70
  1024
 72
     0
 73
     0
 74
     0
  7

 75
     0
147
1.0
148
0.0
149
0.0
100
AcDbLayout
  1
Model
 70
     0
 71
     0
 10
0.0
 20
0.0
 11
0.0
 21
0.0
 12
0.0
 22
0.0
 32
0.0
 14
0.0
 24
0.0
 34
0.0
 15
0.0
 25
0.0
 35
0.0
146
0.0
 13
0.0
 23
0.0
 33
0.0
 16
0.0
 26
0.0
 36
0.0
 17
0.0
 27
0.0
 37
0.0
 76
     0
330
A
331
0
345
0
346
0
  0
LAYOUT
  5
21
102
{ACAD_REACTORS
330
1E
102
}
100
AcDbPlotSettings
  1

  2

  4

  6

 40
0.0
 41
0.0
 42
0.0
 43
0.0
 44
0.0
 45
0.0
 46
0.0
 47
0.0
 48
0.0
 49
0.0
140
0.0
141
0.0
142
1.0
143
1.0
 70
     0
 72
     0
 73
     0
 74
     0
  7

 75
     0
147
1.0
148
0.0
149
0.0
100
AcDbLayout
  1
Layout1
 70
     0
 71
     0
 10
0.0
 20
0.0
 11
0.0
 21
0.0
 12
0.0
 22
0.0
 32
0.0
 14
0.0
 24
0.0
 34
0.0
 15
0.0
 25
0.0
 35
0.0
146
0.0
 13
0.0
 23
0.0
 33
0.0
 16
0.0
 26
0.0
 36
0.0
 17
0.0
 27
0.0
 37
0.0
 76
     0
330
B
331
0
345
0
346
0
  0
DICTIONARY
  5
1E
102
{ACAD_REACTORS
330
19
102
}
100
AcDbDictionary
280
     0
281
     1
  3
Layout1
350
21
  3
Model
350
20
  0
DICTIONARY
  5
22
102
{ACAD_REACTORS
330
19
102
}
100
AcDbDictionary
280
     0
281
     1
  0
WIPEOUTVARIABLES
  5
23
100
AcDbWipeoutVariables
 70
     1
  0
XRECORD
  5
579
100
AcDbXrecord
280
     1
  1
DWGPROPS COOKIE
  2

  3

  4

  6

  7

  8
YP81315
  9

300
=
301
=
302
=
303
=
304
=
305
=
306
=
307
=
308
=
309
=
 40
0.0
 41
2456812.5839
 42
2456812.5839
  1

 90
        0
  0
ENDSEC
  0
EOF
