  0
SECTION
  2
HEADER
  9
$ACADVER
  1
AC1015
  9
$ACADMAINTVER
 70
     6
  9
$DWGCODEPAGE
  3
ANSI_932
  9
$INSBASE
 10
0.0
 20
0.0
 30
0.0
  9
$EXTMIN
 10
1.000000E+20
 20
1.000000E+20
 30
1.000000E+20
  9
$EXTMAX
 10
-1.000000E+20
 20
-1.000000E+20
 30
-1.000000E+20
  9
$LIMMIN
 10
0.0
 20
0.0
  9
$LIMMAX
 10
0.0
 20
0.0
  9
$ORTHOMODE
 70
     0
  9
$REGENMODE
 70
     1
  9
$FILLMODE
 70
     1
  9
$QTEXTMODE
 70
     0
  9
$MIRRTEXT
 70
     1
  9
$LTSCALE
 40
1.0
  9
$ATTMODE
 70
     1
  9
$TEXTSIZE
 40
3.2
  9
$TRACEWID
 40
0.05
  9
$TEXTSTYLE
  7
Standard
  9
$CLAYER
  8
0
  9
$CELTYPE
  6
Continuous
  9
$CECOLOR
 62
   256
  9
$CELTSCALE
 40
1.0
  9
$DISPSILH
 70
     0
  9
$DIMSCALE
 40
1.0
  9
$DIMASZ
 40
3.863703
  9
$DIMEXO
 40
1.0
  9
$DIMDLI
 40
0.38
  9
$DIMRND
 40
0.0
  9
$DIMDLE
 40
0.0
  9
$DIMEXE
 40
2.0
  9
$DIMTP
 40
0.0
  9
$DIMTM
 40
0.0
  9
$DIMTXT
 40
3.2
  9
$DIMCEN
 40
0.09
  9
$DIMTSZ
 40
0.0
  9
$DIMTOL
 70
     0
  9
$DIMLIM
 70
     0
  9
$DIMTIH
 70
     1
  9
$DIMTOH
 70
     1
  9
$DIMSE1
 70
     0
  9
$DIMSE2
 70
     0
  9
$DIMTAD
 70
     1
  9
$DIMZIN
 70
     0
  9
$DIMBLK
  1

  9
$DIMASO
 70
     1
  9
$DIMSHO
 70
     1
  9
$DIMPOST
  1

  9
$DIMAPOST
  1

  9
$DIMALT
 70
     0
  9
$DIMALTD
 70
     2
  9
$DIMALTF
 40
25.4
  9
$DIMLFAC
 40
1.0
  9
$DIMTOFL
 70
     0
  9
$DIMTVP
 40
0.0
  9
$DIMTIX
 70
     0
  9
$DIMSOXD
 70
     0
  9
$DIMSAH
 70
     0
  9
$DIMBLK1
  1

  9
$DIMBLK2
  1

  9
$DIMSTYLE
  2
Standard
  9
$DIMCLRD
 70
     0
  9
$DIMCLRE
 70
     0
  9
$DIMCLRT
 70
     0
  9
$DIMTFAC
 40
0.625
  9
$DIMGAP
 40
0.09
  9
$DIMJUST
 70
     0
  9
$DIMSD1
 70
     0
  9
$DIMSD2
 70
     0
  9
$DIMTOLJ
 70
     1
  9
$DIMTZIN
 70
     0
  9
$DIMALTZ
 70
     0
  9
$DIMALTTZ
 70
     0
  9
$DIMUPT
 70
     0
  9
$DIMDEC
 70
     4
  9
$DIMTDEC
 70
     4
  9
$DIMALTU
 70
     2
  9
$DIMALTTD
 70
     2
  9
$DIMTXSTY
  7
Standard
  9
$DIMAUNIT
 70
     0
  9
$DIMADEC
 70
     0
  9
$DIMALTRND
 40
0.0
  9
$DIMAZIN
 70
     0
  9
$DIMDSEP
 70
     0
  9
$DIMATFIT
 70
     3
  9
$DIMFRAC
 70
     0
  9
$DIMLDRBLK
  1

  9
$DIMLUNIT
 70
     2
  9
$DIMLWD
 70
     0
  9
$DIMLWE
 70
     0
  9
$DIMTMOVE
 70
     0
  9
$LUNITS
 70
     2
  9
$LUPREC
 70
     3
  9
$SKETCHINC
 40
0.1
  9
$FILLETRAD
 40
0.0
  9
$AUNITS
 70
     0
  9
$AUPREC
 70
     0
  9
$MENU
  1
acad
  9
$ELEVATION
 40
0.0
  9
$PELEVATION
 40
0.0
  9
$THICKNESS
 40
0.0
  9
$LIMCHECK
 70
     0
  9
$CHAMFERA
 40
0.0
  9
$CHAMFERB
 40
0.0
  9
$CHAMFERC
 40
0.0
  9
$CHAMFERD
 40
0.0
  9
$SKPOLY
 70
     0
  9
$TDCREATE
 40
0.000000000
  9
$TDUCREATE
 40
0.000000000
  9
$TDUPDATE
 40
0.000000000
  9
$TDUUPDATE
 40
0.000000000
  9
$TDINDWG
 40
0.0000000000
  9
$TDUSRTIMER
 40
0.0000000000
  9
$USRTIMER
 70
     1
  9
$ANGBASE
 50
0.0
  9
$ANGDIR
 70
     0
  9
$PDMODE
 70
     0
  9
$PDSIZE
 40
0.0
  9
$PLINEWID
 40
0.0
  9
$SPLFRAME
 70
     0
  9
$SPLINETYPE
 70
     6
  9
$SPLINESEGS
 70
     8
  9
$HANDSEED
  5
5EA
  9
$SURFTAB1
 70
     6
  9
$SURFTAB2
 70
     6
  9
$SURFTYPE
 70
     6
  9
$SURFU
 70
     6
  9
$SURFV
 70
     6
  9
$UCSBASE
  2

  9
$UCSNAME
  2

  9
$UCSORG
 10
0.0
 20
0.0
 30
0.0
  9
$UCSXDIR
 10
1.0
 20
0.0
 30
0.0
  9
$UCSYDIR
 10
0.0
 20
1.0
 30
0.0
  9
$UCSORTHOREF
  2

  9
$UCSORTHOVIEW
 70
     0
  9
$UCSORGTOP
 10
0.0
 20
0.0
 30
0.0
  9
$UCSORGBOTTOM
 10
0.0
 20
0.0
 30
0.0
  9
$UCSORGLEFT
 10
0.0
 20
0.0
 30
0.0
  9
$UCSORGRIGHT
 10
0.0
 20
0.0
 30
0.0
  9
$UCSORGFRONT
 10
0.0
 20
0.0
 30
0.0
  9
$UCSORGBACK
 10
0.0
 20
0.0
 30
0.0
  9
$PUCSBASE
  2

  9
$PUCSNAME
  2

  9
$PUCSORG
 10
0.0
 20
0.0
 30
0.0
  9
$PUCSXDIR
 10
1.0
 20
0.0
 30
0.0
  9
$PUCSYDIR
 10
0.0
 20
1.0
 30
0.0
  9
$PUCSORTHOREF
  2

  9
$PUCSORTHOVIEW
 70
     0
  9
$PUCSORGTOP
 10
0.0
 20
0.0
 30
0.0
  9
$PUCSORGBOTTOM
 10
0.0
 20
0.0
 30
0.0
  9
$PUCSORGLEFT
 10
0.0
 20
0.0
 30
0.0
  9
$PUCSORGRIGHT
 10
0.0
 20
0.0
 30
0.0
  9
$PUCSORGFRONT
 10
0.0
 20
0.0
 30
0.0
  9
$PUCSORGBACK
 10
0.0
 20
0.0
 30
0.0
  9
$USERI1
 70
     0
  9
$USERI2
 70
     0
  9
$USERI3
 70
     0
  9
$USERI4
 70
     0
  9
$USERI5
 70
     0
  9
$USERR1
 40
0.0
  9
$USERR2
 40
0.0
  9
$USERR3
 40
0.0
  9
$USERR4
 40
0.0
  9
$USERR5
 40
0.0
  9
$WORLDVIEW
 70
     1
  9
$SHADEDGE
 70
     3
  9
$SHADEDIF
 70
    70
  9
$TILEMODE
 70
     1
  9
$MAXACTVP
 70
    16
  9
$PINSBASE
 10
0.0
 20
0.0
 30
0.0
  9
$PLIMCHECK
 70
     0
  9
$PEXTMIN
 10
1.000000E+20
 20
1.000000E+20
 30
1.000000E+20
  9
$PEXTMAX
 10
-1.000000E+20
 20
-1.000000E+20
 30
-1.000000E+20
  9
$PLIMMIN
 10
0.0
 20
0.0
  9
$PLIMMAX
 10
12.0
 20
9.0
  9
$UNITMODE
 70
     0
  9
$VISRETAIN
 70
     0
  9
$PLINEGEN
 70
     1
  9
$PSLTSCALE
 70
     0
  9
$TREEDEPTH
 70
  3020
  9
$CMLSTYLE
  2
Standard
  9
$CMLJUST
 70
     0
  9
$CMLSCALE
 40
1.0
  9
$PROXYGRAPHICS
 70
     0
  9
$MEASUREMENT
 70
     0
  9
$CELWEIGHT
370
     0
  9
$ENDCAPS
280
     0
  9
$JOINSTYLE
280
     0
  9
$LWDISPLAY
290
     0
  9
$INSUNITS
 70
     0
  9
$HYPERLINKBASE
  1

  9
$STYLESHEET
  1

  9
$XEDIT
290
     1
  9
$CEPSNTYPE
380
     0
  9
$PSTYLEMODE
290
     1
  9
$FINGERPRINTGUID
  2

  9
$VERSIONGUID
  2

  9
$EXTNAMES
290
     1
  9
$PSVPSCALE
 40
0.0
  0
ENDSEC
  0
SECTION
  2
CLASSES
  0
CLASS
  1
LWPOLYLINE
  2
AcDbPolyline
  3
AutoCAD 2000
 90
        0
280
     0
281
     1
  0
CLASS
  1
IMAGE
  2
AcDbRasterImage
  3
ISM
 90
      127
280
     0
281
     1
  0
CLASS
  1
OLE2FRAME
  2
AcDbOle2Frame
  3
AutoCAD 2000
 90
        0
280
     0
281
     1
  0
CLASS
  1
HATCH
  2
AcDbHatch
  3
AutoCAD 2000
 90
        0
280
     0
281
     1
  0
CLASS
  1
DICTIONARYVAR
  2
AcDbDictionaryVar
  3
AutoCAD 2000
 90
        0
280
     0
281
     0
  0
CLASS
  1
RASTERVARIABLES
  2
AcDbRasterVariables
  3
ISM
 90
        0
280
     0
281
     0
  0
CLASS
  1
IMAGEDEF
  2
AcDbRasterImageDef
  3
ISM
 90
        0
280
     0
281
     0
  0
CLASS
  1
IMAGEDEF_REACTOR
  2
AcDbRasterImageDefReactor
  3
ISM
 90
        1
280
     0
281
     0
  0
CLASS
  1
IDBUFFER
  2
AcDbIdBuffer
  3
AutoCAD 2000
 90
        0
280
     0
281
     0
  0
CLASS
  1
SPATIAL_FILTER
  2
AcDbSpatialFilter
  3
AutoCAD 2000
 90
        0
280
     0
281
     0
  0
CLASS
  1
XRECORD
  2
AcDbXrecord
  3
AutoCAD 2000
 90
        0
280
     0
281
     0
  0
CLASS
  1
SORTENTSTABLE
  2
AcDbSortentsTable
  3
AutoCAD 2000
 90
        0
280
     0
281
     0
  0
CLASS
  1
LAYER_INDEX
  2
AcDbLayerIndex
  3
AutoCAD 2000
 90
        0
280
     0
281
     0
  0
CLASS
  1
SPATIAL_INDEX
  2
AcDbSpatialIndex
  3
AutoCAD 2000
 90
        0
280
     0
281
     0
  0
CLASS
  1
OBJECT_PTR
  2
CAseDLPNTableRecord
  3
"ASE-LPNTableRecord"
 90
        1
280
     0
281
     0
  0
CLASS
  1
LAYOUT
  2
AcDbLayout
  3
AutoCAD 2000
 90
        0
280
     0
281
     0
  0
CLASS
  1
PLOTSETTINGS
  2
AcDbPlotSettings
  3
AutoCAD 2000
 90
        0
280
     0
281
     0
  0
CLASS
  1
ACDBDICTIONARYWDFLT
  2
AcDbDictionaryWithDefault
  3
AutoCAD 2000
 90
        0
280
     0
281
     0
  0
CLASS
  1
ACDBPLACEHOLDER
  2
AcDbPlaceHolder
  3
AutoCAD 2000
 90
        0
280
     0
281
     0
  0
CLASS
  1
VBA_PROJECT
  2
AcDbVbaProject
  3
acadvba
 90
        0
280
     0
281
     0
  0
CLASS
  1
WIPEOUT
  2
AcDbWipeout
  3
WipeOut|AutoCAD Express Tool|expresstools@autodesk.com
 90
      127
280
     0
281
     1
  0
CLASS
  1
WIPEOUTVARIABLES
  2
AcDbWipeoutVariables
  3
WipeOut|AutoCAD Express Tool|expresstools@autodesk.com
 90
        0
280
     0
281
     0
  0
CLASS
  1
RTEXT
  2
RText
  3
RText|AutoCAD Express Tool|expresstools@autodesk.com
 90
        0
280
     0
281
     1
  0
CLASS
  1
ARCALIGNEDTEXT
  2
AcDbArcAlignedText
  3
ATEXT|AutoCAD Express Tool|expresstools@autodesk.com
 90
        0
280
     0
281
     1
  0
ENDSEC
  0
SECTION
  2
TABLES
  0
TABLE
  2
VPORT
  5
7
100
AcDbSymbolTable
 70
     1
  0
VPORT
  5
15
100
AcDbSymbolTableRecord
100
AcDbViewportTableRecord
  2
*ACTIVE
 70
     0
 10
0.0
 20
0.0
 11
1.0
 21
1.0
 12
0.0
 22
0.0
 13
0.0
 23
0.0
 14
1.0
 24
1.0
 15
0.0
 25
0.0
 16
0.0
 26
0.0
 36
1.0
 17
0.0
 27
0.0
 37
0.0
 40
100.0
 41
1.0
 42
50.0
 43
0.0
 44
0.0
 50
0.0
 51
0.0
 71
     0
 72
   100
 73
     1
 74
     1
 75
     0
 76
     0
 77
     0
 78
     0
281
     0
 65
     0
110
0.0
120
0.0
130
0.0
111
1.0
121
0.0
131
0.0
112
0.0
122
1.0
132
0.0
345
0
346
0
 79
     0
146
0.0
  0
ENDTAB
  0
TABLE
  2
LTYPE
  5
4
100
AcDbSymbolTable
 70
     7
  0
LTYPE
  5
11
100
AcDbSymbolTableRecord
100
AcDbLinetypeTableRecord
  2
ByBlock
 70
    64
  3

 72
    65
 73
     0
 40
0.0
  0
LTYPE
  5
12
100
AcDbSymbolTableRecord
100
AcDbLinetypeTableRecord
  2
ByLayer
 70
    64
  3

 72
    65
 73
     0
 40
0.0
  0
LTYPE
  5
13
100
AcDbSymbolTableRecord
100
AcDbLinetypeTableRecord
  2
Continuous
 70
    64
  3
Solid line
 72
    65
 73
     0
 40
0.0
  0
LTYPE
  5
24
100
AcDbSymbolTableRecord
100
AcDbLinetypeTableRecord
  2
DASHED
 70
    64
  3
Dashed __ __ __ __ __ __ __ __ __ __ __ __ __ _
 72
    65
 73
     2
 40
0.75
 49
0.5
 74
     0
 49
-0.25
 74
     0
  0
LTYPE
  5
25
100
AcDbSymbolTableRecord
100
AcDbLinetypeTableRecord
  2
CENTER
 70
    64
  3
Center ____ _ ____ _ ____ _ ____ _ ____ _ ____
 72
    65
 73
     4
 40
1.0
 49
0.5
 74
     0
 49
-0.25
 74
     0
 49
0.0
 74
     0
 49
-0.25
 74
     0
  0
LTYPE
  5
26
100
AcDbSymbolTableRecord
100
AcDbLinetypeTableRecord
  2
DIVIDE
 70
    64
  3
Divide ____ . . ____ . . ____ . . ____ . . ____
 72
    65
 73
     6
 40
1.25
 49
0.5
 74
     0
 49
-0.25
 74
     0
 49
0.0
 74
     0
 49
-0.25
 74
     0
 49
0.0
 74
     0
 49
-0.25
 74
     0
  0
LTYPE
  5
27
100
AcDbSymbolTableRecord
100
AcDbLinetypeTableRecord
  2
PHANTOM
 70
    64
  3
Phantom ______  __  __  ______  __  __  ______
 72
    65
 73
     6
 40
9.0
 49
4.3
 74
     0
 49
-0.7
 74
     0
 49
1.3
 74
     0
 49
-0.7
 74
     0
 49
1.3
 74
     0
 49
-0.7
 74
     0
  0
ENDTAB
  0
TABLE
  2
LAYER
  5
2
100
AcDbSymbolTable
 70
     2
  0
LAYER
  5
14
100
AcDbSymbolTableRecord
100
AcDbLayerTableRecord
  2
0
 70
    64
 62
   102
  6
Continuous
290
     1
370
    -3
390
1D
  0
LAYER
  5
28
100
AcDbSymbolTableRecord
100
AcDbLayerTableRecord
  2
1
 70
    64
 62
     2
  6
Continuous
290
     1
370
    -3
390
1D
  0
ENDTAB
  0
TABLE
  2
STYLE
  5
3
100
AcDbSymbolTable
 70
     2
  0
STYLE
  5
17
100
AcDbSymbolTableRecord
100
AcDbTextStyleTableRecord
  2
Standard
 70
     0
 40
0.0
 41
1.0
 50
0.0
 71
     0
 42
0.0
  3
txt
  4

  0
STYLE
  5
242
100
AcDbSymbolTableRecord
100
AcDbTextStyleTableRecord
  2
ZU_SHPTB00001
 70
     0
 40
0.0
 41
1.0
 50
0.0
 71
     0
 42
0.0
  3
monotxt
  4
bigfont
  0
ENDTAB
  0
TABLE
  2
VIEW
  5
5
100
AcDbSymbolTable
 70
     0
  0
ENDTAB
  0
TABLE
  2
UCS
  5
6
100
AcDbSymbolTable
 70
     0
  0
ENDTAB
  0
TABLE
  2
APPID
  5
8
100
AcDbSymbolTable
 70
     1
  0
APPID
  5
16
100
AcDbSymbolTableRecord
100
AcDbRegAppTableRecord
  2
ACAD
 70
     0
  0
ENDTAB
  0
TABLE
  2
DIMSTYLE
  5
9
100
AcDbSymbolTable
 70
     1
100
AcDbDimStyleTable
 71
     0
  0
DIMSTYLE
105
18
100
AcDbSymbolTableRecord
100
AcDbDimStyleTableRecord
  2
Standard
 70
     0
  3

  4

 40
1.0
 41
0.18
 42
0.0625
 43
0.38
 44
0.18
 45
0.0
 46
0.0
 47
0.0
 48
0.0
 71
     0
 72
     0
 73
     1
 74
     1
 75
     0
 76
     0
 77
     0
 78
     0
 79
     0
140
0.18
141
0.09
142
0.0
143
25.4
144
1.0
145
0.0
146
1.0
147
0.09
148
0.0
170
     0
171
     2
172
     0
173
     0
174
     0
175
     0
176
     0
177
     0
178
     0
179
     0
271
     4
272
     4
273
     2
274
     2
275
     0
276
     0
277
     2
278
    46
279
     0
280
     0
281
     0
282
     0
283
     1
284
     0
285
     0
286
     0
288
     0
289
     3
340
17
341
0
342
0
343
0
344
0
371
    -2
372
    -2
  0
ENDTAB
  0
TABLE
  2
BLOCK_RECORD
  5
1
100
AcDbSymbolTable
 70
     9
  0
BLOCK_RECORD
  5
A
100
AcDbSymbolTableRecord
100
AcDbBlockTableRecord
  2
*MODEL_SPACE
340
20
  0
BLOCK_RECORD
  5
B
100
AcDbSymbolTableRecord
100
AcDbBlockTableRecord
  2
*PAPER_SPACE
340
21
  0
BLOCK_RECORD
  5
15C
100
AcDbSymbolTableRecord
100
AcDbBlockTableRecord
  2
ZU_SYM_K__CAD_SYM_POO_SYM_B20_18
340
0
102
{BLKREFS
331
167
102
}
  0
BLOCK_RECORD
  5
1AB
100
AcDbSymbolTableRecord
100
AcDbBlockTableRecord
  2
ZU_SYM_K__CAD_SYM_POO_SYM_B20_07
340
0
102
{BLKREFS
331
1B7
102
}
  0
BLOCK_RECORD
  5
1B8
100
AcDbSymbolTableRecord
100
AcDbBlockTableRecord
  2
ZU_SYM_K__CAD_SYM_POO_SYM_B20_0000107
340
0
102
{BLKREFS
331
1C4
102
}
  0
BLOCK_RECORD
  5
1C5
100
AcDbSymbolTableRecord
100
AcDbBlockTableRecord
  2
ZU_SYM_K__CAD_SYM_POO_SYM_B20_0000207
340
0
102
{BLKREFS
331
1D1
102
}
  0
BLOCK_RECORD
  5
1D2
100
AcDbSymbolTableRecord
100
AcDbBlockTableRecord
  2
ZU_SYM_K__CAD_SYM_POO_SYM_B20_0000307
340
0
102
{BLKREFS
331
1DE
102
}
  0
BLOCK_RECORD
  5
1DF
100
AcDbSymbolTableRecord
100
AcDbBlockTableRecord
  2
ZU_SYM_K__CAD_SYM_POO_SYM_B20_0000407
340
0
102
{BLKREFS
331
1EB
102
}
  0
BLOCK_RECORD
  5
1EC
100
AcDbSymbolTableRecord
100
AcDbBlockTableRecord
  2
ZU_SYM_K__CAD_SYM_POO_SYM_B20_0000507
340
0
102
{BLKREFS
331
1F8
102
}
  0
BLOCK_RECORD
  5
2B5
100
AcDbSymbolTableRecord
100
AcDbBlockTableRecord
  2
ZU_SYM__USR_MELCAD_MD_SYM_SYM_SYM2_00
340
0
102
{BLKREFS
331
2C0
102
}
  0
BLOCK_RECORD
  5
2CC
100
AcDbSymbolTableRecord
100
AcDbBlockTableRecord
  2
ZU_SYM__USR_MELCAD_MD_SYM_SYM_SYM1_00
340
0
102
{BLKREFS
331
2D7
102
}
  0
ENDTAB
  0
ENDSEC
  0
SECTION
  2
BLOCKS
  0
BLOCK
  5
D
100
AcDbEntity
  8
0
390
0
100
AcDbBlockBegin
  2
*MODEL_SPACE
 70
     0
 10
0.0
 20
0.0
 30
0.0
  3
*MODEL_SPACE
  1

  0
ENDBLK
  5
E
100
AcDbEntity
  8
0
390
0
100
AcDbBlockEnd
  0
BLOCK
  5
F
100
AcDbEntity
 67
     1
  8
0
390
0
100
AcDbBlockBegin
  2
*PAPER_SPACE
 70
     0
 10
0.0
 20
0.0
 30
0.0
  3
*PAPER_SPACE
  1

  0
ENDBLK
  5
10
100
AcDbEntity
 67
     1
  8
0
390
0
100
AcDbBlockEnd
  0
BLOCK
  5
15D
100
AcDbEntity
  8
0
390
0
100
AcDbBlockBegin
  2
ZU_SYM_K__CAD_SYM_POO_SYM_B20_18
 70
    64
 10
0.0
 20
0.0
 30
0.0
  3
ZU_SYM_K__CAD_SYM_POO_SYM_B20_18
  1

  0
POINT
  5
15E
100
AcDbEntity
  8
0
370
    -3
390
0
  6
Continuous
100
AcDbPoint
 10
0.0
 20
0.0
 30
0.0
  0
LINE
  5
15F
100
AcDbEntity
  8
0
370
    -3
390
0
  6
Continuous
100
AcDbLine
 10
0.0
 20
-6.5
 30
0.0
 11
0.0
 21
6.5
 31
0.0
  0
LINE
  5
160
100
AcDbEntity
  8
0
370
    -3
390
0
  6
Continuous
100
AcDbLine
 10
-7.999999
 20
5.633876
 30
0.0
 11
-7.999999
 21
-5.63407
 31
0.0
  0
LINE
  5
161
100
AcDbEntity
  8
0
370
    -3
390
0
  6
Continuous
100
AcDbLine
 10
0.0
 20
6.5
 30
0.0
 11
-7.499999
 21
6.5
 31
0.0
  0
LINE
  5
162
100
AcDbEntity
  8
0
370
    -3
390
0
  6
Continuous
100
AcDbLine
 10
0.0
 20
-6.5
 30
0.0
 11
-7.499998
 21
-6.5
 31
0.0
  0
LINE
  5
163
100
AcDbEntity
  8
0
370
    -3
390
0
  6
Continuous
100
AcDbLine
 10
-7.499999
 20
6.5
 30
0.0
 11
-7.999999
 21
5.633876
 31
0.0
  0
LINE
  5
164
100
AcDbEntity
  8
0
370
    -3
390
0
  6
Continuous
100
AcDbLine
 10
-7.499998
 20
-6.499999
 30
0.0
 11
-7.999999
 21
-5.63407
 31
0.0
  0
LINE
  5
165
100
AcDbEntity
  8
0
370
    -3
390
0
  6
Continuous
100
AcDbLine
 10
-7.499999
 20
6.5
 30
0.0
 11
-7.499999
 21
-6.5
 31
0.0
  0
ENDBLK
  5
166
100
AcDbEntity
  8
0
390
0
100
AcDbBlockEnd
  0
BLOCK
  5
1AC
100
AcDbEntity
  8
0
390
0
100
AcDbBlockBegin
  2
ZU_SYM_K__CAD_SYM_POO_SYM_B20_07
 70
    64
 10
0.0
 20
0.0
 30
0.0
  3
ZU_SYM_K__CAD_SYM_POO_SYM_B20_07
  1

  0
LINE
  5
1AD
100
AcDbEntity
  8
0
370
    -3
390
0
  6
Continuous
100
AcDbLine
 10
4.999999
 20
-2.886755
 30
0.0
 11
-0.000009
 21
-5.7735
 31
0.0
  0
LINE
  5
1AE
100
AcDbEntity
  8
0
370
    -3
390
0
  6
Continuous
100
AcDbLine
 10
-4.999999
 20
2.886755
 30
0.0
 11
0.000008
 21
5.773499
 31
0.0
  0
LINE
  5
1AF
100
AcDbEntity
  8
0
370
    -3
390
0
  6
Continuous
100
AcDbLine
 10
-0.000009
 20
-5.773499
 30
0.0
 11
-4.999998
 21
-2.886745
 31
0.0
  0
LINE
  5
1B0
100
AcDbEntity
  8
0
370
    -3
390
0
  6
Continuous
100
AcDbLine
 10
4.999998
 20
2.886744
 30
0.0
 11
0.000009
 21
5.7735
 31
0.0
  0
LINE
  5
1B1
100
AcDbEntity
  8
0
370
    -3
390
0
  6
Continuous
100
AcDbLine
 10
4.999998
 20
2.886743
 30
0.0
 11
4.999999
 21
-2.886755
 31
0.0
  0
LINE
  5
1B2
100
AcDbEntity
  8
0
370
    -3
390
0
  6
Continuous
100
AcDbLine
 10
-4.999998
 20
-2.886744
 30
0.0
 11
-4.999999
 21
2.886755
 31
0.0
  0
POINT
  5
1B3
100
AcDbEntity
  8
0
370
    -3
390
0
  6
Continuous
100
AcDbPoint
 10
0.0
 20
0.0
 30
0.0
  0
CIRCLE
  5
1B4
100
AcDbEntity
  8
0
370
    -3
390
0
  6
Continuous
100
AcDbCircle
 10
0.0
 20
0.0
 30
0.0
 40
9.0
  0
CIRCLE
  5
1B5
100
AcDbEntity
  8
0
370
    -3
390
0
  6
Continuous
100
AcDbCircle
 10
0.0
 20
0.0
 30
0.0
 40
7.787524
  0
ENDBLK
  5
1B6
100
AcDbEntity
  8
0
390
0
100
AcDbBlockEnd
  0
BLOCK
  5
1B9
100
AcDbEntity
  8
0
390
0
100
AcDbBlockBegin
  2
ZU_SYM_K__CAD_SYM_POO_SYM_B20_0000107
 70
    64
 10
0.0
 20
0.0
 30
0.0
  3
ZU_SYM_K__CAD_SYM_POO_SYM_B20_0000107
  1

  0
LINE
  5
1BA
100
AcDbEntity
  8
0
370
    -3
390
0
  6
Continuous
100
AcDbLine
 10
4.999999
 20
-2.886755
 30
0.0
 11
-0.000009
 21
-5.7735
 31
0.0
  0
LINE
  5
1BB
100
AcDbEntity
  8
0
370
    -3
390
0
  6
Continuous
100
AcDbLine
 10
-4.999999
 20
2.886755
 30
0.0
 11
0.000008
 21
5.773499
 31
0.0
  0
LINE
  5
1BC
100
AcDbEntity
  8
0
370
    -3
390
0
  6
Continuous
100
AcDbLine
 10
-0.000009
 20
-5.773499
 30
0.0
 11
-4.999998
 21
-2.886745
 31
0.0
  0
LINE
  5
1BD
100
AcDbEntity
  8
0
370
    -3
390
0
  6
Continuous
100
AcDbLine
 10
4.999998
 20
2.886744
 30
0.0
 11
0.000009
 21
5.7735
 31
0.0
  0
LINE
  5
1BE
100
AcDbEntity
  8
0
370
    -3
390
0
  6
Continuous
100
AcDbLine
 10
4.999998
 20
2.886743
 30
0.0
 11
4.999999
 21
-2.886755
 31
0.0
  0
LINE
  5
1BF
100
AcDbEntity
  8
0
370
    -3
390
0
  6
Continuous
100
AcDbLine
 10
-4.999998
 20
-2.886744
 30
0.0
 11
-4.999999
 21
2.886755
 31
0.0
  0
POINT
  5
1C0
100
AcDbEntity
  8
0
370
    -3
390
0
  6
Continuous
100
AcDbPoint
 10
0.0
 20
0.0
 30
0.0
  0
CIRCLE
  5
1C1
100
AcDbEntity
  8
0
370
    -3
390
0
  6
Continuous
100
AcDbCircle
 10
0.0
 20
0.0
 30
0.0
 40
9.0
  0
CIRCLE
  5
1C2
100
AcDbEntity
  8
0
370
    -3
390
0
  6
Continuous
100
AcDbCircle
 10
0.0
 20
0.0
 30
0.0
 40
7.787524
  0
ENDBLK
  5
1C3
100
AcDbEntity
  8
0
390
0
100
AcDbBlockEnd
  0
BLOCK
  5
1C6
100
AcDbEntity
  8
0
390
0
100
AcDbBlockBegin
  2
ZU_SYM_K__CAD_SYM_POO_SYM_B20_0000207
 70
    64
 10
0.0
 20
0.0
 30
0.0
  3
ZU_SYM_K__CAD_SYM_POO_SYM_B20_0000207
  1

  0
LINE
  5
1C7
100
AcDbEntity
  8
0
370
    -3
390
0
  6
Continuous
100
AcDbLine
 10
4.999999
 20
-2.886755
 30
0.0
 11
-0.000009
 21
-5.7735
 31
0.0
  0
LINE
  5
1C8
100
AcDbEntity
  8
0
370
    -3
390
0
  6
Continuous
100
AcDbLine
 10
-4.999999
 20
2.886755
 30
0.0
 11
0.000008
 21
5.773499
 31
0.0
  0
LINE
  5
1C9
100
AcDbEntity
  8
0
370
    -3
390
0
  6
Continuous
100
AcDbLine
 10
-0.000009
 20
-5.773499
 30
0.0
 11
-4.999998
 21
-2.886745
 31
0.0
  0
LINE
  5
1CA
100
AcDbEntity
  8
0
370
    -3
390
0
  6
Continuous
100
AcDbLine
 10
4.999998
 20
2.886744
 30
0.0
 11
0.000009
 21
5.7735
 31
0.0
  0
LINE
  5
1CB
100
AcDbEntity
  8
0
370
    -3
390
0
  6
Continuous
100
AcDbLine
 10
4.999998
 20
2.886743
 30
0.0
 11
4.999999
 21
-2.886755
 31
0.0
  0
LINE
  5
1CC
100
AcDbEntity
  8
0
370
    -3
390
0
  6
Continuous
100
AcDbLine
 10
-4.999998
 20
-2.886744
 30
0.0
 11
-4.999999
 21
2.886755
 31
0.0
  0
POINT
  5
1CD
100
AcDbEntity
  8
0
370
    -3
390
0
  6
Continuous
100
AcDbPoint
 10
0.0
 20
0.0
 30
0.0
  0
CIRCLE
  5
1CE
100
AcDbEntity
  8
0
370
    -3
390
0
  6
Continuous
100
AcDbCircle
 10
0.0
 20
0.0
 30
0.0
 40
9.0
  0
CIRCLE
  5
1CF
100
AcDbEntity
  8
0
370
    -3
390
0
  6
Continuous
100
AcDbCircle
 10
0.0
 20
0.0
 30
0.0
 40
7.787524
  0
ENDBLK
  5
1D0
100
AcDbEntity
  8
0
390
0
100
AcDbBlockEnd
  0
BLOCK
  5
1D3
100
AcDbEntity
  8
0
390
0
100
AcDbBlockBegin
  2
ZU_SYM_K__CAD_SYM_POO_SYM_B20_0000307
 70
    64
 10
0.0
 20
0.0
 30
0.0
  3
ZU_SYM_K__CAD_SYM_POO_SYM_B20_0000307
  1

  0
LINE
  5
1D4
100
AcDbEntity
  8
0
370
    -3
390
0
  6
Continuous
100
AcDbLine
 10
4.999999
 20
-2.886755
 30
0.0
 11
-0.000009
 21
-5.7735
 31
0.0
  0
LINE
  5
1D5
100
AcDbEntity
  8
0
370
    -3
390
0
  6
Continuous
100
AcDbLine
 10
-4.999999
 20
2.886755
 30
0.0
 11
0.000008
 21
5.773499
 31
0.0
  0
LINE
  5
1D6
100
AcDbEntity
  8
0
370
    -3
390
0
  6
Continuous
100
AcDbLine
 10
-0.000009
 20
-5.773499
 30
0.0
 11
-4.999998
 21
-2.886745
 31
0.0
  0
LINE
  5
1D7
100
AcDbEntity
  8
0
370
    -3
390
0
  6
Continuous
100
AcDbLine
 10
4.999998
 20
2.886744
 30
0.0
 11
0.000009
 21
5.7735
 31
0.0
  0
LINE
  5
1D8
100
AcDbEntity
  8
0
370
    -3
390
0
  6
Continuous
100
AcDbLine
 10
4.999998
 20
2.886743
 30
0.0
 11
4.999999
 21
-2.886755
 31
0.0
  0
LINE
  5
1D9
100
AcDbEntity
  8
0
370
    -3
390
0
  6
Continuous
100
AcDbLine
 10
-4.999998
 20
-2.886744
 30
0.0
 11
-4.999999
 21
2.886755
 31
0.0
  0
POINT
  5
1DA
100
AcDbEntity
  8
0
370
    -3
390
0
  6
Continuous
100
AcDbPoint
 10
0.0
 20
0.0
 30
0.0
  0
CIRCLE
  5
1DB
100
AcDbEntity
  8
0
370
    -3
390
0
  6
Continuous
100
AcDbCircle
 10
0.0
 20
0.0
 30
0.0
 40
9.0
  0
CIRCLE
  5
1DC
100
AcDbEntity
  8
0
370
    -3
390
0
  6
Continuous
100
AcDbCircle
 10
0.0
 20
0.0
 30
0.0
 40
7.787524
  0
ENDBLK
  5
1DD
100
AcDbEntity
  8
0
390
0
100
AcDbBlockEnd
  0
BLOCK
  5
1E0
100
AcDbEntity
  8
0
390
0
100
AcDbBlockBegin
  2
ZU_SYM_K__CAD_SYM_POO_SYM_B20_0000407
 70
    64
 10
0.0
 20
0.0
 30
0.0
  3
ZU_SYM_K__CAD_SYM_POO_SYM_B20_0000407
  1

  0
LINE
  5
1E1
100
AcDbEntity
  8
0
370
    -3
390
0
  6
Continuous
100
AcDbLine
 10
4.999999
 20
-2.886755
 30
0.0
 11
-0.000009
 21
-5.7735
 31
0.0
  0
LINE
  5
1E2
100
AcDbEntity
  8
0
370
    -3
390
0
  6
Continuous
100
AcDbLine
 10
-4.999999
 20
2.886755
 30
0.0
 11
0.000008
 21
5.773499
 31
0.0
  0
LINE
  5
1E3
100
AcDbEntity
  8
0
370
    -3
390
0
  6
Continuous
100
AcDbLine
 10
-0.000009
 20
-5.773499
 30
0.0
 11
-4.999998
 21
-2.886745
 31
0.0
  0
LINE
  5
1E4
100
AcDbEntity
  8
0
370
    -3
390
0
  6
Continuous
100
AcDbLine
 10
4.999998
 20
2.886744
 30
0.0
 11
0.000009
 21
5.7735
 31
0.0
  0
LINE
  5
1E5
100
AcDbEntity
  8
0
370
    -3
390
0
  6
Continuous
100
AcDbLine
 10
4.999998
 20
2.886743
 30
0.0
 11
4.999999
 21
-2.886755
 31
0.0
  0
LINE
  5
1E6
100
AcDbEntity
  8
0
370
    -3
390
0
  6
Continuous
100
AcDbLine
 10
-4.999998
 20
-2.886744
 30
0.0
 11
-4.999999
 21
2.886755
 31
0.0
  0
POINT
  5
1E7
100
AcDbEntity
  8
0
370
    -3
390
0
  6
Continuous
100
AcDbPoint
 10
0.0
 20
0.0
 30
0.0
  0
CIRCLE
  5
1E8
100
AcDbEntity
  8
0
370
    -3
390
0
  6
Continuous
100
AcDbCircle
 10
0.0
 20
0.0
 30
0.0
 40
9.0
  0
CIRCLE
  5
1E9
100
AcDbEntity
  8
0
370
    -3
390
0
  6
Continuous
100
AcDbCircle
 10
0.0
 20
0.0
 30
0.0
 40
7.787524
  0
ENDBLK
  5
1EA
100
AcDbEntity
  8
0
390
0
100
AcDbBlockEnd
  0
BLOCK
  5
1ED
100
AcDbEntity
  8
0
390
0
100
AcDbBlockBegin
  2
ZU_SYM_K__CAD_SYM_POO_SYM_B20_0000507
 70
    64
 10
0.0
 20
0.0
 30
0.0
  3
ZU_SYM_K__CAD_SYM_POO_SYM_B20_0000507
  1

  0
LINE
  5
1EE
100
AcDbEntity
  8
0
370
    -3
390
0
  6
Continuous
100
AcDbLine
 10
4.999999
 20
-2.886755
 30
0.0
 11
-0.000009
 21
-5.7735
 31
0.0
  0
LINE
  5
1EF
100
AcDbEntity
  8
0
370
    -3
390
0
  6
Continuous
100
AcDbLine
 10
-4.999999
 20
2.886755
 30
0.0
 11
0.000008
 21
5.773499
 31
0.0
  0
LINE
  5
1F0
100
AcDbEntity
  8
0
370
    -3
390
0
  6
Continuous
100
AcDbLine
 10
-0.000009
 20
-5.773499
 30
0.0
 11
-4.999998
 21
-2.886745
 31
0.0
  0
LINE
  5
1F1
100
AcDbEntity
  8
0
370
    -3
390
0
  6
Continuous
100
AcDbLine
 10
4.999998
 20
2.886744
 30
0.0
 11
0.000009
 21
5.7735
 31
0.0
  0
LINE
  5
1F2
100
AcDbEntity
  8
0
370
    -3
390
0
  6
Continuous
100
AcDbLine
 10
4.999998
 20
2.886743
 30
0.0
 11
4.999999
 21
-2.886755
 31
0.0
  0
LINE
  5
1F3
100
AcDbEntity
  8
0
370
    -3
390
0
  6
Continuous
100
AcDbLine
 10
-4.999998
 20
-2.886744
 30
0.0
 11
-4.999999
 21
2.886755
 31
0.0
  0
POINT
  5
1F4
100
AcDbEntity
  8
0
370
    -3
390
0
  6
Continuous
100
AcDbPoint
 10
0.0
 20
0.0
 30
0.0
  0
CIRCLE
  5
1F5
100
AcDbEntity
  8
0
370
    -3
390
0
  6
Continuous
100
AcDbCircle
 10
0.0
 20
0.0
 30
0.0
 40
9.0
  0
CIRCLE
  5
1F6
100
AcDbEntity
  8
0
370
    -3
390
0
  6
Continuous
100
AcDbCircle
 10
0.0
 20
0.0
 30
0.0
 40
7.787524
  0
ENDBLK
  5
1F7
100
AcDbEntity
  8
0
390
0
100
AcDbBlockEnd
  0
BLOCK
  5
2B6
100
AcDbEntity
  8
0
390
0
100
AcDbBlockBegin
  2
ZU_SYM__USR_MELCAD_MD_SYM_SYM_SYM2_00
 70
    64
 10
0.0
 20
0.0
 30
0.0
  3
ZU_SYM__USR_MELCAD_MD_SYM_SYM_SYM2_00
  1

  0
LINE
  5
2B7
100
AcDbEntity
  8
0
370
    -3
390
0
  6
Continuous
100
AcDbLine
 10
-7.499999
 20
6.5
 30
0.0
 11
-7.499999
 21
-6.5
 31
0.0
  0
LINE
  5
2B8
100
AcDbEntity
  8
0
370
    -3
390
0
  6
Continuous
100
AcDbLine
 10
-7.499998
 20
-6.499999
 30
0.0
 11
-7.999999
 21
-5.63407
 31
0.0
  0
LINE
  5
2B9
100
AcDbEntity
  8
0
370
    -3
390
0
  6
Continuous
100
AcDbLine
 10
-7.499999
 20
6.5
 30
0.0
 11
-7.999999
 21
5.633876
 31
0.0
  0
LINE
  5
2BA
100
AcDbEntity
  8
0
370
    -3
390
0
  6
Continuous
100
AcDbLine
 10
0.0
 20
-6.5
 30
0.0
 11
-7.499998
 21
-6.5
 31
0.0
  0
LINE
  5
2BB
100
AcDbEntity
  8
0
370
    -3
390
0
  6
Continuous
100
AcDbLine
 10
0.0
 20
6.5
 30
0.0
 11
-7.499999
 21
6.5
 31
0.0
  0
LINE
  5
2BC
100
AcDbEntity
  8
0
370
    -3
390
0
  6
Continuous
100
AcDbLine
 10
-7.999999
 20
5.633876
 30
0.0
 11
-7.999999
 21
-5.63407
 31
0.0
  0
LINE
  5
2BD
100
AcDbEntity
  8
0
370
    -3
390
0
  6
Continuous
100
AcDbLine
 10
0.0
 20
-6.5
 30
0.0
 11
0.0
 21
6.5
 31
0.0
  0
POINT
  5
2BE
100
AcDbEntity
  8
0
370
    -3
390
0
  6
Continuous
100
AcDbPoint
 10
0.0
 20
0.0
 30
0.0
  0
ENDBLK
  5
2BF
100
AcDbEntity
  8
0
390
0
100
AcDbBlockEnd
  0
BLOCK
  5
2CD
100
AcDbEntity
  8
0
390
0
100
AcDbBlockBegin
  2
ZU_SYM__USR_MELCAD_MD_SYM_SYM_SYM1_00
 70
    64
 10
0.0
 20
0.0
 30
0.0
  3
ZU_SYM__USR_MELCAD_MD_SYM_SYM_SYM1_00
  1

  0
LINE
  5
2CE
100
AcDbEntity
  8
0
370
    -3
390
0
  6
Continuous
100
AcDbLine
 10
-7.499999
 20
6.5
 30
0.0
 11
-7.499999
 21
-6.5
 31
0.0
  0
LINE
  5
2CF
100
AcDbEntity
  8
0
370
    -3
390
0
  6
Continuous
100
AcDbLine
 10
-7.499998
 20
-6.499999
 30
0.0
 11
-7.999999
 21
-5.63407
 31
0.0
  0
LINE
  5
2D0
100
AcDbEntity
  8
0
370
    -3
390
0
  6
Continuous
100
AcDbLine
 10
-7.499999
 20
6.5
 30
0.0
 11
-7.999999
 21
5.633876
 31
0.0
  0
LINE
  5
2D1
100
AcDbEntity
  8
0
370
    -3
390
0
  6
Continuous
100
AcDbLine
 10
0.0
 20
-6.5
 30
0.0
 11
-7.499998
 21
-6.5
 31
0.0
  0
LINE
  5
2D2
100
AcDbEntity
  8
0
370
    -3
390
0
  6
Continuous
100
AcDbLine
 10
0.0
 20
6.5
 30
0.0
 11
-7.499999
 21
6.5
 31
0.0
  0
LINE
  5
2D3
100
AcDbEntity
  8
0
370
    -3
390
0
  6
Continuous
100
AcDbLine
 10
-7.999999
 20
5.633876
 30
0.0
 11
-7.999999
 21
-5.63407
 31
0.0
  0
LINE
  5
2D4
100
AcDbEntity
  8
0
370
    -3
390
0
  6
Continuous
100
AcDbLine
 10
0.0
 20
-6.5
 30
0.0
 11
0.0
 21
6.5
 31
0.0
  0
POINT
  5
2D5
100
AcDbEntity
  8
0
370
    -3
390
0
  6
Continuous
100
AcDbPoint
 10
0.0
 20
0.0
 30
0.0
  0
ENDBLK
  5
2D6
100
AcDbEntity
  8
0
390
0
100
AcDbBlockEnd
  0
ENDSEC
  0
SECTION
  2
ENTITIES
  0
LINE
  5
29
100
AcDbEntity
  8
0
370
    -3
390
0
  6
CENTER
100
AcDbLine
 10
-646.560279
 20
-13.917233
 30
0.0
 11
-675.874203
 21
-13.917233
 31
0.0
  0
LINE
  5
2A
100
AcDbEntity
  8
0
370
    -3
390
0
  6
CENTER
100
AcDbLine
 10
-86.374403
 20
-146.917233
 30
0.0
 11
362.344309
 21
-146.917233
 31
0.0
  0
LINE
  5
2B
100
AcDbEntity
  8
0
370
    -3
390
0
  6
Continuous
100
AcDbLine
 10
-3.843449
 20
-47.935493
 30
0.0
 11
-3.621612
 21
-47.551303
 31
0.0
  0
LINE
  5
2C
100
AcDbEntity
  8
0
370
    -3
390
0
  6
Continuous
100
AcDbLine
 10
-37.860694
 20
-186.881516
 30
0.0
 11
-37.860694
 21
-186.881504
 31
0.0
  0
LINE
  5
2D
100
AcDbEntity
  8
0
370
    -3
390
0
  6
Continuous
100
AcDbLine
 10
-37.621406
 20
-62.917435
 30
0.0
 11
-37.621795
 21
-222.917292
 31
0.0
  0
LINE
  5
2E
100
AcDbEntity
  8
0
370
    -3
390
0
  6
Continuous
100
AcDbLine
 10
-561.734306
 20
-95.417233
 30
0.0
 11
-498.734306
 21
-95.417233
 31
0.0
  0
LINE
  5
2F
100
AcDbEntity
  8
0
370
    -3
390
0
  6
Continuous
100
AcDbLine
 10
-561.734306
 20
-98.917233
 30
0.0
 11
-561.734306
 21
-95.417233
 31
0.0
  0
LINE
  5
30
100
AcDbEntity
  8
0
370
    -3
390
0
  6
Continuous
100
AcDbLine
 10
-573.734306
 20
-97.917233
 30
0.0
 11
-573.734306
 21
-149.917233
 31
0.0
  0
LINE
  5
31
100
AcDbEntity
  8
0
370
    -3
390
0
  6
Continuous
100
AcDbLine
 10
-575.734306
 20
-149.917233
 30
0.0
 11
-573.734306
 21
-149.917233
 31
0.0
  0
LINE
  5
32
100
AcDbEntity
  8
0
370
    -3
390
0
  6
Continuous
100
AcDbLine
 10
-575.734306
 20
-97.917233
 30
0.0
 11
-573.734306
 21
-97.917233
 31
0.0
  0
LINE
  5
33
100
AcDbEntity
  8
0
370
    -3
390
0
  6
Continuous
100
AcDbLine
 10
-573.734306
 20
-98.917233
 30
0.0
 11
-498.734306
 21
-98.917233
 31
0.0
  0
LINE
  5
34
100
AcDbEntity
  8
0
370
    -3
390
0
  6
Continuous
100
AcDbLine
 10
-573.734306
 20
-148.917233
 30
0.0
 11
-498.734306
 21
-148.917233
 31
0.0
  0
LINE
  5
35
100
AcDbEntity
  8
0
370
    -3
390
0
  6
Continuous
100
AcDbLine
 10
-212.621608
 20
-95.417233
 30
0.0
 11
-212.621608
 21
-104.417233
 31
0.0
  0
LINE
  5
36
100
AcDbEntity
  8
0
370
    -3
390
0
  6
Continuous
100
AcDbLine
 10
-226.621608
 20
-95.417233
 30
0.0
 11
-226.621608
 21
-104.417233
 31
0.0
  0
LINE
  5
37
100
AcDbEntity
  8
0
370
    -3
390
0
  6
Continuous
100
AcDbLine
 10
-226.621608
 20
-104.417233
 30
0.0
 11
-212.621608
 21
-104.417233
 31
0.0
  0
LINE
  5
38
100
AcDbEntity
  8
0
370
    -3
390
0
  6
Continuous
100
AcDbLine
 10
-226.621608
 20
-95.417233
 30
0.0
 11
-212.621608
 21
-95.417233
 31
0.0
  0
ARC
  5
39
100
AcDbEntity
  8
0
370
    -3
390
0
  6
Continuous
100
AcDbCircle
 10
-219.621608
 20
-123.917233
 30
0.0
 40
25.0
100
AcDbArc
 50
106.260205
 51
73.739795
  0
CIRCLE
  5
3A
100
AcDbEntity
  8
0
370
    -3
390
0
  6
Continuous
100
AcDbCircle
 10
-219.621608
 20
-123.917233
 30
0.0
 40
3.5
  0
CIRCLE
  5
3B
100
AcDbEntity
  8
0
370
    -3
390
0
  6
Continuous
100
AcDbCircle
 10
-219.621608
 20
-123.917233
 30
0.0
 40
4.0
  0
LINE
  5
3C
100
AcDbEntity
  8
0
370
    -3
390
0
  6
Continuous
100
AcDbLine
 10
-498.734306
 20
-95.417233
 30
0.0
 11
-498.734306
 21
-148.917233
 31
0.0
  0
LINE
  5
3D
100
AcDbEntity
  8
0
370
    -3
390
0
  6
Continuous
100
AcDbLine
 10
-37.860594
 20
-186.881517
 30
0.0
 11
-37.860594
 21
-186.881505
 31
0.0
  0
LINE
  5
3E
100
AcDbEntity
  8
0
370
    -3
390
0
  6
Continuous
100
AcDbLine
 10
-310.621608
 20
-90.427869
 30
0.0
 11
-310.621608
 21
-203.406597
 31
0.0
  0
ARC
  5
3F
100
AcDbEntity
  8
0
370
    -3
390
0
  6
Continuous
100
AcDbCircle
 10
-301.621608
 20
-90.427869
 30
0.0
 40
9.0
100
AcDbArc
 50
109.876874
 51
180.0
  0
ARC
  5
40
100
AcDbEntity
  8
0
370
    -3
390
0
  6
Continuous
100
AcDbCircle
 10
-310.121608
 20
-66.917233
 30
0.0
 40
16.0
100
AcDbArc
 50
289.876874
 51
349.518535
  0
ARC
  5
41
100
AcDbEntity
  8
0
370
    -3
390
0
  6
Continuous
100
AcDbCircle
 10
-285.538763
 20
-71.465169
 30
0.0
 40
9.0
100
AcDbArc
 50
119.214548
 51
169.518535
  0
ARC
  5
42
100
AcDbEntity
  8
0
370
    -3
390
0
  6
Continuous
100
AcDbCircle
 10
-302.621608
 20
-40.917233
 30
0.0
 40
26.0
100
AcDbArc
 50
299.214548
 51
358.362755
  0
ARC
  5
43
100
AcDbEntity
  8
0
370
    -3
390
0
  6
Continuous
100
AcDbCircle
 10
-267.635897
 20
-41.917233
 30
0.0
 40
9.0
100
AcDbArc
 50
90.0
 51
178.362755
  0
LINE
  5
44
100
AcDbEntity
  8
0
370
    -3
390
0
  6
Continuous
100
AcDbLine
 10
-267.635897
 20
-32.917233
 30
0.0
 11
-176.132244
 21
-32.917233
 31
0.0
  0
ARC
  5
45
100
AcDbEntity
  8
0
370
    -3
390
0
  6
Continuous
100
AcDbCircle
 10
-176.132244
 20
-41.917233
 30
0.0
 40
9.0
100
AcDbArc
 50
19.876874
 51
90.0
  0
ARC
  5
46
100
AcDbEntity
  8
0
370
    -3
390
0
  6
Continuous
100
AcDbCircle
 10
-152.621608
 20
-33.417233
 30
0.0
 40
16.0
100
AcDbArc
 50
199.876874
 51
340.123126
  0
ARC
  5
47
100
AcDbEntity
  8
0
370
    -3
390
0
  6
Continuous
100
AcDbCircle
 10
-129.110972
 20
-41.917233
 30
0.0
 40
9.0
100
AcDbArc
 50
90.0
 51
160.123126
  0
LINE
  5
48
100
AcDbEntity
  8
0
370
    -3
390
0
  6
Continuous
100
AcDbLine
 10
-129.110972
 20
-32.917233
 30
0.0
 11
-102.607319
 21
-32.917233
 31
0.0
  0
ARC
  5
49
100
AcDbEntity
  8
0
370
    -3
390
0
  6
Continuous
100
AcDbCircle
 10
-102.607319
 20
-41.917233
 30
0.0
 40
9.0
100
AcDbArc
 50
1.637245
 51
90.0
  0
ARC
  5
4A
100
AcDbEntity
  8
0
370
    -3
390
0
  6
Continuous
100
AcDbCircle
 10
-67.621608
 20
-40.917233
 30
0.0
 40
26.0
100
AcDbArc
 50
181.637245
 51
240.785452
  0
ARC
  5
4B
100
AcDbEntity
  8
0
370
    -3
390
0
  6
Continuous
100
AcDbCircle
 10
-84.704453
 20
-71.465169
 30
0.0
 40
9.0
100
AcDbArc
 50
10.481465
 51
60.785452
  0
ARC
  5
4C
100
AcDbEntity
  8
0
370
    -3
390
0
  6
Continuous
100
AcDbCircle
 10
-60.121608
 20
-66.917233
 30
0.0
 40
16.0
100
AcDbArc
 50
190.481465
 51
250.123126
  0
ARC
  5
4D
100
AcDbEntity
  8
0
370
    -3
390
0
  6
Continuous
100
AcDbCircle
 10
-68.621608
 20
-90.427869
 30
0.0
 40
9.0
100
AcDbArc
 50
0.0
 51
70.123126
  0
LINE
  5
4E
100
AcDbEntity
  8
0
370
    -3
390
0
  6
Continuous
100
AcDbLine
 10
-59.621608
 20
-203.406597
 30
0.0
 11
-59.621608
 21
-90.427869
 31
0.0
  0
ARC
  5
4F
100
AcDbEntity
  8
0
370
    -3
390
0
  6
Continuous
100
AcDbCircle
 10
-68.621608
 20
-203.406597
 30
0.0
 40
9.0
100
AcDbArc
 50
289.876874
 51
0.0
  0
ARC
  5
50
100
AcDbEntity
  8
0
370
    -3
390
0
  6
Continuous
100
AcDbCircle
 10
-60.121608
 20
-226.917233
 30
0.0
 40
16.0
100
AcDbArc
 50
109.876874
 51
169.518535
  0
ARC
  5
51
100
AcDbEntity
  8
0
370
    -3
390
0
  6
Continuous
100
AcDbCircle
 10
-84.704453
 20
-222.369297
 30
0.0
 40
9.0
100
AcDbArc
 50
299.214548
 51
349.518535
  0
ARC
  5
52
100
AcDbEntity
  8
0
370
    -3
390
0
  6
Continuous
100
AcDbCircle
 10
-67.621608
 20
-252.917233
 30
0.0
 40
26.0
100
AcDbArc
 50
119.214548
 51
178.362755
  0
ARC
  5
53
100
AcDbEntity
  8
0
370
    -3
390
0
  6
Continuous
100
AcDbCircle
 10
-102.607319
 20
-251.917233
 30
0.0
 40
9.0
100
AcDbArc
 50
270.0
 51
358.362755
  0
LINE
  5
54
100
AcDbEntity
  8
0
370
    -3
390
0
  6
Continuous
100
AcDbLine
 10
-176.152805
 20
-260.917233
 30
0.0
 11
-102.607319
 21
-260.917233
 31
0.0
  0
ARC
  5
55
100
AcDbEntity
  8
0
370
    -3
390
0
  6
Continuous
100
AcDbCircle
 10
-176.152805
 20
-251.917233
 30
0.0
 40
9.0
100
AcDbArc
 50
200.156963
 51
270.0
  0
ARC
  5
56
100
AcDbEntity
  8
0
370
    -3
390
0
  6
Continuous
100
AcDbCircle
 10
-199.621608
 20
-260.532062
 30
0.0
 40
16.0
100
AcDbArc
 50
20.156963
 51
159.843037
  0
ARC
  5
57
100
AcDbEntity
  8
0
370
    -3
390
0
  6
Continuous
100
AcDbCircle
 10
-223.090411
 20
-251.917233
 30
0.0
 40
9.0
100
AcDbArc
 50
270.0
 51
339.843037
  0
LINE
  5
58
100
AcDbEntity
  8
0
370
    -3
390
0
  6
Continuous
100
AcDbLine
 10
-267.635897
 20
-260.917233
 30
0.0
 11
-223.090411
 21
-260.917233
 31
0.0
  0
ARC
  5
59
100
AcDbEntity
  8
0
370
    -3
390
0
  6
Continuous
100
AcDbCircle
 10
-267.635897
 20
-251.917233
 30
0.0
 40
9.0
100
AcDbArc
 50
181.637245
 51
270.0
  0
ARC
  5
5A
100
AcDbEntity
  8
0
370
    -3
390
0
  6
Continuous
100
AcDbCircle
 10
-302.621608
 20
-252.917233
 30
0.0
 40
26.0
100
AcDbArc
 50
1.637245
 51
60.785452
  0
ARC
  5
5B
100
AcDbEntity
  8
0
370
    -3
390
0
  6
Continuous
100
AcDbCircle
 10
-285.538763
 20
-222.369297
 30
0.0
 40
9.0
100
AcDbArc
 50
190.481465
 51
240.785452
  0
ARC
  5
5C
100
AcDbEntity
  8
0
370
    -3
390
0
  6
Continuous
100
AcDbCircle
 10
-310.121608
 20
-226.917233
 30
0.0
 40
16.0
100
AcDbArc
 50
10.481465
 51
70.123126
  0
ARC
  5
5D
100
AcDbEntity
  8
0
370
    -3
390
0
  6
Continuous
100
AcDbCircle
 10
-301.621608
 20
-203.406597
 30
0.0
 40
9.0
100
AcDbArc
 50
180.0
 51
250.123126
  0
CIRCLE
  5
5E
100
AcDbEntity
  8
0
370
    -3
390
0
  6
Continuous
100
AcDbCircle
 10
-302.621608
 20
-40.917233
 30
0.0
 40
16.0
  0
CIRCLE
  5
5F
100
AcDbEntity
  8
0
370
    -3
390
0
  6
Continuous
100
AcDbCircle
 10
-67.621608
 20
-40.917233
 30
0.0
 40
16.0
  0
CIRCLE
  5
60
100
AcDbEntity
  8
0
370
    -3
390
0
  6
Continuous
100
AcDbCircle
 10
-67.621608
 20
-252.917233
 30
0.0
 40
16.0
  0
CIRCLE
  5
61
100
AcDbEntity
  8
0
370
    -3
390
0
  6
Continuous
100
AcDbCircle
 10
-302.621608
 20
-252.917233
 30
0.0
 40
16.0
  0
CIRCLE
  5
62
100
AcDbEntity
  8
0
370
    -3
390
0
  6
Continuous
100
AcDbCircle
 10
-302.621608
 20
-40.917233
 30
0.0
 40
11.0
  0
CIRCLE
  5
63
100
AcDbEntity
  8
0
370
    -3
390
0
  6
Continuous
100
AcDbCircle
 10
-67.621608
 20
-40.917233
 30
0.0
 40
11.0
  0
CIRCLE
  5
64
100
AcDbEntity
  8
0
370
    -3
390
0
  6
Continuous
100
AcDbCircle
 10
-67.621608
 20
-252.917233
 30
0.0
 40
11.0
  0
CIRCLE
  5
65
100
AcDbEntity
  8
0
370
    -3
390
0
  6
Continuous
100
AcDbCircle
 10
-302.621608
 20
-252.917233
 30
0.0
 40
11.0
  0
LINE
  5
66
100
AcDbEntity
  8
0
370
    -3
390
0
  6
CENTER
100
AcDbLine
 10
-67.621608
 20
-20.752189
 30
0.0
 11
-67.621608
 21
-60.895823
 31
0.0
  0
LINE
  5
67
100
AcDbEntity
  8
0
370
    -3
390
0
  6
CENTER
100
AcDbLine
 10
-38.39183
 20
-40.917233
 30
0.0
 11
-86.71306
 21
-40.917233
 31
0.0
  0
LINE
  5
68
100
AcDbEntity
  8
0
370
    -3
390
0
  6
CENTER
100
AcDbLine
 10
-322.719345
 20
-40.917233
 30
0.0
 11
-283.530156
 21
-40.917233
 31
0.0
  0
LINE
  5
69
100
AcDbEntity
  8
0
370
    -3
390
0
  6
CENTER
100
AcDbLine
 10
-302.621608
 20
-21.55204
 30
0.0
 11
-302.621608
 21
-61.011499
 31
0.0
  0
LINE
  5
6A
100
AcDbEntity
  8
0
370
    -3
390
0
  6
CENTER
100
AcDbLine
 10
-322.719345
 20
-252.917233
 30
0.0
 11
-283.530156
 21
-252.917233
 31
0.0
  0
LINE
  5
6B
100
AcDbEntity
  8
0
370
    -3
390
0
  6
CENTER
100
AcDbLine
 10
-302.621608
 20
-272.282425
 30
0.0
 11
-302.621608
 21
-232.822966
 31
0.0
  0
LINE
  5
6C
100
AcDbEntity
  8
0
370
    -3
390
0
  6
CENTER
100
AcDbLine
 10
-67.621608
 20
-272.282425
 30
0.0
 11
-67.621608
 21
-232.822966
 31
0.0
  0
LINE
  5
6D
100
AcDbEntity
  8
0
370
    -3
390
0
  6
CENTER
100
AcDbLine
 10
-40.020252
 20
-252.917233
 30
0.0
 11
-86.71306
 21
-252.917233
 31
0.0
  0
LINE
  5
6E
100
AcDbEntity
  8
0
370
    -3
390
0
  6
CENTER
100
AcDbLine
 10
-219.621608
 20
-13.286379
 30
0.0
 11
-219.621608
 21
-283.577195
 31
0.0
  0
LINE
  5
6F
100
AcDbEntity
  8
0
370
    -3
390
0
  6
CENTER
100
AcDbLine
 10
-331.375668
 20
-123.917233
 30
0.0
 11
-109.873388
 21
-123.917233
 31
0.0
  0
LINE
  5
70
100
AcDbEntity
  8
0
370
    -3
390
0
  6
Continuous
100
AcDbLine
 10
-48.621608
 20
-120.942431
 30
0.0
 11
-44.621608
 21
-94.940671
 31
0.0
  0
LINE
  5
71
100
AcDbEntity
  8
0
370
    -3
390
0
  6
Continuous
100
AcDbLine
 10
-48.621608
 20
-164.892025
 30
0.0
 11
-44.621608
 21
-190.44121
 31
0.0
  0
ARC
  5
72
100
AcDbEntity
  8
0
370
    -3
390
0
  6
Continuous
100
AcDbCircle
 10
-310.621608
 20
-260.917233
 30
0.0
 40
11.0
100
AcDbArc
 50
180.0
 51
270.0
  0
ARC
  5
73
100
AcDbEntity
  8
0
370
    -3
390
0
  6
Continuous
100
AcDbCircle
 10
-310.621608
 20
-32.917233
 30
0.0
 40
15.0
100
AcDbArc
 50
90.0
 51
180.0
  0
ARC
  5
74
100
AcDbEntity
  8
0
370
    -3
390
0
  6
Continuous
100
AcDbCircle
 10
-310.621608
 20
-32.917233
 30
0.0
 40
11.0
100
AcDbArc
 50
90.0
 51
180.0
  0
ARC
  5
75
100
AcDbEntity
  8
0
370
    -3
390
0
  6
Continuous
100
AcDbCircle
 10
-59.621608
 20
-32.917233
 30
0.0
 40
15.0
100
AcDbArc
 50
0.0
 51
90.0
  0
ARC
  5
76
100
AcDbEntity
  8
0
370
    -3
390
0
  6
Continuous
100
AcDbCircle
 10
-59.621608
 20
-32.917233
 30
0.0
 40
11.0
100
AcDbArc
 50
0.0
 51
90.0
  0
ARC
  5
77
100
AcDbEntity
  8
0
370
    -3
390
0
  6
Continuous
100
AcDbCircle
 10
-59.621608
 20
-260.917233
 30
0.0
 40
11.0
100
AcDbArc
 50
270.0
 51
0.0
  0
LINE
  5
78
100
AcDbEntity
  8
0
370
    -3
390
0
  6
Continuous
100
AcDbLine
 10
-44.621608
 20
-260.917233
 30
0.0
 11
-44.621608
 21
-190.44121
 31
0.0
  0
ARC
  5
79
100
AcDbEntity
  8
0
370
    -3
390
0
  6
Continuous
100
AcDbCircle
 10
-39.621608
 20
-229.917233
 30
0.0
 40
5.0
100
AcDbArc
 50
90.0
 51
180.0
  0
LINE
  5
7A
100
AcDbEntity
  8
0
370
    -3
390
0
  6
Continuous
100
AcDbLine
 10
-37.621608
 20
-222.917105
 30
0.0
 11
-39.621736
 21
-224.917233
 31
0.0
  0
LINE
  5
7B
100
AcDbEntity
  8
0
370
    -3
390
0
  6
Continuous
100
AcDbLine
 10
-39.621608
 20
-60.917233
 30
0.0
 11
-37.621608
 21
-62.917233
 31
0.0
  0
ARC
  5
7C
100
AcDbEntity
  8
0
370
    -3
390
0
  6
Continuous
100
AcDbCircle
 10
-39.621608
 20
-55.917233
 30
0.0
 40
5.0
100
AcDbArc
 50
180.0
 51
270.0
  0
LINE
  5
7D
100
AcDbEntity
  8
0
370
    -3
390
0
  6
Continuous
100
AcDbLine
 10
-48.621608
 20
-260.917233
 30
0.0
 11
-48.621608
 21
-164.892025
 31
0.0
  0
LINE
  5
7E
100
AcDbEntity
  8
0
370
    -3
390
0
  6
Continuous
100
AcDbLine
 10
-48.621608
 20
-120.942431
 30
0.0
 11
-48.621608
 21
-32.917233
 31
0.0
  0
LINE
  5
7F
100
AcDbEntity
  8
0
370
    -3
390
0
  6
Continuous
100
AcDbLine
 10
-321.621608
 20
-32.917233
 30
0.0
 11
-321.621608
 21
-260.917233
 31
0.0
  0
LINE
  5
80
100
AcDbEntity
  8
0
370
    -3
390
0
  6
Continuous
100
AcDbLine
 10
-59.621608
 20
-21.917233
 30
0.0
 11
-310.621608
 21
-21.917233
 31
0.0
  0
LINE
  5
81
100
AcDbEntity
  8
0
370
    -3
390
0
  6
Continuous
100
AcDbLine
 10
-310.621608
 20
-271.917233
 30
0.0
 11
-59.621608
 21
-271.917233
 31
0.0
  0
ARC
  5
82
100
AcDbEntity
  8
0
370
    -3
390
0
  6
Continuous
100
AcDbCircle
 10
-59.621608
 20
-260.917233
 30
0.0
 40
15.0
100
AcDbArc
 50
270.0
 51
0.0
  0
ARC
  5
83
100
AcDbEntity
  8
0
370
    -3
390
0
  6
Continuous
100
AcDbCircle
 10
-310.621608
 20
-260.917233
 30
0.0
 40
15.0
100
AcDbArc
 50
180.0
 51
270.0
  0
LINE
  5
84
100
AcDbEntity
  8
0
370
    -3
390
0
  6
Continuous
100
AcDbLine
 10
-310.621608
 20
-275.917233
 30
0.0
 11
-59.621608
 21
-275.917233
 31
0.0
  0
LINE
  5
85
100
AcDbEntity
  8
0
370
    -3
390
0
  6
Continuous
100
AcDbLine
 10
-310.621608
 20
-17.917233
 30
0.0
 11
-59.621608
 21
-17.917233
 31
0.0
  0
LINE
  5
86
100
AcDbEntity
  8
0
370
    -3
390
0
  6
Continuous
100
AcDbLine
 10
-44.621608
 20
-32.917233
 30
0.0
 11
-44.621608
 21
-94.940671
 31
0.0
  0
LINE
  5
87
100
AcDbEntity
  8
0
370
    -3
390
0
  6
Continuous
100
AcDbLine
 10
-325.621608
 20
-32.917233
 30
0.0
 11
-325.621608
 21
-260.917233
 31
0.0
  0
ARC
  5
88
100
AcDbEntity
  8
0
370
    -3
390
0
  6
Continuous
100
AcDbCircle
 10
-111.621608
 20
-123.917233
 30
0.0
 40
43.0
100
AcDbArc
 50
359.944778
 51
0.0
  0
LINE
  5
89
100
AcDbEntity
  8
0
370
    -3
390
0
  6
Continuous
100
AcDbLine
 10
-23.62161
 20
-29.917649
 30
0.0
 11
-32.62161
 21
-29.917649
 31
0.0
  0
ARC
  5
8A
100
AcDbEntity
  8
0
370
    -3
390
0
  6
Continuous
100
AcDbCircle
 10
-32.62161
 20
-32.917649
 30
0.0
 40
3.0
100
AcDbArc
 50
90.0
 51
180.0
  0
ARC
  5
8B
100
AcDbEntity
  8
0
370
    -3
390
0
  6
Continuous
100
AcDbCircle
 10
3.37839
 20
-232.917233
 30
0.0
 40
2.0
100
AcDbArc
 50
90.0
 51
180.0
  0
ARC
  5
8C
100
AcDbEntity
  8
0
370
    -3
390
0
  6
Continuous
100
AcDbCircle
 10
-38.62161
 20
-231.159873
 30
0.0
 40
3.0
100
AcDbArc
 50
0.0
 51
45.0
  0
ARC
  5
8D
100
AcDbEntity
  8
0
370
    -3
390
0
  6
Continuous
100
AcDbCircle
 10
-38.62161
 20
-231.159873
 30
0.0
 40
3.0
100
AcDbArc
 50
0.0
 51
45.0
  0
LINE
  5
8E
100
AcDbEntity
  8
0
370
    -3
390
0
  6
Continuous
100
AcDbLine
 10
-36.50029
 20
-229.038553
 30
0.0
 11
-37.62161
 21
-227.917233
 31
0.0
  0
ARC
  5
8F
100
AcDbEntity
  8
0
370
    -3
390
0
  6
Continuous
100
AcDbCircle
 10
-38.62161
 20
-62.674592
 30
0.0
 40
3.0
100
AcDbArc
 50
315.0
 51
0.0
  0
LINE
  5
90
100
AcDbEntity
  8
0
370
    -3
390
0
  6
Continuous
100
AcDbLine
 10
-35.62161
 20
-32.917649
 30
0.0
 11
-35.62161
 21
-146.917233
 31
0.0
  0
LINE
  5
91
100
AcDbEntity
  8
0
370
    -3
390
0
  6
Continuous
100
AcDbLine
 10
-36.50029
 20
-64.795912
 30
0.0
 11
-37.62161
 21
-65.917233
 31
0.0
  0
LINE
  5
92
100
AcDbEntity
  8
0
370
    -3
390
0
  6
Continuous
100
AcDbLine
 10
-35.62161
 20
-243.917233
 30
0.0
 11
-35.62161
 21
-146.917233
 31
0.0
  0
LINE
  5
93
100
AcDbEntity
  8
0
370
    -3
390
0
  6
Continuous
100
AcDbLine
 10
1.37839
 20
-146.917233
 30
0.0
 11
1.37839
 21
-157.915925
 31
0.0
  0
LINE
  5
94
100
AcDbEntity
  8
0
370
    -3
390
0
  6
Continuous
100
AcDbLine
 10
1.37839
 20
-177.417233
 30
0.0
 11
1.37839
 21
-179.417233
 31
0.0
  0
LINE
  5
95
100
AcDbEntity
  8
0
370
    -3
390
0
  6
Continuous
100
AcDbLine
 10
1.37839
 20
-225.150575
 30
0.0
 11
1.37839
 21
-243.917233
 31
0.0
  0
LINE
  5
96
100
AcDbEntity
  8
0
370
    -3
390
0
  6
Continuous
100
AcDbLine
 10
1.37839
 20
-198.417233
 30
0.0
 11
1.37839
 21
-215.604633
 31
0.0
  0
ARC
  5
97
100
AcDbEntity
  8
0
370
    -3
390
0
  6
Continuous
100
AcDbCircle
 10
3.37839
 20
-60.917233
 30
0.0
 40
2.0
100
AcDbArc
 50
180.0
 51
270.0
  0
LINE
  5
98
100
AcDbEntity
  8
0
370
    -3
390
0
  6
Continuous
100
AcDbLine
 10
1.37839
 20
-146.917233
 30
0.0
 11
1.37839
 21
-135.918541
 31
0.0
  0
LINE
  5
99
100
AcDbEntity
  8
0
370
    -3
390
0
  6
Continuous
100
AcDbLine
 10
1.37839
 20
-116.417233
 30
0.0
 11
1.37839
 21
-114.417233
 31
0.0
  0
LINE
  5
9A
100
AcDbEntity
  8
0
370
    -3
390
0
  6
Continuous
100
AcDbLine
 10
1.37839
 20
-68.683891
 30
0.0
 11
1.37839
 21
-49.917233
 31
0.0
  0
LINE
  5
9B
100
AcDbEntity
  8
0
370
    -3
390
0
  6
Continuous
100
AcDbLine
 10
1.37839
 20
-95.417233
 30
0.0
 11
1.37839
 21
-78.229832
 31
0.0
  0
LINE
  5
9C
100
AcDbEntity
  8
0
370
    -3
390
0
  6
Continuous
100
AcDbLine
 10
3.37839
 20
-146.917233
 30
0.0
 11
3.37839
 21
-230.917233
 31
0.0
  0
LINE
  5
9D
100
AcDbEntity
  8
0
370
    -3
390
0
  6
Continuous
100
AcDbLine
 10
3.37839
 20
-146.917233
 30
0.0
 11
3.37839
 21
-62.917233
 31
0.0
  0
LINE
  5
9E
100
AcDbEntity
  8
0
370
    -3
390
0
  6
Continuous
100
AcDbLine
 10
-39.860699
 20
-188.917511
 30
0.0
 11
-39.860699
 21
-188.9175
 31
0.0
  0
LINE
  5
9F
100
AcDbEntity
  8
0
370
    -3
390
0
  6
Continuous
100
AcDbLine
 10
-37.621413
 20
-65.674491
 30
0.0
 11
-37.621613
 21
-147.953233
 31
0.0
  0
CIRCLE
  5
A0
100
AcDbEntity
  8
0
370
    -3
390
0
  6
Continuous
100
AcDbCircle
 10
-219.621608
 20
-123.917233
 30
0.0
 40
75.0
  0
CIRCLE
  5
A1
100
AcDbEntity
  8
0
370
    -3
390
0
  6
Continuous
100
AcDbCircle
 10
-219.621608
 20
-123.917233
 30
0.0
 40
85.5
  0
CIRCLE
  5
A2
100
AcDbEntity
  8
0
370
    -3
390
0
  6
Continuous
100
AcDbCircle
 10
-219.621608
 20
-123.917233
 30
0.0
 40
82.5
  0
POINT
  5
A3
100
AcDbEntity
  8
0
370
    -3
390
0
  6
Continuous
100
AcDbPoint
 10
-16.12161
 20
-38.917233
 30
0.0
  0
LINE
  5
A4
100
AcDbEntity
  8
0
370
    -3
390
0
  6
CENTER
100
AcDbLine
 10
-6.687534
 20
-38.917233
 30
0.0
 11
-29.658736
 21
-38.917233
 31
0.0
  0
LINE
  5
A5
100
AcDbEntity
  8
0
370
    -3
390
0
  6
Continuous
100
AcDbLine
 10
-16.12161
 20
6.082767
 30
0.0
 11
-16.12161
 21
-47.935493
 31
0.0
  0
LINE
  5
A6
100
AcDbEntity
  8
0
370
    -3
390
0
  6
CENTER
100
AcDbLine
 10
-660.7345
 20
12.649688
 30
0.0
 11
-660.734136
 21
-286.144366
 31
0.0
  0
LINE
  5
A7
100
AcDbEntity
  8
0
370
    -3
390
0
  6
Continuous
100
AcDbLine
 10
-740.734306
 20
-23.270584
 30
0.0
 11
-740.734306
 21
-270.577343
 31
0.0
  0
LINE
  5
A8
100
AcDbEntity
  8
0
370
    -3
390
0
  6
Continuous
100
AcDbLine
 10
-739.734991
 20
-22.244759
 30
0.0
 11
-740.734306
 21
-23.270584
 31
0.0
  0
LINE
  5
A9
100
AcDbEntity
  8
0
370
    -3
390
0
  6
Continuous
100
AcDbLine
 10
-739.734991
 20
-271.603168
 30
0.0
 11
-727.234306
 21
-271.93051
 31
0.0
  0
LINE
  5
AA
100
AcDbEntity
  8
0
370
    -3
390
0
  6
Continuous
100
AcDbLine
 10
-581.73362
 20
-271.603168
 30
0.0
 11
-594.234306
 21
-271.93051
 31
0.0
  0
LINE
  5
AB
100
AcDbEntity
  8
0
370
    -3
390
0
  6
Continuous
100
AcDbLine
 10
-657.734306
 20
-123.917417
 30
0.0
 11
-657.734306
 21
-275.812655
 31
0.0
  0
LINE
  5
AC
100
AcDbEntity
  8
0
370
    -3
390
0
  6
Continuous
100
AcDbLine
 10
-657.734306
 20
-18.022179
 30
0.0
 11
-657.734306
 21
-123.917417
 31
0.0
  0
LINE
  5
AD
100
AcDbEntity
  8
0
370
    -3
390
0
  6
Continuous
100
AcDbLine
 10
-660.734306
 20
-275.917417
 30
0.0
 11
-727.234306
 21
-273.595186
 31
0.0
  0
LINE
  5
AE
100
AcDbEntity
  8
0
370
    -3
390
0
  6
Continuous
100
AcDbLine
 10
-727.234306
 20
-20.239648
 30
0.0
 11
-727.234306
 21
-273.595186
 31
0.0
  0
LINE
  5
AF
100
AcDbEntity
  8
0
370
    -3
390
0
  6
Continuous
100
AcDbLine
 10
-657.734306
 20
-275.812655
 30
0.0
 11
-594.234306
 21
-273.595186
 31
0.0
  0
LINE
  5
B0
100
AcDbEntity
  8
0
370
    -3
390
0
  6
Continuous
100
AcDbLine
 10
-594.234306
 20
-20.239648
 30
0.0
 11
-594.234306
 21
-273.595186
 31
0.0
  0
LINE
  5
B1
100
AcDbEntity
  8
0
370
    -3
390
0
  6
Continuous
100
AcDbLine
 10
-745.734306
 20
-48.917233
 30
0.0
 11
-745.734306
 21
-198.917233
 31
0.0
  0
LINE
  5
B2
100
AcDbEntity
  8
0
370
    -3
390
0
  6
Continuous
100
AcDbLine
 10
-660.734306
 20
-17.917417
 30
0.0
 11
-660.734306
 21
-275.952338
 31
0.0
  0
LINE
  5
B3
100
AcDbEntity
  8
0
370
    -3
390
0
  6
Continuous
100
AcDbLine
 10
-660.734306
 20
-17.917417
 30
0.0
 11
-727.234306
 21
-20.239648
 31
0.0
  0
LINE
  5
B4
100
AcDbEntity
  8
0
370
    -3
390
0
  6
Continuous
100
AcDbLine
 10
-739.734991
 20
-271.603168
 30
0.0
 11
-740.734306
 21
-270.577343
 31
0.0
  0
LINE
  5
B5
100
AcDbEntity
  8
0
370
    -3
390
0
  6
Continuous
100
AcDbLine
 10
-727.234306
 20
-21.917417
 30
0.0
 11
-739.734991
 21
-22.244759
 31
0.0
  0
LINE
  5
B6
100
AcDbEntity
  8
0
370
    -3
390
0
  6
Continuous
100
AcDbLine
 10
-739.734991
 20
-22.244759
 30
0.0
 11
-740.734306
 21
-23.270584
 31
0.0
  0
LINE
  5
B7
100
AcDbEntity
  8
0
370
    -3
390
0
  6
Continuous
100
AcDbLine
 10
-660.734306
 20
-19.917417
 30
0.0
 11
-660.734306
 21
-273.917417
 31
0.0
  0
LINE
  5
B8
100
AcDbEntity
  8
0
370
    -3
390
0
  6
Continuous
100
AcDbLine
 10
-575.734306
 20
-48.917417
 30
0.0
 11
-575.734306
 21
-198.917417
 31
0.0
  0
LINE
  5
B9
100
AcDbEntity
  8
0
370
    -3
390
0
  6
Continuous
100
AcDbLine
 10
-580.734306
 20
-23.270584
 30
0.0
 11
-580.734306
 21
-270.577343
 31
0.0
  0
LINE
  5
BA
100
AcDbEntity
  8
0
370
    -3
390
0
  6
Continuous
100
AcDbLine
 10
-580.734306
 20
-48.917417
 30
0.0
 11
-575.734306
 21
-48.917417
 31
0.0
  0
LINE
  5
BB
100
AcDbEntity
  8
0
370
    -3
390
0
  6
Continuous
100
AcDbLine
 10
-580.734306
 20
-198.917417
 30
0.0
 11
-575.734306
 21
-198.917417
 31
0.0
  0
LINE
  5
BC
100
AcDbEntity
  8
0
370
    -3
390
0
  6
Continuous
100
AcDbLine
 10
-657.738417
 20
-274.074425
 30
0.0
 11
-660.734306
 21
-273.917417
 31
0.0
  0
LINE
  5
BD
100
AcDbEntity
  8
0
370
    -3
390
0
  6
Continuous
100
AcDbLine
 10
-657.734306
 20
-18.022179
 30
0.0
 11
-594.234306
 21
-20.239648
 31
0.0
  0
LINE
  5
BE
100
AcDbEntity
  8
0
370
    -3
390
0
  6
Continuous
100
AcDbLine
 10
-657.738417
 20
-19.760409
 30
0.0
 11
-660.734306
 21
-19.917417
 31
0.0
  0
LINE
  5
BF
100
AcDbEntity
  8
0
370
    -3
390
0
  6
Continuous
100
AcDbLine
 10
-581.73362
 20
-271.603168
 30
0.0
 11
-580.734306
 21
-270.577343
 31
0.0
  0
LINE
  5
C0
100
AcDbEntity
  8
0
370
    -3
390
0
  6
Continuous
100
AcDbLine
 10
-581.73362
 20
-22.244759
 30
0.0
 11
-580.734306
 21
-23.270584
 31
0.0
  0
LINE
  5
C1
100
AcDbEntity
  8
0
370
    -3
390
0
  6
Continuous
100
AcDbLine
 10
-594.234306
 20
-21.917417
 30
0.0
 11
-581.73362
 21
-22.244759
 31
0.0
  0
LINE
  5
C2
100
AcDbEntity
  8
0
370
    -3
390
0
  6
Continuous
100
AcDbLine
 10
-740.734306
 20
-48.917233
 30
0.0
 11
-745.734306
 21
-48.917233
 31
0.0
  0
LINE
  5
C3
100
AcDbEntity
  8
0
370
    -3
390
0
  6
Continuous
100
AcDbLine
 10
-740.734306
 20
-198.917233
 30
0.0
 11
-745.734306
 21
-198.917233
 31
0.0
  0
ARC
  5
C4
100
AcDbEntity
  8
0
370
    -3
390
0
  6
Continuous
100
AcDbCircle
 10
-660.734629
 20
-13.917233
 30
0.0
 40
10.0
100
AcDbArc
 50
334.435974
 51
204.910158
  0
ARC
  5
C5
100
AcDbEntity
  8
0
370
    -3
390
0
  6
Continuous
100
AcDbCircle
 10
-671.234641
 20
-3.917258
 30
0.0
 40
10.0
100
AcDbArc
 50
90.000139
 51
180.00007
  0
LINE
  5
C6
100
AcDbEntity
  8
0
370
    -3
390
0
  6
Continuous
100
AcDbLine
 10
-671.234666
 20
6.082742
 30
0.0
 11
-650.234666
 21
6.082793
 31
0.0
  0
LINE
  5
C7
100
AcDbEntity
  8
0
370
    -3
390
0
  6
Continuous
100
AcDbLine
 10
-681.234641
 20
-3.917271
 30
0.0
 11
-681.234624
 21
-18.528382
 31
0.0
  0
ARC
  5
C8
100
AcDbEntity
  8
0
370
    -3
390
0
  6
Continuous
100
AcDbCircle
 10
-650.234641
 20
-3.917207
 30
0.0
 40
10.0
100
AcDbArc
 50
0.00007
 51
90.000139
  0
LINE
  5
C9
100
AcDbEntity
  8
0
370
    -3
390
0
  6
Continuous
100
AcDbLine
 10
-640.234641
 20
-3.917195
 30
0.0
 11
-640.234623
 21
-18.737817
 31
0.0
  0
LINE
  5
CA
100
AcDbEntity
  8
0
370
    -3
390
0
  6
Continuous
100
AcDbLine
 10
3.37839
 20
-238.417049
 30
0.0
 11
203.37839
 21
-238.417049
 31
0.0
  0
LINE
  5
CB
100
AcDbEntity
  8
0
370
    -3
390
0
  6
Continuous
100
AcDbLine
 10
3.37839
 20
-243.917049
 30
0.0
 11
203.37839
 21
-243.917049
 31
0.0
  0
LINE
  5
CC
100
AcDbEntity
  8
0
370
    -3
390
0
  6
Continuous
100
AcDbLine
 10
3.37839
 20
-244.917049
 30
0.0
 11
3.37839
 21
-54.917049
 31
0.0
  0
LINE
  5
CD
100
AcDbEntity
  8
0
370
    -3
390
0
  6
Continuous
100
AcDbLine
 10
203.37839
 20
-142.667049
 30
0.0
 11
3.37839
 21
-142.667049
 31
0.0
  0
LINE
  5
CE
100
AcDbEntity
  8
0
370
    -3
390
0
  6
Continuous
100
AcDbLine
 10
203.37839
 20
-135.096205
 30
0.0
 11
3.37839
 21
-135.096205
 31
0.0
  0
LINE
  5
CF
100
AcDbEntity
  8
0
370
    -3
390
0
  6
Continuous
100
AcDbLine
 10
203.37839
 20
-124.806709
 30
0.0
 11
3.37839
 21
-124.806709
 31
0.0
  0
LINE
  5
D0
100
AcDbEntity
  8
0
370
    -3
390
0
  6
Continuous
100
AcDbLine
 10
203.37839
 20
-127.018298
 30
0.0
 11
3.37839
 21
-127.018298
 31
0.0
  0
LINE
  5
D1
100
AcDbEntity
  8
0
370
    -3
390
0
  6
Continuous
100
AcDbLine
 10
203.37839
 20
-116.560272
 30
0.0
 11
3.37839
 21
-116.560272
 31
0.0
  0
LINE
  5
D2
100
AcDbEntity
  8
0
370
    -3
390
0
  6
Continuous
100
AcDbLine
 10
203.37839
 20
-114.245173
 30
0.0
 11
3.37839
 21
-114.245173
 31
0.0
  0
LINE
  5
D3
100
AcDbEntity
  8
0
370
    -3
390
0
  6
Continuous
100
AcDbLine
 10
203.37839
 20
-103.664799
 30
0.0
 11
3.37839
 21
-103.664799
 31
0.0
  0
LINE
  5
D4
100
AcDbEntity
  8
0
370
    -3
390
0
  6
Continuous
100
AcDbLine
 10
203.37839
 20
-106.116921
 30
0.0
 11
3.37839
 21
-106.116921
 31
0.0
  0
LINE
  5
D5
100
AcDbEntity
  8
0
370
    -3
390
0
  6
Continuous
100
AcDbLine
 10
203.37839
 20
-93.152476
 30
0.0
 11
3.37839
 21
-93.152476
 31
0.0
  0
LINE
  5
D6
100
AcDbEntity
  8
0
370
    -3
390
0
  6
Continuous
100
AcDbLine
 10
203.37839
 20
-95.683388
 30
0.0
 11
3.37839
 21
-95.683388
 31
0.0
  0
LINE
  5
D7
100
AcDbEntity
  8
0
370
    -3
390
0
  6
Continuous
100
AcDbLine
 10
203.37839
 20
-78.232607
 30
0.0
 11
3.37839
 21
-78.232607
 31
0.0
  0
LINE
  5
D8
100
AcDbEntity
  8
0
370
    -3
390
0
  6
Continuous
100
AcDbLine
 10
203.37839
 20
-69.747325
 30
0.0
 11
3.37839
 21
-69.747325
 31
0.0
  0
LINE
  5
D9
100
AcDbEntity
  8
0
370
    -3
390
0
  6
Continuous
100
AcDbLine
 10
203.37839
 20
-57.917049
 30
0.0
 11
3.37839
 21
-57.917049
 31
0.0
  0
LINE
  5
DA
100
AcDbEntity
  8
0
370
    -3
390
0
  6
Continuous
100
AcDbLine
 10
203.37839
 20
-55.417049
 30
0.0
 11
3.37839
 21
-55.417049
 31
0.0
  0
LINE
  5
DB
100
AcDbEntity
  8
0
370
    -3
390
0
  6
Continuous
100
AcDbLine
 10
203.37839
 20
-54.917049
 30
0.0
 11
3.37839
 21
-54.917049
 31
0.0
  0
LINE
  5
DC
100
AcDbEntity
  8
0
370
    -3
390
0
  6
Continuous
100
AcDbLine
 10
3.37839
 20
-244.417049
 30
0.0
 11
203.37839
 21
-244.417049
 31
0.0
  0
LINE
  5
DD
100
AcDbEntity
  8
0
370
    -3
390
0
  6
Continuous
100
AcDbLine
 10
3.37839
 20
-244.917049
 30
0.0
 11
203.37839
 21
-244.917049
 31
0.0
  0
LINE
  5
DE
100
AcDbEntity
  8
0
370
    -3
390
0
  6
Continuous
100
AcDbLine
 10
3.37839
 20
-151.167049
 30
0.0
 11
203.37839
 21
-151.167049
 31
0.0
  0
LINE
  5
DF
100
AcDbEntity
  8
0
370
    -3
390
0
  6
Continuous
100
AcDbLine
 10
3.37839
 20
-158.737892
 30
0.0
 11
203.37839
 21
-158.737892
 31
0.0
  0
LINE
  5
E0
100
AcDbEntity
  8
0
370
    -3
390
0
  6
Continuous
100
AcDbLine
 10
3.37839
 20
-166.8158
 30
0.0
 11
203.37839
 21
-166.8158
 31
0.0
  0
LINE
  5
E1
100
AcDbEntity
  8
0
370
    -3
390
0
  6
Continuous
100
AcDbLine
 10
3.37839
 20
-169.027389
 30
0.0
 11
203.37839
 21
-169.027389
 31
0.0
  0
LINE
  5
E2
100
AcDbEntity
  8
0
370
    -3
390
0
  6
Continuous
100
AcDbLine
 10
3.37839
 20
-177.273826
 30
0.0
 11
203.37839
 21
-177.273826
 31
0.0
  0
LINE
  5
E3
100
AcDbEntity
  8
0
370
    -3
390
0
  6
Continuous
100
AcDbLine
 10
3.37839
 20
-179.588924
 30
0.0
 11
203.37839
 21
-179.588924
 31
0.0
  0
LINE
  5
E4
100
AcDbEntity
  8
0
370
    -3
390
0
  6
Continuous
100
AcDbLine
 10
3.37839
 20
-187.717177
 30
0.0
 11
203.37839
 21
-187.717177
 31
0.0
  0
LINE
  5
E5
100
AcDbEntity
  8
0
370
    -3
390
0
  6
Continuous
100
AcDbLine
 10
3.37839
 20
-190.169298
 30
0.0
 11
203.37839
 21
-190.169298
 31
0.0
  0
LINE
  5
E6
100
AcDbEntity
  8
0
370
    -3
390
0
  6
Continuous
100
AcDbLine
 10
3.37839
 20
-198.15071
 30
0.0
 11
203.37839
 21
-198.15071
 31
0.0
  0
LINE
  5
E7
100
AcDbEntity
  8
0
370
    -3
390
0
  6
Continuous
100
AcDbLine
 10
3.37839
 20
-200.681621
 30
0.0
 11
203.37839
 21
-200.681621
 31
0.0
  0
LINE
  5
E8
100
AcDbEntity
  8
0
370
    -3
390
0
  6
Continuous
100
AcDbLine
 10
3.37839
 20
-215.601491
 30
0.0
 11
203.37839
 21
-215.601491
 31
0.0
  0
LINE
  5
E9
100
AcDbEntity
  8
0
370
    -3
390
0
  6
Continuous
100
AcDbLine
 10
3.37839
 20
-224.086772
 30
0.0
 11
203.37839
 21
-224.086772
 31
0.0
  0
LINE
  5
EA
100
AcDbEntity
  8
0
370
    -3
390
0
  6
Continuous
100
AcDbLine
 10
3.37839
 20
-235.917049
 30
0.0
 11
203.37839
 21
-235.917049
 31
0.0
  0
LINE
  5
EB
100
AcDbEntity
  8
0
370
    -3
390
0
  6
Continuous
100
AcDbLine
 10
3.37839
 20
-242.417049
 30
0.0
 11
203.37839
 21
-242.417049
 31
0.0
  0
LINE
  5
EC
100
AcDbEntity
  8
0
370
    -3
390
0
  6
CENTER
100
AcDbLine
 10
-60.121608
 20
-83.00417
 30
0.0
 11
-60.121608
 21
-51.817586
 31
0.0
  0
LINE
  5
ED
100
AcDbEntity
  8
0
370
    -3
390
0
  6
CENTER
100
AcDbLine
 10
-46.216376
 20
-66.917233
 30
0.0
 11
-72.521941
 21
-66.917233
 31
0.0
  0
CIRCLE
  5
EE
100
AcDbEntity
  8
0
370
    -3
390
0
  6
Continuous
100
AcDbCircle
 10
-60.121608
 20
-66.917233
 30
0.0
 40
10.0
  0
LINE
  5
EF
100
AcDbEntity
  8
0
370
    -3
390
0
  6
CENTER
100
AcDbLine
 10
-152.621608
 20
-47.998044
 30
0.0
 11
-152.621608
 21
-14.90127
 31
0.0
  0
LINE
  5
F0
100
AcDbEntity
  8
0
370
    -3
390
0
  6
CENTER
100
AcDbLine
 10
-166.949936
 20
-33.417233
 30
0.0
 11
-139.078968
 21
-33.417233
 31
0.0
  0
CIRCLE
  5
F1
100
AcDbEntity
  8
0
370
    -3
390
0
  6
Continuous
100
AcDbCircle
 10
-152.621608
 20
-33.417233
 30
0.0
 40
10.0
  0
LINE
  5
F2
100
AcDbEntity
  8
0
370
    -3
390
0
  6
CENTER
100
AcDbLine
 10
-310.121608
 20
-53.508416
 30
0.0
 11
-310.121608
 21
-82.507694
 31
0.0
  0
LINE
  5
F3
100
AcDbEntity
  8
0
370
    -3
390
0
  6
CENTER
100
AcDbLine
 10
-327.208
 20
-66.917233
 30
0.0
 11
-294.982194
 21
-66.917233
 31
0.0
  0
CIRCLE
  5
F4
100
AcDbEntity
  8
0
370
    -3
390
0
  6
Continuous
100
AcDbCircle
 10
-310.121608
 20
-66.917233
 30
0.0
 40
10.0
  0
LINE
  5
F5
100
AcDbEntity
  8
0
370
    -3
390
0
  6
CENTER
100
AcDbLine
 10
-310.121608
 20
-239.686162
 30
0.0
 11
-310.121608
 21
-213.481915
 31
0.0
  0
LINE
  5
F6
100
AcDbEntity
  8
0
370
    -3
390
0
  6
CENTER
100
AcDbLine
 10
-327.643484
 20
-226.917233
 30
0.0
 11
-296.288645
 21
-226.917233
 31
0.0
  0
CIRCLE
  5
F7
100
AcDbEntity
  8
0
370
    -3
390
0
  6
Continuous
100
AcDbCircle
 10
-310.121608
 20
-226.917233
 30
0.0
 40
10.0
  0
LINE
  5
F8
100
AcDbEntity
  8
0
370
    -3
390
0
  6
CENTER
100
AcDbLine
 10
-199.621608
 20
-278.804496
 30
0.0
 11
-199.621608
 21
-245.707722
 31
0.0
  0
LINE
  5
F9
100
AcDbEntity
  8
0
370
    -3
390
0
  6
CENTER
100
AcDbLine
 10
-214.853161
 20
-260.417233
 30
0.0
 11
-184.804774
 21
-260.417233
 31
0.0
  0
CIRCLE
  5
FA
100
AcDbEntity
  8
0
370
    -3
390
0
  6
Continuous
100
AcDbCircle
 10
-199.621608
 20
-260.417233
 30
0.0
 40
10.0
  0
LINE
  5
FB
100
AcDbEntity
  8
0
370
    -3
390
0
  6
CENTER
100
AcDbLine
 10
-46.216376
 20
-226.917233
 30
0.0
 11
-72.835102
 21
-226.917233
 31
0.0
  0
LINE
  5
FC
100
AcDbEntity
  8
0
370
    -3
390
0
  6
CENTER
100
AcDbLine
 10
-60.121608
 20
-240.207722
 30
0.0
 11
-60.121608
 21
-213.347329
 31
0.0
  0
CIRCLE
  5
FD
100
AcDbEntity
  8
0
370
    -3
390
0
  6
Continuous
100
AcDbCircle
 10
-60.121608
 20
-226.917233
 30
0.0
 40
10.0
  0
CIRCLE
  5
FE
100
AcDbEntity
  8
0
370
    -3
390
0
  6
Continuous
100
AcDbCircle
 10
-406.691983
 20
-123.917233
 30
0.0
 40
4.0
  0
CIRCLE
  5
FF
100
AcDbEntity
  8
0
370
    -3
390
0
  6
Continuous
100
AcDbCircle
 10
-406.691983
 20
-123.917233
 30
0.0
 40
3.5
  0
LINE
  5
100
100
AcDbEntity
  8
0
370
    -3
390
0
  6
CENTER
100
AcDbLine
 10
-406.691983
 20
-84.685644
 30
0.0
 11
-406.691983
 21
-157.696397
 31
0.0
  0
LINE
  5
101
100
AcDbEntity
  8
0
370
    -3
390
0
  6
CENTER
100
AcDbLine
 10
-443.144966
 20
-123.917233
 30
0.0
 11
-371.63959
 21
-123.917233
 31
0.0
  0
LINE
  5
102
100
AcDbEntity
  8
0
370
    -3
390
0
  6
Continuous
100
AcDbLine
 10
-399.691983
 20
-95.417233
 30
0.0
 11
-399.691983
 21
-104.417233
 31
0.0
  0
LINE
  5
103
100
AcDbEntity
  8
0
370
    -3
390
0
  6
Continuous
100
AcDbLine
 10
-413.691983
 20
-95.417233
 30
0.0
 11
-399.691983
 21
-95.417233
 31
0.0
  0
LINE
  5
104
100
AcDbEntity
  8
0
370
    -3
390
0
  6
Continuous
100
AcDbLine
 10
-413.691983
 20
-104.417233
 30
0.0
 11
-399.691983
 21
-104.417233
 31
0.0
  0
LINE
  5
105
100
AcDbEntity
  8
0
370
    -3
390
0
  6
Continuous
100
AcDbLine
 10
-413.691983
 20
-95.417233
 30
0.0
 11
-413.691983
 21
-104.417233
 31
0.0
  0
ARC
  5
106
100
AcDbEntity
  8
0
370
    -3
390
0
  6
Continuous
100
AcDbCircle
 10
-406.691983
 20
-123.917233
 30
0.0
 40
25.0
100
AcDbArc
 50
106.260205
 51
73.739795
  0
ARC
  5
107
100
AcDbEntity
  8
0
370
    -3
390
0
  6
Continuous
100
AcDbCircle
 10
-23.62161
 20
-32.917649
 30
0.0
 40
3.0
100
AcDbArc
 50
0.0
 51
90.0
  0
ARC
  5
108
100
AcDbEntity
  8
0
370
    -3
390
0
  6
Continuous
100
AcDbCircle
 10
-1.62161
 20
-243.917233
 30
0.0
 40
3.0
100
AcDbArc
 50
270.0
 51
0.0
  0
LINE
  5
109
100
AcDbEntity
  8
0
370
    -3
390
0
  6
Continuous
100
AcDbLine
 10
-32.62161
 20
-246.917233
 30
0.0
 11
-1.62161
 21
-246.917233
 31
0.0
  0
ARC
  5
10A
100
AcDbEntity
  8
0
370
    -3
390
0
  6
Continuous
100
AcDbCircle
 10
-32.62161
 20
-243.917233
 30
0.0
 40
3.0
100
AcDbArc
 50
180.0
 51
270.0
  0
ARC
  5
10B
100
AcDbEntity
  8
0
370
    -3
390
0
  6
Continuous
100
AcDbCircle
 10
-28.62161
 20
-243.917233
 30
0.0
 40
3.0
100
AcDbArc
 50
270.0
 51
0.0
  0
LINE
  5
10C
100
AcDbEntity
  8
0
370
    -3
390
0
  6
Continuous
100
AcDbLine
 10
-37.62161
 20
-227.917233
 30
0.0
 11
-37.62161
 21
-146.917233
 31
0.0
  0
LINE
  5
10D
100
AcDbEntity
  8
0
370
    -3
390
0
  6
Continuous
100
AcDbLine
 10
-37.62161
 20
-65.917233
 30
0.0
 11
-37.62161
 21
-146.917233
 31
0.0
  0
LINE
  5
10E
100
AcDbEntity
  8
0
370
    -3
390
0
  6
Continuous
100
AcDbLine
 10
3.37839
 20
-146.917233
 30
0.0
 11
3.37839
 21
-230.917233
 31
0.0
  0
LINE
  5
10F
100
AcDbEntity
  8
0
370
    -3
390
0
  6
Continuous
100
AcDbLine
 10
-25.62161
 20
-243.917233
 30
0.0
 11
-25.62161
 21
-146.917233
 31
0.0
  0
ARC
  5
110
100
AcDbEntity
  8
0
370
    -3
390
0
  6
Continuous
100
AcDbCircle
 10
0.37839
 20
-157.915925
 30
0.0
 40
1.0
100
AcDbArc
 50
270.0
 51
0.0
  0
ARC
  5
111
100
AcDbEntity
  8
0
370
    -3
390
0
  6
Continuous
100
AcDbCircle
 10
0.37839
 20
-177.417233
 30
0.0
 40
1.0
100
AcDbArc
 50
0.0
 51
90.0
  0
ARC
  5
112
100
AcDbEntity
  8
0
370
    -3
390
0
  6
Continuous
100
AcDbCircle
 10
0.37839
 20
-179.417233
 30
0.0
 40
1.0
100
AcDbArc
 50
270.0
 51
0.0
  0
LINE
  5
113
100
AcDbEntity
  8
0
370
    -3
390
0
  6
Continuous
100
AcDbLine
 10
-25.62161
 20
-158.915925
 30
0.0
 11
0.37839
 21
-158.915925
 31
0.0
  0
LINE
  5
114
100
AcDbEntity
  8
0
370
    -3
390
0
  6
Continuous
100
AcDbLine
 10
-22.62161
 20
-176.417233
 30
0.0
 11
0.37839
 21
-176.417233
 31
0.0
  0
ARC
  5
115
100
AcDbEntity
  8
0
370
    -3
390
0
  6
Continuous
100
AcDbCircle
 10
-22.62161
 20
-173.417233
 30
0.0
 40
3.0
100
AcDbArc
 50
180.0
 51
270.0
  0
LINE
  5
116
100
AcDbEntity
  8
0
370
    -3
390
0
  6
Continuous
100
AcDbLine
 10
-22.62161
 20
-180.417233
 30
0.0
 11
0.37839
 21
-180.417233
 31
0.0
  0
ARC
  5
117
100
AcDbEntity
  8
0
370
    -3
390
0
  6
Continuous
100
AcDbCircle
 10
-22.62161
 20
-183.417233
 30
0.0
 40
3.0
100
AcDbArc
 50
90.0
 51
180.0
  0
ARC
  5
118
100
AcDbEntity
  8
0
370
    -3
390
0
  6
Continuous
100
AcDbCircle
 10
-22.62161
 20
-194.417233
 30
0.0
 40
3.0
100
AcDbArc
 50
180.0
 51
270.0
  0
ARC
  5
119
100
AcDbEntity
  8
0
370
    -3
390
0
  6
Continuous
100
AcDbCircle
 10
-22.62161
 20
-204.417233
 30
0.0
 40
3.0
100
AcDbArc
 50
90.0
 51
180.0
  0
LINE
  5
11A
100
AcDbEntity
  8
0
370
    -3
390
0
  6
Continuous
100
AcDbLine
 10
0.37839
 20
-197.417233
 30
0.0
 11
-22.62161
 21
-197.417233
 31
0.0
  0
ARC
  5
11B
100
AcDbEntity
  8
0
370
    -3
390
0
  6
Continuous
100
AcDbCircle
 10
0.37839
 20
-198.417233
 30
0.0
 40
1.0
100
AcDbArc
 50
0.0
 51
90.0
  0
LINE
  5
11C
100
AcDbEntity
  8
0
370
    -3
390
0
  6
Continuous
100
AcDbLine
 10
-22.62161
 20
-201.417233
 30
0.0
 11
0.37839
 21
-201.417233
 31
0.0
  0
ARC
  5
11D
100
AcDbEntity
  8
0
370
    -3
390
0
  6
Continuous
100
AcDbCircle
 10
0.37839
 20
-200.417233
 30
0.0
 40
1.0
100
AcDbArc
 50
270.0
 51
0.0
  0
LINE
  5
11E
100
AcDbEntity
  8
0
370
    -3
390
0
  6
Continuous
100
AcDbLine
 10
-22.62161
 20
-215.604633
 30
0.0
 11
3.37839
 21
-215.604633
 31
0.0
  0
ARC
  5
11F
100
AcDbEntity
  8
0
370
    -3
390
0
  6
Continuous
100
AcDbCircle
 10
-22.62161
 20
-212.604633
 30
0.0
 40
3.0
100
AcDbArc
 50
180.0
 51
270.0
  0
LINE
  5
120
100
AcDbEntity
  8
0
370
    -3
390
0
  6
Continuous
100
AcDbLine
 10
-22.62161
 20
-225.150575
 30
0.0
 11
3.37839
 21
-225.150575
 31
0.0
  0
ARC
  5
121
100
AcDbEntity
  8
0
370
    -3
390
0
  6
Continuous
100
AcDbCircle
 10
-22.62161
 20
-228.150575
 30
0.0
 40
3.0
100
AcDbArc
 50
90.0
 51
180.0
  0
ARC
  5
122
100
AcDbEntity
  8
0
370
    -3
390
0
  6
Continuous
100
AcDbCircle
 10
0.30652
 20
-236.217933
 30
0.0
 40
1.071869
100
AcDbArc
 50
270.0
 51
90.0
  0
LINE
  5
123
100
AcDbEntity
  8
0
370
    -3
390
0
  6
Continuous
100
AcDbLine
 10
-22.62161
 20
-235.146064
 30
0.0
 11
0.30652
 21
-235.146064
 31
0.0
  0
ARC
  5
124
100
AcDbEntity
  8
0
370
    -3
390
0
  6
Continuous
100
AcDbCircle
 10
-22.62161
 20
-232.146064
 30
0.0
 40
3.0
100
AcDbArc
 50
180.0
 51
270.0
  0
LINE
  5
125
100
AcDbEntity
  8
0
370
    -3
390
0
  6
Continuous
100
AcDbLine
 10
-22.62161
 20
-237.289803
 30
0.0
 11
0.30652
 21
-237.289803
 31
0.0
  0
ARC
  5
126
100
AcDbEntity
  8
0
370
    -3
390
0
  6
Continuous
100
AcDbCircle
 10
-22.62161
 20
-240.289803
 30
0.0
 40
3.0
100
AcDbArc
 50
90.0
 51
180.0
  0
LINE
  5
127
100
AcDbEntity
  8
0
370
    -3
390
0
  6
Continuous
100
AcDbLine
 10
3.37839
 20
-146.917233
 30
0.0
 11
3.37839
 21
-62.917233
 31
0.0
  0
ARC
  5
128
100
AcDbEntity
  8
0
370
    -3
390
0
  6
Continuous
100
AcDbCircle
 10
0.37839
 20
-135.918541
 30
0.0
 40
1.0
100
AcDbArc
 50
0.0
 51
90.0
  0
ARC
  5
129
100
AcDbEntity
  8
0
370
    -3
390
0
  6
Continuous
100
AcDbCircle
 10
0.37839
 20
-116.417233
 30
0.0
 40
1.0
100
AcDbArc
 50
270.0
 51
0.0
  0
ARC
  5
12A
100
AcDbEntity
  8
0
370
    -3
390
0
  6
Continuous
100
AcDbCircle
 10
0.37839
 20
-114.417233
 30
0.0
 40
1.0
100
AcDbArc
 50
0.0
 51
90.0
  0
LINE
  5
12B
100
AcDbEntity
  8
0
370
    -3
390
0
  6
Continuous
100
AcDbLine
 10
-25.62161
 20
-134.918541
 30
0.0
 11
0.37839
 21
-134.918541
 31
0.0
  0
LINE
  5
12C
100
AcDbEntity
  8
0
370
    -3
390
0
  6
Continuous
100
AcDbLine
 10
-22.62161
 20
-117.417233
 30
0.0
 11
0.37839
 21
-117.417233
 31
0.0
  0
ARC
  5
12D
100
AcDbEntity
  8
0
370
    -3
390
0
  6
Continuous
100
AcDbCircle
 10
-22.62161
 20
-120.417233
 30
0.0
 40
3.0
100
AcDbArc
 50
90.0
 51
180.0
  0
LINE
  5
12E
100
AcDbEntity
  8
0
370
    -3
390
0
  6
Continuous
100
AcDbLine
 10
-22.62161
 20
-113.417233
 30
0.0
 11
0.37839
 21
-113.417233
 31
0.0
  0
ARC
  5
12F
100
AcDbEntity
  8
0
370
    -3
390
0
  6
Continuous
100
AcDbCircle
 10
-22.62161
 20
-110.417233
 30
0.0
 40
3.0
100
AcDbArc
 50
180.0
 51
270.0
  0
ARC
  5
130
100
AcDbEntity
  8
0
370
    -3
390
0
  6
Continuous
100
AcDbCircle
 10
-22.62161
 20
-99.417233
 30
0.0
 40
3.0
100
AcDbArc
 50
90.0
 51
180.0
  0
ARC
  5
131
100
AcDbEntity
  8
0
370
    -3
390
0
  6
Continuous
100
AcDbCircle
 10
-22.62161
 20
-89.417233
 30
0.0
 40
3.0
100
AcDbArc
 50
180.0
 51
270.0
  0
LINE
  5
132
100
AcDbEntity
  8
0
370
    -3
390
0
  6
Continuous
100
AcDbLine
 10
0.37839
 20
-96.417233
 30
0.0
 11
-22.62161
 21
-96.417233
 31
0.0
  0
ARC
  5
133
100
AcDbEntity
  8
0
370
    -3
390
0
  6
Continuous
100
AcDbCircle
 10
0.37839
 20
-95.417233
 30
0.0
 40
1.0
100
AcDbArc
 50
270.0
 51
0.0
  0
LINE
  5
134
100
AcDbEntity
  8
0
370
    -3
390
0
  6
Continuous
100
AcDbLine
 10
-22.62161
 20
-92.417233
 30
0.0
 11
0.37839
 21
-92.417233
 31
0.0
  0
ARC
  5
135
100
AcDbEntity
  8
0
370
    -3
390
0
  6
Continuous
100
AcDbCircle
 10
0.37839
 20
-93.417233
 30
0.0
 40
1.0
100
AcDbArc
 50
0.0
 51
90.0
  0
LINE
  5
136
100
AcDbEntity
  8
0
370
    -3
390
0
  6
Continuous
100
AcDbLine
 10
-22.62161
 20
-78.229832
 30
0.0
 11
3.37839
 21
-78.229832
 31
0.0
  0
ARC
  5
137
100
AcDbEntity
  8
0
370
    -3
390
0
  6
Continuous
100
AcDbCircle
 10
-22.62161
 20
-81.229832
 30
0.0
 40
3.0
100
AcDbArc
 50
90.0
 51
180.0
  0
LINE
  5
138
100
AcDbEntity
  8
0
370
    -3
390
0
  6
Continuous
100
AcDbLine
 10
-22.62161
 20
-68.683891
 30
0.0
 11
3.37839
 21
-68.683891
 31
0.0
  0
ARC
  5
139
100
AcDbEntity
  8
0
370
    -3
390
0
  6
Continuous
100
AcDbCircle
 10
-22.62161
 20
-65.683891
 30
0.0
 40
3.0
100
AcDbArc
 50
180.0
 51
270.0
  0
ARC
  5
13A
100
AcDbEntity
  8
0
370
    -3
390
0
  6
Continuous
100
AcDbCircle
 10
0.30652
 20
-57.616532
 30
0.0
 40
1.071869
100
AcDbArc
 50
270.0
 51
90.0
  0
LINE
  5
13B
100
AcDbEntity
  8
0
370
    -3
390
0
  6
Continuous
100
AcDbLine
 10
-22.62161
 20
-58.688402
 30
0.0
 11
0.30652
 21
-58.688402
 31
0.0
  0
ARC
  5
13C
100
AcDbEntity
  8
0
370
    -3
390
0
  6
Continuous
100
AcDbCircle
 10
-22.62161
 20
-61.688402
 30
0.0
 40
3.0
100
AcDbArc
 50
90.0
 51
180.0
  0
LINE
  5
13D
100
AcDbEntity
  8
0
370
    -3
390
0
  6
Continuous
100
AcDbLine
 10
-22.62161
 20
-56.544663
 30
0.0
 11
0.30652
 21
-56.544663
 31
0.0
  0
ARC
  5
13E
100
AcDbEntity
  8
0
370
    -3
390
0
  6
Continuous
100
AcDbCircle
 10
-22.62161
 20
-53.544663
 30
0.0
 40
3.0
100
AcDbArc
 50
180.0
 51
270.0
  0
ARC
  5
13F
100
AcDbEntity
  8
0
370
    -3
390
0
  6
Continuous
100
AcDbCircle
 10
-32.62161
 20
-50.935493
 30
0.0
 40
3.0
100
AcDbArc
 50
90.0
 51
180.0
  0
LINE
  5
140
100
AcDbEntity
  8
0
370
    -3
390
0
  6
Continuous
100
AcDbLine
 10
-1.62161
 20
-47.935493
 30
0.0
 11
-32.62161
 21
-47.935493
 31
0.0
  0
ARC
  5
141
100
AcDbEntity
  8
0
370
    -3
390
0
  6
Continuous
100
AcDbCircle
 10
-1.62161
 20
-50.935493
 30
0.0
 40
3.0
100
AcDbArc
 50
0.0
 51
90.0
  0
LINE
  5
142
100
AcDbEntity
  8
0
370
    -3
390
0
  6
Continuous
100
AcDbLine
 10
-25.62161
 20
-50.935493
 30
0.0
 11
-25.62161
 21
-146.917233
 31
0.0
  0
ARC
  5
143
100
AcDbEntity
  8
0
370
    -3
390
0
  6
Continuous
100
AcDbCircle
 10
-28.62161
 20
-50.935493
 30
0.0
 40
3.0
100
AcDbArc
 50
0.0
 51
90.0
  0
LINE
  5
144
100
AcDbEntity
  8
0
370
    -3
390
0
  6
Continuous
100
AcDbLine
 10
-20.62161
 20
6.082767
 30
0.0
 11
-20.62161
 21
-47.935493
 31
0.0
  0
CIRCLE
  5
145
100
AcDbEntity
  8
0
370
    -3
390
0
  6
Continuous
100
AcDbCircle
 10
-219.621608
 20
-123.917233
 30
0.0
 40
50.0
  0
LINE
  5
146
100
AcDbEntity
  8
0
370
    -3
390
0
  6
CENTER
100
AcDbLine
 10
-494.805243
 20
-123.917233
 30
0.0
 11
-767.519667
 21
-123.917233
 31
0.0
  0
LINE
  5
147
100
AcDbEntity
  8
0
370
    -3
390
0
  6
CENTER
100
AcDbLine
 10
-644.069368
 20
-146.917233
 30
0.0
 11
-677.399243
 21
-146.917233
 31
0.0
  0
POINT
  5
148
100
AcDbEntity
  8
0
370
    -3
390
0
  6
Continuous
100
AcDbPoint
 10
-381.691983
 20
-123.917233
 30
0.0
  0
POINT
  5
149
100
AcDbEntity
  8
0
370
    -3
390
0
  6
DASHED
100
AcDbPoint
 10
-406.691983
 20
-98.917233
 30
0.0
  0
LINE
  5
14A
100
AcDbEntity
  8
0
370
    -3
390
0
  6
DASHED
100
AcDbLine
 10
-714.734304
 20
-51.917233
 30
0.0
 11
-606.734304
 21
-51.917233
 31
0.0
  0
LINE
  5
14B
100
AcDbEntity
  8
0
370
    -3
390
0
  6
DASHED
100
AcDbLine
 10
-714.734304
 20
-29.917233
 30
0.0
 11
-606.734304
 21
-29.917233
 31
0.0
  0
LINE
  5
14C
100
AcDbEntity
  8
0
370
    -3
390
0
  6
CENTER
100
AcDbLine
 10
-568.614386
 20
-40.917233
 30
0.0
 11
-750.396109
 21
-40.917233
 31
0.0
  0
LINE
  5
14D
100
AcDbEntity
  8
0
370
    -3
390
0
  6
DASHED
100
AcDbLine
 10
-606.734304
 20
-24.917408
 30
0.0
 11
-606.734304
 21
-56.917408
 31
0.0
  0
LINE
  5
14E
100
AcDbEntity
  8
0
370
    -3
390
0
  6
DASHED
100
AcDbLine
 10
-580.734304
 20
-24.917408
 30
0.0
 11
-606.734304
 21
-24.917408
 31
0.0
  0
LINE
  5
14F
100
AcDbEntity
  8
0
370
    -3
390
0
  6
DASHED
100
AcDbLine
 10
-580.734304
 20
-56.917408
 30
0.0
 11
-606.734304
 21
-56.917408
 31
0.0
  0
LINE
  5
150
100
AcDbEntity
  8
0
370
    -3
390
0
  6
DASHED
100
AcDbLine
 10
-714.734304
 20
-56.917408
 30
0.0
 11
-740.734304
 21
-56.917408
 31
0.0
  0
LINE
  5
151
100
AcDbEntity
  8
0
370
    -3
390
0
  6
DASHED
100
AcDbLine
 10
-714.734304
 20
-24.917408
 30
0.0
 11
-714.734304
 21
-56.917408
 31
0.0
  0
LINE
  5
152
100
AcDbEntity
  8
0
370
    -3
390
0
  6
DASHED
100
AcDbLine
 10
-714.734304
 20
-24.917408
 30
0.0
 11
-740.734304
 21
-24.917408
 31
0.0
  0
LINE
  5
153
100
AcDbEntity
  8
0
370
    -3
390
0
  6
DASHED
100
AcDbLine
 10
-714.734304
 20
-241.917233
 30
0.0
 11
-606.734304
 21
-241.917233
 31
0.0
  0
LINE
  5
154
100
AcDbEntity
  8
0
370
    -3
390
0
  6
DASHED
100
AcDbLine
 10
-714.734304
 20
-263.917233
 30
0.0
 11
-606.734304
 21
-263.917233
 31
0.0
  0
LINE
  5
155
100
AcDbEntity
  8
0
370
    -3
390
0
  6
DASHED
100
AcDbLine
 10
-606.734304
 20
-236.917408
 30
0.0
 11
-606.734304
 21
-268.917408
 31
0.0
  0
LINE
  5
156
100
AcDbEntity
  8
0
370
    -3
390
0
  6
DASHED
100
AcDbLine
 10
-580.734304
 20
-268.917408
 30
0.0
 11
-606.734304
 21
-268.917408
 31
0.0
  0
LINE
  5
157
100
AcDbEntity
  8
0
370
    -3
390
0
  6
DASHED
100
AcDbLine
 10
-580.734304
 20
-236.917408
 30
0.0
 11
-606.734304
 21
-236.917408
 31
0.0
  0
LINE
  5
158
100
AcDbEntity
  8
0
370
    -3
390
0
  6
CENTER
100
AcDbLine
 10
-569.448247
 20
-252.917233
 30
0.0
 11
-754.8547
 21
-252.917233
 31
0.0
  0
LINE
  5
159
100
AcDbEntity
  8
0
370
    -3
390
0
  6
DASHED
100
AcDbLine
 10
-714.734304
 20
-236.917408
 30
0.0
 11
-714.734304
 21
-268.917408
 31
0.0
  0
LINE
  5
15A
100
AcDbEntity
  8
0
370
    -3
390
0
  6
DASHED
100
AcDbLine
 10
-714.734304
 20
-236.917408
 30
0.0
 11
-740.734304
 21
-236.917408
 31
0.0
  0
LINE
  5
15B
100
AcDbEntity
  8
0
370
    -3
390
0
  6
DASHED
100
AcDbLine
 10
-714.734304
 20
-268.917408
 30
0.0
 11
-740.734304
 21
-268.917408
 31
0.0
  0
INSERT
  5
167
100
AcDbEntity
  8
0
390
0
100
AcDbBlockReference
  2
ZU_SYM_K__CAD_SYM_POO_SYM_B20_18
 10
-16.12161
 20
-38.917233
 30
0.0
 41
-1.0
  0
LINE
  5
168
100
AcDbEntity
  8
0
370
    -3
390
0
  6
Continuous
100
AcDbLine
 10
-16.12161
 20
6.082767
 30
0.0
 11
-20.62161
 21
6.082767
 31
0.0
  0
LINE
  5
169
100
AcDbEntity
  8
0
370
    -3
390
0
  6
CENTER
100
AcDbLine
 10
-2.187534
 20
-13.917233
 30
0.0
 11
-25.158736
 21
-13.917233
 31
0.0
  0
LINE
  5
16A
100
AcDbEntity
  8
0
370
    -3
390
0
  6
Continuous
100
AcDbLine
 10
-681.234311
 20
-9.074334
 30
0.0
 11
-722.066186
 21
9.105069
 31
0.0
  0
LINE
  5
16B
100
AcDbEntity
  8
0
370
    -3
390
0
  6
Continuous
100
AcDbLine
 10
-681.234316
 20
-4.914718
 30
0.0
 11
-719.607049
 21
12.169811
 31
0.0
  0
ARC
  5
16C
100
AcDbEntity
  8
0
370
    -3
390
0
  6
Continuous
100
AcDbCircle
 10
-643.555755
 20
-5.169663
 30
0.0
 40
15.0
100
AcDbArc
 50
9.318263
 51
88.317371
  0
LINE
  5
16D
100
AcDbEntity
  8
0
370
    -3
390
0
  6
CENTER
100
AcDbLine
 10
-712.820239
 20
13.153417
 30
0.0
 11
-715.94847
 21
6.127248
 31
0.0
  0
ARC
  5
16E
100
AcDbEntity
  8
0
370
    -3
390
0
  6
Continuous
100
AcDbCircle
 10
-704.857313
 20
6.45249
 30
0.0
 40
2.0
100
AcDbArc
 50
94.231478
 51
156.000139
  0
ARC
  5
16F
100
AcDbEntity
  8
0
370
    -3
390
0
  6
Continuous
100
AcDbCircle
 10
-707.50692
 20
7.877157
 30
0.0
 40
1.0
100
AcDbArc
 50
246.000139
 51
336.000139
  0
ARC
  5
170
100
AcDbEntity
  8
0
370
    -3
390
0
  6
Continuous
100
AcDbCircle
 10
-720.013784
 20
11.256265
 30
0.0
 40
1.0
100
AcDbArc
 50
66.000139
 51
156.000139
  0
LINE
  5
171
100
AcDbEntity
  8
0
370
    -3
390
0
  6
Continuous
100
AcDbLine
 10
-720.92733
 20
11.662999
 30
0.0
 11
-722.066186
 21
9.105069
 31
0.0
  0
ARC
  5
172
100
AcDbEntity
  8
0
370
    -3
390
0
  6
Continuous
100
AcDbCircle
 10
-710.137845
 20
9.048512
 30
0.0
 40
1.0
100
AcDbArc
 50
246.000139
 51
274.715264
  0
ARC
  5
173
100
AcDbEntity
  8
0
370
    -3
390
0
  6
Continuous
100
AcDbCircle
 10
-660.733227
 20
-589.917416
 30
0.0
 40
600.0
100
AcDbArc
 50
88.317371
 51
94.715264
  0
ARC
  5
174
100
AcDbEntity
  8
0
370
    -3
390
0
  6
Continuous
100
AcDbCircle
 10
-711.900474
 20
9.810321
 30
0.0
 40
1.299999
100
AcDbArc
 50
336.000139
 51
49.398608
  0
ARC
  5
175
100
AcDbEntity
  8
0
370
    -3
390
0
  6
Continuous
100
AcDbCircle
 10
-715.920079
 20
11.599953
 30
0.0
 40
1.299999
100
AcDbArc
 50
82.601688
 51
156.000157
  0
LINE
  5
176
100
AcDbEntity
  8
0
370
    -3
390
0
  6
Continuous
100
AcDbLine
 10
-711.111067
 20
8.387181
 30
0.0
 11
-710.712864
 21
9.281566
 31
0.0
  0
LINE
  5
177
100
AcDbEntity
  8
0
370
    -3
390
0
  6
Continuous
100
AcDbLine
 10
-717.505892
 20
11.234322
 30
0.0
 11
-717.107689
 21
12.128707
 31
0.0
  0
LINE
  5
178
100
AcDbEntity
  8
0
370
    -3
390
0
  6
Continuous
100
AcDbLine
 10
-711.111067
 20
8.387181
 30
0.0
 11
-717.505892
 21
11.234322
 31
0.0
  0
POINT
  5
179
100
AcDbEntity
  8
0
370
    -3
390
0
  6
Continuous
100
AcDbPoint
 10
-714.30848
 20
9.810752
 30
0.0
  0
ARC
  5
17A
100
AcDbEntity
  8
0
370
    -3
390
0
  6
Continuous
100
AcDbCircle
 10
-716.91158
 20
3.964055
 30
0.0
 40
9.0
100
AcDbArc
 50
49.398608
 51
82.601688
  0
LINE
  5
17B
100
AcDbEntity
  8
0
370
    -3
390
0
  6
CENTER
100
AcDbLine
 10
-692.852106
 20
-13.917494
 30
0.0
 11
-715.720615
 21
-13.91755
 31
0.0
  0
LINE
  5
17C
100
AcDbEntity
  8
0
370
    -3
390
0
  6
Continuous
100
AcDbLine
 10
-707.234616
 20
-19.541161
 30
0.0
 11
-707.234669
 21
2.501696
 31
0.0
  0
LINE
  5
17D
100
AcDbEntity
  8
0
370
    -3
390
0
  6
Continuous
100
AcDbLine
 10
-626.064862
 20
-19.127842
 30
0.0
 11
-628.753692
 21
-2.740888
 31
0.0
  0
LINE
  5
17E
100
AcDbEntity
  8
0
370
    -3
390
0
  6
Continuous
100
AcDbLine
 10
-651.289212
 20
-18.24705
 30
0.0
 11
-669.915483
 21
-9.954155
 31
0.0
  0
LINE
  5
17F
100
AcDbEntity
  8
0
370
    -3
390
0
  6
Continuous
100
AcDbLine
 10
-660.734619
 20
-18.201325
 30
0.0
 11
-670.732904
 21
-13.749831
 31
0.0
  0
LINE
  5
180
100
AcDbEntity
  8
0
370
    -3
390
0
  6
Continuous
100
AcDbLine
 10
203.37839
 20
-53.917049
 30
0.0
 11
164.37839
 21
-53.917049
 31
0.0
  0
ARC
  5
181
100
AcDbEntity
  8
0
370
    -3
390
0
  6
Continuous
100
AcDbCircle
 10
165.97839
 20
-50.717049
 30
0.0
 40
3.2
100
AcDbArc
 50
180.0
 51
270.0
  0
LINE
  5
182
100
AcDbEntity
  8
0
370
    -3
390
0
  6
Continuous
100
AcDbLine
 10
164.37839
 20
-54.917049
 30
0.0
 11
164.37839
 21
-53.917049
 31
0.0
  0
LINE
  5
183
100
AcDbEntity
  8
0
370
    -3
390
0
  6
Continuous
100
AcDbLine
 10
213.97839
 20
-45.042422
 30
0.0
 11
213.97839
 21
-42.117049
 31
0.0
  0
ARC
  5
184
100
AcDbEntity
  8
0
370
    -3
390
0
  6
Continuous
100
AcDbCircle
 10
161.17839
 20
-42.117049
 30
0.0
 40
1.6
100
AcDbArc
 50
0.0
 51
90.0
  0
LINE
  5
185
100
AcDbEntity
  8
0
370
    -3
390
0
  6
Continuous
100
AcDbLine
 10
157.37839
 20
-40.517049
 30
0.0
 11
188.37839
 21
-40.517049
 31
0.0
  0
LINE
  5
186
100
AcDbEntity
  8
0
370
    -3
390
0
  6
Continuous
100
AcDbLine
 10
162.77839
 20
-50.717049
 30
0.0
 11
162.77839
 21
-42.117049
 31
0.0
  0
ARC
  5
187
100
AcDbEntity
  8
0
370
    -3
390
0
  6
Continuous
100
AcDbCircle
 10
215.57839
 20
-42.117049
 30
0.0
 40
1.6
100
AcDbArc
 50
90.0
 51
180.0
  0
LINE
  5
188
100
AcDbEntity
  8
0
370
    -3
390
0
  6
Continuous
100
AcDbLine
 10
219.37839
 20
-40.517049
 30
0.0
 11
188.37839
 21
-40.517049
 31
0.0
  0
LINE
  5
189
100
AcDbEntity
  8
0
370
    -3
390
0
  6
CENTER
100
AcDbLine
 10
188.37839
 20
-58.091687
 30
0.0
 11
188.37839
 21
17.311651
 31
0.0
  0
LINE
  5
18A
100
AcDbEntity
  8
0
370
    -3
390
0
  6
Continuous
100
AcDbLine
 10
188.37839
 20
-38.917049
 30
0.0
 11
157.37839
 21
-38.917049
 31
0.0
  0
LINE
  5
18B
100
AcDbEntity
  8
0
370
    -3
390
0
  6
Continuous
100
AcDbLine
 10
157.37839
 20
-38.917049
 30
0.0
 11
157.37839
 21
-40.517049
 31
0.0
  0
LINE
  5
18C
100
AcDbEntity
  8
0
370
    -3
390
0
  6
Continuous
100
AcDbLine
 10
188.37839
 20
-38.917049
 30
0.0
 11
219.37839
 21
-38.917049
 31
0.0
  0
LINE
  5
18D
100
AcDbEntity
  8
0
370
    -3
390
0
  6
Continuous
100
AcDbLine
 10
219.37839
 20
-38.917049
 30
0.0
 11
157.37839
 21
-38.917049
 31
0.0
  0
LINE
  5
18E
100
AcDbEntity
  8
0
370
    -3
390
0
  6
Continuous
100
AcDbLine
 10
219.37839
 20
-38.917049
 30
0.0
 11
219.37839
 21
-40.517049
 31
0.0
  0
LINE
  5
18F
100
AcDbEntity
  8
0
370
    -3
390
0
  6
Continuous
100
AcDbLine
 10
223.82839
 20
12.256777
 30
0.0
 11
191.435646
 21
12.256777
 31
0.0
  0
LINE
  5
190
100
AcDbEntity
  8
0
370
    -3
390
0
  6
Continuous
100
AcDbLine
 10
223.82839
 20
-36.611613
 30
0.0
 11
152.92839
 21
-36.611613
 31
0.0
  0
LINE
  5
191
100
AcDbEntity
  8
0
370
    -3
390
0
  6
Continuous
100
AcDbLine
 10
223.82839
 20
-33.14014
 30
0.0
 11
152.92839
 21
-33.14014
 31
0.0
  0
LINE
  5
192
100
AcDbEntity
  8
0
370
    -3
390
0
  6
Continuous
100
AcDbLine
 10
141.92839
 20
-25.611613
 30
0.0
 11
141.92839
 21
1.256777
 31
0.0
  0
LINE
  5
193
100
AcDbEntity
  8
0
370
    -3
390
0
  6
Continuous
100
AcDbLine
 10
234.82839
 20
-25.611613
 30
0.0
 11
234.82839
 21
1.256777
 31
0.0
  0
LINE
  5
194
100
AcDbEntity
  8
0
370
    -3
390
0
  6
Continuous
100
AcDbLine
 10
148.32839
 20
4.282951
 30
0.0
 11
148.32839
 21
-25.292983
 31
0.0
  0
LINE
  5
195
100
AcDbEntity
  8
0
370
    -3
390
0
  6
Continuous
100
AcDbLine
 10
228.42839
 20
4.282951
 30
0.0
 11
228.42839
 21
-25.292983
 31
0.0
  0
LINE
  5
196
100
AcDbEntity
  8
0
370
    -3
390
0
  6
Continuous
100
AcDbLine
 10
223.42839
 20
-30.292983
 30
0.0
 11
153.32839
 21
-30.292983
 31
0.0
  0
ARC
  5
197
100
AcDbEntity
  8
0
370
    -3
390
0
  6
Continuous
100
AcDbCircle
 10
153.32839
 20
-25.292983
 30
0.0
 40
5.0
100
AcDbArc
 50
180.0
 51
270.0
  0
ARC
  5
198
100
AcDbEntity
  8
0
370
    -3
390
0
  6
Continuous
100
AcDbCircle
 10
223.42839
 20
-25.292983
 30
0.0
 40
5.0
100
AcDbArc
 50
270.0
 51
0.0
  0
ARC
  5
199
100
AcDbEntity
  8
0
370
    -3
390
0
  6
Continuous
100
AcDbCircle
 10
152.92839
 20
1.256777
 30
0.0
 40
11.0
100
AcDbArc
 50
90.0
 51
180.0
  0
ARC
  5
19A
100
AcDbEntity
  8
0
370
    -3
390
0
  6
Continuous
100
AcDbCircle
 10
223.82839
 20
1.256777
 30
0.0
 40
11.0
100
AcDbArc
 50
0.0
 51
90.0
  0
LINE
  5
19B
100
AcDbEntity
  8
0
370
    -3
390
0
  6
Continuous
100
AcDbLine
 10
222.62839
 20
10.082951
 30
0.0
 11
154.12839
 21
10.082951
 31
0.0
  0
ARC
  5
19C
100
AcDbEntity
  8
0
370
    -3
390
0
  6
Continuous
100
AcDbCircle
 10
154.12839
 20
4.282951
 30
0.0
 40
5.8
100
AcDbArc
 50
90.0
 51
180.0
  0
ARC
  5
19D
100
AcDbEntity
  8
0
370
    -3
390
0
  6
Continuous
100
AcDbCircle
 10
222.62839
 20
4.282951
 30
0.0
 40
5.8
100
AcDbArc
 50
0.0
 51
90.0
  0
ARC
  5
19E
100
AcDbEntity
  8
0
370
    -3
390
0
  6
Continuous
100
AcDbCircle
 10
152.92839
 20
-22.14014
 30
0.0
 40
11.0
100
AcDbArc
 50
180.0
 51
270.0
  0
ARC
  5
19F
100
AcDbEntity
  8
0
370
    -3
390
0
  6
Continuous
100
AcDbCircle
 10
152.92839
 20
-25.611613
 30
0.0
 40
11.0
100
AcDbArc
 50
180.0
 51
270.0
  0
ARC
  5
1A0
100
AcDbEntity
  8
0
370
    -3
390
0
  6
Continuous
100
AcDbCircle
 10
223.82839
 20
-22.14014
 30
0.0
 40
11.0
100
AcDbArc
 50
270.0
 51
0.0
  0
ARC
  5
1A1
100
AcDbEntity
  8
0
370
    -3
390
0
  6
Continuous
100
AcDbCircle
 10
223.82839
 20
-25.611613
 30
0.0
 40
11.0
100
AcDbArc
 50
270.0
 51
0.0
  0
ARC
  5
1A2
100
AcDbEntity
  8
0
370
    -3
390
0
  6
Continuous
100
AcDbCircle
 10
154.57839
 20
-32.917049
 30
0.0
 40
5.0
100
AcDbArc
 50
224.925956
 51
270.0
  0
ARC
  5
1A3
100
AcDbEntity
  8
0
370
    -3
390
0
  6
Continuous
100
AcDbCircle
 10
222.17839
 20
-32.917049
 30
0.0
 40
5.0
100
AcDbArc
 50
270.0
 51
315.074044
  0
LINE
  5
1A4
100
AcDbEntity
  8
0
370
    -3
390
0
  6
CENTER
100
AcDbLine
 10
211.202021
 20
-13.917049
 30
0.0
 11
166.914303
 21
-13.917049
 31
0.0
  0
CIRCLE
  5
1A5
100
AcDbEntity
  8
0
370
    -3
390
0
  6
DASHED
100
AcDbCircle
 10
188.37839
 20
-13.917049
 30
0.0
 40
13.5
  0
ARC
  5
1A6
100
AcDbEntity
  8
0
370
    -3
390
0
  6
Continuous
100
AcDbCircle
 10
188.37839
 20
3.900454
 30
0.0
 40
9.0
100
AcDbArc
 50
73.398469
 51
106.601548
  0
LINE
  5
1A7
100
AcDbEntity
  8
0
370
    -3
390
0
  6
Continuous
100
AcDbLine
 10
185.321133
 20
12.256777
 30
0.0
 11
152.92839
 21
12.256777
 31
0.0
  0
LINE
  5
1A8
100
AcDbEntity
  8
0
370
    -3
390
0
  6
Continuous
100
AcDbLine
 10
222.17839
 20
-37.917049
 30
0.0
 11
154.57839
 21
-37.917049
 31
0.0
  0
LINE
  5
1A9
100
AcDbEntity
  8
0
370
    -3
390
0
  6
Continuous
100
AcDbLine
 10
157.37839
 20
-38.917049
 30
0.0
 11
157.37839
 21
-37.917049
 31
0.0
  0
LINE
  5
1AA
100
AcDbEntity
  8
0
370
    -3
390
0
  6
Continuous
100
AcDbLine
 10
219.37839
 20
-38.917049
 30
0.0
 11
219.37839
 21
-37.917049
 31
0.0
  0
INSERT
  5
1B7
100
AcDbEntity
  8
0
390
0
100
AcDbBlockReference
  2
ZU_SYM_K__CAD_SYM_POO_SYM_B20_07
 10
-60.121608
 20
-66.917233
 30
0.0
  0
INSERT
  5
1C4
100
AcDbEntity
  8
0
390
0
100
AcDbBlockReference
  2
ZU_SYM_K__CAD_SYM_POO_SYM_B20_0000107
 10
-152.621608
 20
-33.417233
 30
0.0
  0
INSERT
  5
1D1
100
AcDbEntity
  8
0
390
0
100
AcDbBlockReference
  2
ZU_SYM_K__CAD_SYM_POO_SYM_B20_0000207
 10
-310.121608
 20
-66.917233
 30
0.0
  0
INSERT
  5
1DE
100
AcDbEntity
  8
0
390
0
100
AcDbBlockReference
  2
ZU_SYM_K__CAD_SYM_POO_SYM_B20_0000307
 10
-310.121608
 20
-226.917233
 30
0.0
  0
INSERT
  5
1EB
100
AcDbEntity
  8
0
390
0
100
AcDbBlockReference
  2
ZU_SYM_K__CAD_SYM_POO_SYM_B20_0000407
 10
-199.621608
 20
-260.417233
 30
0.0
  0
INSERT
  5
1F8
100
AcDbEntity
  8
0
390
0
100
AcDbBlockReference
  2
ZU_SYM_K__CAD_SYM_POO_SYM_B20_0000507
 10
-60.121608
 20
-226.917233
 30
0.0
  0
LINE
  5
1F9
100
AcDbEntity
  8
0
370
    -3
390
0
  6
Continuous
100
AcDbLine
 10
184.87839
 20
11.279479
 30
0.0
 11
184.87839
 21
10.882951
 31
0.0
  0
ARC
  5
1FA
100
AcDbEntity
  8
0
370
    -3
390
0
  6
Continuous
100
AcDbCircle
 10
186.37839
 20
10.882951
 30
0.0
 40
1.5
100
AcDbArc
 50
180.0
 51
212.230953
  0
ARC
  5
1FB
100
AcDbEntity
  8
0
370
    -3
390
0
  6
Continuous
100
AcDbCircle
 10
190.37839
 20
10.882951
 30
0.0
 40
1.5
100
AcDbArc
 50
327.769047
 51
0.0
  0
LINE
  5
1FC
100
AcDbEntity
  8
0
370
    -3
390
0
  6
Continuous
100
AcDbLine
 10
191.87839
 20
11.279479
 30
0.0
 11
191.87839
 21
10.882951
 31
0.0
  0
ARC
  5
1FD
100
AcDbEntity
  8
0
370
    -3
390
0
  6
Continuous
100
AcDbCircle
 10
190.57839
 20
11.279479
 30
0.0
 40
1.299999
100
AcDbArc
 50
0.0
 51
73.398469
  0
ARC
  5
1FE
100
AcDbEntity
  8
0
370
    -3
390
0
  6
Continuous
100
AcDbCircle
 10
186.178389
 20
11.279479
 30
0.0
 40
1.299999
100
AcDbArc
 50
106.601531
 51
180.0
  0
ARC
  5
1FF
100
AcDbEntity
  8
0
370
    -3
390
0
  6
DASHED
100
AcDbCircle
 10
-660.734306
 20
-146.917233
 30
0.0
 40
109.0
100
AcDbArc
 50
304.287111
 51
317.218141
  0
ARC
  5
200
100
AcDbEntity
  8
0
370
    -3
390
0
  6
DASHED
100
AcDbCircle
 10
-639.327378
 20
-178.313784
 30
0.0
 40
71.0
100
AcDbArc
 50
273.229411
 51
304.287111
  0
ARC
  5
201
100
AcDbEntity
  8
0
370
    -3
390
0
  6
DASHED
100
AcDbCircle
 10
-660.734306
 20
201.082767
 30
0.0
 40
451.0
100
AcDbArc
 50
266.770589
 51
273.229411
  0
ARC
  5
202
100
AcDbEntity
  8
0
370
    -3
390
0
  6
DASHED
100
AcDbCircle
 10
-682.141233
 20
-178.313784
 30
0.0
 40
71.0
100
AcDbArc
 50
235.712889
 51
266.770589
  0
ARC
  5
203
100
AcDbEntity
  8
0
370
    -3
390
0
  6
Continuous
100
AcDbCircle
 10
-660.734306
 20
-146.917233
 30
0.0
 40
109.0
100
AcDbArc
 50
214.287111
 51
222.781859
  0
ARC
  5
204
100
AcDbEntity
  8
0
370
    -3
390
0
  6
Continuous
100
AcDbCircle
 10
-692.130857
 20
-168.32416
 30
0.0
 40
71.0
100
AcDbArc
 50
183.229411
 51
214.287111
  0
ARC
  5
205
100
AcDbEntity
  8
0
370
    -3
390
0
  6
Continuous
100
AcDbCircle
 10
-312.734306
 20
-146.917233
 30
0.0
 40
451.0
100
AcDbArc
 50
176.770589
 51
183.229411
  0
ARC
  5
206
100
AcDbEntity
  8
0
370
    -3
390
0
  6
Continuous
100
AcDbCircle
 10
-692.130857
 20
-125.510305
 30
0.0
 40
71.0
100
AcDbArc
 50
145.712889
 51
176.770589
  0
ARC
  5
207
100
AcDbEntity
  8
0
370
    -3
390
0
  6
DASHED
100
AcDbCircle
 10
-660.734306
 20
-146.917233
 30
0.0
 40
109.0
100
AcDbArc
 50
124.287111
 51
141.243779
  0
ARC
  5
208
100
AcDbEntity
  8
0
370
    -3
390
0
  6
DASHED
100
AcDbCircle
 10
-660.734306
 20
-494.917233
 30
0.0
 40
451.0
100
AcDbArc
 50
86.770589
 51
93.229411
  0
ARC
  5
209
100
AcDbEntity
  8
0
370
    -3
390
0
  6
DASHED
100
AcDbCircle
 10
-639.327378
 20
-115.520681
 30
0.0
 40
71.0
100
AcDbArc
 50
55.712889
 51
86.770589
  0
ARC
  5
20A
100
AcDbEntity
  8
0
370
    -3
390
0
  6
DASHED
100
AcDbCircle
 10
-629.337754
 20
-125.510305
 30
0.0
 40
71.0
100
AcDbArc
 50
3.229411
 51
21.996523
  0
ARC
  5
20B
100
AcDbEntity
  8
0
370
    -3
390
0
  6
Continuous
100
AcDbCircle
 10
-660.734306
 20
-146.917233
 30
0.0
 40
109.0
100
AcDbArc
 50
34.287111
 51
38.756221
  0
ARC
  5
20C
100
AcDbEntity
  8
0
370
    -3
390
0
  6
DASHED
100
AcDbCircle
 10
-682.141233
 20
-115.520681
 30
0.0
 40
71.0
100
AcDbArc
 50
93.229411
 51
124.287111
  0
ARC
  5
20D
100
AcDbEntity
  8
0
370
    -3
390
0
  6
Continuous
100
AcDbCircle
 10
-1008.734306
 20
-146.917233
 30
0.0
 40
451.0
100
AcDbArc
 50
356.770589
 51
359.745916
  0
ARC
  5
20E
100
AcDbEntity
  8
0
370
    -3
390
0
  6
Continuous
100
AcDbCircle
 10
-629.337754
 20
-168.32416
 30
0.0
 40
71.0
100
AcDbArc
 50
325.712889
 51
356.770589
  0
ARC
  5
20F
100
AcDbEntity
  8
0
370
    -3
390
0
  6
DASHED
100
AcDbCircle
 10
-660.734306
 20
-146.917233
 30
0.0
 40
109.0
100
AcDbArc
 50
38.756221
 51
55.712889
  0
ARC
  5
210
100
AcDbEntity
  8
0
370
    -3
390
0
  6
Continuous
100
AcDbCircle
 10
-660.734306
 20
-146.917233
 30
0.0
 40
109.0
100
AcDbArc
 50
317.218141
 51
325.712889
  0
ARC
  5
211
100
AcDbEntity
  8
0
370
    -3
390
0
  6
DASHED
100
AcDbCircle
 10
-660.734306
 20
-146.917233
 30
0.0
 40
109.0
100
AcDbArc
 50
222.781859
 51
235.712889
  0
ARC
  5
212
100
AcDbEntity
  8
0
370
    -3
390
0
  6
Continuous
100
AcDbCircle
 10
-660.734306
 20
-146.917233
 30
0.0
 40
109.0
100
AcDbArc
 50
141.243779
 51
145.712889
  0
ARC
  5
213
100
AcDbEntity
  8
0
370
    -3
390
0
  6
Continuous
100
AcDbCircle
 10
-629.337754
 20
-125.510305
 30
0.0
 40
71.0
100
AcDbArc
 50
21.996523
 51
34.287111
  0
ARC
  5
214
100
AcDbEntity
  8
0
370
    -3
390
0
  6
DASHED
100
AcDbCircle
 10
-1008.734306
 20
-146.917233
 30
0.0
 40
451.0
100
AcDbArc
 50
359.745916
 51
3.229411
  0
LINE
  5
215
100
AcDbEntity
  8
0
370
    -3
390
0
  6
Continuous
100
AcDbLine
 10
218.37839
 20
-43.917745
 30
0.0
 11
307.033489
 21
-43.917745
 31
0.0
  0
ARC
  5
216
100
AcDbEntity
  8
0
370
    -3
390
0
  6
Continuous
100
AcDbCircle
 10
348.37839
 20
-64.125004
 30
0.0
 40
5.0
100
AcDbArc
 50
0.0
 51
60.0
  0
ARC
  5
217
100
AcDbEntity
  8
0
370
    -3
390
0
  6
Continuous
100
AcDbCircle
 10
307.033489
 20
-104.917745
 30
0.0
 40
61.0
100
AcDbArc
 50
60.0
 51
90.0
  0
LINE
  5
218
100
AcDbEntity
  8
0
370
    -3
390
0
  6
Continuous
100
AcDbLine
 10
350.87839
 20
-59.794877
 30
0.0
 11
337.533489
 21
-52.090195
 31
0.0
  0
LINE
  5
219
100
AcDbEntity
  8
0
370
    -3
390
0
  6
Continuous
100
AcDbLine
 10
353.37839
 20
-64.125004
 30
0.0
 11
353.37839
 21
-146.917745
 31
0.0
  0
LINE
  5
21A
100
AcDbEntity
  8
0
370
    -3
390
0
  6
Continuous
100
AcDbLine
 10
203.37839
 20
-249.917745
 30
0.0
 11
307.033489
 21
-249.917745
 31
0.0
  0
ARC
  5
21B
100
AcDbEntity
  8
0
370
    -3
390
0
  6
Continuous
100
AcDbCircle
 10
348.37839
 20
-229.710485
 30
0.0
 40
5.0
100
AcDbArc
 50
300.0
 51
0.0
  0
ARC
  5
21C
100
AcDbEntity
  8
0
370
    -3
390
0
  6
Continuous
100
AcDbCircle
 10
307.033489
 20
-188.917745
 30
0.0
 40
61.0
100
AcDbArc
 50
270.0
 51
300.0
  0
LINE
  5
21D
100
AcDbEntity
  8
0
370
    -3
390
0
  6
Continuous
100
AcDbLine
 10
350.87839
 20
-234.040612
 30
0.0
 11
337.533489
 21
-241.745294
 31
0.0
  0
LINE
  5
21E
100
AcDbEntity
  8
0
370
    -3
390
0
  6
Continuous
100
AcDbLine
 10
353.37839
 20
-229.710485
 30
0.0
 11
353.37839
 21
-146.917745
 31
0.0
  0
LINE
  5
21F
100
AcDbEntity
  8
0
370
    -3
390
0
  6
Continuous
100
AcDbLine
 10
235.87839
 20
-223.875525
 30
0.0
 11
235.87839
 21
-225.161623
 31
0.0
  0
LINE
  5
220
100
AcDbEntity
  8
0
370
    -3
390
0
  6
Continuous
100
AcDbLine
 10
223.87839
 20
-223.875525
 30
0.0
 11
223.87839
 21
-225.161623
 31
0.0
  0
ELLIPSE
  5
221
100
AcDbEntity
  8
0
370
    -3
390
0
  6
Continuous
100
AcDbEllipse
 10
229.87839
 20
-225.161623
 30
0.0
 11
6.0
 21
0.0
 31
0.0
210
0.0
220
0.0
230
1.0
 40
0.689848
 41
5.4518476186546714
 42
0.0
  0
ELLIPSE
  5
222
100
AcDbEntity
  8
0
370
    -3
390
0
  6
Continuous
100
AcDbEllipse
 10
229.87839
 20
-223.875525
 30
0.0
 11
6.0
 21
0.0
 31
0.0
210
0.0
220
0.0
230
1.0
 40
0.707107
 41
0.0
 42
3.1415926535897931
  0
LINE
  5
223
100
AcDbEntity
  8
0
370
    -3
390
0
  6
Continuous
100
AcDbLine
 10
234.87839
 20
-225.548019
 30
0.0
 11
234.87839
 21
-225.830861
 31
0.0
  0
LINE
  5
224
100
AcDbEntity
  8
0
370
    -3
390
0
  6
Continuous
100
AcDbLine
 10
224.87839
 20
-225.548019
 30
0.0
 11
224.87839
 21
-225.830861
 31
0.0
  0
ELLIPSE
  5
225
100
AcDbEntity
  8
0
370
    -3
390
0
  6
Continuous
100
AcDbEllipse
 10
229.87839
 20
-225.830861
 30
0.0
 11
5.0
 21
0.0
 31
0.0
210
0.0
220
0.0
230
1.0
 40
0.707107
 41
5.754033399180857
 42
3.6707445615885224
  0
ELLIPSE
  5
226
100
AcDbEntity
  8
0
370
    -3
390
0
  6
Continuous
100
AcDbEllipse
 10
229.87839
 20
-225.548019
 30
0.0
 11
5.0
 21
0.0
 31
0.0
210
0.0
220
0.0
230
1.0
 40
0.763675
 41
0.0
 42
3.1415926535897931
  0
ELLIPSE
  5
227
100
AcDbEntity
  8
0
370
    -3
390
0
  6
Continuous
100
AcDbEllipse
 10
229.87839
 20
-226.520374
 30
0.0
 11
4.5
 21
0.0
 31
0.0
210
0.0
220
0.0
230
1.0
 40
0.860332
 41
0.0
 42
6.2831853071795862
  0
ELLIPSE
  5
228
100
AcDbEntity
  8
0
370
    -3
390
0
  6
Continuous
100
AcDbEllipse
 10
229.87839
 20
-225.161623
 30
0.0
 11
6.0
 21
0.0
 31
0.0
210
0.0
220
0.0
230
1.0
 40
0.689848
 41
3.1415926535897931
 42
3.9729303421148194
  0
ELLIPSE
  5
229
100
AcDbEntity
  8
0
370
    -3
390
0
  6
Continuous
100
AcDbEllipse
 10
229.87839
 20
-225.161623
 30
0.0
 11
6.0
 21
0.0
 31
0.0
210
0.0
220
0.0
230
1.0
 40
0.689848
 41
0.0
 42
3.1415926535897931
  0
LINE
  5
22A
100
AcDbEntity
  8
0
370
    -3
390
0
  6
Continuous
100
AcDbLine
 10
229.87839
 20
-228.164315
 30
0.0
 11
231.87839
 21
-229.459847
 31
0.0
  0
LINE
  5
22B
100
AcDbEntity
  8
0
370
    -3
390
0
  6
Continuous
100
AcDbLine
 10
229.87839
 20
-228.164315
 30
0.0
 11
231.87839
 21
-226.63142
 31
0.0
  0
LINE
  5
22C
100
AcDbEntity
  8
0
370
    -3
390
0
  6
Continuous
100
AcDbLine
 10
229.87839
 20
-228.164315
 30
0.0
 11
227.87839
 21
-226.63142
 31
0.0
  0
LINE
  5
22D
100
AcDbEntity
  8
0
370
    -3
390
0
  6
Continuous
100
AcDbLine
 10
229.87839
 20
-228.164315
 30
0.0
 11
227.87839
 21
-229.459847
 31
0.0
  0
ELLIPSE
  5
22E
100
AcDbEntity
  8
0
370
    -3
390
0
  6
Continuous
100
AcDbEllipse
 10
229.87839
 20
-69.959964
 30
0.0
 11
6.0
 21
0.0
 31
0.0
210
0.0
220
0.0
230
1.0
 40
0.707107
 41
3.1415926535897931
 42
0.0
  0
LINE
  5
22F
100
AcDbEntity
  8
0
370
    -3
390
0
  6
Continuous
100
AcDbLine
 10
235.87839
 20
-69.959964
 30
0.0
 11
235.87839
 21
-68.673867
 31
0.0
  0
LINE
  5
230
100
AcDbEntity
  8
0
370
    -3
390
0
  6
Continuous
100
AcDbLine
 10
223.87839
 20
-69.959964
 30
0.0
 11
223.87839
 21
-68.673867
 31
0.0
  0
ELLIPSE
  5
231
100
AcDbEntity
  8
0
370
    -3
390
0
  6
Continuous
100
AcDbEllipse
 10
229.87839
 20
-68.673867
 30
0.0
 11
6.0
 21
0.0
 31
0.0
210
0.0
220
0.0
230
1.0
 40
0.689848
 41
0.0
 42
0.8313376885248405
  0
LINE
  5
232
100
AcDbEntity
  8
0
370
    -3
390
0
  6
Continuous
100
AcDbLine
 10
234.87839
 20
-68.28747
 30
0.0
 11
234.87839
 21
-68.004628
 31
0.0
  0
LINE
  5
233
100
AcDbEntity
  8
0
370
    -3
390
0
  6
Continuous
100
AcDbLine
 10
224.87839
 20
-68.28747
 30
0.0
 11
224.87839
 21
-68.004628
 31
0.0
  0
ELLIPSE
  5
234
100
AcDbEntity
  8
0
370
    -3
390
0
  6
Continuous
100
AcDbEllipse
 10
229.87839
 20
-68.004628
 30
0.0
 11
5.0
 21
0.0
 31
0.0
210
0.0
220
0.0
230
1.0
 40
0.707107
 41
2.6124407455910639
 42
0.5291519079987291
  0
ELLIPSE
  5
235
100
AcDbEntity
  8
0
370
    -3
390
0
  6
Continuous
100
AcDbEllipse
 10
229.87839
 20
-68.28747
 30
0.0
 11
5.0
 21
0.0
 31
0.0
210
0.0
220
0.0
230
1.0
 40
0.763675
 41
3.1415926535897931
 42
0.0
  0
ELLIPSE
  5
236
100
AcDbEntity
  8
0
370
    -3
390
0
  6
Continuous
100
AcDbEllipse
 10
229.87839
 20
-67.315115
 30
0.0
 11
4.5
 21
0.0
 31
0.0
210
0.0
220
0.0
230
1.0
 40
0.860332
 41
0.0
 42
6.2831853071795862
  0
ELLIPSE
  5
237
100
AcDbEntity
  8
0
370
    -3
390
0
  6
Continuous
100
AcDbEllipse
 10
229.87839
 20
-68.673867
 30
0.0
 11
6.0
 21
0.0
 31
0.0
210
0.0
220
0.0
230
1.0
 40
0.689848
 41
2.310254965064841
 42
3.1415926535897931
  0
ELLIPSE
  5
238
100
AcDbEntity
  8
0
370
    -3
390
0
  6
Continuous
100
AcDbEllipse
 10
229.87839
 20
-68.673867
 30
0.0
 11
6.0
 21
0.0
 31
0.0
210
0.0
220
0.0
230
1.0
 40
0.689848
 41
3.1415926535897931
 42
0.0
  0
LINE
  5
239
100
AcDbEntity
  8
0
370
    -3
390
0
  6
Continuous
100
AcDbLine
 10
229.87839
 20
-65.671174
 30
0.0
 11
231.87839
 21
-64.375642
 31
0.0
  0
LINE
  5
23A
100
AcDbEntity
  8
0
370
    -3
390
0
  6
Continuous
100
AcDbLine
 10
229.87839
 20
-65.671174
 30
0.0
 11
231.87839
 21
-67.204069
 31
0.0
  0
LINE
  5
23B
100
AcDbEntity
  8
0
370
    -3
390
0
  6
Continuous
100
AcDbLine
 10
229.87839
 20
-65.671174
 30
0.0
 11
227.87839
 21
-67.204069
 31
0.0
  0
LINE
  5
23C
100
AcDbEntity
  8
0
370
    -3
390
0
  6
Continuous
100
AcDbLine
 10
229.87839
 20
-65.671174
 30
0.0
 11
227.87839
 21
-64.375642
 31
0.0
  0
LINE
  5
23D
100
AcDbEntity
  8
0
370
    -3
390
0
  6
Continuous
100
AcDbLine
 10
203.37839
 20
-249.917745
 30
0.0
 11
203.37839
 21
-48.043117
 31
0.0
  0
ARC
  5
23E
100
AcDbEntity
  8
0
370
    -3
390
0
  6
Continuous
100
AcDbCircle
 10
217.37839
 20
-44.043117
 30
0.0
 40
1.0
100
AcDbArc
 50
270.0
 51
0.0
  0
LINE
  5
23F
100
AcDbEntity
  8
0
370
    -3
390
0
  6
Continuous
100
AcDbLine
 10
206.37839
 20
-45.043117
 30
0.0
 11
217.37839
 21
-45.043117
 31
0.0
  0
LINE
  5
240
100
AcDbEntity
  8
0
370
    -3
390
0
  6
Continuous
100
AcDbLine
 10
218.37839
 20
-43.917745
 30
0.0
 11
218.37839
 21
-44.043117
 31
0.0
  0
ARC
  5
241
100
AcDbEntity
  8
0
370
    -3
390
0
  6
Continuous
100
AcDbCircle
 10
206.37839
 20
-48.043117
 30
0.0
 40
3.0
100
AcDbArc
 50
90.0
 51
180.0
  0
MTEXT
  5
243
100
AcDbEntity
  8
0
370
    -3
390
0
  6
Continuous
100
AcDbMText
 10
-554.59845
 20
246.06192
 30
0.0
 40
10.0
 41
0.0
 71
     7
 72
     1
  1
\W0.63;三菱ギヤードモータ  
  7
ZU_SHPTB00001
 11
1.0
 21
0.0
 31
0.0
 73
     1
 44
1.0
  0
MTEXT
  5
244
100
AcDbEntity
  8
0
370
    -3
390
0
  6
Continuous
100
AcDbMText
 10
-554.59845
 20
234.761917
 30
0.0
 40
10.0
 41
0.0
 71
     7
 72
     1
  1
\W0.47;GM-SHYPFB-RL(R)
  7
ZU_SHPTB00001
 11
1.0
 21
0.0
 31
0.0
 73
     1
 44
1.0
  0
MTEXT
  5
245
100
AcDbEntity
  8
0
370
    -3
390
0
  6
Continuous
100
AcDbMText
 10
-554.59845
 20
223.461929
 30
0.0
 40
10.0
 41
0.0
 71
     7
 72
     1
  1
\W0.47;2.2(kW)
  7
ZU_SHPTB00001
 11
1.0
 21
0.0
 31
0.0
 73
     1
 44
1.0
  0
MTEXT
  5
246
100
AcDbEntity
  8
0
370
    -3
390
0
  6
Continuous
100
AcDbMText
 10
-554.59845
 20
212.161926
 30
0.0
 40
10.0
 41
0.0
 71
     7
 72
     1
  1
\W0.47;1/5\W0.63;～\W0.47;1/120
  7
ZU_SHPTB00001
 11
1.0
 21
0.0
 31
0.0
 73
     1
 44
1.0
  0
MTEXT
  5
247
100
AcDbEntity
  8
0
370
    -3
390
0
  6
Continuous
100
AcDbMText
 10
-554.59845
 20
200.861923
 30
0.0
 40
10.0
 41
0.0
 71
     7
 72
     1
  1
\W0.47;SCALE\W0.78; \W0.47;1/1
  7
ZU_SHPTB00001
 11
1.0
 21
0.0
 31
0.0
 73
     1
 44
1.0
  0
LINE
  5
248
100
AcDbEntity
  8
0
370
    -3
390
0
  6
Continuous
100
AcDbLine
 10
650.100409
 20
-271.602984
 30
0.0
 11
638.099723
 21
-271.917233
 31
0.0
  0
LINE
  5
249
100
AcDbEntity
  8
0
370
    -3
390
0
  6
Continuous
100
AcDbLine
 10
638.099723
 20
-232.893974
 30
0.0
 11
638.099723
 21
-273.577541
 31
0.0
  0
LINE
  5
24A
100
AcDbEntity
  8
0
370
    -3
390
0
  6
Continuous
100
AcDbLine
 10
651.099723
 20
-229.249366
 30
0.0
 11
651.099723
 21
-270.577159
 31
0.0
  0
LINE
  5
24B
100
AcDbEntity
  8
0
370
    -3
390
0
  6
Continuous
100
AcDbLine
 10
650.100409
 20
-271.602984
 30
0.0
 11
651.099723
 21
-270.577159
 31
0.0
  0
LINE
  5
24C
100
AcDbEntity
  8
0
370
    -3
390
0
  6
Continuous
100
AcDbLine
 10
491.099723
 20
-229.249366
 30
0.0
 11
491.099723
 21
-270.577159
 31
0.0
  0
LINE
  5
24D
100
AcDbEntity
  8
0
370
    -3
390
0
  6
Continuous
100
AcDbLine
 10
504.099723
 20
-232.893974
 30
0.0
 11
504.099723
 21
-273.577541
 31
0.0
  0
LINE
  5
24E
100
AcDbEntity
  8
0
370
    -3
390
0
  6
Continuous
100
AcDbLine
 10
492.099038
 20
-271.602984
 30
0.0
 11
491.099723
 21
-270.577159
 31
0.0
  0
LINE
  5
24F
100
AcDbEntity
  8
0
370
    -3
390
0
  6
Continuous
100
AcDbLine
 10
492.099038
 20
-271.602984
 30
0.0
 11
504.099723
 21
-271.917233
 31
0.0
  0
LINE
  5
250
100
AcDbEntity
  8
0
370
    -3
390
0
  6
Continuous
100
AcDbLine
 10
656.099723
 20
-48.917233
 30
0.0
 11
656.099723
 21
-78.682344
 31
0.0
  0
LINE
  5
251
100
AcDbEntity
  8
0
370
    -3
390
0
  6
Continuous
100
AcDbLine
 10
637.599723
 20
-20.239464
 30
0.0
 11
637.599723
 21
-60.553178
 31
0.0
  0
LINE
  5
252
100
AcDbEntity
  8
0
370
    -3
390
0
  6
Continuous
100
AcDbLine
 10
637.599723
 20
-21.917233
 30
0.0
 11
650.100409
 21
-22.244575
 31
0.0
  0
LINE
  5
253
100
AcDbEntity
  8
0
370
    -3
390
0
  6
Continuous
100
AcDbLine
 10
650.100409
 20
-22.244575
 30
0.0
 11
651.099723
 21
-23.2704
 31
0.0
  0
LINE
  5
254
100
AcDbEntity
  8
0
370
    -3
390
0
  6
Continuous
100
AcDbLine
 10
651.099723
 20
-23.2704
 30
0.0
 11
651.099723
 21
-64.5851
 31
0.0
  0
LINE
  5
255
100
AcDbEntity
  8
0
370
    -3
390
0
  6
Continuous
100
AcDbLine
 10
651.099723
 20
-48.917233
 30
0.0
 11
656.099723
 21
-48.917233
 31
0.0
  0
LINE
  5
256
100
AcDbEntity
  8
0
370
    -3
390
0
  6
Continuous
100
AcDbLine
 10
486.099723
 20
-48.917233
 30
0.0
 11
486.099723
 21
-78.682344
 31
0.0
  0
LINE
  5
257
100
AcDbEntity
  8
0
370
    -3
390
0
  6
Continuous
100
AcDbLine
 10
491.099723
 20
-48.917233
 30
0.0
 11
486.099723
 21
-48.917233
 31
0.0
  0
LINE
  5
258
100
AcDbEntity
  8
0
370
    -3
390
0
  6
Continuous
100
AcDbLine
 10
491.099723
 20
-23.2704
 30
0.0
 11
491.099723
 21
-64.5851
 31
0.0
  0
LINE
  5
259
100
AcDbEntity
  8
0
370
    -3
390
0
  6
Continuous
100
AcDbLine
 10
492.099038
 20
-22.244575
 30
0.0
 11
491.099723
 21
-23.2704
 31
0.0
  0
LINE
  5
25A
100
AcDbEntity
  8
0
370
    -3
390
0
  6
Continuous
100
AcDbLine
 10
504.599723
 20
-21.917233
 30
0.0
 11
492.099038
 21
-22.244575
 31
0.0
  0
LINE
  5
25B
100
AcDbEntity
  8
0
370
    -3
390
0
  6
Continuous
100
AcDbLine
 10
504.599723
 20
-20.239464
 30
0.0
 11
504.599723
 21
-60.553178
 31
0.0
  0
LINE
  5
25C
100
AcDbEntity
  8
0
370
    -3
390
0
  6
Continuous
100
AcDbLine
 10
617.599723
 20
-19.541049
 30
0.0
 11
637.599723
 21
-20.239464
 31
0.0
  0
LINE
  5
25D
100
AcDbEntity
  8
0
370
    -3
390
0
  6
Continuous
100
AcDbLine
 10
536.429938
 20
-19.127928
 30
0.0
 11
504.599723
 21
-20.239464
 31
0.0
  0
LINE
  5
25E
100
AcDbEntity
  8
0
370
    -3
390
0
  6
CENTER
100
AcDbLine
 10
683.05488
 20
-146.917233
 30
0.0
 11
457.727761
 21
-146.917233
 31
0.0
  0
LINE
  5
25F
100
AcDbEntity
  8
0
370
    -3
390
0
  6
CENTER
100
AcDbLine
 10
571.099723
 20
18.121749
 30
0.0
 11
571.099723
 21
-286.892341
 31
0.0
  0
LINE
  5
260
100
AcDbEntity
  8
0
370
    -3
390
0
  6
Continuous
100
AcDbLine
 10
-37.621608
 20
152.893589
 30
0.0
 11
-37.621608
 21
232.893589
 31
0.0
  0
LINE
  5
261
100
AcDbEntity
  8
0
370
    -3
390
0
  6
Continuous
100
AcDbLine
 10
-37.621608
 20
312.893589
 30
0.0
 11
-37.621608
 21
232.893589
 31
0.0
  0
LINE
  5
262
100
AcDbEntity
  8
0
370
    -3
390
0
  6
Continuous
100
AcDbLine
 10
-44.621608
 20
232.893589
 30
0.0
 11
-46.362972
 21
299.393589
 31
0.0
  0
LINE
  5
263
100
AcDbEntity
  8
0
370
    -3
390
0
  6
Continuous
100
AcDbLine
 10
-48.948941
 20
311.893932
 30
0.0
 11
-48.621608
 21
299.393589
 31
0.0
  0
LINE
  5
264
100
AcDbEntity
  8
0
370
    -3
390
0
  6
Continuous
100
AcDbLine
 10
-49.975118
 20
312.893589
 30
0.0
 11
-48.948941
 21
311.893932
 31
0.0
  0
LINE
  5
265
100
AcDbEntity
  8
0
370
    -3
390
0
  6
Continuous
100
AcDbLine
 10
-49.975118
 20
152.893589
 30
0.0
 11
-48.948941
 21
153.893246
 31
0.0
  0
LINE
  5
266
100
AcDbEntity
  8
0
370
    -3
390
0
  6
Continuous
100
AcDbLine
 10
-48.948941
 20
153.893246
 30
0.0
 11
-48.621608
 21
166.393589
 31
0.0
  0
LINE
  5
267
100
AcDbEntity
  8
0
370
    -3
390
0
  6
Continuous
100
AcDbLine
 10
-44.700166
 20
229.893589
 30
0.0
 11
-46.362972
 21
166.393589
 31
0.0
  0
LINE
  5
268
100
AcDbEntity
  8
0
370
    -3
390
0
  6
Continuous
100
AcDbLine
 10
-46.620923
 20
232.945943
 30
0.0
 11
-46.700851
 21
229.893589
 31
0.0
  0
LINE
  5
269
100
AcDbEntity
  8
0
370
    -3
390
0
  6
Continuous
100
AcDbLine
 10
-37.621608
 20
154.893589
 30
0.0
 11
-37.621608
 21
310.893589
 31
0.0
  0
LINE
  5
26A
100
AcDbEntity
  8
0
370
    -3
390
0
  6
Continuous
100
AcDbLine
 10
-39.621608
 20
152.893589
 30
0.0
 11
-37.621608
 21
154.893589
 31
0.0
  0
LINE
  5
26B
100
AcDbEntity
  8
0
370
    -3
390
0
  6
Continuous
100
AcDbLine
 10
-37.621608
 20
310.893589
 30
0.0
 11
-39.621608
 21
312.893589
 31
0.0
  0
LINE
  5
26C
100
AcDbEntity
  8
0
370
    -3
390
0
  6
CENTER
100
AcDbLine
 10
-337.515042
 20
232.893589
 30
0.0
 11
364.629222
 21
232.893589
 31
0.0
  0
LINE
  5
26D
100
AcDbEntity
  8
0
370
    -3
390
0
  6
Continuous
100
AcDbLine
 10
-325.621608
 20
232.893589
 30
0.0
 11
-323.880244
 21
299.393589
 31
0.0
  0
LINE
  5
26E
100
AcDbEntity
  8
0
370
    -3
390
0
  6
Continuous
100
AcDbLine
 10
-293.621608
 20
317.893589
 30
0.0
 11
-145.621608
 21
317.893589
 31
0.0
  0
LINE
  5
26F
100
AcDbEntity
  8
0
370
    -3
390
0
  6
CENTER
100
AcDbLine
 10
-219.621608
 20
66.126292
 30
0.0
 11
-219.621608
 21
338.049552
 31
0.0
  0
LINE
  5
270
100
AcDbEntity
  8
0
370
    -3
390
0
  6
Continuous
100
AcDbLine
 10
-144.621608
 20
312.893589
 30
0.0
 11
-144.621608
 21
316.893589
 31
0.0
  0
LINE
  5
271
100
AcDbEntity
  8
0
370
    -3
390
0
  6
Continuous
100
AcDbLine
 10
-294.621608
 20
312.893589
 30
0.0
 11
-294.621608
 21
316.893589
 31
0.0
  0
LINE
  5
272
100
AcDbEntity
  8
0
370
    -3
390
0
  6
Continuous
100
AcDbLine
 10
-145.621608
 20
317.893589
 30
0.0
 11
-144.621608
 21
316.893589
 31
0.0
  0
LINE
  5
273
100
AcDbEntity
  8
0
370
    -3
390
0
  6
Continuous
100
AcDbLine
 10
-294.621608
 20
316.893589
 30
0.0
 11
-293.621608
 21
317.893589
 31
0.0
  0
LINE
  5
274
100
AcDbEntity
  8
0
370
    -3
390
0
  6
Continuous
100
AcDbLine
 10
-320.268098
 20
312.893589
 30
0.0
 11
-39.621608
 21
312.893589
 31
0.0
  0
LINE
  5
275
100
AcDbEntity
  8
0
370
    -3
390
0
  6
Continuous
100
AcDbLine
 10
-321.621608
 20
299.393589
 30
0.0
 11
-321.294275
 21
311.893932
 31
0.0
  0
LINE
  5
276
100
AcDbEntity
  8
0
370
    -3
390
0
  6
Continuous
100
AcDbLine
 10
-323.880244
 20
299.393589
 30
0.0
 11
-46.362972
 21
299.393589
 31
0.0
  0
LINE
  5
277
100
AcDbEntity
  8
0
370
    -3
390
0
  6
Continuous
100
AcDbLine
 10
-320.268098
 20
312.893589
 30
0.0
 11
-321.294275
 21
311.893932
 31
0.0
  0
LINE
  5
278
100
AcDbEntity
  8
0
370
    -3
390
0
  6
Continuous
100
AcDbLine
 10
-320.268098
 20
152.893589
 30
0.0
 11
-39.621608
 21
152.893589
 31
0.0
  0
LINE
  5
279
100
AcDbEntity
  8
0
370
    -3
390
0
  6
Continuous
100
AcDbLine
 10
-144.621608
 20
152.893589
 30
0.0
 11
-144.621608
 21
148.893589
 31
0.0
  0
LINE
  5
27A
100
AcDbEntity
  8
0
370
    -3
390
0
  6
Continuous
100
AcDbLine
 10
-323.880244
 20
166.393589
 30
0.0
 11
-46.362972
 21
166.393589
 31
0.0
  0
LINE
  5
27B
100
AcDbEntity
  8
0
370
    -3
390
0
  6
Continuous
100
AcDbLine
 10
-293.621608
 20
147.893589
 30
0.0
 11
-145.621608
 21
147.893589
 31
0.0
  0
LINE
  5
27C
100
AcDbEntity
  8
0
370
    -3
390
0
  6
Continuous
100
AcDbLine
 10
-145.621608
 20
147.893589
 30
0.0
 11
-144.621608
 21
148.893589
 31
0.0
  0
LINE
  5
27D
100
AcDbEntity
  8
0
370
    -3
390
0
  6
Continuous
100
AcDbLine
 10
-320.268098
 20
152.893589
 30
0.0
 11
-321.294275
 21
153.893246
 31
0.0
  0
LINE
  5
27E
100
AcDbEntity
  8
0
370
    -3
390
0
  6
Continuous
100
AcDbLine
 10
-321.621608
 20
166.393589
 30
0.0
 11
-321.294275
 21
153.893246
 31
0.0
  0
LINE
  5
27F
100
AcDbEntity
  8
0
370
    -3
390
0
  6
Continuous
100
AcDbLine
 10
-294.621608
 20
152.893589
 30
0.0
 11
-294.621608
 21
148.893589
 31
0.0
  0
LINE
  5
280
100
AcDbEntity
  8
0
370
    -3
390
0
  6
Continuous
100
AcDbLine
 10
-325.54305
 20
229.893589
 30
0.0
 11
-323.880244
 21
166.393589
 31
0.0
  0
LINE
  5
281
100
AcDbEntity
  8
0
370
    -3
390
0
  6
Continuous
100
AcDbLine
 10
-294.621608
 20
148.893589
 30
0.0
 11
-293.621608
 21
147.893589
 31
0.0
  0
LINE
  5
282
100
AcDbEntity
  8
0
370
    -3
390
0
  6
Continuous
100
AcDbLine
 10
-325.54305
 20
229.893589
 30
0.0
 11
-44.700166
 21
229.893589
 31
0.0
  0
LINE
  5
283
100
AcDbEntity
  8
0
370
    -3
390
0
  6
Continuous
100
AcDbLine
 10
-323.622293
 20
232.945943
 30
0.0
 11
-323.542365
 21
229.893589
 31
0.0
  0
LINE
  5
284
100
AcDbEntity
  8
0
370
    -3
390
0
  6
Continuous
100
AcDbLine
 10
-325.621608
 20
232.893589
 30
0.0
 11
-44.621608
 21
232.893589
 31
0.0
  0
LINE
  5
285
100
AcDbEntity
  8
0
370
    -3
390
0
  6
Continuous
100
AcDbLine
 10
473.871504
 20
-98.917233
 30
0.0
 11
409.099754
 21
-98.917233
 31
0.0
  0
LINE
  5
286
100
AcDbEntity
  8
0
370
    -3
390
0
  6
Continuous
100
AcDbLine
 10
468.104158
 20
-148.917233
 30
0.0
 11
409.099754
 21
-148.917233
 31
0.0
  0
LINE
  5
287
100
AcDbEntity
  8
0
370
    -3
390
0
  6
Continuous
100
AcDbLine
 10
409.099754
 20
-95.417233
 30
0.0
 11
409.099754
 21
-148.917233
 31
0.0
  0
LINE
  5
288
100
AcDbEntity
  8
0
370
    -3
390
0
  6
Continuous
100
AcDbLine
 10
472.099754
 20
-95.417233
 30
0.0
 11
409.099754
 21
-95.417233
 31
0.0
  0
LINE
  5
289
100
AcDbEntity
  8
0
370
    -3
390
0
  6
Continuous
100
AcDbLine
 10
472.099754
 20
-98.917233
 30
0.0
 11
472.099754
 21
-95.417233
 31
0.0
  0
LINE
  5
28A
100
AcDbEntity
  8
0
370
    -3
390
0
  6
CENTER
100
AcDbLine
 10
564.10223
 20
-123.917233
 30
0.0
 11
397.990307
 21
-123.917233
 31
0.0
  0
LINE
  5
28B
100
AcDbEntity
  8
0
370
    -3
390
0
  6
Continuous
100
AcDbLine
 10
568.099754
 20
-275.81247
 30
0.0
 11
504.099754
 21
-273.577541
 31
0.0
  0
LINE
  5
28C
100
AcDbEntity
  8
0
370
    -3
390
0
  6
Continuous
100
AcDbLine
 10
568.099754
 20
-249.907255
 30
0.0
 11
568.099754
 21
-275.81247
 31
0.0
  0
LINE
  5
28D
100
AcDbEntity
  8
0
370
    -3
390
0
  6
Continuous
100
AcDbLine
 10
568.103865
 20
-274.074241
 30
0.0
 11
571.099754
 21
-273.917233
 31
0.0
  0
LINE
  5
28E
100
AcDbEntity
  8
0
370
    -3
390
0
  6
Continuous
100
AcDbLine
 10
571.099754
 20
-249.917233
 30
0.0
 11
571.099754
 21
-275.917233
 31
0.0
  0
LINE
  5
28F
100
AcDbEntity
  8
0
370
    -3
390
0
  6
Continuous
100
AcDbLine
 10
571.099754
 20
-275.917233
 30
0.0
 11
638.099754
 21
-273.577541
 31
0.0
  0
LINE
  5
290
100
AcDbEntity
  8
0
370
    -3
390
0
  6
Continuous
100
AcDbLine
 10
-194.621608
 20
70.89362
 30
0.0
 11
-244.621608
 21
70.89362
 31
0.0
  0
LINE
  5
291
100
AcDbEntity
  8
0
370
    -3
390
0
  6
Continuous
100
AcDbLine
 10
-244.621608
 20
145.89362
 30
0.0
 11
-244.621608
 21
70.89362
 31
0.0
  0
LINE
  5
292
100
AcDbEntity
  8
0
370
    -3
390
0
  6
Continuous
100
AcDbLine
 10
-245.621608
 20
147.89362
 30
0.0
 11
-245.621608
 21
145.89362
 31
0.0
  0
LINE
  5
293
100
AcDbEntity
  8
0
370
    -3
390
0
  6
Continuous
100
AcDbLine
 10
-212.621608
 20
133.89362
 30
0.0
 11
-226.621608
 21
133.89362
 31
0.0
  0
LINE
  5
294
100
AcDbEntity
  8
0
370
    -3
390
0
  6
Continuous
100
AcDbLine
 10
-194.621608
 20
145.89362
 30
0.0
 11
-194.621608
 21
70.89362
 31
0.0
  0
LINE
  5
295
100
AcDbEntity
  8
0
370
    -3
390
0
  6
Continuous
100
AcDbLine
 10
-193.621608
 20
145.89362
 30
0.0
 11
-245.621608
 21
145.89362
 31
0.0
  0
LINE
  5
296
100
AcDbEntity
  8
0
370
    -3
390
0
  6
Continuous
100
AcDbLine
 10
-193.621608
 20
147.89362
 30
0.0
 11
-193.621608
 21
145.89362
 31
0.0
  0
LINE
  5
297
100
AcDbEntity
  8
0
370
    -3
390
0
  6
Continuous
100
AcDbLine
 10
-226.621608
 20
70.89362
 30
0.0
 11
-226.621608
 21
133.89362
 31
0.0
  0
LINE
  5
298
100
AcDbEntity
  8
0
370
    -3
390
0
  6
Continuous
100
AcDbLine
 10
-212.621608
 20
70.89362
 30
0.0
 11
-212.621608
 21
133.89362
 31
0.0
  0
ARC
  5
299
100
AcDbEntity
  8
0
370
    -3
390
0
  6
Continuous
100
AcDbCircle
 10
-219.621608
 20
133.89362
 30
0.0
 40
7.0
100
AcDbArc
 50
0.0
 51
180.0
  0
ARC
  5
29A
100
AcDbEntity
  8
0
370
    -3
390
0
  6
Continuous
100
AcDbCircle
 10
571.099723
 20
-146.917233
 30
0.0
 40
75.0
100
AcDbArc
 50
184.714561
 51
236.072557
  0
LINE
  5
29B
100
AcDbEntity
  8
0
370
    -3
390
0
  6
Continuous
100
AcDbLine
 10
-1.621608
 20
135.687805
 30
0.0
 11
-25.628674
 21
135.687805
 31
0.0
  0
LINE
  5
29C
100
AcDbEntity
  8
0
370
    -3
390
0
  6
Continuous
100
AcDbLine
 10
-1.621608
 20
143.713882
 30
0.0
 11
-22.621608
 21
143.713882
 31
0.0
  0
ARC
  5
29D
100
AcDbEntity
  8
0
370
    -3
390
0
  6
Continuous
100
AcDbCircle
 10
-22.621608
 20
140.713882
 30
0.0
 40
3.0
100
AcDbArc
 50
90.0
 51
180.0
  0
LINE
  5
29E
100
AcDbEntity
  8
0
370
    -3
390
0
  6
Continuous
100
AcDbLine
 10
1.378392
 20
155.003021
 30
0.0
 11
-22.621608
 21
155.003021
 31
0.0
  0
LINE
  5
29F
100
AcDbEntity
  8
0
370
    -3
390
0
  6
Continuous
100
AcDbLine
 10
-22.621608
 20
164.158612
 30
0.0
 11
1.378392
 21
164.158612
 31
0.0
  0
ARC
  5
2A0
100
AcDbEntity
  8
0
370
    -3
390
0
  6
Continuous
100
AcDbCircle
 10
-1.621608
 20
138.687805
 30
0.0
 40
3.0
100
AcDbArc
 50
270.0
 51
0.0
  0
ARC
  5
2A1
100
AcDbEntity
  8
0
370
    -3
390
0
  6
Continuous
100
AcDbCircle
 10
-1.621608
 20
146.713882
 30
0.0
 40
3.0
100
AcDbArc
 50
270.0
 51
0.0
  0
ARC
  5
2A2
100
AcDbEntity
  8
0
370
    -3
390
0
  6
Continuous
100
AcDbCircle
 10
-22.621608
 20
152.003021
 30
0.0
 40
3.0
100
AcDbArc
 50
90.0
 51
180.0
  0
ARC
  5
2A3
100
AcDbEntity
  8
0
370
    -3
390
0
  6
Continuous
100
AcDbCircle
 10
-22.621608
 20
167.158612
 30
0.0
 40
3.0
100
AcDbArc
 50
180.0
 51
270.0
  0
LINE
  5
2A4
100
AcDbEntity
  8
0
370
    -3
390
0
  6
Continuous
100
AcDbLine
 10
-22.621608
 20
182.215462
 30
0.0
 11
0.378392
 21
182.215462
 31
0.0
  0
ARC
  5
2A5
100
AcDbEntity
  8
0
370
    -3
390
0
  6
Continuous
100
AcDbCircle
 10
0.378392
 20
181.215462
 30
0.0
 40
1.0
100
AcDbArc
 50
0.0
 51
90.0
  0
ARC
  5
2A6
100
AcDbEntity
  8
0
370
    -3
390
0
  6
Continuous
100
AcDbCircle
 10
-22.621608
 20
185.215462
 30
0.0
 40
3.0
100
AcDbArc
 50
180.0
 51
270.0
  0
ARC
  5
2A7
100
AcDbEntity
  8
0
370
    -3
390
0
  6
Continuous
100
AcDbCircle
 10
-22.621608
 20
175.215462
 30
0.0
 40
3.0
100
AcDbArc
 50
90.0
 51
180.0
  0
LINE
  5
2A8
100
AcDbEntity
  8
0
370
    -3
390
0
  6
Continuous
100
AcDbLine
 10
0.378392
 20
178.215462
 30
0.0
 11
-22.621608
 21
178.215462
 31
0.0
  0
ARC
  5
2A9
100
AcDbEntity
  8
0
370
    -3
390
0
  6
Continuous
100
AcDbCircle
 10
0.378392
 20
179.215462
 30
0.0
 40
1.0
100
AcDbArc
 50
270.0
 51
0.0
  0
ARC
  5
2AA
100
AcDbEntity
  8
0
370
    -3
390
0
  6
Continuous
100
AcDbCircle
 10
-22.621608
 20
196.285892
 30
0.0
 40
3.0
100
AcDbArc
 50
90.0
 51
180.0
  0
ARC
  5
2AB
100
AcDbEntity
  8
0
370
    -3
390
0
  6
Continuous
100
AcDbCircle
 10
-22.621608
 20
206.285892
 30
0.0
 40
3.0
100
AcDbArc
 50
180.0
 51
270.0
  0
LINE
  5
2AC
100
AcDbEntity
  8
0
370
    -3
390
0
  6
Continuous
100
AcDbLine
 10
0.378392
 20
199.285892
 30
0.0
 11
-22.621608
 21
199.285892
 31
0.0
  0
ARC
  5
2AD
100
AcDbEntity
  8
0
370
    -3
390
0
  6
Continuous
100
AcDbCircle
 10
0.378392
 20
200.285892
 30
0.0
 40
1.0
100
AcDbArc
 50
270.0
 51
0.0
  0
LINE
  5
2AE
100
AcDbEntity
  8
0
370
    -3
390
0
  6
Continuous
100
AcDbLine
 10
-22.621608
 20
203.285892
 30
0.0
 11
0.378392
 21
203.285892
 31
0.0
  0
ARC
  5
2AF
100
AcDbEntity
  8
0
370
    -3
390
0
  6
Continuous
100
AcDbCircle
 10
0.378392
 20
202.285892
 30
0.0
 40
1.0
100
AcDbArc
 50
0.0
 51
90.0
  0
LINE
  5
2B0
100
AcDbEntity
  8
0
370
    -3
390
0
  6
Continuous
100
AcDbLine
 10
-25.621608
 20
207.393589
 30
0.0
 11
-25.621608
 21
135.893589
 31
0.0
  0
ARC
  5
2B1
100
AcDbEntity
  8
0
370
    -3
390
0
  6
Continuous
100
AcDbCircle
 10
-23.621608
 20
207.393589
 30
0.0
 40
2.0
100
AcDbArc
 50
90.0
 51
180.0
  0
LINE
  5
2B2
100
AcDbEntity
  8
0
370
    -3
390
0
  6
Continuous
100
AcDbLine
 10
1.378392
 20
232.893589
 30
0.0
 11
1.378392
 21
135.893589
 31
0.0
  0
LINE
  5
2B3
100
AcDbEntity
  8
0
370
    -3
390
0
  6
Continuous
100
AcDbLine
 10
-23.621608
 20
209.393589
 30
0.0
 11
-35.621608
 21
209.393589
 31
0.0
  0
LINE
  5
2B4
100
AcDbEntity
  8
0
370
    -3
390
0
  6
CENTER
100
AcDbLine
 10
-1.238996
 20
222.393589
 30
0.0
 11
-35.919209
 21
222.393589
 31
0.0
  0
INSERT
  5
2C0
100
AcDbEntity
  8
0
390
0
100
AcDbBlockReference
  2
ZU_SYM__USR_MELCAD_MD_SYM_SYM_SYM2_00
 10
-11.621248
 20
222.393589
 30
0.0
 41
-1.0
  0
LINE
  5
2C1
100
AcDbEntity
  8
0
370
    -3
390
0
  6
Continuous
100
AcDbLine
 10
-11.621248
 20
212.393589
 30
0.0
 11
-20.621608
 21
212.393589
 31
0.0
  0
ARC
  5
2C2
100
AcDbEntity
  8
0
370
    -3
390
0
  6
Continuous
100
AcDbCircle
 10
-23.621608
 20
212.393589
 30
0.0
 40
3.0
100
AcDbArc
 50
270.0
 51
0.0
  0
ARC
  5
2C3
100
AcDbEntity
  8
0
370
    -3
390
0
  6
Continuous
100
AcDbCircle
 10
-1.621608
 20
135.893589
 30
0.0
 40
3.0
100
AcDbArc
 50
270.0
 51
0.0
  0
LINE
  5
2C4
100
AcDbEntity
  8
0
370
    -3
390
0
  6
Continuous
100
AcDbLine
 10
-1.621608
 20
132.893589
 30
0.0
 11
-32.621608
 21
132.893589
 31
0.0
  0
ARC
  5
2C5
100
AcDbEntity
  8
0
370
    -3
390
0
  6
Continuous
100
AcDbCircle
 10
3.378392
 20
149.893589
 30
0.0
 40
2.0
100
AcDbArc
 50
90.0
 51
180.0
  0
ARC
  5
2C6
100
AcDbEntity
  8
0
370
    -3
390
0
  6
Continuous
100
AcDbCircle
 10
-28.621608
 20
135.893589
 30
0.0
 40
3.0
100
AcDbArc
 50
270.0
 51
0.0
  0
ARC
  5
2C7
100
AcDbEntity
  8
0
370
    -3
390
0
  6
Continuous
100
AcDbCircle
 10
-32.621608
 20
135.893589
 30
0.0
 40
3.0
100
AcDbArc
 50
180.0
 51
270.0
  0
LINE
  5
2C8
100
AcDbEntity
  8
0
370
    -3
390
0
  6
Continuous
100
AcDbLine
 10
-35.621608
 20
135.893589
 30
0.0
 11
-35.621608
 21
232.893589
 31
0.0
  0
LINE
  5
2C9
100
AcDbEntity
  8
0
370
    -3
390
0
  6
Continuous
100
AcDbLine
 10
-35.621608
 20
150.893589
 30
0.0
 11
-37.621608
 21
152.893589
 31
0.0
  0
LINE
  5
2CA
100
AcDbEntity
  8
0
370
    -3
390
0
  6
Continuous
100
AcDbLine
 10
-35.621608
 20
150.893589
 30
0.0
 11
-37.621608
 21
152.893589
 31
0.0
  0
LINE
  5
2CB
100
AcDbEntity
  8
0
370
    -3
390
0
  6
CENTER
100
AcDbLine
 10
-1.238996
 20
243.393589
 30
0.0
 11
-35.919209
 21
243.393589
 31
0.0
  0
INSERT
  5
2D7
100
AcDbEntity
  8
0
390
0
100
AcDbBlockReference
  2
ZU_SYM__USR_MELCAD_MD_SYM_SYM_SYM1_00
 10
-11.621248
 20
243.393589
 30
0.0
 50
180.0
  0
LINE
  5
2D8
100
AcDbEntity
  8
0
370
    -3
390
0
  6
Continuous
100
AcDbLine
 10
-11.621248
 20
212.393589
 30
0.0
 11
-11.621248
 21
253.393589
 31
0.0
  0
LINE
  5
2D9
100
AcDbEntity
  8
0
370
    -3
390
0
  6
Continuous
100
AcDbLine
 10
-11.621248
 20
253.393589
 30
0.0
 11
-20.621608
 21
253.393589
 31
0.0
  0
LINE
  5
2DA
100
AcDbEntity
  8
0
370
    -3
390
0
  6
Continuous
100
AcDbLine
 10
-20.621608
 20
253.393589
 30
0.0
 11
-20.621608
 21
212.393589
 31
0.0
  0
LINE
  5
2DB
100
AcDbEntity
  8
0
370
    -3
390
0
  6
Continuous
100
AcDbLine
 10
-22.621608
 20
283.571717
 30
0.0
 11
0.378392
 21
283.571717
 31
0.0
  0
ARC
  5
2DC
100
AcDbEntity
  8
0
370
    -3
390
0
  6
Continuous
100
AcDbCircle
 10
0.378392
 20
284.571717
 30
0.0
 40
1.0
100
AcDbArc
 50
270.0
 51
0.0
  0
ARC
  5
2DD
100
AcDbEntity
  8
0
370
    -3
390
0
  6
Continuous
100
AcDbCircle
 10
-22.621608
 20
280.571717
 30
0.0
 40
3.0
100
AcDbArc
 50
90.0
 51
180.0
  0
ARC
  5
2DE
100
AcDbEntity
  8
0
370
    -3
390
0
  6
Continuous
100
AcDbCircle
 10
-22.621608
 20
290.571717
 30
0.0
 40
3.0
100
AcDbArc
 50
180.0
 51
270.0
  0
LINE
  5
2DF
100
AcDbEntity
  8
0
370
    -3
390
0
  6
Continuous
100
AcDbLine
 10
0.378392
 20
287.571717
 30
0.0
 11
-22.621608
 21
287.571717
 31
0.0
  0
ARC
  5
2E0
100
AcDbEntity
  8
0
370
    -3
390
0
  6
Continuous
100
AcDbCircle
 10
0.378392
 20
286.571717
 30
0.0
 40
1.0
100
AcDbArc
 50
0.0
 51
90.0
  0
ARC
  5
2E1
100
AcDbEntity
  8
0
370
    -3
390
0
  6
Continuous
100
AcDbCircle
 10
-22.621608
 20
269.501286
 30
0.0
 40
3.0
100
AcDbArc
 50
180.0
 51
270.0
  0
ARC
  5
2E2
100
AcDbEntity
  8
0
370
    -3
390
0
  6
Continuous
100
AcDbCircle
 10
-22.621608
 20
259.501286
 30
0.0
 40
3.0
100
AcDbArc
 50
90.0
 51
180.0
  0
LINE
  5
2E3
100
AcDbEntity
  8
0
370
    -3
390
0
  6
Continuous
100
AcDbLine
 10
0.378392
 20
266.501286
 30
0.0
 11
-22.621608
 21
266.501286
 31
0.0
  0
ARC
  5
2E4
100
AcDbEntity
  8
0
370
    -3
390
0
  6
Continuous
100
AcDbCircle
 10
0.378392
 20
265.501286
 30
0.0
 40
1.0
100
AcDbArc
 50
0.0
 51
90.0
  0
LINE
  5
2E5
100
AcDbEntity
  8
0
370
    -3
390
0
  6
Continuous
100
AcDbLine
 10
-22.621608
 20
262.501286
 30
0.0
 11
0.378392
 21
262.501286
 31
0.0
  0
ARC
  5
2E6
100
AcDbEntity
  8
0
370
    -3
390
0
  6
Continuous
100
AcDbCircle
 10
0.378392
 20
263.501286
 30
0.0
 40
1.0
100
AcDbArc
 50
270.0
 51
0.0
  0
ARC
  5
2E7
100
AcDbEntity
  8
0
370
    -3
390
0
  6
Continuous
100
AcDbCircle
 10
-23.621608
 20
258.393589
 30
0.0
 40
2.0
100
AcDbArc
 50
180.0
 51
270.0
  0
LINE
  5
2E8
100
AcDbEntity
  8
0
370
    -3
390
0
  6
Continuous
100
AcDbLine
 10
-23.621608
 20
256.393589
 30
0.0
 11
-35.621608
 21
256.393589
 31
0.0
  0
ARC
  5
2E9
100
AcDbEntity
  8
0
370
    -3
390
0
  6
Continuous
100
AcDbCircle
 10
-23.621608
 20
253.393589
 30
0.0
 40
3.0
100
AcDbArc
 50
0.0
 51
90.0
  0
LINE
  5
2EA
100
AcDbEntity
  8
0
370
    -3
390
0
  6
Continuous
100
AcDbLine
 10
3.378392
 20
132.893589
 30
0.0
 11
3.378392
 21
332.893589
 31
0.0
  0
LINE
  5
2EB
100
AcDbEntity
  8
0
370
    -3
390
0
  6
Continuous
100
AcDbLine
 10
-1.621608
 20
330.099374
 30
0.0
 11
-25.628674
 21
330.099374
 31
0.0
  0
LINE
  5
2EC
100
AcDbEntity
  8
0
370
    -3
390
0
  6
Continuous
100
AcDbLine
 10
-1.621608
 20
322.073297
 30
0.0
 11
-22.621608
 21
322.073297
 31
0.0
  0
ARC
  5
2ED
100
AcDbEntity
  8
0
370
    -3
390
0
  6
Continuous
100
AcDbCircle
 10
-22.621608
 20
325.073297
 30
0.0
 40
3.0
100
AcDbArc
 50
180.0
 51
270.0
  0
LINE
  5
2EE
100
AcDbEntity
  8
0
370
    -3
390
0
  6
Continuous
100
AcDbLine
 10
1.378392
 20
310.784158
 30
0.0
 11
-22.621608
 21
310.784158
 31
0.0
  0
LINE
  5
2EF
100
AcDbEntity
  8
0
370
    -3
390
0
  6
Continuous
100
AcDbLine
 10
-22.621608
 20
301.628566
 30
0.0
 11
1.378392
 21
301.628566
 31
0.0
  0
ARC
  5
2F0
100
AcDbEntity
  8
0
370
    -3
390
0
  6
Continuous
100
AcDbCircle
 10
-1.621608
 20
327.099374
 30
0.0
 40
3.0
100
AcDbArc
 50
0.0
 51
90.0
  0
ARC
  5
2F1
100
AcDbEntity
  8
0
370
    -3
390
0
  6
Continuous
100
AcDbCircle
 10
-1.621608
 20
319.073297
 30
0.0
 40
3.0
100
AcDbArc
 50
0.0
 51
90.0
  0
ARC
  5
2F2
100
AcDbEntity
  8
0
370
    -3
390
0
  6
Continuous
100
AcDbCircle
 10
-22.621608
 20
313.784158
 30
0.0
 40
3.0
100
AcDbArc
 50
180.0
 51
270.0
  0
ARC
  5
2F3
100
AcDbEntity
  8
0
370
    -3
390
0
  6
Continuous
100
AcDbCircle
 10
-22.621608
 20
298.628566
 30
0.0
 40
3.0
100
AcDbArc
 50
90.0
 51
180.0
  0
LINE
  5
2F4
100
AcDbEntity
  8
0
370
    -3
390
0
  6
Continuous
100
AcDbLine
 10
-25.621608
 20
258.393589
 30
0.0
 11
-25.621608
 21
329.893589
 31
0.0
  0
LINE
  5
2F5
100
AcDbEntity
  8
0
370
    -3
390
0
  6
Continuous
100
AcDbLine
 10
1.378392
 20
232.893589
 30
0.0
 11
1.378392
 21
329.893589
 31
0.0
  0
ARC
  5
2F6
100
AcDbEntity
  8
0
370
    -3
390
0
  6
Continuous
100
AcDbCircle
 10
-1.621608
 20
329.893589
 30
0.0
 40
3.0
100
AcDbArc
 50
0.0
 51
90.0
  0
LINE
  5
2F7
100
AcDbEntity
  8
0
370
    -3
390
0
  6
Continuous
100
AcDbLine
 10
-1.621608
 20
332.893589
 30
0.0
 11
-32.621608
 21
332.893589
 31
0.0
  0
ARC
  5
2F8
100
AcDbEntity
  8
0
370
    -3
390
0
  6
Continuous
100
AcDbCircle
 10
3.378392
 20
315.893589
 30
0.0
 40
2.0
100
AcDbArc
 50
180.0
 51
270.0
  0
ARC
  5
2F9
100
AcDbEntity
  8
0
370
    -3
390
0
  6
Continuous
100
AcDbCircle
 10
-28.621608
 20
329.893589
 30
0.0
 40
3.0
100
AcDbArc
 50
0.0
 51
90.0
  0
ARC
  5
2FA
100
AcDbEntity
  8
0
370
    -3
390
0
  6
Continuous
100
AcDbCircle
 10
-32.621608
 20
329.893589
 30
0.0
 40
3.0
100
AcDbArc
 50
90.0
 51
180.0
  0
LINE
  5
2FB
100
AcDbEntity
  8
0
370
    -3
390
0
  6
Continuous
100
AcDbLine
 10
-35.621608
 20
329.893589
 30
0.0
 11
-35.621608
 21
232.893589
 31
0.0
  0
LINE
  5
2FC
100
AcDbEntity
  8
0
370
    -3
390
0
  6
Continuous
100
AcDbLine
 10
-35.621608
 20
314.893589
 30
0.0
 11
-37.621608
 21
312.893589
 31
0.0
  0
LINE
  5
2FD
100
AcDbEntity
  8
0
370
    -3
390
0
  6
Continuous
100
AcDbLine
 10
-35.621608
 20
314.893589
 30
0.0
 11
-37.621608
 21
312.893589
 31
0.0
  0
LINE
  5
2FE
100
AcDbEntity
  8
0
370
    -3
390
0
  6
Continuous
100
AcDbLine
 10
234.828392
 20
201.296982
 30
0.0
 11
234.828392
 21
282.899701
 31
0.0
  0
LINE
  5
2FF
100
AcDbEntity
  8
0
370
    -3
390
0
  6
Continuous
100
AcDbLine
 10
228.428392
 20
201.3918
 30
0.0
 11
228.428392
 21
277.469544
 31
0.0
  0
ARC
  5
300
100
AcDbEntity
  8
0
370
    -3
390
0
  6
Continuous
100
AcDbCircle
 10
223.428392
 20
201.3918
 30
0.0
 40
5.0
100
AcDbArc
 50
270.0
 51
0.0
  0
LINE
  5
301
100
AcDbEntity
  8
0
370
    -3
390
0
  6
Continuous
100
AcDbLine
 10
188.378392
 20
196.3918
 30
0.0
 11
223.428392
 21
196.3918
 31
0.0
  0
ARC
  5
302
100
AcDbEntity
  8
0
370
    -3
390
0
  6
Continuous
100
AcDbCircle
 10
223.828392
 20
201.296982
 30
0.0
 40
11.0
100
AcDbArc
 50
270.0
 51
0.0
  0
LINE
  5
303
100
AcDbEntity
  8
0
370
    -3
390
0
  6
Continuous
100
AcDbLine
 10
223.828392
 20
190.296982
 30
0.0
 11
188.378392
 21
190.296982
 31
0.0
  0
ARC
  5
304
100
AcDbEntity
  8
0
370
    -3
390
0
  6
Continuous
100
AcDbCircle
 10
223.428392
 20
207.893589
 30
0.0
 40
5.0
100
AcDbArc
 50
270.0
 51
0.0
  0
ARC
  5
305
100
AcDbEntity
  8
0
370
    -3
390
0
  6
Continuous
100
AcDbCircle
 10
223.428392
 20
277.469544
 30
0.0
 40
5.0
100
AcDbArc
 50
0.0
 51
90.0
  0
LINE
  5
306
100
AcDbEntity
  8
0
370
    -3
390
0
  6
Continuous
100
AcDbLine
 10
196.865866
 20
282.469544
 30
0.0
 11
223.428392
 21
282.469544
 31
0.0
  0
ARC
  5
307
100
AcDbEntity
  8
0
370
    -3
390
0
  6
Continuous
100
AcDbCircle
 10
223.828392
 20
282.899701
 30
0.0
 40
11.0
100
AcDbArc
 50
0.0
 51
90.0
  0
ARC
  5
308
100
AcDbEntity
  8
0
370
    -3
390
0
  6
Continuous
100
AcDbCircle
 10
223.828392
 20
281.679491
 30
0.0
 40
11.0
100
AcDbArc
 50
0.0
 51
90.0
  0
LINE
  5
309
100
AcDbEntity
  8
0
370
    -3
390
0
  6
Continuous
100
AcDbLine
 10
223.828392
 20
292.679491
 30
0.0
 11
188.378392
 21
292.679491
 31
0.0
  0
LINE
  5
30A
100
AcDbEntity
  8
0
370
    -3
390
0
  6
Continuous
100
AcDbLine
 10
223.828392
 20
293.899701
 30
0.0
 11
188.378392
 21
293.899701
 31
0.0
  0
LINE
  5
30B
100
AcDbEntity
  8
0
370
    -3
390
0
  6
Continuous
100
AcDbLine
 10
179.890918
 20
282.469544
 30
0.0
 11
153.328392
 21
282.469544
 31
0.0
  0
ARC
  5
30C
100
AcDbEntity
  8
0
370
    -3
390
0
  6
Continuous
100
AcDbCircle
 10
197.63861
 20
278.469544
 30
0.0
 40
4.0
100
AcDbArc
 50
90.0
 51
138.821566
  0
LINE
  5
30D
100
AcDbEntity
  8
0
370
    -3
390
0
  6
Continuous
100
AcDbLine
 10
193.63699
 20
280.158041
 30
0.0
 11
194.627959
 21
281.103169
 31
0.0
  0
LINE
  5
30E
100
AcDbEntity
  8
0
370
    -3
390
0
  6
Continuous
100
AcDbLine
 10
192.477388
 20
279.389532
 30
0.0
 11
193.63699
 21
280.158041
 31
0.0
  0
LINE
  5
30F
100
AcDbEntity
  8
0
370
    -3
390
0
  6
Continuous
100
AcDbLine
 10
191.186338
 20
278.822287
 30
0.0
 11
192.477388
 21
279.389532
 31
0.0
  0
LINE
  5
310
100
AcDbEntity
  8
0
370
    -3
390
0
  6
Continuous
100
AcDbLine
 10
189.805243
 20
278.474497
 30
0.0
 11
191.186338
 21
278.822287
 31
0.0
  0
LINE
  5
311
100
AcDbEntity
  8
0
370
    -3
390
0
  6
Continuous
100
AcDbLine
 10
188.378392
 20
278.357314
 30
0.0
 11
189.805243
 21
278.474497
 31
0.0
  0
ARC
  5
312
100
AcDbEntity
  8
0
370
    -3
390
0
  6
Continuous
100
AcDbCircle
 10
196.865866
 20
278.469544
 30
0.0
 40
4.0
100
AcDbArc
 50
90.0
 51
133.301579
  0
LINE
  5
313
100
AcDbEntity
  8
0
370
    -3
390
0
  6
Continuous
100
AcDbLine
 10
193.160812
 20
280.60868
 30
0.0
 11
194.122513
 21
281.380559
 31
0.0
  0
LINE
  5
314
100
AcDbEntity
  8
0
370
    -3
390
0
  6
Continuous
100
AcDbLine
 10
192.076654
 20
279.986818
 30
0.0
 11
193.160812
 21
280.60868
 31
0.0
  0
LINE
  5
315
100
AcDbEntity
  8
0
370
    -3
390
0
  6
Continuous
100
AcDbLine
 10
190.897799
 20
279.530895
 30
0.0
 11
192.076654
 21
279.986818
 31
0.0
  0
LINE
  5
316
100
AcDbEntity
  8
0
370
    -3
390
0
  6
Continuous
100
AcDbLine
 10
189.654432
 20
279.252586
 30
0.0
 11
190.897799
 21
279.530895
 31
0.0
  0
LINE
  5
317
100
AcDbEntity
  8
0
370
    -3
390
0
  6
Continuous
100
AcDbLine
 10
188.378392
 20
279.159018
 30
0.0
 11
189.654432
 21
279.252586
 31
0.0
  0
LINE
  5
318
100
AcDbEntity
  8
0
370
    -3
390
0
  6
Continuous
100
AcDbLine
 10
186.378392
 20
287.328488
 30
0.0
 11
190.378392
 21
283.674306
 31
0.0
  0
LINE
  5
319
100
AcDbEntity
  8
0
370
    -3
390
0
  6
Continuous
100
AcDbLine
 10
190.378392
 20
287.328488
 30
0.0
 11
186.378392
 21
283.674306
 31
0.0
  0
LINE
  5
31A
100
AcDbEntity
  8
0
370
    -3
390
0
  6
Continuous
100
AcDbLine
 10
191.81114
 20
285.538494
 30
0.0
 11
191.878392
 21
286.212084
 31
0.0
  0
LINE
  5
31B
100
AcDbEntity
  8
0
370
    -3
390
0
  6
Continuous
100
AcDbLine
 10
191.61197
 20
284.89079
 30
0.0
 11
191.81114
 21
285.538494
 31
0.0
  0
LINE
  5
31C
100
AcDbEntity
  8
0
370
    -3
390
0
  6
Continuous
100
AcDbLine
 10
191.288536
 20
284.293862
 30
0.0
 11
191.61197
 21
284.89079
 31
0.0
  0
LINE
  5
31D
100
AcDbEntity
  8
0
370
    -3
390
0
  6
Continuous
100
AcDbLine
 10
190.853266
 20
283.770651
 30
0.0
 11
191.288536
 21
284.293862
 31
0.0
  0
LINE
  5
31E
100
AcDbEntity
  8
0
370
    -3
390
0
  6
Continuous
100
AcDbLine
 10
190.322888
 20
283.341263
 30
0.0
 11
190.853266
 21
283.770651
 31
0.0
  0
LINE
  5
31F
100
AcDbEntity
  8
0
370
    -3
390
0
  6
Continuous
100
AcDbLine
 10
189.717784
 20
283.022198
 30
0.0
 11
190.322888
 21
283.341263
 31
0.0
  0
LINE
  5
320
100
AcDbEntity
  8
0
370
    -3
390
0
  6
Continuous
100
AcDbLine
 10
189.061208
 20
282.825719
 30
0.0
 11
189.717784
 21
283.022198
 31
0.0
  0
LINE
  5
321
100
AcDbEntity
  8
0
370
    -3
390
0
  6
Continuous
100
AcDbLine
 10
188.378392
 20
282.759376
 30
0.0
 11
189.061208
 21
282.825719
 31
0.0
  0
LINE
  5
322
100
AcDbEntity
  8
0
370
    -3
390
0
  6
Continuous
100
AcDbLine
 10
187.695576
 20
282.825719
 30
0.0
 11
188.378392
 21
282.759376
 31
0.0
  0
LINE
  5
323
100
AcDbEntity
  8
0
370
    -3
390
0
  6
Continuous
100
AcDbLine
 10
187.039
 20
283.022198
 30
0.0
 11
187.695576
 21
282.825719
 31
0.0
  0
LINE
  5
324
100
AcDbEntity
  8
0
370
    -3
390
0
  6
Continuous
100
AcDbLine
 10
186.433896
 20
283.341263
 30
0.0
 11
187.039
 21
283.022198
 31
0.0
  0
LINE
  5
325
100
AcDbEntity
  8
0
370
    -3
390
0
  6
Continuous
100
AcDbLine
 10
185.903518
 20
283.770651
 30
0.0
 11
186.433896
 21
283.341263
 31
0.0
  0
LINE
  5
326
100
AcDbEntity
  8
0
370
    -3
390
0
  6
Continuous
100
AcDbLine
 10
185.468248
 20
284.293862
 30
0.0
 11
185.903518
 21
283.770651
 31
0.0
  0
LINE
  5
327
100
AcDbEntity
  8
0
370
    -3
390
0
  6
Continuous
100
AcDbLine
 10
185.144814
 20
284.89079
 30
0.0
 11
185.468248
 21
284.293862
 31
0.0
  0
LINE
  5
328
100
AcDbEntity
  8
0
370
    -3
390
0
  6
Continuous
100
AcDbLine
 10
184.945644
 20
285.538494
 30
0.0
 11
185.144814
 21
284.89079
 31
0.0
  0
LINE
  5
329
100
AcDbEntity
  8
0
370
    -3
390
0
  6
Continuous
100
AcDbLine
 10
184.878392
 20
286.212084
 30
0.0
 11
184.945644
 21
285.538494
 31
0.0
  0
LINE
  5
32A
100
AcDbEntity
  8
0
370
    -3
390
0
  6
Continuous
100
AcDbLine
 10
184.945644
 20
286.885673
 30
0.0
 11
184.878392
 21
286.212084
 31
0.0
  0
LINE
  5
32B
100
AcDbEntity
  8
0
370
    -3
390
0
  6
Continuous
100
AcDbLine
 10
185.144814
 20
287.533378
 30
0.0
 11
184.945644
 21
286.885673
 31
0.0
  0
LINE
  5
32C
100
AcDbEntity
  8
0
370
    -3
390
0
  6
Continuous
100
AcDbLine
 10
185.468248
 20
288.130305
 30
0.0
 11
185.144814
 21
287.533378
 31
0.0
  0
LINE
  5
32D
100
AcDbEntity
  8
0
370
    -3
390
0
  6
Continuous
100
AcDbLine
 10
185.903518
 20
288.653516
 30
0.0
 11
185.468248
 21
288.130305
 31
0.0
  0
LINE
  5
32E
100
AcDbEntity
  8
0
370
    -3
390
0
  6
Continuous
100
AcDbLine
 10
186.433896
 20
289.082905
 30
0.0
 11
185.903518
 21
288.653516
 31
0.0
  0
LINE
  5
32F
100
AcDbEntity
  8
0
370
    -3
390
0
  6
Continuous
100
AcDbLine
 10
187.039
 20
289.401969
 30
0.0
 11
186.433896
 21
289.082905
 31
0.0
  0
LINE
  5
330
100
AcDbEntity
  8
0
370
    -3
390
0
  6
Continuous
100
AcDbLine
 10
187.695576
 20
289.598448
 30
0.0
 11
187.039
 21
289.401969
 31
0.0
  0
LINE
  5
331
100
AcDbEntity
  8
0
370
    -3
390
0
  6
Continuous
100
AcDbLine
 10
188.378392
 20
289.664791
 30
0.0
 11
187.695576
 21
289.598448
 31
0.0
  0
LINE
  5
332
100
AcDbEntity
  8
0
370
    -3
390
0
  6
Continuous
100
AcDbLine
 10
189.061208
 20
289.598448
 30
0.0
 11
188.378392
 21
289.664791
 31
0.0
  0
LINE
  5
333
100
AcDbEntity
  8
0
370
    -3
390
0
  6
Continuous
100
AcDbLine
 10
189.717784
 20
289.401969
 30
0.0
 11
189.061208
 21
289.598448
 31
0.0
  0
LINE
  5
334
100
AcDbEntity
  8
0
370
    -3
390
0
  6
Continuous
100
AcDbLine
 10
190.322888
 20
289.082905
 30
0.0
 11
189.717784
 21
289.401969
 31
0.0
  0
LINE
  5
335
100
AcDbEntity
  8
0
370
    -3
390
0
  6
Continuous
100
AcDbLine
 10
190.853266
 20
288.653516
 30
0.0
 11
190.322888
 21
289.082905
 31
0.0
  0
LINE
  5
336
100
AcDbEntity
  8
0
370
    -3
390
0
  6
Continuous
100
AcDbLine
 10
191.288536
 20
288.130305
 30
0.0
 11
190.853266
 21
288.653516
 31
0.0
  0
LINE
  5
337
100
AcDbEntity
  8
0
370
    -3
390
0
  6
Continuous
100
AcDbLine
 10
191.61197
 20
287.533378
 30
0.0
 11
191.288536
 21
288.130305
 31
0.0
  0
LINE
  5
338
100
AcDbEntity
  8
0
370
    -3
390
0
  6
Continuous
100
AcDbLine
 10
191.81114
 20
286.885673
 30
0.0
 11
191.61197
 21
287.533378
 31
0.0
  0
LINE
  5
339
100
AcDbEntity
  8
0
370
    -3
390
0
  6
Continuous
100
AcDbLine
 10
191.878392
 20
286.212084
 30
0.0
 11
191.81114
 21
286.885673
 31
0.0
  0
LINE
  5
33A
100
AcDbEntity
  8
0
370
    -3
390
0
  6
CENTER
100
AcDbLine
 10
188.378392
 20
187.393989
 30
0.0
 11
188.378392
 21
300.047709
 31
0.0
  0
LINE
  5
33B
100
AcDbEntity
  8
0
370
    -3
390
0
  6
Continuous
100
AcDbLine
 10
187.102352
 20
279.252586
 30
0.0
 11
188.378392
 21
279.159018
 31
0.0
  0
LINE
  5
33C
100
AcDbEntity
  8
0
370
    -3
390
0
  6
Continuous
100
AcDbLine
 10
185.858985
 20
279.530895
 30
0.0
 11
187.102352
 21
279.252586
 31
0.0
  0
LINE
  5
33D
100
AcDbEntity
  8
0
370
    -3
390
0
  6
Continuous
100
AcDbLine
 10
184.68013
 20
279.986818
 30
0.0
 11
185.858985
 21
279.530895
 31
0.0
  0
LINE
  5
33E
100
AcDbEntity
  8
0
370
    -3
390
0
  6
Continuous
100
AcDbLine
 10
183.595972
 20
280.60868
 30
0.0
 11
184.68013
 21
279.986818
 31
0.0
  0
LINE
  5
33F
100
AcDbEntity
  8
0
370
    -3
390
0
  6
Continuous
100
AcDbLine
 10
182.634271
 20
281.380559
 30
0.0
 11
183.595972
 21
280.60868
 31
0.0
  0
ARC
  5
340
100
AcDbEntity
  8
0
370
    -3
390
0
  6
Continuous
100
AcDbCircle
 10
179.890918
 20
278.469544
 30
0.0
 40
4.0
100
AcDbArc
 50
46.698421
 51
90.0
  0
LINE
  5
341
100
AcDbEntity
  8
0
370
    -3
390
0
  6
Continuous
100
AcDbLine
 10
186.951541
 20
278.474497
 30
0.0
 11
188.378392
 21
278.357314
 31
0.0
  0
LINE
  5
342
100
AcDbEntity
  8
0
370
    -3
390
0
  6
Continuous
100
AcDbLine
 10
185.570446
 20
278.822287
 30
0.0
 11
186.951541
 21
278.474497
 31
0.0
  0
LINE
  5
343
100
AcDbEntity
  8
0
370
    -3
390
0
  6
Continuous
100
AcDbLine
 10
184.279396
 20
279.389532
 30
0.0
 11
185.570446
 21
278.822287
 31
0.0
  0
LINE
  5
344
100
AcDbEntity
  8
0
370
    -3
390
0
  6
Continuous
100
AcDbLine
 10
183.119794
 20
280.158041
 30
0.0
 11
184.279396
 21
279.389532
 31
0.0
  0
LINE
  5
345
100
AcDbEntity
  8
0
370
    -3
390
0
  6
Continuous
100
AcDbLine
 10
182.128825
 20
281.103169
 30
0.0
 11
183.119794
 21
280.158041
 31
0.0
  0
ARC
  5
346
100
AcDbEntity
  8
0
370
    -3
390
0
  6
Continuous
100
AcDbCircle
 10
179.118174
 20
278.469544
 30
0.0
 40
4.0
100
AcDbArc
 50
41.178434
 51
90.0
  0
LINE
  5
347
100
AcDbEntity
  8
0
370
    -3
390
0
  6
Continuous
100
AcDbLine
 10
141.928392
 20
201.296982
 30
0.0
 11
141.928392
 21
282.899701
 31
0.0
  0
ARC
  5
348
100
AcDbEntity
  8
0
370
    -3
390
0
  6
Continuous
100
AcDbCircle
 10
153.328392
 20
277.469544
 30
0.0
 40
5.0
100
AcDbArc
 50
90.0
 51
180.0
  0
ARC
  5
349
100
AcDbEntity
  8
0
370
    -3
390
0
  6
Continuous
100
AcDbCircle
 10
152.928392
 20
281.679491
 30
0.0
 40
11.0
100
AcDbArc
 50
90.0
 51
180.0
  0
ARC
  5
34A
100
AcDbEntity
  8
0
370
    -3
390
0
  6
Continuous
100
AcDbCircle
 10
152.928392
 20
282.899701
 30
0.0
 40
11.0
100
AcDbArc
 50
90.0
 51
180.0
  0
LINE
  5
34B
100
AcDbEntity
  8
0
370
    -3
390
0
  6
Continuous
100
AcDbLine
 10
152.928392
 20
292.679491
 30
0.0
 11
188.378392
 21
292.679491
 31
0.0
  0
LINE
  5
34C
100
AcDbEntity
  8
0
370
    -3
390
0
  6
Continuous
100
AcDbLine
 10
152.928392
 20
293.899701
 30
0.0
 11
188.378392
 21
293.899701
 31
0.0
  0
LINE
  5
34D
100
AcDbEntity
  8
0
370
    -3
390
0
  6
Continuous
100
AcDbLine
 10
148.328392
 20
201.3918
 30
0.0
 11
148.328392
 21
277.469544
 31
0.0
  0
LINE
  5
34E
100
AcDbEntity
  8
0
370
    -3
390
0
  6
Continuous
100
AcDbLine
 10
188.378392
 20
196.3918
 30
0.0
 11
153.328392
 21
196.3918
 31
0.0
  0
ARC
  5
34F
100
AcDbEntity
  8
0
370
    -3
390
0
  6
Continuous
100
AcDbCircle
 10
153.328392
 20
201.3918
 30
0.0
 40
5.0
100
AcDbArc
 50
180.0
 51
270.0
  0
LINE
  5
350
100
AcDbEntity
  8
0
370
    -3
390
0
  6
Continuous
100
AcDbLine
 10
188.378392
 20
202.893589
 30
0.0
 11
153.328392
 21
202.893589
 31
0.0
  0
ARC
  5
351
100
AcDbEntity
  8
0
370
    -3
390
0
  6
Continuous
100
AcDbCircle
 10
153.328392
 20
207.893589
 30
0.0
 40
5.0
100
AcDbArc
 50
180.0
 51
270.0
  0
ARC
  5
352
100
AcDbEntity
  8
0
370
    -3
390
0
  6
Continuous
100
AcDbCircle
 10
152.928392
 20
201.296982
 30
0.0
 40
11.0
100
AcDbArc
 50
180.0
 51
270.0
  0
LINE
  5
353
100
AcDbEntity
  8
0
370
    -3
390
0
  6
Continuous
100
AcDbLine
 10
152.928392
 20
190.296982
 30
0.0
 11
188.378392
 21
190.296982
 31
0.0
  0
LINE
  5
354
100
AcDbEntity
  8
0
370
    -3
390
0
  6
Continuous
100
AcDbLine
 10
235.878392
 20
155.935809
 30
0.0
 11
235.878392
 21
154.649711
 31
0.0
  0
LINE
  5
355
100
AcDbEntity
  8
0
370
    -3
390
0
  6
Continuous
100
AcDbLine
 10
223.878392
 20
155.935809
 30
0.0
 11
223.878392
 21
154.649711
 31
0.0
  0
LINE
  5
356
100
AcDbEntity
  8
0
370
    -3
390
0
  6
Continuous
100
AcDbLine
 10
235.795648
 20
153.964682
 30
0.0
 11
235.878392
 21
154.649711
 31
0.0
  0
LINE
  5
357
100
AcDbEntity
  8
0
370
    -3
390
0
  6
Continuous
100
AcDbLine
 10
235.549699
 20
153.298546
 30
0.0
 11
235.795648
 21
153.964682
 31
0.0
  0
LINE
  5
358
100
AcDbEntity
  8
0
370
    -3
390
0
  6
Continuous
100
AcDbLine
 10
235.147328
 20
152.669678
 30
0.0
 11
235.549699
 21
153.298546
 31
0.0
  0
LINE
  5
359
100
AcDbEntity
  8
0
370
    -3
390
0
  6
Continuous
100
AcDbLine
 10
234.599633
 20
152.095421
 30
0.0
 11
235.147328
 21
152.669678
 31
0.0
  0
LINE
  5
35A
100
AcDbEntity
  8
0
370
    -3
390
0
  6
Continuous
100
AcDbLine
 10
233.92172
 20
151.591615
 30
0.0
 11
234.599633
 21
152.095421
 31
0.0
  0
LINE
  5
35B
100
AcDbEntity
  8
0
370
    -3
390
0
  6
Continuous
100
AcDbLine
 10
223.99368
 20
156.763507
 30
0.0
 11
223.878392
 21
155.935809
 31
0.0
  0
LINE
  5
35C
100
AcDbEntity
  8
0
370
    -3
390
0
  6
Continuous
100
AcDbLine
 10
224.335115
 20
157.559397
 30
0.0
 11
223.99368
 21
156.763507
 31
0.0
  0
LINE
  5
35D
100
AcDbEntity
  8
0
370
    -3
390
0
  6
Continuous
100
AcDbLine
 10
224.889574
 20
158.292893
 30
0.0
 11
224.335115
 21
157.559397
 31
0.0
  0
LINE
  5
35E
100
AcDbEntity
  8
0
370
    -3
390
0
  6
Continuous
100
AcDbLine
 10
225.635751
 20
158.935809
 30
0.0
 11
224.889574
 21
158.292893
 31
0.0
  0
LINE
  5
35F
100
AcDbEntity
  8
0
370
    -3
390
0
  6
Continuous
100
AcDbLine
 10
226.544971
 20
159.463435
 30
0.0
 11
225.635751
 21
158.935809
 31
0.0
  0
LINE
  5
360
100
AcDbEntity
  8
0
370
    -3
390
0
  6
Continuous
100
AcDbLine
 10
227.582291
 20
159.855497
 30
0.0
 11
226.544971
 21
159.463435
 31
0.0
  0
LINE
  5
361
100
AcDbEntity
  8
0
370
    -3
390
0
  6
Continuous
100
AcDbLine
 10
228.70785
 20
160.096928
 30
0.0
 11
227.582291
 21
159.855497
 31
0.0
  0
LINE
  5
362
100
AcDbEntity
  8
0
370
    -3
390
0
  6
Continuous
100
AcDbLine
 10
229.878392
 20
160.178449
 30
0.0
 11
228.70785
 21
160.096928
 31
0.0
  0
LINE
  5
363
100
AcDbEntity
  8
0
370
    -3
390
0
  6
Continuous
100
AcDbLine
 10
231.048934
 20
160.096928
 30
0.0
 11
229.878392
 21
160.178449
 31
0.0
  0
LINE
  5
364
100
AcDbEntity
  8
0
370
    -3
390
0
  6
Continuous
100
AcDbLine
 10
232.174493
 20
159.855497
 30
0.0
 11
231.048934
 21
160.096928
 31
0.0
  0
LINE
  5
365
100
AcDbEntity
  8
0
370
    -3
390
0
  6
Continuous
100
AcDbLine
 10
233.211813
 20
159.463435
 30
0.0
 11
232.174493
 21
159.855497
 31
0.0
  0
LINE
  5
366
100
AcDbEntity
  8
0
370
    -3
390
0
  6
Continuous
100
AcDbLine
 10
234.121033
 20
158.935809
 30
0.0
 11
233.211813
 21
159.463435
 31
0.0
  0
LINE
  5
367
100
AcDbEntity
  8
0
370
    -3
390
0
  6
Continuous
100
AcDbLine
 10
234.86721
 20
158.292893
 30
0.0
 11
234.121033
 21
158.935809
 31
0.0
  0
LINE
  5
368
100
AcDbEntity
  8
0
370
    -3
390
0
  6
Continuous
100
AcDbLine
 10
235.421669
 20
157.559397
 30
0.0
 11
234.86721
 21
158.292893
 31
0.0
  0
LINE
  5
369
100
AcDbEntity
  8
0
370
    -3
390
0
  6
Continuous
100
AcDbLine
 10
235.763104
 20
156.763507
 30
0.0
 11
235.421669
 21
157.559397
 31
0.0
  0
LINE
  5
36A
100
AcDbEntity
  8
0
370
    -3
390
0
  6
Continuous
100
AcDbLine
 10
235.878392
 20
155.935809
 30
0.0
 11
235.763104
 21
156.763507
 31
0.0
  0
LINE
  5
36B
100
AcDbEntity
  8
0
370
    -3
390
0
  6
Continuous
100
AcDbLine
 10
234.878392
 20
154.263315
 30
0.0
 11
234.878392
 21
153.980472
 31
0.0
  0
LINE
  5
36C
100
AcDbEntity
  8
0
370
    -3
390
0
  6
Continuous
100
AcDbLine
 10
224.878392
 20
154.263315
 30
0.0
 11
224.878392
 21
153.980472
 31
0.0
  0
LINE
  5
36D
100
AcDbEntity
  8
0
370
    -3
390
0
  6
Continuous
100
AcDbLine
 10
225.161704
 20
152.80726
 30
0.0
 11
225.562215
 21
152.19573
 31
0.0
  0
LINE
  5
36E
100
AcDbEntity
  8
0
370
    -3
390
0
  6
Continuous
100
AcDbLine
 10
224.932569
 20
153.461418
 30
0.0
 11
225.161704
 21
152.80726
 31
0.0
  0
LINE
  5
36F
100
AcDbEntity
  8
0
370
    -3
390
0
  6
Continuous
100
AcDbLine
 10
224.883135
 20
154.134436
 30
0.0
 11
224.932569
 21
153.461418
 31
0.0
  0
LINE
  5
370
100
AcDbEntity
  8
0
370
    -3
390
0
  6
Continuous
100
AcDbLine
 10
225.015199
 20
154.801859
 30
0.0
 11
224.883135
 21
154.134436
 31
0.0
  0
LINE
  5
371
100
AcDbEntity
  8
0
370
    -3
390
0
  6
Continuous
100
AcDbLine
 10
225.323961
 20
155.439438
 30
0.0
 11
225.015199
 21
154.801859
 31
0.0
  0
LINE
  5
372
100
AcDbEntity
  8
0
370
    -3
390
0
  6
Continuous
100
AcDbLine
 10
225.798204
 20
156.024007
 30
0.0
 11
225.323961
 21
155.439438
 31
0.0
  0
LINE
  5
373
100
AcDbEntity
  8
0
370
    -3
390
0
  6
Continuous
100
AcDbLine
 10
226.420697
 20
156.534327
 30
0.0
 11
225.798204
 21
156.024007
 31
0.0
  0
LINE
  5
374
100
AcDbEntity
  8
0
370
    -3
390
0
  6
Continuous
100
AcDbLine
 10
227.168821
 20
156.951854
 30
0.0
 11
226.420697
 21
156.534327
 31
0.0
  0
LINE
  5
375
100
AcDbEntity
  8
0
370
    -3
390
0
  6
Continuous
100
AcDbLine
 10
228.015394
 20
157.26142
 30
0.0
 11
227.168821
 21
156.951854
 31
0.0
  0
LINE
  5
376
100
AcDbEntity
  8
0
370
    -3
390
0
  6
Continuous
100
AcDbLine
 10
228.929657
 20
157.451776
 30
0.0
 11
228.015394
 21
157.26142
 31
0.0
  0
LINE
  5
377
100
AcDbEntity
  8
0
370
    -3
390
0
  6
Continuous
100
AcDbLine
 10
229.878392
 20
157.516006
 30
0.0
 11
228.929657
 21
157.451776
 31
0.0
  0
LINE
  5
378
100
AcDbEntity
  8
0
370
    -3
390
0
  6
Continuous
100
AcDbLine
 10
230.827127
 20
157.451776
 30
0.0
 11
229.878392
 21
157.516006
 31
0.0
  0
LINE
  5
379
100
AcDbEntity
  8
0
370
    -3
390
0
  6
Continuous
100
AcDbLine
 10
231.74139
 20
157.26142
 30
0.0
 11
230.827127
 21
157.451776
 31
0.0
  0
LINE
  5
37A
100
AcDbEntity
  8
0
370
    -3
390
0
  6
Continuous
100
AcDbLine
 10
232.587963
 20
156.951854
 30
0.0
 11
231.74139
 21
157.26142
 31
0.0
  0
LINE
  5
37B
100
AcDbEntity
  8
0
370
    -3
390
0
  6
Continuous
100
AcDbLine
 10
233.336087
 20
156.534327
 30
0.0
 11
232.587963
 21
156.951854
 31
0.0
  0
LINE
  5
37C
100
AcDbEntity
  8
0
370
    -3
390
0
  6
Continuous
100
AcDbLine
 10
233.95858
 20
156.024007
 30
0.0
 11
233.336087
 21
156.534327
 31
0.0
  0
LINE
  5
37D
100
AcDbEntity
  8
0
370
    -3
390
0
  6
Continuous
100
AcDbLine
 10
234.432823
 20
155.439438
 30
0.0
 11
233.95858
 21
156.024007
 31
0.0
  0
LINE
  5
37E
100
AcDbEntity
  8
0
370
    -3
390
0
  6
Continuous
100
AcDbLine
 10
234.741585
 20
154.801859
 30
0.0
 11
234.432823
 21
155.439438
 31
0.0
  0
LINE
  5
37F
100
AcDbEntity
  8
0
370
    -3
390
0
  6
Continuous
100
AcDbLine
 10
234.873649
 20
154.134436
 30
0.0
 11
234.741585
 21
154.801859
 31
0.0
  0
LINE
  5
380
100
AcDbEntity
  8
0
370
    -3
390
0
  6
Continuous
100
AcDbLine
 10
234.824215
 20
153.461418
 30
0.0
 11
234.873649
 21
154.134436
 31
0.0
  0
LINE
  5
381
100
AcDbEntity
  8
0
370
    -3
390
0
  6
Continuous
100
AcDbLine
 10
234.59508
 20
152.80726
 30
0.0
 11
234.824215
 21
153.461418
 31
0.0
  0
LINE
  5
382
100
AcDbEntity
  8
0
370
    -3
390
0
  6
Continuous
100
AcDbLine
 10
234.19457
 20
152.19573
 30
0.0
 11
234.59508
 21
152.80726
 31
0.0
  0
LINE
  5
383
100
AcDbEntity
  8
0
370
    -3
390
0
  6
Continuous
100
AcDbLine
 10
224.974466
 20
155.008243
 30
0.0
 11
224.878392
 21
154.263315
 31
0.0
  0
LINE
  5
384
100
AcDbEntity
  8
0
370
    -3
390
0
  6
Continuous
100
AcDbLine
 10
225.258994
 20
155.724545
 30
0.0
 11
224.974466
 21
155.008243
 31
0.0
  0
LINE
  5
385
100
AcDbEntity
  8
0
370
    -3
390
0
  6
Continuous
100
AcDbLine
 10
225.721044
 20
156.384691
 30
0.0
 11
225.258994
 21
155.724545
 31
0.0
  0
LINE
  5
386
100
AcDbEntity
  8
0
370
    -3
390
0
  6
Continuous
100
AcDbLine
 10
226.342858
 20
156.963315
 30
0.0
 11
225.721044
 21
156.384691
 31
0.0
  0
LINE
  5
387
100
AcDbEntity
  8
0
370
    -3
390
0
  6
Continuous
100
AcDbLine
 10
227.100541
 20
157.438179
 30
0.0
 11
226.342858
 21
156.963315
 31
0.0
  0
LINE
  5
388
100
AcDbEntity
  8
0
370
    -3
390
0
  6
Continuous
100
AcDbLine
 10
227.964975
 20
157.791035
 30
0.0
 11
227.100541
 21
157.438179
 31
0.0
  0
LINE
  5
389
100
AcDbEntity
  8
0
370
    -3
390
0
  6
Continuous
100
AcDbLine
 10
228.90294
 20
158.008323
 30
0.0
 11
227.964975
 21
157.791035
 31
0.0
  0
LINE
  5
38A
100
AcDbEntity
  8
0
370
    -3
390
0
  6
Continuous
100
AcDbLine
 10
229.878392
 20
158.081692
 30
0.0
 11
228.90294
 21
158.008323
 31
0.0
  0
LINE
  5
38B
100
AcDbEntity
  8
0
370
    -3
390
0
  6
Continuous
100
AcDbLine
 10
230.853844
 20
158.008323
 30
0.0
 11
229.878392
 21
158.081692
 31
0.0
  0
LINE
  5
38C
100
AcDbEntity
  8
0
370
    -3
390
0
  6
Continuous
100
AcDbLine
 10
231.791809
 20
157.791035
 30
0.0
 11
230.853844
 21
158.008323
 31
0.0
  0
LINE
  5
38D
100
AcDbEntity
  8
0
370
    -3
390
0
  6
Continuous
100
AcDbLine
 10
232.656243
 20
157.438179
 30
0.0
 11
231.791809
 21
157.791035
 31
0.0
  0
LINE
  5
38E
100
AcDbEntity
  8
0
370
    -3
390
0
  6
Continuous
100
AcDbLine
 10
233.413926
 20
156.963315
 30
0.0
 11
232.656243
 21
157.438179
 31
0.0
  0
LINE
  5
38F
100
AcDbEntity
  8
0
370
    -3
390
0
  6
Continuous
100
AcDbLine
 10
234.03574
 20
156.384691
 30
0.0
 11
233.413926
 21
156.963315
 31
0.0
  0
LINE
  5
390
100
AcDbEntity
  8
0
370
    -3
390
0
  6
Continuous
100
AcDbLine
 10
234.49779
 20
155.724545
 30
0.0
 11
234.03574
 21
156.384691
 31
0.0
  0
LINE
  5
391
100
AcDbEntity
  8
0
370
    -3
390
0
  6
Continuous
100
AcDbLine
 10
234.782318
 20
155.008243
 30
0.0
 11
234.49779
 21
155.724545
 31
0.0
  0
LINE
  5
392
100
AcDbEntity
  8
0
370
    -3
390
0
  6
Continuous
100
AcDbLine
 10
234.878392
 20
154.263315
 30
0.0
 11
234.782318
 21
155.008243
 31
0.0
  0
LINE
  5
393
100
AcDbEntity
  8
0
370
    -3
390
0
  6
Continuous
100
AcDbLine
 10
234.291926
 20
152.535669
 30
0.0
 11
234.378392
 21
153.29096
 31
0.0
  0
LINE
  5
394
100
AcDbEntity
  8
0
370
    -3
390
0
  6
Continuous
100
AcDbLine
 10
234.03585
 20
151.809404
 30
0.0
 11
234.291926
 21
152.535669
 31
0.0
  0
LINE
  5
395
100
AcDbEntity
  8
0
370
    -3
390
0
  6
Continuous
100
AcDbLine
 10
233.620005
 20
151.140074
 30
0.0
 11
234.03585
 21
151.809404
 31
0.0
  0
LINE
  5
396
100
AcDbEntity
  8
0
370
    -3
390
0
  6
Continuous
100
AcDbLine
 10
233.060373
 20
150.553401
 30
0.0
 11
233.620005
 21
151.140074
 31
0.0
  0
LINE
  5
397
100
AcDbEntity
  8
0
370
    -3
390
0
  6
Continuous
100
AcDbLine
 10
232.378458
 20
150.071931
 30
0.0
 11
233.060373
 21
150.553401
 31
0.0
  0
LINE
  5
398
100
AcDbEntity
  8
0
370
    -3
390
0
  6
Continuous
100
AcDbLine
 10
231.600467
 20
149.714167
 30
0.0
 11
232.378458
 21
150.071931
 31
0.0
  0
LINE
  5
399
100
AcDbEntity
  8
0
370
    -3
390
0
  6
Continuous
100
AcDbLine
 10
230.756298
 20
149.493857
 30
0.0
 11
231.600467
 21
149.714167
 31
0.0
  0
LINE
  5
39A
100
AcDbEntity
  8
0
370
    -3
390
0
  6
Continuous
100
AcDbLine
 10
229.878392
 20
149.419467
 30
0.0
 11
230.756298
 21
149.493857
 31
0.0
  0
LINE
  5
39B
100
AcDbEntity
  8
0
370
    -3
390
0
  6
Continuous
100
AcDbLine
 10
229.000486
 20
149.493857
 30
0.0
 11
229.878392
 21
149.419467
 31
0.0
  0
LINE
  5
39C
100
AcDbEntity
  8
0
370
    -3
390
0
  6
Continuous
100
AcDbLine
 10
228.156317
 20
149.714167
 30
0.0
 11
229.000486
 21
149.493857
 31
0.0
  0
LINE
  5
39D
100
AcDbEntity
  8
0
370
    -3
390
0
  6
Continuous
100
AcDbLine
 10
227.378326
 20
150.071931
 30
0.0
 11
228.156317
 21
149.714167
 31
0.0
  0
LINE
  5
39E
100
AcDbEntity
  8
0
370
    -3
390
0
  6
Continuous
100
AcDbLine
 10
226.696411
 20
150.553401
 30
0.0
 11
227.378326
 21
150.071931
 31
0.0
  0
LINE
  5
39F
100
AcDbEntity
  8
0
370
    -3
390
0
  6
Continuous
100
AcDbLine
 10
226.136779
 20
151.140074
 30
0.0
 11
226.696411
 21
150.553401
 31
0.0
  0
LINE
  5
3A0
100
AcDbEntity
  8
0
370
    -3
390
0
  6
Continuous
100
AcDbLine
 10
225.720934
 20
151.809404
 30
0.0
 11
226.136779
 21
151.140074
 31
0.0
  0
LINE
  5
3A1
100
AcDbEntity
  8
0
370
    -3
390
0
  6
Continuous
100
AcDbLine
 10
225.464858
 20
152.535669
 30
0.0
 11
225.720934
 21
151.809404
 31
0.0
  0
LINE
  5
3A2
100
AcDbEntity
  8
0
370
    -3
390
0
  6
Continuous
100
AcDbLine
 10
225.378392
 20
153.29096
 30
0.0
 11
225.464858
 21
152.535669
 31
0.0
  0
LINE
  5
3A3
100
AcDbEntity
  8
0
370
    -3
390
0
  6
Continuous
100
AcDbLine
 10
225.464858
 20
154.046251
 30
0.0
 11
225.378392
 21
153.29096
 31
0.0
  0
LINE
  5
3A4
100
AcDbEntity
  8
0
370
    -3
390
0
  6
Continuous
100
AcDbLine
 10
225.720934
 20
154.772516
 30
0.0
 11
225.464858
 21
154.046251
 31
0.0
  0
LINE
  5
3A5
100
AcDbEntity
  8
0
370
    -3
390
0
  6
Continuous
100
AcDbLine
 10
226.136779
 20
155.441846
 30
0.0
 11
225.720934
 21
154.772516
 31
0.0
  0
LINE
  5
3A6
100
AcDbEntity
  8
0
370
    -3
390
0
  6
Continuous
100
AcDbLine
 10
226.696411
 20
156.028519
 30
0.0
 11
226.136779
 21
155.441846
 31
0.0
  0
LINE
  5
3A7
100
AcDbEntity
  8
0
370
    -3
390
0
  6
Continuous
100
AcDbLine
 10
227.378326
 20
156.509989
 30
0.0
 11
226.696411
 21
156.028519
 31
0.0
  0
LINE
  5
3A8
100
AcDbEntity
  8
0
370
    -3
390
0
  6
Continuous
100
AcDbLine
 10
228.156317
 20
156.867753
 30
0.0
 11
227.378326
 21
156.509989
 31
0.0
  0
LINE
  5
3A9
100
AcDbEntity
  8
0
370
    -3
390
0
  6
Continuous
100
AcDbLine
 10
229.000486
 20
157.088063
 30
0.0
 11
228.156317
 21
156.867753
 31
0.0
  0
LINE
  5
3AA
100
AcDbEntity
  8
0
370
    -3
390
0
  6
Continuous
100
AcDbLine
 10
229.878392
 20
157.162453
 30
0.0
 11
229.000486
 21
157.088063
 31
0.0
  0
LINE
  5
3AB
100
AcDbEntity
  8
0
370
    -3
390
0
  6
Continuous
100
AcDbLine
 10
230.756298
 20
157.088063
 30
0.0
 11
229.878392
 21
157.162453
 31
0.0
  0
LINE
  5
3AC
100
AcDbEntity
  8
0
370
    -3
390
0
  6
Continuous
100
AcDbLine
 10
231.600467
 20
156.867753
 30
0.0
 11
230.756298
 21
157.088063
 31
0.0
  0
LINE
  5
3AD
100
AcDbEntity
  8
0
370
    -3
390
0
  6
Continuous
100
AcDbLine
 10
232.378458
 20
156.509989
 30
0.0
 11
231.600467
 21
156.867753
 31
0.0
  0
LINE
  5
3AE
100
AcDbEntity
  8
0
370
    -3
390
0
  6
Continuous
100
AcDbLine
 10
233.060373
 20
156.028519
 30
0.0
 11
232.378458
 21
156.509989
 31
0.0
  0
LINE
  5
3AF
100
AcDbEntity
  8
0
370
    -3
390
0
  6
Continuous
100
AcDbLine
 10
233.620005
 20
155.441846
 30
0.0
 11
233.060373
 21
156.028519
 31
0.0
  0
LINE
  5
3B0
100
AcDbEntity
  8
0
370
    -3
390
0
  6
Continuous
100
AcDbLine
 10
234.03585
 20
154.772516
 30
0.0
 11
233.620005
 21
155.441846
 31
0.0
  0
LINE
  5
3B1
100
AcDbEntity
  8
0
370
    -3
390
0
  6
Continuous
100
AcDbLine
 10
234.291926
 20
154.046251
 30
0.0
 11
234.03585
 21
154.772516
 31
0.0
  0
LINE
  5
3B2
100
AcDbEntity
  8
0
370
    -3
390
0
  6
Continuous
100
AcDbLine
 10
234.378392
 20
153.29096
 30
0.0
 11
234.291926
 21
154.046251
 31
0.0
  0
LINE
  5
3B3
100
AcDbEntity
  8
0
370
    -3
390
0
  6
Continuous
100
AcDbLine
 10
225.157151
 20
152.095421
 30
0.0
 11
225.835064
 21
151.591615
 31
0.0
  0
LINE
  5
3B4
100
AcDbEntity
  8
0
370
    -3
390
0
  6
Continuous
100
AcDbLine
 10
224.609456
 20
152.669678
 30
0.0
 11
225.157151
 21
152.095421
 31
0.0
  0
LINE
  5
3B5
100
AcDbEntity
  8
0
370
    -3
390
0
  6
Continuous
100
AcDbLine
 10
224.207085
 20
153.298546
 30
0.0
 11
224.609456
 21
152.669678
 31
0.0
  0
LINE
  5
3B6
100
AcDbEntity
  8
0
370
    -3
390
0
  6
Continuous
100
AcDbLine
 10
223.961136
 20
153.964682
 30
0.0
 11
224.207085
 21
153.298546
 31
0.0
  0
LINE
  5
3B7
100
AcDbEntity
  8
0
370
    -3
390
0
  6
Continuous
100
AcDbLine
 10
223.878392
 20
154.649711
 30
0.0
 11
223.961136
 21
153.964682
 31
0.0
  0
LINE
  5
3B8
100
AcDbEntity
  8
0
370
    -3
390
0
  6
Continuous
100
AcDbLine
 10
223.99368
 20
155.457207
 30
0.0
 11
223.878392
 21
154.649711
 31
0.0
  0
LINE
  5
3B9
100
AcDbEntity
  8
0
370
    -3
390
0
  6
Continuous
100
AcDbLine
 10
224.335115
 20
156.233671
 30
0.0
 11
223.99368
 21
155.457207
 31
0.0
  0
LINE
  5
3BA
100
AcDbEntity
  8
0
370
    -3
390
0
  6
Continuous
100
AcDbLine
 10
224.889574
 20
156.949265
 30
0.0
 11
224.335115
 21
156.233671
 31
0.0
  0
LINE
  5
3BB
100
AcDbEntity
  8
0
370
    -3
390
0
  6
Continuous
100
AcDbLine
 10
225.635751
 20
157.576488
 30
0.0
 11
224.889574
 21
156.949265
 31
0.0
  0
LINE
  5
3BC
100
AcDbEntity
  8
0
370
    -3
390
0
  6
Continuous
100
AcDbLine
 10
226.544971
 20
158.091237
 30
0.0
 11
225.635751
 21
157.576488
 31
0.0
  0
LINE
  5
3BD
100
AcDbEntity
  8
0
370
    -3
390
0
  6
Continuous
100
AcDbLine
 10
227.582291
 20
158.473729
 30
0.0
 11
226.544971
 21
158.091237
 31
0.0
  0
LINE
  5
3BE
100
AcDbEntity
  8
0
370
    -3
390
0
  6
Continuous
100
AcDbLine
 10
228.70785
 20
158.709267
 30
0.0
 11
227.582291
 21
158.473729
 31
0.0
  0
LINE
  5
3BF
100
AcDbEntity
  8
0
370
    -3
390
0
  6
Continuous
100
AcDbLine
 10
229.878392
 20
158.788798
 30
0.0
 11
228.70785
 21
158.709267
 31
0.0
  0
LINE
  5
3C0
100
AcDbEntity
  8
0
370
    -3
390
0
  6
Continuous
100
AcDbLine
 10
231.048934
 20
158.709267
 30
0.0
 11
229.878392
 21
158.788798
 31
0.0
  0
LINE
  5
3C1
100
AcDbEntity
  8
0
370
    -3
390
0
  6
Continuous
100
AcDbLine
 10
232.174493
 20
158.473729
 30
0.0
 11
231.048934
 21
158.709267
 31
0.0
  0
LINE
  5
3C2
100
AcDbEntity
  8
0
370
    -3
390
0
  6
Continuous
100
AcDbLine
 10
233.211813
 20
158.091237
 30
0.0
 11
232.174493
 21
158.473729
 31
0.0
  0
LINE
  5
3C3
100
AcDbEntity
  8
0
370
    -3
390
0
  6
Continuous
100
AcDbLine
 10
234.121033
 20
157.576488
 30
0.0
 11
233.211813
 21
158.091237
 31
0.0
  0
LINE
  5
3C4
100
AcDbEntity
  8
0
370
    -3
390
0
  6
Continuous
100
AcDbLine
 10
234.86721
 20
156.949265
 30
0.0
 11
234.121033
 21
157.576488
 31
0.0
  0
LINE
  5
3C5
100
AcDbEntity
  8
0
370
    -3
390
0
  6
Continuous
100
AcDbLine
 10
235.421669
 20
156.233671
 30
0.0
 11
234.86721
 21
156.949265
 31
0.0
  0
LINE
  5
3C6
100
AcDbEntity
  8
0
370
    -3
390
0
  6
Continuous
100
AcDbLine
 10
235.763104
 20
155.457207
 30
0.0
 11
235.421669
 21
156.233671
 31
0.0
  0
LINE
  5
3C7
100
AcDbEntity
  8
0
370
    -3
390
0
  6
Continuous
100
AcDbLine
 10
235.878392
 20
154.649711
 30
0.0
 11
235.763104
 21
155.457207
 31
0.0
  0
LINE
  5
3C8
100
AcDbEntity
  8
0
370
    -3
390
0
  6
Continuous
100
AcDbLine
 10
229.878392
 20
151.647019
 30
0.0
 11
231.878392
 21
150.351487
 31
0.0
  0
LINE
  5
3C9
100
AcDbEntity
  8
0
370
    -3
390
0
  6
Continuous
100
AcDbLine
 10
229.878392
 20
151.647019
 30
0.0
 11
231.878392
 21
153.179914
 31
0.0
  0
LINE
  5
3CA
100
AcDbEntity
  8
0
370
    -3
390
0
  6
Continuous
100
AcDbLine
 10
229.878392
 20
151.647019
 30
0.0
 11
227.878392
 21
153.179914
 31
0.0
  0
LINE
  5
3CB
100
AcDbEntity
  8
0
370
    -3
390
0
  6
Continuous
100
AcDbLine
 10
229.878392
 20
151.647019
 30
0.0
 11
227.878392
 21
150.351487
 31
0.0
  0
ARC
  5
3CC
100
AcDbEntity
  8
0
370
    -3
390
0
  6
Continuous
100
AcDbCircle
 10
348.378392
 20
315.68633
 30
0.0
 40
5.0
100
AcDbArc
 50
0.0
 51
60.0
  0
LINE
  5
3CD
100
AcDbEntity
  8
0
370
    -3
390
0
  6
Continuous
100
AcDbLine
 10
203.378392
 20
335.893589
 30
0.0
 11
307.033491
 21
335.893589
 31
0.0
  0
ARC
  5
3CE
100
AcDbEntity
  8
0
370
    -3
390
0
  6
Continuous
100
AcDbCircle
 10
307.033491
 20
274.893589
 30
0.0
 40
61.0
100
AcDbArc
 50
60.0
 51
90.0
  0
LINE
  5
3CF
100
AcDbEntity
  8
0
370
    -3
390
0
  6
Continuous
100
AcDbLine
 10
350.878392
 20
320.016457
 30
0.0
 11
337.533491
 21
327.721139
 31
0.0
  0
LINE
  5
3D0
100
AcDbEntity
  8
0
370
    -3
390
0
  6
Continuous
100
AcDbLine
 10
353.378392
 20
315.68633
 30
0.0
 11
353.378392
 21
232.893589
 31
0.0
  0
ARC
  5
3D1
100
AcDbEntity
  8
0
370
    -3
390
0
  6
Continuous
100
AcDbCircle
 10
348.378392
 20
150.100849
 30
0.0
 40
5.0
100
AcDbArc
 50
300.0
 51
0.0
  0
LINE
  5
3D2
100
AcDbEntity
  8
0
370
    -3
390
0
  6
Continuous
100
AcDbLine
 10
203.378392
 20
129.893589
 30
0.0
 11
307.033491
 21
129.893589
 31
0.0
  0
ARC
  5
3D3
100
AcDbEntity
  8
0
370
    -3
390
0
  6
Continuous
100
AcDbCircle
 10
307.033491
 20
190.893589
 30
0.0
 40
61.0
100
AcDbArc
 50
270.0
 51
300.0
  0
LINE
  5
3D4
100
AcDbEntity
  8
0
370
    -3
390
0
  6
Continuous
100
AcDbLine
 10
350.878392
 20
145.770722
 30
0.0
 11
337.533491
 21
138.06604
 31
0.0
  0
LINE
  5
3D5
100
AcDbEntity
  8
0
370
    -3
390
0
  6
Continuous
100
AcDbLine
 10
353.378392
 20
150.100849
 30
0.0
 11
353.378392
 21
232.893589
 31
0.0
  0
LINE
  5
3D6
100
AcDbEntity
  8
0
370
    -3
390
0
  6
DIVIDE
100
AcDbLine
 10
206.378392
 20
202.893589
 30
0.0
 11
212.378392
 21
202.893589
 31
0.0
  0
LINE
  5
3D7
100
AcDbEntity
  8
0
370
    -3
390
0
  6
Continuous
100
AcDbLine
 10
203.378392
 20
135.893589
 30
0.0
 11
3.378392
 21
135.893589
 31
0.0
  0
LINE
  5
3D8
100
AcDbEntity
  8
0
370
    -3
390
0
  6
Continuous
100
AcDbLine
 10
203.378392
 20
132.893589
 30
0.0
 11
3.378392
 21
132.893589
 31
0.0
  0
LINE
  5
3D9
100
AcDbEntity
  8
0
370
    -3
390
0
  6
Continuous
100
AcDbLine
 10
203.378392
 20
137.393589
 30
0.0
 11
3.378392
 21
137.393589
 31
0.0
  0
LINE
  5
3DA
100
AcDbEntity
  8
0
370
    -3
390
0
  6
Continuous
100
AcDbLine
 10
203.378392
 20
139.893589
 30
0.0
 11
3.378392
 21
139.893589
 31
0.0
  0
LINE
  5
3DB
100
AcDbEntity
  8
0
370
    -3
390
0
  6
Continuous
100
AcDbLine
 10
203.378392
 20
143.893589
 30
0.0
 11
3.378392
 21
143.893589
 31
0.0
  0
LINE
  5
3DC
100
AcDbEntity
  8
0
370
    -3
390
0
  6
Continuous
100
AcDbLine
 10
203.378392
 20
155.723866
 30
0.0
 11
3.378392
 21
155.723866
 31
0.0
  0
LINE
  5
3DD
100
AcDbEntity
  8
0
370
    -3
390
0
  6
Continuous
100
AcDbLine
 10
203.378392
 20
164.209147
 30
0.0
 11
3.378392
 21
164.209147
 31
0.0
  0
LINE
  5
3DE
100
AcDbEntity
  8
0
370
    -3
390
0
  6
Continuous
100
AcDbLine
 10
203.378392
 20
179.129017
 30
0.0
 11
3.378392
 21
179.129017
 31
0.0
  0
LINE
  5
3DF
100
AcDbEntity
  8
0
370
    -3
390
0
  6
Continuous
100
AcDbLine
 10
203.378392
 20
181.659928
 30
0.0
 11
3.378392
 21
181.659928
 31
0.0
  0
LINE
  5
3E0
100
AcDbEntity
  8
0
370
    -3
390
0
  6
Continuous
100
AcDbLine
 10
203.378392
 20
189.64134
 30
0.0
 11
3.378392
 21
189.64134
 31
0.0
  0
LINE
  5
3E1
100
AcDbEntity
  8
0
370
    -3
390
0
  6
Continuous
100
AcDbLine
 10
146.903841
 20
192.093461
 30
0.0
 11
3.378392
 21
192.093461
 31
0.0
  0
LINE
  5
3E2
100
AcDbEntity
  8
0
370
    -3
390
0
  6
Continuous
100
AcDbLine
 10
141.981073
 20
200.221713
 30
0.0
 11
3.378392
 21
200.221713
 31
0.0
  0
LINE
  5
3E3
100
AcDbEntity
  8
0
370
    -3
390
0
  6
Continuous
100
AcDbLine
 10
141.928392
 20
202.536812
 30
0.0
 11
3.378392
 21
202.536812
 31
0.0
  0
LINE
  5
3E4
100
AcDbEntity
  8
0
370
    -3
390
0
  6
Continuous
100
AcDbLine
 10
203.378392
 20
329.893589
 30
0.0
 11
3.378392
 21
329.893589
 31
0.0
  0
LINE
  5
3E5
100
AcDbEntity
  8
0
370
    -3
390
0
  6
Continuous
100
AcDbLine
 10
203.378392
 20
328.393589
 30
0.0
 11
3.378392
 21
328.393589
 31
0.0
  0
LINE
  5
3E6
100
AcDbEntity
  8
0
370
    -3
390
0
  6
Continuous
100
AcDbLine
 10
203.378392
 20
325.893589
 30
0.0
 11
3.378392
 21
325.893589
 31
0.0
  0
LINE
  5
3E7
100
AcDbEntity
  8
0
370
    -3
390
0
  6
Continuous
100
AcDbLine
 10
203.378392
 20
321.893589
 30
0.0
 11
3.378392
 21
321.893589
 31
0.0
  0
LINE
  5
3E8
100
AcDbEntity
  8
0
370
    -3
390
0
  6
Continuous
100
AcDbLine
 10
203.378392
 20
310.063312
 30
0.0
 11
3.378392
 21
310.063312
 31
0.0
  0
LINE
  5
3E9
100
AcDbEntity
  8
0
370
    -3
390
0
  6
Continuous
100
AcDbLine
 10
203.378392
 20
301.578031
 30
0.0
 11
3.378392
 21
301.578031
 31
0.0
  0
LINE
  5
3EA
100
AcDbEntity
  8
0
370
    -3
390
0
  6
Continuous
100
AcDbLine
 10
141.981073
 20
265.565465
 30
0.0
 11
3.378392
 21
265.565465
 31
0.0
  0
LINE
  5
3EB
100
AcDbEntity
  8
0
370
    -3
390
0
  6
Continuous
100
AcDbLine
 10
141.928392
 20
263.250366
 30
0.0
 11
3.378392
 21
263.250366
 31
0.0
  0
LINE
  5
3EC
100
AcDbEntity
  8
0
370
    -3
390
0
  6
Continuous
100
AcDbLine
 10
203.378392
 20
332.893589
 30
0.0
 11
3.378392
 21
332.893589
 31
0.0
  0
LINE
  5
3ED
100
AcDbEntity
  8
0
370
    -3
390
0
  6
Continuous
100
AcDbLine
 10
141.928392
 20
273.693717
 30
0.0
 11
3.378392
 21
273.693717
 31
0.0
  0
LINE
  5
3EE
100
AcDbEntity
  8
0
370
    -3
390
0
  6
Continuous
100
AcDbLine
 10
141.928392
 20
276.145838
 30
0.0
 11
3.378392
 21
276.145838
 31
0.0
  0
LINE
  5
3EF
100
AcDbEntity
  8
0
370
    -3
390
0
  6
Continuous
100
AcDbLine
 10
141.997101
 20
284.12725
 30
0.0
 11
3.378392
 21
284.12725
 31
0.0
  0
LINE
  5
3F0
100
AcDbEntity
  8
0
370
    -3
390
0
  6
Continuous
100
AcDbLine
 10
142.590405
 20
286.658162
 30
0.0
 11
3.378392
 21
286.658162
 31
0.0
  0
LINE
  5
3F1
100
AcDbEntity
  8
0
370
    -3
390
0
  6
Continuous
100
AcDbLine
 10
235.878392
 20
309.85137
 30
0.0
 11
235.878392
 21
311.137467
 31
0.0
  0
LINE
  5
3F2
100
AcDbEntity
  8
0
370
    -3
390
0
  6
Continuous
100
AcDbLine
 10
223.878392
 20
309.85137
 30
0.0
 11
223.878392
 21
311.137467
 31
0.0
  0
LINE
  5
3F3
100
AcDbEntity
  8
0
370
    -3
390
0
  6
Continuous
100
AcDbLine
 10
234.599633
 20
313.691757
 30
0.0
 11
233.92172
 21
314.195563
 31
0.0
  0
LINE
  5
3F4
100
AcDbEntity
  8
0
370
    -3
390
0
  6
Continuous
100
AcDbLine
 10
235.147328
 20
313.1175
 30
0.0
 11
234.599633
 21
313.691757
 31
0.0
  0
LINE
  5
3F5
100
AcDbEntity
  8
0
370
    -3
390
0
  6
Continuous
100
AcDbLine
 10
235.549699
 20
312.488632
 30
0.0
 11
235.147328
 21
313.1175
 31
0.0
  0
LINE
  5
3F6
100
AcDbEntity
  8
0
370
    -3
390
0
  6
Continuous
100
AcDbLine
 10
235.795648
 20
311.822497
 30
0.0
 11
235.549699
 21
312.488632
 31
0.0
  0
LINE
  5
3F7
100
AcDbEntity
  8
0
370
    -3
390
0
  6
Continuous
100
AcDbLine
 10
235.878392
 20
311.137467
 30
0.0
 11
235.795648
 21
311.822497
 31
0.0
  0
LINE
  5
3F8
100
AcDbEntity
  8
0
370
    -3
390
0
  6
Continuous
100
AcDbLine
 10
235.763104
 20
309.023672
 30
0.0
 11
235.878392
 21
309.85137
 31
0.0
  0
LINE
  5
3F9
100
AcDbEntity
  8
0
370
    -3
390
0
  6
Continuous
100
AcDbLine
 10
235.421669
 20
308.227781
 30
0.0
 11
235.763104
 21
309.023672
 31
0.0
  0
LINE
  5
3FA
100
AcDbEntity
  8
0
370
    -3
390
0
  6
Continuous
100
AcDbLine
 10
234.86721
 20
307.494285
 30
0.0
 11
235.421669
 21
308.227781
 31
0.0
  0
LINE
  5
3FB
100
AcDbEntity
  8
0
370
    -3
390
0
  6
Continuous
100
AcDbLine
 10
234.121033
 20
306.85137
 30
0.0
 11
234.86721
 21
307.494285
 31
0.0
  0
LINE
  5
3FC
100
AcDbEntity
  8
0
370
    -3
390
0
  6
Continuous
100
AcDbLine
 10
233.211813
 20
306.323743
 30
0.0
 11
234.121033
 21
306.85137
 31
0.0
  0
LINE
  5
3FD
100
AcDbEntity
  8
0
370
    -3
390
0
  6
Continuous
100
AcDbLine
 10
232.174493
 20
305.931681
 30
0.0
 11
233.211813
 21
306.323743
 31
0.0
  0
LINE
  5
3FE
100
AcDbEntity
  8
0
370
    -3
390
0
  6
Continuous
100
AcDbLine
 10
231.048934
 20
305.69025
 30
0.0
 11
232.174493
 21
305.931681
 31
0.0
  0
LINE
  5
3FF
100
AcDbEntity
  8
0
370
    -3
390
0
  6
Continuous
100
AcDbLine
 10
229.878392
 20
305.608729
 30
0.0
 11
231.048934
 21
305.69025
 31
0.0
  0
LINE
  5
400
100
AcDbEntity
  8
0
370
    -3
390
0
  6
Continuous
100
AcDbLine
 10
228.70785
 20
305.69025
 30
0.0
 11
229.878392
 21
305.608729
 31
0.0
  0
LINE
  5
401
100
AcDbEntity
  8
0
370
    -3
390
0
  6
Continuous
100
AcDbLine
 10
227.582291
 20
305.931681
 30
0.0
 11
228.70785
 21
305.69025
 31
0.0
  0
LINE
  5
402
100
AcDbEntity
  8
0
370
    -3
390
0
  6
Continuous
100
AcDbLine
 10
226.544971
 20
306.323743
 30
0.0
 11
227.582291
 21
305.931681
 31
0.0
  0
LINE
  5
403
100
AcDbEntity
  8
0
370
    -3
390
0
  6
Continuous
100
AcDbLine
 10
225.635751
 20
306.85137
 30
0.0
 11
226.544971
 21
306.323743
 31
0.0
  0
LINE
  5
404
100
AcDbEntity
  8
0
370
    -3
390
0
  6
Continuous
100
AcDbLine
 10
224.889574
 20
307.494285
 30
0.0
 11
225.635751
 21
306.85137
 31
0.0
  0
LINE
  5
405
100
AcDbEntity
  8
0
370
    -3
390
0
  6
Continuous
100
AcDbLine
 10
224.335115
 20
308.227781
 30
0.0
 11
224.889574
 21
307.494285
 31
0.0
  0
LINE
  5
406
100
AcDbEntity
  8
0
370
    -3
390
0
  6
Continuous
100
AcDbLine
 10
223.99368
 20
309.023672
 30
0.0
 11
224.335115
 21
308.227781
 31
0.0
  0
LINE
  5
407
100
AcDbEntity
  8
0
370
    -3
390
0
  6
Continuous
100
AcDbLine
 10
223.878392
 20
309.85137
 30
0.0
 11
223.99368
 21
309.023672
 31
0.0
  0
LINE
  5
408
100
AcDbEntity
  8
0
370
    -3
390
0
  6
Continuous
100
AcDbLine
 10
234.878392
 20
311.523863
 30
0.0
 11
234.878392
 21
311.806706
 31
0.0
  0
LINE
  5
409
100
AcDbEntity
  8
0
370
    -3
390
0
  6
Continuous
100
AcDbLine
 10
224.878392
 20
311.523863
 30
0.0
 11
224.878392
 21
311.806706
 31
0.0
  0
LINE
  5
40A
100
AcDbEntity
  8
0
370
    -3
390
0
  6
Continuous
100
AcDbLine
 10
234.59508
 20
312.979918
 30
0.0
 11
234.19457
 21
313.591449
 31
0.0
  0
LINE
  5
40B
100
AcDbEntity
  8
0
370
    -3
390
0
  6
Continuous
100
AcDbLine
 10
234.824215
 20
312.32576
 30
0.0
 11
234.59508
 21
312.979918
 31
0.0
  0
LINE
  5
40C
100
AcDbEntity
  8
0
370
    -3
390
0
  6
Continuous
100
AcDbLine
 10
234.873649
 20
311.652743
 30
0.0
 11
234.824215
 21
312.32576
 31
0.0
  0
LINE
  5
40D
100
AcDbEntity
  8
0
370
    -3
390
0
  6
Continuous
100
AcDbLine
 10
234.741585
 20
310.985319
 30
0.0
 11
234.873649
 21
311.652743
 31
0.0
  0
LINE
  5
40E
100
AcDbEntity
  8
0
370
    -3
390
0
  6
Continuous
100
AcDbLine
 10
234.432823
 20
310.34774
 30
0.0
 11
234.741585
 21
310.985319
 31
0.0
  0
LINE
  5
40F
100
AcDbEntity
  8
0
370
    -3
390
0
  6
Continuous
100
AcDbLine
 10
233.95858
 20
309.763171
 30
0.0
 11
234.432823
 21
310.34774
 31
0.0
  0
LINE
  5
410
100
AcDbEntity
  8
0
370
    -3
390
0
  6
Continuous
100
AcDbLine
 10
233.336087
 20
309.252852
 30
0.0
 11
233.95858
 21
309.763171
 31
0.0
  0
LINE
  5
411
100
AcDbEntity
  8
0
370
    -3
390
0
  6
Continuous
100
AcDbLine
 10
232.587963
 20
308.835324
 30
0.0
 11
233.336087
 21
309.252852
 31
0.0
  0
LINE
  5
412
100
AcDbEntity
  8
0
370
    -3
390
0
  6
Continuous
100
AcDbLine
 10
231.74139
 20
308.525758
 30
0.0
 11
232.587963
 21
308.835324
 31
0.0
  0
LINE
  5
413
100
AcDbEntity
  8
0
370
    -3
390
0
  6
Continuous
100
AcDbLine
 10
230.827127
 20
308.335402
 30
0.0
 11
231.74139
 21
308.525758
 31
0.0
  0
LINE
  5
414
100
AcDbEntity
  8
0
370
    -3
390
0
  6
Continuous
100
AcDbLine
 10
229.878392
 20
308.271172
 30
0.0
 11
230.827127
 21
308.335402
 31
0.0
  0
LINE
  5
415
100
AcDbEntity
  8
0
370
    -3
390
0
  6
Continuous
100
AcDbLine
 10
228.929657
 20
308.335402
 30
0.0
 11
229.878392
 21
308.271172
 31
0.0
  0
LINE
  5
416
100
AcDbEntity
  8
0
370
    -3
390
0
  6
Continuous
100
AcDbLine
 10
228.015394
 20
308.525758
 30
0.0
 11
228.929657
 21
308.335402
 31
0.0
  0
LINE
  5
417
100
AcDbEntity
  8
0
370
    -3
390
0
  6
Continuous
100
AcDbLine
 10
227.168821
 20
308.835324
 30
0.0
 11
228.015394
 21
308.525758
 31
0.0
  0
LINE
  5
418
100
AcDbEntity
  8
0
370
    -3
390
0
  6
Continuous
100
AcDbLine
 10
226.420697
 20
309.252852
 30
0.0
 11
227.168821
 21
308.835324
 31
0.0
  0
LINE
  5
419
100
AcDbEntity
  8
0
370
    -3
390
0
  6
Continuous
100
AcDbLine
 10
225.798204
 20
309.763171
 30
0.0
 11
226.420697
 21
309.252852
 31
0.0
  0
LINE
  5
41A
100
AcDbEntity
  8
0
370
    -3
390
0
  6
Continuous
100
AcDbLine
 10
225.323961
 20
310.34774
 30
0.0
 11
225.798204
 21
309.763171
 31
0.0
  0
LINE
  5
41B
100
AcDbEntity
  8
0
370
    -3
390
0
  6
Continuous
100
AcDbLine
 10
225.015199
 20
310.985319
 30
0.0
 11
225.323961
 21
310.34774
 31
0.0
  0
LINE
  5
41C
100
AcDbEntity
  8
0
370
    -3
390
0
  6
Continuous
100
AcDbLine
 10
224.883135
 20
311.652743
 30
0.0
 11
225.015199
 21
310.985319
 31
0.0
  0
LINE
  5
41D
100
AcDbEntity
  8
0
370
    -3
390
0
  6
Continuous
100
AcDbLine
 10
224.932569
 20
312.32576
 30
0.0
 11
224.883135
 21
311.652743
 31
0.0
  0
LINE
  5
41E
100
AcDbEntity
  8
0
370
    -3
390
0
  6
Continuous
100
AcDbLine
 10
225.161704
 20
312.979918
 30
0.0
 11
224.932569
 21
312.32576
 31
0.0
  0
LINE
  5
41F
100
AcDbEntity
  8
0
370
    -3
390
0
  6
Continuous
100
AcDbLine
 10
225.562215
 20
313.591449
 30
0.0
 11
225.161704
 21
312.979918
 31
0.0
  0
LINE
  5
420
100
AcDbEntity
  8
0
370
    -3
390
0
  6
Continuous
100
AcDbLine
 10
234.782318
 20
310.778935
 30
0.0
 11
234.878392
 21
311.523863
 31
0.0
  0
LINE
  5
421
100
AcDbEntity
  8
0
370
    -3
390
0
  6
Continuous
100
AcDbLine
 10
234.49779
 20
310.062634
 30
0.0
 11
234.782318
 21
310.778935
 31
0.0
  0
LINE
  5
422
100
AcDbEntity
  8
0
370
    -3
390
0
  6
Continuous
100
AcDbLine
 10
234.03574
 20
309.402487
 30
0.0
 11
234.49779
 21
310.062634
 31
0.0
  0
LINE
  5
423
100
AcDbEntity
  8
0
370
    -3
390
0
  6
Continuous
100
AcDbLine
 10
233.413926
 20
308.823863
 30
0.0
 11
234.03574
 21
309.402487
 31
0.0
  0
LINE
  5
424
100
AcDbEntity
  8
0
370
    -3
390
0
  6
Continuous
100
AcDbLine
 10
232.656243
 20
308.348999
 30
0.0
 11
233.413926
 21
308.823863
 31
0.0
  0
LINE
  5
425
100
AcDbEntity
  8
0
370
    -3
390
0
  6
Continuous
100
AcDbLine
 10
231.791809
 20
307.996143
 30
0.0
 11
232.656243
 21
308.348999
 31
0.0
  0
LINE
  5
426
100
AcDbEntity
  8
0
370
    -3
390
0
  6
Continuous
100
AcDbLine
 10
230.853844
 20
307.778856
 30
0.0
 11
231.791809
 21
307.996143
 31
0.0
  0
LINE
  5
427
100
AcDbEntity
  8
0
370
    -3
390
0
  6
Continuous
100
AcDbLine
 10
229.878392
 20
307.705487
 30
0.0
 11
230.853844
 21
307.778856
 31
0.0
  0
LINE
  5
428
100
AcDbEntity
  8
0
370
    -3
390
0
  6
Continuous
100
AcDbLine
 10
228.90294
 20
307.778856
 30
0.0
 11
229.878392
 21
307.705487
 31
0.0
  0
LINE
  5
429
100
AcDbEntity
  8
0
370
    -3
390
0
  6
Continuous
100
AcDbLine
 10
227.964975
 20
307.996143
 30
0.0
 11
228.90294
 21
307.778856
 31
0.0
  0
LINE
  5
42A
100
AcDbEntity
  8
0
370
    -3
390
0
  6
Continuous
100
AcDbLine
 10
227.100541
 20
308.348999
 30
0.0
 11
227.964975
 21
307.996143
 31
0.0
  0
LINE
  5
42B
100
AcDbEntity
  8
0
370
    -3
390
0
  6
Continuous
100
AcDbLine
 10
226.342858
 20
308.823863
 30
0.0
 11
227.100541
 21
308.348999
 31
0.0
  0
LINE
  5
42C
100
AcDbEntity
  8
0
370
    -3
390
0
  6
Continuous
100
AcDbLine
 10
225.721044
 20
309.402487
 30
0.0
 11
226.342858
 21
308.823863
 31
0.0
  0
LINE
  5
42D
100
AcDbEntity
  8
0
370
    -3
390
0
  6
Continuous
100
AcDbLine
 10
225.258994
 20
310.062634
 30
0.0
 11
225.721044
 21
309.402487
 31
0.0
  0
LINE
  5
42E
100
AcDbEntity
  8
0
370
    -3
390
0
  6
Continuous
100
AcDbLine
 10
224.974466
 20
310.778935
 30
0.0
 11
225.258994
 21
310.062634
 31
0.0
  0
LINE
  5
42F
100
AcDbEntity
  8
0
370
    -3
390
0
  6
Continuous
100
AcDbLine
 10
224.878392
 20
311.523863
 30
0.0
 11
224.974466
 21
310.778935
 31
0.0
  0
LINE
  5
430
100
AcDbEntity
  8
0
370
    -3
390
0
  6
Continuous
100
AcDbLine
 10
234.291926
 20
311.740928
 30
0.0
 11
234.378392
 21
312.496218
 31
0.0
  0
LINE
  5
431
100
AcDbEntity
  8
0
370
    -3
390
0
  6
Continuous
100
AcDbLine
 10
234.03585
 20
311.014662
 30
0.0
 11
234.291926
 21
311.740928
 31
0.0
  0
LINE
  5
432
100
AcDbEntity
  8
0
370
    -3
390
0
  6
Continuous
100
AcDbLine
 10
233.620005
 20
310.345332
 30
0.0
 11
234.03585
 21
311.014662
 31
0.0
  0
LINE
  5
433
100
AcDbEntity
  8
0
370
    -3
390
0
  6
Continuous
100
AcDbLine
 10
233.060373
 20
309.75866
 30
0.0
 11
233.620005
 21
310.345332
 31
0.0
  0
LINE
  5
434
100
AcDbEntity
  8
0
370
    -3
390
0
  6
Continuous
100
AcDbLine
 10
232.378458
 20
309.27719
 30
0.0
 11
233.060373
 21
309.75866
 31
0.0
  0
LINE
  5
435
100
AcDbEntity
  8
0
370
    -3
390
0
  6
Continuous
100
AcDbLine
 10
231.600467
 20
308.919425
 30
0.0
 11
232.378458
 21
309.27719
 31
0.0
  0
LINE
  5
436
100
AcDbEntity
  8
0
370
    -3
390
0
  6
Continuous
100
AcDbLine
 10
230.756298
 20
308.699115
 30
0.0
 11
231.600467
 21
308.919425
 31
0.0
  0
LINE
  5
437
100
AcDbEntity
  8
0
370
    -3
390
0
  6
Continuous
100
AcDbLine
 10
229.878392
 20
308.624726
 30
0.0
 11
230.756298
 21
308.699115
 31
0.0
  0
LINE
  5
438
100
AcDbEntity
  8
0
370
    -3
390
0
  6
Continuous
100
AcDbLine
 10
229.000486
 20
308.699115
 30
0.0
 11
229.878392
 21
308.624726
 31
0.0
  0
LINE
  5
439
100
AcDbEntity
  8
0
370
    -3
390
0
  6
Continuous
100
AcDbLine
 10
228.156317
 20
308.919425
 30
0.0
 11
229.000486
 21
308.699115
 31
0.0
  0
LINE
  5
43A
100
AcDbEntity
  8
0
370
    -3
390
0
  6
Continuous
100
AcDbLine
 10
227.378326
 20
309.27719
 30
0.0
 11
228.156317
 21
308.919425
 31
0.0
  0
LINE
  5
43B
100
AcDbEntity
  8
0
370
    -3
390
0
  6
Continuous
100
AcDbLine
 10
226.696411
 20
309.75866
 30
0.0
 11
227.378326
 21
309.27719
 31
0.0
  0
LINE
  5
43C
100
AcDbEntity
  8
0
370
    -3
390
0
  6
Continuous
100
AcDbLine
 10
226.136779
 20
310.345332
 30
0.0
 11
226.696411
 21
309.75866
 31
0.0
  0
LINE
  5
43D
100
AcDbEntity
  8
0
370
    -3
390
0
  6
Continuous
100
AcDbLine
 10
225.720934
 20
311.014662
 30
0.0
 11
226.136779
 21
310.345332
 31
0.0
  0
LINE
  5
43E
100
AcDbEntity
  8
0
370
    -3
390
0
  6
Continuous
100
AcDbLine
 10
225.464858
 20
311.740928
 30
0.0
 11
225.720934
 21
311.014662
 31
0.0
  0
LINE
  5
43F
100
AcDbEntity
  8
0
370
    -3
390
0
  6
Continuous
100
AcDbLine
 10
225.378392
 20
312.496218
 30
0.0
 11
225.464858
 21
311.740928
 31
0.0
  0
LINE
  5
440
100
AcDbEntity
  8
0
370
    -3
390
0
  6
Continuous
100
AcDbLine
 10
225.464858
 20
313.251509
 30
0.0
 11
225.378392
 21
312.496218
 31
0.0
  0
LINE
  5
441
100
AcDbEntity
  8
0
370
    -3
390
0
  6
Continuous
100
AcDbLine
 10
225.720934
 20
313.977774
 30
0.0
 11
225.464858
 21
313.251509
 31
0.0
  0
LINE
  5
442
100
AcDbEntity
  8
0
370
    -3
390
0
  6
Continuous
100
AcDbLine
 10
226.136779
 20
314.647104
 30
0.0
 11
225.720934
 21
313.977774
 31
0.0
  0
LINE
  5
443
100
AcDbEntity
  8
0
370
    -3
390
0
  6
Continuous
100
AcDbLine
 10
226.696411
 20
315.233777
 30
0.0
 11
226.136779
 21
314.647104
 31
0.0
  0
LINE
  5
444
100
AcDbEntity
  8
0
370
    -3
390
0
  6
Continuous
100
AcDbLine
 10
227.378326
 20
315.715247
 30
0.0
 11
226.696411
 21
315.233777
 31
0.0
  0
LINE
  5
445
100
AcDbEntity
  8
0
370
    -3
390
0
  6
Continuous
100
AcDbLine
 10
228.156317
 20
316.073011
 30
0.0
 11
227.378326
 21
315.715247
 31
0.0
  0
LINE
  5
446
100
AcDbEntity
  8
0
370
    -3
390
0
  6
Continuous
100
AcDbLine
 10
229.000486
 20
316.293321
 30
0.0
 11
228.156317
 21
316.073011
 31
0.0
  0
LINE
  5
447
100
AcDbEntity
  8
0
370
    -3
390
0
  6
Continuous
100
AcDbLine
 10
229.878392
 20
316.367711
 30
0.0
 11
229.000486
 21
316.293321
 31
0.0
  0
LINE
  5
448
100
AcDbEntity
  8
0
370
    -3
390
0
  6
Continuous
100
AcDbLine
 10
230.756298
 20
316.293321
 30
0.0
 11
229.878392
 21
316.367711
 31
0.0
  0
LINE
  5
449
100
AcDbEntity
  8
0
370
    -3
390
0
  6
Continuous
100
AcDbLine
 10
231.600467
 20
316.073011
 30
0.0
 11
230.756298
 21
316.293321
 31
0.0
  0
LINE
  5
44A
100
AcDbEntity
  8
0
370
    -3
390
0
  6
Continuous
100
AcDbLine
 10
232.378458
 20
315.715247
 30
0.0
 11
231.600467
 21
316.073011
 31
0.0
  0
LINE
  5
44B
100
AcDbEntity
  8
0
370
    -3
390
0
  6
Continuous
100
AcDbLine
 10
233.060373
 20
315.233777
 30
0.0
 11
232.378458
 21
315.715247
 31
0.0
  0
LINE
  5
44C
100
AcDbEntity
  8
0
370
    -3
390
0
  6
Continuous
100
AcDbLine
 10
233.620005
 20
314.647104
 30
0.0
 11
233.060373
 21
315.233777
 31
0.0
  0
LINE
  5
44D
100
AcDbEntity
  8
0
370
    -3
390
0
  6
Continuous
100
AcDbLine
 10
234.03585
 20
313.977774
 30
0.0
 11
233.620005
 21
314.647104
 31
0.0
  0
LINE
  5
44E
100
AcDbEntity
  8
0
370
    -3
390
0
  6
Continuous
100
AcDbLine
 10
234.291926
 20
313.251509
 30
0.0
 11
234.03585
 21
313.977774
 31
0.0
  0
LINE
  5
44F
100
AcDbEntity
  8
0
370
    -3
390
0
  6
Continuous
100
AcDbLine
 10
234.378392
 20
312.496218
 30
0.0
 11
234.291926
 21
313.251509
 31
0.0
  0
LINE
  5
450
100
AcDbEntity
  8
0
370
    -3
390
0
  6
Continuous
100
AcDbLine
 10
223.961136
 20
311.822497
 30
0.0
 11
223.878392
 21
311.137467
 31
0.0
  0
LINE
  5
451
100
AcDbEntity
  8
0
370
    -3
390
0
  6
Continuous
100
AcDbLine
 10
224.207085
 20
312.488632
 30
0.0
 11
223.961136
 21
311.822497
 31
0.0
  0
LINE
  5
452
100
AcDbEntity
  8
0
370
    -3
390
0
  6
Continuous
100
AcDbLine
 10
224.609456
 20
313.1175
 30
0.0
 11
224.207085
 21
312.488632
 31
0.0
  0
LINE
  5
453
100
AcDbEntity
  8
0
370
    -3
390
0
  6
Continuous
100
AcDbLine
 10
225.157151
 20
313.691757
 30
0.0
 11
224.609456
 21
313.1175
 31
0.0
  0
LINE
  5
454
100
AcDbEntity
  8
0
370
    -3
390
0
  6
Continuous
100
AcDbLine
 10
225.835064
 20
314.195563
 30
0.0
 11
225.157151
 21
313.691757
 31
0.0
  0
LINE
  5
455
100
AcDbEntity
  8
0
370
    -3
390
0
  6
Continuous
100
AcDbLine
 10
235.763104
 20
310.329971
 30
0.0
 11
235.878392
 21
311.137467
 31
0.0
  0
LINE
  5
456
100
AcDbEntity
  8
0
370
    -3
390
0
  6
Continuous
100
AcDbLine
 10
235.421669
 20
309.553507
 30
0.0
 11
235.763104
 21
310.329971
 31
0.0
  0
LINE
  5
457
100
AcDbEntity
  8
0
370
    -3
390
0
  6
Continuous
100
AcDbLine
 10
234.86721
 20
308.837913
 30
0.0
 11
235.421669
 21
309.553507
 31
0.0
  0
LINE
  5
458
100
AcDbEntity
  8
0
370
    -3
390
0
  6
Continuous
100
AcDbLine
 10
234.121033
 20
308.21069
 30
0.0
 11
234.86721
 21
308.837913
 31
0.0
  0
LINE
  5
459
100
AcDbEntity
  8
0
370
    -3
390
0
  6
Continuous
100
AcDbLine
 10
233.211813
 20
307.695942
 30
0.0
 11
234.121033
 21
308.21069
 31
0.0
  0
LINE
  5
45A
100
AcDbEntity
  8
0
370
    -3
390
0
  6
Continuous
100
AcDbLine
 10
232.174493
 20
307.313449
 30
0.0
 11
233.211813
 21
307.695942
 31
0.0
  0
LINE
  5
45B
100
AcDbEntity
  8
0
370
    -3
390
0
  6
Continuous
100
AcDbLine
 10
231.048934
 20
307.077911
 30
0.0
 11
232.174493
 21
307.313449
 31
0.0
  0
LINE
  5
45C
100
AcDbEntity
  8
0
370
    -3
390
0
  6
Continuous
100
AcDbLine
 10
229.878392
 20
306.99838
 30
0.0
 11
231.048934
 21
307.077911
 31
0.0
  0
LINE
  5
45D
100
AcDbEntity
  8
0
370
    -3
390
0
  6
Continuous
100
AcDbLine
 10
228.70785
 20
307.077911
 30
0.0
 11
229.878392
 21
306.99838
 31
0.0
  0
LINE
  5
45E
100
AcDbEntity
  8
0
370
    -3
390
0
  6
Continuous
100
AcDbLine
 10
227.582291
 20
307.313449
 30
0.0
 11
228.70785
 21
307.077911
 31
0.0
  0
LINE
  5
45F
100
AcDbEntity
  8
0
370
    -3
390
0
  6
Continuous
100
AcDbLine
 10
226.544971
 20
307.695942
 30
0.0
 11
227.582291
 21
307.313449
 31
0.0
  0
LINE
  5
460
100
AcDbEntity
  8
0
370
    -3
390
0
  6
Continuous
100
AcDbLine
 10
225.635751
 20
308.21069
 30
0.0
 11
226.544971
 21
307.695942
 31
0.0
  0
LINE
  5
461
100
AcDbEntity
  8
0
370
    -3
390
0
  6
Continuous
100
AcDbLine
 10
224.889574
 20
308.837913
 30
0.0
 11
225.635751
 21
308.21069
 31
0.0
  0
LINE
  5
462
100
AcDbEntity
  8
0
370
    -3
390
0
  6
Continuous
100
AcDbLine
 10
224.335115
 20
309.553507
 30
0.0
 11
224.889574
 21
308.837913
 31
0.0
  0
LINE
  5
463
100
AcDbEntity
  8
0
370
    -3
390
0
  6
Continuous
100
AcDbLine
 10
223.99368
 20
310.329971
 30
0.0
 11
224.335115
 21
309.553507
 31
0.0
  0
LINE
  5
464
100
AcDbEntity
  8
0
370
    -3
390
0
  6
Continuous
100
AcDbLine
 10
223.878392
 20
311.137467
 30
0.0
 11
223.99368
 21
310.329971
 31
0.0
  0
LINE
  5
465
100
AcDbEntity
  8
0
370
    -3
390
0
  6
Continuous
100
AcDbLine
 10
229.878392
 20
314.140159
 30
0.0
 11
231.878392
 21
315.435692
 31
0.0
  0
LINE
  5
466
100
AcDbEntity
  8
0
370
    -3
390
0
  6
Continuous
100
AcDbLine
 10
229.878392
 20
314.140159
 30
0.0
 11
231.878392
 21
312.607265
 31
0.0
  0
LINE
  5
467
100
AcDbEntity
  8
0
370
    -3
390
0
  6
Continuous
100
AcDbLine
 10
229.878392
 20
314.140159
 30
0.0
 11
227.878392
 21
312.607265
 31
0.0
  0
LINE
  5
468
100
AcDbEntity
  8
0
370
    -3
390
0
  6
Continuous
100
AcDbLine
 10
229.878392
 20
314.140159
 30
0.0
 11
227.878392
 21
315.435692
 31
0.0
  0
LINE
  5
469
100
AcDbEntity
  8
0
370
    -3
390
0
  6
Continuous
100
AcDbLine
 10
188.378392
 20
202.893589
 30
0.0
 11
223.428392
 21
202.893589
 31
0.0
  0
LINE
  5
46A
100
AcDbEntity
  8
0
370
    -3
390
0
  6
Continuous
100
AcDbLine
 10
203.378392
 20
190.296982
 30
0.0
 11
203.378392
 21
129.893589
 31
0.0
  0
LINE
  5
46B
100
AcDbEntity
  8
0
370
    -3
390
0
  6
Continuous
100
AcDbLine
 10
203.378392
 20
293.899701
 30
0.0
 11
203.378392
 21
335.893589
 31
0.0
  0
LINE
  5
46C
100
AcDbEntity
  8
0
370
    -3
390
0
  6
Continuous
100
AcDbLine
 10
141.928392
 20
208.893589
 30
0.0
 11
3.378392
 21
208.893589
 31
0.0
  0
LINE
  5
46D
100
AcDbEntity
  8
0
370
    -3
390
0
  6
Continuous
100
AcDbLine
 10
141.928392
 20
256.893589
 30
0.0
 11
3.378392
 21
256.893589
 31
0.0
  0
POINT
  5
46E
100
AcDbEntity
  8
0
370
    -3
390
0
  6
CENTER
100
AcDbPoint
 10
174.786699
 20
292.321666
 30
0.0
  0
POINT
  5
46F
100
AcDbEntity
  8
0
370
    -3
390
0
  6
CENTER
100
AcDbPoint
 10
201.786699
 20
292.321666
 30
0.0
  0
LINE
  5
470
100
AcDbEntity
  8
0
370
    -3
390
0
  6
Continuous
100
AcDbLine
 10
602.099723
 20
-38.917233
 30
0.0
 11
540.099723
 21
-38.917233
 31
0.0
  0
LINE
  5
471
100
AcDbEntity
  8
0
370
    -3
390
0
  6
Continuous
100
AcDbLine
 10
540.099723
 20
-38.917233
 30
0.0
 11
540.099723
 21
-37.917233
 31
0.0
  0
LINE
  5
472
100
AcDbEntity
  8
0
370
    -3
390
0
  6
Continuous
100
AcDbLine
 10
602.099723
 20
-38.917233
 30
0.0
 11
602.099723
 21
-37.917233
 31
0.0
  0
ARC
  5
473
100
AcDbEntity
  8
0
370
    -3
390
0
  6
Continuous
100
AcDbCircle
 10
553.920827
 20
-5.169522
 30
0.0
 40
15.0
100
AcDbArc
 50
91.682769
 51
170.681877
  0
ARC
  5
474
100
AcDbEntity
  8
0
370
    -3
390
0
  6
Continuous
100
AcDbCircle
 10
627.27663
 20
3.964375
 30
0.0
 40
9.0
100
AcDbArc
 50
97.398452
 51
130.601531
  0
ARC
  5
475
100
AcDbEntity
  8
0
370
    -3
390
0
  6
Continuous
100
AcDbCircle
 10
626.285111
 20
11.600271
 30
0.0
 40
1.299999
100
AcDbArc
 50
23.999982
 51
97.398452
  0
LINE
  5
476
100
AcDbEntity
  8
0
370
    -3
390
0
  6
CENTER
100
AcDbLine
 10
603.2172
 20
-13.917233
 30
0.0
 11
626.085709
 21
-13.917233
 31
0.0
  0
LINE
  5
477
100
AcDbEntity
  8
0
370
    -3
390
0
  6
Continuous
100
AcDbLine
 10
538.408118
 20
-37.917233
 30
0.0
 11
612.599723
 21
-37.917233
 31
0.0
  0
LINE
  5
478
100
AcDbEntity
  8
0
370
    -3
390
0
  6
Continuous
100
AcDbLine
 10
628.046206
 20
7.153066
 30
0.0
 11
629.612142
 21
3.635916
 31
0.0
  0
LINE
  5
479
100
AcDbEntity
  8
0
370
    -3
390
0
  6
Continuous
100
AcDbLine
 10
624.392024
 20
5.52612
 30
0.0
 11
625.95796
 21
2.00897
 31
0.0
  0
ARC
  5
47A
100
AcDbEntity
  8
0
370
    -3
390
0
  6
Continuous
100
AcDbCircle
 10
615.222358
 20
6.452781
 30
0.0
 40
2.0
100
AcDbArc
 50
24.0
 51
85.768662
  0
ARC
  5
47B
100
AcDbEntity
  8
0
370
    -3
390
0
  6
Continuous
100
AcDbCircle
 10
617.871961
 20
7.877454
 30
0.0
 40
1.0
100
AcDbArc
 50
204.0
 51
294.0
  0
LINE
  5
47C
100
AcDbEntity
  8
0
370
    -3
390
0
  6
Continuous
100
AcDbLine
 10
571.099723
 20
-14.041524
 30
0.0
 11
629.97208
 21
12.170138
 31
0.0
  0
ARC
  5
47D
100
AcDbEntity
  8
0
370
    -3
390
0
  6
Continuous
100
AcDbCircle
 10
630.378816
 20
11.256593
 30
0.0
 40
1.0
100
AcDbArc
 50
24.0
 51
114.0
  0
LINE
  5
47E
100
AcDbEntity
  8
0
370
    -3
390
0
  6
Continuous
100
AcDbLine
 10
631.292362
 20
11.663329
 30
0.0
 11
632.431224
 21
9.105402
 31
0.0
  0
LINE
  5
47F
100
AcDbEntity
  8
0
370
    -3
390
0
  6
Continuous
100
AcDbLine
 10
617.599723
 20
-32.917233
 30
0.0
 11
617.599723
 21
2.501992
 31
0.0
  0
ARC
  5
480
100
AcDbEntity
  8
0
370
    -3
390
0
  6
Continuous
100
AcDbCircle
 10
612.599723
 20
-32.917233
 30
0.0
 40
5.0
100
AcDbArc
 50
270.0
 51
0.0
  0
ARC
  5
481
100
AcDbEntity
  8
0
370
    -3
390
0
  6
Continuous
100
AcDbCircle
 10
620.502883
 20
9.048816
 30
0.0
 40
1.0
100
AcDbArc
 50
265.284875
 51
294.0
  0
ARC
  5
482
100
AcDbEntity
  8
0
370
    -3
390
0
  6
Continuous
100
AcDbCircle
 10
571.099723
 20
-589.917233
 30
0.0
 40
600.0
100
AcDbArc
 50
85.284875
 51
91.682769
  0
ARC
  5
483
100
AcDbEntity
  8
0
370
    -3
390
0
  6
Continuous
100
AcDbCircle
 10
622.26551
 20
9.810629
 30
0.0
 40
1.299999
100
AcDbArc
 50
130.601531
 51
204.000001
  0
LINE
  5
484
100
AcDbEntity
  8
0
370
    -3
390
0
  6
Continuous
100
AcDbLine
 10
621.476107
 20
8.387487
 30
0.0
 11
621.077901
 21
9.281871
 31
0.0
  0
LINE
  5
485
100
AcDbEntity
  8
0
370
    -3
390
0
  6
Continuous
100
AcDbLine
 10
627.870925
 20
11.234644
 30
0.0
 11
627.47272
 21
12.129028
 31
0.0
  0
LINE
  5
486
100
AcDbEntity
  8
0
370
    -3
390
0
  6
Continuous
100
AcDbLine
 10
621.476107
 20
8.387487
 30
0.0
 11
627.870925
 21
11.234644
 31
0.0
  0
LINE
  5
487
100
AcDbEntity
  8
0
370
    -3
390
0
  6
Continuous
100
AcDbLine
 10
621.476107
 20
8.387487
 30
0.0
 11
627.870925
 21
11.234644
 31
0.0
  0
POINT
  5
488
100
AcDbEntity
  8
0
370
    -3
390
0
  6
Continuous
100
AcDbPoint
 10
624.673516
 20
9.811066
 30
0.0
  0
LINE
  5
489
100
AcDbEntity
  8
0
370
    -3
390
0
  6
Continuous
100
AcDbLine
 10
626.420059
 20
1.831586
 30
0.0
 11
629.434759
 21
3.173817
 31
0.0
  0
LINE
  5
48A
100
AcDbEntity
  8
0
370
    -3
390
0
  6
Continuous
100
AcDbLine
 10
629.612142
 20
3.635916
 30
0.0
 11
629.434759
 21
3.173817
 31
0.0
  0
LINE
  5
48B
100
AcDbEntity
  8
0
370
    -3
390
0
  6
Continuous
100
AcDbLine
 10
625.95796
 20
2.00897
 30
0.0
 11
626.420059
 21
1.831586
 31
0.0
  0
LINE
  5
48C
100
AcDbEntity
  8
0
370
    -3
390
0
  6
Continuous
100
AcDbLine
 10
624.711765
 20
5.668477
 30
0.0
 11
626.420059
 21
1.831586
 31
0.0
  0
LINE
  5
48D
100
AcDbEntity
  8
0
370
    -3
390
0
  6
Continuous
100
AcDbLine
 10
627.726465
 20
7.010708
 30
0.0
 11
629.434759
 21
3.173817
 31
0.0
  0
LINE
  5
48E
100
AcDbEntity
  8
0
370
    -3
390
0
  6
Continuous
100
AcDbLine
 10
529.748715
 20
-36.611797
 30
0.0
 11
632.431224
 21
9.105402
 31
0.0
  0
ARC
  5
48F
100
AcDbEntity
  8
0
370
    -3
390
0
  6
Continuous
100
AcDbCircle
 10
538.408118
 20
-34.917233
 30
0.0
 40
3.0
100
AcDbArc
 50
204.0
 51
270.0
  0
LINE
  5
490
100
AcDbEntity
  8
0
370
    -3
390
0
  6
Continuous
100
AcDbLine
 10
534.864569
 20
-34.334072
 30
0.0
 11
535.667482
 21
-36.137443
 31
0.0
  0
LINE
  5
491
100
AcDbEntity
  8
0
370
    -3
390
0
  6
Continuous
100
AcDbLine
 10
528.609852
 20
-34.053869
 30
0.0
 11
529.748715
 21
-36.611797
 31
0.0
  0
LINE
  5
492
100
AcDbEntity
  8
0
370
    -3
390
0
  6
Continuous
100
AcDbLine
 10
534.85993
 20
-28.696419
 30
0.0
 11
539.118759
 21
-2.740782
 31
0.0
  0
ARC
  5
493
100
AcDbEntity
  8
0
370
    -3
390
0
  6
Continuous
100
AcDbCircle
 10
531.899516
 20
-28.210672
 30
0.0
 40
3.0
100
AcDbArc
 50
294.0
 51
350.681877
  0
LINE
  5
494
100
AcDbEntity
  8
0
370
    -3
390
0
  6
Continuous
100
AcDbLine
 10
529.116661
 20
-32.733587
 30
0.0
 11
571.099723
 21
-14.041524
 31
0.0
  0
LINE
  5
495
100
AcDbEntity
  8
0
370
    -3
390
0
  6
Continuous
100
AcDbLine
 10
532.443053
 20
-36.282636
 30
0.0
 11
532.755638
 21
-35.546232
 31
0.0
  0
LINE
  5
496
100
AcDbEntity
  8
0
370
    -3
390
0
  6
Continuous
100
AcDbLine
 10
532.441503
 20
-35.41289
 30
0.0
 11
532.755638
 21
-35.546232
 31
0.0
  0
LINE
  5
497
100
AcDbEntity
  8
0
370
    -3
390
0
  6
Continuous
100
AcDbLine
 10
531.442211
 20
-35.857804
 30
0.0
 11
532.443053
 21
-36.282636
 31
0.0
  0
ARC
  5
498
100
AcDbEntity
  8
0
370
    -3
390
0
  6
Continuous
100
AcDbCircle
 10
529.523398
 20
-33.647133
 30
0.0
 40
1.0
100
AcDbArc
 50
114.0
 51
204.0
  0
LINE
  5
499
100
AcDbEntity
  8
0
370
    -3
390
0
  6
Continuous
100
AcDbLine
 10
602.099723
 20
-40.517233
 30
0.0
 11
571.099723
 21
-40.517233
 31
0.0
  0
LINE
  5
49A
100
AcDbEntity
  8
0
370
    -3
390
0
  6
Continuous
100
AcDbLine
 10
602.099723
 20
-38.917233
 30
0.0
 11
602.099723
 21
-40.517233
 31
0.0
  0
ARC
  5
49B
100
AcDbEntity
  8
0
370
    -3
390
0
  6
Continuous
100
AcDbCircle
 10
597.699723
 20
-42.517233
 30
0.0
 40
2.0
100
AcDbArc
 50
90.0
 51
180.0
  0
LINE
  5
49C
100
AcDbEntity
  8
0
370
    -3
390
0
  6
Continuous
100
AcDbLine
 10
595.699723
 20
-42.517233
 30
0.0
 11
595.699723
 21
-44.588642
 31
0.0
  0
LINE
  5
49D
100
AcDbEntity
  8
0
370
    -3
390
0
  6
Continuous
100
AcDbLine
 10
546.499723
 20
-42.517233
 30
0.0
 11
546.499723
 21
-44.588642
 31
0.0
  0
LINE
  5
49E
100
AcDbEntity
  8
0
370
    -3
390
0
  6
Continuous
100
AcDbLine
 10
540.099723
 20
-40.517233
 30
0.0
 11
571.099723
 21
-40.517233
 31
0.0
  0
LINE
  5
49F
100
AcDbEntity
  8
0
370
    -3
390
0
  6
Continuous
100
AcDbLine
 10
540.099723
 20
-38.917233
 30
0.0
 11
540.099723
 21
-40.517233
 31
0.0
  0
ARC
  5
4A0
100
AcDbEntity
  8
0
370
    -3
390
0
  6
Continuous
100
AcDbCircle
 10
544.499723
 20
-42.517233
 30
0.0
 40
2.0
100
AcDbArc
 50
0.0
 51
90.0
  0
LINE
  5
4A1
100
AcDbEntity
  8
0
370
    -3
390
0
  6
Continuous
100
AcDbLine
 10
496.641379
 20
-229.153751
 30
0.0
 11
488.863205
 21
-221.375577
 31
0.0
  0
LINE
  5
4A2
100
AcDbEntity
  8
0
370
    -3
390
0
  6
Continuous
100
AcDbLine
 10
488.651072
 20
-222.294816
 30
0.0
 11
489.216758
 21
-221.72913
 31
0.0
  0
LINE
  5
4A3
100
AcDbEntity
  8
0
370
    -3
390
0
  6
Continuous
100
AcDbLine
 10
488.651072
 20
-222.294816
 30
0.0
 11
495.72214
 21
-229.365884
 31
0.0
  0
ARC
  5
4A4
100
AcDbEntity
  8
0
370
    -3
390
0
  6
Continuous
100
AcDbCircle
 10
489.225601
 20
-224.690135
 30
0.0
 40
1.599999
100
AcDbArc
 50
134.999982
 51
208.808591
  0
LINE
  5
4A5
100
AcDbEntity
  8
0
370
    -3
390
0
  6
Continuous
100
AcDbLine
 10
489.004626
 20
-222.648369
 30
0.0
 11
488.09423
 21
-223.558765
 31
0.0
  0
ARC
  5
4A6
100
AcDbEntity
  8
0
370
    -3
390
0
  6
Continuous
100
AcDbCircle
 10
489.216758
 20
-221.022023
 30
0.0
 40
0.5
100
AcDbArc
 50
135.0
 51
225.0
  0
LINE
  5
4A7
100
AcDbEntity
  8
0
370
    -3
390
0
  6
Continuous
100
AcDbLine
 10
495.368587
 20
-229.01233
 30
0.0
 11
489.004626
 21
-222.648369
 31
0.0
  0
ARC
  5
4A8
100
AcDbEntity
  8
0
370
    -3
390
0
  6
Continuous
100
AcDbCircle
 10
498.338435
 20
-219.678521
 30
0.0
 40
12.0
100
AcDbArc
 50
208.808645
 51
241.191337
  0
LINE
  5
4A9
100
AcDbEntity
  8
0
370
    -3
390
0
  6
Continuous
100
AcDbLine
 10
495.368587
 20
-229.01233
 30
0.0
 11
494.458191
 21
-229.922726
 31
0.0
  0
ARC
  5
4AA
100
AcDbEntity
  8
0
370
    -3
390
0
  6
Continuous
100
AcDbCircle
 10
493.326821
 20
-228.791355
 30
0.0
 40
1.599999
100
AcDbArc
 50
241.191283
 51
315.000001
  0
LINE
  5
4AB
100
AcDbEntity
  8
0
370
    -3
390
0
  6
Continuous
100
AcDbLine
 10
498.384583
 20
-228.117654
 30
0.0
 11
497.348486
 21
-229.153751
 31
0.0
  0
ARC
  5
4AC
100
AcDbEntity
  8
0
370
    -3
390
0
  6
Continuous
100
AcDbCircle
 10
496.994933
 20
-228.800198
 30
0.0
 40
0.5
100
AcDbArc
 50
225.0
 51
315.0
  0
LINE
  5
4AD
100
AcDbEntity
  8
0
370
    -3
390
0
  6
Continuous
100
AcDbLine
 10
496.287826
 20
-228.800198
 30
0.0
 11
495.72214
 21
-229.365884
 31
0.0
  0
LINE
  5
4AE
100
AcDbEntity
  8
0
370
    -3
390
0
  6
Continuous
100
AcDbLine
 10
489.899302
 20
-219.632373
 30
0.0
 11
488.863205
 21
-220.66847
 31
0.0
  0
LINE
  5
4AF
100
AcDbEntity
  8
0
370
    -3
390
0
  6
Continuous
100
AcDbLine
 10
645.558067
 20
-229.153751
 30
0.0
 11
653.336242
 21
-221.375577
 31
0.0
  0
LINE
  5
4B0
100
AcDbEntity
  8
0
370
    -3
390
0
  6
Continuous
100
AcDbLine
 10
653.548374
 20
-222.294816
 30
0.0
 11
652.982689
 21
-221.72913
 31
0.0
  0
LINE
  5
4B1
100
AcDbEntity
  8
0
370
    -3
390
0
  6
Continuous
100
AcDbLine
 10
653.548374
 20
-222.294816
 30
0.0
 11
646.477306
 21
-229.365884
 31
0.0
  0
ARC
  5
4B2
100
AcDbEntity
  8
0
370
    -3
390
0
  6
Continuous
100
AcDbCircle
 10
652.973846
 20
-224.690135
 30
0.0
 40
1.599999
100
AcDbArc
 50
331.191409
 51
45.000018
  0
LINE
  5
4B3
100
AcDbEntity
  8
0
370
    -3
390
0
  6
Continuous
100
AcDbLine
 10
653.194821
 20
-222.648369
 30
0.0
 11
654.105216
 21
-223.558765
 31
0.0
  0
ARC
  5
4B4
100
AcDbEntity
  8
0
370
    -3
390
0
  6
Continuous
100
AcDbCircle
 10
652.982689
 20
-221.022023
 30
0.0
 40
0.5
100
AcDbArc
 50
315.0
 51
45.0
  0
LINE
  5
4B5
100
AcDbEntity
  8
0
370
    -3
390
0
  6
Continuous
100
AcDbLine
 10
646.83086
 20
-229.01233
 30
0.0
 11
653.194821
 21
-222.648369
 31
0.0
  0
ARC
  5
4B6
100
AcDbEntity
  8
0
370
    -3
390
0
  6
Continuous
100
AcDbCircle
 10
643.861012
 20
-219.678521
 30
0.0
 40
12.0
100
AcDbArc
 50
298.808663
 51
331.191355
  0
LINE
  5
4B7
100
AcDbEntity
  8
0
370
    -3
390
0
  6
Continuous
100
AcDbLine
 10
646.83086
 20
-229.01233
 30
0.0
 11
647.741255
 21
-229.922726
 31
0.0
  0
ARC
  5
4B8
100
AcDbEntity
  8
0
370
    -3
390
0
  6
Continuous
100
AcDbCircle
 10
648.872626
 20
-228.791355
 30
0.0
 40
1.599999
100
AcDbArc
 50
224.999999
 51
298.808717
  0
LINE
  5
4B9
100
AcDbEntity
  8
0
370
    -3
390
0
  6
Continuous
100
AcDbLine
 10
643.814863
 20
-228.117654
 30
0.0
 11
644.850961
 21
-229.153751
 31
0.0
  0
ARC
  5
4BA
100
AcDbEntity
  8
0
370
    -3
390
0
  6
Continuous
100
AcDbCircle
 10
645.204514
 20
-228.800198
 30
0.0
 40
0.5
100
AcDbArc
 50
225.0
 51
315.0
  0
LINE
  5
4BB
100
AcDbEntity
  8
0
370
    -3
390
0
  6
Continuous
100
AcDbLine
 10
645.911621
 20
-228.800198
 30
0.0
 11
646.477306
 21
-229.365884
 31
0.0
  0
LINE
  5
4BC
100
AcDbEntity
  8
0
370
    -3
390
0
  6
Continuous
100
AcDbLine
 10
652.300145
 20
-219.632373
 30
0.0
 11
653.336242
 21
-220.66847
 31
0.0
  0
LINE
  5
4BD
100
AcDbEntity
  8
0
370
    -3
390
0
  6
Continuous
100
AcDbLine
 10
645.558067
 20
-64.680714
 30
0.0
 11
653.336242
 21
-72.458889
 31
0.0
  0
LINE
  5
4BE
100
AcDbEntity
  8
0
370
    -3
390
0
  6
Continuous
100
AcDbLine
 10
653.548374
 20
-71.53965
 30
0.0
 11
652.982689
 21
-72.105335
 31
0.0
  0
LINE
  5
4BF
100
AcDbEntity
  8
0
370
    -3
390
0
  6
Continuous
100
AcDbLine
 10
653.548374
 20
-71.53965
 30
0.0
 11
646.477306
 21
-64.468582
 31
0.0
  0
ARC
  5
4C0
100
AcDbEntity
  8
0
370
    -3
390
0
  6
Continuous
100
AcDbCircle
 10
652.973846
 20
-69.14433
 30
0.0
 40
1.599999
100
AcDbArc
 50
314.999982
 51
28.808591
  0
LINE
  5
4C1
100
AcDbEntity
  8
0
370
    -3
390
0
  6
Continuous
100
AcDbLine
 10
653.194821
 20
-71.186096
 30
0.0
 11
654.105216
 21
-70.275701
 31
0.0
  0
ARC
  5
4C2
100
AcDbEntity
  8
0
370
    -3
390
0
  6
Continuous
100
AcDbCircle
 10
652.982689
 20
-72.812442
 30
0.0
 40
0.5
100
AcDbArc
 50
315.0
 51
45.0
  0
LINE
  5
4C3
100
AcDbEntity
  8
0
370
    -3
390
0
  6
Continuous
100
AcDbLine
 10
646.83086
 20
-64.822135
 30
0.0
 11
653.194821
 21
-71.186096
 31
0.0
  0
ARC
  5
4C4
100
AcDbEntity
  8
0
370
    -3
390
0
  6
Continuous
100
AcDbCircle
 10
643.861012
 20
-74.155944
 30
0.0
 40
12.0
100
AcDbArc
 50
28.808645
 51
61.191337
  0
LINE
  5
4C5
100
AcDbEntity
  8
0
370
    -3
390
0
  6
Continuous
100
AcDbLine
 10
646.83086
 20
-64.822135
 30
0.0
 11
647.741255
 21
-63.91174
 31
0.0
  0
ARC
  5
4C6
100
AcDbEntity
  8
0
370
    -3
390
0
  6
Continuous
100
AcDbCircle
 10
648.872626
 20
-65.04311
 30
0.0
 40
1.599999
100
AcDbArc
 50
61.191283
 51
135.000001
  0
LINE
  5
4C7
100
AcDbEntity
  8
0
370
    -3
390
0
  6
Continuous
100
AcDbLine
 10
643.814863
 20
-65.716811
 30
0.0
 11
644.850961
 21
-64.680714
 31
0.0
  0
ARC
  5
4C8
100
AcDbEntity
  8
0
370
    -3
390
0
  6
Continuous
100
AcDbCircle
 10
645.204514
 20
-65.034268
 30
0.0
 40
0.5
100
AcDbArc
 50
45.0
 51
135.0
  0
LINE
  5
4C9
100
AcDbEntity
  8
0
370
    -3
390
0
  6
Continuous
100
AcDbLine
 10
645.911621
 20
-65.034268
 30
0.0
 11
646.477306
 21
-64.468582
 31
0.0
  0
LINE
  5
4CA
100
AcDbEntity
  8
0
370
    -3
390
0
  6
Continuous
100
AcDbLine
 10
652.300145
 20
-74.202093
 30
0.0
 11
653.336242
 21
-73.165995
 31
0.0
  0
ARC
  5
4CB
100
AcDbEntity
  8
0
370
    -3
390
0
  6
Continuous
100
AcDbCircle
 10
498.338435
 20
-74.155944
 30
0.0
 40
12.0
100
AcDbArc
 50
118.808663
 51
151.191355
  0
LINE
  5
4CC
100
AcDbEntity
  8
0
370
    -3
390
0
  6
Continuous
100
AcDbLine
 10
496.641379
 20
-64.680714
 30
0.0
 11
488.863205
 21
-72.458889
 31
0.0
  0
LINE
  5
4CD
100
AcDbEntity
  8
0
370
    -3
390
0
  6
Continuous
100
AcDbLine
 10
488.651072
 20
-71.53965
 30
0.0
 11
489.216758
 21
-72.105335
 31
0.0
  0
LINE
  5
4CE
100
AcDbEntity
  8
0
370
    -3
390
0
  6
Continuous
100
AcDbLine
 10
488.651072
 20
-71.53965
 30
0.0
 11
495.72214
 21
-64.468582
 31
0.0
  0
ARC
  5
4CF
100
AcDbEntity
  8
0
370
    -3
390
0
  6
Continuous
100
AcDbCircle
 10
489.225601
 20
-69.14433
 30
0.0
 40
1.599999
100
AcDbArc
 50
151.191409
 51
225.000018
  0
LINE
  5
4D0
100
AcDbEntity
  8
0
370
    -3
390
0
  6
Continuous
100
AcDbLine
 10
489.004626
 20
-71.186096
 30
0.0
 11
488.09423
 21
-70.275701
 31
0.0
  0
LINE
  5
4D1
100
AcDbEntity
  8
0
370
    -3
390
0
  6
Continuous
100
AcDbLine
 10
489.899302
 20
-74.202093
 30
0.0
 11
488.863205
 21
-73.165995
 31
0.0
  0
ARC
  5
4D2
100
AcDbEntity
  8
0
370
    -3
390
0
  6
Continuous
100
AcDbCircle
 10
489.216758
 20
-72.812442
 30
0.0
 40
0.5
100
AcDbArc
 50
135.0
 51
225.0
  0
LINE
  5
4D3
100
AcDbEntity
  8
0
370
    -3
390
0
  6
Continuous
100
AcDbLine
 10
498.384583
 20
-65.716811
 30
0.0
 11
497.348486
 21
-64.680714
 31
0.0
  0
ARC
  5
4D4
100
AcDbEntity
  8
0
370
    -3
390
0
  6
Continuous
100
AcDbCircle
 10
496.994933
 20
-65.034268
 30
0.0
 40
0.5
100
AcDbArc
 50
45.0
 51
135.0
  0
LINE
  5
4D5
100
AcDbEntity
  8
0
370
    -3
390
0
  6
Continuous
100
AcDbLine
 10
496.287826
 20
-65.034268
 30
0.0
 11
495.72214
 21
-64.468582
 31
0.0
  0
LINE
  5
4D6
100
AcDbEntity
  8
0
370
    -3
390
0
  6
Continuous
100
AcDbLine
 10
495.368587
 20
-64.822135
 30
0.0
 11
494.458191
 21
-63.91174
 31
0.0
  0
LINE
  5
4D7
100
AcDbEntity
  8
0
370
    -3
390
0
  6
Continuous
100
AcDbLine
 10
495.368587
 20
-64.822135
 30
0.0
 11
489.004626
 21
-71.186096
 31
0.0
  0
ARC
  5
4D8
100
AcDbEntity
  8
0
370
    -3
390
0
  6
Continuous
100
AcDbCircle
 10
493.326821
 20
-65.04311
 30
0.0
 40
1.599999
100
AcDbArc
 50
44.999999
 51
118.808717
  0
ARC
  5
4D9
100
AcDbEntity
  8
0
370
    -3
390
0
  6
Continuous
100
AcDbCircle
 10
539.703172
 20
-125.510305
 30
0.0
 40
71.0
100
AcDbArc
 50
145.712889
 51
176.770589
  0
LINE
  5
4DA
100
AcDbEntity
  8
0
370
    -3
390
0
  6
Continuous
100
AcDbLine
 10
597.871549
 20
-108.547071
 30
0.0
 11
595.853494
 21
-112.042445
 31
0.0
  0
ARC
  5
4DB
100
AcDbEntity
  8
0
370
    -3
390
0
  6
Continuous
100
AcDbCircle
 10
540.769895
 20
-84.384429
 30
0.0
 40
2.0
100
AcDbArc
 50
210.0
 51
295.874437
  0
ARC
  5
4DC
100
AcDbEntity
  8
0
370
    -3
390
0
  6
Continuous
100
AcDbCircle
 10
600.523832
 20
-83.953181
 30
0.0
 40
2.0
100
AcDbArc
 50
244.952563
 51
330.0
  0
ARC
  5
4DD
100
AcDbEntity
  8
0
370
    -3
390
0
  6
Continuous
100
AcDbCircle
 10
610.916137
 20
-89.953181
 30
0.0
 40
2.0
100
AcDbArc
 50
150.0
 51
235.047437
  0
ARC
  5
4DE
100
AcDbEntity
  8
0
370
    -3
390
0
  6
Continuous
100
AcDbCircle
 10
640.419634
 20
-141.917233
 30
0.0
 40
2.0
100
AcDbArc
 50
184.125563
 51
270.0
  0
ARC
  5
4DF
100
AcDbEntity
  8
0
370
    -3
390
0
  6
Continuous
100
AcDbCircle
 10
640.419634
 20
-151.917233
 30
0.0
 40
2.0
100
AcDbArc
 50
90.0
 51
175.874437
  0
ARC
  5
4E0
100
AcDbEntity
  8
0
370
    -3
390
0
  6
Continuous
100
AcDbCircle
 10
610.916137
 20
-203.881285
 30
0.0
 40
2.0
100
AcDbArc
 50
124.952563
 51
210.0
  0
ARC
  5
4E1
100
AcDbEntity
  8
0
370
    -3
390
0
  6
Continuous
100
AcDbCircle
 10
600.523832
 20
-209.881285
 30
0.0
 40
2.0
100
AcDbArc
 50
30.0
 51
115.047437
  0
ARC
  5
4E2
100
AcDbEntity
  8
0
370
    -3
390
0
  6
Continuous
100
AcDbCircle
 10
540.769895
 20
-209.450036
 30
0.0
 40
2.0
100
AcDbArc
 50
64.125563
 51
150.0
  0
ARC
  5
4E3
100
AcDbEntity
  8
0
370
    -3
390
0
  6
Continuous
100
AcDbCircle
 10
532.109641
 20
-204.450036
 30
0.0
 40
2.0
100
AcDbArc
 50
330.0
 51
55.874437
  0
ARC
  5
4E4
100
AcDbEntity
  8
0
370
    -3
390
0
  6
Continuous
100
AcDbCircle
 10
501.8592
 20
-152.917233
 30
0.0
 40
2.0
100
AcDbArc
 50
4.952563
 51
90.0
  0
ARC
  5
4E5
100
AcDbEntity
  8
0
370
    -3
390
0
  6
Continuous
100
AcDbCircle
 10
532.109641
 20
-89.384429
 30
0.0
 40
2.0
100
AcDbArc
 50
304.125563
 51
30.0
  0
ARC
  5
4E6
100
AcDbEntity
  8
0
370
    -3
390
0
  6
Continuous
100
AcDbCircle
 10
501.8592
 20
-140.917233
 30
0.0
 40
2.0
100
AcDbArc
 50
270.0
 51
355.047437
  0
ARC
  5
4E7
100
AcDbEntity
  8
0
370
    -3
390
0
  6
Continuous
100
AcDbCircle
 10
571.099723
 20
-146.917233
 30
0.0
 40
67.5
100
AcDbArc
 50
124.125563
 51
175.047437
  0
ARC
  5
4E8
100
AcDbEntity
  8
0
370
    -3
390
0
  6
Continuous
100
AcDbCircle
 10
571.099723
 20
-146.917233
 30
0.0
 40
67.5
100
AcDbArc
 50
64.952563
 51
115.874437
  0
ARC
  5
4E9
100
AcDbEntity
  8
0
370
    -3
390
0
  6
Continuous
100
AcDbCircle
 10
571.099723
 20
-146.917233
 30
0.0
 40
67.5
100
AcDbArc
 50
4.125563
 51
55.047437
  0
ARC
  5
4EA
100
AcDbEntity
  8
0
370
    -3
390
0
  6
Continuous
100
AcDbCircle
 10
571.099723
 20
-146.917233
 30
0.0
 40
67.5
100
AcDbArc
 50
304.952563
 51
355.874437
  0
ARC
  5
4EB
100
AcDbEntity
  8
0
370
    -3
390
0
  6
Continuous
100
AcDbCircle
 10
571.099723
 20
-146.917233
 30
0.0
 40
67.5
100
AcDbArc
 50
244.125563
 51
295.047437
  0
ARC
  5
4EC
100
AcDbEntity
  8
0
370
    -3
390
0
  6
Continuous
100
AcDbCircle
 10
571.099723
 20
-146.917233
 30
0.0
 40
67.5
100
AcDbArc
 50
184.952563
 51
235.874437
  0
LINE
  5
4ED
100
AcDbEntity
  8
0
370
    -3
390
0
  6
Continuous
100
AcDbLine
 10
597.485245
 20
-93.216169
 30
0.0
 11
595.474443
 21
-96.698979
 31
0.0
  0
ARC
  5
4EE
100
AcDbEntity
  8
0
370
    -3
390
0
  6
Continuous
100
AcDbCircle
 10
919.099723
 20
-146.917233
 30
0.0
 40
433.679
100
AcDbArc
 50
176.770589
 51
183.229411
  0
ARC
  5
4EF
100
AcDbEntity
  8
0
370
    -3
390
0
  6
Continuous
100
AcDbCircle
 10
571.099723
 20
201.082767
 30
0.0
 40
433.679
100
AcDbArc
 50
266.770589
 51
273.229411
  0
ARC
  5
4F0
100
AcDbEntity
  8
0
370
    -3
390
0
  6
Continuous
100
AcDbCircle
 10
602.496275
 20
-168.32416
 30
0.0
 40
53.679
100
AcDbArc
 50
325.712889
 51
356.770589
  0
ARC
  5
4F1
100
AcDbEntity
  8
0
370
    -3
390
0
  6
Continuous
100
AcDbCircle
 10
592.506651
 20
-178.313784
 30
0.0
 40
53.679
100
AcDbArc
 50
273.229411
 51
304.287111
  0
ARC
  5
4F2
100
AcDbEntity
  8
0
370
    -3
390
0
  6
Continuous
100
AcDbCircle
 10
571.099723
 20
-146.917233
 30
0.0
 40
91.679
100
AcDbArc
 50
304.287111
 51
325.712889
  0
ARC
  5
4F3
100
AcDbEntity
  8
0
370
    -3
390
0
  6
Continuous
100
AcDbCircle
 10
539.703172
 20
-168.32416
 30
0.0
 40
53.679
100
AcDbArc
 50
183.229411
 51
214.287111
  0
ARC
  5
4F4
100
AcDbEntity
  8
0
370
    -3
390
0
  6
Continuous
100
AcDbCircle
 10
549.692796
 20
-178.313784
 30
0.0
 40
53.679
100
AcDbArc
 50
235.712889
 51
266.770589
  0
ARC
  5
4F5
100
AcDbEntity
  8
0
370
    -3
390
0
  6
Continuous
100
AcDbCircle
 10
571.099723
 20
-146.917233
 30
0.0
 40
91.679
100
AcDbArc
 50
214.287111
 51
235.712889
  0
ARC
  5
4F6
100
AcDbEntity
  8
0
370
    -3
390
0
  6
Continuous
100
AcDbCircle
 10
539.703172
 20
-125.510305
 30
0.0
 40
53.679
100
AcDbArc
 50
145.712889
 51
176.770589
  0
ARC
  5
4F7
100
AcDbEntity
  8
0
370
    -3
390
0
  6
Continuous
100
AcDbCircle
 10
549.692796
 20
-115.520681
 30
0.0
 40
53.679
100
AcDbArc
 50
93.229411
 51
124.287111
  0
ARC
  5
4F8
100
AcDbEntity
  8
0
370
    -3
390
0
  6
Continuous
100
AcDbCircle
 10
571.099723
 20
-146.917233
 30
0.0
 40
91.679
100
AcDbArc
 50
124.287111
 51
145.712889
  0
ARC
  5
4F9
100
AcDbEntity
  8
0
370
    -3
390
0
  6
Continuous
100
AcDbCircle
 10
571.099723
 20
-494.917233
 30
0.0
 40
433.679
100
AcDbArc
 50
86.770589
 51
93.229411
  0
ARC
  5
4FA
100
AcDbEntity
  8
0
370
    -3
390
0
  6
Continuous
100
AcDbCircle
 10
592.506651
 20
-115.520681
 30
0.0
 40
53.679
100
AcDbArc
 50
55.712889
 51
86.770589
  0
ARC
  5
4FB
100
AcDbEntity
  8
0
370
    -3
390
0
  6
Continuous
100
AcDbCircle
 10
571.099723
 20
-146.917233
 30
0.0
 40
91.679
100
AcDbArc
 50
34.287111
 51
55.712889
  0
ARC
  5
4FC
100
AcDbEntity
  8
0
370
    -3
390
0
  6
Continuous
100
AcDbCircle
 10
602.496275
 20
-125.510305
 30
0.0
 40
53.679
100
AcDbArc
 50
3.229411
 51
34.287111
  0
ARC
  5
4FD
100
AcDbEntity
  8
0
370
    -3
390
0
  6
Continuous
100
AcDbCircle
 10
223.099723
 20
-146.917233
 30
0.0
 40
433.679
100
AcDbArc
 50
356.770589
 51
3.229411
  0
ARC
  5
4FE
100
AcDbEntity
  8
0
370
    -3
390
0
  6
Continuous
100
AcDbCircle
 10
571.099723
 20
-146.917233
 30
0.0
 40
109.0
100
AcDbArc
 50
304.287111
 51
325.712889
  0
ARC
  5
4FF
100
AcDbEntity
  8
0
370
    -3
390
0
  6
Continuous
100
AcDbCircle
 10
571.099723
 20
201.082767
 30
0.0
 40
451.0
100
AcDbArc
 50
266.770589
 51
273.229411
  0
ARC
  5
500
100
AcDbEntity
  8
0
370
    -3
390
0
  6
Continuous
100
AcDbCircle
 10
919.099723
 20
-146.917233
 30
0.0
 40
451.0
100
AcDbArc
 50
176.770589
 51
183.229411
  0
ARC
  5
501
100
AcDbEntity
  8
0
370
    -3
390
0
  6
Continuous
100
AcDbCircle
 10
571.099723
 20
-494.917233
 30
0.0
 40
451.0
100
AcDbArc
 50
86.770589
 51
93.229411
  0
ARC
  5
502
100
AcDbEntity
  8
0
370
    -3
390
0
  6
Continuous
100
AcDbCircle
 10
571.099723
 20
-146.917233
 30
0.0
 40
109.0
100
AcDbArc
 50
214.287111
 51
235.712889
  0
ARC
  5
503
100
AcDbEntity
  8
0
370
    -3
390
0
  6
Continuous
100
AcDbCircle
 10
539.703172
 20
-168.32416
 30
0.0
 40
71.0
100
AcDbArc
 50
183.229411
 51
214.287111
  0
ARC
  5
504
100
AcDbEntity
  8
0
370
    -3
390
0
  6
Continuous
100
AcDbCircle
 10
549.692796
 20
-178.313784
 30
0.0
 40
71.0
100
AcDbArc
 50
235.712889
 51
266.770589
  0
ARC
  5
505
100
AcDbEntity
  8
0
370
    -3
390
0
  6
Continuous
100
AcDbCircle
 10
571.099723
 20
-146.917233
 30
0.0
 40
109.0
100
AcDbArc
 50
124.287111
 51
145.712889
  0
ARC
  5
506
100
AcDbEntity
  8
0
370
    -3
390
0
  6
Continuous
100
AcDbCircle
 10
549.692796
 20
-115.520681
 30
0.0
 40
71.0
100
AcDbArc
 50
93.229411
 51
124.287111
  0
ARC
  5
507
100
AcDbEntity
  8
0
370
    -3
390
0
  6
Continuous
100
AcDbCircle
 10
571.099723
 20
-146.917233
 30
0.0
 40
109.0
100
AcDbArc
 50
34.287111
 51
55.712889
  0
ARC
  5
508
100
AcDbEntity
  8
0
370
    -3
390
0
  6
Continuous
100
AcDbCircle
 10
602.496275
 20
-125.510305
 30
0.0
 40
71.0
100
AcDbArc
 50
3.229411
 51
34.287111
  0
ARC
  5
509
100
AcDbEntity
  8
0
370
    -3
390
0
  6
Continuous
100
AcDbCircle
 10
592.506651
 20
-115.520681
 30
0.0
 40
71.0
100
AcDbArc
 50
55.712889
 51
86.770589
  0
ARC
  5
50A
100
AcDbEntity
  8
0
370
    -3
390
0
  6
Continuous
100
AcDbCircle
 10
592.506651
 20
-178.313784
 30
0.0
 40
71.0
100
AcDbArc
 50
273.229411
 51
304.287111
  0
ARC
  5
50B
100
AcDbEntity
  8
0
370
    -3
390
0
  6
Continuous
100
AcDbCircle
 10
223.099723
 20
-146.917233
 30
0.0
 40
451.0
100
AcDbArc
 50
356.770589
 51
3.229411
  0
ARC
  5
50C
100
AcDbEntity
  8
0
370
    -3
390
0
  6
Continuous
100
AcDbCircle
 10
602.496275
 20
-168.32416
 30
0.0
 40
71.0
100
AcDbArc
 50
325.712889
 51
356.770589
  0
ARC
  5
50D
100
AcDbEntity
  8
0
370
    -3
390
0
  6
Continuous
100
AcDbCircle
 10
602.280074
 20
-212.923185
 30
0.0
 40
2.0
100
AcDbArc
 50
295.285439
 51
30.0
  0
ARC
  5
50E
100
AcDbEntity
  8
0
370
    -3
390
0
  6
Continuous
100
AcDbCircle
 10
595.753194
 20
-201.618297
 30
0.0
 40
2.0
100
AcDbArc
 50
294.26083
 51
30.0
  0
LINE
  5
50F
100
AcDbEntity
  8
0
370
    -3
390
0
  6
Continuous
100
AcDbLine
 10
604.012125
 20
-211.923185
 30
0.0
 11
602.255883
 21
-208.881285
 31
0.0
  0
LINE
  5
510
100
AcDbEntity
  8
0
370
    -3
390
0
  6
Continuous
100
AcDbLine
 10
597.485245
 20
-200.618297
 30
0.0
 11
595.474443
 21
-197.135487
 31
0.0
  0
ARC
  5
511
100
AcDbEntity
  8
0
370
    -3
390
0
  6
Continuous
100
AcDbCircle
 10
593.742393
 20
-198.135487
 30
0.0
 40
2.0
100
AcDbArc
 50
30.0
 51
113.84936
  0
ARC
  5
512
100
AcDbEntity
  8
0
370
    -3
390
0
  6
Continuous
100
AcDbCircle
 10
589.211295
 20
-190.287395
 30
0.0
 40
2.0
100
AcDbArc
 50
292.665631
 51
30.0
  0
LINE
  5
513
100
AcDbEntity
  8
0
370
    -3
390
0
  6
Continuous
100
AcDbLine
 10
590.943346
 20
-189.287395
 30
0.0
 11
588.925291
 21
-185.792021
 31
0.0
  0
LINE
  5
514
100
AcDbEntity
  8
0
370
    -3
390
0
  6
Continuous
100
AcDbLine
 10
584.368822
 20
-177.899986
 30
0.0
 11
582.33256
 21
-174.373077
 31
0.0
  0
LINE
  5
515
100
AcDbEntity
  8
0
370
    -3
390
0
  6
Continuous
100
AcDbLine
 10
577.697928
 20
-166.345658
 30
0.0
 11
575.588609
 21
-162.69221
 31
0.0
  0
ARC
  5
516
100
AcDbEntity
  8
0
370
    -3
390
0
  6
Continuous
100
AcDbCircle
 10
571.099723
 20
-146.917233
 30
0.0
 40
75.0
100
AcDbArc
 50
243.927443
 51
295.285439
  0
ARC
  5
517
100
AcDbEntity
  8
0
370
    -3
390
0
  6
Continuous
100
AcDbCircle
 10
539.015567
 20
-212.488621
 30
0.0
 40
2.0
100
AcDbArc
 50
150.0
 51
243.927443
  0
LINE
  5
518
100
AcDbEntity
  8
0
370
    -3
390
0
  6
Continuous
100
AcDbLine
 10
537.283517
 20
-211.488621
 30
0.0
 11
539.037844
 21
-208.450036
 31
0.0
  0
ARC
  5
519
100
AcDbEntity
  8
0
370
    -3
390
0
  6
Continuous
100
AcDbCircle
 10
571.099723
 20
-146.917233
 30
0.0
 40
62.0
100
AcDbArc
 50
244.780192
 51
294.26083
  0
ARC
  5
51A
100
AcDbEntity
  8
0
370
    -3
390
0
  6
Continuous
100
AcDbCircle
 10
545.534198
 20
-201.198021
 30
0.0
 40
2.0
100
AcDbArc
 50
150.0
 51
244.780192
  0
LINE
  5
51B
100
AcDbEntity
  8
0
370
    -3
390
0
  6
Continuous
100
AcDbLine
 10
543.802148
 20
-200.198021
 30
0.0
 11
545.80963
 21
-196.720959
 31
0.0
  0
ARC
  5
51C
100
AcDbEntity
  8
0
370
    -3
390
0
  6
Continuous
100
AcDbCircle
 10
547.541681
 20
-197.720959
 30
0.0
 40
2.0
100
AcDbArc
 50
65.122516
 51
150.0
  0
ARC
  5
51D
100
AcDbEntity
  8
0
370
    -3
390
0
  6
Continuous
100
AcDbCircle
 10
571.099723
 20
-146.917233
 30
0.0
 40
54.0
100
AcDbArc
 50
245.122516
 51
293.84936
  0
ARC
  5
51E
100
AcDbEntity
  8
0
370
    -3
390
0
  6
Continuous
100
AcDbCircle
 10
587.19324
 20
-186.792021
 30
0.0
 40
2.0
100
AcDbArc
 50
30.0
 51
111.979067
  0
ARC
  5
51F
100
AcDbEntity
  8
0
370
    -3
390
0
  6
Continuous
100
AcDbCircle
 10
571.099723
 20
-146.917233
 30
0.0
 40
41.0
100
AcDbArc
 50
246.677405
 51
291.979067
  0
ARC
  5
520
100
AcDbEntity
  8
0
370
    -3
390
0
  6
Continuous
100
AcDbCircle
 10
554.075694
 20
-186.403717
 30
0.0
 40
2.0
100
AcDbArc
 50
66.677405
 51
150.0
  0
ARC
  5
521
100
AcDbEntity
  8
0
370
    -3
390
0
  6
Continuous
100
AcDbCircle
 10
571.099723
 20
-146.917233
 30
0.0
 40
49.0
100
AcDbArc
 50
246.106852
 51
292.665631
  0
LINE
  5
522
100
AcDbEntity
  8
0
370
    -3
390
0
  6
Continuous
100
AcDbLine
 10
550.331157
 20
-188.889445
 30
0.0
 11
552.343643
 21
-185.403717
 31
0.0
  0
ARC
  5
523
100
AcDbEntity
  8
0
370
    -3
390
0
  6
Continuous
100
AcDbCircle
 10
552.063207
 20
-189.889445
 30
0.0
 40
2.0
100
AcDbArc
 50
150.0
 51
246.106852
  0
ARC
  5
524
100
AcDbEntity
  8
0
370
    -3
390
0
  6
Continuous
100
AcDbCircle
 10
558.614679
 20
-178.541965
 30
0.0
 40
2.0
100
AcDbArc
 50
150.0
 51
248.456519
  0
LINE
  5
525
100
AcDbEntity
  8
0
370
    -3
390
0
  6
Continuous
100
AcDbLine
 10
556.882628
 20
-177.541965
 30
0.0
 11
558.9076
 21
-174.03461
 31
0.0
  0
ARC
  5
526
100
AcDbEntity
  8
0
370
    -3
390
0
  6
Continuous
100
AcDbCircle
 10
560.639651
 20
-175.03461
 30
0.0
 40
2.0
100
AcDbArc
 50
69.594068
 51
150.0
  0
ARC
  5
527
100
AcDbEntity
  8
0
370
    -3
390
0
  6
Continuous
100
AcDbCircle
 10
571.099723
 20
-146.917233
 30
0.0
 40
28.0
100
AcDbArc
 50
249.594068
 51
288.463041
  0
ARC
  5
528
100
AcDbEntity
  8
0
370
    -3
390
0
  6
Continuous
100
AcDbCircle
 10
580.600509
 20
-175.373077
 30
0.0
 40
2.0
100
AcDbArc
 50
30.0
 51
108.463041
  0
ARC
  5
529
100
AcDbEntity
  8
0
370
    -3
390
0
  6
Continuous
100
AcDbCircle
 10
571.099723
 20
-146.917233
 30
0.0
 40
36.0
100
AcDbArc
 50
248.456519
 51
289.835751
  0
ARC
  5
52A
100
AcDbEntity
  8
0
370
    -3
390
0
  6
Continuous
100
AcDbCircle
 10
582.636771
 20
-178.899986
 30
0.0
 40
2.0
100
AcDbArc
 50
289.835751
 51
30.0
  0
ARC
  5
52B
100
AcDbEntity
  8
0
370
    -3
390
0
  6
Continuous
100
AcDbCircle
 10
575.965877
 20
-167.345658
 30
0.0
 40
2.0
100
AcDbArc
 50
283.39845
 51
30.0
  0
ARC
  5
52C
100
AcDbEntity
  8
0
370
    -3
390
0
  6
Continuous
100
AcDbCircle
 10
573.856558
 20
-163.69221
 30
0.0
 40
2.0
100
AcDbArc
 50
30.0
 51
99.332684
  0
ARC
  5
52D
100
AcDbEntity
  8
0
370
    -3
390
0
  6
Continuous
100
AcDbCircle
 10
571.099723
 20
-146.917233
 30
0.0
 40
23.0
100
AcDbArc
 50
253.774147
 51
283.39845
  0
ARC
  5
52E
100
AcDbEntity
  8
0
370
    -3
390
0
  6
Continuous
100
AcDbCircle
 10
565.231811
 20
-167.080755
 30
0.0
 40
2.0
100
AcDbArc
 50
150.0
 51
253.774147
  0
ARC
  5
52F
100
AcDbEntity
  8
0
370
    -3
390
0
  6
Continuous
100
AcDbCircle
 10
571.099723
 20
-146.917233
 30
0.0
 40
15.0
100
AcDbArc
 50
257.104635
 51
279.332684
  0
LINE
  5
530
100
AcDbEntity
  8
0
370
    -3
390
0
  6
Continuous
100
AcDbLine
 10
563.49976
 20
-166.080755
 30
0.0
 11
565.573761
 21
-162.48848
 31
0.0
  0
ARC
  5
531
100
AcDbEntity
  8
0
370
    -3
390
0
  6
Continuous
100
AcDbCircle
 10
567.305812
 20
-163.48848
 30
0.0
 40
2.0
100
AcDbArc
 50
77.104635
 51
150.0
  0
ARC
  5
532
100
AcDbEntity
  8
0
370
    -3
390
0
  6
Continuous
100
AcDbCircle
 10
612.672379
 20
-206.923185
 30
0.0
 40
2.0
100
AcDbArc
 50
210.0
 51
304.714561
  0
ARC
  5
533
100
AcDbEntity
  8
0
370
    -3
390
0
  6
Continuous
100
AcDbCircle
 10
606.145499
 20
-195.618297
 30
0.0
 40
2.0
100
AcDbArc
 50
210.0
 51
305.73917
  0
LINE
  5
534
100
AcDbEntity
  8
0
370
    -3
390
0
  6
Continuous
100
AcDbLine
 10
610.940328
 20
-207.923185
 30
0.0
 11
609.184086
 21
-204.881285
 31
0.0
  0
LINE
  5
535
100
AcDbEntity
  8
0
370
    -3
390
0
  6
Continuous
100
AcDbLine
 10
604.413448
 20
-196.618297
 30
0.0
 11
602.402647
 21
-193.135487
 31
0.0
  0
ARC
  5
536
100
AcDbEntity
  8
0
370
    -3
390
0
  6
Continuous
100
AcDbCircle
 10
604.134698
 20
-192.135487
 30
0.0
 40
2.0
100
AcDbArc
 50
126.15064
 51
210.0
  0
ARC
  5
537
100
AcDbEntity
  8
0
370
    -3
390
0
  6
Continuous
100
AcDbCircle
 10
599.6036
 20
-184.287395
 30
0.0
 40
2.0
100
AcDbArc
 50
210.0
 51
307.334369
  0
LINE
  5
538
100
AcDbEntity
  8
0
370
    -3
390
0
  6
Continuous
100
AcDbLine
 10
597.871549
 20
-185.287395
 30
0.0
 11
595.853494
 21
-181.792021
 31
0.0
  0
LINE
  5
539
100
AcDbEntity
  8
0
370
    -3
390
0
  6
Continuous
100
AcDbLine
 10
591.297025
 20
-173.899986
 30
0.0
 11
589.260763
 21
-170.373077
 31
0.0
  0
LINE
  5
53A
100
AcDbEntity
  8
0
370
    -3
390
0
  6
Continuous
100
AcDbLine
 10
584.626131
 20
-162.345658
 30
0.0
 11
582.516812
 21
-158.69221
 31
0.0
  0
ARC
  5
53B
100
AcDbEntity
  8
0
370
    -3
390
0
  6
Continuous
100
AcDbCircle
 10
571.099723
 20
-146.917233
 30
0.0
 40
75.0
100
AcDbArc
 50
304.714561
 51
356.072557
  0
ARC
  5
53C
100
AcDbEntity
  8
0
370
    -3
390
0
  6
Continuous
100
AcDbCircle
 10
643.928289
 20
-151.917233
 30
0.0
 40
2.0
100
AcDbArc
 50
356.072557
 51
90.0
  0
LINE
  5
53D
100
AcDbEntity
  8
0
370
    -3
390
0
  6
Continuous
100
AcDbLine
 10
643.928289
 20
-149.917233
 30
0.0
 11
640.419634
 21
-149.917233
 31
0.0
  0
ARC
  5
53E
100
AcDbEntity
  8
0
370
    -3
390
0
  6
Continuous
100
AcDbCircle
 10
571.099723
 20
-146.917233
 30
0.0
 40
62.0
100
AcDbArc
 50
305.73917
 51
355.219808
  0
ARC
  5
53F
100
AcDbEntity
  8
0
370
    -3
390
0
  6
Continuous
100
AcDbCircle
 10
630.891027
 20
-151.917233
 30
0.0
 40
2.0
100
AcDbArc
 50
355.219808
 51
90.0
  0
LINE
  5
540
100
AcDbEntity
  8
0
370
    -3
390
0
  6
Continuous
100
AcDbLine
 10
630.891027
 20
-149.917233
 30
0.0
 11
626.876062
 21
-149.917233
 31
0.0
  0
ARC
  5
541
100
AcDbEntity
  8
0
370
    -3
390
0
  6
Continuous
100
AcDbCircle
 10
626.876062
 20
-151.917233
 30
0.0
 40
2.0
100
AcDbArc
 50
90.0
 51
174.877484
  0
ARC
  5
542
100
AcDbEntity
  8
0
370
    -3
390
0
  6
Continuous
100
AcDbCircle
 10
571.099723
 20
-146.917233
 30
0.0
 40
54.0
100
AcDbArc
 50
306.15064
 51
354.877484
  0
ARC
  5
543
100
AcDbEntity
  8
0
370
    -3
390
0
  6
Continuous
100
AcDbCircle
 10
597.585545
 20
-180.792021
 30
0.0
 40
2.0
100
AcDbArc
 50
128.020933
 51
210.0
  0
ARC
  5
544
100
AcDbEntity
  8
0
370
    -3
390
0
  6
Continuous
100
AcDbCircle
 10
571.099723
 20
-146.917233
 30
0.0
 40
41.0
100
AcDbArc
 50
308.020933
 51
353.322595
  0
ARC
  5
545
100
AcDbEntity
  8
0
370
    -3
390
0
  6
Continuous
100
AcDbCircle
 10
613.808036
 20
-151.917233
 30
0.0
 40
2.0
100
AcDbArc
 50
90.0
 51
173.322595
  0
ARC
  5
546
100
AcDbEntity
  8
0
370
    -3
390
0
  6
Continuous
100
AcDbCircle
 10
571.099723
 20
-146.917233
 30
0.0
 40
49.0
100
AcDbArc
 50
307.334369
 51
353.893148
  0
LINE
  5
547
100
AcDbEntity
  8
0
370
    -3
390
0
  6
Continuous
100
AcDbLine
 10
617.833009
 20
-149.917233
 30
0.0
 11
613.808036
 21
-149.917233
 31
0.0
  0
ARC
  5
548
100
AcDbEntity
  8
0
370
    -3
390
0
  6
Continuous
100
AcDbCircle
 10
617.833009
 20
-151.917233
 30
0.0
 40
2.0
100
AcDbArc
 50
353.893148
 51
90.0
  0
ARC
  5
549
100
AcDbEntity
  8
0
370
    -3
390
0
  6
Continuous
100
AcDbCircle
 10
604.730067
 20
-151.917233
 30
0.0
 40
2.0
100
AcDbArc
 50
351.543481
 51
90.0
  0
LINE
  5
54A
100
AcDbEntity
  8
0
370
    -3
390
0
  6
Continuous
100
AcDbLine
 10
604.730067
 20
-149.917233
 30
0.0
 11
600.680122
 21
-149.917233
 31
0.0
  0
ARC
  5
54B
100
AcDbEntity
  8
0
370
    -3
390
0
  6
Continuous
100
AcDbCircle
 10
600.680122
 20
-151.917233
 30
0.0
 40
2.0
100
AcDbArc
 50
90.0
 51
170.405932
  0
ARC
  5
54C
100
AcDbEntity
  8
0
370
    -3
390
0
  6
Continuous
100
AcDbCircle
 10
571.099723
 20
-146.917233
 30
0.0
 40
28.0
100
AcDbArc
 50
311.536959
 51
350.405932
  0
ARC
  5
54D
100
AcDbEntity
  8
0
370
    -3
390
0
  6
Continuous
100
AcDbCircle
 10
590.992814
 20
-169.373077
 30
0.0
 40
2.0
100
AcDbArc
 50
131.536959
 51
210.0
  0
ARC
  5
54E
100
AcDbEntity
  8
0
370
    -3
390
0
  6
Continuous
100
AcDbCircle
 10
571.099723
 20
-146.917233
 30
0.0
 40
36.0
100
AcDbArc
 50
310.164249
 51
351.543481
  0
ARC
  5
54F
100
AcDbEntity
  8
0
370
    -3
390
0
  6
Continuous
100
AcDbCircle
 10
593.029076
 20
-172.899986
 30
0.0
 40
2.0
100
AcDbArc
 50
210.0
 51
310.164249
  0
ARC
  5
550
100
AcDbEntity
  8
0
370
    -3
390
0
  6
Continuous
100
AcDbCircle
 10
586.358182
 20
-161.345658
 30
0.0
 40
2.0
100
AcDbArc
 50
210.0
 51
316.60155
  0
ARC
  5
551
100
AcDbEntity
  8
0
370
    -3
390
0
  6
Continuous
100
AcDbCircle
 10
584.248863
 20
-157.69221
 30
0.0
 40
2.0
100
AcDbArc
 50
140.667316
 51
210.0
  0
ARC
  5
552
100
AcDbEntity
  8
0
370
    -3
390
0
  6
Continuous
100
AcDbCircle
 10
571.099723
 20
-146.917233
 30
0.0
 40
23.0
100
AcDbArc
 50
316.60155
 51
346.225853
  0
ARC
  5
553
100
AcDbEntity
  8
0
370
    -3
390
0
  6
Continuous
100
AcDbCircle
 10
591.495801
 20
-151.917233
 30
0.0
 40
2.0
100
AcDbArc
 50
346.225853
 51
90.0
  0
ARC
  5
554
100
AcDbEntity
  8
0
370
    -3
390
0
  6
Continuous
100
AcDbCircle
 10
571.099723
 20
-146.917233
 30
0.0
 40
15.0
100
AcDbArc
 50
320.667316
 51
342.895365
  0
LINE
  5
555
100
AcDbEntity
  8
0
370
    -3
390
0
  6
Continuous
100
AcDbLine
 10
591.495801
 20
-149.917233
 30
0.0
 11
587.3478
 21
-149.917233
 31
0.0
  0
ARC
  5
556
100
AcDbEntity
  8
0
370
    -3
390
0
  6
Continuous
100
AcDbCircle
 10
587.3478
 20
-151.917233
 30
0.0
 40
2.0
100
AcDbArc
 50
90.0
 51
162.895365
  0
ARC
  5
557
100
AcDbEntity
  8
0
370
    -3
390
0
  6
Continuous
100
AcDbCircle
 10
612.672379
 20
-86.911281
 30
0.0
 40
2.0
100
AcDbArc
 50
55.285439
 51
150.0
  0
ARC
  5
558
100
AcDbEntity
  8
0
370
    -3
390
0
  6
Continuous
100
AcDbCircle
 10
606.145499
 20
-98.216169
 30
0.0
 40
2.0
100
AcDbArc
 50
54.26083
 51
150.0
  0
LINE
  5
559
100
AcDbEntity
  8
0
370
    -3
390
0
  6
Continuous
100
AcDbLine
 10
610.940328
 20
-85.911281
 30
0.0
 11
609.184086
 21
-88.953181
 31
0.0
  0
ARC
  5
55A
100
AcDbEntity
  8
0
370
    -3
390
0
  6
Continuous
100
AcDbCircle
 10
604.134698
 20
-101.698979
 30
0.0
 40
2.0
100
AcDbArc
 50
150.0
 51
233.84936
  0
ARC
  5
55B
100
AcDbEntity
  8
0
370
    -3
390
0
  6
Continuous
100
AcDbCircle
 10
599.6036
 20
-109.547071
 30
0.0
 40
2.0
100
AcDbArc
 50
52.665631
 51
150.0
  0
LINE
  5
55C
100
AcDbEntity
  8
0
370
    -3
390
0
  6
Continuous
100
AcDbLine
 10
604.413448
 20
-97.216169
 30
0.0
 11
602.402647
 21
-100.698979
 31
0.0
  0
LINE
  5
55D
100
AcDbEntity
  8
0
370
    -3
390
0
  6
Continuous
100
AcDbLine
 10
591.297025
 20
-119.934479
 30
0.0
 11
589.260763
 21
-123.461389
 31
0.0
  0
LINE
  5
55E
100
AcDbEntity
  8
0
370
    -3
390
0
  6
Continuous
100
AcDbLine
 10
584.626131
 20
-131.488808
 30
0.0
 11
582.516812
 21
-135.142255
 31
0.0
  0
ARC
  5
55F
100
AcDbEntity
  8
0
370
    -3
390
0
  6
Continuous
100
AcDbCircle
 10
571.099723
 20
-146.917233
 30
0.0
 40
75.0
100
AcDbArc
 50
3.927443
 51
55.285439
  0
ARC
  5
560
100
AcDbEntity
  8
0
370
    -3
390
0
  6
Continuous
100
AcDbCircle
 10
643.928289
 20
-141.917233
 30
0.0
 40
2.0
100
AcDbArc
 50
270.0
 51
3.927443
  0
LINE
  5
561
100
AcDbEntity
  8
0
370
    -3
390
0
  6
Continuous
100
AcDbLine
 10
643.928289
 20
-143.917233
 30
0.0
 11
640.419634
 21
-143.917233
 31
0.0
  0
ARC
  5
562
100
AcDbEntity
  8
0
370
    -3
390
0
  6
Continuous
100
AcDbCircle
 10
571.099723
 20
-146.917233
 30
0.0
 40
62.0
100
AcDbArc
 50
4.780192
 51
54.26083
  0
ARC
  5
563
100
AcDbEntity
  8
0
370
    -3
390
0
  6
Continuous
100
AcDbCircle
 10
630.891027
 20
-141.917233
 30
0.0
 40
2.0
100
AcDbArc
 50
270.0
 51
4.780192
  0
LINE
  5
564
100
AcDbEntity
  8
0
370
    -3
390
0
  6
Continuous
100
AcDbLine
 10
630.891027
 20
-143.917233
 30
0.0
 11
626.876062
 21
-143.917233
 31
0.0
  0
ARC
  5
565
100
AcDbEntity
  8
0
370
    -3
390
0
  6
Continuous
100
AcDbCircle
 10
626.876062
 20
-141.917233
 30
0.0
 40
2.0
100
AcDbArc
 50
185.122516
 51
270.0
  0
ARC
  5
566
100
AcDbEntity
  8
0
370
    -3
390
0
  6
Continuous
100
AcDbCircle
 10
571.099723
 20
-146.917233
 30
0.0
 40
54.0
100
AcDbArc
 50
5.122516
 51
53.84936
  0
ARC
  5
567
100
AcDbEntity
  8
0
370
    -3
390
0
  6
Continuous
100
AcDbCircle
 10
597.585545
 20
-113.042445
 30
0.0
 40
2.0
100
AcDbArc
 50
150.0
 51
231.979067
  0
ARC
  5
568
100
AcDbEntity
  8
0
370
    -3
390
0
  6
Continuous
100
AcDbCircle
 10
571.099723
 20
-146.917233
 30
0.0
 40
41.0
100
AcDbArc
 50
6.677405
 51
51.979067
  0
ARC
  5
569
100
AcDbEntity
  8
0
370
    -3
390
0
  6
Continuous
100
AcDbCircle
 10
613.808036
 20
-141.917233
 30
0.0
 40
2.0
100
AcDbArc
 50
186.677405
 51
270.0
  0
ARC
  5
56A
100
AcDbEntity
  8
0
370
    -3
390
0
  6
Continuous
100
AcDbCircle
 10
571.099723
 20
-146.917233
 30
0.0
 40
49.0
100
AcDbArc
 50
6.106852
 51
52.665631
  0
LINE
  5
56B
100
AcDbEntity
  8
0
370
    -3
390
0
  6
Continuous
100
AcDbLine
 10
617.833009
 20
-143.917233
 30
0.0
 11
613.808036
 21
-143.917233
 31
0.0
  0
ARC
  5
56C
100
AcDbEntity
  8
0
370
    -3
390
0
  6
Continuous
100
AcDbCircle
 10
617.833009
 20
-141.917233
 30
0.0
 40
2.0
100
AcDbArc
 50
270.0
 51
6.106852
  0
ARC
  5
56D
100
AcDbEntity
  8
0
370
    -3
390
0
  6
Continuous
100
AcDbCircle
 10
604.730067
 20
-141.917233
 30
0.0
 40
2.0
100
AcDbArc
 50
270.0
 51
8.456519
  0
LINE
  5
56E
100
AcDbEntity
  8
0
370
    -3
390
0
  6
Continuous
100
AcDbLine
 10
604.730067
 20
-143.917233
 30
0.0
 11
600.680122
 21
-143.917233
 31
0.0
  0
ARC
  5
56F
100
AcDbEntity
  8
0
370
    -3
390
0
  6
Continuous
100
AcDbCircle
 10
600.680122
 20
-141.917233
 30
0.0
 40
2.0
100
AcDbArc
 50
189.594068
 51
270.0
  0
ARC
  5
570
100
AcDbEntity
  8
0
370
    -3
390
0
  6
Continuous
100
AcDbCircle
 10
571.099723
 20
-146.917233
 30
0.0
 40
28.0
100
AcDbArc
 50
9.594068
 51
48.463041
  0
ARC
  5
571
100
AcDbEntity
  8
0
370
    -3
390
0
  6
Continuous
100
AcDbCircle
 10
590.992814
 20
-124.461389
 30
0.0
 40
2.0
100
AcDbArc
 50
150.0
 51
228.463041
  0
ARC
  5
572
100
AcDbEntity
  8
0
370
    -3
390
0
  6
Continuous
100
AcDbCircle
 10
571.099723
 20
-146.917233
 30
0.0
 40
36.0
100
AcDbArc
 50
8.456519
 51
49.835751
  0
ARC
  5
573
100
AcDbEntity
  8
0
370
    -3
390
0
  6
Continuous
100
AcDbCircle
 10
593.029076
 20
-120.934479
 30
0.0
 40
2.0
100
AcDbArc
 50
49.835751
 51
150.0
  0
ARC
  5
574
100
AcDbEntity
  8
0
370
    -3
390
0
  6
Continuous
100
AcDbCircle
 10
586.358182
 20
-132.488808
 30
0.0
 40
2.0
100
AcDbArc
 50
43.39845
 51
150.0
  0
ARC
  5
575
100
AcDbEntity
  8
0
370
    -3
390
0
  6
Continuous
100
AcDbCircle
 10
584.248863
 20
-136.142255
 30
0.0
 40
2.0
100
AcDbArc
 50
150.0
 51
219.332684
  0
ARC
  5
576
100
AcDbEntity
  8
0
370
    -3
390
0
  6
Continuous
100
AcDbCircle
 10
571.099723
 20
-146.917233
 30
0.0
 40
23.0
100
AcDbArc
 50
13.774147
 51
43.39845
  0
ARC
  5
577
100
AcDbEntity
  8
0
370
    -3
390
0
  6
Continuous
100
AcDbCircle
 10
591.495801
 20
-141.917233
 30
0.0
 40
2.0
100
AcDbArc
 50
270.0
 51
13.774147
  0
ARC
  5
578
100
AcDbEntity
  8
0
370
    -3
390
0
  6
Continuous
100
AcDbCircle
 10
571.099723
 20
-146.917233
 30
0.0
 40
15.0
100
AcDbArc
 50
17.104635
 51
39.332684
  0
LINE
  5
579
100
AcDbEntity
  8
0
370
    -3
390
0
  6
Continuous
100
AcDbLine
 10
591.495801
 20
-143.917233
 30
0.0
 11
587.3478
 21
-143.917233
 31
0.0
  0
ARC
  5
57A
100
AcDbEntity
  8
0
370
    -3
390
0
  6
Continuous
100
AcDbCircle
 10
587.3478
 20
-141.917233
 30
0.0
 40
2.0
100
AcDbArc
 50
197.104635
 51
270.0
  0
ARC
  5
57B
100
AcDbEntity
  8
0
370
    -3
390
0
  6
Continuous
100
AcDbCircle
 10
602.280074
 20
-80.911281
 30
0.0
 40
2.0
100
AcDbArc
 50
330.0
 51
64.714561
  0
ARC
  5
57C
100
AcDbEntity
  8
0
370
    -3
390
0
  6
Continuous
100
AcDbCircle
 10
595.753194
 20
-92.216169
 30
0.0
 40
2.0
100
AcDbArc
 50
330.0
 51
65.73917
  0
LINE
  5
57D
100
AcDbEntity
  8
0
370
    -3
390
0
  6
Continuous
100
AcDbLine
 10
604.012125
 20
-81.911281
 30
0.0
 11
602.255883
 21
-84.953181
 31
0.0
  0
ARC
  5
57E
100
AcDbEntity
  8
0
370
    -3
390
0
  6
Continuous
100
AcDbCircle
 10
593.742393
 20
-95.698979
 30
0.0
 40
2.0
100
AcDbArc
 50
246.15064
 51
330.0
  0
ARC
  5
57F
100
AcDbEntity
  8
0
370
    -3
390
0
  6
Continuous
100
AcDbCircle
 10
589.211295
 20
-103.547071
 30
0.0
 40
2.0
100
AcDbArc
 50
330.0
 51
67.334369
  0
LINE
  5
580
100
AcDbEntity
  8
0
370
    -3
390
0
  6
Continuous
100
AcDbLine
 10
590.943346
 20
-104.547071
 30
0.0
 11
588.925291
 21
-108.042445
 31
0.0
  0
LINE
  5
581
100
AcDbEntity
  8
0
370
    -3
390
0
  6
Continuous
100
AcDbLine
 10
584.368822
 20
-115.934479
 30
0.0
 11
582.33256
 21
-119.461389
 31
0.0
  0
LINE
  5
582
100
AcDbEntity
  8
0
370
    -3
390
0
  6
Continuous
100
AcDbLine
 10
577.697928
 20
-127.488808
 30
0.0
 11
575.588609
 21
-131.142255
 31
0.0
  0
ARC
  5
583
100
AcDbEntity
  8
0
370
    -3
390
0
  6
Continuous
100
AcDbCircle
 10
571.099723
 20
-146.917233
 30
0.0
 40
75.0
100
AcDbArc
 50
64.714561
 51
116.072557
  0
ARC
  5
584
100
AcDbEntity
  8
0
370
    -3
390
0
  6
Continuous
100
AcDbCircle
 10
539.015567
 20
-81.345845
 30
0.0
 40
2.0
100
AcDbArc
 50
116.072557
 51
210.0
  0
LINE
  5
585
100
AcDbEntity
  8
0
370
    -3
390
0
  6
Continuous
100
AcDbLine
 10
537.283517
 20
-82.345845
 30
0.0
 11
539.037844
 21
-85.384429
 31
0.0
  0
ARC
  5
586
100
AcDbEntity
  8
0
370
    -3
390
0
  6
Continuous
100
AcDbCircle
 10
571.099723
 20
-146.917233
 30
0.0
 40
62.0
100
AcDbArc
 50
65.73917
 51
115.219808
  0
ARC
  5
587
100
AcDbEntity
  8
0
370
    -3
390
0
  6
Continuous
100
AcDbCircle
 10
545.534198
 20
-92.636445
 30
0.0
 40
2.0
100
AcDbArc
 50
115.219808
 51
210.0
  0
LINE
  5
588
100
AcDbEntity
  8
0
370
    -3
390
0
  6
Continuous
100
AcDbLine
 10
543.802148
 20
-93.636445
 30
0.0
 11
545.80963
 21
-97.113506
 31
0.0
  0
ARC
  5
589
100
AcDbEntity
  8
0
370
    -3
390
0
  6
Continuous
100
AcDbCircle
 10
547.541681
 20
-96.113506
 30
0.0
 40
2.0
100
AcDbArc
 50
210.0
 51
294.877484
  0
ARC
  5
58A
100
AcDbEntity
  8
0
370
    -3
390
0
  6
Continuous
100
AcDbCircle
 10
571.099723
 20
-146.917233
 30
0.0
 40
54.0
100
AcDbArc
 50
66.15064
 51
114.877484
  0
ARC
  5
58B
100
AcDbEntity
  8
0
370
    -3
390
0
  6
Continuous
100
AcDbCircle
 10
587.19324
 20
-107.042445
 30
0.0
 40
2.0
100
AcDbArc
 50
248.020933
 51
330.0
  0
ARC
  5
58C
100
AcDbEntity
  8
0
370
    -3
390
0
  6
Continuous
100
AcDbCircle
 10
571.099723
 20
-146.917233
 30
0.0
 40
41.0
100
AcDbArc
 50
68.020933
 51
113.322595
  0
ARC
  5
58D
100
AcDbEntity
  8
0
370
    -3
390
0
  6
Continuous
100
AcDbCircle
 10
554.075694
 20
-107.430749
 30
0.0
 40
2.0
100
AcDbArc
 50
210.0
 51
293.322595
  0
ARC
  5
58E
100
AcDbEntity
  8
0
370
    -3
390
0
  6
Continuous
100
AcDbCircle
 10
571.099723
 20
-146.917233
 30
0.0
 40
49.0
100
AcDbArc
 50
67.334369
 51
113.893148
  0
LINE
  5
58F
100
AcDbEntity
  8
0
370
    -3
390
0
  6
Continuous
100
AcDbLine
 10
550.331157
 20
-104.94502
 30
0.0
 11
552.343643
 21
-108.430749
 31
0.0
  0
ARC
  5
590
100
AcDbEntity
  8
0
370
    -3
390
0
  6
Continuous
100
AcDbCircle
 10
552.063207
 20
-103.94502
 30
0.0
 40
2.0
100
AcDbArc
 50
113.893148
 51
210.0
  0
ARC
  5
591
100
AcDbEntity
  8
0
370
    -3
390
0
  6
Continuous
100
AcDbCircle
 10
558.614679
 20
-115.292501
 30
0.0
 40
2.0
100
AcDbArc
 50
111.543481
 51
210.0
  0
LINE
  5
592
100
AcDbEntity
  8
0
370
    -3
390
0
  6
Continuous
100
AcDbLine
 10
556.882628
 20
-116.292501
 30
0.0
 11
558.9076
 21
-119.799856
 31
0.0
  0
ARC
  5
593
100
AcDbEntity
  8
0
370
    -3
390
0
  6
Continuous
100
AcDbCircle
 10
560.639651
 20
-118.799856
 30
0.0
 40
2.0
100
AcDbArc
 50
210.0
 51
290.405932
  0
ARC
  5
594
100
AcDbEntity
  8
0
370
    -3
390
0
  6
Continuous
100
AcDbCircle
 10
571.099723
 20
-146.917233
 30
0.0
 40
28.0
100
AcDbArc
 50
71.536959
 51
110.405932
  0
ARC
  5
595
100
AcDbEntity
  8
0
370
    -3
390
0
  6
Continuous
100
AcDbCircle
 10
580.600509
 20
-118.461389
 30
0.0
 40
2.0
100
AcDbArc
 50
251.536959
 51
330.0
  0
ARC
  5
596
100
AcDbEntity
  8
0
370
    -3
390
0
  6
Continuous
100
AcDbCircle
 10
571.099723
 20
-146.917233
 30
0.0
 40
36.0
100
AcDbArc
 50
70.164249
 51
111.543481
  0
ARC
  5
597
100
AcDbEntity
  8
0
370
    -3
390
0
  6
Continuous
100
AcDbCircle
 10
582.636771
 20
-114.934479
 30
0.0
 40
2.0
100
AcDbArc
 50
330.0
 51
70.164249
  0
ARC
  5
598
100
AcDbEntity
  8
0
370
    -3
390
0
  6
Continuous
100
AcDbCircle
 10
575.965877
 20
-126.488808
 30
0.0
 40
2.0
100
AcDbArc
 50
330.0
 51
76.60155
  0
ARC
  5
599
100
AcDbEntity
  8
0
370
    -3
390
0
  6
Continuous
100
AcDbCircle
 10
573.856558
 20
-130.142255
 30
0.0
 40
2.0
100
AcDbArc
 50
260.667316
 51
330.0
  0
ARC
  5
59A
100
AcDbEntity
  8
0
370
    -3
390
0
  6
Continuous
100
AcDbCircle
 10
571.099723
 20
-146.917233
 30
0.0
 40
23.0
100
AcDbArc
 50
76.60155
 51
106.225853
  0
ARC
  5
59B
100
AcDbEntity
  8
0
370
    -3
390
0
  6
Continuous
100
AcDbCircle
 10
565.231811
 20
-126.753711
 30
0.0
 40
2.0
100
AcDbArc
 50
106.225853
 51
210.0
  0
ARC
  5
59C
100
AcDbEntity
  8
0
370
    -3
390
0
  6
Continuous
100
AcDbCircle
 10
571.099723
 20
-146.917233
 30
0.0
 40
15.0
100
AcDbArc
 50
80.667316
 51
102.895365
  0
LINE
  5
59D
100
AcDbEntity
  8
0
370
    -3
390
0
  6
Continuous
100
AcDbLine
 10
563.49976
 20
-127.753711
 30
0.0
 11
565.573761
 21
-131.345985
 31
0.0
  0
ARC
  5
59E
100
AcDbEntity
  8
0
370
    -3
390
0
  6
Continuous
100
AcDbCircle
 10
567.305812
 20
-130.345985
 30
0.0
 40
2.0
100
AcDbArc
 50
210.0
 51
282.895365
  0
ARC
  5
59F
100
AcDbEntity
  8
0
370
    -3
390
0
  6
Continuous
100
AcDbCircle
 10
498.346716
 20
-140.917233
 30
0.0
 40
2.0
100
AcDbArc
 50
175.285439
 51
270.0
  0
ARC
  5
5A0
100
AcDbEntity
  8
0
370
    -3
390
0
  6
Continuous
100
AcDbCircle
 10
511.400477
 20
-140.917233
 30
0.0
 40
2.0
100
AcDbArc
 50
174.26083
 51
270.0
  0
LINE
  5
5A1
100
AcDbEntity
  8
0
370
    -3
390
0
  6
Continuous
100
AcDbLine
 10
498.346716
 20
-142.917233
 30
0.0
 11
501.8592
 21
-142.917233
 31
0.0
  0
LINE
  5
5A2
100
AcDbEntity
  8
0
370
    -3
390
0
  6
Continuous
100
AcDbLine
 10
511.400477
 20
-142.917233
 30
0.0
 11
515.42208
 21
-142.917233
 31
0.0
  0
ARC
  5
5A3
100
AcDbEntity
  8
0
370
    -3
390
0
  6
Continuous
100
AcDbCircle
 10
515.42208
 20
-140.917233
 30
0.0
 40
2.0
100
AcDbArc
 50
270.0
 51
353.84936
  0
ARC
  5
5A4
100
AcDbEntity
  8
0
370
    -3
390
0
  6
Continuous
100
AcDbCircle
 10
524.484275
 20
-140.917233
 30
0.0
 40
2.0
100
AcDbArc
 50
172.665631
 51
270.0
  0
LINE
  5
5A5
100
AcDbEntity
  8
0
370
    -3
390
0
  6
Continuous
100
AcDbLine
 10
524.484275
 20
-142.917233
 30
0.0
 11
528.520386
 21
-142.917233
 31
0.0
  0
LINE
  5
5A6
100
AcDbEntity
  8
0
370
    -3
390
0
  6
Continuous
100
AcDbLine
 10
537.633322
 20
-142.917233
 30
0.0
 11
541.705846
 21
-142.917233
 31
0.0
  0
LINE
  5
5A7
100
AcDbEntity
  8
0
370
    -3
390
0
  6
Continuous
100
AcDbLine
 10
550.975111
 20
-142.917233
 30
0.0
 11
555.19375
 21
-142.917233
 31
0.0
  0
ARC
  5
5A8
100
AcDbEntity
  8
0
370
    -3
390
0
  6
Continuous
100
AcDbCircle
 10
571.099723
 20
-146.917233
 30
0.0
 40
75.0
100
AcDbArc
 50
123.927443
 51
175.285439
  0
ARC
  5
5A9
100
AcDbEntity
  8
0
370
    -3
390
0
  6
Continuous
100
AcDbCircle
 10
530.355313
 20
-86.345845
 30
0.0
 40
2.0
100
AcDbArc
 50
30.0
 51
123.927443
  0
LINE
  5
5AA
100
AcDbEntity
  8
0
370
    -3
390
0
  6
Continuous
100
AcDbLine
 10
532.087364
 20
-85.345845
 30
0.0
 11
533.841692
 21
-88.384429
 31
0.0
  0
ARC
  5
5AB
100
AcDbEntity
  8
0
370
    -3
390
0
  6
Continuous
100
AcDbCircle
 10
571.099723
 20
-146.917233
 30
0.0
 40
62.0
100
AcDbArc
 50
124.780192
 51
174.26083
  0
ARC
  5
5AC
100
AcDbEntity
  8
0
370
    -3
390
0
  6
Continuous
100
AcDbCircle
 10
536.873944
 20
-97.636445
 30
0.0
 40
2.0
100
AcDbArc
 50
30.0
 51
124.780192
  0
LINE
  5
5AD
100
AcDbEntity
  8
0
370
    -3
390
0
  6
Continuous
100
AcDbLine
 10
538.605995
 20
-96.636445
 30
0.0
 11
540.613478
 21
-100.113506
 31
0.0
  0
ARC
  5
5AE
100
AcDbEntity
  8
0
370
    -3
390
0
  6
Continuous
100
AcDbCircle
 10
538.881427
 20
-101.113506
 30
0.0
 40
2.0
100
AcDbArc
 50
305.122516
 51
30.0
  0
ARC
  5
5AF
100
AcDbEntity
  8
0
370
    -3
390
0
  6
Continuous
100
AcDbCircle
 10
571.099723
 20
-146.917233
 30
0.0
 40
54.0
100
AcDbArc
 50
125.122516
 51
173.84936
  0
ARC
  5
5B0
100
AcDbEntity
  8
0
370
    -3
390
0
  6
Continuous
100
AcDbCircle
 10
528.520386
 20
-140.917233
 30
0.0
 40
2.0
100
AcDbArc
 50
270.0
 51
351.979067
  0
ARC
  5
5B1
100
AcDbEntity
  8
0
370
    -3
390
0
  6
Continuous
100
AcDbCircle
 10
571.099723
 20
-146.917233
 30
0.0
 40
41.0
100
AcDbArc
 50
126.677405
 51
171.979067
  0
ARC
  5
5B2
100
AcDbEntity
  8
0
370
    -3
390
0
  6
Continuous
100
AcDbCircle
 10
545.41544
 20
-112.430749
 30
0.0
 40
2.0
100
AcDbArc
 50
306.677405
 51
30.0
  0
ARC
  5
5B3
100
AcDbEntity
  8
0
370
    -3
390
0
  6
Continuous
100
AcDbCircle
 10
571.099723
 20
-146.917233
 30
0.0
 40
49.0
100
AcDbArc
 50
126.106852
 51
172.665631
  0
LINE
  5
5B4
100
AcDbEntity
  8
0
370
    -3
390
0
  6
Continuous
100
AcDbLine
 10
545.135004
 20
-107.94502
 30
0.0
 11
547.147491
 21
-111.430749
 31
0.0
  0
ARC
  5
5B5
100
AcDbEntity
  8
0
370
    -3
390
0
  6
Continuous
100
AcDbCircle
 10
543.402953
 20
-108.94502
 30
0.0
 40
2.0
100
AcDbArc
 50
30.0
 51
126.106852
  0
ARC
  5
5B6
100
AcDbEntity
  8
0
370
    -3
390
0
  6
Continuous
100
AcDbCircle
 10
549.954425
 20
-120.292501
 30
0.0
 40
2.0
100
AcDbArc
 50
30.0
 51
128.456519
  0
LINE
  5
5B7
100
AcDbEntity
  8
0
370
    -3
390
0
  6
Continuous
100
AcDbLine
 10
551.686475
 20
-119.292501
 30
0.0
 11
553.711448
 21
-122.799856
 31
0.0
  0
ARC
  5
5B8
100
AcDbEntity
  8
0
370
    -3
390
0
  6
Continuous
100
AcDbCircle
 10
551.979397
 20
-123.799856
 30
0.0
 40
2.0
100
AcDbArc
 50
309.594068
 51
30.0
  0
ARC
  5
5B9
100
AcDbEntity
  8
0
370
    -3
390
0
  6
Continuous
100
AcDbCircle
 10
571.099723
 20
-146.917233
 30
0.0
 40
28.0
100
AcDbArc
 50
129.594068
 51
168.463041
  0
ARC
  5
5BA
100
AcDbEntity
  8
0
370
    -3
390
0
  6
Continuous
100
AcDbCircle
 10
541.705846
 20
-140.917233
 30
0.0
 40
2.0
100
AcDbArc
 50
270.0
 51
348.463041
  0
ARC
  5
5BB
100
AcDbEntity
  8
0
370
    -3
390
0
  6
Continuous
100
AcDbCircle
 10
571.099723
 20
-146.917233
 30
0.0
 40
36.0
100
AcDbArc
 50
128.456519
 51
169.835751
  0
ARC
  5
5BC
100
AcDbEntity
  8
0
370
    -3
390
0
  6
Continuous
100
AcDbCircle
 10
537.633322
 20
-140.917233
 30
0.0
 40
2.0
100
AcDbArc
 50
169.835751
 51
270.0
  0
ARC
  5
5BD
100
AcDbEntity
  8
0
370
    -3
390
0
  6
Continuous
100
AcDbCircle
 10
550.975111
 20
-140.917233
 30
0.0
 40
2.0
100
AcDbArc
 50
163.39845
 51
270.0
  0
ARC
  5
5BE
100
AcDbEntity
  8
0
370
    -3
390
0
  6
Continuous
100
AcDbCircle
 10
555.19375
 20
-140.917233
 30
0.0
 40
2.0
100
AcDbArc
 50
270.0
 51
339.332684
  0
ARC
  5
5BF
100
AcDbEntity
  8
0
370
    -3
390
0
  6
Continuous
100
AcDbCircle
 10
571.099723
 20
-146.917233
 30
0.0
 40
23.0
100
AcDbArc
 50
133.774147
 51
163.39845
  0
ARC
  5
5C0
100
AcDbEntity
  8
0
370
    -3
390
0
  6
Continuous
100
AcDbCircle
 10
556.571557
 20
-131.753711
 30
0.0
 40
2.0
100
AcDbArc
 50
30.0
 51
133.774147
  0
ARC
  5
5C1
100
AcDbEntity
  8
0
370
    -3
390
0
  6
Continuous
100
AcDbCircle
 10
571.099723
 20
-146.917233
 30
0.0
 40
15.0
100
AcDbArc
 50
137.104635
 51
159.332684
  0
LINE
  5
5C2
100
AcDbEntity
  8
0
370
    -3
390
0
  6
Continuous
100
AcDbLine
 10
558.303608
 20
-130.753711
 30
0.0
 11
560.377609
 21
-134.345985
 31
0.0
  0
ARC
  5
5C3
100
AcDbEntity
  8
0
370
    -3
390
0
  6
Continuous
100
AcDbCircle
 10
558.645558
 20
-135.345985
 30
0.0
 40
2.0
100
AcDbArc
 50
317.104635
 51
30.0
  0
ARC
  5
5C4
100
AcDbEntity
  8
0
370
    -3
390
0
  6
Continuous
100
AcDbCircle
 10
558.645558
 20
-158.48848
 30
0.0
 40
2.0
100
AcDbArc
 50
330.0
 51
42.895365
  0
ARC
  5
5C5
100
AcDbEntity
  8
0
370
    -3
390
0
  6
Continuous
100
AcDbCircle
 10
556.571557
 20
-162.080755
 30
0.0
 40
2.0
100
AcDbArc
 50
226.225853
 51
330.0
  0
ARC
  5
5C6
100
AcDbEntity
  8
0
370
    -3
390
0
  6
Continuous
100
AcDbCircle
 10
555.19375
 20
-152.917233
 30
0.0
 40
2.0
100
AcDbArc
 50
20.667316
 51
90.0
  0
ARC
  5
5C7
100
AcDbEntity
  8
0
370
    -3
390
0
  6
Continuous
100
AcDbCircle
 10
550.975111
 20
-152.917233
 30
0.0
 40
2.0
100
AcDbArc
 50
90.0
 51
196.60155
  0
ARC
  5
5C8
100
AcDbEntity
  8
0
370
    -3
390
0
  6
Continuous
100
AcDbCircle
 10
537.633322
 20
-152.917233
 30
0.0
 40
2.0
100
AcDbArc
 50
90.0
 51
190.164249
  0
ARC
  5
5C9
100
AcDbEntity
  8
0
370
    -3
390
0
  6
Continuous
100
AcDbCircle
 10
541.705846
 20
-152.917233
 30
0.0
 40
2.0
100
AcDbArc
 50
11.536959
 51
90.0
  0
ARC
  5
5CA
100
AcDbEntity
  8
0
370
    -3
390
0
  6
Continuous
100
AcDbCircle
 10
551.979397
 20
-170.03461
 30
0.0
 40
2.0
100
AcDbArc
 50
330.0
 51
50.405932
  0
ARC
  5
5CB
100
AcDbEntity
  8
0
370
    -3
390
0
  6
Continuous
100
AcDbCircle
 10
549.954425
 20
-173.541965
 30
0.0
 40
2.0
100
AcDbArc
 50
231.543481
 51
330.0
  0
ARC
  5
5CC
100
AcDbEntity
  8
0
370
    -3
390
0
  6
Continuous
100
AcDbCircle
 10
543.402953
 20
-184.889445
 30
0.0
 40
2.0
100
AcDbArc
 50
233.893148
 51
330.0
  0
ARC
  5
5CD
100
AcDbEntity
  8
0
370
    -3
390
0
  6
Continuous
100
AcDbCircle
 10
545.41544
 20
-181.403717
 30
0.0
 40
2.0
100
AcDbArc
 50
330.0
 51
53.322595
  0
ARC
  5
5CE
100
AcDbEntity
  8
0
370
    -3
390
0
  6
Continuous
100
AcDbCircle
 10
528.520386
 20
-152.917233
 30
0.0
 40
2.0
100
AcDbArc
 50
8.020933
 51
90.0
  0
ARC
  5
5CF
100
AcDbEntity
  8
0
370
    -3
390
0
  6
Continuous
100
AcDbCircle
 10
524.484275
 20
-152.917233
 30
0.0
 40
2.0
100
AcDbArc
 50
90.0
 51
187.334369
  0
ARC
  5
5D0
100
AcDbEntity
  8
0
370
    -3
390
0
  6
Continuous
100
AcDbCircle
 10
515.42208
 20
-152.917233
 30
0.0
 40
2.0
100
AcDbArc
 50
6.15064
 51
90.0
  0
ARC
  5
5D1
100
AcDbEntity
  8
0
370
    -3
390
0
  6
Continuous
100
AcDbCircle
 10
538.881427
 20
-192.720959
 30
0.0
 40
2.0
100
AcDbArc
 50
330.0
 51
54.877484
  0
ARC
  5
5D2
100
AcDbEntity
  8
0
370
    -3
390
0
  6
Continuous
100
AcDbCircle
 10
536.873944
 20
-196.198021
 30
0.0
 40
2.0
100
AcDbArc
 50
235.219808
 51
330.0
  0
ARC
  5
5D3
100
AcDbEntity
  8
0
370
    -3
390
0
  6
Continuous
100
AcDbCircle
 10
511.400477
 20
-152.917233
 30
0.0
 40
2.0
100
AcDbArc
 50
90.0
 51
185.73917
  0
ARC
  5
5D4
100
AcDbEntity
  8
0
370
    -3
390
0
  6
Continuous
100
AcDbCircle
 10
571.099723
 20
-146.917233
 30
0.0
 40
15.0
100
AcDbArc
 50
200.667316
 51
222.895365
  0
ARC
  5
5D5
100
AcDbEntity
  8
0
370
    -3
390
0
  6
Continuous
100
AcDbCircle
 10
571.099723
 20
-146.917233
 30
0.0
 40
23.0
100
AcDbArc
 50
196.60155
 51
226.225853
  0
ARC
  5
5D6
100
AcDbEntity
  8
0
370
    -3
390
0
  6
Continuous
100
AcDbCircle
 10
571.099723
 20
-146.917233
 30
0.0
 40
28.0
100
AcDbArc
 50
191.536959
 51
230.405932
  0
ARC
  5
5D7
100
AcDbEntity
  8
0
370
    -3
390
0
  6
Continuous
100
AcDbCircle
 10
571.099723
 20
-146.917233
 30
0.0
 40
36.0
100
AcDbArc
 50
190.164249
 51
231.543481
  0
ARC
  5
5D8
100
AcDbEntity
  8
0
370
    -3
390
0
  6
Continuous
100
AcDbCircle
 10
571.099723
 20
-146.917233
 30
0.0
 40
41.0
100
AcDbArc
 50
188.020933
 51
233.322595
  0
ARC
  5
5D9
100
AcDbEntity
  8
0
370
    -3
390
0
  6
Continuous
100
AcDbCircle
 10
571.099723
 20
-146.917233
 30
0.0
 40
49.0
100
AcDbArc
 50
187.334369
 51
233.893148
  0
ARC
  5
5DA
100
AcDbEntity
  8
0
370
    -3
390
0
  6
Continuous
100
AcDbCircle
 10
571.099723
 20
-146.917233
 30
0.0
 40
54.0
100
AcDbArc
 50
186.15064
 51
234.877484
  0
ARC
  5
5DB
100
AcDbEntity
  8
0
370
    -3
390
0
  6
Continuous
100
AcDbCircle
 10
571.099723
 20
-146.917233
 30
0.0
 40
62.0
100
AcDbArc
 50
185.73917
 51
235.219808
  0
LINE
  5
5DC
100
AcDbEntity
  8
0
370
    -3
390
0
  6
Continuous
100
AcDbLine
 10
551.686475
 20
-174.541965
 30
0.0
 11
553.711448
 21
-171.03461
 31
0.0
  0
LINE
  5
5DD
100
AcDbEntity
  8
0
370
    -3
390
0
  6
Continuous
100
AcDbLine
 10
545.135004
 20
-185.889445
 30
0.0
 11
547.147491
 21
-182.403717
 31
0.0
  0
LINE
  5
5DE
100
AcDbEntity
  8
0
370
    -3
390
0
  6
Continuous
100
AcDbLine
 10
538.605995
 20
-197.198021
 30
0.0
 11
540.613478
 21
-193.720959
 31
0.0
  0
LINE
  5
5DF
100
AcDbEntity
  8
0
370
    -3
390
0
  6
Continuous
100
AcDbLine
 10
511.400477
 20
-150.917233
 30
0.0
 11
515.42208
 21
-150.917233
 31
0.0
  0
LINE
  5
5E0
100
AcDbEntity
  8
0
370
    -3
390
0
  6
Continuous
100
AcDbLine
 10
524.484275
 20
-150.917233
 30
0.0
 11
528.520386
 21
-150.917233
 31
0.0
  0
LINE
  5
5E1
100
AcDbEntity
  8
0
370
    -3
390
0
  6
Continuous
100
AcDbLine
 10
537.633322
 20
-150.917233
 30
0.0
 11
541.705846
 21
-150.917233
 31
0.0
  0
LINE
  5
5E2
100
AcDbEntity
  8
0
370
    -3
390
0
  6
Continuous
100
AcDbLine
 10
558.303608
 20
-163.080755
 30
0.0
 11
560.377609
 21
-159.48848
 31
0.0
  0
LINE
  5
5E3
100
AcDbEntity
  8
0
370
    -3
390
0
  6
Continuous
100
AcDbLine
 10
550.975111
 20
-150.917233
 30
0.0
 11
555.19375
 21
-150.917233
 31
0.0
  0
ARC
  5
5E4
100
AcDbEntity
  8
0
370
    -3
390
0
  6
Continuous
100
AcDbCircle
 10
530.355313
 20
-207.488621
 30
0.0
 40
2.0
100
AcDbArc
 50
236.072557
 51
330.0
  0
ARC
  5
5E5
100
AcDbEntity
  8
0
370
    -3
390
0
  6
Continuous
100
AcDbCircle
 10
498.346716
 20
-152.917233
 30
0.0
 40
2.0
100
AcDbArc
 50
90.0
 51
184.714561
  0
LINE
  5
5E6
100
AcDbEntity
  8
0
370
    -3
390
0
  6
Continuous
100
AcDbLine
 10
532.087364
 20
-208.488621
 30
0.0
 11
533.841692
 21
-205.450036
 31
0.0
  0
LINE
  5
5E7
100
AcDbEntity
  8
0
370
    -3
390
0
  6
Continuous
100
AcDbLine
 10
498.346716
 20
-150.917233
 30
0.0
 11
501.8592
 21
-150.917233
 31
0.0
  0
CIRCLE
  5
5E8
100
AcDbEntity
  8
0
370
    -3
390
0
  6
Continuous
100
AcDbCircle
 10
571.099723
 20
-146.917233
 30
0.0
 40
5.0
  0
ENDSEC
  0
SECTION
  2
OBJECTS
  0
DICTIONARY
  5
19
100
AcDbDictionary
280
     0
281
     1
  3
ACAD_GROUP
350
1A
  3
ACAD_MLINESTYLE
350
1B
  3
ACAD_LAYOUT
350
1E
  3
ACAD_PLOTSETTINGS
350
22
  3
ACAD_PLOTSTYLENAME
350
1F
  3
ACAD_WIPEOUT_VARS
350
23
  3
DWGPROPS
350
5E9
  0
DICTIONARY
  5
1A
102
{ACAD_REACTORS
330
19
102
}
100
AcDbDictionary
280
     0
281
     1
  0
DICTIONARY
  5
1B
102
{ACAD_REACTORS
330
19
102
}
100
AcDbDictionary
280
     0
281
     1
  3
Standard
350
1C
  0
MLINESTYLE
  5
1C
102
{ACAD_REACTORS
330
1B
102
}
100
AcDbMlineStyle
  2
Standard
 70
     0
  3

 62
     0
 51
90.0
 52
90.0
 71
     2
 49
0.5
 62
   256
  6
ByLayer
 49
-0.5
 62
   256
  6
ByLayer
  0
ACDBDICTIONARYWDFLT
  5
1F
102
{ACAD_REACTORS
330
19
102
}
100
AcDbDictionary
281
     1
  3
Normal
350
1D
100
AcDbDictionaryWithDefault
340
1D
  0
ACDBPLACEHOLDER
  5
1D
102
{ACAD_REACTORS
330
1F
102
}
  0
LAYOUT
  5
20
102
{ACAD_REACTORS
330
1E
102
}
100
AcDbPlotSettings
  1

  2

  4

  6

 40
0.0
 41
0.0
 42
0.0
 43
0.0
 44
0.0
 45
0.0
 46
0.0
 47
0.0
 48
0.0
 49
0.0
140
0.0
141
0.0
142
1.0
143
1.0
 70
  1024
 72
     0
 73
     0
 74
     0
  7

 75
     0
147
1.0
148
0.0
149
0.0
100
AcDbLayout
  1
Model
 70
     0
 71
     0
 10
0.0
 20
0.0
 11
0.0
 21
0.0
 12
0.0
 22
0.0
 32
0.0
 14
0.0
 24
0.0
 34
0.0
 15
0.0
 25
0.0
 35
0.0
146
0.0
 13
0.0
 23
0.0
 33
0.0
 16
0.0
 26
0.0
 36
0.0
 17
0.0
 27
0.0
 37
0.0
 76
     0
330
A
331
0
345
0
346
0
  0
LAYOUT
  5
21
102
{ACAD_REACTORS
330
1E
102
}
100
AcDbPlotSettings
  1

  2

  4

  6

 40
0.0
 41
0.0
 42
0.0
 43
0.0
 44
0.0
 45
0.0
 46
0.0
 47
0.0
 48
0.0
 49
0.0
140
0.0
141
0.0
142
1.0
143
1.0
 70
     0
 72
     0
 73
     0
 74
     0
  7

 75
     0
147
1.0
148
0.0
149
0.0
100
AcDbLayout
  1
Layout1
 70
     0
 71
     0
 10
0.0
 20
0.0
 11
0.0
 21
0.0
 12
0.0
 22
0.0
 32
0.0
 14
0.0
 24
0.0
 34
0.0
 15
0.0
 25
0.0
 35
0.0
146
0.0
 13
0.0
 23
0.0
 33
0.0
 16
0.0
 26
0.0
 36
0.0
 17
0.0
 27
0.0
 37
0.0
 76
     0
330
B
331
0
345
0
346
0
  0
DICTIONARY
  5
1E
102
{ACAD_REACTORS
330
19
102
}
100
AcDbDictionary
280
     0
281
     1
  3
Layout1
350
21
  3
Model
350
20
  0
DICTIONARY
  5
22
102
{ACAD_REACTORS
330
19
102
}
100
AcDbDictionary
280
     0
281
     1
  0
WIPEOUTVARIABLES
  5
23
100
AcDbWipeoutVariables
 70
     1
  0
XRECORD
  5
5E9
100
AcDbXrecord
280
     1
  1
DWGPROPS COOKIE
  2

  3

  4

  6

  7

  8
YP81315
  9

300
=
301
=
302
=
303
=
304
=
305
=
306
=
307
=
308
=
309
=
 40
0.0
 41
2456812.5839
 42
2456812.5839
  1

 90
        0
  0
ENDSEC
  0
EOF
