  0
SECTION
  2
HEADER
  9
$ACADVER
  1
AC1015
  9
$ACADMAINTVER
 70
     6
  9
$DWGCODEPAGE
  3
ANSI_932
  9
$INSBASE
 10
0.0
 20
0.0
 30
0.0
  9
$EXTMIN
 10
1.000000E+20
 20
1.000000E+20
 30
1.000000E+20
  9
$EXTMAX
 10
-1.000000E+20
 20
-1.000000E+20
 30
-1.000000E+20
  9
$LIMMIN
 10
0.0
 20
0.0
  9
$LIMMAX
 10
0.0
 20
0.0
  9
$ORTHOMODE
 70
     0
  9
$REGENMODE
 70
     1
  9
$FILLMODE
 70
     1
  9
$QTEXTMODE
 70
     0
  9
$MIRRTEXT
 70
     1
  9
$LTSCALE
 40
1.0
  9
$ATTMODE
 70
     1
  9
$TEXTSIZE
 40
3.2
  9
$TRACEWID
 40
0.05
  9
$TEXTSTYLE
  7
Standard
  9
$CLAYER
  8
0
  9
$CELTYPE
  6
Continuous
  9
$CECOLOR
 62
   256
  9
$CELTSCALE
 40
1.0
  9
$DISPSILH
 70
     0
  9
$DIMSCALE
 40
1.0
  9
$DIMASZ
 40
3.863703
  9
$DIMEXO
 40
1.0
  9
$DIMDLI
 40
0.38
  9
$DIMRND
 40
0.0
  9
$DIMDLE
 40
0.0
  9
$DIMEXE
 40
2.0
  9
$DIMTP
 40
0.0
  9
$DIMTM
 40
0.0
  9
$DIMTXT
 40
3.2
  9
$DIMCEN
 40
0.09
  9
$DIMTSZ
 40
0.0
  9
$DIMTOL
 70
     0
  9
$DIMLIM
 70
     0
  9
$DIMTIH
 70
     1
  9
$DIMTOH
 70
     1
  9
$DIMSE1
 70
     0
  9
$DIMSE2
 70
     0
  9
$DIMTAD
 70
     1
  9
$DIMZIN
 70
     0
  9
$DIMBLK
  1

  9
$DIMASO
 70
     1
  9
$DIMSHO
 70
     1
  9
$DIMPOST
  1

  9
$DIMAPOST
  1

  9
$DIMALT
 70
     0
  9
$DIMALTD
 70
     2
  9
$DIMALTF
 40
25.4
  9
$DIMLFAC
 40
1.0
  9
$DIMTOFL
 70
     0
  9
$DIMTVP
 40
0.0
  9
$DIMTIX
 70
     0
  9
$DIMSOXD
 70
     0
  9
$DIMSAH
 70
     0
  9
$DIMBLK1
  1

  9
$DIMBLK2
  1

  9
$DIMSTYLE
  2
Standard
  9
$DIMCLRD
 70
     0
  9
$DIMCLRE
 70
     0
  9
$DIMCLRT
 70
     0
  9
$DIMTFAC
 40
0.625
  9
$DIMGAP
 40
0.09
  9
$DIMJUST
 70
     0
  9
$DIMSD1
 70
     0
  9
$DIMSD2
 70
     0
  9
$DIMTOLJ
 70
     1
  9
$DIMTZIN
 70
     0
  9
$DIMALTZ
 70
     0
  9
$DIMALTTZ
 70
     0
  9
$DIMUPT
 70
     0
  9
$DIMDEC
 70
     4
  9
$DIMTDEC
 70
     4
  9
$DIMALTU
 70
     2
  9
$DIMALTTD
 70
     2
  9
$DIMTXSTY
  7
Standard
  9
$DIMAUNIT
 70
     0
  9
$DIMADEC
 70
     0
  9
$DIMALTRND
 40
0.0
  9
$DIMAZIN
 70
     0
  9
$DIMDSEP
 70
     0
  9
$DIMATFIT
 70
     3
  9
$DIMFRAC
 70
     0
  9
$DIMLDRBLK
  1

  9
$DIMLUNIT
 70
     2
  9
$DIMLWD
 70
     0
  9
$DIMLWE
 70
     0
  9
$DIMTMOVE
 70
     0
  9
$LUNITS
 70
     2
  9
$LUPREC
 70
     3
  9
$SKETCHINC
 40
0.1
  9
$FILLETRAD
 40
0.0
  9
$AUNITS
 70
     0
  9
$AUPREC
 70
     0
  9
$MENU
  1
acad
  9
$ELEVATION
 40
0.0
  9
$PELEVATION
 40
0.0
  9
$THICKNESS
 40
0.0
  9
$LIMCHECK
 70
     0
  9
$CHAMFERA
 40
0.0
  9
$CHAMFERB
 40
0.0
  9
$CHAMFERC
 40
0.0
  9
$CHAMFERD
 40
0.0
  9
$SKPOLY
 70
     0
  9
$TDCREATE
 40
0.000000000
  9
$TDUCREATE
 40
0.000000000
  9
$TDUPDATE
 40
0.000000000
  9
$TDUUPDATE
 40
0.000000000
  9
$TDINDWG
 40
0.0000000000
  9
$TDUSRTIMER
 40
0.0000000000
  9
$USRTIMER
 70
     1
  9
$ANGBASE
 50
0.0
  9
$ANGDIR
 70
     0
  9
$PDMODE
 70
     0
  9
$PDSIZE
 40
0.0
  9
$PLINEWID
 40
0.0
  9
$SPLFRAME
 70
     0
  9
$SPLINETYPE
 70
     6
  9
$SPLINESEGS
 70
     8
  9
$HANDSEED
  5
5ED
  9
$SURFTAB1
 70
     6
  9
$SURFTAB2
 70
     6
  9
$SURFTYPE
 70
     6
  9
$SURFU
 70
     6
  9
$SURFV
 70
     6
  9
$UCSBASE
  2

  9
$UCSNAME
  2

  9
$UCSORG
 10
0.0
 20
0.0
 30
0.0
  9
$UCSXDIR
 10
1.0
 20
0.0
 30
0.0
  9
$UCSYDIR
 10
0.0
 20
1.0
 30
0.0
  9
$UCSORTHOREF
  2

  9
$UCSORTHOVIEW
 70
     0
  9
$UCSORGTOP
 10
0.0
 20
0.0
 30
0.0
  9
$UCSORGBOTTOM
 10
0.0
 20
0.0
 30
0.0
  9
$UCSORGLEFT
 10
0.0
 20
0.0
 30
0.0
  9
$UCSORGRIGHT
 10
0.0
 20
0.0
 30
0.0
  9
$UCSORGFRONT
 10
0.0
 20
0.0
 30
0.0
  9
$UCSORGBACK
 10
0.0
 20
0.0
 30
0.0
  9
$PUCSBASE
  2

  9
$PUCSNAME
  2

  9
$PUCSORG
 10
0.0
 20
0.0
 30
0.0
  9
$PUCSXDIR
 10
1.0
 20
0.0
 30
0.0
  9
$PUCSYDIR
 10
0.0
 20
1.0
 30
0.0
  9
$PUCSORTHOREF
  2

  9
$PUCSORTHOVIEW
 70
     0
  9
$PUCSORGTOP
 10
0.0
 20
0.0
 30
0.0
  9
$PUCSORGBOTTOM
 10
0.0
 20
0.0
 30
0.0
  9
$PUCSORGLEFT
 10
0.0
 20
0.0
 30
0.0
  9
$PUCSORGRIGHT
 10
0.0
 20
0.0
 30
0.0
  9
$PUCSORGFRONT
 10
0.0
 20
0.0
 30
0.0
  9
$PUCSORGBACK
 10
0.0
 20
0.0
 30
0.0
  9
$USERI1
 70
     0
  9
$USERI2
 70
     0
  9
$USERI3
 70
     0
  9
$USERI4
 70
     0
  9
$USERI5
 70
     0
  9
$USERR1
 40
0.0
  9
$USERR2
 40
0.0
  9
$USERR3
 40
0.0
  9
$USERR4
 40
0.0
  9
$USERR5
 40
0.0
  9
$WORLDVIEW
 70
     1
  9
$SHADEDGE
 70
     3
  9
$SHADEDIF
 70
    70
  9
$TILEMODE
 70
     1
  9
$MAXACTVP
 70
    16
  9
$PINSBASE
 10
0.0
 20
0.0
 30
0.0
  9
$PLIMCHECK
 70
     0
  9
$PEXTMIN
 10
1.000000E+20
 20
1.000000E+20
 30
1.000000E+20
  9
$PEXTMAX
 10
-1.000000E+20
 20
-1.000000E+20
 30
-1.000000E+20
  9
$PLIMMIN
 10
0.0
 20
0.0
  9
$PLIMMAX
 10
12.0
 20
9.0
  9
$UNITMODE
 70
     0
  9
$VISRETAIN
 70
     0
  9
$PLINEGEN
 70
     1
  9
$PSLTSCALE
 70
     0
  9
$TREEDEPTH
 70
  3020
  9
$CMLSTYLE
  2
Standard
  9
$CMLJUST
 70
     0
  9
$CMLSCALE
 40
1.0
  9
$PROXYGRAPHICS
 70
     0
  9
$MEASUREMENT
 70
     0
  9
$CELWEIGHT
370
     0
  9
$ENDCAPS
280
     0
  9
$JOINSTYLE
280
     0
  9
$LWDISPLAY
290
     0
  9
$INSUNITS
 70
     0
  9
$HYPERLINKBASE
  1

  9
$STYLESHEET
  1

  9
$XEDIT
290
     1
  9
$CEPSNTYPE
380
     0
  9
$PSTYLEMODE
290
     1
  9
$FINGERPRINTGUID
  2

  9
$VERSIONGUID
  2

  9
$EXTNAMES
290
     1
  9
$PSVPSCALE
 40
0.0
  0
ENDSEC
  0
SECTION
  2
CLASSES
  0
CLASS
  1
LWPOLYLINE
  2
AcDbPolyline
  3
AutoCAD 2000
 90
        0
280
     0
281
     1
  0
CLASS
  1
IMAGE
  2
AcDbRasterImage
  3
ISM
 90
      127
280
     0
281
     1
  0
CLASS
  1
OLE2FRAME
  2
AcDbOle2Frame
  3
AutoCAD 2000
 90
        0
280
     0
281
     1
  0
CLASS
  1
HATCH
  2
AcDbHatch
  3
AutoCAD 2000
 90
        0
280
     0
281
     1
  0
CLASS
  1
DICTIONARYVAR
  2
AcDbDictionaryVar
  3
AutoCAD 2000
 90
        0
280
     0
281
     0
  0
CLASS
  1
RASTERVARIABLES
  2
AcDbRasterVariables
  3
ISM
 90
        0
280
     0
281
     0
  0
CLASS
  1
IMAGEDEF
  2
AcDbRasterImageDef
  3
ISM
 90
        0
280
     0
281
     0
  0
CLASS
  1
IMAGEDEF_REACTOR
  2
AcDbRasterImageDefReactor
  3
ISM
 90
        1
280
     0
281
     0
  0
CLASS
  1
IDBUFFER
  2
AcDbIdBuffer
  3
AutoCAD 2000
 90
        0
280
     0
281
     0
  0
CLASS
  1
SPATIAL_FILTER
  2
AcDbSpatialFilter
  3
AutoCAD 2000
 90
        0
280
     0
281
     0
  0
CLASS
  1
XRECORD
  2
AcDbXrecord
  3
AutoCAD 2000
 90
        0
280
     0
281
     0
  0
CLASS
  1
SORTENTSTABLE
  2
AcDbSortentsTable
  3
AutoCAD 2000
 90
        0
280
     0
281
     0
  0
CLASS
  1
LAYER_INDEX
  2
AcDbLayerIndex
  3
AutoCAD 2000
 90
        0
280
     0
281
     0
  0
CLASS
  1
SPATIAL_INDEX
  2
AcDbSpatialIndex
  3
AutoCAD 2000
 90
        0
280
     0
281
     0
  0
CLASS
  1
OBJECT_PTR
  2
CAseDLPNTableRecord
  3
"ASE-LPNTableRecord"
 90
        1
280
     0
281
     0
  0
CLASS
  1
LAYOUT
  2
AcDbLayout
  3
AutoCAD 2000
 90
        0
280
     0
281
     0
  0
CLASS
  1
PLOTSETTINGS
  2
AcDbPlotSettings
  3
AutoCAD 2000
 90
        0
280
     0
281
     0
  0
CLASS
  1
ACDBDICTIONARYWDFLT
  2
AcDbDictionaryWithDefault
  3
AutoCAD 2000
 90
        0
280
     0
281
     0
  0
CLASS
  1
ACDBPLACEHOLDER
  2
AcDbPlaceHolder
  3
AutoCAD 2000
 90
        0
280
     0
281
     0
  0
CLASS
  1
VBA_PROJECT
  2
AcDbVbaProject
  3
acadvba
 90
        0
280
     0
281
     0
  0
CLASS
  1
WIPEOUT
  2
AcDbWipeout
  3
WipeOut|AutoCAD Express Tool|expresstools@autodesk.com
 90
      127
280
     0
281
     1
  0
CLASS
  1
WIPEOUTVARIABLES
  2
AcDbWipeoutVariables
  3
WipeOut|AutoCAD Express Tool|expresstools@autodesk.com
 90
        0
280
     0
281
     0
  0
CLASS
  1
RTEXT
  2
RText
  3
RText|AutoCAD Express Tool|expresstools@autodesk.com
 90
        0
280
     0
281
     1
  0
CLASS
  1
ARCALIGNEDTEXT
  2
AcDbArcAlignedText
  3
ATEXT|AutoCAD Express Tool|expresstools@autodesk.com
 90
        0
280
     0
281
     1
  0
ENDSEC
  0
SECTION
  2
TABLES
  0
TABLE
  2
VPORT
  5
7
100
AcDbSymbolTable
 70
     1
  0
VPORT
  5
15
100
AcDbSymbolTableRecord
100
AcDbViewportTableRecord
  2
*ACTIVE
 70
     0
 10
0.0
 20
0.0
 11
1.0
 21
1.0
 12
0.0
 22
0.0
 13
0.0
 23
0.0
 14
1.0
 24
1.0
 15
0.0
 25
0.0
 16
0.0
 26
0.0
 36
1.0
 17
0.0
 27
0.0
 37
0.0
 40
100.0
 41
1.0
 42
50.0
 43
0.0
 44
0.0
 50
0.0
 51
0.0
 71
     0
 72
   100
 73
     1
 74
     1
 75
     0
 76
     0
 77
     0
 78
     0
281
     0
 65
     0
110
0.0
120
0.0
130
0.0
111
1.0
121
0.0
131
0.0
112
0.0
122
1.0
132
0.0
345
0
346
0
 79
     0
146
0.0
  0
ENDTAB
  0
TABLE
  2
LTYPE
  5
4
100
AcDbSymbolTable
 70
     7
  0
LTYPE
  5
11
100
AcDbSymbolTableRecord
100
AcDbLinetypeTableRecord
  2
ByBlock
 70
    64
  3

 72
    65
 73
     0
 40
0.0
  0
LTYPE
  5
12
100
AcDbSymbolTableRecord
100
AcDbLinetypeTableRecord
  2
ByLayer
 70
    64
  3

 72
    65
 73
     0
 40
0.0
  0
LTYPE
  5
13
100
AcDbSymbolTableRecord
100
AcDbLinetypeTableRecord
  2
Continuous
 70
    64
  3
Solid line
 72
    65
 73
     0
 40
0.0
  0
LTYPE
  5
24
100
AcDbSymbolTableRecord
100
AcDbLinetypeTableRecord
  2
DASHED
 70
    64
  3
Dashed __ __ __ __ __ __ __ __ __ __ __ __ __ _
 72
    65
 73
     2
 40
0.75
 49
0.5
 74
     0
 49
-0.25
 74
     0
  0
LTYPE
  5
25
100
AcDbSymbolTableRecord
100
AcDbLinetypeTableRecord
  2
CENTER
 70
    64
  3
Center ____ _ ____ _ ____ _ ____ _ ____ _ ____
 72
    65
 73
     4
 40
1.0
 49
0.5
 74
     0
 49
-0.25
 74
     0
 49
0.0
 74
     0
 49
-0.25
 74
     0
  0
LTYPE
  5
26
100
AcDbSymbolTableRecord
100
AcDbLinetypeTableRecord
  2
DIVIDE
 70
    64
  3
Divide ____ . . ____ . . ____ . . ____ . . ____
 72
    65
 73
     6
 40
1.25
 49
0.5
 74
     0
 49
-0.25
 74
     0
 49
0.0
 74
     0
 49
-0.25
 74
     0
 49
0.0
 74
     0
 49
-0.25
 74
     0
  0
LTYPE
  5
27
100
AcDbSymbolTableRecord
100
AcDbLinetypeTableRecord
  2
PHANTOM
 70
    64
  3
Phantom ______  __  __  ______  __  __  ______
 72
    65
 73
     6
 40
9.0
 49
4.3
 74
     0
 49
-0.7
 74
     0
 49
1.3
 74
     0
 49
-0.7
 74
     0
 49
1.3
 74
     0
 49
-0.7
 74
     0
  0
ENDTAB
  0
TABLE
  2
LAYER
  5
2
100
AcDbSymbolTable
 70
     2
  0
LAYER
  5
14
100
AcDbSymbolTableRecord
100
AcDbLayerTableRecord
  2
0
 70
    64
 62
   102
  6
Continuous
290
     1
370
    -3
390
1D
  0
LAYER
  5
28
100
AcDbSymbolTableRecord
100
AcDbLayerTableRecord
  2
1
 70
    64
 62
     2
  6
Continuous
290
     1
370
    -3
390
1D
  0
ENDTAB
  0
TABLE
  2
STYLE
  5
3
100
AcDbSymbolTable
 70
     2
  0
STYLE
  5
17
100
AcDbSymbolTableRecord
100
AcDbTextStyleTableRecord
  2
Standard
 70
     0
 40
0.0
 41
1.0
 50
0.0
 71
     0
 42
0.0
  3
txt
  4

  0
STYLE
  5
242
100
AcDbSymbolTableRecord
100
AcDbTextStyleTableRecord
  2
ZU_SHPTB00001
 70
     0
 40
0.0
 41
1.0
 50
0.0
 71
     0
 42
0.0
  3
monotxt
  4
bigfont
  0
ENDTAB
  0
TABLE
  2
VIEW
  5
5
100
AcDbSymbolTable
 70
     0
  0
ENDTAB
  0
TABLE
  2
UCS
  5
6
100
AcDbSymbolTable
 70
     0
  0
ENDTAB
  0
TABLE
  2
APPID
  5
8
100
AcDbSymbolTable
 70
     1
  0
APPID
  5
16
100
AcDbSymbolTableRecord
100
AcDbRegAppTableRecord
  2
ACAD
 70
     0
  0
ENDTAB
  0
TABLE
  2
DIMSTYLE
  5
9
100
AcDbSymbolTable
 70
     1
100
AcDbDimStyleTable
 71
     0
  0
DIMSTYLE
105
18
100
AcDbSymbolTableRecord
100
AcDbDimStyleTableRecord
  2
Standard
 70
     0
  3

  4

 40
1.0
 41
0.18
 42
0.0625
 43
0.38
 44
0.18
 45
0.0
 46
0.0
 47
0.0
 48
0.0
 71
     0
 72
     0
 73
     1
 74
     1
 75
     0
 76
     0
 77
     0
 78
     0
 79
     0
140
0.18
141
0.09
142
0.0
143
25.4
144
1.0
145
0.0
146
1.0
147
0.09
148
0.0
170
     0
171
     2
172
     0
173
     0
174
     0
175
     0
176
     0
177
     0
178
     0
179
     0
271
     4
272
     4
273
     2
274
     2
275
     0
276
     0
277
     2
278
    46
279
     0
280
     0
281
     0
282
     0
283
     1
284
     0
285
     0
286
     0
288
     0
289
     3
340
17
341
0
342
0
343
0
344
0
371
    -2
372
    -2
  0
ENDTAB
  0
TABLE
  2
BLOCK_RECORD
  5
1
100
AcDbSymbolTable
 70
     9
  0
BLOCK_RECORD
  5
A
100
AcDbSymbolTableRecord
100
AcDbBlockTableRecord
  2
*MODEL_SPACE
340
20
  0
BLOCK_RECORD
  5
B
100
AcDbSymbolTableRecord
100
AcDbBlockTableRecord
  2
*PAPER_SPACE
340
21
  0
BLOCK_RECORD
  5
18A
100
AcDbSymbolTableRecord
100
AcDbBlockTableRecord
  2
ZU_SYM_K__CAD_SYM_POO_SYM_B20_18
340
0
102
{BLKREFS
331
195
102
}
  0
BLOCK_RECORD
  5
1D8
100
AcDbSymbolTableRecord
100
AcDbBlockTableRecord
  2
ZU_SYM_K__CAD_SYM_POO_SYM_B20_07
340
0
102
{BLKREFS
331
1E4
102
}
  0
BLOCK_RECORD
  5
1E5
100
AcDbSymbolTableRecord
100
AcDbBlockTableRecord
  2
ZU_SYM_K__CAD_SYM_POO_SYM_B20_0000107
340
0
102
{BLKREFS
331
1F1
102
}
  0
BLOCK_RECORD
  5
1F2
100
AcDbSymbolTableRecord
100
AcDbBlockTableRecord
  2
ZU_SYM_K__CAD_SYM_POO_SYM_B20_0000207
340
0
102
{BLKREFS
331
1FE
102
}
  0
BLOCK_RECORD
  5
1FF
100
AcDbSymbolTableRecord
100
AcDbBlockTableRecord
  2
ZU_SYM_K__CAD_SYM_POO_SYM_B20_0000307
340
0
102
{BLKREFS
331
20B
102
}
  0
BLOCK_RECORD
  5
20C
100
AcDbSymbolTableRecord
100
AcDbBlockTableRecord
  2
ZU_SYM_K__CAD_SYM_POO_SYM_B20_0000407
340
0
102
{BLKREFS
331
218
102
}
  0
BLOCK_RECORD
  5
219
100
AcDbSymbolTableRecord
100
AcDbBlockTableRecord
  2
ZU_SYM_K__CAD_SYM_POO_SYM_B20_0000507
340
0
102
{BLKREFS
331
225
102
}
  0
BLOCK_RECORD
  5
5B9
100
AcDbSymbolTableRecord
100
AcDbBlockTableRecord
  2
ZU_SYM__USR_MELCAD_MD_SYM_SYM_SYM2_00
340
0
102
{BLKREFS
331
5C4
102
}
  0
BLOCK_RECORD
  5
5C5
100
AcDbSymbolTableRecord
100
AcDbBlockTableRecord
  2
ZU_SYM__USR_MELCAD_MD_SYM_SYM_SYM1_00
340
0
102
{BLKREFS
331
5D0
102
}
  0
ENDTAB
  0
ENDSEC
  0
SECTION
  2
BLOCKS
  0
BLOCK
  5
D
100
AcDbEntity
  8
0
390
0
100
AcDbBlockBegin
  2
*MODEL_SPACE
 70
     0
 10
0.0
 20
0.0
 30
0.0
  3
*MODEL_SPACE
  1

  0
ENDBLK
  5
E
100
AcDbEntity
  8
0
390
0
100
AcDbBlockEnd
  0
BLOCK
  5
F
100
AcDbEntity
 67
     1
  8
0
390
0
100
AcDbBlockBegin
  2
*PAPER_SPACE
 70
     0
 10
0.0
 20
0.0
 30
0.0
  3
*PAPER_SPACE
  1

  0
ENDBLK
  5
10
100
AcDbEntity
 67
     1
  8
0
390
0
100
AcDbBlockEnd
  0
BLOCK
  5
18B
100
AcDbEntity
  8
0
390
0
100
AcDbBlockBegin
  2
ZU_SYM_K__CAD_SYM_POO_SYM_B20_18
 70
    64
 10
0.0
 20
0.0
 30
0.0
  3
ZU_SYM_K__CAD_SYM_POO_SYM_B20_18
  1

  0
POINT
  5
18C
100
AcDbEntity
  8
0
370
    -3
390
0
  6
Continuous
100
AcDbPoint
 10
0.0
 20
0.0
 30
0.0
  0
LINE
  5
18D
100
AcDbEntity
  8
0
370
    -3
390
0
  6
Continuous
100
AcDbLine
 10
0.0
 20
-6.5
 30
0.0
 11
0.0
 21
6.5
 31
0.0
  0
LINE
  5
18E
100
AcDbEntity
  8
0
370
    -3
390
0
  6
Continuous
100
AcDbLine
 10
-7.999999
 20
5.633876
 30
0.0
 11
-7.999999
 21
-5.63407
 31
0.0
  0
LINE
  5
18F
100
AcDbEntity
  8
0
370
    -3
390
0
  6
Continuous
100
AcDbLine
 10
0.0
 20
6.5
 30
0.0
 11
-7.499999
 21
6.5
 31
0.0
  0
LINE
  5
190
100
AcDbEntity
  8
0
370
    -3
390
0
  6
Continuous
100
AcDbLine
 10
0.0
 20
-6.5
 30
0.0
 11
-7.499998
 21
-6.5
 31
0.0
  0
LINE
  5
191
100
AcDbEntity
  8
0
370
    -3
390
0
  6
Continuous
100
AcDbLine
 10
-7.499999
 20
6.5
 30
0.0
 11
-7.999999
 21
5.633876
 31
0.0
  0
LINE
  5
192
100
AcDbEntity
  8
0
370
    -3
390
0
  6
Continuous
100
AcDbLine
 10
-7.499998
 20
-6.499999
 30
0.0
 11
-7.999999
 21
-5.63407
 31
0.0
  0
LINE
  5
193
100
AcDbEntity
  8
0
370
    -3
390
0
  6
Continuous
100
AcDbLine
 10
-7.499999
 20
6.5
 30
0.0
 11
-7.499999
 21
-6.5
 31
0.0
  0
ENDBLK
  5
194
100
AcDbEntity
  8
0
390
0
100
AcDbBlockEnd
  0
BLOCK
  5
1D9
100
AcDbEntity
  8
0
390
0
100
AcDbBlockBegin
  2
ZU_SYM_K__CAD_SYM_POO_SYM_B20_07
 70
    64
 10
0.0
 20
0.0
 30
0.0
  3
ZU_SYM_K__CAD_SYM_POO_SYM_B20_07
  1

  0
LINE
  5
1DA
100
AcDbEntity
  8
0
370
    -3
390
0
  6
Continuous
100
AcDbLine
 10
4.999999
 20
-2.886755
 30
0.0
 11
-0.000009
 21
-5.7735
 31
0.0
  0
LINE
  5
1DB
100
AcDbEntity
  8
0
370
    -3
390
0
  6
Continuous
100
AcDbLine
 10
-4.999999
 20
2.886755
 30
0.0
 11
0.000008
 21
5.773499
 31
0.0
  0
LINE
  5
1DC
100
AcDbEntity
  8
0
370
    -3
390
0
  6
Continuous
100
AcDbLine
 10
-0.000009
 20
-5.773499
 30
0.0
 11
-4.999998
 21
-2.886745
 31
0.0
  0
LINE
  5
1DD
100
AcDbEntity
  8
0
370
    -3
390
0
  6
Continuous
100
AcDbLine
 10
4.999998
 20
2.886744
 30
0.0
 11
0.000009
 21
5.7735
 31
0.0
  0
LINE
  5
1DE
100
AcDbEntity
  8
0
370
    -3
390
0
  6
Continuous
100
AcDbLine
 10
4.999998
 20
2.886743
 30
0.0
 11
4.999999
 21
-2.886755
 31
0.0
  0
LINE
  5
1DF
100
AcDbEntity
  8
0
370
    -3
390
0
  6
Continuous
100
AcDbLine
 10
-4.999998
 20
-2.886744
 30
0.0
 11
-4.999999
 21
2.886755
 31
0.0
  0
POINT
  5
1E0
100
AcDbEntity
  8
0
370
    -3
390
0
  6
Continuous
100
AcDbPoint
 10
0.0
 20
0.0
 30
0.0
  0
CIRCLE
  5
1E1
100
AcDbEntity
  8
0
370
    -3
390
0
  6
Continuous
100
AcDbCircle
 10
0.0
 20
0.0
 30
0.0
 40
9.0
  0
CIRCLE
  5
1E2
100
AcDbEntity
  8
0
370
    -3
390
0
  6
Continuous
100
AcDbCircle
 10
0.0
 20
0.0
 30
0.0
 40
7.787524
  0
ENDBLK
  5
1E3
100
AcDbEntity
  8
0
390
0
100
AcDbBlockEnd
  0
BLOCK
  5
1E6
100
AcDbEntity
  8
0
390
0
100
AcDbBlockBegin
  2
ZU_SYM_K__CAD_SYM_POO_SYM_B20_0000107
 70
    64
 10
0.0
 20
0.0
 30
0.0
  3
ZU_SYM_K__CAD_SYM_POO_SYM_B20_0000107
  1

  0
LINE
  5
1E7
100
AcDbEntity
  8
0
370
    -3
390
0
  6
Continuous
100
AcDbLine
 10
4.999999
 20
-2.886755
 30
0.0
 11
-0.000009
 21
-5.7735
 31
0.0
  0
LINE
  5
1E8
100
AcDbEntity
  8
0
370
    -3
390
0
  6
Continuous
100
AcDbLine
 10
-4.999999
 20
2.886755
 30
0.0
 11
0.000008
 21
5.773499
 31
0.0
  0
LINE
  5
1E9
100
AcDbEntity
  8
0
370
    -3
390
0
  6
Continuous
100
AcDbLine
 10
-0.000009
 20
-5.773499
 30
0.0
 11
-4.999998
 21
-2.886745
 31
0.0
  0
LINE
  5
1EA
100
AcDbEntity
  8
0
370
    -3
390
0
  6
Continuous
100
AcDbLine
 10
4.999998
 20
2.886744
 30
0.0
 11
0.000009
 21
5.7735
 31
0.0
  0
LINE
  5
1EB
100
AcDbEntity
  8
0
370
    -3
390
0
  6
Continuous
100
AcDbLine
 10
4.999998
 20
2.886743
 30
0.0
 11
4.999999
 21
-2.886755
 31
0.0
  0
LINE
  5
1EC
100
AcDbEntity
  8
0
370
    -3
390
0
  6
Continuous
100
AcDbLine
 10
-4.999998
 20
-2.886744
 30
0.0
 11
-4.999999
 21
2.886755
 31
0.0
  0
POINT
  5
1ED
100
AcDbEntity
  8
0
370
    -3
390
0
  6
Continuous
100
AcDbPoint
 10
0.0
 20
0.0
 30
0.0
  0
CIRCLE
  5
1EE
100
AcDbEntity
  8
0
370
    -3
390
0
  6
Continuous
100
AcDbCircle
 10
0.0
 20
0.0
 30
0.0
 40
9.0
  0
CIRCLE
  5
1EF
100
AcDbEntity
  8
0
370
    -3
390
0
  6
Continuous
100
AcDbCircle
 10
0.0
 20
0.0
 30
0.0
 40
7.787524
  0
ENDBLK
  5
1F0
100
AcDbEntity
  8
0
390
0
100
AcDbBlockEnd
  0
BLOCK
  5
1F3
100
AcDbEntity
  8
0
390
0
100
AcDbBlockBegin
  2
ZU_SYM_K__CAD_SYM_POO_SYM_B20_0000207
 70
    64
 10
0.0
 20
0.0
 30
0.0
  3
ZU_SYM_K__CAD_SYM_POO_SYM_B20_0000207
  1

  0
LINE
  5
1F4
100
AcDbEntity
  8
0
370
    -3
390
0
  6
Continuous
100
AcDbLine
 10
4.999999
 20
-2.886755
 30
0.0
 11
-0.000009
 21
-5.7735
 31
0.0
  0
LINE
  5
1F5
100
AcDbEntity
  8
0
370
    -3
390
0
  6
Continuous
100
AcDbLine
 10
-4.999999
 20
2.886755
 30
0.0
 11
0.000008
 21
5.773499
 31
0.0
  0
LINE
  5
1F6
100
AcDbEntity
  8
0
370
    -3
390
0
  6
Continuous
100
AcDbLine
 10
-0.000009
 20
-5.773499
 30
0.0
 11
-4.999998
 21
-2.886745
 31
0.0
  0
LINE
  5
1F7
100
AcDbEntity
  8
0
370
    -3
390
0
  6
Continuous
100
AcDbLine
 10
4.999998
 20
2.886744
 30
0.0
 11
0.000009
 21
5.7735
 31
0.0
  0
LINE
  5
1F8
100
AcDbEntity
  8
0
370
    -3
390
0
  6
Continuous
100
AcDbLine
 10
4.999998
 20
2.886743
 30
0.0
 11
4.999999
 21
-2.886755
 31
0.0
  0
LINE
  5
1F9
100
AcDbEntity
  8
0
370
    -3
390
0
  6
Continuous
100
AcDbLine
 10
-4.999998
 20
-2.886744
 30
0.0
 11
-4.999999
 21
2.886755
 31
0.0
  0
POINT
  5
1FA
100
AcDbEntity
  8
0
370
    -3
390
0
  6
Continuous
100
AcDbPoint
 10
0.0
 20
0.0
 30
0.0
  0
CIRCLE
  5
1FB
100
AcDbEntity
  8
0
370
    -3
390
0
  6
Continuous
100
AcDbCircle
 10
0.0
 20
0.0
 30
0.0
 40
9.0
  0
CIRCLE
  5
1FC
100
AcDbEntity
  8
0
370
    -3
390
0
  6
Continuous
100
AcDbCircle
 10
0.0
 20
0.0
 30
0.0
 40
7.787524
  0
ENDBLK
  5
1FD
100
AcDbEntity
  8
0
390
0
100
AcDbBlockEnd
  0
BLOCK
  5
200
100
AcDbEntity
  8
0
390
0
100
AcDbBlockBegin
  2
ZU_SYM_K__CAD_SYM_POO_SYM_B20_0000307
 70
    64
 10
0.0
 20
0.0
 30
0.0
  3
ZU_SYM_K__CAD_SYM_POO_SYM_B20_0000307
  1

  0
LINE
  5
201
100
AcDbEntity
  8
0
370
    -3
390
0
  6
Continuous
100
AcDbLine
 10
4.999999
 20
-2.886755
 30
0.0
 11
-0.000009
 21
-5.7735
 31
0.0
  0
LINE
  5
202
100
AcDbEntity
  8
0
370
    -3
390
0
  6
Continuous
100
AcDbLine
 10
-4.999999
 20
2.886755
 30
0.0
 11
0.000008
 21
5.773499
 31
0.0
  0
LINE
  5
203
100
AcDbEntity
  8
0
370
    -3
390
0
  6
Continuous
100
AcDbLine
 10
-0.000009
 20
-5.773499
 30
0.0
 11
-4.999998
 21
-2.886745
 31
0.0
  0
LINE
  5
204
100
AcDbEntity
  8
0
370
    -3
390
0
  6
Continuous
100
AcDbLine
 10
4.999998
 20
2.886744
 30
0.0
 11
0.000009
 21
5.7735
 31
0.0
  0
LINE
  5
205
100
AcDbEntity
  8
0
370
    -3
390
0
  6
Continuous
100
AcDbLine
 10
4.999998
 20
2.886743
 30
0.0
 11
4.999999
 21
-2.886755
 31
0.0
  0
LINE
  5
206
100
AcDbEntity
  8
0
370
    -3
390
0
  6
Continuous
100
AcDbLine
 10
-4.999998
 20
-2.886744
 30
0.0
 11
-4.999999
 21
2.886755
 31
0.0
  0
POINT
  5
207
100
AcDbEntity
  8
0
370
    -3
390
0
  6
Continuous
100
AcDbPoint
 10
0.0
 20
0.0
 30
0.0
  0
CIRCLE
  5
208
100
AcDbEntity
  8
0
370
    -3
390
0
  6
Continuous
100
AcDbCircle
 10
0.0
 20
0.0
 30
0.0
 40
9.0
  0
CIRCLE
  5
209
100
AcDbEntity
  8
0
370
    -3
390
0
  6
Continuous
100
AcDbCircle
 10
0.0
 20
0.0
 30
0.0
 40
7.787524
  0
ENDBLK
  5
20A
100
AcDbEntity
  8
0
390
0
100
AcDbBlockEnd
  0
BLOCK
  5
20D
100
AcDbEntity
  8
0
390
0
100
AcDbBlockBegin
  2
ZU_SYM_K__CAD_SYM_POO_SYM_B20_0000407
 70
    64
 10
0.0
 20
0.0
 30
0.0
  3
ZU_SYM_K__CAD_SYM_POO_SYM_B20_0000407
  1

  0
LINE
  5
20E
100
AcDbEntity
  8
0
370
    -3
390
0
  6
Continuous
100
AcDbLine
 10
4.999999
 20
-2.886755
 30
0.0
 11
-0.000009
 21
-5.7735
 31
0.0
  0
LINE
  5
20F
100
AcDbEntity
  8
0
370
    -3
390
0
  6
Continuous
100
AcDbLine
 10
-4.999999
 20
2.886755
 30
0.0
 11
0.000008
 21
5.773499
 31
0.0
  0
LINE
  5
210
100
AcDbEntity
  8
0
370
    -3
390
0
  6
Continuous
100
AcDbLine
 10
-0.000009
 20
-5.773499
 30
0.0
 11
-4.999998
 21
-2.886745
 31
0.0
  0
LINE
  5
211
100
AcDbEntity
  8
0
370
    -3
390
0
  6
Continuous
100
AcDbLine
 10
4.999998
 20
2.886744
 30
0.0
 11
0.000009
 21
5.7735
 31
0.0
  0
LINE
  5
212
100
AcDbEntity
  8
0
370
    -3
390
0
  6
Continuous
100
AcDbLine
 10
4.999998
 20
2.886743
 30
0.0
 11
4.999999
 21
-2.886755
 31
0.0
  0
LINE
  5
213
100
AcDbEntity
  8
0
370
    -3
390
0
  6
Continuous
100
AcDbLine
 10
-4.999998
 20
-2.886744
 30
0.0
 11
-4.999999
 21
2.886755
 31
0.0
  0
POINT
  5
214
100
AcDbEntity
  8
0
370
    -3
390
0
  6
Continuous
100
AcDbPoint
 10
0.0
 20
0.0
 30
0.0
  0
CIRCLE
  5
215
100
AcDbEntity
  8
0
370
    -3
390
0
  6
Continuous
100
AcDbCircle
 10
0.0
 20
0.0
 30
0.0
 40
9.0
  0
CIRCLE
  5
216
100
AcDbEntity
  8
0
370
    -3
390
0
  6
Continuous
100
AcDbCircle
 10
0.0
 20
0.0
 30
0.0
 40
7.787524
  0
ENDBLK
  5
217
100
AcDbEntity
  8
0
390
0
100
AcDbBlockEnd
  0
BLOCK
  5
21A
100
AcDbEntity
  8
0
390
0
100
AcDbBlockBegin
  2
ZU_SYM_K__CAD_SYM_POO_SYM_B20_0000507
 70
    64
 10
0.0
 20
0.0
 30
0.0
  3
ZU_SYM_K__CAD_SYM_POO_SYM_B20_0000507
  1

  0
LINE
  5
21B
100
AcDbEntity
  8
0
370
    -3
390
0
  6
Continuous
100
AcDbLine
 10
4.999999
 20
-2.886755
 30
0.0
 11
-0.000009
 21
-5.7735
 31
0.0
  0
LINE
  5
21C
100
AcDbEntity
  8
0
370
    -3
390
0
  6
Continuous
100
AcDbLine
 10
-4.999999
 20
2.886755
 30
0.0
 11
0.000008
 21
5.773499
 31
0.0
  0
LINE
  5
21D
100
AcDbEntity
  8
0
370
    -3
390
0
  6
Continuous
100
AcDbLine
 10
-0.000009
 20
-5.773499
 30
0.0
 11
-4.999998
 21
-2.886745
 31
0.0
  0
LINE
  5
21E
100
AcDbEntity
  8
0
370
    -3
390
0
  6
Continuous
100
AcDbLine
 10
4.999998
 20
2.886744
 30
0.0
 11
0.000009
 21
5.7735
 31
0.0
  0
LINE
  5
21F
100
AcDbEntity
  8
0
370
    -3
390
0
  6
Continuous
100
AcDbLine
 10
4.999998
 20
2.886743
 30
0.0
 11
4.999999
 21
-2.886755
 31
0.0
  0
LINE
  5
220
100
AcDbEntity
  8
0
370
    -3
390
0
  6
Continuous
100
AcDbLine
 10
-4.999998
 20
-2.886744
 30
0.0
 11
-4.999999
 21
2.886755
 31
0.0
  0
POINT
  5
221
100
AcDbEntity
  8
0
370
    -3
390
0
  6
Continuous
100
AcDbPoint
 10
0.0
 20
0.0
 30
0.0
  0
CIRCLE
  5
222
100
AcDbEntity
  8
0
370
    -3
390
0
  6
Continuous
100
AcDbCircle
 10
0.0
 20
0.0
 30
0.0
 40
9.0
  0
CIRCLE
  5
223
100
AcDbEntity
  8
0
370
    -3
390
0
  6
Continuous
100
AcDbCircle
 10
0.0
 20
0.0
 30
0.0
 40
7.787524
  0
ENDBLK
  5
224
100
AcDbEntity
  8
0
390
0
100
AcDbBlockEnd
  0
BLOCK
  5
5BA
100
AcDbEntity
  8
0
390
0
100
AcDbBlockBegin
  2
ZU_SYM__USR_MELCAD_MD_SYM_SYM_SYM2_00
 70
    64
 10
0.0
 20
0.0
 30
0.0
  3
ZU_SYM__USR_MELCAD_MD_SYM_SYM_SYM2_00
  1

  0
POINT
  5
5BB
100
AcDbEntity
  8
0
370
    -3
390
0
  6
Continuous
100
AcDbPoint
 10
0.0
 20
0.0
 30
0.0
  0
LINE
  5
5BC
100
AcDbEntity
  8
0
370
    -3
390
0
  6
Continuous
100
AcDbLine
 10
0.0
 20
-6.5
 30
0.0
 11
0.0
 21
6.5
 31
0.0
  0
LINE
  5
5BD
100
AcDbEntity
  8
0
370
    -3
390
0
  6
Continuous
100
AcDbLine
 10
-7.999999
 20
5.633876
 30
0.0
 11
-7.999999
 21
-5.63407
 31
0.0
  0
LINE
  5
5BE
100
AcDbEntity
  8
0
370
    -3
390
0
  6
Continuous
100
AcDbLine
 10
0.0
 20
6.5
 30
0.0
 11
-7.499999
 21
6.5
 31
0.0
  0
LINE
  5
5BF
100
AcDbEntity
  8
0
370
    -3
390
0
  6
Continuous
100
AcDbLine
 10
0.0
 20
-6.5
 30
0.0
 11
-7.499998
 21
-6.5
 31
0.0
  0
LINE
  5
5C0
100
AcDbEntity
  8
0
370
    -3
390
0
  6
Continuous
100
AcDbLine
 10
-7.499999
 20
6.5
 30
0.0
 11
-7.999999
 21
5.633876
 31
0.0
  0
LINE
  5
5C1
100
AcDbEntity
  8
0
370
    -3
390
0
  6
Continuous
100
AcDbLine
 10
-7.499998
 20
-6.499999
 30
0.0
 11
-7.999999
 21
-5.63407
 31
0.0
  0
LINE
  5
5C2
100
AcDbEntity
  8
0
370
    -3
390
0
  6
Continuous
100
AcDbLine
 10
-7.499999
 20
6.5
 30
0.0
 11
-7.499999
 21
-6.5
 31
0.0
  0
ENDBLK
  5
5C3
100
AcDbEntity
  8
0
390
0
100
AcDbBlockEnd
  0
BLOCK
  5
5C6
100
AcDbEntity
  8
0
390
0
100
AcDbBlockBegin
  2
ZU_SYM__USR_MELCAD_MD_SYM_SYM_SYM1_00
 70
    64
 10
0.0
 20
0.0
 30
0.0
  3
ZU_SYM__USR_MELCAD_MD_SYM_SYM_SYM1_00
  1

  0
POINT
  5
5C7
100
AcDbEntity
  8
0
370
    -3
390
0
  6
Continuous
100
AcDbPoint
 10
0.0
 20
0.0
 30
0.0
  0
LINE
  5
5C8
100
AcDbEntity
  8
0
370
    -3
390
0
  6
Continuous
100
AcDbLine
 10
0.0
 20
-6.5
 30
0.0
 11
0.0
 21
6.5
 31
0.0
  0
LINE
  5
5C9
100
AcDbEntity
  8
0
370
    -3
390
0
  6
Continuous
100
AcDbLine
 10
-7.999999
 20
5.633876
 30
0.0
 11
-7.999999
 21
-5.63407
 31
0.0
  0
LINE
  5
5CA
100
AcDbEntity
  8
0
370
    -3
390
0
  6
Continuous
100
AcDbLine
 10
0.0
 20
6.5
 30
0.0
 11
-7.499999
 21
6.5
 31
0.0
  0
LINE
  5
5CB
100
AcDbEntity
  8
0
370
    -3
390
0
  6
Continuous
100
AcDbLine
 10
0.0
 20
-6.5
 30
0.0
 11
-7.499998
 21
-6.5
 31
0.0
  0
LINE
  5
5CC
100
AcDbEntity
  8
0
370
    -3
390
0
  6
Continuous
100
AcDbLine
 10
-7.499999
 20
6.5
 30
0.0
 11
-7.999999
 21
5.633876
 31
0.0
  0
LINE
  5
5CD
100
AcDbEntity
  8
0
370
    -3
390
0
  6
Continuous
100
AcDbLine
 10
-7.499998
 20
-6.499999
 30
0.0
 11
-7.999999
 21
-5.63407
 31
0.0
  0
LINE
  5
5CE
100
AcDbEntity
  8
0
370
    -3
390
0
  6
Continuous
100
AcDbLine
 10
-7.499999
 20
6.5
 30
0.0
 11
-7.499999
 21
-6.5
 31
0.0
  0
ENDBLK
  5
5CF
100
AcDbEntity
  8
0
390
0
100
AcDbBlockEnd
  0
ENDSEC
  0
SECTION
  2
ENTITIES
  0
LINE
  5
29
100
AcDbEntity
  8
0
370
    -3
390
0
  6
CENTER
100
AcDbLine
 10
-675.595773
 20
-45.830774
 30
0.0
 11
-698.464282
 21
-45.83083
 31
0.0
  0
LINE
  5
2A
100
AcDbEntity
  8
0
370
    -3
390
0
  6
CENTER
100
AcDbLine
 10
-661.031372
 20
-45.830696
 30
0.0
 11
-626.868522
 21
-45.830696
 31
0.0
  0
LINE
  5
2B
100
AcDbEntity
  8
0
370
    -3
390
0
  6
CENTER
100
AcDbLine
 10
-14.245387
 20
-178.830696
 30
0.0
 11
338.797847
 21
-178.830696
 31
0.0
  0
LINE
  5
2C
100
AcDbEntity
  8
0
370
    -3
390
0
  6
Continuous
100
AcDbLine
 10
33.412884
 20
-79.848956
 30
0.0
 11
33.634721
 21
-79.464766
 31
0.0
  0
LINE
  5
2D
100
AcDbEntity
  8
0
370
    -3
390
0
  6
Continuous
100
AcDbLine
 10
-0.604361
 20
-218.794979
 30
0.0
 11
-0.604361
 21
-218.794967
 31
0.0
  0
LINE
  5
2E
100
AcDbEntity
  8
0
370
    -3
390
0
  6
Continuous
100
AcDbLine
 10
-0.365073
 20
-94.830898
 30
0.0
 11
-0.365463
 21
-254.830755
 31
0.0
  0
LINE
  5
2F
100
AcDbEntity
  8
0
370
    -3
390
0
  6
Continuous
100
AcDbLine
 10
-544.477973
 20
-127.330696
 30
0.0
 11
-481.477973
 21
-127.330696
 31
0.0
  0
LINE
  5
30
100
AcDbEntity
  8
0
370
    -3
390
0
  6
Continuous
100
AcDbLine
 10
-544.477973
 20
-130.830696
 30
0.0
 11
-544.477973
 21
-127.330696
 31
0.0
  0
LINE
  5
31
100
AcDbEntity
  8
0
370
    -3
390
0
  6
Continuous
100
AcDbLine
 10
-556.477973
 20
-129.830696
 30
0.0
 11
-556.477973
 21
-181.830696
 31
0.0
  0
LINE
  5
32
100
AcDbEntity
  8
0
370
    -3
390
0
  6
Continuous
100
AcDbLine
 10
-558.477973
 20
-181.830696
 30
0.0
 11
-556.477973
 21
-181.830696
 31
0.0
  0
LINE
  5
33
100
AcDbEntity
  8
0
370
    -3
390
0
  6
Continuous
100
AcDbLine
 10
-558.477973
 20
-129.830696
 30
0.0
 11
-556.477973
 21
-129.830696
 31
0.0
  0
LINE
  5
34
100
AcDbEntity
  8
0
370
    -3
390
0
  6
Continuous
100
AcDbLine
 10
-556.477973
 20
-130.830696
 30
0.0
 11
-481.477973
 21
-130.830696
 31
0.0
  0
LINE
  5
35
100
AcDbEntity
  8
0
370
    -3
390
0
  6
Continuous
100
AcDbLine
 10
-556.477973
 20
-180.830696
 30
0.0
 11
-481.477973
 21
-180.830696
 31
0.0
  0
LINE
  5
36
100
AcDbEntity
  8
0
370
    -3
390
0
  6
Continuous
100
AcDbLine
 10
-175.365275
 20
-127.330696
 30
0.0
 11
-175.365275
 21
-136.330696
 31
0.0
  0
LINE
  5
37
100
AcDbEntity
  8
0
370
    -3
390
0
  6
Continuous
100
AcDbLine
 10
-189.365275
 20
-127.330696
 30
0.0
 11
-189.365275
 21
-136.330696
 31
0.0
  0
LINE
  5
38
100
AcDbEntity
  8
0
370
    -3
390
0
  6
Continuous
100
AcDbLine
 10
-189.365275
 20
-136.330696
 30
0.0
 11
-175.365275
 21
-136.330696
 31
0.0
  0
LINE
  5
39
100
AcDbEntity
  8
0
370
    -3
390
0
  6
Continuous
100
AcDbLine
 10
-189.365275
 20
-127.330696
 30
0.0
 11
-175.365275
 21
-127.330696
 31
0.0
  0
ARC
  5
3A
100
AcDbEntity
  8
0
370
    -3
390
0
  6
Continuous
100
AcDbCircle
 10
-182.365275
 20
-155.830696
 30
0.0
 40
25.0
100
AcDbArc
 50
106.260205
 51
73.739795
  0
CIRCLE
  5
3B
100
AcDbEntity
  8
0
370
    -3
390
0
  6
Continuous
100
AcDbCircle
 10
-182.365275
 20
-155.830696
 30
0.0
 40
3.5
  0
CIRCLE
  5
3C
100
AcDbEntity
  8
0
370
    -3
390
0
  6
Continuous
100
AcDbCircle
 10
-182.365275
 20
-155.830696
 30
0.0
 40
4.0
  0
LINE
  5
3D
100
AcDbEntity
  8
0
370
    -3
390
0
  6
Continuous
100
AcDbLine
 10
-481.477973
 20
-127.330696
 30
0.0
 11
-481.477973
 21
-180.830696
 31
0.0
  0
LINE
  5
3E
100
AcDbEntity
  8
0
370
    -3
390
0
  6
Continuous
100
AcDbLine
 10
-0.604261
 20
-218.79498
 30
0.0
 11
-0.604261
 21
-218.794968
 31
0.0
  0
LINE
  5
3F
100
AcDbEntity
  8
0
370
    -3
390
0
  6
Continuous
100
AcDbLine
 10
-273.365275
 20
-122.341332
 30
0.0
 11
-273.365275
 21
-235.32006
 31
0.0
  0
ARC
  5
40
100
AcDbEntity
  8
0
370
    -3
390
0
  6
Continuous
100
AcDbCircle
 10
-264.365275
 20
-122.341332
 30
0.0
 40
9.0
100
AcDbArc
 50
109.876874
 51
180.0
  0
ARC
  5
41
100
AcDbEntity
  8
0
370
    -3
390
0
  6
Continuous
100
AcDbCircle
 10
-272.865275
 20
-98.830696
 30
0.0
 40
16.0
100
AcDbArc
 50
289.876874
 51
349.518535
  0
ARC
  5
42
100
AcDbEntity
  8
0
370
    -3
390
0
  6
Continuous
100
AcDbCircle
 10
-248.28243
 20
-103.378632
 30
0.0
 40
9.0
100
AcDbArc
 50
119.214548
 51
169.518535
  0
ARC
  5
43
100
AcDbEntity
  8
0
370
    -3
390
0
  6
Continuous
100
AcDbCircle
 10
-265.365275
 20
-72.830696
 30
0.0
 40
26.0
100
AcDbArc
 50
299.214548
 51
358.362755
  0
ARC
  5
44
100
AcDbEntity
  8
0
370
    -3
390
0
  6
Continuous
100
AcDbCircle
 10
-230.379564
 20
-73.830696
 30
0.0
 40
9.0
100
AcDbArc
 50
90.0
 51
178.362755
  0
LINE
  5
45
100
AcDbEntity
  8
0
370
    -3
390
0
  6
Continuous
100
AcDbLine
 10
-230.379564
 20
-64.830696
 30
0.0
 11
-138.875911
 21
-64.830696
 31
0.0
  0
ARC
  5
46
100
AcDbEntity
  8
0
370
    -3
390
0
  6
Continuous
100
AcDbCircle
 10
-138.875911
 20
-73.830696
 30
0.0
 40
9.0
100
AcDbArc
 50
19.876874
 51
90.0
  0
ARC
  5
47
100
AcDbEntity
  8
0
370
    -3
390
0
  6
Continuous
100
AcDbCircle
 10
-115.365275
 20
-65.330696
 30
0.0
 40
16.0
100
AcDbArc
 50
199.876874
 51
340.123126
  0
ARC
  5
48
100
AcDbEntity
  8
0
370
    -3
390
0
  6
Continuous
100
AcDbCircle
 10
-91.85464
 20
-73.830696
 30
0.0
 40
9.0
100
AcDbArc
 50
90.0
 51
160.123126
  0
LINE
  5
49
100
AcDbEntity
  8
0
370
    -3
390
0
  6
Continuous
100
AcDbLine
 10
-91.85464
 20
-64.830696
 30
0.0
 11
-65.350987
 21
-64.830696
 31
0.0
  0
ARC
  5
4A
100
AcDbEntity
  8
0
370
    -3
390
0
  6
Continuous
100
AcDbCircle
 10
-65.350987
 20
-73.830696
 30
0.0
 40
9.0
100
AcDbArc
 50
1.637245
 51
90.0
  0
ARC
  5
4B
100
AcDbEntity
  8
0
370
    -3
390
0
  6
Continuous
100
AcDbCircle
 10
-30.365275
 20
-72.830696
 30
0.0
 40
26.0
100
AcDbArc
 50
181.637245
 51
240.785452
  0
ARC
  5
4C
100
AcDbEntity
  8
0
370
    -3
390
0
  6
Continuous
100
AcDbCircle
 10
-47.448121
 20
-103.378632
 30
0.0
 40
9.0
100
AcDbArc
 50
10.481465
 51
60.785452
  0
ARC
  5
4D
100
AcDbEntity
  8
0
370
    -3
390
0
  6
Continuous
100
AcDbCircle
 10
-22.865275
 20
-98.830696
 30
0.0
 40
16.0
100
AcDbArc
 50
190.481465
 51
250.123126
  0
ARC
  5
4E
100
AcDbEntity
  8
0
370
    -3
390
0
  6
Continuous
100
AcDbCircle
 10
-31.365275
 20
-122.341332
 30
0.0
 40
9.0
100
AcDbArc
 50
0.0
 51
70.123126
  0
LINE
  5
4F
100
AcDbEntity
  8
0
370
    -3
390
0
  6
Continuous
100
AcDbLine
 10
-22.365275
 20
-235.32006
 30
0.0
 11
-22.365275
 21
-122.341332
 31
0.0
  0
ARC
  5
50
100
AcDbEntity
  8
0
370
    -3
390
0
  6
Continuous
100
AcDbCircle
 10
-31.365275
 20
-235.32006
 30
0.0
 40
9.0
100
AcDbArc
 50
289.876874
 51
0.0
  0
ARC
  5
51
100
AcDbEntity
  8
0
370
    -3
390
0
  6
Continuous
100
AcDbCircle
 10
-22.865275
 20
-258.830696
 30
0.0
 40
16.0
100
AcDbArc
 50
109.876874
 51
169.518535
  0
ARC
  5
52
100
AcDbEntity
  8
0
370
    -3
390
0
  6
Continuous
100
AcDbCircle
 10
-47.448121
 20
-254.28276
 30
0.0
 40
9.0
100
AcDbArc
 50
299.214548
 51
349.518535
  0
ARC
  5
53
100
AcDbEntity
  8
0
370
    -3
390
0
  6
Continuous
100
AcDbCircle
 10
-30.365275
 20
-284.830696
 30
0.0
 40
26.0
100
AcDbArc
 50
119.214548
 51
178.362755
  0
ARC
  5
54
100
AcDbEntity
  8
0
370
    -3
390
0
  6
Continuous
100
AcDbCircle
 10
-65.350987
 20
-283.830696
 30
0.0
 40
9.0
100
AcDbArc
 50
270.0
 51
358.362755
  0
LINE
  5
55
100
AcDbEntity
  8
0
370
    -3
390
0
  6
Continuous
100
AcDbLine
 10
-138.896472
 20
-292.830696
 30
0.0
 11
-65.350987
 21
-292.830696
 31
0.0
  0
ARC
  5
56
100
AcDbEntity
  8
0
370
    -3
390
0
  6
Continuous
100
AcDbCircle
 10
-138.896472
 20
-283.830696
 30
0.0
 40
9.0
100
AcDbArc
 50
200.156963
 51
270.0
  0
ARC
  5
57
100
AcDbEntity
  8
0
370
    -3
390
0
  6
Continuous
100
AcDbCircle
 10
-162.365275
 20
-292.445525
 30
0.0
 40
16.0
100
AcDbArc
 50
20.156963
 51
159.843037
  0
ARC
  5
58
100
AcDbEntity
  8
0
370
    -3
390
0
  6
Continuous
100
AcDbCircle
 10
-185.834079
 20
-283.830696
 30
0.0
 40
9.0
100
AcDbArc
 50
270.0
 51
339.843037
  0
LINE
  5
59
100
AcDbEntity
  8
0
370
    -3
390
0
  6
Continuous
100
AcDbLine
 10
-230.379564
 20
-292.830696
 30
0.0
 11
-185.834079
 21
-292.830696
 31
0.0
  0
ARC
  5
5A
100
AcDbEntity
  8
0
370
    -3
390
0
  6
Continuous
100
AcDbCircle
 10
-230.379564
 20
-283.830696
 30
0.0
 40
9.0
100
AcDbArc
 50
181.637245
 51
270.0
  0
ARC
  5
5B
100
AcDbEntity
  8
0
370
    -3
390
0
  6
Continuous
100
AcDbCircle
 10
-265.365275
 20
-284.830696
 30
0.0
 40
26.0
100
AcDbArc
 50
1.637245
 51
60.785452
  0
ARC
  5
5C
100
AcDbEntity
  8
0
370
    -3
390
0
  6
Continuous
100
AcDbCircle
 10
-248.28243
 20
-254.28276
 30
0.0
 40
9.0
100
AcDbArc
 50
190.481465
 51
240.785452
  0
ARC
  5
5D
100
AcDbEntity
  8
0
370
    -3
390
0
  6
Continuous
100
AcDbCircle
 10
-272.865275
 20
-258.830696
 30
0.0
 40
16.0
100
AcDbArc
 50
10.481465
 51
70.123126
  0
ARC
  5
5E
100
AcDbEntity
  8
0
370
    -3
390
0
  6
Continuous
100
AcDbCircle
 10
-264.365275
 20
-235.32006
 30
0.0
 40
9.0
100
AcDbArc
 50
180.0
 51
250.123126
  0
CIRCLE
  5
5F
100
AcDbEntity
  8
0
370
    -3
390
0
  6
Continuous
100
AcDbCircle
 10
-265.365275
 20
-72.830696
 30
0.0
 40
16.0
  0
CIRCLE
  5
60
100
AcDbEntity
  8
0
370
    -3
390
0
  6
Continuous
100
AcDbCircle
 10
-30.365275
 20
-72.830696
 30
0.0
 40
16.0
  0
CIRCLE
  5
61
100
AcDbEntity
  8
0
370
    -3
390
0
  6
Continuous
100
AcDbCircle
 10
-30.365275
 20
-284.830696
 30
0.0
 40
16.0
  0
CIRCLE
  5
62
100
AcDbEntity
  8
0
370
    -3
390
0
  6
Continuous
100
AcDbCircle
 10
-265.365275
 20
-284.830696
 30
0.0
 40
16.0
  0
CIRCLE
  5
63
100
AcDbEntity
  8
0
370
    -3
390
0
  6
Continuous
100
AcDbCircle
 10
-265.365275
 20
-72.830696
 30
0.0
 40
11.0
  0
CIRCLE
  5
64
100
AcDbEntity
  8
0
370
    -3
390
0
  6
Continuous
100
AcDbCircle
 10
-30.365275
 20
-72.830696
 30
0.0
 40
11.0
  0
CIRCLE
  5
65
100
AcDbEntity
  8
0
370
    -3
390
0
  6
Continuous
100
AcDbCircle
 10
-30.365275
 20
-284.830696
 30
0.0
 40
11.0
  0
CIRCLE
  5
66
100
AcDbEntity
  8
0
370
    -3
390
0
  6
Continuous
100
AcDbCircle
 10
-265.365275
 20
-284.830696
 30
0.0
 40
11.0
  0
LINE
  5
67
100
AcDbEntity
  8
0
370
    -3
390
0
  6
CENTER
100
AcDbLine
 10
-30.365275
 20
-52.665652
 30
0.0
 11
-30.365275
 21
-92.809286
 31
0.0
  0
LINE
  5
68
100
AcDbEntity
  8
0
370
    -3
390
0
  6
CENTER
100
AcDbLine
 10
-1.135497
 20
-72.830696
 30
0.0
 11
-49.456727
 21
-72.830696
 31
0.0
  0
LINE
  5
69
100
AcDbEntity
  8
0
370
    -3
390
0
  6
CENTER
100
AcDbLine
 10
-285.463012
 20
-72.830696
 30
0.0
 11
-246.273824
 21
-72.830696
 31
0.0
  0
LINE
  5
6A
100
AcDbEntity
  8
0
370
    -3
390
0
  6
CENTER
100
AcDbLine
 10
-265.365275
 20
-53.465503
 30
0.0
 11
-265.365275
 21
-92.924962
 31
0.0
  0
LINE
  5
6B
100
AcDbEntity
  8
0
370
    -3
390
0
  6
CENTER
100
AcDbLine
 10
-285.463012
 20
-284.830696
 30
0.0
 11
-246.273824
 21
-284.830696
 31
0.0
  0
LINE
  5
6C
100
AcDbEntity
  8
0
370
    -3
390
0
  6
CENTER
100
AcDbLine
 10
-265.365275
 20
-304.195888
 30
0.0
 11
-265.365275
 21
-264.736429
 31
0.0
  0
LINE
  5
6D
100
AcDbEntity
  8
0
370
    -3
390
0
  6
CENTER
100
AcDbLine
 10
-30.365275
 20
-304.195888
 30
0.0
 11
-30.365275
 21
-264.736429
 31
0.0
  0
LINE
  5
6E
100
AcDbEntity
  8
0
370
    -3
390
0
  6
CENTER
100
AcDbLine
 10
-2.763919
 20
-284.830696
 30
0.0
 11
-49.456727
 21
-284.830696
 31
0.0
  0
LINE
  5
6F
100
AcDbEntity
  8
0
370
    -3
390
0
  6
CENTER
100
AcDbLine
 10
-182.365275
 20
-45.199842
 30
0.0
 11
-182.365275
 21
-269.96718
 31
0.0
  0
LINE
  5
70
100
AcDbEntity
  8
0
370
    -3
390
0
  6
CENTER
100
AcDbLine
 10
-294.119335
 20
-155.830696
 30
0.0
 11
-68.659264
 21
-155.830696
 31
0.0
  0
LINE
  5
71
100
AcDbEntity
  8
0
370
    -3
390
0
  6
Continuous
100
AcDbLine
 10
-11.365275
 20
-152.855894
 30
0.0
 11
-7.365275
 21
-126.854134
 31
0.0
  0
LINE
  5
72
100
AcDbEntity
  8
0
370
    -3
390
0
  6
Continuous
100
AcDbLine
 10
-11.365275
 20
-196.805488
 30
0.0
 11
-7.365275
 21
-222.354673
 31
0.0
  0
ARC
  5
73
100
AcDbEntity
  8
0
370
    -3
390
0
  6
Continuous
100
AcDbCircle
 10
-273.365275
 20
-292.830696
 30
0.0
 40
11.0
100
AcDbArc
 50
180.0
 51
270.0
  0
ARC
  5
74
100
AcDbEntity
  8
0
370
    -3
390
0
  6
Continuous
100
AcDbCircle
 10
-273.365275
 20
-64.830696
 30
0.0
 40
15.0
100
AcDbArc
 50
90.0
 51
180.0
  0
ARC
  5
75
100
AcDbEntity
  8
0
370
    -3
390
0
  6
Continuous
100
AcDbCircle
 10
-273.365275
 20
-64.830696
 30
0.0
 40
11.0
100
AcDbArc
 50
90.0
 51
180.0
  0
ARC
  5
76
100
AcDbEntity
  8
0
370
    -3
390
0
  6
Continuous
100
AcDbCircle
 10
-22.365275
 20
-64.830696
 30
0.0
 40
15.0
100
AcDbArc
 50
0.0
 51
90.0
  0
ARC
  5
77
100
AcDbEntity
  8
0
370
    -3
390
0
  6
Continuous
100
AcDbCircle
 10
-22.365275
 20
-64.830696
 30
0.0
 40
11.0
100
AcDbArc
 50
0.0
 51
90.0
  0
ARC
  5
78
100
AcDbEntity
  8
0
370
    -3
390
0
  6
Continuous
100
AcDbCircle
 10
-22.365275
 20
-292.830696
 30
0.0
 40
11.0
100
AcDbArc
 50
270.0
 51
0.0
  0
LINE
  5
79
100
AcDbEntity
  8
0
370
    -3
390
0
  6
Continuous
100
AcDbLine
 10
-7.365275
 20
-292.830696
 30
0.0
 11
-7.365275
 21
-222.354673
 31
0.0
  0
ARC
  5
7A
100
AcDbEntity
  8
0
370
    -3
390
0
  6
Continuous
100
AcDbCircle
 10
-2.365275
 20
-261.830696
 30
0.0
 40
5.0
100
AcDbArc
 50
90.0
 51
180.0
  0
LINE
  5
7B
100
AcDbEntity
  8
0
370
    -3
390
0
  6
Continuous
100
AcDbLine
 10
-0.365275
 20
-254.830568
 30
0.0
 11
-2.365403
 21
-256.830696
 31
0.0
  0
LINE
  5
7C
100
AcDbEntity
  8
0
370
    -3
390
0
  6
Continuous
100
AcDbLine
 10
-2.365275
 20
-92.830696
 30
0.0
 11
-0.365275
 21
-94.830696
 31
0.0
  0
ARC
  5
7D
100
AcDbEntity
  8
0
370
    -3
390
0
  6
Continuous
100
AcDbCircle
 10
-2.365275
 20
-87.830696
 30
0.0
 40
5.0
100
AcDbArc
 50
180.0
 51
270.0
  0
LINE
  5
7E
100
AcDbEntity
  8
0
370
    -3
390
0
  6
Continuous
100
AcDbLine
 10
-11.365275
 20
-292.830696
 30
0.0
 11
-11.365275
 21
-196.805488
 31
0.0
  0
LINE
  5
7F
100
AcDbEntity
  8
0
370
    -3
390
0
  6
Continuous
100
AcDbLine
 10
-11.365275
 20
-152.855894
 30
0.0
 11
-11.365275
 21
-64.830696
 31
0.0
  0
LINE
  5
80
100
AcDbEntity
  8
0
370
    -3
390
0
  6
Continuous
100
AcDbLine
 10
-284.365275
 20
-64.830696
 30
0.0
 11
-284.365275
 21
-292.830696
 31
0.0
  0
LINE
  5
81
100
AcDbEntity
  8
0
370
    -3
390
0
  6
Continuous
100
AcDbLine
 10
-22.365275
 20
-53.830696
 30
0.0
 11
-273.365275
 21
-53.830696
 31
0.0
  0
LINE
  5
82
100
AcDbEntity
  8
0
370
    -3
390
0
  6
Continuous
100
AcDbLine
 10
-273.365275
 20
-303.830696
 30
0.0
 11
-22.365275
 21
-303.830696
 31
0.0
  0
ARC
  5
83
100
AcDbEntity
  8
0
370
    -3
390
0
  6
Continuous
100
AcDbCircle
 10
-22.365275
 20
-292.830696
 30
0.0
 40
15.0
100
AcDbArc
 50
270.0
 51
0.0
  0
ARC
  5
84
100
AcDbEntity
  8
0
370
    -3
390
0
  6
Continuous
100
AcDbCircle
 10
-273.365275
 20
-292.830696
 30
0.0
 40
15.0
100
AcDbArc
 50
180.0
 51
270.0
  0
LINE
  5
85
100
AcDbEntity
  8
0
370
    -3
390
0
  6
Continuous
100
AcDbLine
 10
-273.365275
 20
-307.830696
 30
0.0
 11
-22.365275
 21
-307.830696
 31
0.0
  0
LINE
  5
86
100
AcDbEntity
  8
0
370
    -3
390
0
  6
Continuous
100
AcDbLine
 10
-273.365275
 20
-49.830696
 30
0.0
 11
-22.365275
 21
-49.830696
 31
0.0
  0
LINE
  5
87
100
AcDbEntity
  8
0
370
    -3
390
0
  6
Continuous
100
AcDbLine
 10
-7.365275
 20
-64.830696
 30
0.0
 11
-7.365275
 21
-126.854134
 31
0.0
  0
LINE
  5
88
100
AcDbEntity
  8
0
370
    -3
390
0
  6
Continuous
100
AcDbLine
 10
-288.365275
 20
-64.830696
 30
0.0
 11
-288.365275
 21
-292.830696
 31
0.0
  0
ARC
  5
89
100
AcDbEntity
  8
0
370
    -3
390
0
  6
Continuous
100
AcDbCircle
 10
-74.365275
 20
-155.830696
 30
0.0
 40
43.0
100
AcDbArc
 50
359.944778
 51
0.0
  0
LINE
  5
8A
100
AcDbEntity
  8
0
370
    -3
390
0
  6
Continuous
100
AcDbLine
 10
13.634722
 20
-61.831112
 30
0.0
 11
4.634722
 21
-61.831112
 31
0.0
  0
ARC
  5
8B
100
AcDbEntity
  8
0
370
    -3
390
0
  6
Continuous
100
AcDbCircle
 10
4.634722
 20
-64.831112
 30
0.0
 40
3.0
100
AcDbArc
 50
90.0
 51
180.0
  0
ARC
  5
8C
100
AcDbEntity
  8
0
370
    -3
390
0
  6
Continuous
100
AcDbCircle
 10
40.634722
 20
-264.830696
 30
0.0
 40
2.0
100
AcDbArc
 50
90.0
 51
180.0
  0
ARC
  5
8D
100
AcDbEntity
  8
0
370
    -3
390
0
  6
Continuous
100
AcDbCircle
 10
-1.365278
 20
-263.073336
 30
0.0
 40
3.0
100
AcDbArc
 50
0.0
 51
45.0
  0
ARC
  5
8E
100
AcDbEntity
  8
0
370
    -3
390
0
  6
Continuous
100
AcDbCircle
 10
-1.365278
 20
-263.073336
 30
0.0
 40
3.0
100
AcDbArc
 50
0.0
 51
45.0
  0
LINE
  5
8F
100
AcDbEntity
  8
0
370
    -3
390
0
  6
Continuous
100
AcDbLine
 10
0.756042
 20
-260.952016
 30
0.0
 11
-0.365278
 21
-259.830696
 31
0.0
  0
ARC
  5
90
100
AcDbEntity
  8
0
370
    -3
390
0
  6
Continuous
100
AcDbCircle
 10
-1.365278
 20
-94.588055
 30
0.0
 40
3.0
100
AcDbArc
 50
315.0
 51
0.0
  0
LINE
  5
91
100
AcDbEntity
  8
0
370
    -3
390
0
  6
Continuous
100
AcDbLine
 10
1.634722
 20
-64.831112
 30
0.0
 11
1.634722
 21
-178.830696
 31
0.0
  0
LINE
  5
92
100
AcDbEntity
  8
0
370
    -3
390
0
  6
Continuous
100
AcDbLine
 10
0.756042
 20
-96.709375
 30
0.0
 11
-0.365278
 21
-97.830696
 31
0.0
  0
LINE
  5
93
100
AcDbEntity
  8
0
370
    -3
390
0
  6
Continuous
100
AcDbLine
 10
1.634722
 20
-275.830696
 30
0.0
 11
1.634722
 21
-178.830696
 31
0.0
  0
LINE
  5
94
100
AcDbEntity
  8
0
370
    -3
390
0
  6
Continuous
100
AcDbLine
 10
38.634722
 20
-178.830696
 30
0.0
 11
38.634722
 21
-189.829388
 31
0.0
  0
LINE
  5
95
100
AcDbEntity
  8
0
370
    -3
390
0
  6
Continuous
100
AcDbLine
 10
38.634722
 20
-209.330696
 30
0.0
 11
38.634722
 21
-211.330696
 31
0.0
  0
LINE
  5
96
100
AcDbEntity
  8
0
370
    -3
390
0
  6
Continuous
100
AcDbLine
 10
38.634722
 20
-257.064038
 30
0.0
 11
38.634722
 21
-275.830696
 31
0.0
  0
LINE
  5
97
100
AcDbEntity
  8
0
370
    -3
390
0
  6
Continuous
100
AcDbLine
 10
38.634722
 20
-230.330696
 30
0.0
 11
38.634722
 21
-247.518096
 31
0.0
  0
ARC
  5
98
100
AcDbEntity
  8
0
370
    -3
390
0
  6
Continuous
100
AcDbCircle
 10
40.634722
 20
-92.830696
 30
0.0
 40
2.0
100
AcDbArc
 50
180.0
 51
270.0
  0
LINE
  5
99
100
AcDbEntity
  8
0
370
    -3
390
0
  6
Continuous
100
AcDbLine
 10
38.634722
 20
-178.830696
 30
0.0
 11
38.634722
 21
-167.832004
 31
0.0
  0
LINE
  5
9A
100
AcDbEntity
  8
0
370
    -3
390
0
  6
Continuous
100
AcDbLine
 10
38.634722
 20
-148.330696
 30
0.0
 11
38.634722
 21
-146.330696
 31
0.0
  0
LINE
  5
9B
100
AcDbEntity
  8
0
370
    -3
390
0
  6
Continuous
100
AcDbLine
 10
38.634722
 20
-100.597353
 30
0.0
 11
38.634722
 21
-81.830696
 31
0.0
  0
LINE
  5
9C
100
AcDbEntity
  8
0
370
    -3
390
0
  6
Continuous
100
AcDbLine
 10
38.634722
 20
-127.330696
 30
0.0
 11
38.634722
 21
-110.143295
 31
0.0
  0
LINE
  5
9D
100
AcDbEntity
  8
0
370
    -3
390
0
  6
Continuous
100
AcDbLine
 10
40.634722
 20
-178.830696
 30
0.0
 11
40.634722
 21
-262.830696
 31
0.0
  0
LINE
  5
9E
100
AcDbEntity
  8
0
370
    -3
390
0
  6
Continuous
100
AcDbLine
 10
40.634722
 20
-178.830696
 30
0.0
 11
40.634722
 21
-94.830696
 31
0.0
  0
LINE
  5
9F
100
AcDbEntity
  8
0
370
    -3
390
0
  6
Continuous
100
AcDbLine
 10
-2.604366
 20
-220.830974
 30
0.0
 11
-2.604366
 21
-220.830963
 31
0.0
  0
LINE
  5
A0
100
AcDbEntity
  8
0
370
    -3
390
0
  6
Continuous
100
AcDbLine
 10
-0.36508
 20
-97.587954
 30
0.0
 11
-0.36528
 21
-179.866696
 31
0.0
  0
CIRCLE
  5
A1
100
AcDbEntity
  8
0
370
    -3
390
0
  6
Continuous
100
AcDbCircle
 10
-182.365275
 20
-155.830696
 30
0.0
 40
75.0
  0
CIRCLE
  5
A2
100
AcDbEntity
  8
0
370
    -3
390
0
  6
Continuous
100
AcDbCircle
 10
-182.365275
 20
-155.830696
 30
0.0
 40
85.5
  0
CIRCLE
  5
A3
100
AcDbEntity
  8
0
370
    -3
390
0
  6
Continuous
100
AcDbCircle
 10
-182.365275
 20
-155.830696
 30
0.0
 40
82.5
  0
POINT
  5
A4
100
AcDbEntity
  8
0
370
    -3
390
0
  6
Continuous
100
AcDbPoint
 10
21.134722
 20
-70.830696
 30
0.0
  0
LINE
  5
A5
100
AcDbEntity
  8
0
370
    -3
390
0
  6
CENTER
100
AcDbLine
 10
30.568798
 20
-70.830696
 30
0.0
 11
7.597597
 21
-70.830696
 31
0.0
  0
LINE
  5
A6
100
AcDbEntity
  8
0
370
    -3
390
0
  6
Continuous
100
AcDbLine
 10
21.134722
 20
-25.830696
 30
0.0
 11
21.134722
 21
-79.848956
 31
0.0
  0
LINE
  5
A7
100
AcDbEntity
  8
0
370
    -3
390
0
  6
CENTER
100
AcDbLine
 10
-643.478167
 20
-19.263775
 30
0.0
 11
-643.477793
 21
-327.044077
 31
0.0
  0
LINE
  5
A8
100
AcDbEntity
  8
0
370
    -3
390
0
  6
Continuous
100
AcDbLine
 10
-723.477973
 20
-55.184047
 30
0.0
 11
-723.477973
 21
-302.490806
 31
0.0
  0
LINE
  5
A9
100
AcDbEntity
  8
0
370
    -3
390
0
  6
Continuous
100
AcDbLine
 10
-722.478658
 20
-54.158222
 30
0.0
 11
-723.477973
 21
-55.184047
 31
0.0
  0
LINE
  5
AA
100
AcDbEntity
  8
0
370
    -3
390
0
  6
Continuous
100
AcDbLine
 10
-722.478658
 20
-303.516631
 30
0.0
 11
-709.977973
 21
-303.843973
 31
0.0
  0
LINE
  5
AB
100
AcDbEntity
  8
0
370
    -3
390
0
  6
Continuous
100
AcDbLine
 10
-564.477288
 20
-303.516631
 30
0.0
 11
-576.977973
 21
-303.843973
 31
0.0
  0
LINE
  5
AC
100
AcDbEntity
  8
0
370
    -3
390
0
  6
Continuous
100
AcDbLine
 10
-640.477973
 20
-155.83088
 30
0.0
 11
-640.477973
 21
-307.726117
 31
0.0
  0
LINE
  5
AD
100
AcDbEntity
  8
0
370
    -3
390
0
  6
Continuous
100
AcDbLine
 10
-640.477973
 20
-49.935642
 30
0.0
 11
-640.477973
 21
-155.83088
 31
0.0
  0
LINE
  5
AE
100
AcDbEntity
  8
0
370
    -3
390
0
  6
Continuous
100
AcDbLine
 10
-643.477973
 20
-307.83088
 30
0.0
 11
-709.977973
 21
-305.508649
 31
0.0
  0
LINE
  5
AF
100
AcDbEntity
  8
0
370
    -3
390
0
  6
Continuous
100
AcDbLine
 10
-709.977973
 20
-52.153111
 30
0.0
 11
-709.977973
 21
-305.508649
 31
0.0
  0
LINE
  5
B0
100
AcDbEntity
  8
0
370
    -3
390
0
  6
Continuous
100
AcDbLine
 10
-640.477973
 20
-307.726117
 30
0.0
 11
-576.977973
 21
-305.508649
 31
0.0
  0
LINE
  5
B1
100
AcDbEntity
  8
0
370
    -3
390
0
  6
Continuous
100
AcDbLine
 10
-576.977973
 20
-52.153111
 30
0.0
 11
-576.977973
 21
-305.508649
 31
0.0
  0
LINE
  5
B2
100
AcDbEntity
  8
0
370
    -3
390
0
  6
Continuous
100
AcDbLine
 10
-728.477973
 20
-80.830696
 30
0.0
 11
-728.477973
 21
-230.830696
 31
0.0
  0
LINE
  5
B3
100
AcDbEntity
  8
0
370
    -3
390
0
  6
Continuous
100
AcDbLine
 10
-643.477973
 20
-49.83088
 30
0.0
 11
-643.477973
 21
-307.865801
 31
0.0
  0
LINE
  5
B4
100
AcDbEntity
  8
0
370
    -3
390
0
  6
Continuous
100
AcDbLine
 10
-643.477973
 20
-49.83088
 30
0.0
 11
-709.977973
 21
-52.153111
 31
0.0
  0
LINE
  5
B5
100
AcDbEntity
  8
0
370
    -3
390
0
  6
Continuous
100
AcDbLine
 10
-722.478658
 20
-303.516631
 30
0.0
 11
-723.477973
 21
-302.490806
 31
0.0
  0
LINE
  5
B6
100
AcDbEntity
  8
0
370
    -3
390
0
  6
Continuous
100
AcDbLine
 10
-709.977973
 20
-53.83088
 30
0.0
 11
-722.478658
 21
-54.158222
 31
0.0
  0
LINE
  5
B7
100
AcDbEntity
  8
0
370
    -3
390
0
  6
Continuous
100
AcDbLine
 10
-722.478658
 20
-54.158222
 30
0.0
 11
-723.477973
 21
-55.184047
 31
0.0
  0
LINE
  5
B8
100
AcDbEntity
  8
0
370
    -3
390
0
  6
Continuous
100
AcDbLine
 10
-643.477973
 20
-51.83088
 30
0.0
 11
-643.477973
 21
-305.83088
 31
0.0
  0
LINE
  5
B9
100
AcDbEntity
  8
0
370
    -3
390
0
  6
Continuous
100
AcDbLine
 10
-558.477973
 20
-80.83088
 30
0.0
 11
-558.477973
 21
-230.83088
 31
0.0
  0
LINE
  5
BA
100
AcDbEntity
  8
0
370
    -3
390
0
  6
Continuous
100
AcDbLine
 10
-563.477973
 20
-55.184047
 30
0.0
 11
-563.477973
 21
-302.490806
 31
0.0
  0
LINE
  5
BB
100
AcDbEntity
  8
0
370
    -3
390
0
  6
Continuous
100
AcDbLine
 10
-563.477973
 20
-80.83088
 30
0.0
 11
-558.477973
 21
-80.83088
 31
0.0
  0
LINE
  5
BC
100
AcDbEntity
  8
0
370
    -3
390
0
  6
Continuous
100
AcDbLine
 10
-563.477973
 20
-230.83088
 30
0.0
 11
-558.477973
 21
-230.83088
 31
0.0
  0
LINE
  5
BD
100
AcDbEntity
  8
0
370
    -3
390
0
  6
Continuous
100
AcDbLine
 10
-640.482084
 20
-305.987888
 30
0.0
 11
-643.477973
 21
-305.83088
 31
0.0
  0
LINE
  5
BE
100
AcDbEntity
  8
0
370
    -3
390
0
  6
Continuous
100
AcDbLine
 10
-640.477973
 20
-49.935642
 30
0.0
 11
-576.977973
 21
-52.153111
 31
0.0
  0
LINE
  5
BF
100
AcDbEntity
  8
0
370
    -3
390
0
  6
Continuous
100
AcDbLine
 10
-640.482084
 20
-51.673872
 30
0.0
 11
-643.477973
 21
-51.83088
 31
0.0
  0
LINE
  5
C0
100
AcDbEntity
  8
0
370
    -3
390
0
  6
Continuous
100
AcDbLine
 10
-564.477288
 20
-303.516631
 30
0.0
 11
-563.477973
 21
-302.490806
 31
0.0
  0
LINE
  5
C1
100
AcDbEntity
  8
0
370
    -3
390
0
  6
Continuous
100
AcDbLine
 10
-564.477288
 20
-54.158222
 30
0.0
 11
-563.477973
 21
-55.184047
 31
0.0
  0
LINE
  5
C2
100
AcDbEntity
  8
0
370
    -3
390
0
  6
Continuous
100
AcDbLine
 10
-576.977973
 20
-53.83088
 30
0.0
 11
-564.477288
 21
-54.158222
 31
0.0
  0
LINE
  5
C3
100
AcDbEntity
  8
0
370
    -3
390
0
  6
Continuous
100
AcDbLine
 10
-723.477973
 20
-80.830696
 30
0.0
 11
-728.477973
 21
-80.830696
 31
0.0
  0
LINE
  5
C4
100
AcDbEntity
  8
0
370
    -3
390
0
  6
Continuous
100
AcDbLine
 10
-723.477973
 20
-230.830696
 30
0.0
 11
-728.477973
 21
-230.830696
 31
0.0
  0
ARC
  5
C5
100
AcDbEntity
  8
0
370
    -3
390
0
  6
Continuous
100
AcDbCircle
 10
-643.478297
 20
-45.830696
 30
0.0
 40
10.0
100
AcDbArc
 50
334.435974
 51
204.910158
  0
ARC
  5
C6
100
AcDbEntity
  8
0
370
    -3
390
0
  6
Continuous
100
AcDbCircle
 10
-653.978309
 20
-35.830721
 30
0.0
 40
10.0
100
AcDbArc
 50
90.000139
 51
180.00007
  0
LINE
  5
C7
100
AcDbEntity
  8
0
370
    -3
390
0
  6
Continuous
100
AcDbLine
 10
-653.978333
 20
-25.830721
 30
0.0
 11
-632.978333
 21
-25.83067
 31
0.0
  0
LINE
  5
C8
100
AcDbEntity
  8
0
370
    -3
390
0
  6
Continuous
100
AcDbLine
 10
-663.978309
 20
-35.830733
 30
0.0
 11
-663.978291
 21
-50.441845
 31
0.0
  0
ARC
  5
C9
100
AcDbEntity
  8
0
370
    -3
390
0
  6
Continuous
100
AcDbCircle
 10
-632.978309
 20
-35.83067
 30
0.0
 40
10.0
100
AcDbArc
 50
0.00007
 51
90.000139
  0
LINE
  5
CA
100
AcDbEntity
  8
0
370
    -3
390
0
  6
Continuous
100
AcDbLine
 10
-622.978309
 20
-35.830658
 30
0.0
 11
-622.978291
 21
-50.65128
 31
0.0
  0
LINE
  5
CB
100
AcDbEntity
  8
0
370
    -3
390
0
  6
Continuous
100
AcDbLine
 10
40.634722
 20
-270.330512
 30
0.0
 11
240.634722
 21
-270.330512
 31
0.0
  0
LINE
  5
CC
100
AcDbEntity
  8
0
370
    -3
390
0
  6
Continuous
100
AcDbLine
 10
40.634722
 20
-275.830512
 30
0.0
 11
240.634722
 21
-275.830512
 31
0.0
  0
LINE
  5
CD
100
AcDbEntity
  8
0
370
    -3
390
0
  6
Continuous
100
AcDbLine
 10
40.634722
 20
-276.830512
 30
0.0
 11
40.634722
 21
-86.830512
 31
0.0
  0
LINE
  5
CE
100
AcDbEntity
  8
0
370
    -3
390
0
  6
Continuous
100
AcDbLine
 10
240.634722
 20
-281.830512
 30
0.0
 11
240.634722
 21
-79.955885
 31
0.0
  0
LINE
  5
CF
100
AcDbEntity
  8
0
370
    -3
390
0
  6
Continuous
100
AcDbLine
 10
240.634722
 20
-281.830512
 30
0.0
 11
277.289821
 21
-281.830512
 31
0.0
  0
LINE
  5
D0
100
AcDbEntity
  8
0
370
    -3
390
0
  6
Continuous
100
AcDbLine
 10
255.634722
 20
-75.830512
 30
0.0
 11
255.634722
 21
-75.955885
 31
0.0
  0
LINE
  5
D1
100
AcDbEntity
  8
0
370
    -3
390
0
  6
Continuous
100
AcDbLine
 10
255.634722
 20
-75.830512
 30
0.0
 11
277.289821
 21
-75.830512
 31
0.0
  0
ARC
  5
D2
100
AcDbEntity
  8
0
370
    -3
390
0
  6
Continuous
100
AcDbCircle
 10
243.634722
 20
-79.955885
 30
0.0
 40
3.0
100
AcDbArc
 50
90.0
 51
180.0
  0
LINE
  5
D3
100
AcDbEntity
  8
0
370
    -3
390
0
  6
Continuous
100
AcDbLine
 10
243.634722
 20
-76.955885
 30
0.0
 11
254.634722
 21
-76.955885
 31
0.0
  0
ARC
  5
D4
100
AcDbEntity
  8
0
370
    -3
390
0
  6
Continuous
100
AcDbCircle
 10
254.634722
 20
-75.955885
 30
0.0
 40
1.0
100
AcDbArc
 50
270.0
 51
0.0
  0
LINE
  5
D5
100
AcDbEntity
  8
0
370
    -3
390
0
  6
Continuous
100
AcDbLine
 10
240.634722
 20
-174.580512
 30
0.0
 11
40.634722
 21
-174.580512
 31
0.0
  0
LINE
  5
D6
100
AcDbEntity
  8
0
370
    -3
390
0
  6
Continuous
100
AcDbLine
 10
240.634722
 20
-167.009668
 30
0.0
 11
40.634722
 21
-167.009668
 31
0.0
  0
LINE
  5
D7
100
AcDbEntity
  8
0
370
    -3
390
0
  6
Continuous
100
AcDbLine
 10
240.634722
 20
-156.720172
 30
0.0
 11
40.634722
 21
-156.720172
 31
0.0
  0
LINE
  5
D8
100
AcDbEntity
  8
0
370
    -3
390
0
  6
Continuous
100
AcDbLine
 10
240.634722
 20
-158.931761
 30
0.0
 11
40.634722
 21
-158.931761
 31
0.0
  0
LINE
  5
D9
100
AcDbEntity
  8
0
370
    -3
390
0
  6
Continuous
100
AcDbLine
 10
240.634722
 20
-148.473735
 30
0.0
 11
40.634722
 21
-148.473735
 31
0.0
  0
LINE
  5
DA
100
AcDbEntity
  8
0
370
    -3
390
0
  6
Continuous
100
AcDbLine
 10
240.634722
 20
-146.158636
 30
0.0
 11
40.634722
 21
-146.158636
 31
0.0
  0
LINE
  5
DB
100
AcDbEntity
  8
0
370
    -3
390
0
  6
Continuous
100
AcDbLine
 10
240.634722
 20
-135.578262
 30
0.0
 11
40.634722
 21
-135.578262
 31
0.0
  0
LINE
  5
DC
100
AcDbEntity
  8
0
370
    -3
390
0
  6
Continuous
100
AcDbLine
 10
240.634722
 20
-138.030384
 30
0.0
 11
40.634722
 21
-138.030384
 31
0.0
  0
LINE
  5
DD
100
AcDbEntity
  8
0
370
    -3
390
0
  6
Continuous
100
AcDbLine
 10
240.634722
 20
-125.065939
 30
0.0
 11
40.634722
 21
-125.065939
 31
0.0
  0
LINE
  5
DE
100
AcDbEntity
  8
0
370
    -3
390
0
  6
Continuous
100
AcDbLine
 10
240.634722
 20
-127.596851
 30
0.0
 11
40.634722
 21
-127.596851
 31
0.0
  0
LINE
  5
DF
100
AcDbEntity
  8
0
370
    -3
390
0
  6
Continuous
100
AcDbLine
 10
240.634722
 20
-110.14607
 30
0.0
 11
40.634722
 21
-110.14607
 31
0.0
  0
LINE
  5
E0
100
AcDbEntity
  8
0
370
    -3
390
0
  6
Continuous
100
AcDbLine
 10
240.634722
 20
-101.660788
 30
0.0
 11
40.634722
 21
-101.660788
 31
0.0
  0
LINE
  5
E1
100
AcDbEntity
  8
0
370
    -3
390
0
  6
Continuous
100
AcDbLine
 10
240.634722
 20
-89.830512
 30
0.0
 11
40.634722
 21
-89.830512
 31
0.0
  0
LINE
  5
E2
100
AcDbEntity
  8
0
370
    -3
390
0
  6
Continuous
100
AcDbLine
 10
240.634722
 20
-87.330512
 30
0.0
 11
40.634722
 21
-87.330512
 31
0.0
  0
LINE
  5
E3
100
AcDbEntity
  8
0
370
    -3
390
0
  6
Continuous
100
AcDbLine
 10
240.634722
 20
-86.830512
 30
0.0
 11
40.634722
 21
-86.830512
 31
0.0
  0
LINE
  5
E4
100
AcDbEntity
  8
0
370
    -3
390
0
  6
Continuous
100
AcDbLine
 10
40.634722
 20
-276.330512
 30
0.0
 11
240.634722
 21
-276.330512
 31
0.0
  0
LINE
  5
E5
100
AcDbEntity
  8
0
370
    -3
390
0
  6
Continuous
100
AcDbLine
 10
40.634722
 20
-276.830512
 30
0.0
 11
240.634722
 21
-276.830512
 31
0.0
  0
LINE
  5
E6
100
AcDbEntity
  8
0
370
    -3
390
0
  6
Continuous
100
AcDbLine
 10
40.634722
 20
-183.080512
 30
0.0
 11
240.634722
 21
-183.080512
 31
0.0
  0
LINE
  5
E7
100
AcDbEntity
  8
0
370
    -3
390
0
  6
Continuous
100
AcDbLine
 10
40.634722
 20
-190.651355
 30
0.0
 11
240.634722
 21
-190.651355
 31
0.0
  0
LINE
  5
E8
100
AcDbEntity
  8
0
370
    -3
390
0
  6
Continuous
100
AcDbLine
 10
40.634722
 20
-198.729263
 30
0.0
 11
240.634722
 21
-198.729263
 31
0.0
  0
LINE
  5
E9
100
AcDbEntity
  8
0
370
    -3
390
0
  6
Continuous
100
AcDbLine
 10
40.634722
 20
-200.940852
 30
0.0
 11
240.634722
 21
-200.940852
 31
0.0
  0
LINE
  5
EA
100
AcDbEntity
  8
0
370
    -3
390
0
  6
Continuous
100
AcDbLine
 10
40.634722
 20
-209.187289
 30
0.0
 11
240.634722
 21
-209.187289
 31
0.0
  0
LINE
  5
EB
100
AcDbEntity
  8
0
370
    -3
390
0
  6
Continuous
100
AcDbLine
 10
40.634722
 20
-211.502387
 30
0.0
 11
240.634722
 21
-211.502387
 31
0.0
  0
LINE
  5
EC
100
AcDbEntity
  8
0
370
    -3
390
0
  6
Continuous
100
AcDbLine
 10
40.634722
 20
-219.63064
 30
0.0
 11
240.634722
 21
-219.63064
 31
0.0
  0
LINE
  5
ED
100
AcDbEntity
  8
0
370
    -3
390
0
  6
Continuous
100
AcDbLine
 10
40.634722
 20
-222.082761
 30
0.0
 11
240.634722
 21
-222.082761
 31
0.0
  0
LINE
  5
EE
100
AcDbEntity
  8
0
370
    -3
390
0
  6
Continuous
100
AcDbLine
 10
40.634722
 20
-230.064173
 30
0.0
 11
240.634722
 21
-230.064173
 31
0.0
  0
LINE
  5
EF
100
AcDbEntity
  8
0
370
    -3
390
0
  6
Continuous
100
AcDbLine
 10
40.634722
 20
-232.595084
 30
0.0
 11
240.634722
 21
-232.595084
 31
0.0
  0
LINE
  5
F0
100
AcDbEntity
  8
0
370
    -3
390
0
  6
Continuous
100
AcDbLine
 10
40.634722
 20
-247.514954
 30
0.0
 11
240.634722
 21
-247.514954
 31
0.0
  0
LINE
  5
F1
100
AcDbEntity
  8
0
370
    -3
390
0
  6
Continuous
100
AcDbLine
 10
40.634722
 20
-256.000235
 30
0.0
 11
240.634722
 21
-256.000235
 31
0.0
  0
LINE
  5
F2
100
AcDbEntity
  8
0
370
    -3
390
0
  6
Continuous
100
AcDbLine
 10
40.634722
 20
-267.830512
 30
0.0
 11
240.634722
 21
-267.830512
 31
0.0
  0
LINE
  5
F3
100
AcDbEntity
  8
0
370
    -3
390
0
  6
Continuous
100
AcDbLine
 10
40.634722
 20
-274.330512
 30
0.0
 11
240.634722
 21
-274.330512
 31
0.0
  0
LINE
  5
F4
100
AcDbEntity
  8
0
370
    -3
390
0
  6
Continuous
100
AcDbLine
 10
267.134722
 20
-97.583942
 30
0.0
 11
265.134722
 21
-96.288409
 31
0.0
  0
LINE
  5
F5
100
AcDbEntity
  8
0
370
    -3
390
0
  6
Continuous
100
AcDbLine
 10
267.134722
 20
-97.583942
 30
0.0
 11
265.134722
 21
-99.116836
 31
0.0
  0
LINE
  5
F6
100
AcDbEntity
  8
0
370
    -3
390
0
  6
Continuous
100
AcDbLine
 10
267.134722
 20
-97.583942
 30
0.0
 11
269.134722
 21
-99.116836
 31
0.0
  0
LINE
  5
F7
100
AcDbEntity
  8
0
370
    -3
390
0
  6
Continuous
100
AcDbLine
 10
267.134722
 20
-97.583942
 30
0.0
 11
269.134722
 21
-96.288409
 31
0.0
  0
ELLIPSE
  5
F8
100
AcDbEntity
  8
0
370
    -3
390
0
  6
Continuous
100
AcDbEllipse
 10
267.134722
 20
-100.586634
 30
0.0
 11
6.0
 21
0.0
 31
0.0
210
0.0
220
0.0
230
1.0
 40
0.689848
 41
3.1415926535897931
 42
0.0
  0
ELLIPSE
  5
F9
100
AcDbEntity
  8
0
370
    -3
390
0
  6
Continuous
100
AcDbEllipse
 10
267.134722
 20
-100.586634
 30
0.0
 11
6.0
 21
0.0
 31
0.0
210
0.0
220
0.0
230
1.0
 40
0.689848
 41
2.3102549650649147
 42
3.1415926535897931
  0
ELLIPSE
  5
FA
100
AcDbEntity
  8
0
370
    -3
390
0
  6
Continuous
100
AcDbEllipse
 10
267.134722
 20
-99.227883
 30
0.0
 11
4.5
 21
0.0
 31
0.0
210
0.0
220
0.0
230
1.0
 40
0.860332
 41
0.0
 42
6.2831853071795862
  0
ELLIPSE
  5
FB
100
AcDbEntity
  8
0
370
    -3
390
0
  6
Continuous
100
AcDbEllipse
 10
267.134722
 20
-100.200238
 30
0.0
 11
5.0
 21
0.0
 31
0.0
210
0.0
220
0.0
230
1.0
 40
0.763675
 41
3.1415926535897931
 42
0.0
  0
ELLIPSE
  5
FC
100
AcDbEntity
  8
0
370
    -3
390
0
  6
Continuous
100
AcDbEllipse
 10
267.134722
 20
-99.917395
 30
0.0
 11
5.0
 21
0.0
 31
0.0
210
0.0
220
0.0
230
1.0
 40
0.707107
 41
2.6124407455912864
 42
0.5291519079985071
  0
LINE
  5
FD
100
AcDbEntity
  8
0
370
    -3
390
0
  6
Continuous
100
AcDbLine
 10
262.134722
 20
-100.200238
 30
0.0
 11
262.134722
 21
-99.917395
 31
0.0
  0
LINE
  5
FE
100
AcDbEntity
  8
0
370
    -3
390
0
  6
Continuous
100
AcDbLine
 10
272.134722
 20
-100.200238
 30
0.0
 11
272.134722
 21
-99.917395
 31
0.0
  0
ELLIPSE
  5
FF
100
AcDbEntity
  8
0
370
    -3
390
0
  6
Continuous
100
AcDbEllipse
 10
267.134722
 20
-101.872731
 30
0.0
 11
6.0
 21
0.0
 31
0.0
210
0.0
220
0.0
230
1.0
 40
0.707107
 41
3.1415926535897931
 42
0.0
  0
ELLIPSE
  5
100
100
AcDbEntity
  8
0
370
    -3
390
0
  6
Continuous
100
AcDbEllipse
 10
267.134722
 20
-100.586634
 30
0.0
 11
6.0
 21
0.0
 31
0.0
210
0.0
220
0.0
230
1.0
 40
0.689848
 41
0.0
 42
0.8313376885247663
  0
LINE
  5
101
100
AcDbEntity
  8
0
370
    -3
390
0
  6
Continuous
100
AcDbLine
 10
261.134722
 20
-101.872731
 30
0.0
 11
261.134722
 21
-100.586634
 31
0.0
  0
LINE
  5
102
100
AcDbEntity
  8
0
370
    -3
390
0
  6
Continuous
100
AcDbLine
 10
273.134722
 20
-101.872731
 30
0.0
 11
273.134722
 21
-100.586634
 31
0.0
  0
LINE
  5
103
100
AcDbEntity
  8
0
370
    -3
390
0
  6
Continuous
100
AcDbLine
 10
323.634722
 20
-261.623252
 30
0.0
 11
323.634722
 21
-178.830512
 31
0.0
  0
LINE
  5
104
100
AcDbEntity
  8
0
370
    -3
390
0
  6
Continuous
100
AcDbLine
 10
321.134722
 20
-265.953379
 30
0.0
 11
307.789821
 21
-273.658061
 31
0.0
  0
ARC
  5
105
100
AcDbEntity
  8
0
370
    -3
390
0
  6
Continuous
100
AcDbCircle
 10
277.289821
 20
-220.830512
 30
0.0
 40
61.0
100
AcDbArc
 50
270.0
 51
300.0
  0
ARC
  5
106
100
AcDbEntity
  8
0
370
    -3
390
0
  6
Continuous
100
AcDbCircle
 10
318.634722
 20
-261.623252
 30
0.0
 40
5.0
100
AcDbArc
 50
300.0
 51
0.0
  0
LINE
  5
107
100
AcDbEntity
  8
0
370
    -3
390
0
  6
Continuous
100
AcDbLine
 10
323.634722
 20
-96.037771
 30
0.0
 11
323.634722
 21
-178.830512
 31
0.0
  0
LINE
  5
108
100
AcDbEntity
  8
0
370
    -3
390
0
  6
Continuous
100
AcDbLine
 10
321.134722
 20
-91.707644
 30
0.0
 11
307.789821
 21
-84.002962
 31
0.0
  0
ARC
  5
109
100
AcDbEntity
  8
0
370
    -3
390
0
  6
Continuous
100
AcDbCircle
 10
277.289821
 20
-136.830512
 30
0.0
 40
61.0
100
AcDbArc
 50
60.0
 51
90.0
  0
ARC
  5
10A
100
AcDbEntity
  8
0
370
    -3
390
0
  6
Continuous
100
AcDbCircle
 10
318.634722
 20
-96.037771
 30
0.0
 40
5.0
100
AcDbArc
 50
0.0
 51
60.0
  0
LINE
  5
10B
100
AcDbEntity
  8
0
370
    -3
390
0
  6
Continuous
100
AcDbLine
 10
267.134722
 20
-260.077082
 30
0.0
 11
265.134722
 21
-261.372614
 31
0.0
  0
LINE
  5
10C
100
AcDbEntity
  8
0
370
    -3
390
0
  6
Continuous
100
AcDbLine
 10
267.134722
 20
-260.077082
 30
0.0
 11
265.134722
 21
-258.544187
 31
0.0
  0
LINE
  5
10D
100
AcDbEntity
  8
0
370
    -3
390
0
  6
Continuous
100
AcDbLine
 10
267.134722
 20
-260.077082
 30
0.0
 11
269.134722
 21
-258.544187
 31
0.0
  0
LINE
  5
10E
100
AcDbEntity
  8
0
370
    -3
390
0
  6
Continuous
100
AcDbLine
 10
267.134722
 20
-260.077082
 30
0.0
 11
269.134722
 21
-261.372614
 31
0.0
  0
ELLIPSE
  5
10F
100
AcDbEntity
  8
0
370
    -3
390
0
  6
Continuous
100
AcDbEllipse
 10
267.134722
 20
-257.07439
 30
0.0
 11
6.0
 21
0.0
 31
0.0
210
0.0
220
0.0
230
1.0
 40
0.689848
 41
0.0
 42
3.1415926535897931
  0
ELLIPSE
  5
110
100
AcDbEntity
  8
0
370
    -3
390
0
  6
Continuous
100
AcDbEllipse
 10
267.134722
 20
-257.07439
 30
0.0
 11
6.0
 21
0.0
 31
0.0
210
0.0
220
0.0
230
1.0
 40
0.689848
 41
3.1415926535897931
 42
3.9729303421148194
  0
ELLIPSE
  5
111
100
AcDbEntity
  8
0
370
    -3
390
0
  6
Continuous
100
AcDbEllipse
 10
267.134722
 20
-258.433141
 30
0.0
 11
4.5
 21
0.0
 31
0.0
210
0.0
220
0.0
230
1.0
 40
0.860332
 41
0.0
 42
6.2831853071795862
  0
ELLIPSE
  5
112
100
AcDbEntity
  8
0
370
    -3
390
0
  6
Continuous
100
AcDbEllipse
 10
267.134722
 20
-257.460786
 30
0.0
 11
5.0
 21
0.0
 31
0.0
210
0.0
220
0.0
230
1.0
 40
0.763675
 41
0.0
 42
3.1415926535897931
  0
ELLIPSE
  5
113
100
AcDbEntity
  8
0
370
    -3
390
0
  6
Continuous
100
AcDbEllipse
 10
267.134722
 20
-257.743629
 30
0.0
 11
5.0
 21
0.0
 31
0.0
210
0.0
220
0.0
230
1.0
 40
0.707107
 41
5.754033399181079
 42
3.6707445615882999
  0
LINE
  5
114
100
AcDbEntity
  8
0
370
    -3
390
0
  6
Continuous
100
AcDbLine
 10
262.134722
 20
-257.460786
 30
0.0
 11
262.134722
 21
-257.743629
 31
0.0
  0
LINE
  5
115
100
AcDbEntity
  8
0
370
    -3
390
0
  6
Continuous
100
AcDbLine
 10
272.134722
 20
-257.460786
 30
0.0
 11
272.134722
 21
-257.743629
 31
0.0
  0
ELLIPSE
  5
116
100
AcDbEntity
  8
0
370
    -3
390
0
  6
Continuous
100
AcDbEllipse
 10
267.134722
 20
-255.788292
 30
0.0
 11
6.0
 21
0.0
 31
0.0
210
0.0
220
0.0
230
1.0
 40
0.707107
 41
0.0
 42
3.1415926535897931
  0
ELLIPSE
  5
117
100
AcDbEntity
  8
0
370
    -3
390
0
  6
Continuous
100
AcDbEllipse
 10
267.134722
 20
-257.07439
 30
0.0
 11
6.0
 21
0.0
 31
0.0
210
0.0
220
0.0
230
1.0
 40
0.689848
 41
5.4518476186546714
 42
0.0
  0
LINE
  5
118
100
AcDbEntity
  8
0
370
    -3
390
0
  6
Continuous
100
AcDbLine
 10
261.134722
 20
-255.788292
 30
0.0
 11
261.134722
 21
-257.07439
 31
0.0
  0
LINE
  5
119
100
AcDbEntity
  8
0
370
    -3
390
0
  6
Continuous
100
AcDbLine
 10
273.134722
 20
-255.788292
 30
0.0
 11
273.134722
 21
-257.07439
 31
0.0
  0
LINE
  5
11A
100
AcDbEntity
  8
0
370
    -3
390
0
  6
CENTER
100
AcDbLine
 10
-22.865275
 20
-114.917633
 30
0.0
 11
-22.865275
 21
-83.731049
 31
0.0
  0
LINE
  5
11B
100
AcDbEntity
  8
0
370
    -3
390
0
  6
CENTER
100
AcDbLine
 10
-8.960043
 20
-98.830696
 30
0.0
 11
-35.265608
 21
-98.830696
 31
0.0
  0
CIRCLE
  5
11C
100
AcDbEntity
  8
0
370
    -3
390
0
  6
Continuous
100
AcDbCircle
 10
-22.865275
 20
-98.830696
 30
0.0
 40
10.0
  0
LINE
  5
11D
100
AcDbEntity
  8
0
370
    -3
390
0
  6
CENTER
100
AcDbLine
 10
-115.365275
 20
-79.911507
 30
0.0
 11
-115.365275
 21
-46.814733
 31
0.0
  0
LINE
  5
11E
100
AcDbEntity
  8
0
370
    -3
390
0
  6
CENTER
100
AcDbLine
 10
-129.693603
 20
-65.330696
 30
0.0
 11
-101.822635
 21
-65.330696
 31
0.0
  0
CIRCLE
  5
11F
100
AcDbEntity
  8
0
370
    -3
390
0
  6
Continuous
100
AcDbCircle
 10
-115.365275
 20
-65.330696
 30
0.0
 40
10.0
  0
LINE
  5
120
100
AcDbEntity
  8
0
370
    -3
390
0
  6
CENTER
100
AcDbLine
 10
-272.865275
 20
-85.421879
 30
0.0
 11
-272.865275
 21
-114.421157
 31
0.0
  0
LINE
  5
121
100
AcDbEntity
  8
0
370
    -3
390
0
  6
CENTER
100
AcDbLine
 10
-289.951668
 20
-98.830696
 30
0.0
 11
-257.725861
 21
-98.830696
 31
0.0
  0
CIRCLE
  5
122
100
AcDbEntity
  8
0
370
    -3
390
0
  6
Continuous
100
AcDbCircle
 10
-272.865275
 20
-98.830696
 30
0.0
 40
10.0
  0
LINE
  5
123
100
AcDbEntity
  8
0
370
    -3
390
0
  6
CENTER
100
AcDbLine
 10
-272.865275
 20
-271.599625
 30
0.0
 11
-272.865275
 21
-245.395378
 31
0.0
  0
LINE
  5
124
100
AcDbEntity
  8
0
370
    -3
390
0
  6
CENTER
100
AcDbLine
 10
-290.387151
 20
-258.830696
 30
0.0
 11
-259.032313
 21
-258.830696
 31
0.0
  0
CIRCLE
  5
125
100
AcDbEntity
  8
0
370
    -3
390
0
  6
Continuous
100
AcDbCircle
 10
-272.865275
 20
-258.830696
 30
0.0
 40
10.0
  0
LINE
  5
126
100
AcDbEntity
  8
0
370
    -3
390
0
  6
CENTER
100
AcDbLine
 10
-162.365275
 20
-310.717959
 30
0.0
 11
-162.365275
 21
-277.621185
 31
0.0
  0
LINE
  5
127
100
AcDbEntity
  8
0
370
    -3
390
0
  6
CENTER
100
AcDbLine
 10
-177.596829
 20
-292.330696
 30
0.0
 11
-147.548442
 21
-292.330696
 31
0.0
  0
CIRCLE
  5
128
100
AcDbEntity
  8
0
370
    -3
390
0
  6
Continuous
100
AcDbCircle
 10
-162.365275
 20
-292.330696
 30
0.0
 40
10.0
  0
LINE
  5
129
100
AcDbEntity
  8
0
370
    -3
390
0
  6
CENTER
100
AcDbLine
 10
-8.960043
 20
-258.830696
 30
0.0
 11
-35.57877
 21
-258.830696
 31
0.0
  0
LINE
  5
12A
100
AcDbEntity
  8
0
370
    -3
390
0
  6
CENTER
100
AcDbLine
 10
-22.865275
 20
-272.121185
 30
0.0
 11
-22.865275
 21
-245.260792
 31
0.0
  0
CIRCLE
  5
12B
100
AcDbEntity
  8
0
370
    -3
390
0
  6
Continuous
100
AcDbCircle
 10
-22.865275
 20
-258.830696
 30
0.0
 40
10.0
  0
CIRCLE
  5
12C
100
AcDbEntity
  8
0
370
    -3
390
0
  6
Continuous
100
AcDbCircle
 10
-389.43565
 20
-155.830696
 30
0.0
 40
4.0
  0
CIRCLE
  5
12D
100
AcDbEntity
  8
0
370
    -3
390
0
  6
Continuous
100
AcDbCircle
 10
-389.43565
 20
-155.830696
 30
0.0
 40
3.5
  0
LINE
  5
12E
100
AcDbEntity
  8
0
370
    -3
390
0
  6
CENTER
100
AcDbLine
 10
-389.43565
 20
-116.599107
 30
0.0
 11
-389.43565
 21
-189.60986
 31
0.0
  0
LINE
  5
12F
100
AcDbEntity
  8
0
370
    -3
390
0
  6
CENTER
100
AcDbLine
 10
-425.888634
 20
-155.830696
 30
0.0
 11
-354.383258
 21
-155.830696
 31
0.0
  0
LINE
  5
130
100
AcDbEntity
  8
0
370
    -3
390
0
  6
Continuous
100
AcDbLine
 10
-382.43565
 20
-127.330696
 30
0.0
 11
-382.43565
 21
-136.330696
 31
0.0
  0
LINE
  5
131
100
AcDbEntity
  8
0
370
    -3
390
0
  6
Continuous
100
AcDbLine
 10
-396.43565
 20
-127.330696
 30
0.0
 11
-382.43565
 21
-127.330696
 31
0.0
  0
LINE
  5
132
100
AcDbEntity
  8
0
370
    -3
390
0
  6
Continuous
100
AcDbLine
 10
-396.43565
 20
-136.330696
 30
0.0
 11
-382.43565
 21
-136.330696
 31
0.0
  0
LINE
  5
133
100
AcDbEntity
  8
0
370
    -3
390
0
  6
Continuous
100
AcDbLine
 10
-396.43565
 20
-127.330696
 30
0.0
 11
-396.43565
 21
-136.330696
 31
0.0
  0
ARC
  5
134
100
AcDbEntity
  8
0
370
    -3
390
0
  6
Continuous
100
AcDbCircle
 10
-389.43565
 20
-155.830696
 30
0.0
 40
25.0
100
AcDbArc
 50
106.260205
 51
73.739795
  0
ARC
  5
135
100
AcDbEntity
  8
0
370
    -3
390
0
  6
Continuous
100
AcDbCircle
 10
13.634722
 20
-64.831112
 30
0.0
 40
3.0
100
AcDbArc
 50
0.0
 51
90.0
  0
ARC
  5
136
100
AcDbEntity
  8
0
370
    -3
390
0
  6
Continuous
100
AcDbCircle
 10
35.634722
 20
-275.830696
 30
0.0
 40
3.0
100
AcDbArc
 50
270.0
 51
0.0
  0
LINE
  5
137
100
AcDbEntity
  8
0
370
    -3
390
0
  6
Continuous
100
AcDbLine
 10
4.634722
 20
-278.830696
 30
0.0
 11
35.634722
 21
-278.830696
 31
0.0
  0
ARC
  5
138
100
AcDbEntity
  8
0
370
    -3
390
0
  6
Continuous
100
AcDbCircle
 10
4.634722
 20
-275.830696
 30
0.0
 40
3.0
100
AcDbArc
 50
180.0
 51
270.0
  0
ARC
  5
139
100
AcDbEntity
  8
0
370
    -3
390
0
  6
Continuous
100
AcDbCircle
 10
8.634722
 20
-275.830696
 30
0.0
 40
3.0
100
AcDbArc
 50
270.0
 51
0.0
  0
LINE
  5
13A
100
AcDbEntity
  8
0
370
    -3
390
0
  6
Continuous
100
AcDbLine
 10
-0.365278
 20
-259.830696
 30
0.0
 11
-0.365278
 21
-178.830696
 31
0.0
  0
LINE
  5
13B
100
AcDbEntity
  8
0
370
    -3
390
0
  6
Continuous
100
AcDbLine
 10
-0.365278
 20
-97.830696
 30
0.0
 11
-0.365278
 21
-178.830696
 31
0.0
  0
LINE
  5
13C
100
AcDbEntity
  8
0
370
    -3
390
0
  6
Continuous
100
AcDbLine
 10
40.634722
 20
-178.830696
 30
0.0
 11
40.634722
 21
-262.830696
 31
0.0
  0
LINE
  5
13D
100
AcDbEntity
  8
0
370
    -3
390
0
  6
Continuous
100
AcDbLine
 10
11.634722
 20
-275.830696
 30
0.0
 11
11.634722
 21
-178.830696
 31
0.0
  0
ARC
  5
13E
100
AcDbEntity
  8
0
370
    -3
390
0
  6
Continuous
100
AcDbCircle
 10
37.634722
 20
-189.829388
 30
0.0
 40
1.0
100
AcDbArc
 50
270.0
 51
0.0
  0
ARC
  5
13F
100
AcDbEntity
  8
0
370
    -3
390
0
  6
Continuous
100
AcDbCircle
 10
37.634722
 20
-209.330696
 30
0.0
 40
1.0
100
AcDbArc
 50
0.0
 51
90.0
  0
ARC
  5
140
100
AcDbEntity
  8
0
370
    -3
390
0
  6
Continuous
100
AcDbCircle
 10
37.634722
 20
-211.330696
 30
0.0
 40
1.0
100
AcDbArc
 50
270.0
 51
0.0
  0
LINE
  5
141
100
AcDbEntity
  8
0
370
    -3
390
0
  6
Continuous
100
AcDbLine
 10
11.634722
 20
-190.829388
 30
0.0
 11
37.634722
 21
-190.829388
 31
0.0
  0
LINE
  5
142
100
AcDbEntity
  8
0
370
    -3
390
0
  6
Continuous
100
AcDbLine
 10
14.634722
 20
-208.330696
 30
0.0
 11
37.634722
 21
-208.330696
 31
0.0
  0
ARC
  5
143
100
AcDbEntity
  8
0
370
    -3
390
0
  6
Continuous
100
AcDbCircle
 10
14.634722
 20
-205.330696
 30
0.0
 40
3.0
100
AcDbArc
 50
180.0
 51
270.0
  0
LINE
  5
144
100
AcDbEntity
  8
0
370
    -3
390
0
  6
Continuous
100
AcDbLine
 10
14.634722
 20
-212.330696
 30
0.0
 11
37.634722
 21
-212.330696
 31
0.0
  0
ARC
  5
145
100
AcDbEntity
  8
0
370
    -3
390
0
  6
Continuous
100
AcDbCircle
 10
14.634722
 20
-215.330696
 30
0.0
 40
3.0
100
AcDbArc
 50
90.0
 51
180.0
  0
ARC
  5
146
100
AcDbEntity
  8
0
370
    -3
390
0
  6
Continuous
100
AcDbCircle
 10
14.634722
 20
-226.330696
 30
0.0
 40
3.0
100
AcDbArc
 50
180.0
 51
270.0
  0
ARC
  5
147
100
AcDbEntity
  8
0
370
    -3
390
0
  6
Continuous
100
AcDbCircle
 10
14.634722
 20
-236.330696
 30
0.0
 40
3.0
100
AcDbArc
 50
90.0
 51
180.0
  0
LINE
  5
148
100
AcDbEntity
  8
0
370
    -3
390
0
  6
Continuous
100
AcDbLine
 10
37.634722
 20
-229.330696
 30
0.0
 11
14.634722
 21
-229.330696
 31
0.0
  0
ARC
  5
149
100
AcDbEntity
  8
0
370
    -3
390
0
  6
Continuous
100
AcDbCircle
 10
37.634722
 20
-230.330696
 30
0.0
 40
1.0
100
AcDbArc
 50
0.0
 51
90.0
  0
LINE
  5
14A
100
AcDbEntity
  8
0
370
    -3
390
0
  6
Continuous
100
AcDbLine
 10
14.634722
 20
-233.330696
 30
0.0
 11
37.634722
 21
-233.330696
 31
0.0
  0
ARC
  5
14B
100
AcDbEntity
  8
0
370
    -3
390
0
  6
Continuous
100
AcDbCircle
 10
37.634722
 20
-232.330696
 30
0.0
 40
1.0
100
AcDbArc
 50
270.0
 51
0.0
  0
LINE
  5
14C
100
AcDbEntity
  8
0
370
    -3
390
0
  6
Continuous
100
AcDbLine
 10
14.634722
 20
-247.518096
 30
0.0
 11
40.634722
 21
-247.518096
 31
0.0
  0
ARC
  5
14D
100
AcDbEntity
  8
0
370
    -3
390
0
  6
Continuous
100
AcDbCircle
 10
14.634722
 20
-244.518096
 30
0.0
 40
3.0
100
AcDbArc
 50
180.0
 51
270.0
  0
LINE
  5
14E
100
AcDbEntity
  8
0
370
    -3
390
0
  6
Continuous
100
AcDbLine
 10
14.634722
 20
-257.064038
 30
0.0
 11
40.634722
 21
-257.064038
 31
0.0
  0
ARC
  5
14F
100
AcDbEntity
  8
0
370
    -3
390
0
  6
Continuous
100
AcDbCircle
 10
14.634722
 20
-260.064038
 30
0.0
 40
3.0
100
AcDbArc
 50
90.0
 51
180.0
  0
ARC
  5
150
100
AcDbEntity
  8
0
370
    -3
390
0
  6
Continuous
100
AcDbCircle
 10
37.562853
 20
-268.131396
 30
0.0
 40
1.071869
100
AcDbArc
 50
270.0
 51
90.0
  0
LINE
  5
151
100
AcDbEntity
  8
0
370
    -3
390
0
  6
Continuous
100
AcDbLine
 10
14.634722
 20
-267.059527
 30
0.0
 11
37.562853
 21
-267.059527
 31
0.0
  0
ARC
  5
152
100
AcDbEntity
  8
0
370
    -3
390
0
  6
Continuous
100
AcDbCircle
 10
14.634722
 20
-264.059527
 30
0.0
 40
3.0
100
AcDbArc
 50
180.0
 51
270.0
  0
LINE
  5
153
100
AcDbEntity
  8
0
370
    -3
390
0
  6
Continuous
100
AcDbLine
 10
14.634722
 20
-269.203266
 30
0.0
 11
37.562853
 21
-269.203266
 31
0.0
  0
ARC
  5
154
100
AcDbEntity
  8
0
370
    -3
390
0
  6
Continuous
100
AcDbCircle
 10
14.634722
 20
-272.203266
 30
0.0
 40
3.0
100
AcDbArc
 50
90.0
 51
180.0
  0
LINE
  5
155
100
AcDbEntity
  8
0
370
    -3
390
0
  6
Continuous
100
AcDbLine
 10
40.634722
 20
-178.830696
 30
0.0
 11
40.634722
 21
-94.830696
 31
0.0
  0
ARC
  5
156
100
AcDbEntity
  8
0
370
    -3
390
0
  6
Continuous
100
AcDbCircle
 10
37.634722
 20
-167.832004
 30
0.0
 40
1.0
100
AcDbArc
 50
0.0
 51
90.0
  0
ARC
  5
157
100
AcDbEntity
  8
0
370
    -3
390
0
  6
Continuous
100
AcDbCircle
 10
37.634722
 20
-148.330696
 30
0.0
 40
1.0
100
AcDbArc
 50
270.0
 51
0.0
  0
ARC
  5
158
100
AcDbEntity
  8
0
370
    -3
390
0
  6
Continuous
100
AcDbCircle
 10
37.634722
 20
-146.330696
 30
0.0
 40
1.0
100
AcDbArc
 50
0.0
 51
90.0
  0
LINE
  5
159
100
AcDbEntity
  8
0
370
    -3
390
0
  6
Continuous
100
AcDbLine
 10
11.634722
 20
-166.832004
 30
0.0
 11
37.634722
 21
-166.832004
 31
0.0
  0
LINE
  5
15A
100
AcDbEntity
  8
0
370
    -3
390
0
  6
Continuous
100
AcDbLine
 10
14.634722
 20
-149.330696
 30
0.0
 11
37.634722
 21
-149.330696
 31
0.0
  0
ARC
  5
15B
100
AcDbEntity
  8
0
370
    -3
390
0
  6
Continuous
100
AcDbCircle
 10
14.634722
 20
-152.330696
 30
0.0
 40
3.0
100
AcDbArc
 50
90.0
 51
180.0
  0
LINE
  5
15C
100
AcDbEntity
  8
0
370
    -3
390
0
  6
Continuous
100
AcDbLine
 10
14.634722
 20
-145.330696
 30
0.0
 11
37.634722
 21
-145.330696
 31
0.0
  0
ARC
  5
15D
100
AcDbEntity
  8
0
370
    -3
390
0
  6
Continuous
100
AcDbCircle
 10
14.634722
 20
-142.330696
 30
0.0
 40
3.0
100
AcDbArc
 50
180.0
 51
270.0
  0
ARC
  5
15E
100
AcDbEntity
  8
0
370
    -3
390
0
  6
Continuous
100
AcDbCircle
 10
14.634722
 20
-131.330696
 30
0.0
 40
3.0
100
AcDbArc
 50
90.0
 51
180.0
  0
ARC
  5
15F
100
AcDbEntity
  8
0
370
    -3
390
0
  6
Continuous
100
AcDbCircle
 10
14.634722
 20
-121.330696
 30
0.0
 40
3.0
100
AcDbArc
 50
180.0
 51
270.0
  0
LINE
  5
160
100
AcDbEntity
  8
0
370
    -3
390
0
  6
Continuous
100
AcDbLine
 10
37.634722
 20
-128.330696
 30
0.0
 11
14.634722
 21
-128.330696
 31
0.0
  0
ARC
  5
161
100
AcDbEntity
  8
0
370
    -3
390
0
  6
Continuous
100
AcDbCircle
 10
37.634722
 20
-127.330696
 30
0.0
 40
1.0
100
AcDbArc
 50
270.0
 51
0.0
  0
LINE
  5
162
100
AcDbEntity
  8
0
370
    -3
390
0
  6
Continuous
100
AcDbLine
 10
14.634722
 20
-124.330696
 30
0.0
 11
37.634722
 21
-124.330696
 31
0.0
  0
ARC
  5
163
100
AcDbEntity
  8
0
370
    -3
390
0
  6
Continuous
100
AcDbCircle
 10
37.634722
 20
-125.330696
 30
0.0
 40
1.0
100
AcDbArc
 50
0.0
 51
90.0
  0
LINE
  5
164
100
AcDbEntity
  8
0
370
    -3
390
0
  6
Continuous
100
AcDbLine
 10
14.634722
 20
-110.143295
 30
0.0
 11
40.634722
 21
-110.143295
 31
0.0
  0
ARC
  5
165
100
AcDbEntity
  8
0
370
    -3
390
0
  6
Continuous
100
AcDbCircle
 10
14.634722
 20
-113.143295
 30
0.0
 40
3.0
100
AcDbArc
 50
90.0
 51
180.0
  0
LINE
  5
166
100
AcDbEntity
  8
0
370
    -3
390
0
  6
Continuous
100
AcDbLine
 10
14.634722
 20
-100.597353
 30
0.0
 11
40.634722
 21
-100.597353
 31
0.0
  0
ARC
  5
167
100
AcDbEntity
  8
0
370
    -3
390
0
  6
Continuous
100
AcDbCircle
 10
14.634722
 20
-97.597353
 30
0.0
 40
3.0
100
AcDbArc
 50
180.0
 51
270.0
  0
ARC
  5
168
100
AcDbEntity
  8
0
370
    -3
390
0
  6
Continuous
100
AcDbCircle
 10
37.562853
 20
-89.529995
 30
0.0
 40
1.071869
100
AcDbArc
 50
270.0
 51
90.0
  0
LINE
  5
169
100
AcDbEntity
  8
0
370
    -3
390
0
  6
Continuous
100
AcDbLine
 10
14.634722
 20
-90.601865
 30
0.0
 11
37.562853
 21
-90.601865
 31
0.0
  0
ARC
  5
16A
100
AcDbEntity
  8
0
370
    -3
390
0
  6
Continuous
100
AcDbCircle
 10
14.634722
 20
-93.601865
 30
0.0
 40
3.0
100
AcDbArc
 50
90.0
 51
180.0
  0
LINE
  5
16B
100
AcDbEntity
  8
0
370
    -3
390
0
  6
Continuous
100
AcDbLine
 10
14.634722
 20
-88.458126
 30
0.0
 11
37.562853
 21
-88.458126
 31
0.0
  0
ARC
  5
16C
100
AcDbEntity
  8
0
370
    -3
390
0
  6
Continuous
100
AcDbCircle
 10
14.634722
 20
-85.458126
 30
0.0
 40
3.0
100
AcDbArc
 50
180.0
 51
270.0
  0
ARC
  5
16D
100
AcDbEntity
  8
0
370
    -3
390
0
  6
Continuous
100
AcDbCircle
 10
4.634722
 20
-82.848956
 30
0.0
 40
3.0
100
AcDbArc
 50
90.0
 51
180.0
  0
LINE
  5
16E
100
AcDbEntity
  8
0
370
    -3
390
0
  6
Continuous
100
AcDbLine
 10
35.634722
 20
-79.848956
 30
0.0
 11
4.634722
 21
-79.848956
 31
0.0
  0
ARC
  5
16F
100
AcDbEntity
  8
0
370
    -3
390
0
  6
Continuous
100
AcDbCircle
 10
35.634722
 20
-82.848956
 30
0.0
 40
3.0
100
AcDbArc
 50
0.0
 51
90.0
  0
LINE
  5
170
100
AcDbEntity
  8
0
370
    -3
390
0
  6
Continuous
100
AcDbLine
 10
11.634722
 20
-82.848956
 30
0.0
 11
11.634722
 21
-178.830696
 31
0.0
  0
ARC
  5
171
100
AcDbEntity
  8
0
370
    -3
390
0
  6
Continuous
100
AcDbCircle
 10
8.634722
 20
-82.848956
 30
0.0
 40
3.0
100
AcDbArc
 50
0.0
 51
90.0
  0
LINE
  5
172
100
AcDbEntity
  8
0
370
    -3
390
0
  6
Continuous
100
AcDbLine
 10
16.634722
 20
-25.830696
 30
0.0
 11
16.634722
 21
-79.848956
 31
0.0
  0
CIRCLE
  5
173
100
AcDbEntity
  8
0
370
    -3
390
0
  6
Continuous
100
AcDbCircle
 10
-182.365275
 20
-155.830696
 30
0.0
 40
50.0
  0
LINE
  5
174
100
AcDbEntity
  8
0
370
    -3
390
0
  6
CENTER
100
AcDbLine
 10
-477.54891
 20
-155.830696
 30
0.0
 11
-750.263335
 21
-155.830696
 31
0.0
  0
LINE
  5
175
100
AcDbEntity
  8
0
370
    -3
390
0
  6
CENTER
100
AcDbLine
 10
-626.813035
 20
-178.830696
 30
0.0
 11
-660.14291
 21
-178.830696
 31
0.0
  0
POINT
  5
176
100
AcDbEntity
  8
0
370
    -3
390
0
  6
Continuous
100
AcDbPoint
 10
-364.43565
 20
-155.830696
 30
0.0
  0
POINT
  5
177
100
AcDbEntity
  8
0
370
    -3
390
0
  6
DASHED
100
AcDbPoint
 10
-389.43565
 20
-130.830696
 30
0.0
  0
LINE
  5
178
100
AcDbEntity
  8
0
370
    -3
390
0
  6
DASHED
100
AcDbLine
 10
-697.477972
 20
-83.830696
 30
0.0
 11
-589.477972
 21
-83.830696
 31
0.0
  0
LINE
  5
179
100
AcDbEntity
  8
0
370
    -3
390
0
  6
DASHED
100
AcDbLine
 10
-697.477972
 20
-61.830696
 30
0.0
 11
-589.477972
 21
-61.830696
 31
0.0
  0
LINE
  5
17A
100
AcDbEntity
  8
0
370
    -3
390
0
  6
CENTER
100
AcDbLine
 10
-551.358053
 20
-72.830696
 30
0.0
 11
-733.139777
 21
-72.830696
 31
0.0
  0
LINE
  5
17B
100
AcDbEntity
  8
0
370
    -3
390
0
  6
DASHED
100
AcDbLine
 10
-589.477972
 20
-56.830871
 30
0.0
 11
-589.477972
 21
-88.830871
 31
0.0
  0
LINE
  5
17C
100
AcDbEntity
  8
0
370
    -3
390
0
  6
DASHED
100
AcDbLine
 10
-563.477972
 20
-56.830871
 30
0.0
 11
-589.477972
 21
-56.830871
 31
0.0
  0
LINE
  5
17D
100
AcDbEntity
  8
0
370
    -3
390
0
  6
DASHED
100
AcDbLine
 10
-563.477972
 20
-88.830871
 30
0.0
 11
-589.477972
 21
-88.830871
 31
0.0
  0
LINE
  5
17E
100
AcDbEntity
  8
0
370
    -3
390
0
  6
DASHED
100
AcDbLine
 10
-697.477972
 20
-88.830871
 30
0.0
 11
-723.477972
 21
-88.830871
 31
0.0
  0
LINE
  5
17F
100
AcDbEntity
  8
0
370
    -3
390
0
  6
DASHED
100
AcDbLine
 10
-697.477972
 20
-56.830871
 30
0.0
 11
-697.477972
 21
-88.830871
 31
0.0
  0
LINE
  5
180
100
AcDbEntity
  8
0
370
    -3
390
0
  6
DASHED
100
AcDbLine
 10
-697.477972
 20
-56.830871
 30
0.0
 11
-723.477972
 21
-56.830871
 31
0.0
  0
LINE
  5
181
100
AcDbEntity
  8
0
370
    -3
390
0
  6
DASHED
100
AcDbLine
 10
-697.477972
 20
-273.830696
 30
0.0
 11
-589.477972
 21
-273.830696
 31
0.0
  0
LINE
  5
182
100
AcDbEntity
  8
0
370
    -3
390
0
  6
DASHED
100
AcDbLine
 10
-697.477972
 20
-295.830696
 30
0.0
 11
-589.477972
 21
-295.830696
 31
0.0
  0
LINE
  5
183
100
AcDbEntity
  8
0
370
    -3
390
0
  6
DASHED
100
AcDbLine
 10
-589.477972
 20
-268.830871
 30
0.0
 11
-589.477972
 21
-300.830871
 31
0.0
  0
LINE
  5
184
100
AcDbEntity
  8
0
370
    -3
390
0
  6
DASHED
100
AcDbLine
 10
-563.477972
 20
-300.830871
 30
0.0
 11
-589.477972
 21
-300.830871
 31
0.0
  0
LINE
  5
185
100
AcDbEntity
  8
0
370
    -3
390
0
  6
DASHED
100
AcDbLine
 10
-563.477972
 20
-268.830871
 30
0.0
 11
-589.477972
 21
-268.830871
 31
0.0
  0
LINE
  5
186
100
AcDbEntity
  8
0
370
    -3
390
0
  6
CENTER
100
AcDbLine
 10
-552.191914
 20
-284.830696
 30
0.0
 11
-737.598368
 21
-284.830696
 31
0.0
  0
LINE
  5
187
100
AcDbEntity
  8
0
370
    -3
390
0
  6
DASHED
100
AcDbLine
 10
-697.477972
 20
-268.830871
 30
0.0
 11
-697.477972
 21
-300.830871
 31
0.0
  0
LINE
  5
188
100
AcDbEntity
  8
0
370
    -3
390
0
  6
DASHED
100
AcDbLine
 10
-697.477972
 20
-268.830871
 30
0.0
 11
-723.477972
 21
-268.830871
 31
0.0
  0
LINE
  5
189
100
AcDbEntity
  8
0
370
    -3
390
0
  6
DASHED
100
AcDbLine
 10
-697.477972
 20
-300.830871
 30
0.0
 11
-723.477972
 21
-300.830871
 31
0.0
  0
INSERT
  5
195
100
AcDbEntity
  8
0
390
0
100
AcDbBlockReference
  2
ZU_SYM_K__CAD_SYM_POO_SYM_B20_18
 10
21.134722
 20
-70.830696
 30
0.0
 41
-1.0
  0
LINE
  5
196
100
AcDbEntity
  8
0
370
    -3
390
0
  6
Continuous
100
AcDbLine
 10
21.134722
 20
-25.830696
 30
0.0
 11
16.634722
 21
-25.830696
 31
0.0
  0
LINE
  5
197
100
AcDbEntity
  8
0
370
    -3
390
0
  6
CENTER
100
AcDbLine
 10
35.068798
 20
-45.830696
 30
0.0
 11
12.097597
 21
-45.830696
 31
0.0
  0
LINE
  5
198
100
AcDbEntity
  8
0
370
    -3
390
0
  6
Continuous
100
AcDbLine
 10
-663.977979
 20
-40.987797
 30
0.0
 11
-704.809854
 21
-22.808394
 31
0.0
  0
LINE
  5
199
100
AcDbEntity
  8
0
370
    -3
390
0
  6
Continuous
100
AcDbLine
 10
-663.977984
 20
-36.828181
 30
0.0
 11
-702.350717
 21
-19.743652
 31
0.0
  0
ARC
  5
19A
100
AcDbEntity
  8
0
370
    -3
390
0
  6
Continuous
100
AcDbCircle
 10
-626.299422
 20
-37.083126
 30
0.0
 40
15.0
100
AcDbArc
 50
9.318263
 51
88.317371
  0
LINE
  5
19B
100
AcDbEntity
  8
0
370
    -3
390
0
  6
CENTER
100
AcDbLine
 10
-695.563906
 20
-18.760046
 30
0.0
 11
-698.692138
 21
-25.786215
 31
0.0
  0
ARC
  5
19C
100
AcDbEntity
  8
0
370
    -3
390
0
  6
Continuous
100
AcDbCircle
 10
-687.600981
 20
-25.460973
 30
0.0
 40
2.0
100
AcDbArc
 50
94.231478
 51
156.000139
  0
ARC
  5
19D
100
AcDbEntity
  8
0
370
    -3
390
0
  6
Continuous
100
AcDbCircle
 10
-690.250588
 20
-24.036306
 30
0.0
 40
1.0
100
AcDbArc
 50
246.000139
 51
336.000139
  0
ARC
  5
19E
100
AcDbEntity
  8
0
370
    -3
390
0
  6
Continuous
100
AcDbCircle
 10
-702.757451
 20
-20.657198
 30
0.0
 40
1.0
100
AcDbArc
 50
66.000139
 51
156.000139
  0
LINE
  5
19F
100
AcDbEntity
  8
0
370
    -3
390
0
  6
Continuous
100
AcDbLine
 10
-703.670997
 20
-20.250464
 30
0.0
 11
-704.809854
 21
-22.808394
 31
0.0
  0
ARC
  5
1A0
100
AcDbEntity
  8
0
370
    -3
390
0
  6
Continuous
100
AcDbCircle
 10
-692.881512
 20
-22.864951
 30
0.0
 40
1.0
100
AcDbArc
 50
246.000139
 51
274.715264
  0
ARC
  5
1A1
100
AcDbEntity
  8
0
370
    -3
390
0
  6
Continuous
100
AcDbCircle
 10
-643.476895
 20
-621.830879
 30
0.0
 40
600.0
100
AcDbArc
 50
88.317371
 51
94.715264
  0
ARC
  5
1A2
100
AcDbEntity
  8
0
370
    -3
390
0
  6
Continuous
100
AcDbCircle
 10
-694.644141
 20
-22.103142
 30
0.0
 40
1.299999
100
AcDbArc
 50
336.000139
 51
49.398608
  0
ARC
  5
1A3
100
AcDbEntity
  8
0
370
    -3
390
0
  6
Continuous
100
AcDbCircle
 10
-698.663747
 20
-20.31351
 30
0.0
 40
1.299999
100
AcDbArc
 50
82.601688
 51
156.000157
  0
LINE
  5
1A4
100
AcDbEntity
  8
0
370
    -3
390
0
  6
Continuous
100
AcDbLine
 10
-693.854735
 20
-23.526282
 30
0.0
 11
-693.456531
 21
-22.631897
 31
0.0
  0
LINE
  5
1A5
100
AcDbEntity
  8
0
370
    -3
390
0
  6
Continuous
100
AcDbLine
 10
-700.24956
 20
-20.679141
 30
0.0
 11
-699.851356
 21
-19.784756
 31
0.0
  0
LINE
  5
1A6
100
AcDbEntity
  8
0
370
    -3
390
0
  6
Continuous
100
AcDbLine
 10
-693.854735
 20
-23.526282
 30
0.0
 11
-700.24956
 21
-20.679141
 31
0.0
  0
POINT
  5
1A7
100
AcDbEntity
  8
0
370
    -3
390
0
  6
Continuous
100
AcDbPoint
 10
-697.052147
 20
-22.102711
 30
0.0
  0
ARC
  5
1A8
100
AcDbEntity
  8
0
370
    -3
390
0
  6
Continuous
100
AcDbCircle
 10
-699.655247
 20
-27.949408
 30
0.0
 40
9.0
100
AcDbArc
 50
49.398608
 51
82.601688
  0
LINE
  5
1A9
100
AcDbEntity
  8
0
370
    -3
390
0
  6
Continuous
100
AcDbLine
 10
-689.978283
 20
-51.454624
 30
0.0
 11
-689.978337
 21
-29.411767
 31
0.0
  0
LINE
  5
1AA
100
AcDbEntity
  8
0
370
    -3
390
0
  6
Continuous
100
AcDbLine
 10
-608.80853
 20
-51.041305
 30
0.0
 11
-611.49736
 21
-34.654351
 31
0.0
  0
LINE
  5
1AB
100
AcDbEntity
  8
0
370
    -3
390
0
  6
Continuous
100
AcDbLine
 10
-634.03288
 20
-50.160513
 30
0.0
 11
-652.65915
 21
-41.867618
 31
0.0
  0
LINE
  5
1AC
100
AcDbEntity
  8
0
370
    -3
390
0
  6
Continuous
100
AcDbLine
 10
-643.478286
 20
-50.114788
 30
0.0
 11
-653.476572
 21
-45.663294
 31
0.0
  0
LINE
  5
1AD
100
AcDbEntity
  8
0
370
    -3
390
0
  6
Continuous
100
AcDbLine
 10
240.634722
 20
-85.830512
 30
0.0
 11
201.634722
 21
-85.830512
 31
0.0
  0
ARC
  5
1AE
100
AcDbEntity
  8
0
370
    -3
390
0
  6
Continuous
100
AcDbCircle
 10
203.234722
 20
-82.630512
 30
0.0
 40
3.2
100
AcDbArc
 50
180.0
 51
270.0
  0
LINE
  5
1AF
100
AcDbEntity
  8
0
370
    -3
390
0
  6
Continuous
100
AcDbLine
 10
201.634722
 20
-86.830512
 30
0.0
 11
201.634722
 21
-85.830512
 31
0.0
  0
LINE
  5
1B0
100
AcDbEntity
  8
0
370
    -3
390
0
  6
Continuous
100
AcDbLine
 10
251.234722
 20
-76.955885
 30
0.0
 11
251.234722
 21
-74.030512
 31
0.0
  0
ARC
  5
1B1
100
AcDbEntity
  8
0
370
    -3
390
0
  6
Continuous
100
AcDbCircle
 10
198.434722
 20
-74.030512
 30
0.0
 40
1.6
100
AcDbArc
 50
0.0
 51
90.0
  0
LINE
  5
1B2
100
AcDbEntity
  8
0
370
    -3
390
0
  6
Continuous
100
AcDbLine
 10
194.634722
 20
-72.430512
 30
0.0
 11
225.634722
 21
-72.430512
 31
0.0
  0
LINE
  5
1B3
100
AcDbEntity
  8
0
370
    -3
390
0
  6
Continuous
100
AcDbLine
 10
200.034722
 20
-82.630512
 30
0.0
 11
200.034722
 21
-74.030512
 31
0.0
  0
ARC
  5
1B4
100
AcDbEntity
  8
0
370
    -3
390
0
  6
Continuous
100
AcDbCircle
 10
252.834722
 20
-74.030512
 30
0.0
 40
1.6
100
AcDbArc
 50
90.0
 51
180.0
  0
LINE
  5
1B5
100
AcDbEntity
  8
0
370
    -3
390
0
  6
Continuous
100
AcDbLine
 10
256.634722
 20
-72.430512
 30
0.0
 11
225.634722
 21
-72.430512
 31
0.0
  0
LINE
  5
1B6
100
AcDbEntity
  8
0
370
    -3
390
0
  6
CENTER
100
AcDbLine
 10
225.634722
 20
-90.00515
 30
0.0
 11
225.634722
 21
-14.601812
 31
0.0
  0
LINE
  5
1B7
100
AcDbEntity
  8
0
370
    -3
390
0
  6
Continuous
100
AcDbLine
 10
225.634722
 20
-70.830512
 30
0.0
 11
194.634722
 21
-70.830512
 31
0.0
  0
LINE
  5
1B8
100
AcDbEntity
  8
0
370
    -3
390
0
  6
Continuous
100
AcDbLine
 10
194.634722
 20
-70.830512
 30
0.0
 11
194.634722
 21
-72.430512
 31
0.0
  0
LINE
  5
1B9
100
AcDbEntity
  8
0
370
    -3
390
0
  6
Continuous
100
AcDbLine
 10
225.634722
 20
-70.830512
 30
0.0
 11
256.634722
 21
-70.830512
 31
0.0
  0
LINE
  5
1BA
100
AcDbEntity
  8
0
370
    -3
390
0
  6
Continuous
100
AcDbLine
 10
256.634722
 20
-70.830512
 30
0.0
 11
194.634722
 21
-70.830512
 31
0.0
  0
LINE
  5
1BB
100
AcDbEntity
  8
0
370
    -3
390
0
  6
Continuous
100
AcDbLine
 10
256.634722
 20
-70.830512
 30
0.0
 11
256.634722
 21
-72.430512
 31
0.0
  0
LINE
  5
1BC
100
AcDbEntity
  8
0
370
    -3
390
0
  6
Continuous
100
AcDbLine
 10
261.084722
 20
-19.656686
 30
0.0
 11
228.691978
 21
-19.656686
 31
0.0
  0
LINE
  5
1BD
100
AcDbEntity
  8
0
370
    -3
390
0
  6
Continuous
100
AcDbLine
 10
261.084722
 20
-68.525076
 30
0.0
 11
190.184722
 21
-68.525076
 31
0.0
  0
LINE
  5
1BE
100
AcDbEntity
  8
0
370
    -3
390
0
  6
Continuous
100
AcDbLine
 10
261.084722
 20
-65.053603
 30
0.0
 11
190.184722
 21
-65.053603
 31
0.0
  0
LINE
  5
1BF
100
AcDbEntity
  8
0
370
    -3
390
0
  6
Continuous
100
AcDbLine
 10
179.184722
 20
-57.525076
 30
0.0
 11
179.184722
 21
-30.656686
 31
0.0
  0
LINE
  5
1C0
100
AcDbEntity
  8
0
370
    -3
390
0
  6
Continuous
100
AcDbLine
 10
272.084722
 20
-57.525076
 30
0.0
 11
272.084722
 21
-30.656686
 31
0.0
  0
LINE
  5
1C1
100
AcDbEntity
  8
0
370
    -3
390
0
  6
Continuous
100
AcDbLine
 10
185.584722
 20
-27.630512
 30
0.0
 11
185.584722
 21
-57.206446
 31
0.0
  0
LINE
  5
1C2
100
AcDbEntity
  8
0
370
    -3
390
0
  6
Continuous
100
AcDbLine
 10
265.684722
 20
-27.630512
 30
0.0
 11
265.684722
 21
-57.206446
 31
0.0
  0
LINE
  5
1C3
100
AcDbEntity
  8
0
370
    -3
390
0
  6
Continuous
100
AcDbLine
 10
260.684722
 20
-62.206446
 30
0.0
 11
190.584722
 21
-62.206446
 31
0.0
  0
ARC
  5
1C4
100
AcDbEntity
  8
0
370
    -3
390
0
  6
Continuous
100
AcDbCircle
 10
190.584722
 20
-57.206446
 30
0.0
 40
5.0
100
AcDbArc
 50
180.0
 51
270.0
  0
ARC
  5
1C5
100
AcDbEntity
  8
0
370
    -3
390
0
  6
Continuous
100
AcDbCircle
 10
260.684722
 20
-57.206446
 30
0.0
 40
5.0
100
AcDbArc
 50
270.0
 51
0.0
  0
ARC
  5
1C6
100
AcDbEntity
  8
0
370
    -3
390
0
  6
Continuous
100
AcDbCircle
 10
190.184722
 20
-30.656686
 30
0.0
 40
11.0
100
AcDbArc
 50
90.0
 51
180.0
  0
ARC
  5
1C7
100
AcDbEntity
  8
0
370
    -3
390
0
  6
Continuous
100
AcDbCircle
 10
261.084722
 20
-30.656686
 30
0.0
 40
11.0
100
AcDbArc
 50
0.0
 51
90.0
  0
LINE
  5
1C8
100
AcDbEntity
  8
0
370
    -3
390
0
  6
Continuous
100
AcDbLine
 10
259.884722
 20
-21.830512
 30
0.0
 11
191.384722
 21
-21.830512
 31
0.0
  0
ARC
  5
1C9
100
AcDbEntity
  8
0
370
    -3
390
0
  6
Continuous
100
AcDbCircle
 10
191.384722
 20
-27.630512
 30
0.0
 40
5.8
100
AcDbArc
 50
90.0
 51
180.0
  0
ARC
  5
1CA
100
AcDbEntity
  8
0
370
    -3
390
0
  6
Continuous
100
AcDbCircle
 10
259.884722
 20
-27.630512
 30
0.0
 40
5.8
100
AcDbArc
 50
0.0
 51
90.0
  0
ARC
  5
1CB
100
AcDbEntity
  8
0
370
    -3
390
0
  6
Continuous
100
AcDbCircle
 10
190.184722
 20
-54.053603
 30
0.0
 40
11.0
100
AcDbArc
 50
180.0
 51
270.0
  0
ARC
  5
1CC
100
AcDbEntity
  8
0
370
    -3
390
0
  6
Continuous
100
AcDbCircle
 10
190.184722
 20
-57.525076
 30
0.0
 40
11.0
100
AcDbArc
 50
180.0
 51
270.0
  0
ARC
  5
1CD
100
AcDbEntity
  8
0
370
    -3
390
0
  6
Continuous
100
AcDbCircle
 10
261.084722
 20
-54.053603
 30
0.0
 40
11.0
100
AcDbArc
 50
270.0
 51
0.0
  0
ARC
  5
1CE
100
AcDbEntity
  8
0
370
    -3
390
0
  6
Continuous
100
AcDbCircle
 10
261.084722
 20
-57.525076
 30
0.0
 40
11.0
100
AcDbArc
 50
270.0
 51
0.0
  0
ARC
  5
1CF
100
AcDbEntity
  8
0
370
    -3
390
0
  6
Continuous
100
AcDbCircle
 10
191.834722
 20
-64.830512
 30
0.0
 40
5.0
100
AcDbArc
 50
224.925956
 51
270.0
  0
ARC
  5
1D0
100
AcDbEntity
  8
0
370
    -3
390
0
  6
Continuous
100
AcDbCircle
 10
259.434722
 20
-64.830512
 30
0.0
 40
5.0
100
AcDbArc
 50
270.0
 51
315.074044
  0
LINE
  5
1D1
100
AcDbEntity
  8
0
370
    -3
390
0
  6
CENTER
100
AcDbLine
 10
248.458354
 20
-45.830696
 30
0.0
 11
204.170636
 21
-45.830696
 31
0.0
  0
CIRCLE
  5
1D2
100
AcDbEntity
  8
0
370
    -3
390
0
  6
DASHED
100
AcDbCircle
 10
225.634722
 20
-45.830696
 30
0.0
 40
13.5
  0
ARC
  5
1D3
100
AcDbEntity
  8
0
370
    -3
390
0
  6
Continuous
100
AcDbCircle
 10
225.634722
 20
-28.013009
 30
0.0
 40
9.0
100
AcDbArc
 50
73.398469
 51
106.601548
  0
LINE
  5
1D4
100
AcDbEntity
  8
0
370
    -3
390
0
  6
Continuous
100
AcDbLine
 10
222.577466
 20
-19.656686
 30
0.0
 11
190.184722
 21
-19.656686
 31
0.0
  0
LINE
  5
1D5
100
AcDbEntity
  8
0
370
    -3
390
0
  6
Continuous
100
AcDbLine
 10
259.434722
 20
-69.830512
 30
0.0
 11
191.834722
 21
-69.830512
 31
0.0
  0
LINE
  5
1D6
100
AcDbEntity
  8
0
370
    -3
390
0
  6
Continuous
100
AcDbLine
 10
194.634722
 20
-70.830512
 30
0.0
 11
194.634722
 21
-69.830512
 31
0.0
  0
LINE
  5
1D7
100
AcDbEntity
  8
0
370
    -3
390
0
  6
Continuous
100
AcDbLine
 10
256.634722
 20
-70.830512
 30
0.0
 11
256.634722
 21
-69.830512
 31
0.0
  0
INSERT
  5
1E4
100
AcDbEntity
  8
0
390
0
100
AcDbBlockReference
  2
ZU_SYM_K__CAD_SYM_POO_SYM_B20_07
 10
-22.865275
 20
-98.830696
 30
0.0
  0
INSERT
  5
1F1
100
AcDbEntity
  8
0
390
0
100
AcDbBlockReference
  2
ZU_SYM_K__CAD_SYM_POO_SYM_B20_0000107
 10
-115.365275
 20
-65.330696
 30
0.0
  0
INSERT
  5
1FE
100
AcDbEntity
  8
0
390
0
100
AcDbBlockReference
  2
ZU_SYM_K__CAD_SYM_POO_SYM_B20_0000207
 10
-272.865275
 20
-98.830696
 30
0.0
  0
INSERT
  5
20B
100
AcDbEntity
  8
0
390
0
100
AcDbBlockReference
  2
ZU_SYM_K__CAD_SYM_POO_SYM_B20_0000307
 10
-272.865275
 20
-258.830696
 30
0.0
  0
INSERT
  5
218
100
AcDbEntity
  8
0
390
0
100
AcDbBlockReference
  2
ZU_SYM_K__CAD_SYM_POO_SYM_B20_0000407
 10
-162.365275
 20
-292.330696
 30
0.0
  0
INSERT
  5
225
100
AcDbEntity
  8
0
390
0
100
AcDbBlockReference
  2
ZU_SYM_K__CAD_SYM_POO_SYM_B20_0000507
 10
-22.865275
 20
-258.830696
 30
0.0
  0
LINE
  5
226
100
AcDbEntity
  8
0
370
    -3
390
0
  6
Continuous
100
AcDbLine
 10
222.134722
 20
-20.633984
 30
0.0
 11
222.134722
 21
-21.030512
 31
0.0
  0
ARC
  5
227
100
AcDbEntity
  8
0
370
    -3
390
0
  6
Continuous
100
AcDbCircle
 10
223.634722
 20
-21.030512
 30
0.0
 40
1.5
100
AcDbArc
 50
180.0
 51
212.230953
  0
ARC
  5
228
100
AcDbEntity
  8
0
370
    -3
390
0
  6
Continuous
100
AcDbCircle
 10
227.634722
 20
-21.030512
 30
0.0
 40
1.5
100
AcDbArc
 50
327.769047
 51
0.0
  0
LINE
  5
229
100
AcDbEntity
  8
0
370
    -3
390
0
  6
Continuous
100
AcDbLine
 10
229.134722
 20
-20.633984
 30
0.0
 11
229.134722
 21
-21.030512
 31
0.0
  0
ARC
  5
22A
100
AcDbEntity
  8
0
370
    -3
390
0
  6
Continuous
100
AcDbCircle
 10
227.834723
 20
-20.633984
 30
0.0
 40
1.299999
100
AcDbArc
 50
0.0
 51
73.398469
  0
ARC
  5
22B
100
AcDbEntity
  8
0
370
    -3
390
0
  6
Continuous
100
AcDbCircle
 10
223.434721
 20
-20.633984
 30
0.0
 40
1.299999
100
AcDbArc
 50
106.601531
 51
180.0
  0
ARC
  5
22C
100
AcDbEntity
  8
0
370
    -3
390
0
  6
DASHED
100
AcDbCircle
 10
-643.477973
 20
-178.830696
 30
0.0
 40
109.0
100
AcDbArc
 50
304.287111
 51
317.218141
  0
ARC
  5
22D
100
AcDbEntity
  8
0
370
    -3
390
0
  6
DASHED
100
AcDbCircle
 10
-622.071046
 20
-210.227247
 30
0.0
 40
71.0
100
AcDbArc
 50
273.229411
 51
304.287111
  0
ARC
  5
22E
100
AcDbEntity
  8
0
370
    -3
390
0
  6
DASHED
100
AcDbCircle
 10
-643.477973
 20
169.169304
 30
0.0
 40
451.0
100
AcDbArc
 50
266.770589
 51
273.229411
  0
ARC
  5
22F
100
AcDbEntity
  8
0
370
    -3
390
0
  6
DASHED
100
AcDbCircle
 10
-664.8849
 20
-210.227247
 30
0.0
 40
71.0
100
AcDbArc
 50
235.712889
 51
266.770589
  0
ARC
  5
230
100
AcDbEntity
  8
0
370
    -3
390
0
  6
Continuous
100
AcDbCircle
 10
-643.477973
 20
-178.830696
 30
0.0
 40
109.0
100
AcDbArc
 50
214.287111
 51
222.781859
  0
ARC
  5
231
100
AcDbEntity
  8
0
370
    -3
390
0
  6
Continuous
100
AcDbCircle
 10
-674.874525
 20
-200.237623
 30
0.0
 40
71.0
100
AcDbArc
 50
183.229411
 51
214.287111
  0
ARC
  5
232
100
AcDbEntity
  8
0
370
    -3
390
0
  6
Continuous
100
AcDbCircle
 10
-295.477973
 20
-178.830696
 30
0.0
 40
451.0
100
AcDbArc
 50
176.770589
 51
183.229411
  0
ARC
  5
233
100
AcDbEntity
  8
0
370
    -3
390
0
  6
Continuous
100
AcDbCircle
 10
-674.874525
 20
-157.423768
 30
0.0
 40
71.0
100
AcDbArc
 50
145.712889
 51
176.770589
  0
ARC
  5
234
100
AcDbEntity
  8
0
370
    -3
390
0
  6
DASHED
100
AcDbCircle
 10
-643.477973
 20
-178.830696
 30
0.0
 40
109.0
100
AcDbArc
 50
124.287111
 51
141.243779
  0
ARC
  5
235
100
AcDbEntity
  8
0
370
    -3
390
0
  6
DASHED
100
AcDbCircle
 10
-643.477973
 20
-526.830696
 30
0.0
 40
451.0
100
AcDbArc
 50
86.770589
 51
93.229411
  0
ARC
  5
236
100
AcDbEntity
  8
0
370
    -3
390
0
  6
DASHED
100
AcDbCircle
 10
-622.071046
 20
-147.434144
 30
0.0
 40
71.0
100
AcDbArc
 50
55.712889
 51
86.770589
  0
ARC
  5
237
100
AcDbEntity
  8
0
370
    -3
390
0
  6
DASHED
100
AcDbCircle
 10
-612.081421
 20
-157.423768
 30
0.0
 40
71.0
100
AcDbArc
 50
3.229411
 51
21.996523
  0
ARC
  5
238
100
AcDbEntity
  8
0
370
    -3
390
0
  6
Continuous
100
AcDbCircle
 10
-643.477973
 20
-178.830696
 30
0.0
 40
109.0
100
AcDbArc
 50
34.287111
 51
38.756221
  0
ARC
  5
239
100
AcDbEntity
  8
0
370
    -3
390
0
  6
DASHED
100
AcDbCircle
 10
-664.8849
 20
-147.434144
 30
0.0
 40
71.0
100
AcDbArc
 50
93.229411
 51
124.287111
  0
ARC
  5
23A
100
AcDbEntity
  8
0
370
    -3
390
0
  6
Continuous
100
AcDbCircle
 10
-991.477973
 20
-178.830696
 30
0.0
 40
451.0
100
AcDbArc
 50
356.770589
 51
359.745916
  0
ARC
  5
23B
100
AcDbEntity
  8
0
370
    -3
390
0
  6
Continuous
100
AcDbCircle
 10
-612.081421
 20
-200.237623
 30
0.0
 40
71.0
100
AcDbArc
 50
325.712889
 51
356.770589
  0
ARC
  5
23C
100
AcDbEntity
  8
0
370
    -3
390
0
  6
DASHED
100
AcDbCircle
 10
-643.477973
 20
-178.830696
 30
0.0
 40
109.0
100
AcDbArc
 50
38.756221
 51
55.712889
  0
ARC
  5
23D
100
AcDbEntity
  8
0
370
    -3
390
0
  6
Continuous
100
AcDbCircle
 10
-643.477973
 20
-178.830696
 30
0.0
 40
109.0
100
AcDbArc
 50
317.218141
 51
325.712889
  0
ARC
  5
23E
100
AcDbEntity
  8
0
370
    -3
390
0
  6
DASHED
100
AcDbCircle
 10
-643.477973
 20
-178.830696
 30
0.0
 40
109.0
100
AcDbArc
 50
222.781859
 51
235.712889
  0
ARC
  5
23F
100
AcDbEntity
  8
0
370
    -3
390
0
  6
Continuous
100
AcDbCircle
 10
-643.477973
 20
-178.830696
 30
0.0
 40
109.0
100
AcDbArc
 50
141.243779
 51
145.712889
  0
ARC
  5
240
100
AcDbEntity
  8
0
370
    -3
390
0
  6
Continuous
100
AcDbCircle
 10
-612.081421
 20
-157.423768
 30
0.0
 40
71.0
100
AcDbArc
 50
21.996523
 51
34.287111
  0
ARC
  5
241
100
AcDbEntity
  8
0
370
    -3
390
0
  6
DASHED
100
AcDbCircle
 10
-991.477973
 20
-178.830696
 30
0.0
 40
451.0
100
AcDbArc
 50
359.745916
 51
3.229411
  0
MTEXT
  5
243
100
AcDbEntity
  8
0
370
    -3
390
0
  6
Continuous
100
AcDbMText
 10
-554.725952
 20
199.974991
 30
0.0
 40
10.0
 41
0.0
 71
     7
 72
     1
  1
\W0.63;三菱ギヤードモータ  
  7
ZU_SHPTB00001
 11
1.0
 21
0.0
 31
0.0
 73
     1
 44
1.0
  0
MTEXT
  5
244
100
AcDbEntity
  8
0
370
    -3
390
0
  6
Continuous
100
AcDbMText
 10
-554.725952
 20
188.674988
 30
0.0
 40
10.0
 41
0.0
 71
     7
 72
     1
  1
\W0.47;GM-SHYPF-RL(R)
  7
ZU_SHPTB00001
 11
1.0
 21
0.0
 31
0.0
 73
     1
 44
1.0
  0
MTEXT
  5
245
100
AcDbEntity
  8
0
370
    -3
390
0
  6
Continuous
100
AcDbMText
 10
-554.725952
 20
177.375
 30
0.0
 40
10.0
 41
0.0
 71
     7
 72
     1
  1
\W0.47;2.2(kW)
  7
ZU_SHPTB00001
 11
1.0
 21
0.0
 31
0.0
 73
     1
 44
1.0
  0
MTEXT
  5
246
100
AcDbEntity
  8
0
370
    -3
390
0
  6
Continuous
100
AcDbMText
 10
-554.725952
 20
166.074997
 30
0.0
 40
10.0
 41
0.0
 71
     7
 72
     1
  1
\W0.47;1/5\W0.63;～\W0.47;1/120
  7
ZU_SHPTB00001
 11
1.0
 21
0.0
 31
0.0
 73
     1
 44
1.0
  0
MTEXT
  5
247
100
AcDbEntity
  8
0
370
    -3
390
0
  6
Continuous
100
AcDbMText
 10
-554.725952
 20
154.774994
 30
0.0
 40
10.0
 41
0.0
 71
     7
 72
     1
  1
\W0.47;SCALE\W0.78; \W0.47;1/1
  7
ZU_SHPTB00001
 11
1.0
 21
0.0
 31
0.0
 73
     1
 44
1.0
  0
ARC
  5
248
100
AcDbEntity
  8
0
370
    -3
390
0
  6
Continuous
100
AcDbCircle
 10
164.038806
 20
789.885327
 30
0.0
 40
54.0
100
AcDbArc
 50
329.521804
 51
329.731817
  0
LINE
  5
249
100
AcDbEntity
  8
0
370
    -3
390
0
  6
Continuous
100
AcDbLine
 10
627.356741
 20
-303.516447
 30
0.0
 11
615.356056
 21
-303.830696
 31
0.0
  0
LINE
  5
24A
100
AcDbEntity
  8
0
370
    -3
390
0
  6
Continuous
100
AcDbLine
 10
615.356056
 20
-264.807437
 30
0.0
 11
615.356056
 21
-305.491004
 31
0.0
  0
LINE
  5
24B
100
AcDbEntity
  8
0
370
    -3
390
0
  6
Continuous
100
AcDbLine
 10
628.356056
 20
-261.162829
 30
0.0
 11
628.356056
 21
-302.490622
 31
0.0
  0
LINE
  5
24C
100
AcDbEntity
  8
0
370
    -3
390
0
  6
Continuous
100
AcDbLine
 10
627.356741
 20
-303.516447
 30
0.0
 11
628.356056
 21
-302.490622
 31
0.0
  0
LINE
  5
24D
100
AcDbEntity
  8
0
370
    -3
390
0
  6
Continuous
100
AcDbLine
 10
468.356056
 20
-261.162829
 30
0.0
 11
468.356056
 21
-302.490622
 31
0.0
  0
LINE
  5
24E
100
AcDbEntity
  8
0
370
    -3
390
0
  6
Continuous
100
AcDbLine
 10
481.356056
 20
-264.807437
 30
0.0
 11
481.356056
 21
-305.491004
 31
0.0
  0
LINE
  5
24F
100
AcDbEntity
  8
0
370
    -3
390
0
  6
Continuous
100
AcDbLine
 10
469.35537
 20
-303.516447
 30
0.0
 11
468.356056
 21
-302.490622
 31
0.0
  0
LINE
  5
250
100
AcDbEntity
  8
0
370
    -3
390
0
  6
Continuous
100
AcDbLine
 10
469.35537
 20
-303.516447
 30
0.0
 11
481.356056
 21
-303.830696
 31
0.0
  0
LINE
  5
251
100
AcDbEntity
  8
0
370
    -3
390
0
  6
Continuous
100
AcDbLine
 10
633.356056
 20
-80.830696
 30
0.0
 11
633.356056
 21
-110.595807
 31
0.0
  0
LINE
  5
252
100
AcDbEntity
  8
0
370
    -3
390
0
  6
Continuous
100
AcDbLine
 10
614.856056
 20
-52.152927
 30
0.0
 11
614.856056
 21
-92.466641
 31
0.0
  0
LINE
  5
253
100
AcDbEntity
  8
0
370
    -3
390
0
  6
Continuous
100
AcDbLine
 10
614.856056
 20
-53.830696
 30
0.0
 11
627.356741
 21
-54.158038
 31
0.0
  0
LINE
  5
254
100
AcDbEntity
  8
0
370
    -3
390
0
  6
Continuous
100
AcDbLine
 10
627.356741
 20
-54.158038
 30
0.0
 11
628.356056
 21
-55.183863
 31
0.0
  0
LINE
  5
255
100
AcDbEntity
  8
0
370
    -3
390
0
  6
Continuous
100
AcDbLine
 10
628.356056
 20
-55.183863
 30
0.0
 11
628.356056
 21
-96.498563
 31
0.0
  0
LINE
  5
256
100
AcDbEntity
  8
0
370
    -3
390
0
  6
Continuous
100
AcDbLine
 10
628.356056
 20
-80.830696
 30
0.0
 11
633.356056
 21
-80.830696
 31
0.0
  0
LINE
  5
257
100
AcDbEntity
  8
0
370
    -3
390
0
  6
Continuous
100
AcDbLine
 10
463.356056
 20
-80.830696
 30
0.0
 11
463.356056
 21
-110.595807
 31
0.0
  0
LINE
  5
258
100
AcDbEntity
  8
0
370
    -3
390
0
  6
Continuous
100
AcDbLine
 10
468.356056
 20
-80.830696
 30
0.0
 11
463.356056
 21
-80.830696
 31
0.0
  0
LINE
  5
259
100
AcDbEntity
  8
0
370
    -3
390
0
  6
Continuous
100
AcDbLine
 10
468.356056
 20
-55.183863
 30
0.0
 11
468.356056
 21
-96.498563
 31
0.0
  0
LINE
  5
25A
100
AcDbEntity
  8
0
370
    -3
390
0
  6
Continuous
100
AcDbLine
 10
469.35537
 20
-54.158038
 30
0.0
 11
468.356056
 21
-55.183863
 31
0.0
  0
LINE
  5
25B
100
AcDbEntity
  8
0
370
    -3
390
0
  6
Continuous
100
AcDbLine
 10
481.856056
 20
-53.830696
 30
0.0
 11
469.35537
 21
-54.158038
 31
0.0
  0
LINE
  5
25C
100
AcDbEntity
  8
0
370
    -3
390
0
  6
Continuous
100
AcDbLine
 10
481.856056
 20
-52.152927
 30
0.0
 11
481.856056
 21
-92.466641
 31
0.0
  0
LINE
  5
25D
100
AcDbEntity
  8
0
370
    -3
390
0
  6
Continuous
100
AcDbLine
 10
594.856056
 20
-51.454512
 30
0.0
 11
614.856056
 21
-52.152927
 31
0.0
  0
LINE
  5
25E
100
AcDbEntity
  8
0
370
    -3
390
0
  6
Continuous
100
AcDbLine
 10
513.686271
 20
-51.041391
 30
0.0
 11
481.856056
 21
-52.152927
 31
0.0
  0
LINE
  5
25F
100
AcDbEntity
  8
0
370
    -3
390
0
  6
CENTER
100
AcDbLine
 10
660.311212
 20
-178.830696
 30
0.0
 11
434.984093
 21
-178.830696
 31
0.0
  0
LINE
  5
260
100
AcDbEntity
  8
0
370
    -3
390
0
  6
CENTER
100
AcDbLine
 10
548.356056
 20
-13.529909
 30
0.0
 11
548.356056
 21
-316.668592
 31
0.0
  0
LINE
  5
261
100
AcDbEntity
  8
0
370
    -3
390
0
  6
Continuous
100
AcDbLine
 10
40.634725
 20
115.945812
 30
0.0
 11
40.634725
 21
286.015277
 31
0.0
  0
LINE
  5
262
100
AcDbEntity
  8
0
370
    -3
390
0
  6
Continuous
100
AcDbLine
 10
-0.365275
 20
120.980544
 30
0.0
 11
-0.365275
 21
200.980544
 31
0.0
  0
LINE
  5
263
100
AcDbEntity
  8
0
370
    -3
390
0
  6
Continuous
100
AcDbLine
 10
-0.365275
 20
280.980544
 30
0.0
 11
-0.365275
 21
200.980544
 31
0.0
  0
LINE
  5
264
100
AcDbEntity
  8
0
370
    -3
390
0
  6
Continuous
100
AcDbLine
 10
-7.365275
 20
200.980544
 30
0.0
 11
-9.106639
 21
267.480544
 31
0.0
  0
LINE
  5
265
100
AcDbEntity
  8
0
370
    -3
390
0
  6
Continuous
100
AcDbLine
 10
-11.692608
 20
279.980887
 30
0.0
 11
-11.365275
 21
267.480544
 31
0.0
  0
LINE
  5
266
100
AcDbEntity
  8
0
370
    -3
390
0
  6
Continuous
100
AcDbLine
 10
-12.718785
 20
280.980544
 30
0.0
 11
-11.692608
 21
279.980887
 31
0.0
  0
LINE
  5
267
100
AcDbEntity
  8
0
370
    -3
390
0
  6
Continuous
100
AcDbLine
 10
-12.718785
 20
120.980544
 30
0.0
 11
-11.692608
 21
121.980201
 31
0.0
  0
LINE
  5
268
100
AcDbEntity
  8
0
370
    -3
390
0
  6
Continuous
100
AcDbLine
 10
-11.692608
 20
121.980201
 30
0.0
 11
-11.365275
 21
134.480544
 31
0.0
  0
LINE
  5
269
100
AcDbEntity
  8
0
370
    -3
390
0
  6
Continuous
100
AcDbLine
 10
-7.443833
 20
197.980544
 30
0.0
 11
-9.106639
 21
134.480544
 31
0.0
  0
LINE
  5
26A
100
AcDbEntity
  8
0
370
    -3
390
0
  6
Continuous
100
AcDbLine
 10
-9.36459
 20
201.032898
 30
0.0
 11
-9.444519
 21
197.980544
 31
0.0
  0
LINE
  5
26B
100
AcDbEntity
  8
0
370
    -3
390
0
  6
Continuous
100
AcDbLine
 10
-0.365275
 20
122.980544
 30
0.0
 11
-0.365275
 21
278.980544
 31
0.0
  0
LINE
  5
26C
100
AcDbEntity
  8
0
370
    -3
390
0
  6
Continuous
100
AcDbLine
 10
-2.365275
 20
120.980544
 30
0.0
 11
-0.365275
 21
122.980544
 31
0.0
  0
LINE
  5
26D
100
AcDbEntity
  8
0
370
    -3
390
0
  6
Continuous
100
AcDbLine
 10
-0.365275
 20
278.980544
 30
0.0
 11
-2.365275
 21
280.980544
 31
0.0
  0
LINE
  5
26E
100
AcDbEntity
  8
0
370
    -3
390
0
  6
CENTER
100
AcDbLine
 10
-305.216858
 20
200.980544
 30
0.0
 11
334.330677
 21
200.980544
 31
0.0
  0
LINE
  5
26F
100
AcDbEntity
  8
0
370
    -3
390
0
  6
Continuous
100
AcDbLine
 10
-288.365275
 20
200.980544
 30
0.0
 11
-286.623912
 21
267.480544
 31
0.0
  0
LINE
  5
270
100
AcDbEntity
  8
0
370
    -3
390
0
  6
Continuous
100
AcDbLine
 10
-256.365275
 20
285.980544
 30
0.0
 11
-108.365275
 21
285.980544
 31
0.0
  0
LINE
  5
271
100
AcDbEntity
  8
0
370
    -3
390
0
  6
CENTER
100
AcDbLine
 10
-182.365275
 20
34.213247
 30
0.0
 11
-182.365275
 21
294.151471
 31
0.0
  0
LINE
  5
272
100
AcDbEntity
  8
0
370
    -3
390
0
  6
Continuous
100
AcDbLine
 10
-107.365275
 20
280.980544
 30
0.0
 11
-107.365275
 21
284.980544
 31
0.0
  0
LINE
  5
273
100
AcDbEntity
  8
0
370
    -3
390
0
  6
Continuous
100
AcDbLine
 10
-257.365275
 20
280.980544
 30
0.0
 11
-257.365275
 21
284.980544
 31
0.0
  0
LINE
  5
274
100
AcDbEntity
  8
0
370
    -3
390
0
  6
Continuous
100
AcDbLine
 10
-108.365275
 20
285.980544
 30
0.0
 11
-107.365275
 21
284.980544
 31
0.0
  0
LINE
  5
275
100
AcDbEntity
  8
0
370
    -3
390
0
  6
Continuous
100
AcDbLine
 10
-257.365275
 20
284.980544
 30
0.0
 11
-256.365275
 21
285.980544
 31
0.0
  0
LINE
  5
276
100
AcDbEntity
  8
0
370
    -3
390
0
  6
Continuous
100
AcDbLine
 10
-283.011765
 20
280.980544
 30
0.0
 11
-2.365275
 21
280.980544
 31
0.0
  0
LINE
  5
277
100
AcDbEntity
  8
0
370
    -3
390
0
  6
Continuous
100
AcDbLine
 10
-284.365275
 20
267.480544
 30
0.0
 11
-284.037942
 21
279.980887
 31
0.0
  0
LINE
  5
278
100
AcDbEntity
  8
0
370
    -3
390
0
  6
Continuous
100
AcDbLine
 10
-286.623912
 20
267.480544
 30
0.0
 11
-9.106639
 21
267.480544
 31
0.0
  0
LINE
  5
279
100
AcDbEntity
  8
0
370
    -3
390
0
  6
Continuous
100
AcDbLine
 10
-283.011765
 20
280.980544
 30
0.0
 11
-284.037942
 21
279.980887
 31
0.0
  0
LINE
  5
27A
100
AcDbEntity
  8
0
370
    -3
390
0
  6
Continuous
100
AcDbLine
 10
-283.011765
 20
120.980544
 30
0.0
 11
-2.365275
 21
120.980544
 31
0.0
  0
LINE
  5
27B
100
AcDbEntity
  8
0
370
    -3
390
0
  6
Continuous
100
AcDbLine
 10
-107.365275
 20
120.980544
 30
0.0
 11
-107.365275
 21
116.980544
 31
0.0
  0
LINE
  5
27C
100
AcDbEntity
  8
0
370
    -3
390
0
  6
Continuous
100
AcDbLine
 10
-286.623912
 20
134.480544
 30
0.0
 11
-9.106639
 21
134.480544
 31
0.0
  0
LINE
  5
27D
100
AcDbEntity
  8
0
370
    -3
390
0
  6
Continuous
100
AcDbLine
 10
-256.365275
 20
115.980544
 30
0.0
 11
-108.365275
 21
115.980544
 31
0.0
  0
LINE
  5
27E
100
AcDbEntity
  8
0
370
    -3
390
0
  6
Continuous
100
AcDbLine
 10
-108.365275
 20
115.980544
 30
0.0
 11
-107.365275
 21
116.980544
 31
0.0
  0
LINE
  5
27F
100
AcDbEntity
  8
0
370
    -3
390
0
  6
Continuous
100
AcDbLine
 10
-283.011765
 20
120.980544
 30
0.0
 11
-284.037942
 21
121.980201
 31
0.0
  0
LINE
  5
280
100
AcDbEntity
  8
0
370
    -3
390
0
  6
Continuous
100
AcDbLine
 10
-284.365275
 20
134.480544
 30
0.0
 11
-284.037942
 21
121.980201
 31
0.0
  0
LINE
  5
281
100
AcDbEntity
  8
0
370
    -3
390
0
  6
Continuous
100
AcDbLine
 10
-257.365275
 20
120.980544
 30
0.0
 11
-257.365275
 21
116.980544
 31
0.0
  0
LINE
  5
282
100
AcDbEntity
  8
0
370
    -3
390
0
  6
Continuous
100
AcDbLine
 10
-288.286718
 20
197.980544
 30
0.0
 11
-286.623912
 21
134.480544
 31
0.0
  0
LINE
  5
283
100
AcDbEntity
  8
0
370
    -3
390
0
  6
Continuous
100
AcDbLine
 10
-257.365275
 20
116.980544
 30
0.0
 11
-256.365275
 21
115.980544
 31
0.0
  0
LINE
  5
284
100
AcDbEntity
  8
0
370
    -3
390
0
  6
Continuous
100
AcDbLine
 10
-288.286718
 20
197.980544
 30
0.0
 11
-7.443833
 21
197.980544
 31
0.0
  0
LINE
  5
285
100
AcDbEntity
  8
0
370
    -3
390
0
  6
Continuous
100
AcDbLine
 10
-286.365961
 20
201.032898
 30
0.0
 11
-286.286032
 21
197.980544
 31
0.0
  0
LINE
  5
286
100
AcDbEntity
  8
0
370
    -3
390
0
  6
Continuous
100
AcDbLine
 10
-288.365275
 20
200.980544
 30
0.0
 11
-7.365275
 21
200.980544
 31
0.0
  0
LINE
  5
287
100
AcDbEntity
  8
0
370
    -3
390
0
  6
Continuous
100
AcDbLine
 10
40.634725
 20
284.180544
 30
0.0
 11
40.634725
 21
117.780544
 31
0.0
  0
LINE
  5
288
100
AcDbEntity
  8
0
370
    -3
390
0
  6
Continuous
100
AcDbLine
 10
40.634725
 20
200.980544
 30
0.0
 11
40.634725
 21
284.180544
 31
0.0
  0
LINE
  5
289
100
AcDbEntity
  8
0
370
    -3
390
0
  6
Continuous
100
AcDbLine
 10
451.127836
 20
-130.830696
 30
0.0
 11
386.356086
 21
-130.830696
 31
0.0
  0
LINE
  5
28A
100
AcDbEntity
  8
0
370
    -3
390
0
  6
Continuous
100
AcDbLine
 10
445.36049
 20
-180.830696
 30
0.0
 11
386.356086
 21
-180.830696
 31
0.0
  0
LINE
  5
28B
100
AcDbEntity
  8
0
370
    -3
390
0
  6
Continuous
100
AcDbLine
 10
386.356086
 20
-127.330696
 30
0.0
 11
386.356086
 21
-180.830696
 31
0.0
  0
LINE
  5
28C
100
AcDbEntity
  8
0
370
    -3
390
0
  6
Continuous
100
AcDbLine
 10
449.356086
 20
-127.330696
 30
0.0
 11
386.356086
 21
-127.330696
 31
0.0
  0
LINE
  5
28D
100
AcDbEntity
  8
0
370
    -3
390
0
  6
Continuous
100
AcDbLine
 10
449.356086
 20
-130.830696
 30
0.0
 11
449.356086
 21
-127.330696
 31
0.0
  0
LINE
  5
28E
100
AcDbEntity
  8
0
370
    -3
390
0
  6
CENTER
100
AcDbLine
 10
541.358563
 20
-155.830696
 30
0.0
 11
379.010234
 21
-155.830696
 31
0.0
  0
LINE
  5
28F
100
AcDbEntity
  8
0
370
    -3
390
0
  6
Continuous
100
AcDbLine
 10
545.356086
 20
-307.725933
 30
0.0
 11
481.356086
 21
-305.491004
 31
0.0
  0
LINE
  5
290
100
AcDbEntity
  8
0
370
    -3
390
0
  6
Continuous
100
AcDbLine
 10
545.356086
 20
-281.820718
 30
0.0
 11
545.356086
 21
-307.725933
 31
0.0
  0
LINE
  5
291
100
AcDbEntity
  8
0
370
    -3
390
0
  6
Continuous
100
AcDbLine
 10
545.360198
 20
-305.987704
 30
0.0
 11
548.356086
 21
-305.830696
 31
0.0
  0
LINE
  5
292
100
AcDbEntity
  8
0
370
    -3
390
0
  6
Continuous
100
AcDbLine
 10
548.356086
 20
-281.830696
 30
0.0
 11
548.356086
 21
-307.830696
 31
0.0
  0
LINE
  5
293
100
AcDbEntity
  8
0
370
    -3
390
0
  6
Continuous
100
AcDbLine
 10
548.356086
 20
-307.830696
 30
0.0
 11
615.356086
 21
-305.491004
 31
0.0
  0
LINE
  5
294
100
AcDbEntity
  8
0
370
    -3
390
0
  6
Continuous
100
AcDbLine
 10
-157.365275
 20
38.980574
 30
0.0
 11
-207.365275
 21
38.980574
 31
0.0
  0
LINE
  5
295
100
AcDbEntity
  8
0
370
    -3
390
0
  6
Continuous
100
AcDbLine
 10
-207.365275
 20
113.980574
 30
0.0
 11
-207.365275
 21
38.980574
 31
0.0
  0
LINE
  5
296
100
AcDbEntity
  8
0
370
    -3
390
0
  6
Continuous
100
AcDbLine
 10
-208.365275
 20
115.980574
 30
0.0
 11
-208.365275
 21
113.980574
 31
0.0
  0
LINE
  5
297
100
AcDbEntity
  8
0
370
    -3
390
0
  6
Continuous
100
AcDbLine
 10
-175.365275
 20
101.980574
 30
0.0
 11
-189.365275
 21
101.980574
 31
0.0
  0
LINE
  5
298
100
AcDbEntity
  8
0
370
    -3
390
0
  6
Continuous
100
AcDbLine
 10
-157.365275
 20
113.980574
 30
0.0
 11
-157.365275
 21
38.980574
 31
0.0
  0
LINE
  5
299
100
AcDbEntity
  8
0
370
    -3
390
0
  6
Continuous
100
AcDbLine
 10
-156.365275
 20
113.980574
 30
0.0
 11
-208.365275
 21
113.980574
 31
0.0
  0
LINE
  5
29A
100
AcDbEntity
  8
0
370
    -3
390
0
  6
Continuous
100
AcDbLine
 10
-156.365275
 20
115.980574
 30
0.0
 11
-156.365275
 21
113.980574
 31
0.0
  0
LINE
  5
29B
100
AcDbEntity
  8
0
370
    -3
390
0
  6
Continuous
100
AcDbLine
 10
-189.365275
 20
38.980574
 30
0.0
 11
-189.365275
 21
101.980574
 31
0.0
  0
LINE
  5
29C
100
AcDbEntity
  8
0
370
    -3
390
0
  6
Continuous
100
AcDbLine
 10
-175.365275
 20
38.980574
 30
0.0
 11
-175.365275
 21
101.980574
 31
0.0
  0
ARC
  5
29D
100
AcDbEntity
  8
0
370
    -3
390
0
  6
Continuous
100
AcDbCircle
 10
-182.365275
 20
101.980574
 30
0.0
 40
7.0
100
AcDbArc
 50
0.0
 51
180.0
  0
LINE
  5
29E
100
AcDbEntity
  8
0
370
    -3
390
0
  6
Continuous
100
AcDbLine
 10
517.356056
 20
-70.830696
 30
0.0
 11
517.356056
 21
-69.830696
 31
0.0
  0
LINE
  5
29F
100
AcDbEntity
  8
0
370
    -3
390
0
  6
Continuous
100
AcDbLine
 10
579.356056
 20
-70.830696
 30
0.0
 11
579.356056
 21
-69.830696
 31
0.0
  0
ARC
  5
2A0
100
AcDbEntity
  8
0
370
    -3
390
0
  6
Continuous
100
AcDbCircle
 10
531.17716
 20
-37.082985
 30
0.0
 40
15.0
100
AcDbArc
 50
91.682769
 51
170.681877
  0
ARC
  5
2A1
100
AcDbEntity
  8
0
370
    -3
390
0
  6
Continuous
100
AcDbCircle
 10
604.532963
 20
-27.949088
 30
0.0
 40
9.0
100
AcDbArc
 50
97.398452
 51
130.601531
  0
ARC
  5
2A2
100
AcDbEntity
  8
0
370
    -3
390
0
  6
Continuous
100
AcDbCircle
 10
603.541444
 20
-20.313192
 30
0.0
 40
1.299999
100
AcDbArc
 50
23.999982
 51
97.398452
  0
LINE
  5
2A3
100
AcDbEntity
  8
0
370
    -3
390
0
  6
CENTER
100
AcDbLine
 10
580.473532
 20
-45.830696
 30
0.0
 11
603.342041
 21
-45.830696
 31
0.0
  0
LINE
  5
2A4
100
AcDbEntity
  8
0
370
    -3
390
0
  6
Continuous
100
AcDbLine
 10
515.664451
 20
-69.830696
 30
0.0
 11
589.856056
 21
-69.830696
 31
0.0
  0
LINE
  5
2A5
100
AcDbEntity
  8
0
370
    -3
390
0
  6
Continuous
100
AcDbLine
 10
605.302539
 20
-24.760397
 30
0.0
 11
606.868475
 21
-28.277547
 31
0.0
  0
LINE
  5
2A6
100
AcDbEntity
  8
0
370
    -3
390
0
  6
Continuous
100
AcDbLine
 10
601.648357
 20
-26.387343
 30
0.0
 11
603.214293
 21
-29.904493
 31
0.0
  0
ARC
  5
2A7
100
AcDbEntity
  8
0
370
    -3
390
0
  6
Continuous
100
AcDbCircle
 10
592.47869
 20
-25.460682
 30
0.0
 40
2.0
100
AcDbArc
 50
24.0
 51
85.768662
  0
ARC
  5
2A8
100
AcDbEntity
  8
0
370
    -3
390
0
  6
Continuous
100
AcDbCircle
 10
595.128294
 20
-24.036008
 30
0.0
 40
1.0
100
AcDbArc
 50
204.0
 51
294.0
  0
LINE
  5
2A9
100
AcDbEntity
  8
0
370
    -3
390
0
  6
Continuous
100
AcDbLine
 10
548.356056
 20
-45.954987
 30
0.0
 11
607.228412
 21
-19.743325
 31
0.0
  0
ARC
  5
2AA
100
AcDbEntity
  8
0
370
    -3
390
0
  6
Continuous
100
AcDbCircle
 10
607.635149
 20
-20.65687
 30
0.0
 40
1.0
100
AcDbArc
 50
24.0
 51
114.0
  0
LINE
  5
2AB
100
AcDbEntity
  8
0
370
    -3
390
0
  6
Continuous
100
AcDbLine
 10
608.548694
 20
-20.250134
 30
0.0
 11
609.687557
 21
-22.808061
 31
0.0
  0
LINE
  5
2AC
100
AcDbEntity
  8
0
370
    -3
390
0
  6
Continuous
100
AcDbLine
 10
594.856056
 20
-64.830696
 30
0.0
 11
594.856056
 21
-29.411471
 31
0.0
  0
ARC
  5
2AD
100
AcDbEntity
  8
0
370
    -3
390
0
  6
Continuous
100
AcDbCircle
 10
589.856056
 20
-64.830696
 30
0.0
 40
5.0
100
AcDbArc
 50
270.0
 51
0.0
  0
ARC
  5
2AE
100
AcDbEntity
  8
0
370
    -3
390
0
  6
Continuous
100
AcDbCircle
 10
597.759215
 20
-22.864647
 30
0.0
 40
1.0
100
AcDbArc
 50
265.284875
 51
294.0
  0
ARC
  5
2AF
100
AcDbEntity
  8
0
370
    -3
390
0
  6
Continuous
100
AcDbCircle
 10
548.356056
 20
-621.830696
 30
0.0
 40
600.0
100
AcDbArc
 50
85.284875
 51
91.682769
  0
ARC
  5
2B0
100
AcDbEntity
  8
0
370
    -3
390
0
  6
Continuous
100
AcDbCircle
 10
599.521842
 20
-22.102834
 30
0.0
 40
1.299999
100
AcDbArc
 50
130.601531
 51
204.000001
  0
LINE
  5
2B1
100
AcDbEntity
  8
0
370
    -3
390
0
  6
Continuous
100
AcDbLine
 10
598.732439
 20
-23.525976
 30
0.0
 11
598.334234
 21
-22.631592
 31
0.0
  0
LINE
  5
2B2
100
AcDbEntity
  8
0
370
    -3
390
0
  6
Continuous
100
AcDbLine
 10
605.127258
 20
-20.678819
 30
0.0
 11
604.729052
 21
-19.784435
 31
0.0
  0
LINE
  5
2B3
100
AcDbEntity
  8
0
370
    -3
390
0
  6
Continuous
100
AcDbLine
 10
598.732439
 20
-23.525976
 30
0.0
 11
605.127258
 21
-20.678819
 31
0.0
  0
LINE
  5
2B4
100
AcDbEntity
  8
0
370
    -3
390
0
  6
Continuous
100
AcDbLine
 10
598.732439
 20
-23.525976
 30
0.0
 11
605.127258
 21
-20.678819
 31
0.0
  0
LINE
  5
2B5
100
AcDbEntity
  8
0
370
    -3
390
0
  6
Continuous
100
AcDbLine
 10
603.676392
 20
-30.081877
 30
0.0
 11
606.691092
 21
-28.739646
 31
0.0
  0
LINE
  5
2B6
100
AcDbEntity
  8
0
370
    -3
390
0
  6
Continuous
100
AcDbLine
 10
606.868475
 20
-28.277547
 30
0.0
 11
606.691092
 21
-28.739646
 31
0.0
  0
LINE
  5
2B7
100
AcDbEntity
  8
0
370
    -3
390
0
  6
Continuous
100
AcDbLine
 10
603.214293
 20
-29.904493
 30
0.0
 11
603.676392
 21
-30.081877
 31
0.0
  0
LINE
  5
2B8
100
AcDbEntity
  8
0
370
    -3
390
0
  6
Continuous
100
AcDbLine
 10
601.968098
 20
-26.244986
 30
0.0
 11
603.676392
 21
-30.081877
 31
0.0
  0
LINE
  5
2B9
100
AcDbEntity
  8
0
370
    -3
390
0
  6
Continuous
100
AcDbLine
 10
604.982798
 20
-24.902755
 30
0.0
 11
606.691092
 21
-28.739646
 31
0.0
  0
LINE
  5
2BA
100
AcDbEntity
  8
0
370
    -3
390
0
  6
Continuous
100
AcDbLine
 10
507.005047
 20
-68.52526
 30
0.0
 11
609.687557
 21
-22.808061
 31
0.0
  0
ARC
  5
2BB
100
AcDbEntity
  8
0
370
    -3
390
0
  6
Continuous
100
AcDbCircle
 10
515.664451
 20
-66.830696
 30
0.0
 40
3.0
100
AcDbArc
 50
204.0
 51
270.0
  0
LINE
  5
2BC
100
AcDbEntity
  8
0
370
    -3
390
0
  6
Continuous
100
AcDbLine
 10
512.120902
 20
-66.247535
 30
0.0
 11
512.923815
 21
-68.050906
 31
0.0
  0
LINE
  5
2BD
100
AcDbEntity
  8
0
370
    -3
390
0
  6
Continuous
100
AcDbLine
 10
505.866185
 20
-65.967332
 30
0.0
 11
507.005047
 21
-68.52526
 31
0.0
  0
LINE
  5
2BE
100
AcDbEntity
  8
0
370
    -3
390
0
  6
Continuous
100
AcDbLine
 10
512.116263
 20
-60.609882
 30
0.0
 11
516.375092
 21
-34.654245
 31
0.0
  0
ARC
  5
2BF
100
AcDbEntity
  8
0
370
    -3
390
0
  6
Continuous
100
AcDbCircle
 10
509.155849
 20
-60.124134
 30
0.0
 40
3.0
100
AcDbArc
 50
294.0
 51
350.681877
  0
LINE
  5
2C0
100
AcDbEntity
  8
0
370
    -3
390
0
  6
Continuous
100
AcDbLine
 10
506.372994
 20
-64.64705
 30
0.0
 11
548.356056
 21
-45.954987
 31
0.0
  0
LINE
  5
2C1
100
AcDbEntity
  8
0
370
    -3
390
0
  6
Continuous
100
AcDbLine
 10
509.699385
 20
-68.196099
 30
0.0
 11
510.01197
 21
-67.459695
 31
0.0
  0
LINE
  5
2C2
100
AcDbEntity
  8
0
370
    -3
390
0
  6
Continuous
100
AcDbLine
 10
509.697836
 20
-67.326353
 30
0.0
 11
510.01197
 21
-67.459695
 31
0.0
  0
LINE
  5
2C3
100
AcDbEntity
  8
0
370
    -3
390
0
  6
Continuous
100
AcDbLine
 10
508.698543
 20
-67.771267
 30
0.0
 11
509.699385
 21
-68.196099
 31
0.0
  0
ARC
  5
2C4
100
AcDbEntity
  8
0
370
    -3
390
0
  6
Continuous
100
AcDbCircle
 10
506.77973
 20
-65.560596
 30
0.0
 40
1.0
100
AcDbArc
 50
114.0
 51
204.0
  0
LINE
  5
2C5
100
AcDbEntity
  8
0
370
    -3
390
0
  6
Continuous
100
AcDbLine
 10
579.356056
 20
-72.430696
 30
0.0
 11
548.356056
 21
-72.430696
 31
0.0
  0
LINE
  5
2C6
100
AcDbEntity
  8
0
370
    -3
390
0
  6
Continuous
100
AcDbLine
 10
579.356056
 20
-70.830696
 30
0.0
 11
579.356056
 21
-72.430696
 31
0.0
  0
ARC
  5
2C7
100
AcDbEntity
  8
0
370
    -3
390
0
  6
Continuous
100
AcDbCircle
 10
574.956056
 20
-74.430696
 30
0.0
 40
2.0
100
AcDbArc
 50
90.0
 51
180.0
  0
LINE
  5
2C8
100
AcDbEntity
  8
0
370
    -3
390
0
  6
Continuous
100
AcDbLine
 10
572.956056
 20
-74.430696
 30
0.0
 11
572.956056
 21
-76.502105
 31
0.0
  0
LINE
  5
2C9
100
AcDbEntity
  8
0
370
    -3
390
0
  6
Continuous
100
AcDbLine
 10
523.756056
 20
-74.430696
 30
0.0
 11
523.756056
 21
-76.502105
 31
0.0
  0
LINE
  5
2CA
100
AcDbEntity
  8
0
370
    -3
390
0
  6
Continuous
100
AcDbLine
 10
517.356056
 20
-72.430696
 30
0.0
 11
548.356056
 21
-72.430696
 31
0.0
  0
LINE
  5
2CB
100
AcDbEntity
  8
0
370
    -3
390
0
  6
Continuous
100
AcDbLine
 10
517.356056
 20
-70.830696
 30
0.0
 11
517.356056
 21
-72.430696
 31
0.0
  0
ARC
  5
2CC
100
AcDbEntity
  8
0
370
    -3
390
0
  6
Continuous
100
AcDbCircle
 10
521.756056
 20
-74.430696
 30
0.0
 40
2.0
100
AcDbArc
 50
0.0
 51
90.0
  0
LINE
  5
2CD
100
AcDbEntity
  8
0
370
    -3
390
0
  6
Continuous
100
AcDbLine
 10
473.897712
 20
-261.067214
 30
0.0
 11
466.119537
 21
-253.28904
 31
0.0
  0
LINE
  5
2CE
100
AcDbEntity
  8
0
370
    -3
390
0
  6
Continuous
100
AcDbLine
 10
465.907405
 20
-254.208279
 30
0.0
 11
466.473091
 21
-253.642593
 31
0.0
  0
LINE
  5
2CF
100
AcDbEntity
  8
0
370
    -3
390
0
  6
Continuous
100
AcDbLine
 10
465.907405
 20
-254.208279
 30
0.0
 11
472.978473
 21
-261.279347
 31
0.0
  0
ARC
  5
2D0
100
AcDbEntity
  8
0
370
    -3
390
0
  6
Continuous
100
AcDbCircle
 10
466.481933
 20
-256.603598
 30
0.0
 40
1.599999
100
AcDbArc
 50
134.999982
 51
208.808591
  0
LINE
  5
2D1
100
AcDbEntity
  8
0
370
    -3
390
0
  6
Continuous
100
AcDbLine
 10
466.260958
 20
-254.561832
 30
0.0
 11
465.350563
 21
-255.472228
 31
0.0
  0
ARC
  5
2D2
100
AcDbEntity
  8
0
370
    -3
390
0
  6
Continuous
100
AcDbCircle
 10
466.473091
 20
-252.935486
 30
0.0
 40
0.5
100
AcDbArc
 50
135.0
 51
225.0
  0
LINE
  5
2D3
100
AcDbEntity
  8
0
370
    -3
390
0
  6
Continuous
100
AcDbLine
 10
472.624919
 20
-260.925793
 30
0.0
 11
466.260958
 21
-254.561832
 31
0.0
  0
ARC
  5
2D4
100
AcDbEntity
  8
0
370
    -3
390
0
  6
Continuous
100
AcDbCircle
 10
475.594767
 20
-251.591984
 30
0.0
 40
12.0
100
AcDbArc
 50
208.808645
 51
241.191337
  0
LINE
  5
2D5
100
AcDbEntity
  8
0
370
    -3
390
0
  6
Continuous
100
AcDbLine
 10
472.624919
 20
-260.925793
 30
0.0
 11
471.714524
 21
-261.836189
 31
0.0
  0
ARC
  5
2D6
100
AcDbEntity
  8
0
370
    -3
390
0
  6
Continuous
100
AcDbCircle
 10
470.583153
 20
-260.704818
 30
0.0
 40
1.599999
100
AcDbArc
 50
241.191283
 51
315.000001
  0
LINE
  5
2D7
100
AcDbEntity
  8
0
370
    -3
390
0
  6
Continuous
100
AcDbLine
 10
475.640916
 20
-260.031117
 30
0.0
 11
474.604819
 21
-261.067214
 31
0.0
  0
ARC
  5
2D8
100
AcDbEntity
  8
0
370
    -3
390
0
  6
Continuous
100
AcDbCircle
 10
474.251265
 20
-260.713661
 30
0.0
 40
0.5
100
AcDbArc
 50
225.0
 51
315.0
  0
LINE
  5
2D9
100
AcDbEntity
  8
0
370
    -3
390
0
  6
Continuous
100
AcDbLine
 10
473.544158
 20
-260.713661
 30
0.0
 11
472.978473
 21
-261.279347
 31
0.0
  0
LINE
  5
2DA
100
AcDbEntity
  8
0
370
    -3
390
0
  6
Continuous
100
AcDbLine
 10
467.155635
 20
-251.545836
 30
0.0
 11
466.119537
 21
-252.581933
 31
0.0
  0
LINE
  5
2DB
100
AcDbEntity
  8
0
370
    -3
390
0
  6
Continuous
100
AcDbLine
 10
622.8144
 20
-261.067214
 30
0.0
 11
630.592574
 21
-253.28904
 31
0.0
  0
LINE
  5
2DC
100
AcDbEntity
  8
0
370
    -3
390
0
  6
Continuous
100
AcDbLine
 10
630.804707
 20
-254.208279
 30
0.0
 11
630.239021
 21
-253.642593
 31
0.0
  0
LINE
  5
2DD
100
AcDbEntity
  8
0
370
    -3
390
0
  6
Continuous
100
AcDbLine
 10
630.804707
 20
-254.208279
 30
0.0
 11
623.733639
 21
-261.279347
 31
0.0
  0
ARC
  5
2DE
100
AcDbEntity
  8
0
370
    -3
390
0
  6
Continuous
100
AcDbCircle
 10
630.230178
 20
-256.603598
 30
0.0
 40
1.599999
100
AcDbArc
 50
331.191409
 51
45.000018
  0
LINE
  5
2DF
100
AcDbEntity
  8
0
370
    -3
390
0
  6
Continuous
100
AcDbLine
 10
630.451153
 20
-254.561832
 30
0.0
 11
631.361549
 21
-255.472228
 31
0.0
  0
ARC
  5
2E0
100
AcDbEntity
  8
0
370
    -3
390
0
  6
Continuous
100
AcDbCircle
 10
630.239021
 20
-252.935486
 30
0.0
 40
0.5
100
AcDbArc
 50
315.0
 51
45.0
  0
LINE
  5
2E1
100
AcDbEntity
  8
0
370
    -3
390
0
  6
Continuous
100
AcDbLine
 10
624.087192
 20
-260.925793
 30
0.0
 11
630.451153
 21
-254.561832
 31
0.0
  0
ARC
  5
2E2
100
AcDbEntity
  8
0
370
    -3
390
0
  6
Continuous
100
AcDbCircle
 10
621.117345
 20
-251.591984
 30
0.0
 40
12.0
100
AcDbArc
 50
298.808663
 51
331.191355
  0
LINE
  5
2E3
100
AcDbEntity
  8
0
370
    -3
390
0
  6
Continuous
100
AcDbLine
 10
624.087192
 20
-260.925793
 30
0.0
 11
624.997588
 21
-261.836189
 31
0.0
  0
ARC
  5
2E4
100
AcDbEntity
  8
0
370
    -3
390
0
  6
Continuous
100
AcDbCircle
 10
626.128958
 20
-260.704818
 30
0.0
 40
1.599999
100
AcDbArc
 50
224.999999
 51
298.808717
  0
LINE
  5
2E5
100
AcDbEntity
  8
0
370
    -3
390
0
  6
Continuous
100
AcDbLine
 10
621.071196
 20
-260.031117
 30
0.0
 11
622.107293
 21
-261.067214
 31
0.0
  0
ARC
  5
2E6
100
AcDbEntity
  8
0
370
    -3
390
0
  6
Continuous
100
AcDbCircle
 10
622.460847
 20
-260.713661
 30
0.0
 40
0.5
100
AcDbArc
 50
225.0
 51
315.0
  0
LINE
  5
2E7
100
AcDbEntity
  8
0
370
    -3
390
0
  6
Continuous
100
AcDbLine
 10
623.167953
 20
-260.713661
 30
0.0
 11
623.733639
 21
-261.279347
 31
0.0
  0
LINE
  5
2E8
100
AcDbEntity
  8
0
370
    -3
390
0
  6
Continuous
100
AcDbLine
 10
629.556477
 20
-251.545836
 30
0.0
 11
630.592574
 21
-252.581933
 31
0.0
  0
LINE
  5
2E9
100
AcDbEntity
  8
0
370
    -3
390
0
  6
Continuous
100
AcDbLine
 10
622.8144
 20
-96.594177
 30
0.0
 11
630.592574
 21
-104.372352
 31
0.0
  0
LINE
  5
2EA
100
AcDbEntity
  8
0
370
    -3
390
0
  6
Continuous
100
AcDbLine
 10
630.804707
 20
-103.453113
 30
0.0
 11
630.239021
 21
-104.018798
 31
0.0
  0
LINE
  5
2EB
100
AcDbEntity
  8
0
370
    -3
390
0
  6
Continuous
100
AcDbLine
 10
630.804707
 20
-103.453113
 30
0.0
 11
623.733639
 21
-96.382045
 31
0.0
  0
ARC
  5
2EC
100
AcDbEntity
  8
0
370
    -3
390
0
  6
Continuous
100
AcDbCircle
 10
630.230178
 20
-101.057793
 30
0.0
 40
1.599999
100
AcDbArc
 50
314.999982
 51
28.808591
  0
LINE
  5
2ED
100
AcDbEntity
  8
0
370
    -3
390
0
  6
Continuous
100
AcDbLine
 10
630.451153
 20
-103.099559
 30
0.0
 11
631.361549
 21
-102.189164
 31
0.0
  0
ARC
  5
2EE
100
AcDbEntity
  8
0
370
    -3
390
0
  6
Continuous
100
AcDbCircle
 10
630.239021
 20
-104.725905
 30
0.0
 40
0.5
100
AcDbArc
 50
315.0
 51
45.0
  0
LINE
  5
2EF
100
AcDbEntity
  8
0
370
    -3
390
0
  6
Continuous
100
AcDbLine
 10
624.087192
 20
-96.735598
 30
0.0
 11
630.451153
 21
-103.099559
 31
0.0
  0
ARC
  5
2F0
100
AcDbEntity
  8
0
370
    -3
390
0
  6
Continuous
100
AcDbCircle
 10
621.117345
 20
-106.069407
 30
0.0
 40
12.0
100
AcDbArc
 50
28.808645
 51
61.191337
  0
LINE
  5
2F1
100
AcDbEntity
  8
0
370
    -3
390
0
  6
Continuous
100
AcDbLine
 10
624.087192
 20
-96.735598
 30
0.0
 11
624.997588
 21
-95.825203
 31
0.0
  0
ARC
  5
2F2
100
AcDbEntity
  8
0
370
    -3
390
0
  6
Continuous
100
AcDbCircle
 10
626.128958
 20
-96.956573
 30
0.0
 40
1.599999
100
AcDbArc
 50
61.191283
 51
135.000001
  0
LINE
  5
2F3
100
AcDbEntity
  8
0
370
    -3
390
0
  6
Continuous
100
AcDbLine
 10
621.071196
 20
-97.630274
 30
0.0
 11
622.107293
 21
-96.594177
 31
0.0
  0
ARC
  5
2F4
100
AcDbEntity
  8
0
370
    -3
390
0
  6
Continuous
100
AcDbCircle
 10
622.460847
 20
-96.947731
 30
0.0
 40
0.5
100
AcDbArc
 50
45.0
 51
135.0
  0
LINE
  5
2F5
100
AcDbEntity
  8
0
370
    -3
390
0
  6
Continuous
100
AcDbLine
 10
623.167953
 20
-96.947731
 30
0.0
 11
623.733639
 21
-96.382045
 31
0.0
  0
LINE
  5
2F6
100
AcDbEntity
  8
0
370
    -3
390
0
  6
Continuous
100
AcDbLine
 10
629.556477
 20
-106.115556
 30
0.0
 11
630.592574
 21
-105.079458
 31
0.0
  0
ARC
  5
2F7
100
AcDbEntity
  8
0
370
    -3
390
0
  6
Continuous
100
AcDbCircle
 10
475.594767
 20
-106.069407
 30
0.0
 40
12.0
100
AcDbArc
 50
118.808663
 51
151.191355
  0
LINE
  5
2F8
100
AcDbEntity
  8
0
370
    -3
390
0
  6
Continuous
100
AcDbLine
 10
473.897712
 20
-96.594177
 30
0.0
 11
466.119537
 21
-104.372352
 31
0.0
  0
LINE
  5
2F9
100
AcDbEntity
  8
0
370
    -3
390
0
  6
Continuous
100
AcDbLine
 10
465.907405
 20
-103.453113
 30
0.0
 11
466.473091
 21
-104.018798
 31
0.0
  0
LINE
  5
2FA
100
AcDbEntity
  8
0
370
    -3
390
0
  6
Continuous
100
AcDbLine
 10
465.907405
 20
-103.453113
 30
0.0
 11
472.978473
 21
-96.382045
 31
0.0
  0
ARC
  5
2FB
100
AcDbEntity
  8
0
370
    -3
390
0
  6
Continuous
100
AcDbCircle
 10
466.481933
 20
-101.057793
 30
0.0
 40
1.599999
100
AcDbArc
 50
151.191409
 51
225.000018
  0
LINE
  5
2FC
100
AcDbEntity
  8
0
370
    -3
390
0
  6
Continuous
100
AcDbLine
 10
466.260958
 20
-103.099559
 30
0.0
 11
465.350563
 21
-102.189164
 31
0.0
  0
LINE
  5
2FD
100
AcDbEntity
  8
0
370
    -3
390
0
  6
Continuous
100
AcDbLine
 10
467.155635
 20
-106.115556
 30
0.0
 11
466.119537
 21
-105.079458
 31
0.0
  0
ARC
  5
2FE
100
AcDbEntity
  8
0
370
    -3
390
0
  6
Continuous
100
AcDbCircle
 10
466.473091
 20
-104.725905
 30
0.0
 40
0.5
100
AcDbArc
 50
135.0
 51
225.0
  0
LINE
  5
2FF
100
AcDbEntity
  8
0
370
    -3
390
0
  6
Continuous
100
AcDbLine
 10
475.640916
 20
-97.630274
 30
0.0
 11
474.604819
 21
-96.594177
 31
0.0
  0
ARC
  5
300
100
AcDbEntity
  8
0
370
    -3
390
0
  6
Continuous
100
AcDbCircle
 10
474.251265
 20
-96.947731
 30
0.0
 40
0.5
100
AcDbArc
 50
45.0
 51
135.0
  0
LINE
  5
301
100
AcDbEntity
  8
0
370
    -3
390
0
  6
Continuous
100
AcDbLine
 10
473.544158
 20
-96.947731
 30
0.0
 11
472.978473
 21
-96.382045
 31
0.0
  0
LINE
  5
302
100
AcDbEntity
  8
0
370
    -3
390
0
  6
Continuous
100
AcDbLine
 10
472.624919
 20
-96.735598
 30
0.0
 11
471.714524
 21
-95.825203
 31
0.0
  0
LINE
  5
303
100
AcDbEntity
  8
0
370
    -3
390
0
  6
Continuous
100
AcDbLine
 10
472.624919
 20
-96.735598
 30
0.0
 11
466.260958
 21
-103.099559
 31
0.0
  0
ARC
  5
304
100
AcDbEntity
  8
0
370
    -3
390
0
  6
Continuous
100
AcDbCircle
 10
470.583153
 20
-96.956573
 30
0.0
 40
1.599999
100
AcDbArc
 50
44.999999
 51
118.808717
  0
ARC
  5
305
100
AcDbEntity
  8
0
370
    -3
390
0
  6
Continuous
100
AcDbCircle
 10
516.959504
 20
-157.423768
 30
0.0
 40
71.0
100
AcDbArc
 50
145.712889
 51
176.770589
  0
LINE
  5
306
100
AcDbEntity
  8
0
370
    -3
390
0
  6
Continuous
100
AcDbLine
 10
575.127881
 20
-140.460534
 30
0.0
 11
573.109826
 21
-143.955908
 31
0.0
  0
ARC
  5
307
100
AcDbEntity
  8
0
370
    -3
390
0
  6
Continuous
100
AcDbCircle
 10
518.026228
 20
-116.297892
 30
0.0
 40
2.0
100
AcDbArc
 50
210.0
 51
295.874437
  0
ARC
  5
308
100
AcDbEntity
  8
0
370
    -3
390
0
  6
Continuous
100
AcDbCircle
 10
577.780165
 20
-115.866644
 30
0.0
 40
2.0
100
AcDbArc
 50
244.952563
 51
330.0
  0
ARC
  5
309
100
AcDbEntity
  8
0
370
    -3
390
0
  6
Continuous
100
AcDbCircle
 10
588.17247
 20
-121.866644
 30
0.0
 40
2.0
100
AcDbArc
 50
150.0
 51
235.047437
  0
ARC
  5
30A
100
AcDbEntity
  8
0
370
    -3
390
0
  6
Continuous
100
AcDbCircle
 10
617.675966
 20
-173.830696
 30
0.0
 40
2.0
100
AcDbArc
 50
184.125563
 51
270.0
  0
ARC
  5
30B
100
AcDbEntity
  8
0
370
    -3
390
0
  6
Continuous
100
AcDbCircle
 10
617.675966
 20
-183.830696
 30
0.0
 40
2.0
100
AcDbArc
 50
90.0
 51
175.874437
  0
ARC
  5
30C
100
AcDbEntity
  8
0
370
    -3
390
0
  6
Continuous
100
AcDbCircle
 10
588.17247
 20
-235.794747
 30
0.0
 40
2.0
100
AcDbArc
 50
124.952563
 51
210.0
  0
ARC
  5
30D
100
AcDbEntity
  8
0
370
    -3
390
0
  6
Continuous
100
AcDbCircle
 10
577.780165
 20
-241.794747
 30
0.0
 40
2.0
100
AcDbArc
 50
30.0
 51
115.047437
  0
ARC
  5
30E
100
AcDbEntity
  8
0
370
    -3
390
0
  6
Continuous
100
AcDbCircle
 10
518.026228
 20
-241.363499
 30
0.0
 40
2.0
100
AcDbArc
 50
64.125563
 51
150.0
  0
ARC
  5
30F
100
AcDbEntity
  8
0
370
    -3
390
0
  6
Continuous
100
AcDbCircle
 10
509.365974
 20
-236.363499
 30
0.0
 40
2.0
100
AcDbArc
 50
330.0
 51
55.874437
  0
ARC
  5
310
100
AcDbEntity
  8
0
370
    -3
390
0
  6
Continuous
100
AcDbCircle
 10
479.115533
 20
-184.830696
 30
0.0
 40
2.0
100
AcDbArc
 50
4.952563
 51
90.0
  0
ARC
  5
311
100
AcDbEntity
  8
0
370
    -3
390
0
  6
Continuous
100
AcDbCircle
 10
509.365974
 20
-121.297892
 30
0.0
 40
2.0
100
AcDbArc
 50
304.125563
 51
30.0
  0
ARC
  5
312
100
AcDbEntity
  8
0
370
    -3
390
0
  6
Continuous
100
AcDbCircle
 10
479.115533
 20
-172.830696
 30
0.0
 40
2.0
100
AcDbArc
 50
270.0
 51
355.047437
  0
ARC
  5
313
100
AcDbEntity
  8
0
370
    -3
390
0
  6
Continuous
100
AcDbCircle
 10
548.356056
 20
-178.830696
 30
0.0
 40
67.5
100
AcDbArc
 50
124.125563
 51
175.047437
  0
ARC
  5
314
100
AcDbEntity
  8
0
370
    -3
390
0
  6
Continuous
100
AcDbCircle
 10
548.356056
 20
-178.830696
 30
0.0
 40
67.5
100
AcDbArc
 50
64.952563
 51
115.874437
  0
ARC
  5
315
100
AcDbEntity
  8
0
370
    -3
390
0
  6
Continuous
100
AcDbCircle
 10
548.356056
 20
-178.830696
 30
0.0
 40
67.5
100
AcDbArc
 50
4.125563
 51
55.047437
  0
ARC
  5
316
100
AcDbEntity
  8
0
370
    -3
390
0
  6
Continuous
100
AcDbCircle
 10
548.356056
 20
-178.830696
 30
0.0
 40
67.5
100
AcDbArc
 50
304.952563
 51
355.874437
  0
ARC
  5
317
100
AcDbEntity
  8
0
370
    -3
390
0
  6
Continuous
100
AcDbCircle
 10
548.356056
 20
-178.830696
 30
0.0
 40
67.5
100
AcDbArc
 50
244.125563
 51
295.047437
  0
ARC
  5
318
100
AcDbEntity
  8
0
370
    -3
390
0
  6
Continuous
100
AcDbCircle
 10
548.356056
 20
-178.830696
 30
0.0
 40
67.5
100
AcDbArc
 50
184.952563
 51
235.874437
  0
LINE
  5
319
100
AcDbEntity
  8
0
370
    -3
390
0
  6
Continuous
100
AcDbLine
 10
574.741577
 20
-125.129632
 30
0.0
 11
572.730776
 21
-128.612442
 31
0.0
  0
ARC
  5
31A
100
AcDbEntity
  8
0
370
    -3
390
0
  6
Continuous
100
AcDbCircle
 10
896.356056
 20
-178.830696
 30
0.0
 40
433.679
100
AcDbArc
 50
176.770589
 51
183.229411
  0
ARC
  5
31B
100
AcDbEntity
  8
0
370
    -3
390
0
  6
Continuous
100
AcDbCircle
 10
548.356056
 20
169.169304
 30
0.0
 40
433.679
100
AcDbArc
 50
266.770589
 51
273.229411
  0
ARC
  5
31C
100
AcDbEntity
  8
0
370
    -3
390
0
  6
Continuous
100
AcDbCircle
 10
579.752608
 20
-200.237623
 30
0.0
 40
53.679
100
AcDbArc
 50
325.712889
 51
356.770589
  0
ARC
  5
31D
100
AcDbEntity
  8
0
370
    -3
390
0
  6
Continuous
100
AcDbCircle
 10
569.762983
 20
-210.227247
 30
0.0
 40
53.679
100
AcDbArc
 50
273.229411
 51
304.287111
  0
ARC
  5
31E
100
AcDbEntity
  8
0
370
    -3
390
0
  6
Continuous
100
AcDbCircle
 10
548.356056
 20
-178.830696
 30
0.0
 40
91.679
100
AcDbArc
 50
304.287111
 51
325.712889
  0
ARC
  5
31F
100
AcDbEntity
  8
0
370
    -3
390
0
  6
Continuous
100
AcDbCircle
 10
516.959504
 20
-200.237623
 30
0.0
 40
53.679
100
AcDbArc
 50
183.229411
 51
214.287111
  0
ARC
  5
320
100
AcDbEntity
  8
0
370
    -3
390
0
  6
Continuous
100
AcDbCircle
 10
526.949128
 20
-210.227247
 30
0.0
 40
53.679
100
AcDbArc
 50
235.712889
 51
266.770589
  0
ARC
  5
321
100
AcDbEntity
  8
0
370
    -3
390
0
  6
Continuous
100
AcDbCircle
 10
548.356056
 20
-178.830696
 30
0.0
 40
91.679
100
AcDbArc
 50
214.287111
 51
235.712889
  0
ARC
  5
322
100
AcDbEntity
  8
0
370
    -3
390
0
  6
Continuous
100
AcDbCircle
 10
516.959504
 20
-157.423768
 30
0.0
 40
53.679
100
AcDbArc
 50
145.712889
 51
176.770589
  0
ARC
  5
323
100
AcDbEntity
  8
0
370
    -3
390
0
  6
Continuous
100
AcDbCircle
 10
526.949128
 20
-147.434144
 30
0.0
 40
53.679
100
AcDbArc
 50
93.229411
 51
124.287111
  0
ARC
  5
324
100
AcDbEntity
  8
0
370
    -3
390
0
  6
Continuous
100
AcDbCircle
 10
548.356056
 20
-178.830696
 30
0.0
 40
91.679
100
AcDbArc
 50
124.287111
 51
145.712889
  0
ARC
  5
325
100
AcDbEntity
  8
0
370
    -3
390
0
  6
Continuous
100
AcDbCircle
 10
548.356056
 20
-526.830696
 30
0.0
 40
433.679
100
AcDbArc
 50
86.770589
 51
93.229411
  0
ARC
  5
326
100
AcDbEntity
  8
0
370
    -3
390
0
  6
Continuous
100
AcDbCircle
 10
569.762983
 20
-147.434144
 30
0.0
 40
53.679
100
AcDbArc
 50
55.712889
 51
86.770589
  0
ARC
  5
327
100
AcDbEntity
  8
0
370
    -3
390
0
  6
Continuous
100
AcDbCircle
 10
548.356056
 20
-178.830696
 30
0.0
 40
91.679
100
AcDbArc
 50
34.287111
 51
55.712889
  0
ARC
  5
328
100
AcDbEntity
  8
0
370
    -3
390
0
  6
Continuous
100
AcDbCircle
 10
579.752608
 20
-157.423768
 30
0.0
 40
53.679
100
AcDbArc
 50
3.229411
 51
34.287111
  0
ARC
  5
329
100
AcDbEntity
  8
0
370
    -3
390
0
  6
Continuous
100
AcDbCircle
 10
200.356056
 20
-178.830696
 30
0.0
 40
433.679
100
AcDbArc
 50
356.770589
 51
3.229411
  0
ARC
  5
32A
100
AcDbEntity
  8
0
370
    -3
390
0
  6
Continuous
100
AcDbCircle
 10
548.356056
 20
-178.830696
 30
0.0
 40
109.0
100
AcDbArc
 50
304.287111
 51
325.712889
  0
ARC
  5
32B
100
AcDbEntity
  8
0
370
    -3
390
0
  6
Continuous
100
AcDbCircle
 10
548.356056
 20
169.169304
 30
0.0
 40
451.0
100
AcDbArc
 50
266.770589
 51
273.229411
  0
ARC
  5
32C
100
AcDbEntity
  8
0
370
    -3
390
0
  6
Continuous
100
AcDbCircle
 10
896.356056
 20
-178.830696
 30
0.0
 40
451.0
100
AcDbArc
 50
176.770589
 51
183.229411
  0
ARC
  5
32D
100
AcDbEntity
  8
0
370
    -3
390
0
  6
Continuous
100
AcDbCircle
 10
548.356056
 20
-526.830696
 30
0.0
 40
451.0
100
AcDbArc
 50
86.770589
 51
93.229411
  0
ARC
  5
32E
100
AcDbEntity
  8
0
370
    -3
390
0
  6
Continuous
100
AcDbCircle
 10
548.356056
 20
-178.830696
 30
0.0
 40
109.0
100
AcDbArc
 50
214.287111
 51
235.712889
  0
ARC
  5
32F
100
AcDbEntity
  8
0
370
    -3
390
0
  6
Continuous
100
AcDbCircle
 10
516.959504
 20
-200.237623
 30
0.0
 40
71.0
100
AcDbArc
 50
183.229411
 51
214.287111
  0
ARC
  5
330
100
AcDbEntity
  8
0
370
    -3
390
0
  6
Continuous
100
AcDbCircle
 10
526.949128
 20
-210.227247
 30
0.0
 40
71.0
100
AcDbArc
 50
235.712889
 51
266.770589
  0
ARC
  5
331
100
AcDbEntity
  8
0
370
    -3
390
0
  6
Continuous
100
AcDbCircle
 10
548.356056
 20
-178.830696
 30
0.0
 40
109.0
100
AcDbArc
 50
124.287111
 51
145.712889
  0
ARC
  5
332
100
AcDbEntity
  8
0
370
    -3
390
0
  6
Continuous
100
AcDbCircle
 10
526.949128
 20
-147.434144
 30
0.0
 40
71.0
100
AcDbArc
 50
93.229411
 51
124.287111
  0
ARC
  5
333
100
AcDbEntity
  8
0
370
    -3
390
0
  6
Continuous
100
AcDbCircle
 10
548.356056
 20
-178.830696
 30
0.0
 40
109.0
100
AcDbArc
 50
34.287111
 51
55.712889
  0
ARC
  5
334
100
AcDbEntity
  8
0
370
    -3
390
0
  6
Continuous
100
AcDbCircle
 10
579.752608
 20
-157.423768
 30
0.0
 40
71.0
100
AcDbArc
 50
3.229411
 51
34.287111
  0
ARC
  5
335
100
AcDbEntity
  8
0
370
    -3
390
0
  6
Continuous
100
AcDbCircle
 10
569.762983
 20
-147.434144
 30
0.0
 40
71.0
100
AcDbArc
 50
55.712889
 51
86.770589
  0
ARC
  5
336
100
AcDbEntity
  8
0
370
    -3
390
0
  6
Continuous
100
AcDbCircle
 10
569.762983
 20
-210.227247
 30
0.0
 40
71.0
100
AcDbArc
 50
273.229411
 51
304.287111
  0
ARC
  5
337
100
AcDbEntity
  8
0
370
    -3
390
0
  6
Continuous
100
AcDbCircle
 10
200.356056
 20
-178.830696
 30
0.0
 40
451.0
100
AcDbArc
 50
356.770589
 51
3.229411
  0
ARC
  5
338
100
AcDbEntity
  8
0
370
    -3
390
0
  6
Continuous
100
AcDbCircle
 10
579.752608
 20
-200.237623
 30
0.0
 40
71.0
100
AcDbArc
 50
325.712889
 51
356.770589
  0
ARC
  5
339
100
AcDbEntity
  8
0
370
    -3
390
0
  6
Continuous
100
AcDbCircle
 10
579.536407
 20
-244.836648
 30
0.0
 40
2.0
100
AcDbArc
 50
295.285439
 51
30.0
  0
ARC
  5
33A
100
AcDbEntity
  8
0
370
    -3
390
0
  6
Continuous
100
AcDbCircle
 10
573.009527
 20
-233.53176
 30
0.0
 40
2.0
100
AcDbArc
 50
294.26083
 51
30.0
  0
LINE
  5
33B
100
AcDbEntity
  8
0
370
    -3
390
0
  6
Continuous
100
AcDbLine
 10
581.268458
 20
-243.836648
 30
0.0
 11
579.512216
 21
-240.794747
 31
0.0
  0
LINE
  5
33C
100
AcDbEntity
  8
0
370
    -3
390
0
  6
Continuous
100
AcDbLine
 10
574.741577
 20
-232.53176
 30
0.0
 11
572.730776
 21
-229.04895
 31
0.0
  0
ARC
  5
33D
100
AcDbEntity
  8
0
370
    -3
390
0
  6
Continuous
100
AcDbCircle
 10
570.998725
 20
-230.04895
 30
0.0
 40
2.0
100
AcDbArc
 50
30.0
 51
113.84936
  0
ARC
  5
33E
100
AcDbEntity
  8
0
370
    -3
390
0
  6
Continuous
100
AcDbCircle
 10
566.467627
 20
-222.200858
 30
0.0
 40
2.0
100
AcDbArc
 50
292.665631
 51
30.0
  0
LINE
  5
33F
100
AcDbEntity
  8
0
370
    -3
390
0
  6
Continuous
100
AcDbLine
 10
568.199678
 20
-221.200858
 30
0.0
 11
566.181623
 21
-217.705484
 31
0.0
  0
LINE
  5
340
100
AcDbEntity
  8
0
370
    -3
390
0
  6
Continuous
100
AcDbLine
 10
561.625155
 20
-209.813449
 30
0.0
 11
559.588893
 21
-206.28654
 31
0.0
  0
LINE
  5
341
100
AcDbEntity
  8
0
370
    -3
390
0
  6
Continuous
100
AcDbLine
 10
554.95426
 20
-198.259121
 30
0.0
 11
552.844941
 21
-194.605673
 31
0.0
  0
ARC
  5
342
100
AcDbEntity
  8
0
370
    -3
390
0
  6
Continuous
100
AcDbCircle
 10
548.356056
 20
-178.830696
 30
0.0
 40
75.0
100
AcDbArc
 50
243.927443
 51
295.285439
  0
ARC
  5
343
100
AcDbEntity
  8
0
370
    -3
390
0
  6
Continuous
100
AcDbCircle
 10
516.2719
 20
-244.402084
 30
0.0
 40
2.0
100
AcDbArc
 50
150.0
 51
243.927443
  0
LINE
  5
344
100
AcDbEntity
  8
0
370
    -3
390
0
  6
Continuous
100
AcDbLine
 10
514.539849
 20
-243.402084
 30
0.0
 11
516.294177
 21
-240.363499
 31
0.0
  0
ARC
  5
345
100
AcDbEntity
  8
0
370
    -3
390
0
  6
Continuous
100
AcDbCircle
 10
548.356056
 20
-178.830696
 30
0.0
 40
62.0
100
AcDbArc
 50
244.780192
 51
294.26083
  0
ARC
  5
346
100
AcDbEntity
  8
0
370
    -3
390
0
  6
Continuous
100
AcDbCircle
 10
522.790531
 20
-233.111484
 30
0.0
 40
2.0
100
AcDbArc
 50
150.0
 51
244.780192
  0
LINE
  5
347
100
AcDbEntity
  8
0
370
    -3
390
0
  6
Continuous
100
AcDbLine
 10
521.05848
 20
-232.111484
 30
0.0
 11
523.065963
 21
-228.634422
 31
0.0
  0
ARC
  5
348
100
AcDbEntity
  8
0
370
    -3
390
0
  6
Continuous
100
AcDbCircle
 10
524.798013
 20
-229.634422
 30
0.0
 40
2.0
100
AcDbArc
 50
65.122516
 51
150.0
  0
ARC
  5
349
100
AcDbEntity
  8
0
370
    -3
390
0
  6
Continuous
100
AcDbCircle
 10
548.356056
 20
-178.830696
 30
0.0
 40
54.0
100
AcDbArc
 50
245.122516
 51
293.84936
  0
ARC
  5
34A
100
AcDbEntity
  8
0
370
    -3
390
0
  6
Continuous
100
AcDbCircle
 10
564.449572
 20
-218.705484
 30
0.0
 40
2.0
100
AcDbArc
 50
30.0
 51
111.979067
  0
ARC
  5
34B
100
AcDbEntity
  8
0
370
    -3
390
0
  6
Continuous
100
AcDbCircle
 10
548.356056
 20
-178.830696
 30
0.0
 40
41.0
100
AcDbArc
 50
246.677405
 51
291.979067
  0
ARC
  5
34C
100
AcDbEntity
  8
0
370
    -3
390
0
  6
Continuous
100
AcDbCircle
 10
531.332026
 20
-218.31718
 30
0.0
 40
2.0
100
AcDbArc
 50
66.677405
 51
150.0
  0
ARC
  5
34D
100
AcDbEntity
  8
0
370
    -3
390
0
  6
Continuous
100
AcDbCircle
 10
548.356056
 20
-178.830696
 30
0.0
 40
49.0
100
AcDbArc
 50
246.106852
 51
292.665631
  0
LINE
  5
34E
100
AcDbEntity
  8
0
370
    -3
390
0
  6
Continuous
100
AcDbLine
 10
527.587489
 20
-220.802908
 30
0.0
 11
529.599976
 21
-217.31718
 31
0.0
  0
ARC
  5
34F
100
AcDbEntity
  8
0
370
    -3
390
0
  6
Continuous
100
AcDbCircle
 10
529.31954
 20
-221.802908
 30
0.0
 40
2.0
100
AcDbArc
 50
150.0
 51
246.106852
  0
ARC
  5
350
100
AcDbEntity
  8
0
370
    -3
390
0
  6
Continuous
100
AcDbCircle
 10
535.871011
 20
-210.455428
 30
0.0
 40
2.0
100
AcDbArc
 50
150.0
 51
248.456519
  0
LINE
  5
351
100
AcDbEntity
  8
0
370
    -3
390
0
  6
Continuous
100
AcDbLine
 10
534.13896
 20
-209.455428
 30
0.0
 11
536.163933
 21
-205.948073
 31
0.0
  0
ARC
  5
352
100
AcDbEntity
  8
0
370
    -3
390
0
  6
Continuous
100
AcDbCircle
 10
537.895983
 20
-206.948073
 30
0.0
 40
2.0
100
AcDbArc
 50
69.594068
 51
150.0
  0
ARC
  5
353
100
AcDbEntity
  8
0
370
    -3
390
0
  6
Continuous
100
AcDbCircle
 10
548.356056
 20
-178.830696
 30
0.0
 40
28.0
100
AcDbArc
 50
249.594068
 51
288.463041
  0
ARC
  5
354
100
AcDbEntity
  8
0
370
    -3
390
0
  6
Continuous
100
AcDbCircle
 10
557.856842
 20
-207.28654
 30
0.0
 40
2.0
100
AcDbArc
 50
30.0
 51
108.463041
  0
ARC
  5
355
100
AcDbEntity
  8
0
370
    -3
390
0
  6
Continuous
100
AcDbCircle
 10
548.356056
 20
-178.830696
 30
0.0
 40
36.0
100
AcDbArc
 50
248.456519
 51
289.835751
  0
ARC
  5
356
100
AcDbEntity
  8
0
370
    -3
390
0
  6
Continuous
100
AcDbCircle
 10
559.893104
 20
-210.813449
 30
0.0
 40
2.0
100
AcDbArc
 50
289.835751
 51
30.0
  0
ARC
  5
357
100
AcDbEntity
  8
0
370
    -3
390
0
  6
Continuous
100
AcDbCircle
 10
553.222209
 20
-199.259121
 30
0.0
 40
2.0
100
AcDbArc
 50
283.39845
 51
30.0
  0
ARC
  5
358
100
AcDbEntity
  8
0
370
    -3
390
0
  6
Continuous
100
AcDbCircle
 10
551.11289
 20
-195.605673
 30
0.0
 40
2.0
100
AcDbArc
 50
30.0
 51
99.332684
  0
ARC
  5
359
100
AcDbEntity
  8
0
370
    -3
390
0
  6
Continuous
100
AcDbCircle
 10
548.356056
 20
-178.830696
 30
0.0
 40
23.0
100
AcDbArc
 50
253.774147
 51
283.39845
  0
ARC
  5
35A
100
AcDbEntity
  8
0
370
    -3
390
0
  6
Continuous
100
AcDbCircle
 10
542.488144
 20
-198.994217
 30
0.0
 40
2.0
100
AcDbArc
 50
150.0
 51
253.774147
  0
ARC
  5
35B
100
AcDbEntity
  8
0
370
    -3
390
0
  6
Continuous
100
AcDbCircle
 10
548.356056
 20
-178.830696
 30
0.0
 40
15.0
100
AcDbArc
 50
257.104635
 51
279.332684
  0
LINE
  5
35C
100
AcDbEntity
  8
0
370
    -3
390
0
  6
Continuous
100
AcDbLine
 10
540.756093
 20
-197.994217
 30
0.0
 11
542.830094
 21
-194.401943
 31
0.0
  0
ARC
  5
35D
100
AcDbEntity
  8
0
370
    -3
390
0
  6
Continuous
100
AcDbCircle
 10
544.562144
 20
-195.401943
 30
0.0
 40
2.0
100
AcDbArc
 50
77.104635
 51
150.0
  0
ARC
  5
35E
100
AcDbEntity
  8
0
370
    -3
390
0
  6
Continuous
100
AcDbCircle
 10
589.928712
 20
-238.836648
 30
0.0
 40
2.0
100
AcDbArc
 50
210.0
 51
304.714561
  0
ARC
  5
35F
100
AcDbEntity
  8
0
370
    -3
390
0
  6
Continuous
100
AcDbCircle
 10
583.401831
 20
-227.53176
 30
0.0
 40
2.0
100
AcDbArc
 50
210.0
 51
305.73917
  0
LINE
  5
360
100
AcDbEntity
  8
0
370
    -3
390
0
  6
Continuous
100
AcDbLine
 10
588.196661
 20
-239.836648
 30
0.0
 11
586.440419
 21
-236.794747
 31
0.0
  0
LINE
  5
361
100
AcDbEntity
  8
0
370
    -3
390
0
  6
Continuous
100
AcDbLine
 10
581.669781
 20
-228.53176
 30
0.0
 11
579.658979
 21
-225.04895
 31
0.0
  0
ARC
  5
362
100
AcDbEntity
  8
0
370
    -3
390
0
  6
Continuous
100
AcDbCircle
 10
581.39103
 20
-224.04895
 30
0.0
 40
2.0
100
AcDbArc
 50
126.15064
 51
210.0
  0
ARC
  5
363
100
AcDbEntity
  8
0
370
    -3
390
0
  6
Continuous
100
AcDbCircle
 10
576.859932
 20
-216.200858
 30
0.0
 40
2.0
100
AcDbArc
 50
210.0
 51
307.334369
  0
LINE
  5
364
100
AcDbEntity
  8
0
370
    -3
390
0
  6
Continuous
100
AcDbLine
 10
575.127881
 20
-217.200858
 30
0.0
 11
573.109826
 21
-213.705484
 31
0.0
  0
LINE
  5
365
100
AcDbEntity
  8
0
370
    -3
390
0
  6
Continuous
100
AcDbLine
 10
568.553358
 20
-205.813449
 30
0.0
 11
566.517096
 21
-202.28654
 31
0.0
  0
LINE
  5
366
100
AcDbEntity
  8
0
370
    -3
390
0
  6
Continuous
100
AcDbLine
 10
561.882463
 20
-194.259121
 30
0.0
 11
559.773144
 21
-190.605673
 31
0.0
  0
ARC
  5
367
100
AcDbEntity
  8
0
370
    -3
390
0
  6
Continuous
100
AcDbCircle
 10
548.356056
 20
-178.830696
 30
0.0
 40
75.0
100
AcDbArc
 50
304.714561
 51
356.072557
  0
ARC
  5
368
100
AcDbEntity
  8
0
370
    -3
390
0
  6
Continuous
100
AcDbCircle
 10
621.184622
 20
-183.830696
 30
0.0
 40
2.0
100
AcDbArc
 50
356.072557
 51
90.0
  0
LINE
  5
369
100
AcDbEntity
  8
0
370
    -3
390
0
  6
Continuous
100
AcDbLine
 10
621.184622
 20
-181.830696
 30
0.0
 11
617.675966
 21
-181.830696
 31
0.0
  0
ARC
  5
36A
100
AcDbEntity
  8
0
370
    -3
390
0
  6
Continuous
100
AcDbCircle
 10
548.356056
 20
-178.830696
 30
0.0
 40
62.0
100
AcDbArc
 50
305.73917
 51
355.219808
  0
ARC
  5
36B
100
AcDbEntity
  8
0
370
    -3
390
0
  6
Continuous
100
AcDbCircle
 10
608.14736
 20
-183.830696
 30
0.0
 40
2.0
100
AcDbArc
 50
355.219808
 51
90.0
  0
LINE
  5
36C
100
AcDbEntity
  8
0
370
    -3
390
0
  6
Continuous
100
AcDbLine
 10
608.14736
 20
-181.830696
 30
0.0
 11
604.132395
 21
-181.830696
 31
0.0
  0
ARC
  5
36D
100
AcDbEntity
  8
0
370
    -3
390
0
  6
Continuous
100
AcDbCircle
 10
604.132395
 20
-183.830696
 30
0.0
 40
2.0
100
AcDbArc
 50
90.0
 51
174.877484
  0
ARC
  5
36E
100
AcDbEntity
  8
0
370
    -3
390
0
  6
Continuous
100
AcDbCircle
 10
548.356056
 20
-178.830696
 30
0.0
 40
54.0
100
AcDbArc
 50
306.15064
 51
354.877484
  0
ARC
  5
36F
100
AcDbEntity
  8
0
370
    -3
390
0
  6
Continuous
100
AcDbCircle
 10
574.841877
 20
-212.705484
 30
0.0
 40
2.0
100
AcDbArc
 50
128.020933
 51
210.0
  0
ARC
  5
370
100
AcDbEntity
  8
0
370
    -3
390
0
  6
Continuous
100
AcDbCircle
 10
548.356056
 20
-178.830696
 30
0.0
 40
41.0
100
AcDbArc
 50
308.020933
 51
353.322595
  0
ARC
  5
371
100
AcDbEntity
  8
0
370
    -3
390
0
  6
Continuous
100
AcDbCircle
 10
591.064369
 20
-183.830696
 30
0.0
 40
2.0
100
AcDbArc
 50
90.0
 51
173.322595
  0
ARC
  5
372
100
AcDbEntity
  8
0
370
    -3
390
0
  6
Continuous
100
AcDbCircle
 10
548.356056
 20
-178.830696
 30
0.0
 40
49.0
100
AcDbArc
 50
307.334369
 51
353.893148
  0
LINE
  5
373
100
AcDbEntity
  8
0
370
    -3
390
0
  6
Continuous
100
AcDbLine
 10
595.089342
 20
-181.830696
 30
0.0
 11
591.064369
 21
-181.830696
 31
0.0
  0
ARC
  5
374
100
AcDbEntity
  8
0
370
    -3
390
0
  6
Continuous
100
AcDbCircle
 10
595.089342
 20
-183.830696
 30
0.0
 40
2.0
100
AcDbArc
 50
353.893148
 51
90.0
  0
ARC
  5
375
100
AcDbEntity
  8
0
370
    -3
390
0
  6
Continuous
100
AcDbCircle
 10
581.986399
 20
-183.830696
 30
0.0
 40
2.0
100
AcDbArc
 50
351.543481
 51
90.0
  0
LINE
  5
376
100
AcDbEntity
  8
0
370
    -3
390
0
  6
Continuous
100
AcDbLine
 10
581.986399
 20
-181.830696
 30
0.0
 11
577.936455
 21
-181.830696
 31
0.0
  0
ARC
  5
377
100
AcDbEntity
  8
0
370
    -3
390
0
  6
Continuous
100
AcDbCircle
 10
577.936455
 20
-183.830696
 30
0.0
 40
2.0
100
AcDbArc
 50
90.0
 51
170.405932
  0
ARC
  5
378
100
AcDbEntity
  8
0
370
    -3
390
0
  6
Continuous
100
AcDbCircle
 10
548.356056
 20
-178.830696
 30
0.0
 40
28.0
100
AcDbArc
 50
311.536959
 51
350.405932
  0
ARC
  5
379
100
AcDbEntity
  8
0
370
    -3
390
0
  6
Continuous
100
AcDbCircle
 10
568.249147
 20
-201.28654
 30
0.0
 40
2.0
100
AcDbArc
 50
131.536959
 51
210.0
  0
ARC
  5
37A
100
AcDbEntity
  8
0
370
    -3
390
0
  6
Continuous
100
AcDbCircle
 10
548.356056
 20
-178.830696
 30
0.0
 40
36.0
100
AcDbArc
 50
310.164249
 51
351.543481
  0
ARC
  5
37B
100
AcDbEntity
  8
0
370
    -3
390
0
  6
Continuous
100
AcDbCircle
 10
570.285409
 20
-204.813449
 30
0.0
 40
2.0
100
AcDbArc
 50
210.0
 51
310.164249
  0
ARC
  5
37C
100
AcDbEntity
  8
0
370
    -3
390
0
  6
Continuous
100
AcDbCircle
 10
563.614514
 20
-193.259121
 30
0.0
 40
2.0
100
AcDbArc
 50
210.0
 51
316.60155
  0
ARC
  5
37D
100
AcDbEntity
  8
0
370
    -3
390
0
  6
Continuous
100
AcDbCircle
 10
561.505195
 20
-189.605673
 30
0.0
 40
2.0
100
AcDbArc
 50
140.667316
 51
210.0
  0
ARC
  5
37E
100
AcDbEntity
  8
0
370
    -3
390
0
  6
Continuous
100
AcDbCircle
 10
548.356056
 20
-178.830696
 30
0.0
 40
23.0
100
AcDbArc
 50
316.60155
 51
346.225853
  0
ARC
  5
37F
100
AcDbEntity
  8
0
370
    -3
390
0
  6
Continuous
100
AcDbCircle
 10
568.752134
 20
-183.830696
 30
0.0
 40
2.0
100
AcDbArc
 50
346.225853
 51
90.0
  0
ARC
  5
380
100
AcDbEntity
  8
0
370
    -3
390
0
  6
Continuous
100
AcDbCircle
 10
548.356056
 20
-178.830696
 30
0.0
 40
15.0
100
AcDbArc
 50
320.667316
 51
342.895365
  0
LINE
  5
381
100
AcDbEntity
  8
0
370
    -3
390
0
  6
Continuous
100
AcDbLine
 10
568.752134
 20
-181.830696
 30
0.0
 11
564.604133
 21
-181.830696
 31
0.0
  0
ARC
  5
382
100
AcDbEntity
  8
0
370
    -3
390
0
  6
Continuous
100
AcDbCircle
 10
564.604133
 20
-183.830696
 30
0.0
 40
2.0
100
AcDbArc
 50
90.0
 51
162.895365
  0
ARC
  5
383
100
AcDbEntity
  8
0
370
    -3
390
0
  6
Continuous
100
AcDbCircle
 10
589.928712
 20
-118.824744
 30
0.0
 40
2.0
100
AcDbArc
 50
55.285439
 51
150.0
  0
ARC
  5
384
100
AcDbEntity
  8
0
370
    -3
390
0
  6
Continuous
100
AcDbCircle
 10
583.401831
 20
-130.129632
 30
0.0
 40
2.0
100
AcDbArc
 50
54.26083
 51
150.0
  0
LINE
  5
385
100
AcDbEntity
  8
0
370
    -3
390
0
  6
Continuous
100
AcDbLine
 10
588.196661
 20
-117.824744
 30
0.0
 11
586.440419
 21
-120.866644
 31
0.0
  0
ARC
  5
386
100
AcDbEntity
  8
0
370
    -3
390
0
  6
Continuous
100
AcDbCircle
 10
581.39103
 20
-133.612442
 30
0.0
 40
2.0
100
AcDbArc
 50
150.0
 51
233.84936
  0
ARC
  5
387
100
AcDbEntity
  8
0
370
    -3
390
0
  6
Continuous
100
AcDbCircle
 10
576.859932
 20
-141.460534
 30
0.0
 40
2.0
100
AcDbArc
 50
52.665631
 51
150.0
  0
LINE
  5
388
100
AcDbEntity
  8
0
370
    -3
390
0
  6
Continuous
100
AcDbLine
 10
581.669781
 20
-129.129632
 30
0.0
 11
579.658979
 21
-132.612442
 31
0.0
  0
LINE
  5
389
100
AcDbEntity
  8
0
370
    -3
390
0
  6
Continuous
100
AcDbLine
 10
568.553358
 20
-151.847942
 30
0.0
 11
566.517096
 21
-155.374852
 31
0.0
  0
LINE
  5
38A
100
AcDbEntity
  8
0
370
    -3
390
0
  6
Continuous
100
AcDbLine
 10
561.882463
 20
-163.402271
 30
0.0
 11
559.773144
 21
-167.055718
 31
0.0
  0
ARC
  5
38B
100
AcDbEntity
  8
0
370
    -3
390
0
  6
Continuous
100
AcDbCircle
 10
548.356056
 20
-178.830696
 30
0.0
 40
75.0
100
AcDbArc
 50
3.927443
 51
55.285439
  0
ARC
  5
38C
100
AcDbEntity
  8
0
370
    -3
390
0
  6
Continuous
100
AcDbCircle
 10
621.184622
 20
-173.830696
 30
0.0
 40
2.0
100
AcDbArc
 50
270.0
 51
3.927443
  0
LINE
  5
38D
100
AcDbEntity
  8
0
370
    -3
390
0
  6
Continuous
100
AcDbLine
 10
621.184622
 20
-175.830696
 30
0.0
 11
617.675966
 21
-175.830696
 31
0.0
  0
ARC
  5
38E
100
AcDbEntity
  8
0
370
    -3
390
0
  6
Continuous
100
AcDbCircle
 10
548.356056
 20
-178.830696
 30
0.0
 40
62.0
100
AcDbArc
 50
4.780192
 51
54.26083
  0
ARC
  5
38F
100
AcDbEntity
  8
0
370
    -3
390
0
  6
Continuous
100
AcDbCircle
 10
608.14736
 20
-173.830696
 30
0.0
 40
2.0
100
AcDbArc
 50
270.0
 51
4.780192
  0
LINE
  5
390
100
AcDbEntity
  8
0
370
    -3
390
0
  6
Continuous
100
AcDbLine
 10
608.14736
 20
-175.830696
 30
0.0
 11
604.132395
 21
-175.830696
 31
0.0
  0
ARC
  5
391
100
AcDbEntity
  8
0
370
    -3
390
0
  6
Continuous
100
AcDbCircle
 10
604.132395
 20
-173.830696
 30
0.0
 40
2.0
100
AcDbArc
 50
185.122516
 51
270.0
  0
ARC
  5
392
100
AcDbEntity
  8
0
370
    -3
390
0
  6
Continuous
100
AcDbCircle
 10
548.356056
 20
-178.830696
 30
0.0
 40
54.0
100
AcDbArc
 50
5.122516
 51
53.84936
  0
ARC
  5
393
100
AcDbEntity
  8
0
370
    -3
390
0
  6
Continuous
100
AcDbCircle
 10
574.841877
 20
-144.955908
 30
0.0
 40
2.0
100
AcDbArc
 50
150.0
 51
231.979067
  0
ARC
  5
394
100
AcDbEntity
  8
0
370
    -3
390
0
  6
Continuous
100
AcDbCircle
 10
548.356056
 20
-178.830696
 30
0.0
 40
41.0
100
AcDbArc
 50
6.677405
 51
51.979067
  0
ARC
  5
395
100
AcDbEntity
  8
0
370
    -3
390
0
  6
Continuous
100
AcDbCircle
 10
591.064369
 20
-173.830696
 30
0.0
 40
2.0
100
AcDbArc
 50
186.677405
 51
270.0
  0
ARC
  5
396
100
AcDbEntity
  8
0
370
    -3
390
0
  6
Continuous
100
AcDbCircle
 10
548.356056
 20
-178.830696
 30
0.0
 40
49.0
100
AcDbArc
 50
6.106852
 51
52.665631
  0
LINE
  5
397
100
AcDbEntity
  8
0
370
    -3
390
0
  6
Continuous
100
AcDbLine
 10
595.089342
 20
-175.830696
 30
0.0
 11
591.064369
 21
-175.830696
 31
0.0
  0
ARC
  5
398
100
AcDbEntity
  8
0
370
    -3
390
0
  6
Continuous
100
AcDbCircle
 10
595.089342
 20
-173.830696
 30
0.0
 40
2.0
100
AcDbArc
 50
270.0
 51
6.106852
  0
ARC
  5
399
100
AcDbEntity
  8
0
370
    -3
390
0
  6
Continuous
100
AcDbCircle
 10
581.986399
 20
-173.830696
 30
0.0
 40
2.0
100
AcDbArc
 50
270.0
 51
8.456519
  0
LINE
  5
39A
100
AcDbEntity
  8
0
370
    -3
390
0
  6
Continuous
100
AcDbLine
 10
581.986399
 20
-175.830696
 30
0.0
 11
577.936455
 21
-175.830696
 31
0.0
  0
ARC
  5
39B
100
AcDbEntity
  8
0
370
    -3
390
0
  6
Continuous
100
AcDbCircle
 10
577.936455
 20
-173.830696
 30
0.0
 40
2.0
100
AcDbArc
 50
189.594068
 51
270.0
  0
ARC
  5
39C
100
AcDbEntity
  8
0
370
    -3
390
0
  6
Continuous
100
AcDbCircle
 10
548.356056
 20
-178.830696
 30
0.0
 40
28.0
100
AcDbArc
 50
9.594068
 51
48.463041
  0
ARC
  5
39D
100
AcDbEntity
  8
0
370
    -3
390
0
  6
Continuous
100
AcDbCircle
 10
568.249147
 20
-156.374852
 30
0.0
 40
2.0
100
AcDbArc
 50
150.0
 51
228.463041
  0
ARC
  5
39E
100
AcDbEntity
  8
0
370
    -3
390
0
  6
Continuous
100
AcDbCircle
 10
548.356056
 20
-178.830696
 30
0.0
 40
36.0
100
AcDbArc
 50
8.456519
 51
49.835751
  0
ARC
  5
39F
100
AcDbEntity
  8
0
370
    -3
390
0
  6
Continuous
100
AcDbCircle
 10
570.285409
 20
-152.847942
 30
0.0
 40
2.0
100
AcDbArc
 50
49.835751
 51
150.0
  0
ARC
  5
3A0
100
AcDbEntity
  8
0
370
    -3
390
0
  6
Continuous
100
AcDbCircle
 10
563.614514
 20
-164.402271
 30
0.0
 40
2.0
100
AcDbArc
 50
43.39845
 51
150.0
  0
ARC
  5
3A1
100
AcDbEntity
  8
0
370
    -3
390
0
  6
Continuous
100
AcDbCircle
 10
561.505195
 20
-168.055718
 30
0.0
 40
2.0
100
AcDbArc
 50
150.0
 51
219.332684
  0
ARC
  5
3A2
100
AcDbEntity
  8
0
370
    -3
390
0
  6
Continuous
100
AcDbCircle
 10
548.356056
 20
-178.830696
 30
0.0
 40
23.0
100
AcDbArc
 50
13.774147
 51
43.39845
  0
ARC
  5
3A3
100
AcDbEntity
  8
0
370
    -3
390
0
  6
Continuous
100
AcDbCircle
 10
568.752134
 20
-173.830696
 30
0.0
 40
2.0
100
AcDbArc
 50
270.0
 51
13.774147
  0
ARC
  5
3A4
100
AcDbEntity
  8
0
370
    -3
390
0
  6
Continuous
100
AcDbCircle
 10
548.356056
 20
-178.830696
 30
0.0
 40
15.0
100
AcDbArc
 50
17.104635
 51
39.332684
  0
LINE
  5
3A5
100
AcDbEntity
  8
0
370
    -3
390
0
  6
Continuous
100
AcDbLine
 10
568.752134
 20
-175.830696
 30
0.0
 11
564.604133
 21
-175.830696
 31
0.0
  0
ARC
  5
3A6
100
AcDbEntity
  8
0
370
    -3
390
0
  6
Continuous
100
AcDbCircle
 10
564.604133
 20
-173.830696
 30
0.0
 40
2.0
100
AcDbArc
 50
197.104635
 51
270.0
  0
ARC
  5
3A7
100
AcDbEntity
  8
0
370
    -3
390
0
  6
Continuous
100
AcDbCircle
 10
579.536407
 20
-112.824744
 30
0.0
 40
2.0
100
AcDbArc
 50
330.0
 51
64.714561
  0
ARC
  5
3A8
100
AcDbEntity
  8
0
370
    -3
390
0
  6
Continuous
100
AcDbCircle
 10
573.009527
 20
-124.129632
 30
0.0
 40
2.0
100
AcDbArc
 50
330.0
 51
65.73917
  0
LINE
  5
3A9
100
AcDbEntity
  8
0
370
    -3
390
0
  6
Continuous
100
AcDbLine
 10
581.268458
 20
-113.824744
 30
0.0
 11
579.512216
 21
-116.866644
 31
0.0
  0
ARC
  5
3AA
100
AcDbEntity
  8
0
370
    -3
390
0
  6
Continuous
100
AcDbCircle
 10
570.998725
 20
-127.612442
 30
0.0
 40
2.0
100
AcDbArc
 50
246.15064
 51
330.0
  0
ARC
  5
3AB
100
AcDbEntity
  8
0
370
    -3
390
0
  6
Continuous
100
AcDbCircle
 10
566.467627
 20
-135.460534
 30
0.0
 40
2.0
100
AcDbArc
 50
330.0
 51
67.334369
  0
LINE
  5
3AC
100
AcDbEntity
  8
0
370
    -3
390
0
  6
Continuous
100
AcDbLine
 10
568.199678
 20
-136.460534
 30
0.0
 11
566.181623
 21
-139.955908
 31
0.0
  0
LINE
  5
3AD
100
AcDbEntity
  8
0
370
    -3
390
0
  6
Continuous
100
AcDbLine
 10
561.625155
 20
-147.847942
 30
0.0
 11
559.588893
 21
-151.374852
 31
0.0
  0
LINE
  5
3AE
100
AcDbEntity
  8
0
370
    -3
390
0
  6
Continuous
100
AcDbLine
 10
554.95426
 20
-159.402271
 30
0.0
 11
552.844941
 21
-163.055718
 31
0.0
  0
ARC
  5
3AF
100
AcDbEntity
  8
0
370
    -3
390
0
  6
Continuous
100
AcDbCircle
 10
548.356056
 20
-178.830696
 30
0.0
 40
75.0
100
AcDbArc
 50
64.714561
 51
116.072557
  0
ARC
  5
3B0
100
AcDbEntity
  8
0
370
    -3
390
0
  6
Continuous
100
AcDbCircle
 10
516.2719
 20
-113.259308
 30
0.0
 40
2.0
100
AcDbArc
 50
116.072557
 51
210.0
  0
LINE
  5
3B1
100
AcDbEntity
  8
0
370
    -3
390
0
  6
Continuous
100
AcDbLine
 10
514.539849
 20
-114.259308
 30
0.0
 11
516.294177
 21
-117.297892
 31
0.0
  0
ARC
  5
3B2
100
AcDbEntity
  8
0
370
    -3
390
0
  6
Continuous
100
AcDbCircle
 10
548.356056
 20
-178.830696
 30
0.0
 40
62.0
100
AcDbArc
 50
65.73917
 51
115.219808
  0
ARC
  5
3B3
100
AcDbEntity
  8
0
370
    -3
390
0
  6
Continuous
100
AcDbCircle
 10
522.790531
 20
-124.549908
 30
0.0
 40
2.0
100
AcDbArc
 50
115.219808
 51
210.0
  0
LINE
  5
3B4
100
AcDbEntity
  8
0
370
    -3
390
0
  6
Continuous
100
AcDbLine
 10
521.05848
 20
-125.549908
 30
0.0
 11
523.065963
 21
-129.026969
 31
0.0
  0
ARC
  5
3B5
100
AcDbEntity
  8
0
370
    -3
390
0
  6
Continuous
100
AcDbCircle
 10
524.798013
 20
-128.026969
 30
0.0
 40
2.0
100
AcDbArc
 50
210.0
 51
294.877484
  0
ARC
  5
3B6
100
AcDbEntity
  8
0
370
    -3
390
0
  6
Continuous
100
AcDbCircle
 10
548.356056
 20
-178.830696
 30
0.0
 40
54.0
100
AcDbArc
 50
66.15064
 51
114.877484
  0
ARC
  5
3B7
100
AcDbEntity
  8
0
370
    -3
390
0
  6
Continuous
100
AcDbCircle
 10
564.449572
 20
-138.955908
 30
0.0
 40
2.0
100
AcDbArc
 50
248.020933
 51
330.0
  0
ARC
  5
3B8
100
AcDbEntity
  8
0
370
    -3
390
0
  6
Continuous
100
AcDbCircle
 10
548.356056
 20
-178.830696
 30
0.0
 40
41.0
100
AcDbArc
 50
68.020933
 51
113.322595
  0
ARC
  5
3B9
100
AcDbEntity
  8
0
370
    -3
390
0
  6
Continuous
100
AcDbCircle
 10
531.332026
 20
-139.344212
 30
0.0
 40
2.0
100
AcDbArc
 50
210.0
 51
293.322595
  0
ARC
  5
3BA
100
AcDbEntity
  8
0
370
    -3
390
0
  6
Continuous
100
AcDbCircle
 10
548.356056
 20
-178.830696
 30
0.0
 40
49.0
100
AcDbArc
 50
67.334369
 51
113.893148
  0
LINE
  5
3BB
100
AcDbEntity
  8
0
370
    -3
390
0
  6
Continuous
100
AcDbLine
 10
527.587489
 20
-136.858483
 30
0.0
 11
529.599976
 21
-140.344212
 31
0.0
  0
ARC
  5
3BC
100
AcDbEntity
  8
0
370
    -3
390
0
  6
Continuous
100
AcDbCircle
 10
529.31954
 20
-135.858483
 30
0.0
 40
2.0
100
AcDbArc
 50
113.893148
 51
210.0
  0
ARC
  5
3BD
100
AcDbEntity
  8
0
370
    -3
390
0
  6
Continuous
100
AcDbCircle
 10
535.871011
 20
-147.205964
 30
0.0
 40
2.0
100
AcDbArc
 50
111.543481
 51
210.0
  0
LINE
  5
3BE
100
AcDbEntity
  8
0
370
    -3
390
0
  6
Continuous
100
AcDbLine
 10
534.13896
 20
-148.205964
 30
0.0
 11
536.163933
 21
-151.713319
 31
0.0
  0
ARC
  5
3BF
100
AcDbEntity
  8
0
370
    -3
390
0
  6
Continuous
100
AcDbCircle
 10
537.895983
 20
-150.713319
 30
0.0
 40
2.0
100
AcDbArc
 50
210.0
 51
290.405932
  0
ARC
  5
3C0
100
AcDbEntity
  8
0
370
    -3
390
0
  6
Continuous
100
AcDbCircle
 10
548.356056
 20
-178.830696
 30
0.0
 40
28.0
100
AcDbArc
 50
71.536959
 51
110.405932
  0
ARC
  5
3C1
100
AcDbEntity
  8
0
370
    -3
390
0
  6
Continuous
100
AcDbCircle
 10
557.856842
 20
-150.374852
 30
0.0
 40
2.0
100
AcDbArc
 50
251.536959
 51
330.0
  0
ARC
  5
3C2
100
AcDbEntity
  8
0
370
    -3
390
0
  6
Continuous
100
AcDbCircle
 10
548.356056
 20
-178.830696
 30
0.0
 40
36.0
100
AcDbArc
 50
70.164249
 51
111.543481
  0
ARC
  5
3C3
100
AcDbEntity
  8
0
370
    -3
390
0
  6
Continuous
100
AcDbCircle
 10
559.893104
 20
-146.847942
 30
0.0
 40
2.0
100
AcDbArc
 50
330.0
 51
70.164249
  0
ARC
  5
3C4
100
AcDbEntity
  8
0
370
    -3
390
0
  6
Continuous
100
AcDbCircle
 10
553.222209
 20
-158.402271
 30
0.0
 40
2.0
100
AcDbArc
 50
330.0
 51
76.60155
  0
ARC
  5
3C5
100
AcDbEntity
  8
0
370
    -3
390
0
  6
Continuous
100
AcDbCircle
 10
551.11289
 20
-162.055718
 30
0.0
 40
2.0
100
AcDbArc
 50
260.667316
 51
330.0
  0
ARC
  5
3C6
100
AcDbEntity
  8
0
370
    -3
390
0
  6
Continuous
100
AcDbCircle
 10
548.356056
 20
-178.830696
 30
0.0
 40
23.0
100
AcDbArc
 50
76.60155
 51
106.225853
  0
ARC
  5
3C7
100
AcDbEntity
  8
0
370
    -3
390
0
  6
Continuous
100
AcDbCircle
 10
542.488144
 20
-158.667174
 30
0.0
 40
2.0
100
AcDbArc
 50
106.225853
 51
210.0
  0
ARC
  5
3C8
100
AcDbEntity
  8
0
370
    -3
390
0
  6
Continuous
100
AcDbCircle
 10
548.356056
 20
-178.830696
 30
0.0
 40
15.0
100
AcDbArc
 50
80.667316
 51
102.895365
  0
LINE
  5
3C9
100
AcDbEntity
  8
0
370
    -3
390
0
  6
Continuous
100
AcDbLine
 10
540.756093
 20
-159.667174
 30
0.0
 11
542.830094
 21
-163.259448
 31
0.0
  0
ARC
  5
3CA
100
AcDbEntity
  8
0
370
    -3
390
0
  6
Continuous
100
AcDbCircle
 10
544.562144
 20
-162.259448
 30
0.0
 40
2.0
100
AcDbArc
 50
210.0
 51
282.895365
  0
ARC
  5
3CB
100
AcDbEntity
  8
0
370
    -3
390
0
  6
Continuous
100
AcDbCircle
 10
475.603049
 20
-172.830696
 30
0.0
 40
2.0
100
AcDbArc
 50
175.285439
 51
270.0
  0
ARC
  5
3CC
100
AcDbEntity
  8
0
370
    -3
390
0
  6
Continuous
100
AcDbCircle
 10
488.65681
 20
-172.830696
 30
0.0
 40
2.0
100
AcDbArc
 50
174.26083
 51
270.0
  0
LINE
  5
3CD
100
AcDbEntity
  8
0
370
    -3
390
0
  6
Continuous
100
AcDbLine
 10
475.603049
 20
-174.830696
 30
0.0
 11
479.115533
 21
-174.830696
 31
0.0
  0
LINE
  5
3CE
100
AcDbEntity
  8
0
370
    -3
390
0
  6
Continuous
100
AcDbLine
 10
488.65681
 20
-174.830696
 30
0.0
 11
492.678412
 21
-174.830696
 31
0.0
  0
ARC
  5
3CF
100
AcDbEntity
  8
0
370
    -3
390
0
  6
Continuous
100
AcDbCircle
 10
492.678412
 20
-172.830696
 30
0.0
 40
2.0
100
AcDbArc
 50
270.0
 51
353.84936
  0
ARC
  5
3D0
100
AcDbEntity
  8
0
370
    -3
390
0
  6
Continuous
100
AcDbCircle
 10
501.740608
 20
-172.830696
 30
0.0
 40
2.0
100
AcDbArc
 50
172.665631
 51
270.0
  0
LINE
  5
3D1
100
AcDbEntity
  8
0
370
    -3
390
0
  6
Continuous
100
AcDbLine
 10
501.740608
 20
-174.830696
 30
0.0
 11
505.776718
 21
-174.830696
 31
0.0
  0
LINE
  5
3D2
100
AcDbEntity
  8
0
370
    -3
390
0
  6
Continuous
100
AcDbLine
 10
514.889655
 20
-174.830696
 30
0.0
 11
518.962179
 21
-174.830696
 31
0.0
  0
LINE
  5
3D3
100
AcDbEntity
  8
0
370
    -3
390
0
  6
Continuous
100
AcDbLine
 10
528.231444
 20
-174.830696
 30
0.0
 11
532.450082
 21
-174.830696
 31
0.0
  0
ARC
  5
3D4
100
AcDbEntity
  8
0
370
    -3
390
0
  6
Continuous
100
AcDbCircle
 10
548.356056
 20
-178.830696
 30
0.0
 40
75.0
100
AcDbArc
 50
123.927443
 51
175.285439
  0
ARC
  5
3D5
100
AcDbEntity
  8
0
370
    -3
390
0
  6
Continuous
100
AcDbCircle
 10
507.611646
 20
-118.259308
 30
0.0
 40
2.0
100
AcDbArc
 50
30.0
 51
123.927443
  0
LINE
  5
3D6
100
AcDbEntity
  8
0
370
    -3
390
0
  6
Continuous
100
AcDbLine
 10
509.343697
 20
-117.259308
 30
0.0
 11
511.098024
 21
-120.297892
 31
0.0
  0
ARC
  5
3D7
100
AcDbEntity
  8
0
370
    -3
390
0
  6
Continuous
100
AcDbCircle
 10
548.356056
 20
-178.830696
 30
0.0
 40
62.0
100
AcDbArc
 50
124.780192
 51
174.26083
  0
ARC
  5
3D8
100
AcDbEntity
  8
0
370
    -3
390
0
  6
Continuous
100
AcDbCircle
 10
514.130277
 20
-129.549908
 30
0.0
 40
2.0
100
AcDbArc
 50
30.0
 51
124.780192
  0
LINE
  5
3D9
100
AcDbEntity
  8
0
370
    -3
390
0
  6
Continuous
100
AcDbLine
 10
515.862328
 20
-128.549908
 30
0.0
 11
517.86981
 21
-132.026969
 31
0.0
  0
ARC
  5
3DA
100
AcDbEntity
  8
0
370
    -3
390
0
  6
Continuous
100
AcDbCircle
 10
516.137759
 20
-133.026969
 30
0.0
 40
2.0
100
AcDbArc
 50
305.122516
 51
30.0
  0
ARC
  5
3DB
100
AcDbEntity
  8
0
370
    -3
390
0
  6
Continuous
100
AcDbCircle
 10
548.356056
 20
-178.830696
 30
0.0
 40
54.0
100
AcDbArc
 50
125.122516
 51
173.84936
  0
ARC
  5
3DC
100
AcDbEntity
  8
0
370
    -3
390
0
  6
Continuous
100
AcDbCircle
 10
505.776718
 20
-172.830696
 30
0.0
 40
2.0
100
AcDbArc
 50
270.0
 51
351.979067
  0
ARC
  5
3DD
100
AcDbEntity
  8
0
370
    -3
390
0
  6
Continuous
100
AcDbCircle
 10
548.356056
 20
-178.830696
 30
0.0
 40
41.0
100
AcDbArc
 50
126.677405
 51
171.979067
  0
ARC
  5
3DE
100
AcDbEntity
  8
0
370
    -3
390
0
  6
Continuous
100
AcDbCircle
 10
522.671772
 20
-144.344212
 30
0.0
 40
2.0
100
AcDbArc
 50
306.677405
 51
30.0
  0
ARC
  5
3DF
100
AcDbEntity
  8
0
370
    -3
390
0
  6
Continuous
100
AcDbCircle
 10
548.356056
 20
-178.830696
 30
0.0
 40
49.0
100
AcDbArc
 50
126.106852
 51
172.665631
  0
LINE
  5
3E0
100
AcDbEntity
  8
0
370
    -3
390
0
  6
Continuous
100
AcDbLine
 10
522.391337
 20
-139.858483
 30
0.0
 11
524.403823
 21
-143.344212
 31
0.0
  0
ARC
  5
3E1
100
AcDbEntity
  8
0
370
    -3
390
0
  6
Continuous
100
AcDbCircle
 10
520.659286
 20
-140.858483
 30
0.0
 40
2.0
100
AcDbArc
 50
30.0
 51
126.106852
  0
ARC
  5
3E2
100
AcDbEntity
  8
0
370
    -3
390
0
  6
Continuous
100
AcDbCircle
 10
527.210757
 20
-152.205964
 30
0.0
 40
2.0
100
AcDbArc
 50
30.0
 51
128.456519
  0
LINE
  5
3E3
100
AcDbEntity
  8
0
370
    -3
390
0
  6
Continuous
100
AcDbLine
 10
528.942808
 20
-151.205964
 30
0.0
 11
530.96778
 21
-154.713319
 31
0.0
  0
ARC
  5
3E4
100
AcDbEntity
  8
0
370
    -3
390
0
  6
Continuous
100
AcDbCircle
 10
529.235729
 20
-155.713319
 30
0.0
 40
2.0
100
AcDbArc
 50
309.594068
 51
30.0
  0
ARC
  5
3E5
100
AcDbEntity
  8
0
370
    -3
390
0
  6
Continuous
100
AcDbCircle
 10
548.356056
 20
-178.830696
 30
0.0
 40
28.0
100
AcDbArc
 50
129.594068
 51
168.463041
  0
ARC
  5
3E6
100
AcDbEntity
  8
0
370
    -3
390
0
  6
Continuous
100
AcDbCircle
 10
518.962179
 20
-172.830696
 30
0.0
 40
2.0
100
AcDbArc
 50
270.0
 51
348.463041
  0
ARC
  5
3E7
100
AcDbEntity
  8
0
370
    -3
390
0
  6
Continuous
100
AcDbCircle
 10
548.356056
 20
-178.830696
 30
0.0
 40
36.0
100
AcDbArc
 50
128.456519
 51
169.835751
  0
ARC
  5
3E8
100
AcDbEntity
  8
0
370
    -3
390
0
  6
Continuous
100
AcDbCircle
 10
514.889655
 20
-172.830696
 30
0.0
 40
2.0
100
AcDbArc
 50
169.835751
 51
270.0
  0
ARC
  5
3E9
100
AcDbEntity
  8
0
370
    -3
390
0
  6
Continuous
100
AcDbCircle
 10
528.231444
 20
-172.830696
 30
0.0
 40
2.0
100
AcDbArc
 50
163.39845
 51
270.0
  0
ARC
  5
3EA
100
AcDbEntity
  8
0
370
    -3
390
0
  6
Continuous
100
AcDbCircle
 10
532.450082
 20
-172.830696
 30
0.0
 40
2.0
100
AcDbArc
 50
270.0
 51
339.332684
  0
ARC
  5
3EB
100
AcDbEntity
  8
0
370
    -3
390
0
  6
Continuous
100
AcDbCircle
 10
548.356056
 20
-178.830696
 30
0.0
 40
23.0
100
AcDbArc
 50
133.774147
 51
163.39845
  0
ARC
  5
3EC
100
AcDbEntity
  8
0
370
    -3
390
0
  6
Continuous
100
AcDbCircle
 10
533.82789
 20
-163.667174
 30
0.0
 40
2.0
100
AcDbArc
 50
30.0
 51
133.774147
  0
ARC
  5
3ED
100
AcDbEntity
  8
0
370
    -3
390
0
  6
Continuous
100
AcDbCircle
 10
548.356056
 20
-178.830696
 30
0.0
 40
15.0
100
AcDbArc
 50
137.104635
 51
159.332684
  0
LINE
  5
3EE
100
AcDbEntity
  8
0
370
    -3
390
0
  6
Continuous
100
AcDbLine
 10
535.559941
 20
-162.667174
 30
0.0
 11
537.633941
 21
-166.259448
 31
0.0
  0
ARC
  5
3EF
100
AcDbEntity
  8
0
370
    -3
390
0
  6
Continuous
100
AcDbCircle
 10
535.90189
 20
-167.259448
 30
0.0
 40
2.0
100
AcDbArc
 50
317.104635
 51
30.0
  0
ARC
  5
3F0
100
AcDbEntity
  8
0
370
    -3
390
0
  6
Continuous
100
AcDbCircle
 10
535.90189
 20
-190.401943
 30
0.0
 40
2.0
100
AcDbArc
 50
330.0
 51
42.895365
  0
ARC
  5
3F1
100
AcDbEntity
  8
0
370
    -3
390
0
  6
Continuous
100
AcDbCircle
 10
533.82789
 20
-193.994217
 30
0.0
 40
2.0
100
AcDbArc
 50
226.225853
 51
330.0
  0
ARC
  5
3F2
100
AcDbEntity
  8
0
370
    -3
390
0
  6
Continuous
100
AcDbCircle
 10
532.450082
 20
-184.830696
 30
0.0
 40
2.0
100
AcDbArc
 50
20.667316
 51
90.0
  0
ARC
  5
3F3
100
AcDbEntity
  8
0
370
    -3
390
0
  6
Continuous
100
AcDbCircle
 10
528.231444
 20
-184.830696
 30
0.0
 40
2.0
100
AcDbArc
 50
90.0
 51
196.60155
  0
ARC
  5
3F4
100
AcDbEntity
  8
0
370
    -3
390
0
  6
Continuous
100
AcDbCircle
 10
514.889655
 20
-184.830696
 30
0.0
 40
2.0
100
AcDbArc
 50
90.0
 51
190.164249
  0
ARC
  5
3F5
100
AcDbEntity
  8
0
370
    -3
390
0
  6
Continuous
100
AcDbCircle
 10
518.962179
 20
-184.830696
 30
0.0
 40
2.0
100
AcDbArc
 50
11.536959
 51
90.0
  0
ARC
  5
3F6
100
AcDbEntity
  8
0
370
    -3
390
0
  6
Continuous
100
AcDbCircle
 10
529.235729
 20
-201.948073
 30
0.0
 40
2.0
100
AcDbArc
 50
330.0
 51
50.405932
  0
ARC
  5
3F7
100
AcDbEntity
  8
0
370
    -3
390
0
  6
Continuous
100
AcDbCircle
 10
527.210757
 20
-205.455428
 30
0.0
 40
2.0
100
AcDbArc
 50
231.543481
 51
330.0
  0
ARC
  5
3F8
100
AcDbEntity
  8
0
370
    -3
390
0
  6
Continuous
100
AcDbCircle
 10
520.659286
 20
-216.802908
 30
0.0
 40
2.0
100
AcDbArc
 50
233.893148
 51
330.0
  0
ARC
  5
3F9
100
AcDbEntity
  8
0
370
    -3
390
0
  6
Continuous
100
AcDbCircle
 10
522.671772
 20
-213.31718
 30
0.0
 40
2.0
100
AcDbArc
 50
330.0
 51
53.322595
  0
ARC
  5
3FA
100
AcDbEntity
  8
0
370
    -3
390
0
  6
Continuous
100
AcDbCircle
 10
505.776718
 20
-184.830696
 30
0.0
 40
2.0
100
AcDbArc
 50
8.020933
 51
90.0
  0
ARC
  5
3FB
100
AcDbEntity
  8
0
370
    -3
390
0
  6
Continuous
100
AcDbCircle
 10
501.740608
 20
-184.830696
 30
0.0
 40
2.0
100
AcDbArc
 50
90.0
 51
187.334369
  0
ARC
  5
3FC
100
AcDbEntity
  8
0
370
    -3
390
0
  6
Continuous
100
AcDbCircle
 10
492.678412
 20
-184.830696
 30
0.0
 40
2.0
100
AcDbArc
 50
6.15064
 51
90.0
  0
ARC
  5
3FD
100
AcDbEntity
  8
0
370
    -3
390
0
  6
Continuous
100
AcDbCircle
 10
516.137759
 20
-224.634422
 30
0.0
 40
2.0
100
AcDbArc
 50
330.0
 51
54.877484
  0
ARC
  5
3FE
100
AcDbEntity
  8
0
370
    -3
390
0
  6
Continuous
100
AcDbCircle
 10
514.130277
 20
-228.111484
 30
0.0
 40
2.0
100
AcDbArc
 50
235.219808
 51
330.0
  0
ARC
  5
3FF
100
AcDbEntity
  8
0
370
    -3
390
0
  6
Continuous
100
AcDbCircle
 10
488.65681
 20
-184.830696
 30
0.0
 40
2.0
100
AcDbArc
 50
90.0
 51
185.73917
  0
ARC
  5
400
100
AcDbEntity
  8
0
370
    -3
390
0
  6
Continuous
100
AcDbCircle
 10
548.356056
 20
-178.830696
 30
0.0
 40
15.0
100
AcDbArc
 50
200.667316
 51
222.895365
  0
ARC
  5
401
100
AcDbEntity
  8
0
370
    -3
390
0
  6
Continuous
100
AcDbCircle
 10
548.356056
 20
-178.830696
 30
0.0
 40
23.0
100
AcDbArc
 50
196.60155
 51
226.225853
  0
ARC
  5
402
100
AcDbEntity
  8
0
370
    -3
390
0
  6
Continuous
100
AcDbCircle
 10
548.356056
 20
-178.830696
 30
0.0
 40
28.0
100
AcDbArc
 50
191.536959
 51
230.405932
  0
ARC
  5
403
100
AcDbEntity
  8
0
370
    -3
390
0
  6
Continuous
100
AcDbCircle
 10
548.356056
 20
-178.830696
 30
0.0
 40
36.0
100
AcDbArc
 50
190.164249
 51
231.543481
  0
ARC
  5
404
100
AcDbEntity
  8
0
370
    -3
390
0
  6
Continuous
100
AcDbCircle
 10
548.356056
 20
-178.830696
 30
0.0
 40
41.0
100
AcDbArc
 50
188.020933
 51
233.322595
  0
ARC
  5
405
100
AcDbEntity
  8
0
370
    -3
390
0
  6
Continuous
100
AcDbCircle
 10
548.356056
 20
-178.830696
 30
0.0
 40
49.0
100
AcDbArc
 50
187.334369
 51
233.893148
  0
ARC
  5
406
100
AcDbEntity
  8
0
370
    -3
390
0
  6
Continuous
100
AcDbCircle
 10
548.356056
 20
-178.830696
 30
0.0
 40
54.0
100
AcDbArc
 50
186.15064
 51
234.877484
  0
ARC
  5
407
100
AcDbEntity
  8
0
370
    -3
390
0
  6
Continuous
100
AcDbCircle
 10
548.356056
 20
-178.830696
 30
0.0
 40
62.0
100
AcDbArc
 50
185.73917
 51
235.219808
  0
LINE
  5
408
100
AcDbEntity
  8
0
370
    -3
390
0
  6
Continuous
100
AcDbLine
 10
528.942808
 20
-206.455428
 30
0.0
 11
530.96778
 21
-202.948073
 31
0.0
  0
LINE
  5
409
100
AcDbEntity
  8
0
370
    -3
390
0
  6
Continuous
100
AcDbLine
 10
522.391337
 20
-217.802908
 30
0.0
 11
524.403823
 21
-214.31718
 31
0.0
  0
LINE
  5
40A
100
AcDbEntity
  8
0
370
    -3
390
0
  6
Continuous
100
AcDbLine
 10
515.862328
 20
-229.111484
 30
0.0
 11
517.86981
 21
-225.634422
 31
0.0
  0
LINE
  5
40B
100
AcDbEntity
  8
0
370
    -3
390
0
  6
Continuous
100
AcDbLine
 10
488.65681
 20
-182.830696
 30
0.0
 11
492.678412
 21
-182.830696
 31
0.0
  0
LINE
  5
40C
100
AcDbEntity
  8
0
370
    -3
390
0
  6
Continuous
100
AcDbLine
 10
501.740608
 20
-182.830696
 30
0.0
 11
505.776718
 21
-182.830696
 31
0.0
  0
LINE
  5
40D
100
AcDbEntity
  8
0
370
    -3
390
0
  6
Continuous
100
AcDbLine
 10
514.889655
 20
-182.830696
 30
0.0
 11
518.962179
 21
-182.830696
 31
0.0
  0
LINE
  5
40E
100
AcDbEntity
  8
0
370
    -3
390
0
  6
Continuous
100
AcDbLine
 10
535.559941
 20
-194.994217
 30
0.0
 11
537.633941
 21
-191.401943
 31
0.0
  0
LINE
  5
40F
100
AcDbEntity
  8
0
370
    -3
390
0
  6
Continuous
100
AcDbLine
 10
528.231444
 20
-182.830696
 30
0.0
 11
532.450082
 21
-182.830696
 31
0.0
  0
ARC
  5
410
100
AcDbEntity
  8
0
370
    -3
390
0
  6
Continuous
100
AcDbCircle
 10
507.611646
 20
-239.402084
 30
0.0
 40
2.0
100
AcDbArc
 50
236.072557
 51
330.0
  0
ARC
  5
411
100
AcDbEntity
  8
0
370
    -3
390
0
  6
Continuous
100
AcDbCircle
 10
475.603049
 20
-184.830696
 30
0.0
 40
2.0
100
AcDbArc
 50
90.0
 51
184.714561
  0
ARC
  5
412
100
AcDbEntity
  8
0
370
    -3
390
0
  6
Continuous
100
AcDbCircle
 10
548.356056
 20
-178.830696
 30
0.0
 40
75.0
100
AcDbArc
 50
184.714561
 51
236.072557
  0
LINE
  5
413
100
AcDbEntity
  8
0
370
    -3
390
0
  6
Continuous
100
AcDbLine
 10
509.343697
 20
-240.402084
 30
0.0
 11
511.098024
 21
-237.363499
 31
0.0
  0
LINE
  5
414
100
AcDbEntity
  8
0
370
    -3
390
0
  6
Continuous
100
AcDbLine
 10
475.603049
 20
-182.830696
 30
0.0
 11
479.115533
 21
-182.830696
 31
0.0
  0
CIRCLE
  5
415
100
AcDbEntity
  8
0
370
    -3
390
0
  6
Continuous
100
AcDbCircle
 10
548.356056
 20
-178.830696
 30
0.0
 40
5.0
  0
LINE
  5
416
100
AcDbEntity
  8
0
370
    -3
390
0
  6
Continuous
100
AcDbLine
 10
179.184725
 20
224.980544
 30
0.0
 11
40.634725
 21
224.980544
 31
0.0
  0
LINE
  5
417
100
AcDbEntity
  8
0
370
    -3
390
0
  6
Continuous
100
AcDbLine
 10
179.184725
 20
176.980544
 30
0.0
 11
40.634725
 21
176.980544
 31
0.0
  0
LINE
  5
418
100
AcDbEntity
  8
0
370
    -3
390
0
  6
Continuous
100
AcDbLine
 10
272.084725
 20
169.383936
 30
0.0
 11
272.084725
 21
250.986656
 31
0.0
  0
LINE
  5
419
100
AcDbEntity
  8
0
370
    -3
390
0
  6
Continuous
100
AcDbLine
 10
265.684725
 20
169.478755
 30
0.0
 11
265.684725
 21
245.556499
 31
0.0
  0
ARC
  5
41A
100
AcDbEntity
  8
0
370
    -3
390
0
  6
Continuous
100
AcDbCircle
 10
260.684725
 20
169.478755
 30
0.0
 40
5.0
100
AcDbArc
 50
270.0
 51
0.0
  0
LINE
  5
41B
100
AcDbEntity
  8
0
370
    -3
390
0
  6
Continuous
100
AcDbLine
 10
225.634725
 20
164.478755
 30
0.0
 11
260.684725
 21
164.478755
 31
0.0
  0
ARC
  5
41C
100
AcDbEntity
  8
0
370
    -3
390
0
  6
Continuous
100
AcDbCircle
 10
261.084725
 20
169.383936
 30
0.0
 40
11.0
100
AcDbArc
 50
270.0
 51
0.0
  0
LINE
  5
41D
100
AcDbEntity
  8
0
370
    -3
390
0
  6
Continuous
100
AcDbLine
 10
261.084725
 20
158.383936
 30
0.0
 11
225.634725
 21
158.383936
 31
0.0
  0
ARC
  5
41E
100
AcDbEntity
  8
0
370
    -3
390
0
  6
Continuous
100
AcDbCircle
 10
260.684725
 20
175.980544
 30
0.0
 40
5.0
100
AcDbArc
 50
270.0
 51
0.0
  0
ARC
  5
41F
100
AcDbEntity
  8
0
370
    -3
390
0
  6
Continuous
100
AcDbCircle
 10
260.684725
 20
245.556499
 30
0.0
 40
5.0
100
AcDbArc
 50
0.0
 51
90.0
  0
LINE
  5
420
100
AcDbEntity
  8
0
370
    -3
390
0
  6
Continuous
100
AcDbLine
 10
234.122199
 20
250.556499
 30
0.0
 11
260.684725
 21
250.556499
 31
0.0
  0
ARC
  5
421
100
AcDbEntity
  8
0
370
    -3
390
0
  6
Continuous
100
AcDbCircle
 10
261.084725
 20
250.986656
 30
0.0
 40
11.0
100
AcDbArc
 50
0.0
 51
90.0
  0
ARC
  5
422
100
AcDbEntity
  8
0
370
    -3
390
0
  6
Continuous
100
AcDbCircle
 10
261.084725
 20
249.766446
 30
0.0
 40
11.0
100
AcDbArc
 50
0.0
 51
90.0
  0
LINE
  5
423
100
AcDbEntity
  8
0
370
    -3
390
0
  6
Continuous
100
AcDbLine
 10
261.084725
 20
260.766446
 30
0.0
 11
225.634725
 21
260.766446
 31
0.0
  0
LINE
  5
424
100
AcDbEntity
  8
0
370
    -3
390
0
  6
Continuous
100
AcDbLine
 10
261.084725
 20
261.986656
 30
0.0
 11
225.634725
 21
261.986656
 31
0.0
  0
LINE
  5
425
100
AcDbEntity
  8
0
370
    -3
390
0
  6
Continuous
100
AcDbLine
 10
217.14725
 20
250.556499
 30
0.0
 11
190.584725
 21
250.556499
 31
0.0
  0
ARC
  5
426
100
AcDbEntity
  8
0
370
    -3
390
0
  6
Continuous
100
AcDbCircle
 10
234.894943
 20
246.556499
 30
0.0
 40
4.0
100
AcDbArc
 50
90.0
 51
138.821566
  0
LINE
  5
427
100
AcDbEntity
  8
0
370
    -3
390
0
  6
Continuous
100
AcDbLine
 10
230.893322
 20
248.244995
 30
0.0
 11
231.884292
 21
249.190124
 31
0.0
  0
LINE
  5
428
100
AcDbEntity
  8
0
370
    -3
390
0
  6
Continuous
100
AcDbLine
 10
229.73372
 20
247.476487
 30
0.0
 11
230.893322
 21
248.244995
 31
0.0
  0
LINE
  5
429
100
AcDbEntity
  8
0
370
    -3
390
0
  6
Continuous
100
AcDbLine
 10
228.442671
 20
246.909242
 30
0.0
 11
229.73372
 21
247.476487
 31
0.0
  0
LINE
  5
42A
100
AcDbEntity
  8
0
370
    -3
390
0
  6
Continuous
100
AcDbLine
 10
227.061576
 20
246.561452
 30
0.0
 11
228.442671
 21
246.909242
 31
0.0
  0
LINE
  5
42B
100
AcDbEntity
  8
0
370
    -3
390
0
  6
Continuous
100
AcDbLine
 10
225.634725
 20
246.444269
 30
0.0
 11
227.061576
 21
246.561452
 31
0.0
  0
ARC
  5
42C
100
AcDbEntity
  8
0
370
    -3
390
0
  6
Continuous
100
AcDbCircle
 10
234.122199
 20
246.556499
 30
0.0
 40
4.0
100
AcDbArc
 50
90.0
 51
133.301579
  0
LINE
  5
42D
100
AcDbEntity
  8
0
370
    -3
390
0
  6
Continuous
100
AcDbLine
 10
230.417145
 20
248.695635
 30
0.0
 11
231.378845
 21
249.467514
 31
0.0
  0
LINE
  5
42E
100
AcDbEntity
  8
0
370
    -3
390
0
  6
Continuous
100
AcDbLine
 10
229.332986
 20
248.073773
 30
0.0
 11
230.417145
 21
248.695635
 31
0.0
  0
LINE
  5
42F
100
AcDbEntity
  8
0
370
    -3
390
0
  6
Continuous
100
AcDbLine
 10
228.154131
 20
247.61785
 30
0.0
 11
229.332986
 21
248.073773
 31
0.0
  0
LINE
  5
430
100
AcDbEntity
  8
0
370
    -3
390
0
  6
Continuous
100
AcDbLine
 10
226.910765
 20
247.339541
 30
0.0
 11
228.154131
 21
247.61785
 31
0.0
  0
LINE
  5
431
100
AcDbEntity
  8
0
370
    -3
390
0
  6
Continuous
100
AcDbLine
 10
225.634725
 20
247.245973
 30
0.0
 11
226.910765
 21
247.339541
 31
0.0
  0
LINE
  5
432
100
AcDbEntity
  8
0
370
    -3
390
0
  6
Continuous
100
AcDbLine
 10
223.634725
 20
255.415442
 30
0.0
 11
227.634725
 21
251.761261
 31
0.0
  0
LINE
  5
433
100
AcDbEntity
  8
0
370
    -3
390
0
  6
Continuous
100
AcDbLine
 10
227.634725
 20
255.415442
 30
0.0
 11
223.634725
 21
251.761261
 31
0.0
  0
LINE
  5
434
100
AcDbEntity
  8
0
370
    -3
390
0
  6
Continuous
100
AcDbLine
 10
229.067473
 20
253.625449
 30
0.0
 11
229.134725
 21
254.299039
 31
0.0
  0
LINE
  5
435
100
AcDbEntity
  8
0
370
    -3
390
0
  6
Continuous
100
AcDbLine
 10
228.868303
 20
252.977745
 30
0.0
 11
229.067473
 21
253.625449
 31
0.0
  0
LINE
  5
436
100
AcDbEntity
  8
0
370
    -3
390
0
  6
Continuous
100
AcDbLine
 10
228.544868
 20
252.380817
 30
0.0
 11
228.868303
 21
252.977745
 31
0.0
  0
LINE
  5
437
100
AcDbEntity
  8
0
370
    -3
390
0
  6
Continuous
100
AcDbLine
 10
228.109598
 20
251.857606
 30
0.0
 11
228.544868
 21
252.380817
 31
0.0
  0
LINE
  5
438
100
AcDbEntity
  8
0
370
    -3
390
0
  6
Continuous
100
AcDbLine
 10
227.57922
 20
251.428217
 30
0.0
 11
228.109598
 21
251.857606
 31
0.0
  0
LINE
  5
439
100
AcDbEntity
  8
0
370
    -3
390
0
  6
Continuous
100
AcDbLine
 10
226.974117
 20
251.109153
 30
0.0
 11
227.57922
 21
251.428217
 31
0.0
  0
LINE
  5
43A
100
AcDbEntity
  8
0
370
    -3
390
0
  6
Continuous
100
AcDbLine
 10
226.317541
 20
250.912674
 30
0.0
 11
226.974117
 21
251.109153
 31
0.0
  0
LINE
  5
43B
100
AcDbEntity
  8
0
370
    -3
390
0
  6
Continuous
100
AcDbLine
 10
225.634725
 20
250.846331
 30
0.0
 11
226.317541
 21
250.912674
 31
0.0
  0
LINE
  5
43C
100
AcDbEntity
  8
0
370
    -3
390
0
  6
Continuous
100
AcDbLine
 10
224.951908
 20
250.912674
 30
0.0
 11
225.634725
 21
250.846331
 31
0.0
  0
LINE
  5
43D
100
AcDbEntity
  8
0
370
    -3
390
0
  6
Continuous
100
AcDbLine
 10
224.295333
 20
251.109153
 30
0.0
 11
224.951908
 21
250.912674
 31
0.0
  0
LINE
  5
43E
100
AcDbEntity
  8
0
370
    -3
390
0
  6
Continuous
100
AcDbLine
 10
223.690229
 20
251.428217
 30
0.0
 11
224.295333
 21
251.109153
 31
0.0
  0
LINE
  5
43F
100
AcDbEntity
  8
0
370
    -3
390
0
  6
Continuous
100
AcDbLine
 10
223.159851
 20
251.857606
 30
0.0
 11
223.690229
 21
251.428217
 31
0.0
  0
LINE
  5
440
100
AcDbEntity
  8
0
370
    -3
390
0
  6
Continuous
100
AcDbLine
 10
222.724581
 20
252.380817
 30
0.0
 11
223.159851
 21
251.857606
 31
0.0
  0
LINE
  5
441
100
AcDbEntity
  8
0
370
    -3
390
0
  6
Continuous
100
AcDbLine
 10
222.401146
 20
252.977745
 30
0.0
 11
222.724581
 21
252.380817
 31
0.0
  0
LINE
  5
442
100
AcDbEntity
  8
0
370
    -3
390
0
  6
Continuous
100
AcDbLine
 10
222.201976
 20
253.625449
 30
0.0
 11
222.401146
 21
252.977745
 31
0.0
  0
LINE
  5
443
100
AcDbEntity
  8
0
370
    -3
390
0
  6
Continuous
100
AcDbLine
 10
222.134725
 20
254.299039
 30
0.0
 11
222.201976
 21
253.625449
 31
0.0
  0
LINE
  5
444
100
AcDbEntity
  8
0
370
    -3
390
0
  6
Continuous
100
AcDbLine
 10
222.201976
 20
254.972628
 30
0.0
 11
222.134725
 21
254.299039
 31
0.0
  0
LINE
  5
445
100
AcDbEntity
  8
0
370
    -3
390
0
  6
Continuous
100
AcDbLine
 10
222.401146
 20
255.620332
 30
0.0
 11
222.201976
 21
254.972628
 31
0.0
  0
LINE
  5
446
100
AcDbEntity
  8
0
370
    -3
390
0
  6
Continuous
100
AcDbLine
 10
222.724581
 20
256.21726
 30
0.0
 11
222.401146
 21
255.620332
 31
0.0
  0
LINE
  5
447
100
AcDbEntity
  8
0
370
    -3
390
0
  6
Continuous
100
AcDbLine
 10
223.159851
 20
256.740471
 30
0.0
 11
222.724581
 21
256.21726
 31
0.0
  0
LINE
  5
448
100
AcDbEntity
  8
0
370
    -3
390
0
  6
Continuous
100
AcDbLine
 10
223.690229
 20
257.16986
 30
0.0
 11
223.159851
 21
256.740471
 31
0.0
  0
LINE
  5
449
100
AcDbEntity
  8
0
370
    -3
390
0
  6
Continuous
100
AcDbLine
 10
224.295333
 20
257.488924
 30
0.0
 11
223.690229
 21
257.16986
 31
0.0
  0
LINE
  5
44A
100
AcDbEntity
  8
0
370
    -3
390
0
  6
Continuous
100
AcDbLine
 10
224.951908
 20
257.685403
 30
0.0
 11
224.295333
 21
257.488924
 31
0.0
  0
LINE
  5
44B
100
AcDbEntity
  8
0
370
    -3
390
0
  6
Continuous
100
AcDbLine
 10
225.634725
 20
257.751746
 30
0.0
 11
224.951908
 21
257.685403
 31
0.0
  0
LINE
  5
44C
100
AcDbEntity
  8
0
370
    -3
390
0
  6
Continuous
100
AcDbLine
 10
226.317541
 20
257.685403
 30
0.0
 11
225.634725
 21
257.751746
 31
0.0
  0
LINE
  5
44D
100
AcDbEntity
  8
0
370
    -3
390
0
  6
Continuous
100
AcDbLine
 10
226.974117
 20
257.488924
 30
0.0
 11
226.317541
 21
257.685403
 31
0.0
  0
LINE
  5
44E
100
AcDbEntity
  8
0
370
    -3
390
0
  6
Continuous
100
AcDbLine
 10
227.57922
 20
257.16986
 30
0.0
 11
226.974117
 21
257.488924
 31
0.0
  0
LINE
  5
44F
100
AcDbEntity
  8
0
370
    -3
390
0
  6
Continuous
100
AcDbLine
 10
228.109598
 20
256.740471
 30
0.0
 11
227.57922
 21
257.16986
 31
0.0
  0
LINE
  5
450
100
AcDbEntity
  8
0
370
    -3
390
0
  6
Continuous
100
AcDbLine
 10
228.544868
 20
256.21726
 30
0.0
 11
228.109598
 21
256.740471
 31
0.0
  0
LINE
  5
451
100
AcDbEntity
  8
0
370
    -3
390
0
  6
Continuous
100
AcDbLine
 10
228.868303
 20
255.620332
 30
0.0
 11
228.544868
 21
256.21726
 31
0.0
  0
LINE
  5
452
100
AcDbEntity
  8
0
370
    -3
390
0
  6
Continuous
100
AcDbLine
 10
229.067473
 20
254.972628
 30
0.0
 11
228.868303
 21
255.620332
 31
0.0
  0
LINE
  5
453
100
AcDbEntity
  8
0
370
    -3
390
0
  6
Continuous
100
AcDbLine
 10
229.134725
 20
254.299039
 30
0.0
 11
229.067473
 21
254.972628
 31
0.0
  0
LINE
  5
454
100
AcDbEntity
  8
0
370
    -3
390
0
  6
CENTER
100
AcDbLine
 10
225.634725
 20
155.480944
 30
0.0
 11
225.634725
 21
268.134664
 31
0.0
  0
LINE
  5
455
100
AcDbEntity
  8
0
370
    -3
390
0
  6
Continuous
100
AcDbLine
 10
224.358684
 20
247.339541
 30
0.0
 11
225.634725
 21
247.245973
 31
0.0
  0
LINE
  5
456
100
AcDbEntity
  8
0
370
    -3
390
0
  6
Continuous
100
AcDbLine
 10
223.115318
 20
247.61785
 30
0.0
 11
224.358684
 21
247.339541
 31
0.0
  0
LINE
  5
457
100
AcDbEntity
  8
0
370
    -3
390
0
  6
Continuous
100
AcDbLine
 10
221.936463
 20
248.073773
 30
0.0
 11
223.115318
 21
247.61785
 31
0.0
  0
LINE
  5
458
100
AcDbEntity
  8
0
370
    -3
390
0
  6
Continuous
100
AcDbLine
 10
220.852305
 20
248.695635
 30
0.0
 11
221.936463
 21
248.073773
 31
0.0
  0
LINE
  5
459
100
AcDbEntity
  8
0
370
    -3
390
0
  6
Continuous
100
AcDbLine
 10
219.890604
 20
249.467514
 30
0.0
 11
220.852305
 21
248.695635
 31
0.0
  0
ARC
  5
45A
100
AcDbEntity
  8
0
370
    -3
390
0
  6
Continuous
100
AcDbCircle
 10
217.14725
 20
246.556499
 30
0.0
 40
4.0
100
AcDbArc
 50
46.698421
 51
90.0
  0
LINE
  5
45B
100
AcDbEntity
  8
0
370
    -3
390
0
  6
Continuous
100
AcDbLine
 10
224.207873
 20
246.561452
 30
0.0
 11
225.634725
 21
246.444269
 31
0.0
  0
LINE
  5
45C
100
AcDbEntity
  8
0
370
    -3
390
0
  6
Continuous
100
AcDbLine
 10
222.826778
 20
246.909242
 30
0.0
 11
224.207873
 21
246.561452
 31
0.0
  0
LINE
  5
45D
100
AcDbEntity
  8
0
370
    -3
390
0
  6
Continuous
100
AcDbLine
 10
221.535729
 20
247.476487
 30
0.0
 11
222.826778
 21
246.909242
 31
0.0
  0
LINE
  5
45E
100
AcDbEntity
  8
0
370
    -3
390
0
  6
Continuous
100
AcDbLine
 10
220.376127
 20
248.244995
 30
0.0
 11
221.535729
 21
247.476487
 31
0.0
  0
LINE
  5
45F
100
AcDbEntity
  8
0
370
    -3
390
0
  6
Continuous
100
AcDbLine
 10
219.385158
 20
249.190124
 30
0.0
 11
220.376127
 21
248.244995
 31
0.0
  0
ARC
  5
460
100
AcDbEntity
  8
0
370
    -3
390
0
  6
Continuous
100
AcDbCircle
 10
216.374506
 20
246.556499
 30
0.0
 40
4.0
100
AcDbArc
 50
41.178434
 51
90.0
  0
LINE
  5
461
100
AcDbEntity
  8
0
370
    -3
390
0
  6
Continuous
100
AcDbLine
 10
179.184725
 20
169.383936
 30
0.0
 11
179.184725
 21
250.986656
 31
0.0
  0
ARC
  5
462
100
AcDbEntity
  8
0
370
    -3
390
0
  6
Continuous
100
AcDbCircle
 10
190.584725
 20
245.556499
 30
0.0
 40
5.0
100
AcDbArc
 50
90.0
 51
180.0
  0
ARC
  5
463
100
AcDbEntity
  8
0
370
    -3
390
0
  6
Continuous
100
AcDbCircle
 10
190.184725
 20
249.766446
 30
0.0
 40
11.0
100
AcDbArc
 50
90.0
 51
180.0
  0
ARC
  5
464
100
AcDbEntity
  8
0
370
    -3
390
0
  6
Continuous
100
AcDbCircle
 10
190.184725
 20
250.986656
 30
0.0
 40
11.0
100
AcDbArc
 50
90.0
 51
180.0
  0
LINE
  5
465
100
AcDbEntity
  8
0
370
    -3
390
0
  6
Continuous
100
AcDbLine
 10
190.184725
 20
260.766446
 30
0.0
 11
225.634725
 21
260.766446
 31
0.0
  0
LINE
  5
466
100
AcDbEntity
  8
0
370
    -3
390
0
  6
Continuous
100
AcDbLine
 10
190.184725
 20
261.986656
 30
0.0
 11
225.634725
 21
261.986656
 31
0.0
  0
LINE
  5
467
100
AcDbEntity
  8
0
370
    -3
390
0
  6
Continuous
100
AcDbLine
 10
185.584725
 20
169.478755
 30
0.0
 11
185.584725
 21
245.556499
 31
0.0
  0
LINE
  5
468
100
AcDbEntity
  8
0
370
    -3
390
0
  6
Continuous
100
AcDbLine
 10
225.634725
 20
164.478755
 30
0.0
 11
190.584725
 21
164.478755
 31
0.0
  0
ARC
  5
469
100
AcDbEntity
  8
0
370
    -3
390
0
  6
Continuous
100
AcDbCircle
 10
190.584725
 20
169.478755
 30
0.0
 40
5.0
100
AcDbArc
 50
180.0
 51
270.0
  0
LINE
  5
46A
100
AcDbEntity
  8
0
370
    -3
390
0
  6
Continuous
100
AcDbLine
 10
225.634725
 20
170.980544
 30
0.0
 11
190.584725
 21
170.980544
 31
0.0
  0
ARC
  5
46B
100
AcDbEntity
  8
0
370
    -3
390
0
  6
Continuous
100
AcDbCircle
 10
190.584725
 20
175.980544
 30
0.0
 40
5.0
100
AcDbArc
 50
180.0
 51
270.0
  0
ARC
  5
46C
100
AcDbEntity
  8
0
370
    -3
390
0
  6
Continuous
100
AcDbCircle
 10
190.184725
 20
169.383936
 30
0.0
 40
11.0
100
AcDbArc
 50
180.0
 51
270.0
  0
LINE
  5
46D
100
AcDbEntity
  8
0
370
    -3
390
0
  6
Continuous
100
AcDbLine
 10
190.184725
 20
158.383936
 30
0.0
 11
225.634725
 21
158.383936
 31
0.0
  0
LINE
  5
46E
100
AcDbEntity
  8
0
370
    -3
390
0
  6
Continuous
100
AcDbLine
 10
273.134725
 20
124.022763
 30
0.0
 11
273.134725
 21
122.736666
 31
0.0
  0
LINE
  5
46F
100
AcDbEntity
  8
0
370
    -3
390
0
  6
Continuous
100
AcDbLine
 10
261.134725
 20
124.022763
 30
0.0
 11
261.134725
 21
122.736666
 31
0.0
  0
LINE
  5
470
100
AcDbEntity
  8
0
370
    -3
390
0
  6
Continuous
100
AcDbLine
 10
273.051981
 20
122.051637
 30
0.0
 11
273.134725
 21
122.736666
 31
0.0
  0
LINE
  5
471
100
AcDbEntity
  8
0
370
    -3
390
0
  6
Continuous
100
AcDbLine
 10
272.806032
 20
121.385501
 30
0.0
 11
273.051981
 21
122.051637
 31
0.0
  0
LINE
  5
472
100
AcDbEntity
  8
0
370
    -3
390
0
  6
Continuous
100
AcDbLine
 10
272.403661
 20
120.756633
 30
0.0
 11
272.806032
 21
121.385501
 31
0.0
  0
LINE
  5
473
100
AcDbEntity
  8
0
370
    -3
390
0
  6
Continuous
100
AcDbLine
 10
271.855966
 20
120.182376
 30
0.0
 11
272.403661
 21
120.756633
 31
0.0
  0
LINE
  5
474
100
AcDbEntity
  8
0
370
    -3
390
0
  6
Continuous
100
AcDbLine
 10
271.178053
 20
119.67857
 30
0.0
 11
271.855966
 21
120.182376
 31
0.0
  0
LINE
  5
475
100
AcDbEntity
  8
0
370
    -3
390
0
  6
Continuous
100
AcDbLine
 10
261.250013
 20
124.850462
 30
0.0
 11
261.134725
 21
124.022763
 31
0.0
  0
LINE
  5
476
100
AcDbEntity
  8
0
370
    -3
390
0
  6
Continuous
100
AcDbLine
 10
261.591447
 20
125.646352
 30
0.0
 11
261.250013
 21
124.850462
 31
0.0
  0
LINE
  5
477
100
AcDbEntity
  8
0
370
    -3
390
0
  6
Continuous
100
AcDbLine
 10
262.145907
 20
126.379848
 30
0.0
 11
261.591447
 21
125.646352
 31
0.0
  0
LINE
  5
478
100
AcDbEntity
  8
0
370
    -3
390
0
  6
Continuous
100
AcDbLine
 10
262.892084
 20
127.022763
 30
0.0
 11
262.145907
 21
126.379848
 31
0.0
  0
LINE
  5
479
100
AcDbEntity
  8
0
370
    -3
390
0
  6
Continuous
100
AcDbLine
 10
263.801303
 20
127.55039
 30
0.0
 11
262.892084
 21
127.022763
 31
0.0
  0
LINE
  5
47A
100
AcDbEntity
  8
0
370
    -3
390
0
  6
Continuous
100
AcDbLine
 10
264.838624
 20
127.942452
 30
0.0
 11
263.801303
 21
127.55039
 31
0.0
  0
LINE
  5
47B
100
AcDbEntity
  8
0
370
    -3
390
0
  6
Continuous
100
AcDbLine
 10
265.964183
 20
128.183883
 30
0.0
 11
264.838624
 21
127.942452
 31
0.0
  0
LINE
  5
47C
100
AcDbEntity
  8
0
370
    -3
390
0
  6
Continuous
100
AcDbLine
 10
267.134725
 20
128.265404
 30
0.0
 11
265.964183
 21
128.183883
 31
0.0
  0
LINE
  5
47D
100
AcDbEntity
  8
0
370
    -3
390
0
  6
Continuous
100
AcDbLine
 10
268.305266
 20
128.183883
 30
0.0
 11
267.134725
 21
128.265404
 31
0.0
  0
LINE
  5
47E
100
AcDbEntity
  8
0
370
    -3
390
0
  6
Continuous
100
AcDbLine
 10
269.430825
 20
127.942452
 30
0.0
 11
268.305266
 21
128.183883
 31
0.0
  0
LINE
  5
47F
100
AcDbEntity
  8
0
370
    -3
390
0
  6
Continuous
100
AcDbLine
 10
270.468146
 20
127.55039
 30
0.0
 11
269.430825
 21
127.942452
 31
0.0
  0
LINE
  5
480
100
AcDbEntity
  8
0
370
    -3
390
0
  6
Continuous
100
AcDbLine
 10
271.377365
 20
127.022763
 30
0.0
 11
270.468146
 21
127.55039
 31
0.0
  0
LINE
  5
481
100
AcDbEntity
  8
0
370
    -3
390
0
  6
Continuous
100
AcDbLine
 10
272.123542
 20
126.379848
 30
0.0
 11
271.377365
 21
127.022763
 31
0.0
  0
LINE
  5
482
100
AcDbEntity
  8
0
370
    -3
390
0
  6
Continuous
100
AcDbLine
 10
272.678002
 20
125.646352
 30
0.0
 11
272.123542
 21
126.379848
 31
0.0
  0
LINE
  5
483
100
AcDbEntity
  8
0
370
    -3
390
0
  6
Continuous
100
AcDbLine
 10
273.019436
 20
124.850462
 30
0.0
 11
272.678002
 21
125.646352
 31
0.0
  0
LINE
  5
484
100
AcDbEntity
  8
0
370
    -3
390
0
  6
Continuous
100
AcDbLine
 10
273.134725
 20
124.022763
 30
0.0
 11
273.019436
 21
124.850462
 31
0.0
  0
LINE
  5
485
100
AcDbEntity
  8
0
370
    -3
390
0
  6
Continuous
100
AcDbLine
 10
272.134725
 20
122.35027
 30
0.0
 11
272.134725
 21
122.067427
 31
0.0
  0
LINE
  5
486
100
AcDbEntity
  8
0
370
    -3
390
0
  6
Continuous
100
AcDbLine
 10
262.134725
 20
122.35027
 30
0.0
 11
262.134725
 21
122.067427
 31
0.0
  0
LINE
  5
487
100
AcDbEntity
  8
0
370
    -3
390
0
  6
Continuous
100
AcDbLine
 10
262.418036
 20
120.894215
 30
0.0
 11
262.818547
 21
120.282685
 31
0.0
  0
LINE
  5
488
100
AcDbEntity
  8
0
370
    -3
390
0
  6
Continuous
100
AcDbLine
 10
262.188901
 20
121.548373
 30
0.0
 11
262.418036
 21
120.894215
 31
0.0
  0
LINE
  5
489
100
AcDbEntity
  8
0
370
    -3
390
0
  6
Continuous
100
AcDbLine
 10
262.139468
 20
122.221391
 30
0.0
 11
262.188901
 21
121.548373
 31
0.0
  0
LINE
  5
48A
100
AcDbEntity
  8
0
370
    -3
390
0
  6
Continuous
100
AcDbLine
 10
262.271531
 20
122.888814
 30
0.0
 11
262.139468
 21
122.221391
 31
0.0
  0
LINE
  5
48B
100
AcDbEntity
  8
0
370
    -3
390
0
  6
Continuous
100
AcDbLine
 10
262.580294
 20
123.526393
 30
0.0
 11
262.271531
 21
122.888814
 31
0.0
  0
LINE
  5
48C
100
AcDbEntity
  8
0
370
    -3
390
0
  6
Continuous
100
AcDbLine
 10
263.054537
 20
124.110962
 30
0.0
 11
262.580294
 21
123.526393
 31
0.0
  0
LINE
  5
48D
100
AcDbEntity
  8
0
370
    -3
390
0
  6
Continuous
100
AcDbLine
 10
263.677029
 20
124.621281
 30
0.0
 11
263.054537
 21
124.110962
 31
0.0
  0
LINE
  5
48E
100
AcDbEntity
  8
0
370
    -3
390
0
  6
Continuous
100
AcDbLine
 10
264.425153
 20
125.038809
 30
0.0
 11
263.677029
 21
124.621281
 31
0.0
  0
LINE
  5
48F
100
AcDbEntity
  8
0
370
    -3
390
0
  6
Continuous
100
AcDbLine
 10
265.271727
 20
125.348375
 30
0.0
 11
264.425153
 21
125.038809
 31
0.0
  0
LINE
  5
490
100
AcDbEntity
  8
0
370
    -3
390
0
  6
Continuous
100
AcDbLine
 10
266.18599
 20
125.538731
 30
0.0
 11
265.271727
 21
125.348375
 31
0.0
  0
LINE
  5
491
100
AcDbEntity
  8
0
370
    -3
390
0
  6
Continuous
100
AcDbLine
 10
267.134725
 20
125.602961
 30
0.0
 11
266.18599
 21
125.538731
 31
0.0
  0
LINE
  5
492
100
AcDbEntity
  8
0
370
    -3
390
0
  6
Continuous
100
AcDbLine
 10
268.083459
 20
125.538731
 30
0.0
 11
267.134725
 21
125.602961
 31
0.0
  0
LINE
  5
493
100
AcDbEntity
  8
0
370
    -3
390
0
  6
Continuous
100
AcDbLine
 10
268.997723
 20
125.348375
 30
0.0
 11
268.083459
 21
125.538731
 31
0.0
  0
LINE
  5
494
100
AcDbEntity
  8
0
370
    -3
390
0
  6
Continuous
100
AcDbLine
 10
269.844296
 20
125.038809
 30
0.0
 11
268.997723
 21
125.348375
 31
0.0
  0
LINE
  5
495
100
AcDbEntity
  8
0
370
    -3
390
0
  6
Continuous
100
AcDbLine
 10
270.59242
 20
124.621281
 30
0.0
 11
269.844296
 21
125.038809
 31
0.0
  0
LINE
  5
496
100
AcDbEntity
  8
0
370
    -3
390
0
  6
Continuous
100
AcDbLine
 10
271.214912
 20
124.110962
 30
0.0
 11
270.59242
 21
124.621281
 31
0.0
  0
LINE
  5
497
100
AcDbEntity
  8
0
370
    -3
390
0
  6
Continuous
100
AcDbLine
 10
271.689155
 20
123.526393
 30
0.0
 11
271.214912
 21
124.110962
 31
0.0
  0
LINE
  5
498
100
AcDbEntity
  8
0
370
    -3
390
0
  6
Continuous
100
AcDbLine
 10
271.997918
 20
122.888814
 30
0.0
 11
271.689155
 21
123.526393
 31
0.0
  0
LINE
  5
499
100
AcDbEntity
  8
0
370
    -3
390
0
  6
Continuous
100
AcDbLine
 10
272.129981
 20
122.221391
 30
0.0
 11
271.997918
 21
122.888814
 31
0.0
  0
LINE
  5
49A
100
AcDbEntity
  8
0
370
    -3
390
0
  6
Continuous
100
AcDbLine
 10
272.080548
 20
121.548373
 30
0.0
 11
272.129981
 21
122.221391
 31
0.0
  0
LINE
  5
49B
100
AcDbEntity
  8
0
370
    -3
390
0
  6
Continuous
100
AcDbLine
 10
271.851413
 20
120.894215
 30
0.0
 11
272.080548
 21
121.548373
 31
0.0
  0
LINE
  5
49C
100
AcDbEntity
  8
0
370
    -3
390
0
  6
Continuous
100
AcDbLine
 10
271.450902
 20
120.282685
 30
0.0
 11
271.851413
 21
120.894215
 31
0.0
  0
LINE
  5
49D
100
AcDbEntity
  8
0
370
    -3
390
0
  6
Continuous
100
AcDbLine
 10
262.230798
 20
123.095198
 30
0.0
 11
262.134725
 21
122.35027
 31
0.0
  0
LINE
  5
49E
100
AcDbEntity
  8
0
370
    -3
390
0
  6
Continuous
100
AcDbLine
 10
262.515327
 20
123.811499
 30
0.0
 11
262.230798
 21
123.095198
 31
0.0
  0
LINE
  5
49F
100
AcDbEntity
  8
0
370
    -3
390
0
  6
Continuous
100
AcDbLine
 10
262.977377
 20
124.471646
 30
0.0
 11
262.515327
 21
123.811499
 31
0.0
  0
LINE
  5
4A0
100
AcDbEntity
  8
0
370
    -3
390
0
  6
Continuous
100
AcDbLine
 10
263.599191
 20
125.05027
 30
0.0
 11
262.977377
 21
124.471646
 31
0.0
  0
LINE
  5
4A1
100
AcDbEntity
  8
0
370
    -3
390
0
  6
Continuous
100
AcDbLine
 10
264.356873
 20
125.525134
 30
0.0
 11
263.599191
 21
125.05027
 31
0.0
  0
LINE
  5
4A2
100
AcDbEntity
  8
0
370
    -3
390
0
  6
Continuous
100
AcDbLine
 10
265.221307
 20
125.87799
 30
0.0
 11
264.356873
 21
125.525134
 31
0.0
  0
LINE
  5
4A3
100
AcDbEntity
  8
0
370
    -3
390
0
  6
Continuous
100
AcDbLine
 10
266.159273
 20
126.095278
 30
0.0
 11
265.221307
 21
125.87799
 31
0.0
  0
LINE
  5
4A4
100
AcDbEntity
  8
0
370
    -3
390
0
  6
Continuous
100
AcDbLine
 10
267.134725
 20
126.168647
 30
0.0
 11
266.159273
 21
126.095278
 31
0.0
  0
LINE
  5
4A5
100
AcDbEntity
  8
0
370
    -3
390
0
  6
Continuous
100
AcDbLine
 10
268.110176
 20
126.095278
 30
0.0
 11
267.134725
 21
126.168647
 31
0.0
  0
LINE
  5
4A6
100
AcDbEntity
  8
0
370
    -3
390
0
  6
Continuous
100
AcDbLine
 10
269.048142
 20
125.87799
 30
0.0
 11
268.110176
 21
126.095278
 31
0.0
  0
LINE
  5
4A7
100
AcDbEntity
  8
0
370
    -3
390
0
  6
Continuous
100
AcDbLine
 10
269.912576
 20
125.525134
 30
0.0
 11
269.048142
 21
125.87799
 31
0.0
  0
LINE
  5
4A8
100
AcDbEntity
  8
0
370
    -3
390
0
  6
Continuous
100
AcDbLine
 10
270.670258
 20
125.05027
 30
0.0
 11
269.912576
 21
125.525134
 31
0.0
  0
LINE
  5
4A9
100
AcDbEntity
  8
0
370
    -3
390
0
  6
Continuous
100
AcDbLine
 10
271.292073
 20
124.471646
 30
0.0
 11
270.670258
 21
125.05027
 31
0.0
  0
LINE
  5
4AA
100
AcDbEntity
  8
0
370
    -3
390
0
  6
Continuous
100
AcDbLine
 10
271.754122
 20
123.811499
 30
0.0
 11
271.292073
 21
124.471646
 31
0.0
  0
LINE
  5
4AB
100
AcDbEntity
  8
0
370
    -3
390
0
  6
Continuous
100
AcDbLine
 10
272.038651
 20
123.095198
 30
0.0
 11
271.754122
 21
123.811499
 31
0.0
  0
LINE
  5
4AC
100
AcDbEntity
  8
0
370
    -3
390
0
  6
Continuous
100
AcDbLine
 10
272.134725
 20
122.35027
 30
0.0
 11
272.038651
 21
123.095198
 31
0.0
  0
LINE
  5
4AD
100
AcDbEntity
  8
0
370
    -3
390
0
  6
Continuous
100
AcDbLine
 10
271.548258
 20
120.622624
 30
0.0
 11
271.634725
 21
121.377915
 31
0.0
  0
LINE
  5
4AE
100
AcDbEntity
  8
0
370
    -3
390
0
  6
Continuous
100
AcDbLine
 10
271.292182
 20
119.896359
 30
0.0
 11
271.548258
 21
120.622624
 31
0.0
  0
LINE
  5
4AF
100
AcDbEntity
  8
0
370
    -3
390
0
  6
Continuous
100
AcDbLine
 10
270.876338
 20
119.227029
 30
0.0
 11
271.292182
 21
119.896359
 31
0.0
  0
LINE
  5
4B0
100
AcDbEntity
  8
0
370
    -3
390
0
  6
Continuous
100
AcDbLine
 10
270.316705
 20
118.640356
 30
0.0
 11
270.876338
 21
119.227029
 31
0.0
  0
LINE
  5
4B1
100
AcDbEntity
  8
0
370
    -3
390
0
  6
Continuous
100
AcDbLine
 10
269.634791
 20
118.158886
 30
0.0
 11
270.316705
 21
118.640356
 31
0.0
  0
LINE
  5
4B2
100
AcDbEntity
  8
0
370
    -3
390
0
  6
Continuous
100
AcDbLine
 10
268.8568
 20
117.801122
 30
0.0
 11
269.634791
 21
118.158886
 31
0.0
  0
LINE
  5
4B3
100
AcDbEntity
  8
0
370
    -3
390
0
  6
Continuous
100
AcDbLine
 10
268.012631
 20
117.580812
 30
0.0
 11
268.8568
 21
117.801122
 31
0.0
  0
LINE
  5
4B4
100
AcDbEntity
  8
0
370
    -3
390
0
  6
Continuous
100
AcDbLine
 10
267.134725
 20
117.506422
 30
0.0
 11
268.012631
 21
117.580812
 31
0.0
  0
LINE
  5
4B5
100
AcDbEntity
  8
0
370
    -3
390
0
  6
Continuous
100
AcDbLine
 10
266.256818
 20
117.580812
 30
0.0
 11
267.134725
 21
117.506422
 31
0.0
  0
LINE
  5
4B6
100
AcDbEntity
  8
0
370
    -3
390
0
  6
Continuous
100
AcDbLine
 10
265.412649
 20
117.801122
 30
0.0
 11
266.256818
 21
117.580812
 31
0.0
  0
LINE
  5
4B7
100
AcDbEntity
  8
0
370
    -3
390
0
  6
Continuous
100
AcDbLine
 10
264.634659
 20
118.158886
 30
0.0
 11
265.412649
 21
117.801122
 31
0.0
  0
LINE
  5
4B8
100
AcDbEntity
  8
0
370
    -3
390
0
  6
Continuous
100
AcDbLine
 10
263.952744
 20
118.640356
 30
0.0
 11
264.634659
 21
118.158886
 31
0.0
  0
LINE
  5
4B9
100
AcDbEntity
  8
0
370
    -3
390
0
  6
Continuous
100
AcDbLine
 10
263.393111
 20
119.227029
 30
0.0
 11
263.952744
 21
118.640356
 31
0.0
  0
LINE
  5
4BA
100
AcDbEntity
  8
0
370
    -3
390
0
  6
Continuous
100
AcDbLine
 10
262.977267
 20
119.896359
 30
0.0
 11
263.393111
 21
119.227029
 31
0.0
  0
LINE
  5
4BB
100
AcDbEntity
  8
0
370
    -3
390
0
  6
Continuous
100
AcDbLine
 10
262.721191
 20
120.622624
 30
0.0
 11
262.977267
 21
119.896359
 31
0.0
  0
LINE
  5
4BC
100
AcDbEntity
  8
0
370
    -3
390
0
  6
Continuous
100
AcDbLine
 10
262.634725
 20
121.377915
 30
0.0
 11
262.721191
 21
120.622624
 31
0.0
  0
LINE
  5
4BD
100
AcDbEntity
  8
0
370
    -3
390
0
  6
Continuous
100
AcDbLine
 10
262.721191
 20
122.133206
 30
0.0
 11
262.634725
 21
121.377915
 31
0.0
  0
LINE
  5
4BE
100
AcDbEntity
  8
0
370
    -3
390
0
  6
Continuous
100
AcDbLine
 10
262.977267
 20
122.859471
 30
0.0
 11
262.721191
 21
122.133206
 31
0.0
  0
LINE
  5
4BF
100
AcDbEntity
  8
0
370
    -3
390
0
  6
Continuous
100
AcDbLine
 10
263.393111
 20
123.528801
 30
0.0
 11
262.977267
 21
122.859471
 31
0.0
  0
LINE
  5
4C0
100
AcDbEntity
  8
0
370
    -3
390
0
  6
Continuous
100
AcDbLine
 10
263.952744
 20
124.115474
 30
0.0
 11
263.393111
 21
123.528801
 31
0.0
  0
LINE
  5
4C1
100
AcDbEntity
  8
0
370
    -3
390
0
  6
Continuous
100
AcDbLine
 10
264.634659
 20
124.596943
 30
0.0
 11
263.952744
 21
124.115474
 31
0.0
  0
LINE
  5
4C2
100
AcDbEntity
  8
0
370
    -3
390
0
  6
Continuous
100
AcDbLine
 10
265.412649
 20
124.954708
 30
0.0
 11
264.634659
 21
124.596943
 31
0.0
  0
LINE
  5
4C3
100
AcDbEntity
  8
0
370
    -3
390
0
  6
Continuous
100
AcDbLine
 10
266.256818
 20
125.175018
 30
0.0
 11
265.412649
 21
124.954708
 31
0.0
  0
LINE
  5
4C4
100
AcDbEntity
  8
0
370
    -3
390
0
  6
Continuous
100
AcDbLine
 10
267.134725
 20
125.249408
 30
0.0
 11
266.256818
 21
125.175018
 31
0.0
  0
LINE
  5
4C5
100
AcDbEntity
  8
0
370
    -3
390
0
  6
Continuous
100
AcDbLine
 10
268.012631
 20
125.175018
 30
0.0
 11
267.134725
 21
125.249408
 31
0.0
  0
LINE
  5
4C6
100
AcDbEntity
  8
0
370
    -3
390
0
  6
Continuous
100
AcDbLine
 10
268.8568
 20
124.954708
 30
0.0
 11
268.012631
 21
125.175018
 31
0.0
  0
LINE
  5
4C7
100
AcDbEntity
  8
0
370
    -3
390
0
  6
Continuous
100
AcDbLine
 10
269.634791
 20
124.596943
 30
0.0
 11
268.8568
 21
124.954708
 31
0.0
  0
LINE
  5
4C8
100
AcDbEntity
  8
0
370
    -3
390
0
  6
Continuous
100
AcDbLine
 10
270.316705
 20
124.115474
 30
0.0
 11
269.634791
 21
124.596943
 31
0.0
  0
LINE
  5
4C9
100
AcDbEntity
  8
0
370
    -3
390
0
  6
Continuous
100
AcDbLine
 10
270.876338
 20
123.528801
 30
0.0
 11
270.316705
 21
124.115474
 31
0.0
  0
LINE
  5
4CA
100
AcDbEntity
  8
0
370
    -3
390
0
  6
Continuous
100
AcDbLine
 10
271.292182
 20
122.859471
 30
0.0
 11
270.876338
 21
123.528801
 31
0.0
  0
LINE
  5
4CB
100
AcDbEntity
  8
0
370
    -3
390
0
  6
Continuous
100
AcDbLine
 10
271.548258
 20
122.133206
 30
0.0
 11
271.292182
 21
122.859471
 31
0.0
  0
LINE
  5
4CC
100
AcDbEntity
  8
0
370
    -3
390
0
  6
Continuous
100
AcDbLine
 10
271.634725
 20
121.377915
 30
0.0
 11
271.548258
 21
122.133206
 31
0.0
  0
LINE
  5
4CD
100
AcDbEntity
  8
0
370
    -3
390
0
  6
Continuous
100
AcDbLine
 10
262.413484
 20
120.182376
 30
0.0
 11
263.091396
 21
119.67857
 31
0.0
  0
LINE
  5
4CE
100
AcDbEntity
  8
0
370
    -3
390
0
  6
Continuous
100
AcDbLine
 10
261.865789
 20
120.756633
 30
0.0
 11
262.413484
 21
120.182376
 31
0.0
  0
LINE
  5
4CF
100
AcDbEntity
  8
0
370
    -3
390
0
  6
Continuous
100
AcDbLine
 10
261.463418
 20
121.385501
 30
0.0
 11
261.865789
 21
120.756633
 31
0.0
  0
LINE
  5
4D0
100
AcDbEntity
  8
0
370
    -3
390
0
  6
Continuous
100
AcDbLine
 10
261.217468
 20
122.051637
 30
0.0
 11
261.463418
 21
121.385501
 31
0.0
  0
LINE
  5
4D1
100
AcDbEntity
  8
0
370
    -3
390
0
  6
Continuous
100
AcDbLine
 10
261.134725
 20
122.736666
 30
0.0
 11
261.217468
 21
122.051637
 31
0.0
  0
LINE
  5
4D2
100
AcDbEntity
  8
0
370
    -3
390
0
  6
Continuous
100
AcDbLine
 10
261.250013
 20
123.544162
 30
0.0
 11
261.134725
 21
122.736666
 31
0.0
  0
LINE
  5
4D3
100
AcDbEntity
  8
0
370
    -3
390
0
  6
Continuous
100
AcDbLine
 10
261.591447
 20
124.320626
 30
0.0
 11
261.250013
 21
123.544162
 31
0.0
  0
LINE
  5
4D4
100
AcDbEntity
  8
0
370
    -3
390
0
  6
Continuous
100
AcDbLine
 10
262.145907
 20
125.03622
 30
0.0
 11
261.591447
 21
124.320626
 31
0.0
  0
LINE
  5
4D5
100
AcDbEntity
  8
0
370
    -3
390
0
  6
Continuous
100
AcDbLine
 10
262.892084
 20
125.663443
 30
0.0
 11
262.145907
 21
125.03622
 31
0.0
  0
LINE
  5
4D6
100
AcDbEntity
  8
0
370
    -3
390
0
  6
Continuous
100
AcDbLine
 10
263.801303
 20
126.178191
 30
0.0
 11
262.892084
 21
125.663443
 31
0.0
  0
LINE
  5
4D7
100
AcDbEntity
  8
0
370
    -3
390
0
  6
Continuous
100
AcDbLine
 10
264.838624
 20
126.560684
 30
0.0
 11
263.801303
 21
126.178191
 31
0.0
  0
LINE
  5
4D8
100
AcDbEntity
  8
0
370
    -3
390
0
  6
Continuous
100
AcDbLine
 10
265.964183
 20
126.796222
 30
0.0
 11
264.838624
 21
126.560684
 31
0.0
  0
LINE
  5
4D9
100
AcDbEntity
  8
0
370
    -3
390
0
  6
Continuous
100
AcDbLine
 10
267.134725
 20
126.875753
 30
0.0
 11
265.964183
 21
126.796222
 31
0.0
  0
LINE
  5
4DA
100
AcDbEntity
  8
0
370
    -3
390
0
  6
Continuous
100
AcDbLine
 10
268.305266
 20
126.796222
 30
0.0
 11
267.134725
 21
126.875753
 31
0.0
  0
LINE
  5
4DB
100
AcDbEntity
  8
0
370
    -3
390
0
  6
Continuous
100
AcDbLine
 10
269.430825
 20
126.560684
 30
0.0
 11
268.305266
 21
126.796222
 31
0.0
  0
LINE
  5
4DC
100
AcDbEntity
  8
0
370
    -3
390
0
  6
Continuous
100
AcDbLine
 10
270.468146
 20
126.178191
 30
0.0
 11
269.430825
 21
126.560684
 31
0.0
  0
LINE
  5
4DD
100
AcDbEntity
  8
0
370
    -3
390
0
  6
Continuous
100
AcDbLine
 10
271.377365
 20
125.663443
 30
0.0
 11
270.468146
 21
126.178191
 31
0.0
  0
LINE
  5
4DE
100
AcDbEntity
  8
0
370
    -3
390
0
  6
Continuous
100
AcDbLine
 10
272.123542
 20
125.03622
 30
0.0
 11
271.377365
 21
125.663443
 31
0.0
  0
LINE
  5
4DF
100
AcDbEntity
  8
0
370
    -3
390
0
  6
Continuous
100
AcDbLine
 10
272.678002
 20
124.320626
 30
0.0
 11
272.123542
 21
125.03622
 31
0.0
  0
LINE
  5
4E0
100
AcDbEntity
  8
0
370
    -3
390
0
  6
Continuous
100
AcDbLine
 10
273.019436
 20
123.544162
 30
0.0
 11
272.678002
 21
124.320626
 31
0.0
  0
LINE
  5
4E1
100
AcDbEntity
  8
0
370
    -3
390
0
  6
Continuous
100
AcDbLine
 10
273.134725
 20
122.736666
 30
0.0
 11
273.019436
 21
123.544162
 31
0.0
  0
LINE
  5
4E2
100
AcDbEntity
  8
0
370
    -3
390
0
  6
Continuous
100
AcDbLine
 10
267.134725
 20
119.733974
 30
0.0
 11
269.134725
 21
118.438441
 31
0.0
  0
LINE
  5
4E3
100
AcDbEntity
  8
0
370
    -3
390
0
  6
Continuous
100
AcDbLine
 10
267.134725
 20
119.733974
 30
0.0
 11
269.134725
 21
121.266869
 31
0.0
  0
LINE
  5
4E4
100
AcDbEntity
  8
0
370
    -3
390
0
  6
Continuous
100
AcDbLine
 10
267.134725
 20
119.733974
 30
0.0
 11
265.134725
 21
121.266869
 31
0.0
  0
LINE
  5
4E5
100
AcDbEntity
  8
0
370
    -3
390
0
  6
Continuous
100
AcDbLine
 10
267.134725
 20
119.733974
 30
0.0
 11
265.134725
 21
118.438441
 31
0.0
  0
ARC
  5
4E6
100
AcDbEntity
  8
0
370
    -3
390
0
  6
Continuous
100
AcDbCircle
 10
318.634725
 20
283.773285
 30
0.0
 40
5.0
100
AcDbArc
 50
0.0
 51
60.0
  0
LINE
  5
4E7
100
AcDbEntity
  8
0
370
    -3
390
0
  6
Continuous
100
AcDbLine
 10
240.634725
 20
303.980544
 30
0.0
 11
277.289824
 21
303.980544
 31
0.0
  0
ARC
  5
4E8
100
AcDbEntity
  8
0
370
    -3
390
0
  6
Continuous
100
AcDbCircle
 10
277.289824
 20
242.980544
 30
0.0
 40
61.0
100
AcDbArc
 50
60.0
 51
90.0
  0
LINE
  5
4E9
100
AcDbEntity
  8
0
370
    -3
390
0
  6
Continuous
100
AcDbLine
 10
321.134725
 20
288.103412
 30
0.0
 11
307.789824
 21
295.808094
 31
0.0
  0
LINE
  5
4EA
100
AcDbEntity
  8
0
370
    -3
390
0
  6
Continuous
100
AcDbLine
 10
323.634725
 20
283.773285
 30
0.0
 11
323.634725
 21
200.980544
 31
0.0
  0
ARC
  5
4EB
100
AcDbEntity
  8
0
370
    -3
390
0
  6
Continuous
100
AcDbCircle
 10
318.634725
 20
118.187803
 30
0.0
 40
5.0
100
AcDbArc
 50
300.0
 51
0.0
  0
LINE
  5
4EC
100
AcDbEntity
  8
0
370
    -3
390
0
  6
Continuous
100
AcDbLine
 10
240.634725
 20
97.980544
 30
0.0
 11
277.289824
 21
97.980544
 31
0.0
  0
ARC
  5
4ED
100
AcDbEntity
  8
0
370
    -3
390
0
  6
Continuous
100
AcDbCircle
 10
277.289824
 20
158.980544
 30
0.0
 40
61.0
100
AcDbArc
 50
270.0
 51
300.0
  0
LINE
  5
4EE
100
AcDbEntity
  8
0
370
    -3
390
0
  6
Continuous
100
AcDbLine
 10
321.134725
 20
113.857676
 30
0.0
 11
307.789824
 21
106.152994
 31
0.0
  0
LINE
  5
4EF
100
AcDbEntity
  8
0
370
    -3
390
0
  6
Continuous
100
AcDbLine
 10
323.634725
 20
118.187803
 30
0.0
 11
323.634725
 21
200.980544
 31
0.0
  0
LINE
  5
4F0
100
AcDbEntity
  8
0
370
    -3
390
0
  6
DIVIDE
100
AcDbLine
 10
243.634725
 20
170.980544
 30
0.0
 11
249.634725
 21
170.980544
 31
0.0
  0
LINE
  5
4F1
100
AcDbEntity
  8
0
370
    -3
390
0
  6
Continuous
100
AcDbLine
 10
240.634725
 20
103.980544
 30
0.0
 11
40.634725
 21
103.980544
 31
0.0
  0
LINE
  5
4F2
100
AcDbEntity
  8
0
370
    -3
390
0
  6
Continuous
100
AcDbLine
 10
240.634725
 20
100.980544
 30
0.0
 11
40.634725
 21
100.980544
 31
0.0
  0
LINE
  5
4F3
100
AcDbEntity
  8
0
370
    -3
390
0
  6
Continuous
100
AcDbLine
 10
240.634725
 20
105.480544
 30
0.0
 11
40.634725
 21
105.480544
 31
0.0
  0
LINE
  5
4F4
100
AcDbEntity
  8
0
370
    -3
390
0
  6
Continuous
100
AcDbLine
 10
240.634725
 20
107.980544
 30
0.0
 11
40.634725
 21
107.980544
 31
0.0
  0
LINE
  5
4F5
100
AcDbEntity
  8
0
370
    -3
390
0
  6
Continuous
100
AcDbLine
 10
240.634725
 20
111.980544
 30
0.0
 11
40.634725
 21
111.980544
 31
0.0
  0
LINE
  5
4F6
100
AcDbEntity
  8
0
370
    -3
390
0
  6
Continuous
100
AcDbLine
 10
240.634725
 20
123.810821
 30
0.0
 11
40.634725
 21
123.810821
 31
0.0
  0
LINE
  5
4F7
100
AcDbEntity
  8
0
370
    -3
390
0
  6
Continuous
100
AcDbLine
 10
240.634725
 20
132.296102
 30
0.0
 11
40.634725
 21
132.296102
 31
0.0
  0
LINE
  5
4F8
100
AcDbEntity
  8
0
370
    -3
390
0
  6
Continuous
100
AcDbLine
 10
240.634725
 20
147.215972
 30
0.0
 11
40.634725
 21
147.215972
 31
0.0
  0
LINE
  5
4F9
100
AcDbEntity
  8
0
370
    -3
390
0
  6
Continuous
100
AcDbLine
 10
240.634725
 20
149.746883
 30
0.0
 11
40.634725
 21
149.746883
 31
0.0
  0
LINE
  5
4FA
100
AcDbEntity
  8
0
370
    -3
390
0
  6
Continuous
100
AcDbLine
 10
240.634725
 20
157.728295
 30
0.0
 11
40.634725
 21
157.728295
 31
0.0
  0
LINE
  5
4FB
100
AcDbEntity
  8
0
370
    -3
390
0
  6
Continuous
100
AcDbLine
 10
184.160174
 20
160.180416
 30
0.0
 11
40.634725
 21
160.180416
 31
0.0
  0
LINE
  5
4FC
100
AcDbEntity
  8
0
370
    -3
390
0
  6
Continuous
100
AcDbLine
 10
179.237405
 20
168.308668
 30
0.0
 11
40.634725
 21
168.308668
 31
0.0
  0
LINE
  5
4FD
100
AcDbEntity
  8
0
370
    -3
390
0
  6
Continuous
100
AcDbLine
 10
179.184725
 20
170.623767
 30
0.0
 11
40.634725
 21
170.623767
 31
0.0
  0
LINE
  5
4FE
100
AcDbEntity
  8
0
370
    -3
390
0
  6
Continuous
100
AcDbLine
 10
240.634725
 20
297.980544
 30
0.0
 11
40.634716
 21
297.980544
 31
0.0
  0
LINE
  5
4FF
100
AcDbEntity
  8
0
370
    -3
390
0
  6
Continuous
100
AcDbLine
 10
240.634725
 20
296.480544
 30
0.0
 11
40.634716
 21
296.480544
 31
0.0
  0
LINE
  5
500
100
AcDbEntity
  8
0
370
    -3
390
0
  6
Continuous
100
AcDbLine
 10
240.634725
 20
293.980544
 30
0.0
 11
40.634716
 21
293.980544
 31
0.0
  0
LINE
  5
501
100
AcDbEntity
  8
0
370
    -3
390
0
  6
Continuous
100
AcDbLine
 10
240.634725
 20
289.980544
 30
0.0
 11
40.634716
 21
289.980544
 31
0.0
  0
LINE
  5
502
100
AcDbEntity
  8
0
370
    -3
390
0
  6
Continuous
100
AcDbLine
 10
240.634725
 20
278.150267
 30
0.0
 11
40.634725
 21
278.150267
 31
0.0
  0
LINE
  5
503
100
AcDbEntity
  8
0
370
    -3
390
0
  6
Continuous
100
AcDbLine
 10
240.634725
 20
269.664986
 30
0.0
 11
40.634725
 21
269.664986
 31
0.0
  0
LINE
  5
504
100
AcDbEntity
  8
0
370
    -3
390
0
  6
Continuous
100
AcDbLine
 10
179.237405
 20
233.65242
 30
0.0
 11
40.634725
 21
233.65242
 31
0.0
  0
LINE
  5
505
100
AcDbEntity
  8
0
370
    -3
390
0
  6
Continuous
100
AcDbLine
 10
179.184725
 20
231.337321
 30
0.0
 11
40.634725
 21
231.337321
 31
0.0
  0
LINE
  5
506
100
AcDbEntity
  8
0
370
    -3
390
0
  6
Continuous
100
AcDbLine
 10
240.634725
 20
300.980544
 30
0.0
 11
40.634716
 21
300.980544
 31
0.0
  0
LINE
  5
507
100
AcDbEntity
  8
0
370
    -3
390
0
  6
Continuous
100
AcDbLine
 10
179.184725
 20
241.780672
 30
0.0
 11
40.634725
 21
241.780672
 31
0.0
  0
LINE
  5
508
100
AcDbEntity
  8
0
370
    -3
390
0
  6
Continuous
100
AcDbLine
 10
179.184725
 20
244.232793
 30
0.0
 11
40.634725
 21
244.232793
 31
0.0
  0
LINE
  5
509
100
AcDbEntity
  8
0
370
    -3
390
0
  6
Continuous
100
AcDbLine
 10
179.253434
 20
252.214205
 30
0.0
 11
40.634725
 21
252.214205
 31
0.0
  0
LINE
  5
50A
100
AcDbEntity
  8
0
370
    -3
390
0
  6
Continuous
100
AcDbLine
 10
179.846738
 20
254.745116
 30
0.0
 11
40.634725
 21
254.745116
 31
0.0
  0
LINE
  5
50B
100
AcDbEntity
  8
0
370
    -3
390
0
  6
Continuous
100
AcDbLine
 10
273.134725
 20
277.938325
 30
0.0
 11
273.134725
 21
279.224422
 31
0.0
  0
LINE
  5
50C
100
AcDbEntity
  8
0
370
    -3
390
0
  6
Continuous
100
AcDbLine
 10
261.134725
 20
277.938325
 30
0.0
 11
261.134725
 21
279.224422
 31
0.0
  0
LINE
  5
50D
100
AcDbEntity
  8
0
370
    -3
390
0
  6
Continuous
100
AcDbLine
 10
271.855966
 20
281.778712
 30
0.0
 11
271.178053
 21
282.282518
 31
0.0
  0
LINE
  5
50E
100
AcDbEntity
  8
0
370
    -3
390
0
  6
Continuous
100
AcDbLine
 10
272.403661
 20
281.204455
 30
0.0
 11
271.855966
 21
281.778712
 31
0.0
  0
LINE
  5
50F
100
AcDbEntity
  8
0
370
    -3
390
0
  6
Continuous
100
AcDbLine
 10
272.806032
 20
280.575587
 30
0.0
 11
272.403661
 21
281.204455
 31
0.0
  0
LINE
  5
510
100
AcDbEntity
  8
0
370
    -3
390
0
  6
Continuous
100
AcDbLine
 10
273.051981
 20
279.909451
 30
0.0
 11
272.806032
 21
280.575587
 31
0.0
  0
LINE
  5
511
100
AcDbEntity
  8
0
370
    -3
390
0
  6
Continuous
100
AcDbLine
 10
273.134725
 20
279.224422
 30
0.0
 11
273.051981
 21
279.909451
 31
0.0
  0
LINE
  5
512
100
AcDbEntity
  8
0
370
    -3
390
0
  6
Continuous
100
AcDbLine
 10
273.019436
 20
277.110627
 30
0.0
 11
273.134725
 21
277.938325
 31
0.0
  0
LINE
  5
513
100
AcDbEntity
  8
0
370
    -3
390
0
  6
Continuous
100
AcDbLine
 10
272.678002
 20
276.314736
 30
0.0
 11
273.019436
 21
277.110627
 31
0.0
  0
LINE
  5
514
100
AcDbEntity
  8
0
370
    -3
390
0
  6
Continuous
100
AcDbLine
 10
272.123542
 20
275.58124
 30
0.0
 11
272.678002
 21
276.314736
 31
0.0
  0
LINE
  5
515
100
AcDbEntity
  8
0
370
    -3
390
0
  6
Continuous
100
AcDbLine
 10
271.377365
 20
274.938325
 30
0.0
 11
272.123542
 21
275.58124
 31
0.0
  0
LINE
  5
516
100
AcDbEntity
  8
0
370
    -3
390
0
  6
Continuous
100
AcDbLine
 10
270.468146
 20
274.410698
 30
0.0
 11
271.377365
 21
274.938325
 31
0.0
  0
LINE
  5
517
100
AcDbEntity
  8
0
370
    -3
390
0
  6
Continuous
100
AcDbLine
 10
269.430825
 20
274.018636
 30
0.0
 11
270.468146
 21
274.410698
 31
0.0
  0
LINE
  5
518
100
AcDbEntity
  8
0
370
    -3
390
0
  6
Continuous
100
AcDbLine
 10
268.305266
 20
273.777205
 30
0.0
 11
269.430825
 21
274.018636
 31
0.0
  0
LINE
  5
519
100
AcDbEntity
  8
0
370
    -3
390
0
  6
Continuous
100
AcDbLine
 10
267.134725
 20
273.695684
 30
0.0
 11
268.305266
 21
273.777205
 31
0.0
  0
LINE
  5
51A
100
AcDbEntity
  8
0
370
    -3
390
0
  6
Continuous
100
AcDbLine
 10
265.964183
 20
273.777205
 30
0.0
 11
267.134725
 21
273.695684
 31
0.0
  0
LINE
  5
51B
100
AcDbEntity
  8
0
370
    -3
390
0
  6
Continuous
100
AcDbLine
 10
264.838624
 20
274.018636
 30
0.0
 11
265.964183
 21
273.777205
 31
0.0
  0
LINE
  5
51C
100
AcDbEntity
  8
0
370
    -3
390
0
  6
Continuous
100
AcDbLine
 10
263.801303
 20
274.410698
 30
0.0
 11
264.838624
 21
274.018636
 31
0.0
  0
LINE
  5
51D
100
AcDbEntity
  8
0
370
    -3
390
0
  6
Continuous
100
AcDbLine
 10
262.892084
 20
274.938325
 30
0.0
 11
263.801303
 21
274.410698
 31
0.0
  0
LINE
  5
51E
100
AcDbEntity
  8
0
370
    -3
390
0
  6
Continuous
100
AcDbLine
 10
262.145907
 20
275.58124
 30
0.0
 11
262.892084
 21
274.938325
 31
0.0
  0
LINE
  5
51F
100
AcDbEntity
  8
0
370
    -3
390
0
  6
Continuous
100
AcDbLine
 10
261.591447
 20
276.314736
 30
0.0
 11
262.145907
 21
275.58124
 31
0.0
  0
LINE
  5
520
100
AcDbEntity
  8
0
370
    -3
390
0
  6
Continuous
100
AcDbLine
 10
261.250013
 20
277.110627
 30
0.0
 11
261.591447
 21
276.314736
 31
0.0
  0
LINE
  5
521
100
AcDbEntity
  8
0
370
    -3
390
0
  6
Continuous
100
AcDbLine
 10
261.134725
 20
277.938325
 30
0.0
 11
261.250013
 21
277.110627
 31
0.0
  0
LINE
  5
522
100
AcDbEntity
  8
0
370
    -3
390
0
  6
Continuous
100
AcDbLine
 10
272.134725
 20
279.610818
 30
0.0
 11
272.134725
 21
279.893661
 31
0.0
  0
LINE
  5
523
100
AcDbEntity
  8
0
370
    -3
390
0
  6
Continuous
100
AcDbLine
 10
262.134725
 20
279.610818
 30
0.0
 11
262.134725
 21
279.893661
 31
0.0
  0
LINE
  5
524
100
AcDbEntity
  8
0
370
    -3
390
0
  6
Continuous
100
AcDbLine
 10
271.851413
 20
281.066873
 30
0.0
 11
271.450902
 21
281.678403
 31
0.0
  0
LINE
  5
525
100
AcDbEntity
  8
0
370
    -3
390
0
  6
Continuous
100
AcDbLine
 10
272.080548
 20
280.412715
 30
0.0
 11
271.851413
 21
281.066873
 31
0.0
  0
LINE
  5
526
100
AcDbEntity
  8
0
370
    -3
390
0
  6
Continuous
100
AcDbLine
 10
272.129981
 20
279.739697
 30
0.0
 11
272.080548
 21
280.412715
 31
0.0
  0
LINE
  5
527
100
AcDbEntity
  8
0
370
    -3
390
0
  6
Continuous
100
AcDbLine
 10
271.997918
 20
279.072274
 30
0.0
 11
272.129981
 21
279.739697
 31
0.0
  0
LINE
  5
528
100
AcDbEntity
  8
0
370
    -3
390
0
  6
Continuous
100
AcDbLine
 10
271.689155
 20
278.434695
 30
0.0
 11
271.997918
 21
279.072274
 31
0.0
  0
LINE
  5
529
100
AcDbEntity
  8
0
370
    -3
390
0
  6
Continuous
100
AcDbLine
 10
271.214912
 20
277.850126
 30
0.0
 11
271.689155
 21
278.434695
 31
0.0
  0
LINE
  5
52A
100
AcDbEntity
  8
0
370
    -3
390
0
  6
Continuous
100
AcDbLine
 10
270.59242
 20
277.339807
 30
0.0
 11
271.214912
 21
277.850126
 31
0.0
  0
LINE
  5
52B
100
AcDbEntity
  8
0
370
    -3
390
0
  6
Continuous
100
AcDbLine
 10
269.844296
 20
276.922279
 30
0.0
 11
270.59242
 21
277.339807
 31
0.0
  0
LINE
  5
52C
100
AcDbEntity
  8
0
370
    -3
390
0
  6
Continuous
100
AcDbLine
 10
268.997723
 20
276.612713
 30
0.0
 11
269.844296
 21
276.922279
 31
0.0
  0
LINE
  5
52D
100
AcDbEntity
  8
0
370
    -3
390
0
  6
Continuous
100
AcDbLine
 10
268.083459
 20
276.422357
 30
0.0
 11
268.997723
 21
276.612713
 31
0.0
  0
LINE
  5
52E
100
AcDbEntity
  8
0
370
    -3
390
0
  6
Continuous
100
AcDbLine
 10
267.134725
 20
276.358127
 30
0.0
 11
268.083459
 21
276.422357
 31
0.0
  0
LINE
  5
52F
100
AcDbEntity
  8
0
370
    -3
390
0
  6
Continuous
100
AcDbLine
 10
266.18599
 20
276.422357
 30
0.0
 11
267.134725
 21
276.358127
 31
0.0
  0
LINE
  5
530
100
AcDbEntity
  8
0
370
    -3
390
0
  6
Continuous
100
AcDbLine
 10
265.271727
 20
276.612713
 30
0.0
 11
266.18599
 21
276.422357
 31
0.0
  0
LINE
  5
531
100
AcDbEntity
  8
0
370
    -3
390
0
  6
Continuous
100
AcDbLine
 10
264.425153
 20
276.922279
 30
0.0
 11
265.271727
 21
276.612713
 31
0.0
  0
LINE
  5
532
100
AcDbEntity
  8
0
370
    -3
390
0
  6
Continuous
100
AcDbLine
 10
263.677029
 20
277.339807
 30
0.0
 11
264.425153
 21
276.922279
 31
0.0
  0
LINE
  5
533
100
AcDbEntity
  8
0
370
    -3
390
0
  6
Continuous
100
AcDbLine
 10
263.054537
 20
277.850126
 30
0.0
 11
263.677029
 21
277.339807
 31
0.0
  0
LINE
  5
534
100
AcDbEntity
  8
0
370
    -3
390
0
  6
Continuous
100
AcDbLine
 10
262.580294
 20
278.434695
 30
0.0
 11
263.054537
 21
277.850126
 31
0.0
  0
LINE
  5
535
100
AcDbEntity
  8
0
370
    -3
390
0
  6
Continuous
100
AcDbLine
 10
262.271531
 20
279.072274
 30
0.0
 11
262.580294
 21
278.434695
 31
0.0
  0
LINE
  5
536
100
AcDbEntity
  8
0
370
    -3
390
0
  6
Continuous
100
AcDbLine
 10
262.139468
 20
279.739697
 30
0.0
 11
262.271531
 21
279.072274
 31
0.0
  0
LINE
  5
537
100
AcDbEntity
  8
0
370
    -3
390
0
  6
Continuous
100
AcDbLine
 10
262.188901
 20
280.412715
 30
0.0
 11
262.139468
 21
279.739697
 31
0.0
  0
LINE
  5
538
100
AcDbEntity
  8
0
370
    -3
390
0
  6
Continuous
100
AcDbLine
 10
262.418036
 20
281.066873
 30
0.0
 11
262.188901
 21
280.412715
 31
0.0
  0
LINE
  5
539
100
AcDbEntity
  8
0
370
    -3
390
0
  6
Continuous
100
AcDbLine
 10
262.818547
 20
281.678403
 30
0.0
 11
262.418036
 21
281.066873
 31
0.0
  0
LINE
  5
53A
100
AcDbEntity
  8
0
370
    -3
390
0
  6
Continuous
100
AcDbLine
 10
272.038651
 20
278.86589
 30
0.0
 11
272.134725
 21
279.610818
 31
0.0
  0
LINE
  5
53B
100
AcDbEntity
  8
0
370
    -3
390
0
  6
Continuous
100
AcDbLine
 10
271.754122
 20
278.149589
 30
0.0
 11
272.038651
 21
278.86589
 31
0.0
  0
LINE
  5
53C
100
AcDbEntity
  8
0
370
    -3
390
0
  6
Continuous
100
AcDbLine
 10
271.292073
 20
277.489442
 30
0.0
 11
271.754122
 21
278.149589
 31
0.0
  0
LINE
  5
53D
100
AcDbEntity
  8
0
370
    -3
390
0
  6
Continuous
100
AcDbLine
 10
270.670258
 20
276.910818
 30
0.0
 11
271.292073
 21
277.489442
 31
0.0
  0
LINE
  5
53E
100
AcDbEntity
  8
0
370
    -3
390
0
  6
Continuous
100
AcDbLine
 10
269.912576
 20
276.435954
 30
0.0
 11
270.670258
 21
276.910818
 31
0.0
  0
LINE
  5
53F
100
AcDbEntity
  8
0
370
    -3
390
0
  6
Continuous
100
AcDbLine
 10
269.048142
 20
276.083098
 30
0.0
 11
269.912576
 21
276.435954
 31
0.0
  0
LINE
  5
540
100
AcDbEntity
  8
0
370
    -3
390
0
  6
Continuous
100
AcDbLine
 10
268.110176
 20
275.865811
 30
0.0
 11
269.048142
 21
276.083098
 31
0.0
  0
LINE
  5
541
100
AcDbEntity
  8
0
370
    -3
390
0
  6
Continuous
100
AcDbLine
 10
267.134725
 20
275.792441
 30
0.0
 11
268.110176
 21
275.865811
 31
0.0
  0
LINE
  5
542
100
AcDbEntity
  8
0
370
    -3
390
0
  6
Continuous
100
AcDbLine
 10
266.159273
 20
275.865811
 30
0.0
 11
267.134725
 21
275.792441
 31
0.0
  0
LINE
  5
543
100
AcDbEntity
  8
0
370
    -3
390
0
  6
Continuous
100
AcDbLine
 10
265.221307
 20
276.083098
 30
0.0
 11
266.159273
 21
275.865811
 31
0.0
  0
LINE
  5
544
100
AcDbEntity
  8
0
370
    -3
390
0
  6
Continuous
100
AcDbLine
 10
264.356873
 20
276.435954
 30
0.0
 11
265.221307
 21
276.083098
 31
0.0
  0
LINE
  5
545
100
AcDbEntity
  8
0
370
    -3
390
0
  6
Continuous
100
AcDbLine
 10
263.599191
 20
276.910818
 30
0.0
 11
264.356873
 21
276.435954
 31
0.0
  0
LINE
  5
546
100
AcDbEntity
  8
0
370
    -3
390
0
  6
Continuous
100
AcDbLine
 10
262.977377
 20
277.489442
 30
0.0
 11
263.599191
 21
276.910818
 31
0.0
  0
LINE
  5
547
100
AcDbEntity
  8
0
370
    -3
390
0
  6
Continuous
100
AcDbLine
 10
262.515327
 20
278.149589
 30
0.0
 11
262.977377
 21
277.489442
 31
0.0
  0
LINE
  5
548
100
AcDbEntity
  8
0
370
    -3
390
0
  6
Continuous
100
AcDbLine
 10
262.230798
 20
278.86589
 30
0.0
 11
262.515327
 21
278.149589
 31
0.0
  0
LINE
  5
549
100
AcDbEntity
  8
0
370
    -3
390
0
  6
Continuous
100
AcDbLine
 10
262.134725
 20
279.610818
 30
0.0
 11
262.230798
 21
278.86589
 31
0.0
  0
LINE
  5
54A
100
AcDbEntity
  8
0
370
    -3
390
0
  6
Continuous
100
AcDbLine
 10
271.548258
 20
279.827882
 30
0.0
 11
271.634725
 21
280.583173
 31
0.0
  0
LINE
  5
54B
100
AcDbEntity
  8
0
370
    -3
390
0
  6
Continuous
100
AcDbLine
 10
271.292182
 20
279.101617
 30
0.0
 11
271.548258
 21
279.827882
 31
0.0
  0
LINE
  5
54C
100
AcDbEntity
  8
0
370
    -3
390
0
  6
Continuous
100
AcDbLine
 10
270.876338
 20
278.432287
 30
0.0
 11
271.292182
 21
279.101617
 31
0.0
  0
LINE
  5
54D
100
AcDbEntity
  8
0
370
    -3
390
0
  6
Continuous
100
AcDbLine
 10
270.316705
 20
277.845614
 30
0.0
 11
270.876338
 21
278.432287
 31
0.0
  0
LINE
  5
54E
100
AcDbEntity
  8
0
370
    -3
390
0
  6
Continuous
100
AcDbLine
 10
269.634791
 20
277.364145
 30
0.0
 11
270.316705
 21
277.845614
 31
0.0
  0
LINE
  5
54F
100
AcDbEntity
  8
0
370
    -3
390
0
  6
Continuous
100
AcDbLine
 10
268.8568
 20
277.00638
 30
0.0
 11
269.634791
 21
277.364145
 31
0.0
  0
LINE
  5
550
100
AcDbEntity
  8
0
370
    -3
390
0
  6
Continuous
100
AcDbLine
 10
268.012631
 20
276.78607
 30
0.0
 11
268.8568
 21
277.00638
 31
0.0
  0
LINE
  5
551
100
AcDbEntity
  8
0
370
    -3
390
0
  6
Continuous
100
AcDbLine
 10
267.134725
 20
276.71168
 30
0.0
 11
268.012631
 21
276.78607
 31
0.0
  0
LINE
  5
552
100
AcDbEntity
  8
0
370
    -3
390
0
  6
Continuous
100
AcDbLine
 10
266.256818
 20
276.78607
 30
0.0
 11
267.134725
 21
276.71168
 31
0.0
  0
LINE
  5
553
100
AcDbEntity
  8
0
370
    -3
390
0
  6
Continuous
100
AcDbLine
 10
265.412649
 20
277.00638
 30
0.0
 11
266.256818
 21
276.78607
 31
0.0
  0
LINE
  5
554
100
AcDbEntity
  8
0
370
    -3
390
0
  6
Continuous
100
AcDbLine
 10
264.634659
 20
277.364145
 30
0.0
 11
265.412649
 21
277.00638
 31
0.0
  0
LINE
  5
555
100
AcDbEntity
  8
0
370
    -3
390
0
  6
Continuous
100
AcDbLine
 10
263.952744
 20
277.845614
 30
0.0
 11
264.634659
 21
277.364145
 31
0.0
  0
LINE
  5
556
100
AcDbEntity
  8
0
370
    -3
390
0
  6
Continuous
100
AcDbLine
 10
263.393111
 20
278.432287
 30
0.0
 11
263.952744
 21
277.845614
 31
0.0
  0
LINE
  5
557
100
AcDbEntity
  8
0
370
    -3
390
0
  6
Continuous
100
AcDbLine
 10
262.977267
 20
279.101617
 30
0.0
 11
263.393111
 21
278.432287
 31
0.0
  0
LINE
  5
558
100
AcDbEntity
  8
0
370
    -3
390
0
  6
Continuous
100
AcDbLine
 10
262.721191
 20
279.827882
 30
0.0
 11
262.977267
 21
279.101617
 31
0.0
  0
LINE
  5
559
100
AcDbEntity
  8
0
370
    -3
390
0
  6
Continuous
100
AcDbLine
 10
262.634725
 20
280.583173
 30
0.0
 11
262.721191
 21
279.827882
 31
0.0
  0
LINE
  5
55A
100
AcDbEntity
  8
0
370
    -3
390
0
  6
Continuous
100
AcDbLine
 10
262.721191
 20
281.338464
 30
0.0
 11
262.634725
 21
280.583173
 31
0.0
  0
LINE
  5
55B
100
AcDbEntity
  8
0
370
    -3
390
0
  6
Continuous
100
AcDbLine
 10
262.977267
 20
282.064729
 30
0.0
 11
262.721191
 21
281.338464
 31
0.0
  0
LINE
  5
55C
100
AcDbEntity
  8
0
370
    -3
390
0
  6
Continuous
100
AcDbLine
 10
263.393111
 20
282.734059
 30
0.0
 11
262.977267
 21
282.064729
 31
0.0
  0
LINE
  5
55D
100
AcDbEntity
  8
0
370
    -3
390
0
  6
Continuous
100
AcDbLine
 10
263.952744
 20
283.320732
 30
0.0
 11
263.393111
 21
282.734059
 31
0.0
  0
LINE
  5
55E
100
AcDbEntity
  8
0
370
    -3
390
0
  6
Continuous
100
AcDbLine
 10
264.634659
 20
283.802202
 30
0.0
 11
263.952744
 21
283.320732
 31
0.0
  0
LINE
  5
55F
100
AcDbEntity
  8
0
370
    -3
390
0
  6
Continuous
100
AcDbLine
 10
265.412649
 20
284.159966
 30
0.0
 11
264.634659
 21
283.802202
 31
0.0
  0
LINE
  5
560
100
AcDbEntity
  8
0
370
    -3
390
0
  6
Continuous
100
AcDbLine
 10
266.256818
 20
284.380276
 30
0.0
 11
265.412649
 21
284.159966
 31
0.0
  0
LINE
  5
561
100
AcDbEntity
  8
0
370
    -3
390
0
  6
Continuous
100
AcDbLine
 10
267.134725
 20
284.454666
 30
0.0
 11
266.256818
 21
284.380276
 31
0.0
  0
LINE
  5
562
100
AcDbEntity
  8
0
370
    -3
390
0
  6
Continuous
100
AcDbLine
 10
268.012631
 20
284.380276
 30
0.0
 11
267.134725
 21
284.454666
 31
0.0
  0
LINE
  5
563
100
AcDbEntity
  8
0
370
    -3
390
0
  6
Continuous
100
AcDbLine
 10
268.8568
 20
284.159966
 30
0.0
 11
268.012631
 21
284.380276
 31
0.0
  0
LINE
  5
564
100
AcDbEntity
  8
0
370
    -3
390
0
  6
Continuous
100
AcDbLine
 10
269.634791
 20
283.802202
 30
0.0
 11
268.8568
 21
284.159966
 31
0.0
  0
LINE
  5
565
100
AcDbEntity
  8
0
370
    -3
390
0
  6
Continuous
100
AcDbLine
 10
270.316705
 20
283.320732
 30
0.0
 11
269.634791
 21
283.802202
 31
0.0
  0
LINE
  5
566
100
AcDbEntity
  8
0
370
    -3
390
0
  6
Continuous
100
AcDbLine
 10
270.876338
 20
282.734059
 30
0.0
 11
270.316705
 21
283.320732
 31
0.0
  0
LINE
  5
567
100
AcDbEntity
  8
0
370
    -3
390
0
  6
Continuous
100
AcDbLine
 10
271.292182
 20
282.064729
 30
0.0
 11
270.876338
 21
282.734059
 31
0.0
  0
LINE
  5
568
100
AcDbEntity
  8
0
370
    -3
390
0
  6
Continuous
100
AcDbLine
 10
271.548258
 20
281.338464
 30
0.0
 11
271.292182
 21
282.064729
 31
0.0
  0
LINE
  5
569
100
AcDbEntity
  8
0
370
    -3
390
0
  6
Continuous
100
AcDbLine
 10
271.634725
 20
280.583173
 30
0.0
 11
271.548258
 21
281.338464
 31
0.0
  0
LINE
  5
56A
100
AcDbEntity
  8
0
370
    -3
390
0
  6
Continuous
100
AcDbLine
 10
261.217468
 20
279.909451
 30
0.0
 11
261.134725
 21
279.224422
 31
0.0
  0
LINE
  5
56B
100
AcDbEntity
  8
0
370
    -3
390
0
  6
Continuous
100
AcDbLine
 10
261.463418
 20
280.575587
 30
0.0
 11
261.217468
 21
279.909451
 31
0.0
  0
LINE
  5
56C
100
AcDbEntity
  8
0
370
    -3
390
0
  6
Continuous
100
AcDbLine
 10
261.865789
 20
281.204455
 30
0.0
 11
261.463418
 21
280.575587
 31
0.0
  0
LINE
  5
56D
100
AcDbEntity
  8
0
370
    -3
390
0
  6
Continuous
100
AcDbLine
 10
262.413484
 20
281.778712
 30
0.0
 11
261.865789
 21
281.204455
 31
0.0
  0
LINE
  5
56E
100
AcDbEntity
  8
0
370
    -3
390
0
  6
Continuous
100
AcDbLine
 10
263.091396
 20
282.282518
 30
0.0
 11
262.413484
 21
281.778712
 31
0.0
  0
LINE
  5
56F
100
AcDbEntity
  8
0
370
    -3
390
0
  6
Continuous
100
AcDbLine
 10
273.019436
 20
278.416926
 30
0.0
 11
273.134725
 21
279.224422
 31
0.0
  0
LINE
  5
570
100
AcDbEntity
  8
0
370
    -3
390
0
  6
Continuous
100
AcDbLine
 10
272.678002
 20
277.640462
 30
0.0
 11
273.019436
 21
278.416926
 31
0.0
  0
LINE
  5
571
100
AcDbEntity
  8
0
370
    -3
390
0
  6
Continuous
100
AcDbLine
 10
272.123542
 20
276.924868
 30
0.0
 11
272.678002
 21
277.640462
 31
0.0
  0
LINE
  5
572
100
AcDbEntity
  8
0
370
    -3
390
0
  6
Continuous
100
AcDbLine
 10
271.377365
 20
276.297645
 30
0.0
 11
272.123542
 21
276.924868
 31
0.0
  0
LINE
  5
573
100
AcDbEntity
  8
0
370
    -3
390
0
  6
Continuous
100
AcDbLine
 10
270.468146
 20
275.782897
 30
0.0
 11
271.377365
 21
276.297645
 31
0.0
  0
LINE
  5
574
100
AcDbEntity
  8
0
370
    -3
390
0
  6
Continuous
100
AcDbLine
 10
269.430825
 20
275.400404
 30
0.0
 11
270.468146
 21
275.782897
 31
0.0
  0
LINE
  5
575
100
AcDbEntity
  8
0
370
    -3
390
0
  6
Continuous
100
AcDbLine
 10
268.305266
 20
275.164866
 30
0.0
 11
269.430825
 21
275.400404
 31
0.0
  0
LINE
  5
576
100
AcDbEntity
  8
0
370
    -3
390
0
  6
Continuous
100
AcDbLine
 10
267.134725
 20
275.085335
 30
0.0
 11
268.305266
 21
275.164866
 31
0.0
  0
LINE
  5
577
100
AcDbEntity
  8
0
370
    -3
390
0
  6
Continuous
100
AcDbLine
 10
265.964183
 20
275.164866
 30
0.0
 11
267.134725
 21
275.085335
 31
0.0
  0
LINE
  5
578
100
AcDbEntity
  8
0
370
    -3
390
0
  6
Continuous
100
AcDbLine
 10
264.838624
 20
275.400404
 30
0.0
 11
265.964183
 21
275.164866
 31
0.0
  0
LINE
  5
579
100
AcDbEntity
  8
0
370
    -3
390
0
  6
Continuous
100
AcDbLine
 10
263.801303
 20
275.782897
 30
0.0
 11
264.838624
 21
275.400404
 31
0.0
  0
LINE
  5
57A
100
AcDbEntity
  8
0
370
    -3
390
0
  6
Continuous
100
AcDbLine
 10
262.892084
 20
276.297645
 30
0.0
 11
263.801303
 21
275.782897
 31
0.0
  0
LINE
  5
57B
100
AcDbEntity
  8
0
370
    -3
390
0
  6
Continuous
100
AcDbLine
 10
262.145907
 20
276.924868
 30
0.0
 11
262.892084
 21
276.297645
 31
0.0
  0
LINE
  5
57C
100
AcDbEntity
  8
0
370
    -3
390
0
  6
Continuous
100
AcDbLine
 10
261.591447
 20
277.640462
 30
0.0
 11
262.145907
 21
276.924868
 31
0.0
  0
LINE
  5
57D
100
AcDbEntity
  8
0
370
    -3
390
0
  6
Continuous
100
AcDbLine
 10
261.250013
 20
278.416926
 30
0.0
 11
261.591447
 21
277.640462
 31
0.0
  0
LINE
  5
57E
100
AcDbEntity
  8
0
370
    -3
390
0
  6
Continuous
100
AcDbLine
 10
261.134725
 20
279.224422
 30
0.0
 11
261.250013
 21
278.416926
 31
0.0
  0
LINE
  5
57F
100
AcDbEntity
  8
0
370
    -3
390
0
  6
Continuous
100
AcDbLine
 10
267.134725
 20
282.227114
 30
0.0
 11
269.134725
 21
283.522647
 31
0.0
  0
LINE
  5
580
100
AcDbEntity
  8
0
370
    -3
390
0
  6
Continuous
100
AcDbLine
 10
267.134725
 20
282.227114
 30
0.0
 11
269.134725
 21
280.694219
 31
0.0
  0
LINE
  5
581
100
AcDbEntity
  8
0
370
    -3
390
0
  6
Continuous
100
AcDbLine
 10
267.134725
 20
282.227114
 30
0.0
 11
265.134725
 21
280.694219
 31
0.0
  0
LINE
  5
582
100
AcDbEntity
  8
0
370
    -3
390
0
  6
Continuous
100
AcDbLine
 10
267.134725
 20
282.227114
 30
0.0
 11
265.134725
 21
283.522647
 31
0.0
  0
LINE
  5
583
100
AcDbEntity
  8
0
370
    -3
390
0
  6
Continuous
100
AcDbLine
 10
225.634725
 20
170.980544
 30
0.0
 11
260.684725
 21
170.980544
 31
0.0
  0
LINE
  5
584
100
AcDbEntity
  8
0
370
    -3
390
0
  6
Continuous
100
AcDbLine
 10
240.634725
 20
158.383936
 30
0.0
 11
240.634725
 21
97.980544
 31
0.0
  0
LINE
  5
585
100
AcDbEntity
  8
0
370
    -3
390
0
  6
Continuous
100
AcDbLine
 10
240.634725
 20
261.986656
 30
0.0
 11
240.634725
 21
303.980544
 31
0.0
  0
POINT
  5
586
100
AcDbEntity
  8
0
370
    -3
390
0
  6
CENTER
100
AcDbPoint
 10
212.139381
 20
260.711714
 30
0.0
  0
POINT
  5
587
100
AcDbEntity
  8
0
370
    -3
390
0
  6
CENTER
100
AcDbPoint
 10
239.139381
 20
260.711714
 30
0.0
  0
LINE
  5
588
100
AcDbEntity
  8
0
370
    -3
390
0
  6
Continuous
100
AcDbLine
 10
40.634725
 20
286.015277
 30
0.0
 11
40.634716
 21
300.980544
 31
0.0
  0
LINE
  5
589
100
AcDbEntity
  8
0
370
    -3
390
0
  6
Continuous
100
AcDbLine
 10
40.634725
 20
115.945812
 30
0.0
 11
40.634725
 21
100.980544
 31
0.0
  0
ARC
  5
58A
100
AcDbEntity
  8
0
370
    -3
390
0
  6
Continuous
100
AcDbCircle
 10
13.634725
 20
221.480544
 30
0.0
 40
3.0
100
AcDbArc
 50
0.0
 51
90.0
  0
LINE
  5
58B
100
AcDbEntity
  8
0
370
    -3
390
0
  6
Continuous
100
AcDbLine
 10
13.634725
 20
224.480544
 30
0.0
 11
1.634725
 21
224.480544
 31
0.0
  0
LINE
  5
58C
100
AcDbEntity
  8
0
370
    -3
390
0
  6
Continuous
100
AcDbLine
 10
1.634725
 20
282.980544
 30
0.0
 11
-0.365275
 21
280.980544
 31
0.0
  0
LINE
  5
58D
100
AcDbEntity
  8
0
370
    -3
390
0
  6
Continuous
100
AcDbLine
 10
1.634725
 20
282.980544
 30
0.0
 11
-0.365275
 21
280.980544
 31
0.0
  0
LINE
  5
58E
100
AcDbEntity
  8
0
370
    -3
390
0
  6
Continuous
100
AcDbLine
 10
1.634725
 20
297.980544
 30
0.0
 11
1.634725
 21
200.980544
 31
0.0
  0
ARC
  5
58F
100
AcDbEntity
  8
0
370
    -3
390
0
  6
Continuous
100
AcDbCircle
 10
4.634725
 20
297.980544
 30
0.0
 40
3.0
100
AcDbArc
 50
90.0
 51
180.0
  0
ARC
  5
590
100
AcDbEntity
  8
0
370
    -3
390
0
  6
Continuous
100
AcDbCircle
 10
8.634725
 20
297.980544
 30
0.0
 40
3.0
100
AcDbArc
 50
0.0
 51
90.0
  0
ARC
  5
591
100
AcDbEntity
  8
0
370
    -3
390
0
  6
Continuous
100
AcDbCircle
 10
40.634725
 20
283.980544
 30
0.0
 40
2.0
100
AcDbArc
 50
180.0
 51
270.0
  0
LINE
  5
592
100
AcDbEntity
  8
0
370
    -3
390
0
  6
Continuous
100
AcDbLine
 10
35.634725
 20
300.980544
 30
0.0
 11
4.634725
 21
300.980544
 31
0.0
  0
ARC
  5
593
100
AcDbEntity
  8
0
370
    -3
390
0
  6
Continuous
100
AcDbCircle
 10
35.634725
 20
297.980544
 30
0.0
 40
3.0
100
AcDbArc
 50
0.0
 51
90.0
  0
LINE
  5
594
100
AcDbEntity
  8
0
370
    -3
390
0
  6
Continuous
100
AcDbLine
 10
38.634725
 20
200.980544
 30
0.0
 11
38.634725
 21
297.980544
 31
0.0
  0
ARC
  5
595
100
AcDbEntity
  8
0
370
    -3
390
0
  6
Continuous
100
AcDbCircle
 10
13.634725
 20
226.480544
 30
0.0
 40
2.0
100
AcDbArc
 50
180.0
 51
270.0
  0
LINE
  5
596
100
AcDbEntity
  8
0
370
    -3
390
0
  6
Continuous
100
AcDbLine
 10
11.634725
 20
226.480544
 30
0.0
 11
11.634725
 21
297.980544
 31
0.0
  0
ARC
  5
597
100
AcDbEntity
  8
0
370
    -3
390
0
  6
Continuous
100
AcDbCircle
 10
37.634725
 20
231.588241
 30
0.0
 40
1.0
100
AcDbArc
 50
270.0
 51
0.0
  0
LINE
  5
598
100
AcDbEntity
  8
0
370
    -3
390
0
  6
Continuous
100
AcDbLine
 10
14.634725
 20
230.588241
 30
0.0
 11
37.634725
 21
230.588241
 31
0.0
  0
ARC
  5
599
100
AcDbEntity
  8
0
370
    -3
390
0
  6
Continuous
100
AcDbCircle
 10
37.634725
 20
233.588241
 30
0.0
 40
1.0
100
AcDbArc
 50
0.0
 51
90.0
  0
LINE
  5
59A
100
AcDbEntity
  8
0
370
    -3
390
0
  6
Continuous
100
AcDbLine
 10
37.634725
 20
234.588241
 30
0.0
 11
14.634725
 21
234.588241
 31
0.0
  0
ARC
  5
59B
100
AcDbEntity
  8
0
370
    -3
390
0
  6
Continuous
100
AcDbCircle
 10
14.634725
 20
227.588241
 30
0.0
 40
3.0
100
AcDbArc
 50
90.0
 51
180.0
  0
ARC
  5
59C
100
AcDbEntity
  8
0
370
    -3
390
0
  6
Continuous
100
AcDbCircle
 10
14.634725
 20
237.588241
 30
0.0
 40
3.0
100
AcDbArc
 50
180.0
 51
270.0
  0
ARC
  5
59D
100
AcDbEntity
  8
0
370
    -3
390
0
  6
Continuous
100
AcDbCircle
 10
37.634725
 20
254.658672
 30
0.0
 40
1.0
100
AcDbArc
 50
0.0
 51
90.0
  0
LINE
  5
59E
100
AcDbEntity
  8
0
370
    -3
390
0
  6
Continuous
100
AcDbLine
 10
37.634725
 20
255.658672
 30
0.0
 11
14.634725
 21
255.658672
 31
0.0
  0
ARC
  5
59F
100
AcDbEntity
  8
0
370
    -3
390
0
  6
Continuous
100
AcDbCircle
 10
14.634725
 20
258.658672
 30
0.0
 40
3.0
100
AcDbArc
 50
180.0
 51
270.0
  0
ARC
  5
5A0
100
AcDbEntity
  8
0
370
    -3
390
0
  6
Continuous
100
AcDbCircle
 10
14.634725
 20
248.658672
 30
0.0
 40
3.0
100
AcDbArc
 50
90.0
 51
180.0
  0
ARC
  5
5A1
100
AcDbEntity
  8
0
370
    -3
390
0
  6
Continuous
100
AcDbCircle
 10
37.634725
 20
252.658672
 30
0.0
 40
1.0
100
AcDbArc
 50
270.0
 51
0.0
  0
LINE
  5
5A2
100
AcDbEntity
  8
0
370
    -3
390
0
  6
Continuous
100
AcDbLine
 10
14.634725
 20
251.658672
 30
0.0
 11
37.634725
 21
251.658672
 31
0.0
  0
ARC
  5
5A3
100
AcDbEntity
  8
0
370
    -3
390
0
  6
Continuous
100
AcDbCircle
 10
14.634725
 20
266.715521
 30
0.0
 40
3.0
100
AcDbArc
 50
90.0
 51
180.0
  0
ARC
  5
5A4
100
AcDbEntity
  8
0
370
    -3
390
0
  6
Continuous
100
AcDbCircle
 10
14.634725
 20
281.871113
 30
0.0
 40
3.0
100
AcDbArc
 50
180.0
 51
270.0
  0
ARC
  5
5A5
100
AcDbEntity
  8
0
370
    -3
390
0
  6
Continuous
100
AcDbCircle
 10
35.634725
 20
287.160252
 30
0.0
 40
3.0
100
AcDbArc
 50
0.0
 51
90.0
  0
ARC
  5
5A6
100
AcDbEntity
  8
0
370
    -3
390
0
  6
Continuous
100
AcDbCircle
 10
35.634725
 20
295.186329
 30
0.0
 40
3.0
100
AcDbArc
 50
0.0
 51
90.0
  0
LINE
  5
5A7
100
AcDbEntity
  8
0
370
    -3
390
0
  6
Continuous
100
AcDbLine
 10
14.634725
 20
269.715521
 30
0.0
 11
38.634725
 21
269.715521
 31
0.0
  0
LINE
  5
5A8
100
AcDbEntity
  8
0
370
    -3
390
0
  6
Continuous
100
AcDbLine
 10
38.634725
 20
278.871113
 30
0.0
 11
14.634725
 21
278.871113
 31
0.0
  0
ARC
  5
5A9
100
AcDbEntity
  8
0
370
    -3
390
0
  6
Continuous
100
AcDbCircle
 10
14.634725
 20
293.160252
 30
0.0
 40
3.0
100
AcDbArc
 50
180.0
 51
270.0
  0
LINE
  5
5AA
100
AcDbEntity
  8
0
370
    -3
390
0
  6
Continuous
100
AcDbLine
 10
35.634725
 20
290.160252
 30
0.0
 11
14.634725
 21
290.160252
 31
0.0
  0
LINE
  5
5AB
100
AcDbEntity
  8
0
370
    -3
390
0
  6
Continuous
100
AcDbLine
 10
35.634725
 20
298.186329
 30
0.0
 11
11.627658
 21
298.186329
 31
0.0
  0
LINE
  5
5AC
100
AcDbEntity
  8
0
370
    -3
390
0
  6
Continuous
100
AcDbLine
 10
1.634725
 20
118.980544
 30
0.0
 11
-0.365275
 21
120.980544
 31
0.0
  0
LINE
  5
5AD
100
AcDbEntity
  8
0
370
    -3
390
0
  6
Continuous
100
AcDbLine
 10
1.634725
 20
118.980544
 30
0.0
 11
-0.365275
 21
120.980544
 31
0.0
  0
LINE
  5
5AE
100
AcDbEntity
  8
0
370
    -3
390
0
  6
Continuous
100
AcDbLine
 10
1.634725
 20
103.980544
 30
0.0
 11
1.634725
 21
200.980544
 31
0.0
  0
ARC
  5
5AF
100
AcDbEntity
  8
0
370
    -3
390
0
  6
Continuous
100
AcDbCircle
 10
4.634725
 20
103.980544
 30
0.0
 40
3.0
100
AcDbArc
 50
180.0
 51
270.0
  0
ARC
  5
5B0
100
AcDbEntity
  8
0
370
    -3
390
0
  6
Continuous
100
AcDbCircle
 10
8.634725
 20
103.980544
 30
0.0
 40
3.0
100
AcDbArc
 50
270.0
 51
0.0
  0
ARC
  5
5B1
100
AcDbEntity
  8
0
370
    -3
390
0
  6
Continuous
100
AcDbCircle
 10
40.634725
 20
117.980544
 30
0.0
 40
2.0
100
AcDbArc
 50
90.0
 51
180.0
  0
LINE
  5
5B2
100
AcDbEntity
  8
0
370
    -3
390
0
  6
Continuous
100
AcDbLine
 10
35.634725
 20
100.980544
 30
0.0
 11
4.634725
 21
100.980544
 31
0.0
  0
ARC
  5
5B3
100
AcDbEntity
  8
0
370
    -3
390
0
  6
Continuous
100
AcDbCircle
 10
35.634725
 20
103.980544
 30
0.0
 40
3.0
100
AcDbArc
 50
270.0
 51
0.0
  0
ARC
  5
5B4
100
AcDbEntity
  8
0
370
    -3
390
0
  6
Continuous
100
AcDbCircle
 10
13.634725
 20
180.480544
 30
0.0
 40
3.0
100
AcDbArc
 50
270.0
 51
0.0
  0
LINE
  5
5B5
100
AcDbEntity
  8
0
370
    -3
390
0
  6
Continuous
100
AcDbLine
 10
16.634725
 20
221.480544
 30
0.0
 11
16.634725
 21
180.480544
 31
0.0
  0
LINE
  5
5B6
100
AcDbEntity
  8
0
370
    -3
390
0
  6
Continuous
100
AcDbLine
 10
25.635085
 20
180.480544
 30
0.0
 11
16.634725
 21
180.480544
 31
0.0
  0
LINE
  5
5B7
100
AcDbEntity
  8
0
370
    -3
390
0
  6
Continuous
100
AcDbLine
 10
25.635085
 20
221.480544
 30
0.0
 11
16.634725
 21
221.480544
 31
0.0
  0
LINE
  5
5B8
100
AcDbEntity
  8
0
370
    -3
390
0
  6
Continuous
100
AcDbLine
 10
25.635085
 20
180.480544
 30
0.0
 11
25.635085
 21
221.480544
 31
0.0
  0
INSERT
  5
5C4
100
AcDbEntity
  8
0
390
0
100
AcDbBlockReference
  2
ZU_SYM__USR_MELCAD_MD_SYM_SYM_SYM2_00
 10
25.635085
 20
211.480544
 30
0.0
 50
180.0
  0
INSERT
  5
5D0
100
AcDbEntity
  8
0
390
0
100
AcDbBlockReference
  2
ZU_SYM__USR_MELCAD_MD_SYM_SYM_SYM1_00
 10
25.635085
 20
190.480544
 30
0.0
 41
-1.0
  0
LINE
  5
5D1
100
AcDbEntity
  8
0
370
    -3
390
0
  6
CENTER
100
AcDbLine
 10
36.017336
 20
211.480544
 30
0.0
 11
1.337124
 21
211.480544
 31
0.0
  0
LINE
  5
5D2
100
AcDbEntity
  8
0
370
    -3
390
0
  6
CENTER
100
AcDbLine
 10
36.017336
 20
190.480544
 30
0.0
 11
1.337124
 21
190.480544
 31
0.0
  0
LINE
  5
5D3
100
AcDbEntity
  8
0
370
    -3
390
0
  6
Continuous
100
AcDbLine
 10
13.634725
 20
177.480544
 30
0.0
 11
1.634725
 21
177.480544
 31
0.0
  0
LINE
  5
5D4
100
AcDbEntity
  8
0
370
    -3
390
0
  6
Continuous
100
AcDbLine
 10
38.634725
 20
200.980544
 30
0.0
 11
38.634725
 21
103.980544
 31
0.0
  0
ARC
  5
5D5
100
AcDbEntity
  8
0
370
    -3
390
0
  6
Continuous
100
AcDbCircle
 10
13.634725
 20
175.480544
 30
0.0
 40
2.0
100
AcDbArc
 50
90.0
 51
180.0
  0
LINE
  5
5D6
100
AcDbEntity
  8
0
370
    -3
390
0
  6
Continuous
100
AcDbLine
 10
11.634725
 20
175.480544
 30
0.0
 11
11.634725
 21
103.980544
 31
0.0
  0
ARC
  5
5D7
100
AcDbEntity
  8
0
370
    -3
390
0
  6
Continuous
100
AcDbCircle
 10
37.634725
 20
170.372847
 30
0.0
 40
1.0
100
AcDbArc
 50
0.0
 51
90.0
  0
LINE
  5
5D8
100
AcDbEntity
  8
0
370
    -3
390
0
  6
Continuous
100
AcDbLine
 10
14.634725
 20
171.372847
 30
0.0
 11
37.634725
 21
171.372847
 31
0.0
  0
ARC
  5
5D9
100
AcDbEntity
  8
0
370
    -3
390
0
  6
Continuous
100
AcDbCircle
 10
37.634725
 20
168.372847
 30
0.0
 40
1.0
100
AcDbArc
 50
270.0
 51
0.0
  0
LINE
  5
5DA
100
AcDbEntity
  8
0
370
    -3
390
0
  6
Continuous
100
AcDbLine
 10
37.634725
 20
167.372847
 30
0.0
 11
14.634725
 21
167.372847
 31
0.0
  0
ARC
  5
5DB
100
AcDbEntity
  8
0
370
    -3
390
0
  6
Continuous
100
AcDbCircle
 10
14.634725
 20
174.372847
 30
0.0
 40
3.0
100
AcDbArc
 50
180.0
 51
270.0
  0
ARC
  5
5DC
100
AcDbEntity
  8
0
370
    -3
390
0
  6
Continuous
100
AcDbCircle
 10
14.634725
 20
164.372847
 30
0.0
 40
3.0
100
AcDbArc
 50
90.0
 51
180.0
  0
ARC
  5
5DD
100
AcDbEntity
  8
0
370
    -3
390
0
  6
Continuous
100
AcDbCircle
 10
37.634725
 20
147.302416
 30
0.0
 40
1.0
100
AcDbArc
 50
270.0
 51
0.0
  0
LINE
  5
5DE
100
AcDbEntity
  8
0
370
    -3
390
0
  6
Continuous
100
AcDbLine
 10
37.634725
 20
146.302416
 30
0.0
 11
14.634725
 21
146.302416
 31
0.0
  0
ARC
  5
5DF
100
AcDbEntity
  8
0
370
    -3
390
0
  6
Continuous
100
AcDbCircle
 10
14.634725
 20
143.302416
 30
0.0
 40
3.0
100
AcDbArc
 50
90.0
 51
180.0
  0
ARC
  5
5E0
100
AcDbEntity
  8
0
370
    -3
390
0
  6
Continuous
100
AcDbCircle
 10
14.634725
 20
153.302416
 30
0.0
 40
3.0
100
AcDbArc
 50
180.0
 51
270.0
  0
ARC
  5
5E1
100
AcDbEntity
  8
0
370
    -3
390
0
  6
Continuous
100
AcDbCircle
 10
37.634725
 20
149.302416
 30
0.0
 40
1.0
100
AcDbArc
 50
0.0
 51
90.0
  0
LINE
  5
5E2
100
AcDbEntity
  8
0
370
    -3
390
0
  6
Continuous
100
AcDbLine
 10
14.634725
 20
150.302416
 30
0.0
 11
37.634725
 21
150.302416
 31
0.0
  0
ARC
  5
5E3
100
AcDbEntity
  8
0
370
    -3
390
0
  6
Continuous
100
AcDbCircle
 10
14.634725
 20
135.245567
 30
0.0
 40
3.0
100
AcDbArc
 50
180.0
 51
270.0
  0
ARC
  5
5E4
100
AcDbEntity
  8
0
370
    -3
390
0
  6
Continuous
100
AcDbCircle
 10
14.634725
 20
120.089975
 30
0.0
 40
3.0
100
AcDbArc
 50
90.0
 51
180.0
  0
ARC
  5
5E5
100
AcDbEntity
  8
0
370
    -3
390
0
  6
Continuous
100
AcDbCircle
 10
35.634725
 20
114.800836
 30
0.0
 40
3.0
100
AcDbArc
 50
270.0
 51
0.0
  0
ARC
  5
5E6
100
AcDbEntity
  8
0
370
    -3
390
0
  6
Continuous
100
AcDbCircle
 10
35.634725
 20
106.77476
 30
0.0
 40
3.0
100
AcDbArc
 50
270.0
 51
0.0
  0
LINE
  5
5E7
100
AcDbEntity
  8
0
370
    -3
390
0
  6
Continuous
100
AcDbLine
 10
14.634725
 20
132.245567
 30
0.0
 11
38.634725
 21
132.245567
 31
0.0
  0
LINE
  5
5E8
100
AcDbEntity
  8
0
370
    -3
390
0
  6
Continuous
100
AcDbLine
 10
38.634725
 20
123.089975
 30
0.0
 11
14.634725
 21
123.089975
 31
0.0
  0
ARC
  5
5E9
100
AcDbEntity
  8
0
370
    -3
390
0
  6
Continuous
100
AcDbCircle
 10
14.634725
 20
108.800836
 30
0.0
 40
3.0
100
AcDbArc
 50
90.0
 51
180.0
  0
LINE
  5
5EA
100
AcDbEntity
  8
0
370
    -3
390
0
  6
Continuous
100
AcDbLine
 10
35.634725
 20
111.800836
 30
0.0
 11
14.634725
 21
111.800836
 31
0.0
  0
LINE
  5
5EB
100
AcDbEntity
  8
0
370
    -3
390
0
  6
Continuous
100
AcDbLine
 10
35.634725
 20
103.77476
 30
0.0
 11
11.627658
 21
103.77476
 31
0.0
  0
ENDSEC
  0
SECTION
  2
OBJECTS
  0
DICTIONARY
  5
19
100
AcDbDictionary
280
     0
281
     1
  3
ACAD_GROUP
350
1A
  3
ACAD_MLINESTYLE
350
1B
  3
ACAD_LAYOUT
350
1E
  3
ACAD_PLOTSETTINGS
350
22
  3
ACAD_PLOTSTYLENAME
350
1F
  3
ACAD_WIPEOUT_VARS
350
23
  3
DWGPROPS
350
5EC
  0
DICTIONARY
  5
1A
102
{ACAD_REACTORS
330
19
102
}
100
AcDbDictionary
280
     0
281
     1
  0
DICTIONARY
  5
1B
102
{ACAD_REACTORS
330
19
102
}
100
AcDbDictionary
280
     0
281
     1
  3
Standard
350
1C
  0
MLINESTYLE
  5
1C
102
{ACAD_REACTORS
330
1B
102
}
100
AcDbMlineStyle
  2
Standard
 70
     0
  3

 62
     0
 51
90.0
 52
90.0
 71
     2
 49
0.5
 62
   256
  6
ByLayer
 49
-0.5
 62
   256
  6
ByLayer
  0
ACDBDICTIONARYWDFLT
  5
1F
102
{ACAD_REACTORS
330
19
102
}
100
AcDbDictionary
281
     1
  3
Normal
350
1D
100
AcDbDictionaryWithDefault
340
1D
  0
ACDBPLACEHOLDER
  5
1D
102
{ACAD_REACTORS
330
1F
102
}
  0
LAYOUT
  5
20
102
{ACAD_REACTORS
330
1E
102
}
100
AcDbPlotSettings
  1

  2

  4

  6

 40
0.0
 41
0.0
 42
0.0
 43
0.0
 44
0.0
 45
0.0
 46
0.0
 47
0.0
 48
0.0
 49
0.0
140
0.0
141
0.0
142
1.0
143
1.0
 70
  1024
 72
     0
 73
     0
 74
     0
  7

 75
     0
147
1.0
148
0.0
149
0.0
100
AcDbLayout
  1
Model
 70
     0
 71
     0
 10
0.0
 20
0.0
 11
0.0
 21
0.0
 12
0.0
 22
0.0
 32
0.0
 14
0.0
 24
0.0
 34
0.0
 15
0.0
 25
0.0
 35
0.0
146
0.0
 13
0.0
 23
0.0
 33
0.0
 16
0.0
 26
0.0
 36
0.0
 17
0.0
 27
0.0
 37
0.0
 76
     0
330
A
331
0
345
0
346
0
  0
LAYOUT
  5
21
102
{ACAD_REACTORS
330
1E
102
}
100
AcDbPlotSettings
  1

  2

  4

  6

 40
0.0
 41
0.0
 42
0.0
 43
0.0
 44
0.0
 45
0.0
 46
0.0
 47
0.0
 48
0.0
 49
0.0
140
0.0
141
0.0
142
1.0
143
1.0
 70
     0
 72
     0
 73
     0
 74
     0
  7

 75
     0
147
1.0
148
0.0
149
0.0
100
AcDbLayout
  1
Layout1
 70
     0
 71
     0
 10
0.0
 20
0.0
 11
0.0
 21
0.0
 12
0.0
 22
0.0
 32
0.0
 14
0.0
 24
0.0
 34
0.0
 15
0.0
 25
0.0
 35
0.0
146
0.0
 13
0.0
 23
0.0
 33
0.0
 16
0.0
 26
0.0
 36
0.0
 17
0.0
 27
0.0
 37
0.0
 76
     0
330
B
331
0
345
0
346
0
  0
DICTIONARY
  5
1E
102
{ACAD_REACTORS
330
19
102
}
100
AcDbDictionary
280
     0
281
     1
  3
Layout1
350
21
  3
Model
350
20
  0
DICTIONARY
  5
22
102
{ACAD_REACTORS
330
19
102
}
100
AcDbDictionary
280
     0
281
     1
  0
WIPEOUTVARIABLES
  5
23
100
AcDbWipeoutVariables
 70
     1
  0
XRECORD
  5
5EC
100
AcDbXrecord
280
     1
  1
DWGPROPS COOKIE
  2

  3

  4

  6

  7

  8
YP81315
  9

300
=
301
=
302
=
303
=
304
=
305
=
306
=
307
=
308
=
309
=
 40
0.0
 41
2456812.58397
 42
2456812.58397
  1

 90
        0
  0
ENDSEC
  0
EOF
