  0
SECTION
  2
HEADER
  9
$ACADVER
  1
AC1015
  9
$ACADMAINTVER
 70
     6
  9
$DWGCODEPAGE
  3
ANSI_932
  9
$INSBASE
 10
0.0
 20
0.0
 30
0.0
  9
$EXTMIN
 10
1.000000E+20
 20
1.000000E+20
 30
1.000000E+20
  9
$EXTMAX
 10
-1.000000E+20
 20
-1.000000E+20
 30
-1.000000E+20
  9
$LIMMIN
 10
0.0
 20
0.0
  9
$LIMMAX
 10
0.0
 20
0.0
  9
$ORTHOMODE
 70
     0
  9
$REGENMODE
 70
     1
  9
$FILLMODE
 70
     1
  9
$QTEXTMODE
 70
     0
  9
$MIRRTEXT
 70
     1
  9
$LTSCALE
 40
1.0
  9
$ATTMODE
 70
     1
  9
$TEXTSIZE
 40
3.2
  9
$TRACEWID
 40
0.05
  9
$TEXTSTYLE
  7
Standard
  9
$CLAYER
  8
0
  9
$CELTYPE
  6
Continuous
  9
$CECOLOR
 62
   256
  9
$CELTSCALE
 40
1.0
  9
$DISPSILH
 70
     0
  9
$DIMSCALE
 40
1.0
  9
$DIMASZ
 40
1.931852
  9
$DIMEXO
 40
1.0
  9
$DIMDLI
 40
0.38
  9
$DIMRND
 40
0.0
  9
$DIMDLE
 40
0.0
  9
$DIMEXE
 40
2.0
  9
$DIMTP
 40
0.0
  9
$DIMTM
 40
0.0
  9
$DIMTXT
 40
3.2
  9
$DIMCEN
 40
0.09
  9
$DIMTSZ
 40
0.0
  9
$DIMTOL
 70
     0
  9
$DIMLIM
 70
     0
  9
$DIMTIH
 70
     1
  9
$DIMTOH
 70
     1
  9
$DIMSE1
 70
     0
  9
$DIMSE2
 70
     0
  9
$DIMTAD
 70
     1
  9
$DIMZIN
 70
     0
  9
$DIMBLK
  1

  9
$DIMASO
 70
     1
  9
$DIMSHO
 70
     1
  9
$DIMPOST
  1

  9
$DIMAPOST
  1

  9
$DIMALT
 70
     0
  9
$DIMALTD
 70
     2
  9
$DIMALTF
 40
25.4
  9
$DIMLFAC
 40
1.0
  9
$DIMTOFL
 70
     0
  9
$DIMTVP
 40
0.0
  9
$DIMTIX
 70
     0
  9
$DIMSOXD
 70
     0
  9
$DIMSAH
 70
     0
  9
$DIMBLK1
  1

  9
$DIMBLK2
  1

  9
$DIMSTYLE
  2
Standard
  9
$DIMCLRD
 70
     0
  9
$DIMCLRE
 70
     0
  9
$DIMCLRT
 70
     0
  9
$DIMTFAC
 40
0.625
  9
$DIMGAP
 40
0.09
  9
$DIMJUST
 70
     0
  9
$DIMSD1
 70
     0
  9
$DIMSD2
 70
     0
  9
$DIMTOLJ
 70
     1
  9
$DIMTZIN
 70
     0
  9
$DIMALTZ
 70
     0
  9
$DIMALTTZ
 70
     0
  9
$DIMUPT
 70
     0
  9
$DIMDEC
 70
     4
  9
$DIMTDEC
 70
     4
  9
$DIMALTU
 70
     2
  9
$DIMALTTD
 70
     2
  9
$DIMTXSTY
  7
Standard
  9
$DIMAUNIT
 70
     0
  9
$DIMADEC
 70
     0
  9
$DIMALTRND
 40
0.0
  9
$DIMAZIN
 70
     0
  9
$DIMDSEP
 70
     0
  9
$DIMATFIT
 70
     3
  9
$DIMFRAC
 70
     0
  9
$DIMLDRBLK
  1

  9
$DIMLUNIT
 70
     2
  9
$DIMLWD
 70
     0
  9
$DIMLWE
 70
     0
  9
$DIMTMOVE
 70
     0
  9
$LUNITS
 70
     2
  9
$LUPREC
 70
     3
  9
$SKETCHINC
 40
0.1
  9
$FILLETRAD
 40
0.0
  9
$AUNITS
 70
     0
  9
$AUPREC
 70
     0
  9
$MENU
  1
acad
  9
$ELEVATION
 40
0.0
  9
$PELEVATION
 40
0.0
  9
$THICKNESS
 40
0.0
  9
$LIMCHECK
 70
     0
  9
$CHAMFERA
 40
0.0
  9
$CHAMFERB
 40
0.0
  9
$CHAMFERC
 40
0.0
  9
$CHAMFERD
 40
0.0
  9
$SKPOLY
 70
     0
  9
$TDCREATE
 40
0.000000000
  9
$TDUCREATE
 40
0.000000000
  9
$TDUPDATE
 40
0.000000000
  9
$TDUUPDATE
 40
0.000000000
  9
$TDINDWG
 40
0.0000000000
  9
$TDUSRTIMER
 40
0.0000000000
  9
$USRTIMER
 70
     1
  9
$ANGBASE
 50
0.0
  9
$ANGDIR
 70
     0
  9
$PDMODE
 70
     0
  9
$PDSIZE
 40
0.0
  9
$PLINEWID
 40
0.0
  9
$SPLFRAME
 70
     0
  9
$SPLINETYPE
 70
     6
  9
$SPLINESEGS
 70
     8
  9
$HANDSEED
  5
523
  9
$SURFTAB1
 70
     6
  9
$SURFTAB2
 70
     6
  9
$SURFTYPE
 70
     6
  9
$SURFU
 70
     6
  9
$SURFV
 70
     6
  9
$UCSBASE
  2

  9
$UCSNAME
  2

  9
$UCSORG
 10
0.0
 20
0.0
 30
0.0
  9
$UCSXDIR
 10
1.0
 20
0.0
 30
0.0
  9
$UCSYDIR
 10
0.0
 20
1.0
 30
0.0
  9
$UCSORTHOREF
  2

  9
$UCSORTHOVIEW
 70
     0
  9
$UCSORGTOP
 10
0.0
 20
0.0
 30
0.0
  9
$UCSORGBOTTOM
 10
0.0
 20
0.0
 30
0.0
  9
$UCSORGLEFT
 10
0.0
 20
0.0
 30
0.0
  9
$UCSORGRIGHT
 10
0.0
 20
0.0
 30
0.0
  9
$UCSORGFRONT
 10
0.0
 20
0.0
 30
0.0
  9
$UCSORGBACK
 10
0.0
 20
0.0
 30
0.0
  9
$PUCSBASE
  2

  9
$PUCSNAME
  2

  9
$PUCSORG
 10
0.0
 20
0.0
 30
0.0
  9
$PUCSXDIR
 10
1.0
 20
0.0
 30
0.0
  9
$PUCSYDIR
 10
0.0
 20
1.0
 30
0.0
  9
$PUCSORTHOREF
  2

  9
$PUCSORTHOVIEW
 70
     0
  9
$PUCSORGTOP
 10
0.0
 20
0.0
 30
0.0
  9
$PUCSORGBOTTOM
 10
0.0
 20
0.0
 30
0.0
  9
$PUCSORGLEFT
 10
0.0
 20
0.0
 30
0.0
  9
$PUCSORGRIGHT
 10
0.0
 20
0.0
 30
0.0
  9
$PUCSORGFRONT
 10
0.0
 20
0.0
 30
0.0
  9
$PUCSORGBACK
 10
0.0
 20
0.0
 30
0.0
  9
$USERI1
 70
     0
  9
$USERI2
 70
     0
  9
$USERI3
 70
     0
  9
$USERI4
 70
     0
  9
$USERI5
 70
     0
  9
$USERR1
 40
0.0
  9
$USERR2
 40
0.0
  9
$USERR3
 40
0.0
  9
$USERR4
 40
0.0
  9
$USERR5
 40
0.0
  9
$WORLDVIEW
 70
     1
  9
$SHADEDGE
 70
     3
  9
$SHADEDIF
 70
    70
  9
$TILEMODE
 70
     1
  9
$MAXACTVP
 70
    16
  9
$PINSBASE
 10
0.0
 20
0.0
 30
0.0
  9
$PLIMCHECK
 70
     0
  9
$PEXTMIN
 10
1.000000E+20
 20
1.000000E+20
 30
1.000000E+20
  9
$PEXTMAX
 10
-1.000000E+20
 20
-1.000000E+20
 30
-1.000000E+20
  9
$PLIMMIN
 10
0.0
 20
0.0
  9
$PLIMMAX
 10
12.0
 20
9.0
  9
$UNITMODE
 70
     0
  9
$VISRETAIN
 70
     0
  9
$PLINEGEN
 70
     1
  9
$PSLTSCALE
 70
     0
  9
$TREEDEPTH
 70
  3020
  9
$CMLSTYLE
  2
Standard
  9
$CMLJUST
 70
     0
  9
$CMLSCALE
 40
1.0
  9
$PROXYGRAPHICS
 70
     0
  9
$MEASUREMENT
 70
     0
  9
$CELWEIGHT
370
     0
  9
$ENDCAPS
280
     0
  9
$JOINSTYLE
280
     0
  9
$LWDISPLAY
290
     0
  9
$INSUNITS
 70
     0
  9
$HYPERLINKBASE
  1

  9
$STYLESHEET
  1

  9
$XEDIT
290
     1
  9
$CEPSNTYPE
380
     0
  9
$PSTYLEMODE
290
     1
  9
$FINGERPRINTGUID
  2

  9
$VERSIONGUID
  2

  9
$EXTNAMES
290
     1
  9
$PSVPSCALE
 40
0.0
  0
ENDSEC
  0
SECTION
  2
CLASSES
  0
CLASS
  1
LWPOLYLINE
  2
AcDbPolyline
  3
AutoCAD 2000
 90
        0
280
     0
281
     1
  0
CLASS
  1
IMAGE
  2
AcDbRasterImage
  3
ISM
 90
      127
280
     0
281
     1
  0
CLASS
  1
OLE2FRAME
  2
AcDbOle2Frame
  3
AutoCAD 2000
 90
        0
280
     0
281
     1
  0
CLASS
  1
HATCH
  2
AcDbHatch
  3
AutoCAD 2000
 90
        0
280
     0
281
     1
  0
CLASS
  1
DICTIONARYVAR
  2
AcDbDictionaryVar
  3
AutoCAD 2000
 90
        0
280
     0
281
     0
  0
CLASS
  1
RASTERVARIABLES
  2
AcDbRasterVariables
  3
ISM
 90
        0
280
     0
281
     0
  0
CLASS
  1
IMAGEDEF
  2
AcDbRasterImageDef
  3
ISM
 90
        0
280
     0
281
     0
  0
CLASS
  1
IMAGEDEF_REACTOR
  2
AcDbRasterImageDefReactor
  3
ISM
 90
        1
280
     0
281
     0
  0
CLASS
  1
IDBUFFER
  2
AcDbIdBuffer
  3
AutoCAD 2000
 90
        0
280
     0
281
     0
  0
CLASS
  1
SPATIAL_FILTER
  2
AcDbSpatialFilter
  3
AutoCAD 2000
 90
        0
280
     0
281
     0
  0
CLASS
  1
XRECORD
  2
AcDbXrecord
  3
AutoCAD 2000
 90
        0
280
     0
281
     0
  0
CLASS
  1
SORTENTSTABLE
  2
AcDbSortentsTable
  3
AutoCAD 2000
 90
        0
280
     0
281
     0
  0
CLASS
  1
LAYER_INDEX
  2
AcDbLayerIndex
  3
AutoCAD 2000
 90
        0
280
     0
281
     0
  0
CLASS
  1
SPATIAL_INDEX
  2
AcDbSpatialIndex
  3
AutoCAD 2000
 90
        0
280
     0
281
     0
  0
CLASS
  1
OBJECT_PTR
  2
CAseDLPNTableRecord
  3
"ASE-LPNTableRecord"
 90
        1
280
     0
281
     0
  0
CLASS
  1
LAYOUT
  2
AcDbLayout
  3
AutoCAD 2000
 90
        0
280
     0
281
     0
  0
CLASS
  1
PLOTSETTINGS
  2
AcDbPlotSettings
  3
AutoCAD 2000
 90
        0
280
     0
281
     0
  0
CLASS
  1
ACDBDICTIONARYWDFLT
  2
AcDbDictionaryWithDefault
  3
AutoCAD 2000
 90
        0
280
     0
281
     0
  0
CLASS
  1
ACDBPLACEHOLDER
  2
AcDbPlaceHolder
  3
AutoCAD 2000
 90
        0
280
     0
281
     0
  0
CLASS
  1
VBA_PROJECT
  2
AcDbVbaProject
  3
acadvba
 90
        0
280
     0
281
     0
  0
CLASS
  1
WIPEOUT
  2
AcDbWipeout
  3
WipeOut|AutoCAD Express Tool|expresstools@autodesk.com
 90
      127
280
     0
281
     1
  0
CLASS
  1
WIPEOUTVARIABLES
  2
AcDbWipeoutVariables
  3
WipeOut|AutoCAD Express Tool|expresstools@autodesk.com
 90
        0
280
     0
281
     0
  0
CLASS
  1
RTEXT
  2
RText
  3
RText|AutoCAD Express Tool|expresstools@autodesk.com
 90
        0
280
     0
281
     1
  0
CLASS
  1
ARCALIGNEDTEXT
  2
AcDbArcAlignedText
  3
ATEXT|AutoCAD Express Tool|expresstools@autodesk.com
 90
        0
280
     0
281
     1
  0
ENDSEC
  0
SECTION
  2
TABLES
  0
TABLE
  2
VPORT
  5
7
100
AcDbSymbolTable
 70
     1
  0
VPORT
  5
15
100
AcDbSymbolTableRecord
100
AcDbViewportTableRecord
  2
*ACTIVE
 70
     0
 10
0.0
 20
0.0
 11
1.0
 21
1.0
 12
0.0
 22
0.0
 13
0.0
 23
0.0
 14
1.0
 24
1.0
 15
0.0
 25
0.0
 16
0.0
 26
0.0
 36
1.0
 17
0.0
 27
0.0
 37
0.0
 40
100.0
 41
1.0
 42
50.0
 43
0.0
 44
0.0
 50
0.0
 51
0.0
 71
     0
 72
   100
 73
     1
 74
     1
 75
     0
 76
     0
 77
     0
 78
     0
281
     0
 65
     0
110
0.0
120
0.0
130
0.0
111
1.0
121
0.0
131
0.0
112
0.0
122
1.0
132
0.0
345
0
346
0
 79
     0
146
0.0
  0
ENDTAB
  0
TABLE
  2
LTYPE
  5
4
100
AcDbSymbolTable
 70
     7
  0
LTYPE
  5
11
100
AcDbSymbolTableRecord
100
AcDbLinetypeTableRecord
  2
ByBlock
 70
    64
  3

 72
    65
 73
     0
 40
0.0
  0
LTYPE
  5
12
100
AcDbSymbolTableRecord
100
AcDbLinetypeTableRecord
  2
ByLayer
 70
    64
  3

 72
    65
 73
     0
 40
0.0
  0
LTYPE
  5
13
100
AcDbSymbolTableRecord
100
AcDbLinetypeTableRecord
  2
Continuous
 70
    64
  3
Solid line
 72
    65
 73
     0
 40
0.0
  0
LTYPE
  5
24
100
AcDbSymbolTableRecord
100
AcDbLinetypeTableRecord
  2
DASHED
 70
    64
  3
Dashed __ __ __ __ __ __ __ __ __ __ __ __ __ _
 72
    65
 73
     2
 40
0.75
 49
0.5
 74
     0
 49
-0.25
 74
     0
  0
LTYPE
  5
25
100
AcDbSymbolTableRecord
100
AcDbLinetypeTableRecord
  2
CENTER
 70
    64
  3
Center ____ _ ____ _ ____ _ ____ _ ____ _ ____
 72
    65
 73
     4
 40
1.0
 49
0.5
 74
     0
 49
-0.25
 74
     0
 49
0.0
 74
     0
 49
-0.25
 74
     0
  0
LTYPE
  5
26
100
AcDbSymbolTableRecord
100
AcDbLinetypeTableRecord
  2
DIVIDE
 70
    64
  3
Divide ____ . . ____ . . ____ . . ____ . . ____
 72
    65
 73
     6
 40
1.25
 49
0.5
 74
     0
 49
-0.25
 74
     0
 49
0.0
 74
     0
 49
-0.25
 74
     0
 49
0.0
 74
     0
 49
-0.25
 74
     0
  0
LTYPE
  5
27
100
AcDbSymbolTableRecord
100
AcDbLinetypeTableRecord
  2
PHANTOM
 70
    64
  3
Phantom ______  __  __  ______  __  __  ______
 72
    65
 73
     6
 40
9.0
 49
4.3
 74
     0
 49
-0.7
 74
     0
 49
1.3
 74
     0
 49
-0.7
 74
     0
 49
1.3
 74
     0
 49
-0.7
 74
     0
  0
ENDTAB
  0
TABLE
  2
LAYER
  5
2
100
AcDbSymbolTable
 70
     3
  0
LAYER
  5
14
100
AcDbSymbolTableRecord
100
AcDbLayerTableRecord
  2
0
 70
    64
 62
   102
  6
Continuous
290
     1
370
    -3
390
1D
  0
LAYER
  5
28
100
AcDbSymbolTableRecord
100
AcDbLayerTableRecord
  2
1
 70
    64
 62
     2
  6
Continuous
290
     1
370
    -3
390
1D
  0
LAYER
  5
29
100
AcDbSymbolTableRecord
100
AcDbLayerTableRecord
  2
2
 70
    64
 62
     2
  6
Continuous
290
     1
370
    -3
390
1D
  0
ENDTAB
  0
TABLE
  2
STYLE
  5
3
100
AcDbSymbolTable
 70
     2
  0
STYLE
  5
17
100
AcDbSymbolTableRecord
100
AcDbTextStyleTableRecord
  2
Standard
 70
     0
 40
0.0
 41
1.0
 50
0.0
 71
     0
 42
0.0
  3
txt
  4

  0
STYLE
  5
1BF
100
AcDbSymbolTableRecord
100
AcDbTextStyleTableRecord
  2
ZU_SHPTB00001
 70
     0
 40
0.0
 41
1.0
 50
0.0
 71
     0
 42
0.0
  3
monotxt
  4
bigfont
  0
ENDTAB
  0
TABLE
  2
VIEW
  5
5
100
AcDbSymbolTable
 70
     0
  0
ENDTAB
  0
TABLE
  2
UCS
  5
6
100
AcDbSymbolTable
 70
     0
  0
ENDTAB
  0
TABLE
  2
APPID
  5
8
100
AcDbSymbolTable
 70
     1
  0
APPID
  5
16
100
AcDbSymbolTableRecord
100
AcDbRegAppTableRecord
  2
ACAD
 70
     0
  0
ENDTAB
  0
TABLE
  2
DIMSTYLE
  5
9
100
AcDbSymbolTable
 70
     1
100
AcDbDimStyleTable
 71
     0
  0
DIMSTYLE
105
18
100
AcDbSymbolTableRecord
100
AcDbDimStyleTableRecord
  2
Standard
 70
     0
  3

  4

 40
1.0
 41
0.18
 42
0.0625
 43
0.38
 44
0.18
 45
0.0
 46
0.0
 47
0.0
 48
0.0
 71
     0
 72
     0
 73
     1
 74
     1
 75
     0
 76
     0
 77
     0
 78
     0
 79
     0
140
0.18
141
0.09
142
0.0
143
25.4
144
1.0
145
0.0
146
1.0
147
0.09
148
0.0
170
     0
171
     2
172
     0
173
     0
174
     0
175
     0
176
     0
177
     0
178
     0
179
     0
271
     4
272
     4
273
     2
274
     2
275
     0
276
     0
277
     2
278
    46
279
     0
280
     0
281
     0
282
     0
283
     1
284
     0
285
     0
286
     0
288
     0
289
     3
340
17
341
0
342
0
343
0
344
0
371
    -2
372
    -2
  0
ENDTAB
  0
TABLE
  2
BLOCK_RECORD
  5
1
100
AcDbSymbolTable
 70
     9
  0
BLOCK_RECORD
  5
A
100
AcDbSymbolTableRecord
100
AcDbBlockTableRecord
  2
*MODEL_SPACE
340
20
  0
BLOCK_RECORD
  5
B
100
AcDbSymbolTableRecord
100
AcDbBlockTableRecord
  2
*PAPER_SPACE
340
21
  0
BLOCK_RECORD
  5
14E
100
AcDbSymbolTableRecord
100
AcDbBlockTableRecord
  2
ZU_SYM__USERS_HOME_SYMBOL_POO_SYM_B20_18
340
0
102
{BLKREFS
331
159
102
}
  0
BLOCK_RECORD
  5
201
100
AcDbSymbolTableRecord
100
AcDbBlockTableRecord
  2
ZU_SYM__USR_MELCAD_MD_SYM_SYM_SYM9_00
340
0
102
{BLKREFS
331
20F
102
}
  0
BLOCK_RECORD
  5
210
100
AcDbSymbolTableRecord
100
AcDbBlockTableRecord
  2
ZU_SYM__USR_MELCAD_MD_SYM_SYM_SYM8_00
340
0
102
{BLKREFS
331
21E
102
}
  0
BLOCK_RECORD
  5
247
100
AcDbSymbolTableRecord
100
AcDbBlockTableRecord
  2
ZU_SYM__USR_MELCAD_MD_SYM_SYM_SYM7_00
340
0
102
{BLKREFS
331
252
102
}
  0
BLOCK_RECORD
  5
253
100
AcDbSymbolTableRecord
100
AcDbBlockTableRecord
  2
ZU_SYM__USR_MELCAD_MD_SYM_SYM_SYM6_00
340
0
102
{BLKREFS
331
25E
102
}
  0
BLOCK_RECORD
  5
25F
100
AcDbSymbolTableRecord
100
AcDbBlockTableRecord
  2
ZU_SYM__USR_MELCAD_MD_SYM_SYM_SYM5_00
340
0
102
{BLKREFS
331
26A
102
}
  0
BLOCK_RECORD
  5
26B
100
AcDbSymbolTableRecord
100
AcDbBlockTableRecord
  2
ZU_SYM__USR_MELCAD_MD_SYM_SYM_SYM4_00
340
0
102
{BLKREFS
331
276
102
}
  0
BLOCK_RECORD
  5
4F0
100
AcDbSymbolTableRecord
100
AcDbBlockTableRecord
  2
ZU_SYM__USR_MELCAD_MD_SYM_SYM_SYM2_00
340
0
102
{BLKREFS
331
4FB
102
}
  0
BLOCK_RECORD
  5
4FD
100
AcDbSymbolTableRecord
100
AcDbBlockTableRecord
  2
ZU_SYM__USR_MELCAD_MD_SYM_SYM_SYM1_00
340
0
102
{BLKREFS
331
508
102
}
  0
ENDTAB
  0
ENDSEC
  0
SECTION
  2
BLOCKS
  0
BLOCK
  5
D
100
AcDbEntity
  8
0
390
0
100
AcDbBlockBegin
  2
*MODEL_SPACE
 70
     0
 10
0.0
 20
0.0
 30
0.0
  3
*MODEL_SPACE
  1

  0
ENDBLK
  5
E
100
AcDbEntity
  8
0
390
0
100
AcDbBlockEnd
  0
BLOCK
  5
F
100
AcDbEntity
 67
     1
  8
0
390
0
100
AcDbBlockBegin
  2
*PAPER_SPACE
 70
     0
 10
0.0
 20
0.0
 30
0.0
  3
*PAPER_SPACE
  1

  0
ENDBLK
  5
10
100
AcDbEntity
 67
     1
  8
0
390
0
100
AcDbBlockEnd
  0
BLOCK
  5
14F
100
AcDbEntity
  8
0
390
0
100
AcDbBlockBegin
  2
ZU_SYM__USERS_HOME_SYMBOL_POO_SYM_B20_18
 70
    64
 10
0.0
 20
0.0
 30
0.0
  3
ZU_SYM__USERS_HOME_SYMBOL_POO_SYM_B20_18
  1

  0
POINT
  5
150
100
AcDbEntity
  8
0
370
    -3
390
0
  6
Continuous
100
AcDbPoint
 10
0.0
 20
0.0
 30
0.0
  0
LINE
  5
151
100
AcDbEntity
  8
0
370
    -3
390
0
  6
Continuous
100
AcDbLine
 10
0.0
 20
-6.5
 30
0.0
 11
0.0
 21
6.5
 31
0.0
  0
LINE
  5
152
100
AcDbEntity
  8
0
370
    -3
390
0
  6
Continuous
100
AcDbLine
 10
-7.999999
 20
5.633876
 30
0.0
 11
-7.999999
 21
-5.63407
 31
0.0
  0
LINE
  5
153
100
AcDbEntity
  8
0
370
    -3
390
0
  6
Continuous
100
AcDbLine
 10
0.0
 20
6.5
 30
0.0
 11
-7.499999
 21
6.5
 31
0.0
  0
LINE
  5
154
100
AcDbEntity
  8
0
370
    -3
390
0
  6
Continuous
100
AcDbLine
 10
0.0
 20
-6.5
 30
0.0
 11
-7.499998
 21
-6.5
 31
0.0
  0
LINE
  5
155
100
AcDbEntity
  8
0
370
    -3
390
0
  6
Continuous
100
AcDbLine
 10
-7.499999
 20
6.5
 30
0.0
 11
-7.999999
 21
5.633876
 31
0.0
  0
LINE
  5
156
100
AcDbEntity
  8
0
370
    -3
390
0
  6
Continuous
100
AcDbLine
 10
-7.499998
 20
-6.499999
 30
0.0
 11
-7.999999
 21
-5.63407
 31
0.0
  0
LINE
  5
157
100
AcDbEntity
  8
0
370
    -3
390
0
  6
Continuous
100
AcDbLine
 10
-7.499999
 20
6.5
 30
0.0
 11
-7.499999
 21
-6.5
 31
0.0
  0
ENDBLK
  5
158
100
AcDbEntity
  8
0
390
0
100
AcDbBlockEnd
  0
BLOCK
  5
202
100
AcDbEntity
  8
0
390
0
100
AcDbBlockBegin
  2
ZU_SYM__USR_MELCAD_MD_SYM_SYM_SYM9_00
 70
    64
 10
0.0
 20
0.0
 30
0.0
  3
ZU_SYM__USR_MELCAD_MD_SYM_SYM_SYM9_00
  1

  0
POINT
  5
203
100
AcDbEntity
  8
0
370
    -3
390
0
  6
Continuous
100
AcDbPoint
 10
0.0
 20
5.633955
 30
0.0
  0
POINT
  5
204
100
AcDbEntity
  8
0
370
    -3
390
0
  6
Continuous
100
AcDbPoint
 10
0.5
 20
6.5
 30
0.0
  0
LINE
  5
205
100
AcDbEntity
  8
0
370
    -3
390
0
  6
Continuous
100
AcDbLine
 10
-0.000005
 20
-3.464098
 30
0.0
 11
-2.999998
 21
-1.732046
 31
0.0
  0
LINE
  5
206
100
AcDbEntity
  8
0
370
    -3
390
0
  6
Continuous
100
AcDbLine
 10
0.000007
 20
3.464097
 30
0.0
 11
2.999997
 21
1.732047
 31
0.0
  0
LINE
  5
207
100
AcDbEntity
  8
0
370
    -3
390
0
  6
Continuous
100
AcDbLine
 10
2.999998
 20
-1.732051
 30
0.0
 11
-0.000004
 21
-3.464098
 31
0.0
  0
LINE
  5
208
100
AcDbEntity
  8
0
370
    -3
390
0
  6
Continuous
100
AcDbLine
 10
0.000007
 20
3.464097
 30
0.0
 11
-2.999998
 21
1.732052
 31
0.0
  0
LINE
  5
209
100
AcDbEntity
  8
0
370
    -3
390
0
  6
Continuous
100
AcDbLine
 10
2.999997
 20
1.732047
 30
0.0
 11
2.999998
 21
-1.732051
 31
0.0
  0
LINE
  5
20A
100
AcDbEntity
  8
0
370
    -3
390
0
  6
Continuous
100
AcDbLine
 10
-2.999997
 20
-1.732046
 30
0.0
 11
-2.999998
 21
1.732052
 31
0.0
  0
POINT
  5
20B
100
AcDbEntity
  8
0
370
    -3
390
0
  6
Continuous
100
AcDbPoint
 10
0.0
 20
0.0
 30
0.0
  0
CIRCLE
  5
20C
100
AcDbEntity
  8
0
370
    -3
390
0
  6
Continuous
100
AcDbCircle
 10
0.0
 20
0.0
 30
0.0
 40
6.5
  0
CIRCLE
  5
20D
100
AcDbEntity
  8
0
370
    -3
390
0
  6
Continuous
100
AcDbCircle
 10
0.0
 20
0.0
 30
0.0
 40
5.633955
  0
ENDBLK
  5
20E
100
AcDbEntity
  8
0
390
0
100
AcDbBlockEnd
  0
BLOCK
  5
211
100
AcDbEntity
  8
0
390
0
100
AcDbBlockBegin
  2
ZU_SYM__USR_MELCAD_MD_SYM_SYM_SYM8_00
 70
    64
 10
0.0
 20
0.0
 30
0.0
  3
ZU_SYM__USR_MELCAD_MD_SYM_SYM_SYM8_00
  1

  0
POINT
  5
212
100
AcDbEntity
  8
0
370
    -3
390
0
  6
Continuous
100
AcDbPoint
 10
0.0
 20
5.633955
 30
0.0
  0
POINT
  5
213
100
AcDbEntity
  8
0
370
    -3
390
0
  6
Continuous
100
AcDbPoint
 10
0.5
 20
6.5
 30
0.0
  0
LINE
  5
214
100
AcDbEntity
  8
0
370
    -3
390
0
  6
Continuous
100
AcDbLine
 10
-0.000005
 20
-3.464098
 30
0.0
 11
-2.999998
 21
-1.732046
 31
0.0
  0
LINE
  5
215
100
AcDbEntity
  8
0
370
    -3
390
0
  6
Continuous
100
AcDbLine
 10
0.000007
 20
3.464097
 30
0.0
 11
2.999997
 21
1.732047
 31
0.0
  0
LINE
  5
216
100
AcDbEntity
  8
0
370
    -3
390
0
  6
Continuous
100
AcDbLine
 10
2.999998
 20
-1.732051
 30
0.0
 11
-0.000004
 21
-3.464098
 31
0.0
  0
LINE
  5
217
100
AcDbEntity
  8
0
370
    -3
390
0
  6
Continuous
100
AcDbLine
 10
0.000007
 20
3.464097
 30
0.0
 11
-2.999998
 21
1.732052
 31
0.0
  0
LINE
  5
218
100
AcDbEntity
  8
0
370
    -3
390
0
  6
Continuous
100
AcDbLine
 10
2.999997
 20
1.732047
 30
0.0
 11
2.999998
 21
-1.732051
 31
0.0
  0
LINE
  5
219
100
AcDbEntity
  8
0
370
    -3
390
0
  6
Continuous
100
AcDbLine
 10
-2.999997
 20
-1.732046
 30
0.0
 11
-2.999998
 21
1.732052
 31
0.0
  0
POINT
  5
21A
100
AcDbEntity
  8
0
370
    -3
390
0
  6
Continuous
100
AcDbPoint
 10
0.0
 20
0.0
 30
0.0
  0
CIRCLE
  5
21B
100
AcDbEntity
  8
0
370
    -3
390
0
  6
Continuous
100
AcDbCircle
 10
0.0
 20
0.0
 30
0.0
 40
6.5
  0
CIRCLE
  5
21C
100
AcDbEntity
  8
0
370
    -3
390
0
  6
Continuous
100
AcDbCircle
 10
0.0
 20
0.0
 30
0.0
 40
5.633955
  0
ENDBLK
  5
21D
100
AcDbEntity
  8
0
390
0
100
AcDbBlockEnd
  0
BLOCK
  5
248
100
AcDbEntity
  8
0
390
0
100
AcDbBlockBegin
  2
ZU_SYM__USR_MELCAD_MD_SYM_SYM_SYM7_00
 70
    64
 10
0.0
 20
0.0
 30
0.0
  3
ZU_SYM__USR_MELCAD_MD_SYM_SYM_SYM7_00
  1

  0
ARC
  5
249
100
AcDbEntity
  8
0
370
    -3
390
0
  6
Continuous
100
AcDbCircle
 10
6.4
 20
0.0
 30
0.0
 40
9.0
100
AcDbArc
 50
163.398452
 51
196.601531
  0
POINT
  5
24A
100
AcDbEntity
  8
0
370
    -3
390
0
  6
Continuous
100
AcDbPoint
 10
0.0
 20
0.0
 30
0.0
  0
LINE
  5
24B
100
AcDbEntity
  8
0
370
    -3
390
0
  6
Continuous
100
AcDbLine
 10
0.0
 20
-3.5
 30
0.0
 11
0.0
 21
3.5
 31
0.0
  0
LINE
  5
24C
100
AcDbEntity
  8
0
370
    -3
390
0
  6
Continuous
100
AcDbLine
 10
0.0
 20
-3.5
 30
0.0
 11
0.0
 21
3.5
 31
0.0
  0
LINE
  5
24D
100
AcDbEntity
  8
0
370
    -3
390
0
  6
Continuous
100
AcDbLine
 10
0.0
 20
3.5
 30
0.0
 11
-0.979025
 21
3.5
 31
0.0
  0
LINE
  5
24E
100
AcDbEntity
  8
0
370
    -3
390
0
  6
Continuous
100
AcDbLine
 10
0.0
 20
-3.5
 30
0.0
 11
-0.979025
 21
-3.5
 31
0.0
  0
ARC
  5
24F
100
AcDbEntity
  8
0
370
    -3
390
0
  6
Continuous
100
AcDbCircle
 10
-0.979025
 20
2.200001
 30
0.0
 40
1.299999
100
AcDbArc
 50
90.0
 51
163.398452
  0
ARC
  5
250
100
AcDbEntity
  8
0
370
    -3
390
0
  6
Continuous
100
AcDbCircle
 10
-0.979025
 20
-2.200001
 30
0.0
 40
1.299999
100
AcDbArc
 50
196.601531
 51
270.0
  0
ENDBLK
  5
251
100
AcDbEntity
  8
0
390
0
100
AcDbBlockEnd
  0
BLOCK
  5
254
100
AcDbEntity
  8
0
390
0
100
AcDbBlockBegin
  2
ZU_SYM__USR_MELCAD_MD_SYM_SYM_SYM6_00
 70
    64
 10
0.0
 20
0.0
 30
0.0
  3
ZU_SYM__USR_MELCAD_MD_SYM_SYM_SYM6_00
  1

  0
ARC
  5
255
100
AcDbEntity
  8
0
370
    -3
390
0
  6
Continuous
100
AcDbCircle
 10
6.4
 20
0.0
 30
0.0
 40
9.0
100
AcDbArc
 50
163.398452
 51
196.601531
  0
POINT
  5
256
100
AcDbEntity
  8
0
370
    -3
390
0
  6
Continuous
100
AcDbPoint
 10
0.0
 20
0.0
 30
0.0
  0
LINE
  5
257
100
AcDbEntity
  8
0
370
    -3
390
0
  6
Continuous
100
AcDbLine
 10
0.0
 20
-3.5
 30
0.0
 11
0.0
 21
3.5
 31
0.0
  0
LINE
  5
258
100
AcDbEntity
  8
0
370
    -3
390
0
  6
Continuous
100
AcDbLine
 10
0.0
 20
-3.5
 30
0.0
 11
0.0
 21
3.5
 31
0.0
  0
LINE
  5
259
100
AcDbEntity
  8
0
370
    -3
390
0
  6
Continuous
100
AcDbLine
 10
0.0
 20
3.5
 30
0.0
 11
-0.979025
 21
3.5
 31
0.0
  0
LINE
  5
25A
100
AcDbEntity
  8
0
370
    -3
390
0
  6
Continuous
100
AcDbLine
 10
0.0
 20
-3.5
 30
0.0
 11
-0.979025
 21
-3.5
 31
0.0
  0
ARC
  5
25B
100
AcDbEntity
  8
0
370
    -3
390
0
  6
Continuous
100
AcDbCircle
 10
-0.979025
 20
2.200001
 30
0.0
 40
1.299999
100
AcDbArc
 50
90.0
 51
163.398452
  0
ARC
  5
25C
100
AcDbEntity
  8
0
370
    -3
390
0
  6
Continuous
100
AcDbCircle
 10
-0.979025
 20
-2.200001
 30
0.0
 40
1.299999
100
AcDbArc
 50
196.601531
 51
270.0
  0
ENDBLK
  5
25D
100
AcDbEntity
  8
0
390
0
100
AcDbBlockEnd
  0
BLOCK
  5
260
100
AcDbEntity
  8
0
390
0
100
AcDbBlockBegin
  2
ZU_SYM__USR_MELCAD_MD_SYM_SYM_SYM5_00
 70
    64
 10
0.0
 20
0.0
 30
0.0
  3
ZU_SYM__USR_MELCAD_MD_SYM_SYM_SYM5_00
  1

  0
ARC
  5
261
100
AcDbEntity
  8
0
370
    -3
390
0
  6
Continuous
100
AcDbCircle
 10
6.4
 20
0.0
 30
0.0
 40
9.0
100
AcDbArc
 50
163.398452
 51
196.601531
  0
POINT
  5
262
100
AcDbEntity
  8
0
370
    -3
390
0
  6
Continuous
100
AcDbPoint
 10
0.0
 20
0.0
 30
0.0
  0
LINE
  5
263
100
AcDbEntity
  8
0
370
    -3
390
0
  6
Continuous
100
AcDbLine
 10
0.0
 20
-3.5
 30
0.0
 11
0.0
 21
3.5
 31
0.0
  0
LINE
  5
264
100
AcDbEntity
  8
0
370
    -3
390
0
  6
Continuous
100
AcDbLine
 10
0.0
 20
-3.5
 30
0.0
 11
0.0
 21
3.5
 31
0.0
  0
LINE
  5
265
100
AcDbEntity
  8
0
370
    -3
390
0
  6
Continuous
100
AcDbLine
 10
0.0
 20
3.5
 30
0.0
 11
-0.979025
 21
3.5
 31
0.0
  0
LINE
  5
266
100
AcDbEntity
  8
0
370
    -3
390
0
  6
Continuous
100
AcDbLine
 10
0.0
 20
-3.5
 30
0.0
 11
-0.979025
 21
-3.5
 31
0.0
  0
ARC
  5
267
100
AcDbEntity
  8
0
370
    -3
390
0
  6
Continuous
100
AcDbCircle
 10
-0.979025
 20
2.200001
 30
0.0
 40
1.299999
100
AcDbArc
 50
90.0
 51
163.398452
  0
ARC
  5
268
100
AcDbEntity
  8
0
370
    -3
390
0
  6
Continuous
100
AcDbCircle
 10
-0.979025
 20
-2.200001
 30
0.0
 40
1.299999
100
AcDbArc
 50
196.601531
 51
270.0
  0
ENDBLK
  5
269
100
AcDbEntity
  8
0
390
0
100
AcDbBlockEnd
  0
BLOCK
  5
26C
100
AcDbEntity
  8
0
390
0
100
AcDbBlockBegin
  2
ZU_SYM__USR_MELCAD_MD_SYM_SYM_SYM4_00
 70
    64
 10
0.0
 20
0.0
 30
0.0
  3
ZU_SYM__USR_MELCAD_MD_SYM_SYM_SYM4_00
  1

  0
ARC
  5
26D
100
AcDbEntity
  8
0
370
    -3
390
0
  6
Continuous
100
AcDbCircle
 10
6.4
 20
0.0
 30
0.0
 40
9.0
100
AcDbArc
 50
163.398452
 51
196.601531
  0
POINT
  5
26E
100
AcDbEntity
  8
0
370
    -3
390
0
  6
Continuous
100
AcDbPoint
 10
0.0
 20
0.0
 30
0.0
  0
LINE
  5
26F
100
AcDbEntity
  8
0
370
    -3
390
0
  6
Continuous
100
AcDbLine
 10
0.0
 20
-3.5
 30
0.0
 11
0.0
 21
3.5
 31
0.0
  0
LINE
  5
270
100
AcDbEntity
  8
0
370
    -3
390
0
  6
Continuous
100
AcDbLine
 10
0.0
 20
-3.5
 30
0.0
 11
0.0
 21
3.5
 31
0.0
  0
LINE
  5
271
100
AcDbEntity
  8
0
370
    -3
390
0
  6
Continuous
100
AcDbLine
 10
0.0
 20
3.5
 30
0.0
 11
-0.979025
 21
3.5
 31
0.0
  0
LINE
  5
272
100
AcDbEntity
  8
0
370
    -3
390
0
  6
Continuous
100
AcDbLine
 10
0.0
 20
-3.5
 30
0.0
 11
-0.979025
 21
-3.5
 31
0.0
  0
ARC
  5
273
100
AcDbEntity
  8
0
370
    -3
390
0
  6
Continuous
100
AcDbCircle
 10
-0.979025
 20
2.200001
 30
0.0
 40
1.299999
100
AcDbArc
 50
90.0
 51
163.398452
  0
ARC
  5
274
100
AcDbEntity
  8
0
370
    -3
390
0
  6
Continuous
100
AcDbCircle
 10
-0.979025
 20
-2.200001
 30
0.0
 40
1.299999
100
AcDbArc
 50
196.601531
 51
270.0
  0
ENDBLK
  5
275
100
AcDbEntity
  8
0
390
0
100
AcDbBlockEnd
  0
BLOCK
  5
4F1
100
AcDbEntity
  8
0
390
0
100
AcDbBlockBegin
  2
ZU_SYM__USR_MELCAD_MD_SYM_SYM_SYM2_00
 70
    64
 10
0.0
 20
0.0
 30
0.0
  3
ZU_SYM__USR_MELCAD_MD_SYM_SYM_SYM2_00
  1

  0
LINE
  5
4F2
100
AcDbEntity
  8
0
370
    -3
390
0
  6
Continuous
100
AcDbLine
 10
-7.499999
 20
6.5
 30
0.0
 11
-7.499999
 21
-6.5
 31
0.0
  0
LINE
  5
4F3
100
AcDbEntity
  8
0
370
    -3
390
0
  6
Continuous
100
AcDbLine
 10
-7.499998
 20
-6.499999
 30
0.0
 11
-7.999999
 21
-5.63407
 31
0.0
  0
LINE
  5
4F4
100
AcDbEntity
  8
0
370
    -3
390
0
  6
Continuous
100
AcDbLine
 10
-7.499999
 20
6.5
 30
0.0
 11
-7.999999
 21
5.633876
 31
0.0
  0
LINE
  5
4F5
100
AcDbEntity
  8
0
370
    -3
390
0
  6
Continuous
100
AcDbLine
 10
0.0
 20
-6.5
 30
0.0
 11
-7.499998
 21
-6.5
 31
0.0
  0
LINE
  5
4F6
100
AcDbEntity
  8
0
370
    -3
390
0
  6
Continuous
100
AcDbLine
 10
0.0
 20
6.5
 30
0.0
 11
-7.499999
 21
6.5
 31
0.0
  0
LINE
  5
4F7
100
AcDbEntity
  8
0
370
    -3
390
0
  6
Continuous
100
AcDbLine
 10
-7.999999
 20
5.633876
 30
0.0
 11
-7.999999
 21
-5.63407
 31
0.0
  0
LINE
  5
4F8
100
AcDbEntity
  8
0
370
    -3
390
0
  6
Continuous
100
AcDbLine
 10
0.0
 20
-6.5
 30
0.0
 11
0.0
 21
6.5
 31
0.0
  0
POINT
  5
4F9
100
AcDbEntity
  8
0
370
    -3
390
0
  6
Continuous
100
AcDbPoint
 10
0.0
 20
0.0
 30
0.0
  0
ENDBLK
  5
4FA
100
AcDbEntity
  8
0
390
0
100
AcDbBlockEnd
  0
BLOCK
  5
4FE
100
AcDbEntity
  8
0
390
0
100
AcDbBlockBegin
  2
ZU_SYM__USR_MELCAD_MD_SYM_SYM_SYM1_00
 70
    64
 10
0.0
 20
0.0
 30
0.0
  3
ZU_SYM__USR_MELCAD_MD_SYM_SYM_SYM1_00
  1

  0
LINE
  5
4FF
100
AcDbEntity
  8
0
370
    -3
390
0
  6
Continuous
100
AcDbLine
 10
-7.499999
 20
6.5
 30
0.0
 11
-7.499999
 21
-6.5
 31
0.0
  0
LINE
  5
500
100
AcDbEntity
  8
0
370
    -3
390
0
  6
Continuous
100
AcDbLine
 10
-7.499998
 20
-6.499999
 30
0.0
 11
-7.999999
 21
-5.63407
 31
0.0
  0
LINE
  5
501
100
AcDbEntity
  8
0
370
    -3
390
0
  6
Continuous
100
AcDbLine
 10
-7.499999
 20
6.5
 30
0.0
 11
-7.999999
 21
5.633876
 31
0.0
  0
LINE
  5
502
100
AcDbEntity
  8
0
370
    -3
390
0
  6
Continuous
100
AcDbLine
 10
0.0
 20
-6.5
 30
0.0
 11
-7.499998
 21
-6.5
 31
0.0
  0
LINE
  5
503
100
AcDbEntity
  8
0
370
    -3
390
0
  6
Continuous
100
AcDbLine
 10
0.0
 20
6.5
 30
0.0
 11
-7.499999
 21
6.5
 31
0.0
  0
LINE
  5
504
100
AcDbEntity
  8
0
370
    -3
390
0
  6
Continuous
100
AcDbLine
 10
-7.999999
 20
5.633876
 30
0.0
 11
-7.999999
 21
-5.63407
 31
0.0
  0
LINE
  5
505
100
AcDbEntity
  8
0
370
    -3
390
0
  6
Continuous
100
AcDbLine
 10
0.0
 20
-6.5
 30
0.0
 11
0.0
 21
6.5
 31
0.0
  0
POINT
  5
506
100
AcDbEntity
  8
0
370
    -3
390
0
  6
Continuous
100
AcDbPoint
 10
0.0
 20
0.0
 30
0.0
  0
ENDBLK
  5
507
100
AcDbEntity
  8
0
390
0
100
AcDbBlockEnd
  0
ENDSEC
  0
SECTION
  2
ENTITIES
  0
ARC
  5
2A
100
AcDbEntity
  8
0
370
    -3
390
0
  6
Continuous
100
AcDbCircle
 10
-9.864949
 20
-139.862731
 30
0.0
 40
27.5
100
AcDbArc
 50
106.91239
 51
73.08761
  0
LINE
  5
2B
100
AcDbEntity
  8
0
370
    -3
390
0
  6
Continuous
100
AcDbLine
 10
-17.864949
 20
-108.062731
 30
0.0
 11
-1.864949
 21
-108.062731
 31
0.0
  0
LINE
  5
2C
100
AcDbEntity
  8
0
370
    -3
390
0
  6
Continuous
100
AcDbLine
 10
-1.864949
 20
-113.552087
 30
0.0
 11
-1.864949
 21
-108.062731
 31
0.0
  0
LINE
  5
2D
100
AcDbEntity
  8
0
370
    -3
390
0
  6
Continuous
100
AcDbLine
 10
-17.864949
 20
-113.552087
 30
0.0
 11
-17.864949
 21
-108.062731
 31
0.0
  0
CIRCLE
  5
2E
100
AcDbEntity
  8
0
370
    -3
390
0
  6
Continuous
100
AcDbCircle
 10
-9.864949
 20
-139.862731
 30
0.0
 40
40.0
  0
LINE
  5
2F
100
AcDbEntity
  8
0
370
    -3
390
0
  6
Continuous
100
AcDbLine
 10
154.747346
 20
-179.762733
 30
0.0
 11
227.247346
 21
-179.762733
 31
0.0
  0
LINE
  5
30
100
AcDbEntity
  8
0
370
    -3
390
0
  6
Continuous
100
AcDbLine
 10
293.747346
 20
-179.762733
 30
0.0
 11
332.747346
 21
-179.762733
 31
0.0
  0
LINE
  5
31
100
AcDbEntity
  8
0
370
    -3
390
0
  6
Continuous
100
AcDbLine
 10
293.747346
 20
-99.962733
 30
0.0
 11
332.747346
 21
-99.962733
 31
0.0
  0
LINE
  5
32
100
AcDbEntity
  8
0
370
    -3
390
0
  6
Continuous
100
AcDbLine
 10
154.747346
 20
-99.962733
 30
0.0
 11
227.247346
 21
-99.962733
 31
0.0
  0
LINE
  5
33
100
AcDbEntity
  8
0
370
    -3
390
0
  6
Continuous
100
AcDbLine
 10
292.747346
 20
-169.862733
 30
0.0
 11
295.747346
 21
-169.862733
 31
0.0
  0
LINE
  5
34
100
AcDbEntity
  8
0
370
    -3
390
0
  6
Continuous
100
AcDbLine
 10
292.747346
 20
-109.862733
 30
0.0
 11
295.747346
 21
-109.862733
 31
0.0
  0
LINE
  5
35
100
AcDbEntity
  8
0
370
    -3
390
0
  6
Continuous
100
AcDbLine
 10
191.747346
 20
-169.862733
 30
0.0
 11
191.747346
 21
-109.862733
 31
0.0
  0
LINE
  5
36
100
AcDbEntity
  8
0
370
    -3
390
0
  6
Continuous
100
AcDbLine
 10
191.747346
 20
-169.862733
 30
0.0
 11
194.747346
 21
-169.862733
 31
0.0
  0
LINE
  5
37
100
AcDbEntity
  8
0
370
    -3
390
0
  6
Continuous
100
AcDbLine
 10
191.747346
 20
-109.862733
 30
0.0
 11
194.747346
 21
-109.862733
 31
0.0
  0
LINE
  5
38
100
AcDbEntity
  8
0
370
    -3
390
0
  6
Continuous
100
AcDbLine
 10
295.747346
 20
-169.862733
 30
0.0
 11
295.747346
 21
-109.862733
 31
0.0
  0
LINE
  5
39
100
AcDbEntity
  8
0
370
    -3
390
0
  6
Continuous
100
AcDbLine
 10
227.247346
 20
-181.112733
 30
0.0
 11
227.247346
 21
-179.912733
 31
0.0
  0
LINE
  5
3A
100
AcDbEntity
  8
0
370
    -3
390
0
  6
Continuous
100
AcDbLine
 10
227.247346
 20
-98.612733
 30
0.0
 11
227.247346
 21
-99.812733
 31
0.0
  0
LINE
  5
3B
100
AcDbEntity
  8
0
370
    -3
390
0
  6
Continuous
100
AcDbLine
 10
293.747346
 20
-92.362733
 30
0.0
 11
252.247346
 21
-92.362733
 31
0.0
  0
LINE
  5
3C
100
AcDbEntity
  8
0
370
    -3
390
0
  6
Continuous
100
AcDbLine
 10
252.247346
 20
-98.612733
 30
0.0
 11
252.247346
 21
-92.362733
 31
0.0
  0
LINE
  5
3D
100
AcDbEntity
  8
0
370
    -3
390
0
  6
Continuous
100
AcDbLine
 10
227.247346
 20
-98.612733
 30
0.0
 11
252.247346
 21
-98.612733
 31
0.0
  0
LINE
  5
3E
100
AcDbEntity
  8
0
370
    -3
390
0
  6
Continuous
100
AcDbLine
 10
227.247346
 20
-98.612733
 30
0.0
 11
227.247346
 21
-99.962733
 31
0.0
  0
LINE
  5
3F
100
AcDbEntity
  8
0
370
    -3
390
0
  6
Continuous
100
AcDbLine
 10
293.747346
 20
-99.962733
 30
0.0
 11
293.747346
 21
-92.362733
 31
0.0
  0
ARC
  5
40
100
AcDbEntity
  8
0
370
    -3
390
0
  6
Continuous
100
AcDbCircle
 10
330.247346
 20
-109.862733
 30
0.0
 40
2.5
100
AcDbArc
 50
270.0
 51
0.0
  0
LINE
  5
41
100
AcDbEntity
  8
0
370
    -3
390
0
  6
Continuous
100
AcDbLine
 10
252.247346
 20
-181.112733
 30
0.0
 11
252.247346
 21
-187.362733
 31
0.0
  0
LINE
  5
42
100
AcDbEntity
  8
0
370
    -3
390
0
  6
Continuous
100
AcDbLine
 10
227.247346
 20
-181.112733
 30
0.0
 11
252.247346
 21
-181.112733
 31
0.0
  0
LINE
  5
43
100
AcDbEntity
  8
0
370
    -3
390
0
  6
Continuous
100
AcDbLine
 10
227.247346
 20
-181.112733
 30
0.0
 11
227.247346
 21
-179.762733
 31
0.0
  0
LINE
  5
44
100
AcDbEntity
  8
0
370
    -3
390
0
  6
Continuous
100
AcDbLine
 10
293.747346
 20
-179.862733
 30
0.0
 11
293.747346
 21
-187.362733
 31
0.0
  0
LINE
  5
45
100
AcDbEntity
  8
0
370
    -3
390
0
  6
Continuous
100
AcDbLine
 10
332.747346
 20
-99.962733
 30
0.0
 11
332.747346
 21
-179.862733
 31
0.0
  0
ARC
  5
46
100
AcDbEntity
  8
0
370
    -3
390
0
  6
Continuous
100
AcDbCircle
 10
330.247346
 20
-169.862733
 30
0.0
 40
2.5
100
AcDbArc
 50
0.0
 51
90.0
  0
LINE
  5
47
100
AcDbEntity
  8
0
370
    -3
390
0
  6
Continuous
100
AcDbLine
 10
293.747346
 20
-187.362733
 30
0.0
 11
252.247346
 21
-187.362733
 31
0.0
  0
ARC
  5
48
100
AcDbEntity
  8
0
370
    -3
390
0
  6
Continuous
100
AcDbCircle
 10
293.347346
 20
-92.762733
 30
0.0
 40
0.4
100
AcDbArc
 50
0.0
 51
90.0
  0
LINE
  5
49
100
AcDbEntity
  8
0
370
    -3
390
0
  6
Continuous
100
AcDbLine
 10
293.747346
 20
-179.762733
 30
0.0
 11
293.747346
 21
-187.362733
 31
0.0
  0
LINE
  5
4A
100
AcDbEntity
  8
0
370
    -3
390
0
  6
CENTER
100
AcDbLine
 10
149.318364
 20
-139.862733
 30
0.0
 11
341.510278
 21
-139.862733
 31
0.0
  0
ARC
  5
4B
100
AcDbEntity
  8
0
370
    -3
390
0
  6
Continuous
100
AcDbCircle
 10
157.247346
 20
-169.862733
 30
0.0
 40
2.5
100
AcDbArc
 50
90.0
 51
180.0
  0
LINE
  5
4C
100
AcDbEntity
  8
0
370
    -3
390
0
  6
Continuous
100
AcDbLine
 10
157.247346
 20
-167.362733
 30
0.0
 11
191.747346
 21
-167.362733
 31
0.0
  0
LINE
  5
4D
100
AcDbEntity
  8
0
370
    -3
390
0
  6
Continuous
100
AcDbLine
 10
154.747346
 20
-99.962733
 30
0.0
 11
154.747346
 21
-179.862733
 31
0.0
  0
ARC
  5
4E
100
AcDbEntity
  8
0
370
    -3
390
0
  6
Continuous
100
AcDbCircle
 10
157.247346
 20
-109.862733
 30
0.0
 40
2.5
100
AcDbArc
 50
180.0
 51
270.0
  0
LINE
  5
4F
100
AcDbEntity
  8
0
370
    -3
390
0
  6
Continuous
100
AcDbLine
 10
157.247346
 20
-112.362733
 30
0.0
 11
191.747346
 21
-112.362733
 31
0.0
  0
LINE
  5
50
100
AcDbEntity
  8
0
370
    -3
390
0
  6
Continuous
100
AcDbLine
 10
194.747346
 20
-139.862733
 30
0.0
 11
194.747346
 21
-109.862733
 31
0.0
  0
LINE
  5
51
100
AcDbEntity
  8
0
370
    -3
390
0
  6
Continuous
100
AcDbLine
 10
194.747346
 20
-112.362733
 30
0.0
 11
224.747346
 21
-112.362733
 31
0.0
  0
LINE
  5
52
100
AcDbEntity
  8
0
370
    -3
390
0
  6
Continuous
100
AcDbLine
 10
194.747346
 20
-139.862733
 30
0.0
 11
194.747346
 21
-169.862733
 31
0.0
  0
LINE
  5
53
100
AcDbEntity
  8
0
370
    -3
390
0
  6
Continuous
100
AcDbLine
 10
194.747346
 20
-167.362733
 30
0.0
 11
224.747346
 21
-167.362733
 31
0.0
  0
LINE
  5
54
100
AcDbEntity
  8
0
370
    -3
390
0
  6
Continuous
100
AcDbLine
 10
224.747346
 20
-167.562733
 30
0.0
 11
262.747346
 21
-167.562733
 31
0.0
  0
LINE
  5
55
100
AcDbEntity
  8
0
370
    -3
390
0
  6
Continuous
100
AcDbLine
 10
224.747346
 20
-139.862733
 30
0.0
 11
224.747346
 21
-167.562733
 31
0.0
  0
LINE
  5
56
100
AcDbEntity
  8
0
370
    -3
390
0
  6
Continuous
100
AcDbLine
 10
224.747346
 20
-112.162733
 30
0.0
 11
262.747346
 21
-112.162733
 31
0.0
  0
LINE
  5
57
100
AcDbEntity
  8
0
370
    -3
390
0
  6
Continuous
100
AcDbLine
 10
224.747346
 20
-139.862733
 30
0.0
 11
224.747346
 21
-112.162733
 31
0.0
  0
LINE
  5
58
100
AcDbEntity
  8
0
370
    -3
390
0
  6
Continuous
100
AcDbLine
 10
262.747346
 20
-139.862733
 30
0.0
 11
262.747346
 21
-167.562733
 31
0.0
  0
LINE
  5
59
100
AcDbEntity
  8
0
370
    -3
390
0
  6
Continuous
100
AcDbLine
 10
262.747346
 20
-167.362733
 30
0.0
 11
292.747346
 21
-167.362733
 31
0.0
  0
LINE
  5
5A
100
AcDbEntity
  8
0
370
    -3
390
0
  6
Continuous
100
AcDbLine
 10
292.747346
 20
-139.862733
 30
0.0
 11
292.747346
 21
-169.862733
 31
0.0
  0
LINE
  5
5B
100
AcDbEntity
  8
0
370
    -3
390
0
  6
Continuous
100
AcDbLine
 10
295.747346
 20
-167.362733
 30
0.0
 11
330.247346
 21
-167.362733
 31
0.0
  0
LINE
  5
5C
100
AcDbEntity
  8
0
370
    -3
390
0
  6
Continuous
100
AcDbLine
 10
292.747346
 20
-139.862733
 30
0.0
 11
292.747346
 21
-109.862733
 31
0.0
  0
LINE
  5
5D
100
AcDbEntity
  8
0
370
    -3
390
0
  6
Continuous
100
AcDbLine
 10
295.747346
 20
-112.362733
 30
0.0
 11
330.247346
 21
-112.362733
 31
0.0
  0
LINE
  5
5E
100
AcDbEntity
  8
0
370
    -3
390
0
  6
Continuous
100
AcDbLine
 10
262.747346
 20
-112.362733
 30
0.0
 11
292.747346
 21
-112.362733
 31
0.0
  0
LINE
  5
5F
100
AcDbEntity
  8
0
370
    -3
390
0
  6
Continuous
100
AcDbLine
 10
262.747346
 20
-139.862733
 30
0.0
 11
262.747346
 21
-112.162733
 31
0.0
  0
CIRCLE
  5
60
100
AcDbEntity
  8
0
370
    -3
390
0
  6
Continuous
100
AcDbCircle
 10
439.894267
 20
-139.862733
 30
0.0
 40
40.0
  0
LINE
  5
61
100
AcDbEntity
  8
0
370
    -3
390
0
  6
Continuous
100
AcDbLine
 10
431.894267
 20
-113.552088
 30
0.0
 11
431.894267
 21
-108.062733
 31
0.0
  0
LINE
  5
62
100
AcDbEntity
  8
0
370
    -3
390
0
  6
Continuous
100
AcDbLine
 10
447.894267
 20
-113.552088
 30
0.0
 11
447.894267
 21
-108.062733
 31
0.0
  0
LINE
  5
63
100
AcDbEntity
  8
0
370
    -3
390
0
  6
Continuous
100
AcDbLine
 10
431.894267
 20
-108.062733
 30
0.0
 11
447.894267
 21
-108.062733
 31
0.0
  0
ARC
  5
64
100
AcDbEntity
  8
0
370
    -3
390
0
  6
Continuous
100
AcDbCircle
 10
439.894267
 20
-139.862733
 30
0.0
 40
27.5
100
AcDbArc
 50
106.91239
 51
73.08761
  0
LINE
  5
65
100
AcDbEntity
  8
0
370
    -3
390
0
  6
CENTER
100
AcDbLine
 10
439.894267
 20
-91.196705
 30
0.0
 11
439.894267
 21
-189.40076
 31
0.0
  0
LINE
  5
66
100
AcDbEntity
  8
0
370
    -3
390
0
  6
CENTER
100
AcDbLine
 10
491.193686
 20
-139.862733
 30
0.0
 11
391.193686
 21
-139.862733
 31
0.0
  0
LINE
  5
67
100
AcDbEntity
  8
0
370
    -3
390
0
  6
Continuous
100
AcDbLine
 10
-191.864949
 20
-239.062731
 30
0.0
 11
-191.864949
 21
-158.862731
 31
0.0
  0
LINE
  5
68
100
AcDbEntity
  8
0
370
    -3
390
0
  6
Continuous
100
AcDbLine
 10
-191.864949
 20
-81.662731
 30
0.0
 11
-191.864949
 21
-161.862731
 31
0.0
  0
LINE
  5
69
100
AcDbEntity
  8
0
370
    -3
390
0
  6
Continuous
100
AcDbLine
 10
-191.864949
 20
-78.862731
 30
0.0
 11
-191.864949
 21
-238.862603
 31
0.0
  0
LINE
  5
6A
100
AcDbEntity
  8
0
370
    -3
390
0
  6
Continuous
100
AcDbLine
 10
81.135051
 20
-106.373367
 30
0.0
 11
81.135051
 21
-219.352095
 31
0.0
  0
ARC
  5
6B
100
AcDbEntity
  8
0
370
    -3
390
0
  6
Continuous
100
AcDbCircle
 10
72.135051
 20
-106.373367
 30
0.0
 40
9.0
100
AcDbArc
 50
0.0
 51
70.123126
  0
ARC
  5
6C
100
AcDbEntity
  8
0
370
    -3
390
0
  6
Continuous
100
AcDbCircle
 10
80.635051
 20
-82.862731
 30
0.0
 40
16.0
100
AcDbArc
 50
190.481465
 51
250.123126
  0
ARC
  5
6D
100
AcDbEntity
  8
0
370
    -3
390
0
  6
Continuous
100
AcDbCircle
 10
56.052206
 20
-87.410667
 30
0.0
 40
9.0
100
AcDbArc
 50
10.481465
 51
60.785452
  0
ARC
  5
6E
100
AcDbEntity
  8
0
370
    -3
390
0
  6
Continuous
100
AcDbCircle
 10
73.135051
 20
-56.862731
 30
0.0
 40
26.0
100
AcDbArc
 50
181.637245
 51
240.785452
  0
ARC
  5
6F
100
AcDbEntity
  8
0
370
    -3
390
0
  6
Continuous
100
AcDbCircle
 10
38.149339
 20
-57.862731
 30
0.0
 40
9.0
100
AcDbArc
 50
1.637245
 51
90.0
  0
LINE
  5
70
100
AcDbEntity
  8
0
370
    -3
390
0
  6
Continuous
100
AcDbLine
 10
38.149339
 20
-48.862731
 30
0.0
 11
-53.354313
 21
-48.862731
 31
0.0
  0
ARC
  5
71
100
AcDbEntity
  8
0
370
    -3
390
0
  6
Continuous
100
AcDbCircle
 10
-53.354313
 20
-57.862731
 30
0.0
 40
9.0
100
AcDbArc
 50
90.0
 51
160.123126
  0
ARC
  5
72
100
AcDbEntity
  8
0
370
    -3
390
0
  6
Continuous
100
AcDbCircle
 10
-76.864949
 20
-49.362731
 30
0.0
 40
16.0
100
AcDbArc
 50
199.876874
 51
340.123126
  0
ARC
  5
73
100
AcDbEntity
  8
0
370
    -3
390
0
  6
Continuous
100
AcDbCircle
 10
-100.375585
 20
-57.862731
 30
0.0
 40
9.0
100
AcDbArc
 50
19.876874
 51
90.0
  0
LINE
  5
74
100
AcDbEntity
  8
0
370
    -3
390
0
  6
Continuous
100
AcDbLine
 10
-100.375585
 20
-48.862731
 30
0.0
 11
-126.879238
 21
-48.862731
 31
0.0
  0
ARC
  5
75
100
AcDbEntity
  8
0
370
    -3
390
0
  6
Continuous
100
AcDbCircle
 10
-126.879238
 20
-57.862731
 30
0.0
 40
9.0
100
AcDbArc
 50
90.0
 51
178.362755
  0
ARC
  5
76
100
AcDbEntity
  8
0
370
    -3
390
0
  6
Continuous
100
AcDbCircle
 10
-161.864949
 20
-56.862731
 30
0.0
 40
26.0
100
AcDbArc
 50
299.214548
 51
358.362755
  0
ARC
  5
77
100
AcDbEntity
  8
0
370
    -3
390
0
  6
Continuous
100
AcDbCircle
 10
-144.782104
 20
-87.410667
 30
0.0
 40
9.0
100
AcDbArc
 50
119.214548
 51
169.518535
  0
ARC
  5
78
100
AcDbEntity
  8
0
370
    -3
390
0
  6
Continuous
100
AcDbCircle
 10
-169.364949
 20
-82.862731
 30
0.0
 40
16.0
100
AcDbArc
 50
289.876874
 51
349.518535
  0
ARC
  5
79
100
AcDbEntity
  8
0
370
    -3
390
0
  6
Continuous
100
AcDbCircle
 10
-160.864949
 20
-106.373367
 30
0.0
 40
9.0
100
AcDbArc
 50
109.876874
 51
180.0
  0
LINE
  5
7A
100
AcDbEntity
  8
0
370
    -3
390
0
  6
Continuous
100
AcDbLine
 10
-169.864949
 20
-219.352095
 30
0.0
 11
-169.864949
 21
-106.373367
 31
0.0
  0
ARC
  5
7B
100
AcDbEntity
  8
0
370
    -3
390
0
  6
Continuous
100
AcDbCircle
 10
-160.864949
 20
-219.352095
 30
0.0
 40
9.0
100
AcDbArc
 50
180.0
 51
250.123126
  0
ARC
  5
7C
100
AcDbEntity
  8
0
370
    -3
390
0
  6
Continuous
100
AcDbCircle
 10
-169.364949
 20
-242.862731
 30
0.0
 40
16.0
100
AcDbArc
 50
10.481465
 51
70.123126
  0
ARC
  5
7D
100
AcDbEntity
  8
0
370
    -3
390
0
  6
Continuous
100
AcDbCircle
 10
-144.782104
 20
-238.314795
 30
0.0
 40
9.0
100
AcDbArc
 50
190.481465
 51
240.785452
  0
ARC
  5
7E
100
AcDbEntity
  8
0
370
    -3
390
0
  6
Continuous
100
AcDbCircle
 10
-161.864949
 20
-268.862731
 30
0.0
 40
26.0
100
AcDbArc
 50
1.637245
 51
60.785452
  0
ARC
  5
7F
100
AcDbEntity
  8
0
370
    -3
390
0
  6
Continuous
100
AcDbCircle
 10
-126.879238
 20
-267.862731
 30
0.0
 40
9.0
100
AcDbArc
 50
181.637245
 51
270.0
  0
LINE
  5
80
100
AcDbEntity
  8
0
370
    -3
390
0
  6
Continuous
100
AcDbLine
 10
-53.333752
 20
-276.862731
 30
0.0
 11
-126.879238
 21
-276.862731
 31
0.0
  0
ARC
  5
81
100
AcDbEntity
  8
0
370
    -3
390
0
  6
Continuous
100
AcDbCircle
 10
-53.333752
 20
-267.862731
 30
0.0
 40
9.0
100
AcDbArc
 50
270.0
 51
339.843037
  0
ARC
  5
82
100
AcDbEntity
  8
0
370
    -3
390
0
  6
Continuous
100
AcDbCircle
 10
-29.864949
 20
-276.47756
 30
0.0
 40
16.0
100
AcDbArc
 50
20.156963
 51
159.843037
  0
ARC
  5
83
100
AcDbEntity
  8
0
370
    -3
390
0
  6
Continuous
100
AcDbCircle
 10
-6.396146
 20
-267.862731
 30
0.0
 40
9.0
100
AcDbArc
 50
200.156963
 51
270.0
  0
LINE
  5
84
100
AcDbEntity
  8
0
370
    -3
390
0
  6
Continuous
100
AcDbLine
 10
38.149339
 20
-276.862731
 30
0.0
 11
-6.396146
 21
-276.862731
 31
0.0
  0
ARC
  5
85
100
AcDbEntity
  8
0
370
    -3
390
0
  6
Continuous
100
AcDbCircle
 10
38.149339
 20
-267.862731
 30
0.0
 40
9.0
100
AcDbArc
 50
270.0
 51
358.362755
  0
ARC
  5
86
100
AcDbEntity
  8
0
370
    -3
390
0
  6
Continuous
100
AcDbCircle
 10
73.135051
 20
-268.862731
 30
0.0
 40
26.0
100
AcDbArc
 50
119.214548
 51
178.362755
  0
ARC
  5
87
100
AcDbEntity
  8
0
370
    -3
390
0
  6
Continuous
100
AcDbCircle
 10
56.052206
 20
-238.314795
 30
0.0
 40
9.0
100
AcDbArc
 50
299.214548
 51
349.518535
  0
ARC
  5
88
100
AcDbEntity
  8
0
370
    -3
390
0
  6
Continuous
100
AcDbCircle
 10
80.635051
 20
-242.862731
 30
0.0
 40
16.0
100
AcDbArc
 50
109.876874
 51
169.518535
  0
ARC
  5
89
100
AcDbEntity
  8
0
370
    -3
390
0
  6
Continuous
100
AcDbCircle
 10
72.135051
 20
-219.352095
 30
0.0
 40
9.0
100
AcDbArc
 50
289.876874
 51
0.0
  0
LINE
  5
8A
100
AcDbEntity
  8
0
370
    -3
390
0
  6
CENTER
100
AcDbLine
 10
-161.864949
 20
-36.697688
 30
0.0
 11
-161.864949
 21
-76.841321
 31
0.0
  0
LINE
  5
8B
100
AcDbEntity
  8
0
370
    -3
390
0
  6
CENTER
100
AcDbLine
 10
-191.094728
 20
-56.862731
 30
0.0
 11
-142.773498
 21
-56.862731
 31
0.0
  0
LINE
  5
8C
100
AcDbEntity
  8
0
370
    -3
390
0
  6
CENTER
100
AcDbLine
 10
93.232788
 20
-56.862731
 30
0.0
 11
54.043599
 21
-56.862731
 31
0.0
  0
LINE
  5
8D
100
AcDbEntity
  8
0
370
    -3
390
0
  6
CENTER
100
AcDbLine
 10
73.135051
 20
-37.497538
 30
0.0
 11
73.135051
 21
-76.956997
 31
0.0
  0
LINE
  5
8E
100
AcDbEntity
  8
0
370
    -3
390
0
  6
CENTER
100
AcDbLine
 10
93.232788
 20
-268.862731
 30
0.0
 11
54.043599
 21
-268.862731
 31
0.0
  0
LINE
  5
8F
100
AcDbEntity
  8
0
370
    -3
390
0
  6
CENTER
100
AcDbLine
 10
73.135051
 20
-288.227923
 30
0.0
 11
73.135051
 21
-248.768465
 31
0.0
  0
LINE
  5
90
100
AcDbEntity
  8
0
370
    -3
390
0
  6
CENTER
100
AcDbLine
 10
-161.864949
 20
-288.227923
 30
0.0
 11
-161.864949
 21
-248.768465
 31
0.0
  0
LINE
  5
91
100
AcDbEntity
  8
0
370
    -3
390
0
  6
CENTER
100
AcDbLine
 10
-189.466306
 20
-268.862731
 30
0.0
 11
-142.773498
 21
-268.862731
 31
0.0
  0
LINE
  5
92
100
AcDbEntity
  8
0
370
    -3
390
0
  6
CENTER
100
AcDbLine
 10
-9.864949
 20
-29.231877
 30
0.0
 11
-9.864949
 21
-299.522693
 31
0.0
  0
LINE
  5
93
100
AcDbEntity
  8
0
370
    -3
390
0
  6
CENTER
100
AcDbLine
 10
101.889111
 20
-139.862731
 30
0.0
 11
-117.788722
 21
-139.862731
 31
0.0
  0
LINE
  5
94
100
AcDbEntity
  8
0
370
    -3
390
0
  6
Continuous
100
AcDbLine
 10
-180.864949
 20
-136.887929
 30
0.0
 11
-184.864949
 21
-110.88617
 31
0.0
  0
LINE
  5
95
100
AcDbEntity
  8
0
370
    -3
390
0
  6
Continuous
100
AcDbLine
 10
-180.864949
 20
-180.837524
 30
0.0
 11
-184.864949
 21
-206.386708
 31
0.0
  0
ARC
  5
96
100
AcDbEntity
  8
0
370
    -3
390
0
  6
Continuous
100
AcDbCircle
 10
81.135051
 20
-276.862731
 30
0.0
 40
11.0
100
AcDbArc
 50
270.0
 51
0.0
  0
ARC
  5
97
100
AcDbEntity
  8
0
370
    -3
390
0
  6
Continuous
100
AcDbCircle
 10
81.135051
 20
-48.862731
 30
0.0
 40
15.0
100
AcDbArc
 50
0.0
 51
90.0
  0
ARC
  5
98
100
AcDbEntity
  8
0
370
    -3
390
0
  6
Continuous
100
AcDbCircle
 10
81.135051
 20
-48.862731
 30
0.0
 40
11.0
100
AcDbArc
 50
0.0
 51
90.0
  0
ARC
  5
99
100
AcDbEntity
  8
0
370
    -3
390
0
  6
Continuous
100
AcDbCircle
 10
-169.864949
 20
-48.862731
 30
0.0
 40
15.0
100
AcDbArc
 50
90.0
 51
180.0
  0
ARC
  5
9A
100
AcDbEntity
  8
0
370
    -3
390
0
  6
Continuous
100
AcDbCircle
 10
-169.864949
 20
-48.862731
 30
0.0
 40
11.0
100
AcDbArc
 50
90.0
 51
180.0
  0
ARC
  5
9B
100
AcDbEntity
  8
0
370
    -3
390
0
  6
Continuous
100
AcDbCircle
 10
-169.864949
 20
-276.862731
 30
0.0
 40
11.0
100
AcDbArc
 50
180.0
 51
270.0
  0
LINE
  5
9C
100
AcDbEntity
  8
0
370
    -3
390
0
  6
Continuous
100
AcDbLine
 10
-184.864949
 20
-276.862731
 30
0.0
 11
-184.864949
 21
-206.386708
 31
0.0
  0
ARC
  5
9D
100
AcDbEntity
  8
0
370
    -3
390
0
  6
Continuous
100
AcDbCircle
 10
-189.864949
 20
-245.862731
 30
0.0
 40
5.0
100
AcDbArc
 50
0.0
 51
90.0
  0
LINE
  5
9E
100
AcDbEntity
  8
0
370
    -3
390
0
  6
Continuous
100
AcDbLine
 10
-191.864949
 20
-238.862603
 30
0.0
 11
-189.864821
 21
-240.862731
 31
0.0
  0
LINE
  5
9F
100
AcDbEntity
  8
0
370
    -3
390
0
  6
Continuous
100
AcDbLine
 10
-189.864949
 20
-76.862731
 30
0.0
 11
-191.864949
 21
-78.862731
 31
0.0
  0
ARC
  5
A0
100
AcDbEntity
  8
0
370
    -3
390
0
  6
Continuous
100
AcDbCircle
 10
-189.864949
 20
-71.862731
 30
0.0
 40
5.0
100
AcDbArc
 50
270.0
 51
0.0
  0
LINE
  5
A1
100
AcDbEntity
  8
0
370
    -3
390
0
  6
Continuous
100
AcDbLine
 10
-180.864949
 20
-276.862731
 30
0.0
 11
-180.864949
 21
-180.837524
 31
0.0
  0
LINE
  5
A2
100
AcDbEntity
  8
0
370
    -3
390
0
  6
Continuous
100
AcDbLine
 10
-180.864949
 20
-136.887929
 30
0.0
 11
-180.864949
 21
-48.862731
 31
0.0
  0
LINE
  5
A3
100
AcDbEntity
  8
0
370
    -3
390
0
  6
Continuous
100
AcDbLine
 10
92.135051
 20
-48.862731
 30
0.0
 11
92.135051
 21
-276.862731
 31
0.0
  0
LINE
  5
A4
100
AcDbEntity
  8
0
370
    -3
390
0
  6
Continuous
100
AcDbLine
 10
-169.864949
 20
-37.862731
 30
0.0
 11
81.135051
 21
-37.862731
 31
0.0
  0
LINE
  5
A5
100
AcDbEntity
  8
0
370
    -3
390
0
  6
Continuous
100
AcDbLine
 10
81.135051
 20
-287.862731
 30
0.0
 11
-169.864949
 21
-287.862731
 31
0.0
  0
ARC
  5
A6
100
AcDbEntity
  8
0
370
    -3
390
0
  6
Continuous
100
AcDbCircle
 10
-169.864949
 20
-276.862731
 30
0.0
 40
15.0
100
AcDbArc
 50
180.0
 51
270.0
  0
ARC
  5
A7
100
AcDbEntity
  8
0
370
    -3
390
0
  6
Continuous
100
AcDbCircle
 10
81.135051
 20
-276.862731
 30
0.0
 40
15.0
100
AcDbArc
 50
270.0
 51
0.0
  0
LINE
  5
A8
100
AcDbEntity
  8
0
370
    -3
390
0
  6
Continuous
100
AcDbLine
 10
81.135051
 20
-291.862731
 30
0.0
 11
-169.864949
 21
-291.862731
 31
0.0
  0
LINE
  5
A9
100
AcDbEntity
  8
0
370
    -3
390
0
  6
Continuous
100
AcDbLine
 10
81.135051
 20
-33.862731
 30
0.0
 11
-169.864949
 21
-33.862731
 31
0.0
  0
LINE
  5
AA
100
AcDbEntity
  8
0
370
    -3
390
0
  6
Continuous
100
AcDbLine
 10
-184.864949
 20
-48.862731
 30
0.0
 11
-184.864949
 21
-110.88617
 31
0.0
  0
LINE
  5
AB
100
AcDbEntity
  8
0
370
    -3
390
0
  6
Continuous
100
AcDbLine
 10
96.135051
 20
-48.862731
 30
0.0
 11
96.135051
 21
-276.862731
 31
0.0
  0
LINE
  5
AC
100
AcDbEntity
  8
0
370
    -3
390
0
  6
Continuous
100
AcDbLine
 10
-191.864949
 20
-80.698731
 30
0.0
 11
-191.864949
 21
-160.898731
 31
0.0
  0
LINE
  5
AD
100
AcDbEntity
  8
0
370
    -3
390
0
  6
Continuous
100
AcDbLine
 10
-189.625856
 20
-198.863009
 30
0.0
 11
-189.625856
 21
-198.862998
 31
0.0
  0
CIRCLE
  5
AE
100
AcDbEntity
  8
0
370
    -3
390
0
  6
Continuous
100
AcDbCircle
 10
-9.864949
 20
-139.862731
 30
0.0
 40
50.0
  0
CIRCLE
  5
AF
100
AcDbEntity
  8
0
370
    -3
390
0
  6
Continuous
100
AcDbCircle
 10
-9.864949
 20
-139.862731
 30
0.0
 40
75.0
  0
CIRCLE
  5
B0
100
AcDbEntity
  8
0
370
    -3
390
0
  6
Continuous
100
AcDbCircle
 10
-9.864949
 20
-139.862731
 30
0.0
 40
82.5
  0
CIRCLE
  5
B1
100
AcDbEntity
  8
0
370
    -3
390
0
  6
Continuous
100
AcDbCircle
 10
-9.864949
 20
-139.862731
 30
0.0
 40
85.5
  0
ARC
  5
B2
100
AcDbEntity
  8
0
370
    -3
390
0
  6
Continuous
100
AcDbCircle
 10
635.005229
 20
-34.862679
 30
0.0
 40
10.0
100
AcDbArc
 50
3.733167
 51
176.26696
  0
LINE
  5
B3
100
AcDbEntity
  8
0
370
    -3
390
0
  6
Continuous
100
AcDbLine
 10
655.505216
 20
-24.862641
 30
0.0
 11
655.505228
 21
-34.578988
 31
0.0
  0
ARC
  5
B4
100
AcDbEntity
  8
0
370
    -3
390
0
  6
Continuous
100
AcDbCircle
 10
645.505216
 20
-24.862653
 30
0.0
 40
10.0
100
AcDbArc
 50
0.00007
 51
90.000139
  0
LINE
  5
B5
100
AcDbEntity
  8
0
370
    -3
390
0
  6
Continuous
100
AcDbLine
 10
614.505216
 20
-24.862716
 30
0.0
 11
614.505228
 21
-34.57901
 31
0.0
  0
LINE
  5
B6
100
AcDbEntity
  8
0
370
    -3
390
0
  6
Continuous
100
AcDbLine
 10
624.505192
 20
-14.862704
 30
0.0
 11
645.505192
 21
-14.862653
 31
0.0
  0
ARC
  5
B7
100
AcDbEntity
  8
0
370
    -3
390
0
  6
Continuous
100
AcDbCircle
 10
624.505216
 20
-24.862704
 30
0.0
 40
10.0
100
AcDbArc
 50
90.000139
 51
180.00007
  0
LINE
  5
B8
100
AcDbEntity
  8
0
370
    -3
390
0
  6
Continuous
100
AcDbLine
 10
555.005543
 20
-214.862939
 30
0.0
 11
550.005543
 21
-214.862939
 31
0.0
  0
LINE
  5
B9
100
AcDbEntity
  8
0
370
    -3
390
0
  6
Continuous
100
AcDbLine
 10
555.005543
 20
-64.862939
 30
0.0
 11
550.005543
 21
-64.862939
 31
0.0
  0
LINE
  5
BA
100
AcDbEntity
  8
0
370
    -3
390
0
  6
Continuous
100
AcDbLine
 10
720.005543
 20
-179.862403
 30
0.0
 11
724.005563
 21
-179.862403
 31
0.0
  0
LINE
  5
BB
100
AcDbEntity
  8
0
370
    -3
390
0
  6
Continuous
100
AcDbLine
 10
720.005543
 20
-99.862403
 30
0.0
 11
724.005466
 21
-99.862403
 31
0.0
  0
LINE
  5
BC
100
AcDbEntity
  8
0
370
    -3
390
0
  6
Continuous
100
AcDbLine
 10
724.005466
 20
-99.862403
 30
0.0
 11
724.005563
 21
-179.862403
 31
0.0
  0
LINE
  5
BD
100
AcDbEntity
  8
0
370
    -3
390
0
  6
Continuous
100
AcDbLine
 10
546.005466
 20
-99.862403
 30
0.0
 11
546.005563
 21
-179.862403
 31
0.0
  0
LINE
  5
BE
100
AcDbEntity
  8
0
370
    -3
390
0
  6
Continuous
100
AcDbLine
 10
546.005563
 20
-179.862403
 30
0.0
 11
550.005543
 21
-179.862403
 31
0.0
  0
LINE
  5
BF
100
AcDbEntity
  8
0
370
    -3
390
0
  6
Continuous
100
AcDbLine
 10
546.005466
 20
-99.862403
 30
0.0
 11
550.005543
 21
-99.862403
 31
0.0
  0
LINE
  5
C0
100
AcDbEntity
  8
0
370
    -3
390
0
  6
Continuous
100
AcDbLine
 10
701.505543
 20
-37.863123
 30
0.0
 11
714.006228
 21
-38.190465
 31
0.0
  0
LINE
  5
C1
100
AcDbEntity
  8
0
370
    -3
390
0
  6
Continuous
100
AcDbLine
 10
714.006228
 20
-38.190465
 30
0.0
 11
715.005543
 21
-39.21629
 31
0.0
  0
LINE
  5
C2
100
AcDbEntity
  8
0
370
    -3
390
0
  6
Continuous
100
AcDbLine
 10
714.006228
 20
-287.548874
 30
0.0
 11
715.005543
 21
-286.523049
 31
0.0
  0
LINE
  5
C3
100
AcDbEntity
  8
0
370
    -3
390
0
  6
Continuous
100
AcDbLine
 10
638.001431
 20
-35.706115
 30
0.0
 11
635.005543
 21
-35.863123
 31
0.0
  0
LINE
  5
C4
100
AcDbEntity
  8
0
370
    -3
390
0
  6
Continuous
100
AcDbLine
 10
638.005543
 20
-33.967886
 30
0.0
 11
701.505543
 21
-36.185354
 31
0.0
  0
LINE
  5
C5
100
AcDbEntity
  8
0
370
    -3
390
0
  6
Continuous
100
AcDbLine
 10
638.001431
 20
-290.020131
 30
0.0
 11
635.005543
 21
-289.863123
 31
0.0
  0
LINE
  5
C6
100
AcDbEntity
  8
0
370
    -3
390
0
  6
Continuous
100
AcDbLine
 10
715.005543
 20
-214.863123
 30
0.0
 11
720.005543
 21
-214.863123
 31
0.0
  0
LINE
  5
C7
100
AcDbEntity
  8
0
370
    -3
390
0
  6
Continuous
100
AcDbLine
 10
715.005543
 20
-64.863123
 30
0.0
 11
720.005543
 21
-64.863123
 31
0.0
  0
LINE
  5
C8
100
AcDbEntity
  8
0
370
    -3
390
0
  6
Continuous
100
AcDbLine
 10
715.005543
 20
-39.21629
 30
0.0
 11
715.005543
 21
-286.523049
 31
0.0
  0
LINE
  5
C9
100
AcDbEntity
  8
0
370
    -3
390
0
  6
Continuous
100
AcDbLine
 10
720.005543
 20
-64.863123
 30
0.0
 11
720.005543
 21
-214.863123
 31
0.0
  0
LINE
  5
CA
100
AcDbEntity
  8
0
370
    -3
390
0
  6
Continuous
100
AcDbLine
 10
635.005543
 20
-35.863123
 30
0.0
 11
635.005543
 21
-289.863123
 31
0.0
  0
LINE
  5
CB
100
AcDbEntity
  8
0
370
    -3
390
0
  6
Continuous
100
AcDbLine
 10
556.004857
 20
-38.190465
 30
0.0
 11
555.005543
 21
-39.21629
 31
0.0
  0
LINE
  5
CC
100
AcDbEntity
  8
0
370
    -3
390
0
  6
Continuous
100
AcDbLine
 10
568.505543
 20
-37.863123
 30
0.0
 11
556.004857
 21
-38.190465
 31
0.0
  0
LINE
  5
CD
100
AcDbEntity
  8
0
370
    -3
390
0
  6
Continuous
100
AcDbLine
 10
556.004857
 20
-287.548874
 30
0.0
 11
555.005543
 21
-286.523049
 31
0.0
  0
LINE
  5
CE
100
AcDbEntity
  8
0
370
    -3
390
0
  6
Continuous
100
AcDbLine
 10
635.005543
 20
-33.863123
 30
0.0
 11
568.505543
 21
-36.185354
 31
0.0
  0
LINE
  5
CF
100
AcDbEntity
  8
0
370
    -3
390
0
  6
Continuous
100
AcDbLine
 10
635.005543
 20
-33.863123
 30
0.0
 11
635.005543
 21
-291.898044
 31
0.0
  0
LINE
  5
D0
100
AcDbEntity
  8
0
370
    -3
390
0
  6
Continuous
100
AcDbLine
 10
550.005543
 20
-64.862939
 30
0.0
 11
550.005543
 21
-214.862939
 31
0.0
  0
LINE
  5
D1
100
AcDbEntity
  8
0
370
    -3
390
0
  6
Continuous
100
AcDbLine
 10
701.505543
 20
-36.185354
 30
0.0
 11
701.505543
 21
-289.540892
 31
0.0
  0
LINE
  5
D2
100
AcDbEntity
  8
0
370
    -3
390
0
  6
Continuous
100
AcDbLine
 10
638.005543
 20
-291.758361
 30
0.0
 11
701.505543
 21
-289.540892
 31
0.0
  0
LINE
  5
D3
100
AcDbEntity
  8
0
370
    -3
390
0
  6
Continuous
100
AcDbLine
 10
568.505543
 20
-36.185354
 30
0.0
 11
568.505543
 21
-289.540892
 31
0.0
  0
LINE
  5
D4
100
AcDbEntity
  8
0
370
    -3
390
0
  6
Continuous
100
AcDbLine
 10
635.005543
 20
-291.863123
 30
0.0
 11
568.505543
 21
-289.540892
 31
0.0
  0
LINE
  5
D5
100
AcDbEntity
  8
0
370
    -3
390
0
  6
Continuous
100
AcDbLine
 10
638.005543
 20
-33.967886
 30
0.0
 11
638.005543
 21
-139.863123
 31
0.0
  0
LINE
  5
D6
100
AcDbEntity
  8
0
370
    -3
390
0
  6
Continuous
100
AcDbLine
 10
638.005543
 20
-139.863123
 30
0.0
 11
638.005543
 21
-291.758361
 31
0.0
  0
LINE
  5
D7
100
AcDbEntity
  8
0
370
    -3
390
0
  6
Continuous
100
AcDbLine
 10
714.006228
 20
-287.548874
 30
0.0
 11
701.505543
 21
-287.876216
 31
0.0
  0
LINE
  5
D8
100
AcDbEntity
  8
0
370
    -3
390
0
  6
Continuous
100
AcDbLine
 10
556.004857
 20
-287.548874
 30
0.0
 11
568.505543
 21
-287.876216
 31
0.0
  0
LINE
  5
D9
100
AcDbEntity
  8
0
370
    -3
390
0
  6
Continuous
100
AcDbLine
 10
556.004857
 20
-38.190465
 30
0.0
 11
555.005543
 21
-39.21629
 31
0.0
  0
LINE
  5
DA
100
AcDbEntity
  8
0
370
    -3
390
0
  6
Continuous
100
AcDbLine
 10
555.005543
 20
-39.21629
 30
0.0
 11
555.005543
 21
-286.523049
 31
0.0
  0
LINE
  5
DB
100
AcDbEntity
  8
0
370
    -3
390
0
  6
CENTER
100
AcDbLine
 10
635.005348
 20
-3.296018
 30
0.0
 11
635.005718
 21
-307.237051
 31
0.0
  0
LINE
  5
DC
100
AcDbEntity
  8
0
370
    -3
390
0
  6
Continuous
100
AcDbLine
 10
655.505374
 20
-34.578993
 30
0.0
 11
655.505374
 21
-34.362939
 31
0.0
  0
LINE
  5
DD
100
AcDbEntity
  8
0
370
    -3
390
0
  6
Continuous
100
AcDbLine
 10
614.505374
 20
-34.579005
 30
0.0
 11
614.505374
 21
-34.362939
 31
0.0
  0
LINE
  5
DE
100
AcDbEntity
  8
0
370
    -3
390
0
  6
Continuous
100
AcDbLine
 10
-209.864949
 20
-76.862939
 30
0.0
 11
-379.86495
 21
-76.862939
 31
0.0
  0
LINE
  5
DF
100
AcDbEntity
  8
0
370
    -3
390
0
  6
Continuous
100
AcDbLine
 10
-209.864949
 20
-77.362939
 30
0.0
 11
-379.86495
 21
-77.362939
 31
0.0
  0
LINE
  5
E0
100
AcDbEntity
  8
0
370
    -3
390
0
  6
Continuous
100
AcDbLine
 10
-209.864949
 20
-79.862939
 30
0.0
 11
-379.86495
 21
-79.862939
 31
0.0
  0
LINE
  5
E1
100
AcDbEntity
  8
0
370
    -3
390
0
  6
Continuous
100
AcDbLine
 10
-379.86495
 20
-76.362939
 30
0.0
 11
-209.864949
 21
-76.362939
 31
0.0
  0
LINE
  5
E2
100
AcDbEntity
  8
0
370
    -3
390
0
  6
Continuous
100
AcDbLine
 10
-209.864949
 20
-159.862939
 30
0.0
 11
-209.864949
 21
-76.362939
 31
0.0
  0
LINE
  5
E3
100
AcDbEntity
  8
0
370
    -3
390
0
  6
CENTER
100
AcDbLine
 10
-145.828402
 20
-159.862939
 30
0.0
 11
-464.258062
 21
-159.862939
 31
0.0
  0
LINE
  5
E4
100
AcDbEntity
  8
0
370
    -3
390
0
  6
Continuous
100
AcDbLine
 10
-209.864949
 20
-84.862939
 30
0.0
 11
-379.86495
 21
-84.862939
 31
0.0
  0
ARC
  5
E5
100
AcDbEntity
  8
0
370
    -3
390
0
  6
Continuous
100
AcDbCircle
 10
-382.86495
 20
-243.222449
 30
0.0
 40
3.0
100
AcDbArc
 50
270.0
 51
0.0
  0
ELLIPSE
  5
E6
100
AcDbEntity
  8
0
370
    -3
390
0
  6
Continuous
100
AcDbEllipse
 10
-405.364949
 20
-225.514373
 30
0.0
 11
5.0
 21
0.0
 31
0.0
210
0.0
220
0.0
230
1.0
 40
0.707107
 41
0.0
 42
3.1415926535897931
  0
LINE
  5
E7
100
AcDbEntity
  8
0
370
    -3
390
0
  6
Continuous
100
AcDbLine
 10
-410.364949
 20
-226.330977
 30
0.0
 11
-410.364949
 21
-225.514373
 31
0.0
  0
LINE
  5
E8
100
AcDbEntity
  8
0
370
    -3
390
0
  6
Continuous
100
AcDbLine
 10
-400.364949
 20
-226.330977
 30
0.0
 11
-400.364949
 21
-225.514373
 31
0.0
  0
ELLIPSE
  5
E9
100
AcDbEntity
  8
0
370
    -3
390
0
  6
Continuous
100
AcDbEllipse
 10
-405.364949
 20
-226.330977
 30
0.0
 11
4.5
 21
0.0
 31
0.0
210
0.0
220
0.0
230
1.0
 40
0.707107
 41
0.0
 42
3.1415926535897931
  0
LINE
  5
EA
100
AcDbEntity
  8
0
370
    -3
390
0
  6
Continuous
100
AcDbLine
 10
-409.864949
 20
-226.896662
 30
0.0
 11
-409.864949
 21
-226.330977
 31
0.0
  0
LINE
  5
EB
100
AcDbEntity
  8
0
370
    -3
390
0
  6
Continuous
100
AcDbLine
 10
-400.864949
 20
-226.896662
 30
0.0
 11
-400.864949
 21
-226.330977
 31
0.0
  0
ELLIPSE
  5
EC
100
AcDbEntity
  8
0
370
    -3
390
0
  6
Continuous
100
AcDbEllipse
 10
-405.364949
 20
-226.330977
 30
0.0
 11
5.0
 21
0.0
 31
0.0
210
0.0
220
0.0
230
1.0
 40
0.707107
 41
5.5439134802389658
 42
0.0
  0
ELLIPSE
  5
ED
100
AcDbEntity
  8
0
370
    -3
390
0
  6
Continuous
100
AcDbEllipse
 10
-405.364949
 20
-226.330977
 30
0.0
 11
5.0
 21
0.0
 31
0.0
210
0.0
220
0.0
230
1.0
 40
0.707107
 41
3.1415926535897931
 42
3.8808644805304136
  0
ELLIPSE
  5
EE
100
AcDbEntity
  8
0
370
    -3
390
0
  6
Continuous
100
AcDbEllipse
 10
-405.364949
 20
-227.43318
 30
0.0
 11
3.5
 21
0.0
 31
0.0
210
0.0
220
0.0
230
1.0
 40
0.860398
 41
0.0
 42
6.2831853071795862
  0
ELLIPSE
  5
EF
100
AcDbEntity
  8
0
370
    -3
390
0
  6
Continuous
100
AcDbEllipse
 10
-405.364949
 20
-226.896662
 30
0.0
 11
4.5
 21
0.0
 31
0.0
210
0.0
220
0.0
230
1.0
 40
0.707107
 41
5.3002993159359626
 42
4.1244786448334168
  0
LINE
  5
F0
100
AcDbEntity
  8
0
370
    -3
390
0
  6
Continuous
100
AcDbLine
 10
-405.364949
 20
-228.73514
 30
0.0
 11
-403.364949
 21
-227.161802
 31
0.0
  0
LINE
  5
F1
100
AcDbEntity
  8
0
370
    -3
390
0
  6
Continuous
100
AcDbLine
 10
-405.364949
 20
-228.73514
 30
0.0
 11
-403.435744
 21
-229.945802
 31
0.0
  0
LINE
  5
F2
100
AcDbEntity
  8
0
370
    -3
390
0
  6
Continuous
100
AcDbLine
 10
-405.364949
 20
-228.73514
 30
0.0
 11
-407.364949
 21
-227.161802
 31
0.0
  0
LINE
  5
F3
100
AcDbEntity
  8
0
370
    -3
390
0
  6
Continuous
100
AcDbLine
 10
-405.364949
 20
-228.73514
 30
0.0
 11
-407.294154
 21
-229.945802
 31
0.0
  0
ARC
  5
F4
100
AcDbEntity
  8
0
370
    -3
390
0
  6
Continuous
100
AcDbCircle
 10
-413.932982
 20
-206.362939
 30
0.0
 40
40.8
100
AcDbArc
 50
240.0
 51
270.0
  0
LINE
  5
F5
100
AcDbEntity
  8
0
370
    -3
390
0
  6
Continuous
100
AcDbLine
 10
-452.86495
 20
-228.803408
 30
0.0
 11
-452.86495
 21
-159.862939
 31
0.0
  0
LINE
  5
F6
100
AcDbEntity
  8
0
370
    -3
390
0
  6
Continuous
100
AcDbLine
 10
-450.96495
 20
-232.094305
 30
0.0
 11
-434.332982
 21
-241.696776
 31
0.0
  0
ARC
  5
F7
100
AcDbEntity
  8
0
370
    -3
390
0
  6
Continuous
100
AcDbCircle
 10
-449.06495
 20
-228.803408
 30
0.0
 40
3.8
100
AcDbArc
 50
180.0
 51
240.0
  0
LINE
  5
F8
100
AcDbEntity
  8
0
370
    -3
390
0
  6
Continuous
100
AcDbLine
 10
-379.86495
 20
-243.222449
 30
0.0
 11
-379.86495
 21
-159.862939
 31
0.0
  0
LINE
  5
F9
100
AcDbEntity
  8
0
370
    -3
390
0
  6
Continuous
100
AcDbLine
 10
-209.864949
 20
-93.983727
 30
0.0
 11
-379.86495
 21
-93.983727
 31
0.0
  0
LINE
  5
FA
100
AcDbEntity
  8
0
370
    -3
390
0
  6
Continuous
100
AcDbLine
 10
-209.864949
 20
-101.054794
 30
0.0
 11
-379.86495
 21
-101.054794
 31
0.0
  0
LINE
  5
FB
100
AcDbEntity
  8
0
370
    -3
390
0
  6
Continuous
100
AcDbLine
 10
-209.864949
 20
-113.725215
 30
0.0
 11
-379.86495
 21
-113.725215
 31
0.0
  0
LINE
  5
FC
100
AcDbEntity
  8
0
370
    -3
390
0
  6
Continuous
100
AcDbLine
 10
-209.864949
 20
-115.947542
 30
0.0
 11
-379.86495
 21
-115.947542
 31
0.0
  0
LINE
  5
FD
100
AcDbEntity
  8
0
370
    -3
390
0
  6
Continuous
100
AcDbLine
 10
-209.864949
 20
-123.758001
 30
0.0
 11
-379.86495
 21
-123.758001
 31
0.0
  0
LINE
  5
FE
100
AcDbEntity
  8
0
370
    -3
390
0
  6
Continuous
100
AcDbLine
 10
-209.864949
 20
-125.924711
 30
0.0
 11
-379.86495
 21
-125.924711
 31
0.0
  0
LINE
  5
FF
100
AcDbEntity
  8
0
370
    -3
390
0
  6
Continuous
100
AcDbLine
 10
-209.864949
 20
-133.820319
 30
0.0
 11
-379.86495
 21
-133.820319
 31
0.0
  0
LINE
  5
100
100
AcDbEntity
  8
0
370
    -3
390
0
  6
Continuous
100
AcDbLine
 10
-209.864949
 20
-135.885082
 30
0.0
 11
-379.86495
 21
-135.885082
 31
0.0
  0
LINE
  5
101
100
AcDbEntity
  8
0
370
    -3
390
0
  6
Continuous
100
AcDbLine
 10
-209.864949
 20
-143.891211
 30
0.0
 11
-379.86495
 21
-143.891211
 31
0.0
  0
LINE
  5
102
100
AcDbEntity
  8
0
370
    -3
390
0
  6
Continuous
100
AcDbLine
 10
-209.864949
 20
-145.833594
 30
0.0
 11
-379.86495
 21
-145.833594
 31
0.0
  0
LINE
  5
103
100
AcDbEntity
  8
0
370
    -3
390
0
  6
Continuous
100
AcDbLine
 10
-209.864949
 20
-153.923669
 30
0.0
 11
-379.86495
 21
-153.923669
 31
0.0
  0
LINE
  5
104
100
AcDbEntity
  8
0
370
    -3
390
0
  6
Continuous
100
AcDbLine
 10
-209.864949
 20
-155.818442
 30
0.0
 11
-379.86495
 21
-155.818442
 31
0.0
  0
LINE
  5
105
100
AcDbEntity
  8
0
370
    -3
390
0
  6
Continuous
100
AcDbLine
 10
-209.864949
 20
-163.907437
 30
0.0
 11
-379.86495
 21
-163.907437
 31
0.0
  0
LINE
  5
106
100
AcDbEntity
  8
0
370
    -3
390
0
  6
Continuous
100
AcDbLine
 10
-209.864949
 20
-165.802209
 30
0.0
 11
-379.86495
 21
-165.802209
 31
0.0
  0
LINE
  5
107
100
AcDbEntity
  8
0
370
    -3
390
0
  6
Continuous
100
AcDbLine
 10
-209.864949
 20
-173.892284
 30
0.0
 11
-379.86495
 21
-173.892284
 31
0.0
  0
LINE
  5
108
100
AcDbEntity
  8
0
370
    -3
390
0
  6
Continuous
100
AcDbLine
 10
-209.864949
 20
-175.834667
 30
0.0
 11
-379.86495
 21
-175.834667
 31
0.0
  0
LINE
  5
109
100
AcDbEntity
  8
0
370
    -3
390
0
  6
Continuous
100
AcDbLine
 10
-209.864949
 20
-183.840797
 30
0.0
 11
-379.86495
 21
-183.840797
 31
0.0
  0
LINE
  5
10A
100
AcDbEntity
  8
0
370
    -3
390
0
  6
Continuous
100
AcDbLine
 10
-209.864949
 20
-185.905559
 30
0.0
 11
-379.86495
 21
-185.905559
 31
0.0
  0
LINE
  5
10B
100
AcDbEntity
  8
0
370
    -3
390
0
  6
Continuous
100
AcDbLine
 10
-209.864949
 20
-193.801167
 30
0.0
 11
-379.86495
 21
-193.801167
 31
0.0
  0
LINE
  5
10C
100
AcDbEntity
  8
0
370
    -3
390
0
  6
Continuous
100
AcDbLine
 10
-209.864949
 20
-195.967877
 30
0.0
 11
-379.86495
 21
-195.967877
 31
0.0
  0
LINE
  5
10D
100
AcDbEntity
  8
0
370
    -3
390
0
  6
Continuous
100
AcDbLine
 10
-209.864949
 20
-203.778337
 30
0.0
 11
-379.86495
 21
-203.778337
 31
0.0
  0
LINE
  5
10E
100
AcDbEntity
  8
0
370
    -3
390
0
  6
Continuous
100
AcDbLine
 10
-209.864949
 20
-206.000663
 30
0.0
 11
-379.86495
 21
-206.000663
 31
0.0
  0
LINE
  5
10F
100
AcDbEntity
  8
0
370
    -3
390
0
  6
Continuous
100
AcDbLine
 10
-452.86495
 20
-90.92247
 30
0.0
 11
-452.86495
 21
-159.862939
 31
0.0
  0
LINE
  5
110
100
AcDbEntity
  8
0
370
    -3
390
0
  6
Continuous
100
AcDbLine
 10
-450.96495
 20
-87.631574
 30
0.0
 11
-434.332982
 21
-78.029103
 31
0.0
  0
ARC
  5
111
100
AcDbEntity
  8
0
370
    -3
390
0
  6
Continuous
100
AcDbCircle
 10
-413.932982
 20
-113.362939
 30
0.0
 40
40.8
100
AcDbArc
 50
90.0
 51
120.0
  0
ARC
  5
112
100
AcDbEntity
  8
0
370
    -3
390
0
  6
Continuous
100
AcDbCircle
 10
-449.06495
 20
-90.92247
 30
0.0
 40
3.8
100
AcDbArc
 50
120.0
 51
180.0
  0
ELLIPSE
  5
113
100
AcDbEntity
  8
0
370
    -3
390
0
  6
Continuous
100
AcDbEllipse
 10
-405.364949
 20
-94.211505
 30
0.0
 11
5.0
 21
0.0
 31
0.0
210
0.0
220
0.0
230
1.0
 40
0.707107
 41
3.1415926535897931
 42
0.0
  0
LINE
  5
114
100
AcDbEntity
  8
0
370
    -3
390
0
  6
Continuous
100
AcDbLine
 10
-410.364949
 20
-93.394902
 30
0.0
 11
-410.364949
 21
-94.211505
 31
0.0
  0
LINE
  5
115
100
AcDbEntity
  8
0
370
    -3
390
0
  6
Continuous
100
AcDbLine
 10
-400.364949
 20
-93.394902
 30
0.0
 11
-400.364949
 21
-94.211505
 31
0.0
  0
ELLIPSE
  5
116
100
AcDbEntity
  8
0
370
    -3
390
0
  6
Continuous
100
AcDbEllipse
 10
-405.364949
 20
-93.394902
 30
0.0
 11
4.5
 21
0.0
 31
0.0
210
0.0
220
0.0
230
1.0
 40
0.707107
 41
3.1415926535897931
 42
0.0
  0
LINE
  5
117
100
AcDbEntity
  8
0
370
    -3
390
0
  6
Continuous
100
AcDbLine
 10
-409.864949
 20
-92.829216
 30
0.0
 11
-409.864949
 21
-93.394902
 31
0.0
  0
LINE
  5
118
100
AcDbEntity
  8
0
370
    -3
390
0
  6
Continuous
100
AcDbLine
 10
-400.864949
 20
-92.829216
 30
0.0
 11
-400.864949
 21
-93.394902
 31
0.0
  0
ELLIPSE
  5
119
100
AcDbEntity
  8
0
370
    -3
390
0
  6
Continuous
100
AcDbEllipse
 10
-405.364949
 20
-93.394902
 30
0.0
 11
5.0
 21
0.0
 31
0.0
210
0.0
220
0.0
230
1.0
 40
0.707107
 41
0.0
 42
0.7392718269406207
  0
ELLIPSE
  5
11A
100
AcDbEntity
  8
0
370
    -3
390
0
  6
Continuous
100
AcDbEllipse
 10
-405.364949
 20
-93.394902
 30
0.0
 11
5.0
 21
0.0
 31
0.0
210
0.0
220
0.0
230
1.0
 40
0.707107
 41
2.4023208266491727
 42
3.1415926535897931
  0
ELLIPSE
  5
11B
100
AcDbEntity
  8
0
370
    -3
390
0
  6
Continuous
100
AcDbEllipse
 10
-405.364949
 20
-92.292698
 30
0.0
 11
3.5
 21
0.0
 31
0.0
210
0.0
220
0.0
230
1.0
 40
0.860398
 41
0.0
 42
6.2831853071795862
  0
ELLIPSE
  5
11C
100
AcDbEntity
  8
0
370
    -3
390
0
  6
Continuous
100
AcDbEllipse
 10
-405.364949
 20
-92.829216
 30
0.0
 11
4.5
 21
0.0
 31
0.0
210
0.0
220
0.0
230
1.0
 40
0.707107
 41
2.158706662346169
 42
0.9828859912436241
  0
LINE
  5
11D
100
AcDbEntity
  8
0
370
    -3
390
0
  6
Continuous
100
AcDbLine
 10
-405.364949
 20
-90.990738
 30
0.0
 11
-403.364949
 21
-92.564076
 31
0.0
  0
LINE
  5
11E
100
AcDbEntity
  8
0
370
    -3
390
0
  6
Continuous
100
AcDbLine
 10
-405.364949
 20
-90.990738
 30
0.0
 11
-403.435744
 21
-89.780076
 31
0.0
  0
LINE
  5
11F
100
AcDbEntity
  8
0
370
    -3
390
0
  6
Continuous
100
AcDbLine
 10
-405.364949
 20
-90.990738
 30
0.0
 11
-407.364949
 21
-92.564076
 31
0.0
  0
LINE
  5
120
100
AcDbEntity
  8
0
370
    -3
390
0
  6
Continuous
100
AcDbLine
 10
-405.364949
 20
-90.990738
 30
0.0
 11
-407.294154
 21
-89.780076
 31
0.0
  0
LINE
  5
121
100
AcDbEntity
  8
0
370
    -3
390
0
  6
Continuous
100
AcDbLine
 10
-413.932982
 20
-72.562939
 30
0.0
 11
-379.86495
 21
-72.562939
 31
0.0
  0
LINE
  5
122
100
AcDbEntity
  8
0
370
    -3
390
0
  6
Continuous
100
AcDbLine
 10
-379.86495
 20
-72.562939
 30
0.0
 11
-379.86495
 21
-159.862939
 31
0.0
  0
LINE
  5
123
100
AcDbEntity
  8
0
370
    -3
390
0
  6
Continuous
100
AcDbLine
 10
-209.864949
 20
-159.862939
 30
0.0
 11
-209.864949
 21
-239.862939
 31
0.0
  0
LINE
  5
124
100
AcDbEntity
  8
0
370
    -3
390
0
  6
Continuous
100
AcDbLine
 10
-413.932982
 20
-247.162939
 30
0.0
 11
-399.863178
 21
-247.162939
 31
0.0
  0
ARC
  5
125
100
AcDbEntity
  8
0
370
    -3
390
0
  6
Continuous
100
AcDbCircle
 10
-398.86495
 20
-247.222449
 30
0.0
 40
1.0
100
AcDbArc
 50
90.0
 51
176.588332
  0
LINE
  5
126
100
AcDbEntity
  8
0
370
    -3
390
0
  6
Continuous
100
AcDbLine
 10
-382.86495
 20
-246.222449
 30
0.0
 11
-398.86495
 21
-246.222449
 31
0.0
  0
LINE
  5
127
100
AcDbEntity
  8
0
370
    -3
390
0
  6
Continuous
100
AcDbLine
 10
-209.864949
 20
-239.862939
 30
0.0
 11
-379.86495
 21
-239.862939
 31
0.0
  0
LINE
  5
128
100
AcDbEntity
  8
0
370
    -3
390
0
  6
Continuous
100
AcDbLine
 10
-209.864949
 20
-218.671084
 30
0.0
 11
-379.86495
 21
-218.671084
 31
0.0
  0
LINE
  5
129
100
AcDbEntity
  8
0
370
    -3
390
0
  6
Continuous
100
AcDbLine
 10
-209.864949
 20
-225.742152
 30
0.0
 11
-379.86495
 21
-225.742152
 31
0.0
  0
LINE
  5
12A
100
AcDbEntity
  8
0
370
    -3
390
0
  6
Continuous
100
AcDbLine
 10
-209.864949
 20
-234.862939
 30
0.0
 11
-379.86495
 21
-234.862939
 31
0.0
  0
POINT
  5
12B
100
AcDbEntity
  8
0
370
    -3
390
0
  6
Continuous
100
AcDbPoint
 10
467.394267
 20
-139.862733
 30
0.0
  0
CIRCLE
  5
12C
100
AcDbEntity
  8
0
370
    -3
390
0
  6
Continuous
100
AcDbCircle
 10
-161.864949
 20
-56.862731
 30
0.0
 40
8.647
  0
CIRCLE
  5
12D
100
AcDbEntity
  8
0
370
    -3
390
0
  6
Continuous
100
AcDbCircle
 10
-161.864949
 20
-56.862731
 30
0.0
 40
10.0
  0
CIRCLE
  5
12E
100
AcDbEntity
  8
0
370
    -3
390
0
  6
Continuous
100
AcDbCircle
 10
73.135051
 20
-56.862731
 30
0.0
 40
8.647
  0
CIRCLE
  5
12F
100
AcDbEntity
  8
0
370
    -3
390
0
  6
Continuous
100
AcDbCircle
 10
73.135051
 20
-56.862731
 30
0.0
 40
10.0
  0
CIRCLE
  5
130
100
AcDbEntity
  8
0
370
    -3
390
0
  6
Continuous
100
AcDbCircle
 10
73.135051
 20
-268.862731
 30
0.0
 40
8.647
  0
CIRCLE
  5
131
100
AcDbEntity
  8
0
370
    -3
390
0
  6
Continuous
100
AcDbCircle
 10
73.135051
 20
-268.862731
 30
0.0
 40
10.0
  0
CIRCLE
  5
132
100
AcDbEntity
  8
0
370
    -3
390
0
  6
Continuous
100
AcDbCircle
 10
-161.864949
 20
-268.862731
 30
0.0
 40
8.647
  0
CIRCLE
  5
133
100
AcDbEntity
  8
0
370
    -3
390
0
  6
Continuous
100
AcDbCircle
 10
-161.864949
 20
-268.862731
 30
0.0
 40
10.0
  0
ARC
  5
134
100
AcDbEntity
  8
0
370
    -3
390
0
  6
Continuous
100
AcDbCircle
 10
-209.864949
 20
-84.862826
 30
0.0
 40
1.0
100
AcDbArc
 50
270.0
 51
0.0
  0
ARC
  5
135
100
AcDbEntity
  8
0
370
    -3
390
0
  6
Continuous
100
AcDbCircle
 10
-206.864949
 20
-241.362731
 30
0.0
 40
2.0
100
AcDbArc
 50
180.0
 51
270.0
  0
ARC
  5
136
100
AcDbEntity
  8
0
370
    -3
390
0
  6
Continuous
100
AcDbCircle
 10
-195.193376
 20
-241.362731
 30
0.0
 40
2.0
100
AcDbArc
 50
270.0
 51
315.0
  0
LINE
  5
137
100
AcDbEntity
  8
0
370
    -3
390
0
  6
Continuous
100
AcDbLine
 10
-206.864949
 20
-243.362731
 30
0.0
 11
-195.193376
 21
-243.362731
 31
0.0
  0
LINE
  5
138
100
AcDbEntity
  8
0
370
    -3
390
0
  6
Continuous
100
AcDbLine
 10
-193.864949
 20
-76.862731
 30
0.0
 11
-191.864949
 21
-78.862731
 31
0.0
  0
LINE
  5
139
100
AcDbEntity
  8
0
370
    -3
390
0
  6
Continuous
100
AcDbLine
 10
-191.864949
 20
-78.862731
 30
0.0
 11
-191.864949
 21
-240.862731
 31
0.0
  0
LINE
  5
13A
100
AcDbEntity
  8
0
370
    -3
390
0
  6
Continuous
100
AcDbLine
 10
-193.864949
 20
-242.862731
 30
0.0
 11
-191.864949
 21
-240.862731
 31
0.0
  0
LINE
  5
13B
100
AcDbEntity
  8
0
370
    -3
390
0
  6
Continuous
100
AcDbLine
 10
-209.864949
 20
-233.862636
 30
0.0
 11
-209.864949
 21
-85.862826
 31
0.0
  0
ARC
  5
13C
100
AcDbEntity
  8
0
370
    -3
390
0
  6
Continuous
100
AcDbCircle
 10
-209.864949
 20
-234.862636
 30
0.0
 40
1.0
100
AcDbArc
 50
0.0
 51
90.0
  0
LINE
  5
13D
100
AcDbEntity
  8
0
370
    -3
390
0
  6
Continuous
100
AcDbLine
 10
-208.864949
 20
-241.362731
 30
0.0
 11
-208.864949
 21
-159.862731
 31
0.0
  0
ARC
  5
13E
100
AcDbEntity
  8
0
370
    -3
390
0
  6
Continuous
100
AcDbCircle
 10
-206.864949
 20
-78.362731
 30
0.0
 40
2.0
100
AcDbArc
 50
90.0
 51
180.0
  0
ARC
  5
13F
100
AcDbEntity
  8
0
370
    -3
390
0
  6
Continuous
100
AcDbCircle
 10
-195.193376
 20
-78.362731
 30
0.0
 40
2.0
100
AcDbArc
 50
45.0
 51
90.0
  0
LINE
  5
140
100
AcDbEntity
  8
0
370
    -3
390
0
  6
Continuous
100
AcDbLine
 10
-206.864949
 20
-76.362731
 30
0.0
 11
-195.193376
 21
-76.362731
 31
0.0
  0
LINE
  5
141
100
AcDbEntity
  8
0
370
    -3
390
0
  6
Continuous
100
AcDbLine
 10
-208.864949
 20
-78.362731
 30
0.0
 11
-208.864949
 21
-159.862731
 31
0.0
  0
LINE
  5
142
100
AcDbEntity
  8
0
370
    -3
390
0
  6
Continuous
100
AcDbLine
 10
-194.364949
 20
-243.18309
 30
0.0
 11
-194.364949
 21
-76.542371
 31
0.0
  0
LINE
  5
143
100
AcDbEntity
  8
0
370
    -3
390
0
  6
Continuous
100
AcDbLine
 10
-194.364949
 20
-141.362731
 30
0.0
 11
-208.864949
 21
-141.362731
 31
0.0
  0
LINE
  5
144
100
AcDbEntity
  8
0
370
    -3
390
0
  6
Continuous
100
AcDbLine
 10
-194.364949
 20
-178.362731
 30
0.0
 11
-208.864949
 21
-178.362731
 31
0.0
  0
LINE
  5
145
100
AcDbEntity
  8
0
370
    -3
390
0
  6
Continuous
100
AcDbLine
 10
-213.364949
 20
-69.862679
 30
0.0
 11
-208.864949
 21
-69.862679
 31
0.0
  0
LINE
  5
146
100
AcDbEntity
  8
0
370
    -3
390
0
  6
Continuous
100
AcDbLine
 10
-213.364949
 20
-14.862679
 30
0.0
 11
-208.864949
 21
-14.862679
 31
0.0
  0
ARC
  5
147
100
AcDbEntity
  8
0
370
    -3
390
0
  6
Continuous
100
AcDbCircle
 10
-196.864949
 20
-52.862731
 30
0.0
 40
3.0
100
AcDbArc
 50
0.0
 51
90.0
  0
LINE
  5
148
100
AcDbEntity
  8
0
370
    -3
390
0
  6
Continuous
100
AcDbLine
 10
-193.864949
 20
-52.862731
 30
0.0
 11
-193.864949
 21
-76.862731
 31
0.0
  0
LINE
  5
149
100
AcDbEntity
  8
0
370
    -3
390
0
  6
Continuous
100
AcDbLine
 10
-208.864949
 20
-52.862731
 30
0.0
 11
-208.864949
 21
-84.862826
 31
0.0
  0
ARC
  5
14A
100
AcDbEntity
  8
0
370
    -3
390
0
  6
Continuous
100
AcDbCircle
 10
-205.864949
 20
-52.862731
 30
0.0
 40
3.0
100
AcDbArc
 50
90.0
 51
180.0
  0
LINE
  5
14B
100
AcDbEntity
  8
0
370
    -3
390
0
  6
Continuous
100
AcDbLine
 10
-213.364949
 20
-14.862679
 30
0.0
 11
-213.364949
 21
-69.862679
 31
0.0
  0
LINE
  5
14C
100
AcDbEntity
  8
0
370
    -3
390
0
  6
Continuous
100
AcDbLine
 10
-205.864949
 20
-49.862731
 30
0.0
 11
-196.864949
 21
-49.862731
 31
0.0
  0
LINE
  5
14D
100
AcDbEntity
  8
0
370
    -3
390
0
  6
Continuous
100
AcDbLine
 10
-208.864949
 20
-14.862679
 30
0.0
 11
-208.864949
 21
-69.862679
 31
0.0
  0
INSERT
  5
159
100
AcDbEntity
  8
0
390
0
100
AcDbBlockReference
  2
ZU_SYM__USERS_HOME_SYMBOL_POO_SYM_B20_18
 10
-213.364949
 20
-59.862679
 30
0.0
 50
360.0
  0
LINE
  5
15A
100
AcDbEntity
  8
0
370
    -3
390
0
  6
CENTER
100
AcDbLine
 10
-227.299025
 20
-59.862679
 30
0.0
 11
-204.327824
 21
-59.862679
 31
0.0
  0
LINE
  5
15B
100
AcDbEntity
  8
0
370
    -3
390
0
  6
CENTER
100
AcDbLine
 10
-220.280047
 20
-34.862679
 30
0.0
 11
-205.816698
 21
-34.862679
 31
0.0
  0
LINE
  5
15C
100
AcDbEntity
  8
0
370
    -3
390
0
  6
CENTER
100
AcDbLine
 10
731.820317
 20
-139.862939
 30
0.0
 11
538.995584
 21
-139.862939
 31
0.0
  0
LINE
  5
15D
100
AcDbEntity
  8
0
370
    -3
390
0
  6
CENTER
100
AcDbLine
 10
657.31313
 20
-159.862939
 30
0.0
 11
618.340605
 21
-159.862939
 31
0.0
  0
LINE
  5
15E
100
AcDbEntity
  8
0
370
    -3
390
0
  6
CENTER
100
AcDbLine
 10
721.539021
 20
-56.862939
 30
0.0
 11
548.303158
 21
-56.862939
 31
0.0
  0
LINE
  5
15F
100
AcDbEntity
  8
0
370
    -3
390
0
  6
CENTER
100
AcDbLine
 10
721.539021
 20
-268.862939
 30
0.0
 11
546.841252
 21
-268.862939
 31
0.0
  0
LINE
  5
160
100
AcDbEntity
  8
0
370
    -3
390
0
  6
Continuous
100
AcDbLine
 10
681.505539
 20
-290.239308
 30
0.0
 11
681.505539
 21
-297.282164
 31
0.0
  0
LINE
  5
161
100
AcDbEntity
  8
0
370
    -3
390
0
  6
Continuous
100
AcDbLine
 10
666.837488
 20
-290.751527
 30
0.0
 11
696.33704
 21
-303.885574
 31
0.0
  0
LINE
  5
162
100
AcDbEntity
  8
0
370
    -3
390
0
  6
Continuous
100
AcDbLine
 10
658.174315
 20
-291.054052
 30
0.0
 11
693.877895
 21
-306.95031
 31
0.0
  0
LINE
  5
163
100
AcDbEntity
  8
0
370
    -3
390
0
  6
Continuous
100
AcDbLine
 10
602.811184
 20
-290.738871
 30
0.0
 11
603.024575
 21
-292.03939
 31
0.0
  0
ARC
  5
164
100
AcDbEntity
  8
0
370
    -3
390
0
  6
Continuous
100
AcDbCircle
 10
691.182446
 20
-298.744547
 30
0.0
 40
9.0
100
AcDbArc
 50
229.398469
 51
262.601548
  0
LINE
  5
165
100
AcDbEntity
  8
0
370
    -3
390
0
  6
Continuous
100
AcDbLine
 10
687.091083
 20
-307.9339
 30
0.0
 11
690.219331
 21
-300.907738
 31
0.0
  0
ARC
  5
166
100
AcDbEntity
  8
0
370
    -3
390
0
  6
Continuous
100
AcDbCircle
 10
617.826643
 20
-289.61065
 30
0.0
 40
15.0
100
AcDbArc
 50
189.318123
 51
268.317231
  0
ARC
  5
167
100
AcDbEntity
  8
0
370
    -3
390
0
  6
Continuous
100
AcDbCircle
 10
679.128174
 20
-301.232953
 30
0.0
 40
2.0
100
AcDbArc
 50
274.231338
 51
336.0
  0
ARC
  5
168
100
AcDbEntity
  8
0
370
    -3
390
0
  6
Continuous
100
AcDbCircle
 10
681.777777
 20
-302.657626
 30
0.0
 40
1.0
100
AcDbArc
 50
66.0
 51
156.0
  0
ARC
  5
169
100
AcDbEntity
  8
0
370
    -3
390
0
  6
Continuous
100
AcDbCircle
 10
694.284632
 20
-306.036765
 30
0.0
 40
1.0
100
AcDbArc
 50
246.0
 51
336.0
  0
LINE
  5
16A
100
AcDbEntity
  8
0
370
    -3
390
0
  6
Continuous
100
AcDbLine
 10
695.198177
 20
-306.443501
 30
0.0
 11
696.33704
 21
-303.885574
 31
0.0
  0
ARC
  5
16B
100
AcDbEntity
  8
0
370
    -3
390
0
  6
Continuous
100
AcDbCircle
 10
684.408698
 20
-303.828988
 30
0.0
 40
1.0
100
AcDbArc
 50
66.0
 51
94.715125
  0
ARC
  5
16C
100
AcDbEntity
  8
0
370
    -3
390
0
  6
Continuous
100
AcDbCircle
 10
635.005539
 20
295.137061
 30
0.0
 40
600.0
100
AcDbArc
 50
268.317231
 51
274.715125
  0
ARC
  5
16D
100
AcDbEntity
  8
0
370
    -3
390
0
  6
Continuous
100
AcDbCircle
 10
686.171325
 20
-304.590801
 30
0.0
 40
1.299999
100
AcDbArc
 50
155.999999
 51
229.398469
  0
ARC
  5
16E
100
AcDbEntity
  8
0
370
    -3
390
0
  6
Continuous
100
AcDbCircle
 10
690.190927
 20
-306.380443
 30
0.0
 40
1.299999
100
AcDbArc
 50
262.601548
 51
336.000018
  0
LINE
  5
16F
100
AcDbEntity
  8
0
370
    -3
390
0
  6
Continuous
100
AcDbLine
 10
685.381923
 20
-303.167659
 30
0.0
 11
684.983717
 21
-304.062043
 31
0.0
  0
LINE
  5
170
100
AcDbEntity
  8
0
370
    -3
390
0
  6
Continuous
100
AcDbLine
 10
691.776741
 20
-306.014816
 30
0.0
 11
691.378535
 21
-306.9092
 31
0.0
  0
ARC
  5
171
100
AcDbEntity
  8
0
370
    -3
390
0
  6
Continuous
100
AcDbCircle
 10
-347.464949
 20
-244.062939
 30
0.0
 40
3.2
100
AcDbArc
 50
0.0
 51
90.0
  0
LINE
  5
172
100
AcDbEntity
  8
0
370
    -3
390
0
  6
Continuous
100
AcDbLine
 10
-379.864949
 20
-240.862939
 30
0.0
 11
-345.864949
 21
-240.862939
 31
0.0
  0
LINE
  5
173
100
AcDbEntity
  8
0
370
    -3
390
0
  6
Continuous
100
AcDbLine
 10
-345.864949
 20
-239.862939
 30
0.0
 11
-345.864949
 21
-240.862939
 31
0.0
  0
LINE
  5
174
100
AcDbEntity
  8
0
370
    -3
390
0
  6
Continuous
100
AcDbLine
 10
-395.464949
 20
-246.222449
 30
0.0
 11
-395.464949
 21
-252.662939
 31
0.0
  0
LINE
  5
175
100
AcDbEntity
  8
0
370
    -3
390
0
  6
Continuous
100
AcDbLine
 10
-369.864949
 20
-255.862939
 30
0.0
 11
-338.864949
 21
-255.862939
 31
0.0
  0
ARC
  5
176
100
AcDbEntity
  8
0
370
    -3
390
0
  6
Continuous
100
AcDbCircle
 10
-342.664949
 20
-252.662939
 30
0.0
 40
1.6
100
AcDbArc
 50
180.0
 51
270.0
  0
LINE
  5
177
100
AcDbEntity
  8
0
370
    -3
390
0
  6
Continuous
100
AcDbLine
 10
-338.864949
 20
-255.862939
 30
0.0
 11
-338.864949
 21
-254.262939
 31
0.0
  0
LINE
  5
178
100
AcDbEntity
  8
0
370
    -3
390
0
  6
Continuous
100
AcDbLine
 10
-338.864949
 20
-254.262939
 30
0.0
 11
-369.864949
 21
-254.262939
 31
0.0
  0
LINE
  5
179
100
AcDbEntity
  8
0
370
    -3
390
0
  6
Continuous
100
AcDbLine
 10
-344.264949
 20
-244.062939
 30
0.0
 11
-344.264949
 21
-252.662939
 31
0.0
  0
LINE
  5
17A
100
AcDbEntity
  8
0
370
    -3
390
0
  6
Continuous
100
AcDbLine
 10
-369.864949
 20
-255.862939
 30
0.0
 11
-400.864949
 21
-255.862939
 31
0.0
  0
LINE
  5
17B
100
AcDbEntity
  8
0
370
    -3
390
0
  6
Continuous
100
AcDbLine
 10
-400.864949
 20
-255.862939
 30
0.0
 11
-338.864949
 21
-255.862939
 31
0.0
  0
ARC
  5
17C
100
AcDbEntity
  8
0
370
    -3
390
0
  6
Continuous
100
AcDbCircle
 10
-397.064949
 20
-252.662939
 30
0.0
 40
1.6
100
AcDbArc
 50
270.0
 51
0.0
  0
LINE
  5
17D
100
AcDbEntity
  8
0
370
    -3
390
0
  6
Continuous
100
AcDbLine
 10
-400.864949
 20
-255.862939
 30
0.0
 11
-400.864949
 21
-254.262939
 31
0.0
  0
LINE
  5
17E
100
AcDbEntity
  8
0
370
    -3
390
0
  6
Continuous
100
AcDbLine
 10
-400.864949
 20
-254.262939
 30
0.0
 11
-369.864949
 21
-254.262939
 31
0.0
  0
LINE
  5
17F
100
AcDbEntity
  8
0
370
    -3
390
0
  6
CENTER
100
AcDbLine
 10
-369.864949
 20
-236.688301
 30
0.0
 11
-369.864949
 21
-312.091639
 31
0.0
  0
LINE
  5
180
100
AcDbEntity
  8
0
370
    -3
390
0
  6
Continuous
100
AcDbLine
 10
-405.314949
 20
-307.036765
 30
0.0
 11
-372.922205
 21
-307.036765
 31
0.0
  0
LINE
  5
181
100
AcDbEntity
  8
0
370
    -3
390
0
  6
Continuous
100
AcDbLine
 10
-405.314949
 20
-258.168375
 30
0.0
 11
-334.414949
 21
-258.168375
 31
0.0
  0
LINE
  5
182
100
AcDbEntity
  8
0
370
    -3
390
0
  6
Continuous
100
AcDbLine
 10
-405.314949
 20
-261.639848
 30
0.0
 11
-334.414949
 21
-261.639848
 31
0.0
  0
LINE
  5
183
100
AcDbEntity
  8
0
370
    -3
390
0
  6
Continuous
100
AcDbLine
 10
-323.414949
 20
-269.168375
 30
0.0
 11
-323.414949
 21
-296.036765
 31
0.0
  0
LINE
  5
184
100
AcDbEntity
  8
0
370
    -3
390
0
  6
Continuous
100
AcDbLine
 10
-416.314949
 20
-269.168375
 30
0.0
 11
-416.314949
 21
-296.036765
 31
0.0
  0
LINE
  5
185
100
AcDbEntity
  8
0
370
    -3
390
0
  6
Continuous
100
AcDbLine
 10
-329.814949
 20
-299.062939
 30
0.0
 11
-329.814949
 21
-269.487005
 31
0.0
  0
LINE
  5
186
100
AcDbEntity
  8
0
370
    -3
390
0
  6
Continuous
100
AcDbLine
 10
-409.914949
 20
-299.062939
 30
0.0
 11
-409.914949
 21
-269.487005
 31
0.0
  0
LINE
  5
187
100
AcDbEntity
  8
0
370
    -3
390
0
  6
Continuous
100
AcDbLine
 10
-404.914949
 20
-264.487005
 30
0.0
 11
-334.814949
 21
-264.487005
 31
0.0
  0
ARC
  5
188
100
AcDbEntity
  8
0
370
    -3
390
0
  6
Continuous
100
AcDbCircle
 10
-334.814949
 20
-269.487005
 30
0.0
 40
5.0
100
AcDbArc
 50
0.0
 51
90.0
  0
ARC
  5
189
100
AcDbEntity
  8
0
370
    -3
390
0
  6
Continuous
100
AcDbCircle
 10
-404.914949
 20
-269.487005
 30
0.0
 40
5.0
100
AcDbArc
 50
90.0
 51
180.0
  0
ARC
  5
18A
100
AcDbEntity
  8
0
370
    -3
390
0
  6
Continuous
100
AcDbCircle
 10
-334.414949
 20
-296.036765
 30
0.0
 40
11.0
100
AcDbArc
 50
270.0
 51
0.0
  0
ARC
  5
18B
100
AcDbEntity
  8
0
370
    -3
390
0
  6
Continuous
100
AcDbCircle
 10
-405.314949
 20
-296.036765
 30
0.0
 40
11.0
100
AcDbArc
 50
180.0
 51
270.0
  0
LINE
  5
18C
100
AcDbEntity
  8
0
370
    -3
390
0
  6
Continuous
100
AcDbLine
 10
-404.114949
 20
-304.862939
 30
0.0
 11
-335.614949
 21
-304.862939
 31
0.0
  0
ARC
  5
18D
100
AcDbEntity
  8
0
370
    -3
390
0
  6
Continuous
100
AcDbCircle
 10
-335.614949
 20
-299.062939
 30
0.0
 40
5.8
100
AcDbArc
 50
270.0
 51
0.0
  0
ARC
  5
18E
100
AcDbEntity
  8
0
370
    -3
390
0
  6
Continuous
100
AcDbCircle
 10
-404.114949
 20
-299.062939
 30
0.0
 40
5.8
100
AcDbArc
 50
180.0
 51
270.0
  0
ARC
  5
18F
100
AcDbEntity
  8
0
370
    -3
390
0
  6
Continuous
100
AcDbCircle
 10
-334.414949
 20
-272.639848
 30
0.0
 40
11.0
100
AcDbArc
 50
0.0
 51
90.0
  0
ARC
  5
190
100
AcDbEntity
  8
0
370
    -3
390
0
  6
Continuous
100
AcDbCircle
 10
-334.414949
 20
-269.168375
 30
0.0
 40
11.0
100
AcDbArc
 50
0.0
 51
90.0
  0
ARC
  5
191
100
AcDbEntity
  8
0
370
    -3
390
0
  6
Continuous
100
AcDbCircle
 10
-405.314949
 20
-272.639848
 30
0.0
 40
11.0
100
AcDbArc
 50
90.0
 51
180.0
  0
ARC
  5
192
100
AcDbEntity
  8
0
370
    -3
390
0
  6
Continuous
100
AcDbCircle
 10
-405.314949
 20
-269.168375
 30
0.0
 40
11.0
100
AcDbArc
 50
90.0
 51
180.0
  0
ARC
  5
193
100
AcDbEntity
  8
0
370
    -3
390
0
  6
Continuous
100
AcDbCircle
 10
-336.064949
 20
-261.862939
 30
0.0
 40
5.0
100
AcDbArc
 50
44.925956
 51
90.0
  0
ARC
  5
194
100
AcDbEntity
  8
0
370
    -3
390
0
  6
Continuous
100
AcDbCircle
 10
-403.664949
 20
-261.862939
 30
0.0
 40
5.0
100
AcDbArc
 50
90.0
 51
135.074044
  0
LINE
  5
195
100
AcDbEntity
  8
0
370
    -3
390
0
  6
CENTER
100
AcDbLine
 10
-392.688581
 20
-280.862939
 30
0.0
 11
-348.400863
 21
-280.862939
 31
0.0
  0
CIRCLE
  5
196
100
AcDbEntity
  8
0
370
    -3
390
0
  6
DASHED
100
AcDbCircle
 10
-369.864949
 20
-280.862939
 30
0.0
 40
13.5
  0
ARC
  5
197
100
AcDbEntity
  8
0
370
    -3
390
0
  6
Continuous
100
AcDbCircle
 10
-369.864949
 20
-298.680442
 30
0.0
 40
9.0
100
AcDbArc
 50
253.398469
 51
286.601548
  0
LINE
  5
198
100
AcDbEntity
  8
0
370
    -3
390
0
  6
Continuous
100
AcDbLine
 10
-366.807693
 20
-307.036765
 30
0.0
 11
-334.414949
 21
-307.036765
 31
0.0
  0
LINE
  5
199
100
AcDbEntity
  8
0
370
    -3
390
0
  6
Continuous
100
AcDbLine
 10
-403.664949
 20
-256.862939
 30
0.0
 11
-336.064949
 21
-256.862939
 31
0.0
  0
LINE
  5
19A
100
AcDbEntity
  8
0
370
    -3
390
0
  6
Continuous
100
AcDbLine
 10
-338.864949
 20
-255.862939
 30
0.0
 11
-338.864949
 21
-256.862939
 31
0.0
  0
LINE
  5
19B
100
AcDbEntity
  8
0
370
    -3
390
0
  6
Continuous
100
AcDbLine
 10
-400.864949
 20
-255.862939
 30
0.0
 11
-400.864949
 21
-256.862939
 31
0.0
  0
ARC
  5
19C
100
AcDbEntity
  8
0
370
    -3
390
0
  6
Continuous
100
AcDbCircle
 10
-371.864949
 20
-305.662939
 30
0.0
 40
1.5
100
AcDbArc
 50
147.769047
 51
180.0
  0
LINE
  5
19D
100
AcDbEntity
  8
0
370
    -3
390
0
  6
Continuous
100
AcDbLine
 10
-373.364949
 20
-306.059467
 30
0.0
 11
-373.364949
 21
-305.662939
 31
0.0
  0
ARC
  5
19E
100
AcDbEntity
  8
0
370
    -3
390
0
  6
Continuous
100
AcDbCircle
 10
-372.06495
 20
-306.059467
 30
0.0
 40
1.299999
100
AcDbArc
 50
180.0
 51
253.398469
  0
ARC
  5
19F
100
AcDbEntity
  8
0
370
    -3
390
0
  6
Continuous
100
AcDbCircle
 10
-367.664948
 20
-306.059467
 30
0.0
 40
1.299999
100
AcDbArc
 50
286.601531
 51
0.0
  0
LINE
  5
1A0
100
AcDbEntity
  8
0
370
    -3
390
0
  6
Continuous
100
AcDbLine
 10
-366.364949
 20
-306.059467
 30
0.0
 11
-366.364949
 21
-305.662939
 31
0.0
  0
ARC
  5
1A1
100
AcDbEntity
  8
0
370
    -3
390
0
  6
Continuous
100
AcDbCircle
 10
-367.864949
 20
-305.662939
 30
0.0
 40
1.5
100
AcDbArc
 50
0.0
 51
32.230953
  0
ARC
  5
1A2
100
AcDbEntity
  8
0
370
    -3
390
0
  6
DASHED
100
AcDbCircle
 10
635.005539
 20
-463.362809
 30
0.0
 40
390.8
100
AcDbArc
 50
87.020093
 51
90.0
  0
ARC
  5
1A3
100
AcDbEntity
  8
0
370
    -3
390
0
  6
DASHED
100
AcDbCircle
 10
635.005539
 20
143.637191
 30
0.0
 40
390.8
100
AcDbArc
 50
267.020093
 51
270.0
  0
ARC
  5
1A4
100
AcDbEntity
  8
0
370
    -3
390
0
  6
DASHED
100
AcDbCircle
 10
618.11017
 20
-180.923353
 30
0.0
 40
65.8
100
AcDbArc
 50
231.262419
 51
267.020093
  0
ARC
  5
1A5
100
AcDbEntity
  8
0
370
    -3
390
0
  6
DASHED
100
AcDbCircle
 10
635.005539
 20
143.637191
 30
0.0
 40
390.8
100
AcDbArc
 50
270.0
 51
272.979907
  0
ARC
  5
1A6
100
AcDbEntity
  8
0
370
    -3
390
0
  6
DASHED
100
AcDbCircle
 10
651.900908
 20
-180.923353
 30
0.0
 40
65.8
100
AcDbArc
 50
272.979907
 51
308.737581
  0
ARC
  5
1A7
100
AcDbEntity
  8
0
370
    -3
390
0
  6
DASHED
100
AcDbCircle
 10
656.066083
 20
-176.758179
 30
0.0
 40
65.8
100
AcDbArc
 50
321.262419
 51
346.342448
  0
ARC
  5
1A8
100
AcDbEntity
  8
0
370
    -3
390
0
  6
DASHED
100
AcDbCircle
 10
635.005539
 20
-159.862809
 30
0.0
 40
92.8
100
AcDbArc
 50
308.737581
 51
315.0
  0
ARC
  5
1A9
100
AcDbEntity
  8
0
370
    -3
390
0
  6
Continuous
100
AcDbCircle
 10
331.505539
 20
-159.862809
 30
0.0
 40
390.8
100
AcDbArc
 50
357.020093
 51
357.066548
  0
ARC
  5
1AA
100
AcDbEntity
  8
0
370
    -3
390
0
  6
Continuous
100
AcDbCircle
 10
613.944995
 20
-176.758179
 30
0.0
 40
65.8
100
AcDbArc
 50
182.979907
 51
193.657579
  0
ARC
  5
1AB
100
AcDbEntity
  8
0
370
    -3
390
0
  6
DASHED
100
AcDbCircle
 10
635.005539
 20
-159.862809
 30
0.0
 40
92.8
100
AcDbArc
 50
218.737581
 51
225.0
  0
ARC
  5
1AC
100
AcDbEntity
  8
0
370
    -3
390
0
  6
DASHED
100
AcDbCircle
 10
635.005539
 20
-159.862809
 30
0.0
 40
92.8
100
AcDbArc
 50
315.0
 51
321.262419
  0
ARC
  5
1AD
100
AcDbEntity
  8
0
370
    -3
390
0
  6
DASHED
100
AcDbCircle
 10
635.005539
 20
-159.862809
 30
0.0
 40
92.8
100
AcDbArc
 50
225.0
 51
231.262419
  0
ARC
  5
1AE
100
AcDbEntity
  8
0
370
    -3
390
0
  6
DASHED
100
AcDbCircle
 10
635.005539
 20
-463.362809
 30
0.0
 40
390.8
100
AcDbArc
 50
90.0
 51
92.979907
  0
ARC
  5
1AF
100
AcDbEntity
  8
0
370
    -3
390
0
  6
DASHED
100
AcDbCircle
 10
618.11017
 20
-138.802266
 30
0.0
 40
65.8
100
AcDbArc
 50
92.979907
 51
128.737581
  0
ARC
  5
1B0
100
AcDbEntity
  8
0
370
    -3
390
0
  6
DASHED
100
AcDbCircle
 10
651.900908
 20
-138.802266
 30
0.0
 40
65.8
100
AcDbArc
 50
51.262419
 51
87.020093
  0
ARC
  5
1B1
100
AcDbEntity
  8
0
370
    -3
390
0
  6
DASHED
100
AcDbCircle
 10
656.066083
 20
-142.96744
 30
0.0
 40
65.8
100
AcDbArc
 50
2.979907
 51
38.737581
  0
ARC
  5
1B2
100
AcDbEntity
  8
0
370
    -3
390
0
  6
DASHED
100
AcDbCircle
 10
635.005539
 20
-159.862809
 30
0.0
 40
92.8
100
AcDbArc
 50
45.0
 51
51.262419
  0
ARC
  5
1B3
100
AcDbEntity
  8
0
370
    -3
390
0
  6
DASHED
100
AcDbCircle
 10
331.505539
 20
-159.862809
 30
0.0
 40
390.8
100
AcDbArc
 50
0.0
 51
2.979907
  0
ARC
  5
1B4
100
AcDbEntity
  8
0
370
    -3
390
0
  6
DASHED
100
AcDbCircle
 10
613.944995
 20
-142.96744
 30
0.0
 40
65.8
100
AcDbArc
 50
141.262419
 51
177.020093
  0
ARC
  5
1B5
100
AcDbEntity
  8
0
370
    -3
390
0
  6
DASHED
100
AcDbCircle
 10
635.005539
 20
-159.862809
 30
0.0
 40
92.8
100
AcDbArc
 50
135.0
 51
141.262419
  0
ARC
  5
1B6
100
AcDbEntity
  8
0
370
    -3
390
0
  6
DASHED
100
AcDbCircle
 10
635.005539
 20
-159.862809
 30
0.0
 40
92.8
100
AcDbArc
 50
38.737581
 51
45.0
  0
ARC
  5
1B7
100
AcDbEntity
  8
0
370
    -3
390
0
  6
DASHED
100
AcDbCircle
 10
635.005539
 20
-159.862809
 30
0.0
 40
92.8
100
AcDbArc
 50
128.737581
 51
135.0
  0
ARC
  5
1B8
100
AcDbEntity
  8
0
370
    -3
390
0
  6
DASHED
100
AcDbCircle
 10
938.505539
 20
-159.862071
 30
0.0
 40
390.8
100
AcDbArc
 50
177.020232
 51
180.000139
  0
ARC
  5
1B9
100
AcDbEntity
  8
0
370
    -3
390
0
  6
DASHED
100
AcDbCircle
 10
938.505539
 20
-159.862071
 30
0.0
 40
390.8
100
AcDbArc
 50
180.000139
 51
182.933561
  0
ARC
  5
1BA
100
AcDbEntity
  8
0
370
    -3
390
0
  6
DASHED
100
AcDbCircle
 10
635.005542
 20
-161.862395
 30
0.0
 40
105.5
100
AcDbArc
 50
32.477693
 51
32.541142
  0
ARC
  5
1BB
100
AcDbEntity
  8
0
370
    -3
390
0
  6
Continuous
100
AcDbCircle
 10
656.066083
 20
-176.758179
 30
0.0
 40
65.8
100
AcDbArc
 50
346.342448
 51
357.020093
  0
ARC
  5
1BC
100
AcDbEntity
  8
0
370
    -3
390
0
  6
DASHED
100
AcDbCircle
 10
331.505539
 20
-159.862809
 30
0.0
 40
390.8
100
AcDbArc
 50
357.066548
 51
0.0
  0
ARC
  5
1BD
100
AcDbEntity
  8
0
370
    -3
390
0
  6
Continuous
100
AcDbCircle
 10
938.505539
 20
-159.862071
 30
0.0
 40
390.8
100
AcDbArc
 50
182.933561
 51
182.980047
  0
ARC
  5
1BE
100
AcDbEntity
  8
0
370
    -3
390
0
  6
DASHED
100
AcDbCircle
 10
613.944995
 20
-176.758179
 30
0.0
 40
65.8
100
AcDbArc
 50
193.657579
 51
218.737581
  0
MTEXT
  5
1C0
100
AcDbEntity
  8
0
370
    -3
390
0
  6
Continuous
100
AcDbMText
 10
-659.666931
 20
172.091644
 30
0.0
 40
10.0
 41
0.0
 71
     7
 72
     1
  1
\W0.63;三菱ギヤードモータ  
  7
ZU_SHPTB00001
 11
1.0
 21
0.0
 31
0.0
 73
     1
 44
1.0
  0
MTEXT
  5
1C1
100
AcDbEntity
  8
0
370
    -3
390
0
  6
Continuous
100
AcDbMText
 10
-659.666931
 20
160.791641
 30
0.0
 40
10.0
 41
0.0
 71
     7
 72
     1
  1
\W0.47;GM-SHYPM-RH
  7
ZU_SHPTB00001
 11
1.0
 21
0.0
 31
0.0
 73
     1
 44
1.0
  0
MTEXT
  5
1C2
100
AcDbEntity
  8
0
370
    -3
390
0
  6
Continuous
100
AcDbMText
 10
-659.666931
 20
149.491653
 30
0.0
 40
10.0
 41
0.0
 71
     7
 72
     1
  1
\W0.47;1.5(kW)
  7
ZU_SHPTB00001
 11
1.0
 21
0.0
 31
0.0
 73
     1
 44
1.0
  0
MTEXT
  5
1C3
100
AcDbEntity
  8
0
370
    -3
390
0
  6
Continuous
100
AcDbMText
 10
-659.666931
 20
138.19165
 30
0.0
 40
10.0
 41
0.0
 71
     7
 72
     1
  1
\W0.47;1/80\W0.63;～\W0.47;1/240
  7
ZU_SHPTB00001
 11
1.0
 21
0.0
 31
0.0
 73
     1
 44
1.0
  0
MTEXT
  5
1C4
100
AcDbEntity
  8
0
370
    -3
390
0
  6
Continuous
100
AcDbMText
 10
-659.666931
 20
126.891647
 30
0.0
 40
10.0
 41
0.0
 71
     7
 72
     1
  1
\W0.47;SCALE\W0.78; \W0.47;1/1
  7
ZU_SHPTB00001
 11
1.0
 21
0.0
 31
0.0
 73
     1
 44
1.0
  0
LINE
  5
1C5
100
AcDbEntity
  8
0
370
    -3
390
0
  6
CENTER
100
AcDbLine
 10
101.889111
 20
158.70995
 30
0.0
 11
-469.674804
 21
158.70995
 31
0.0
  0
LINE
  5
1C6
100
AcDbEntity
  8
0
370
    -3
390
0
  6
Continuous
100
AcDbLine
 10
96.135051
 20
158.70995
 30
0.0
 11
94.393687
 21
92.20995
 31
0.0
  0
LINE
  5
1C7
100
AcDbEntity
  8
0
370
    -3
390
0
  6
Continuous
100
AcDbLine
 10
-184.864949
 20
158.70995
 30
0.0
 11
-183.123585
 21
92.20995
 31
0.0
  0
LINE
  5
1C8
100
AcDbEntity
  8
0
370
    -3
390
0
  6
Continuous
100
AcDbLine
 10
64.135051
 20
73.70995
 30
0.0
 11
-83.864949
 21
73.70995
 31
0.0
  0
LINE
  5
1C9
100
AcDbEntity
  8
0
370
    -3
390
0
  6
CENTER
100
AcDbLine
 10
-9.864949
 20
257.311378
 30
0.0
 11
-9.864949
 21
53.553987
 31
0.0
  0
LINE
  5
1CA
100
AcDbEntity
  8
0
370
    -3
390
0
  6
Continuous
100
AcDbLine
 10
-84.864949
 20
78.70995
 30
0.0
 11
-84.864949
 21
74.70995
 31
0.0
  0
LINE
  5
1CB
100
AcDbEntity
  8
0
370
    -3
390
0
  6
Continuous
100
AcDbLine
 10
65.135051
 20
78.70995
 30
0.0
 11
65.135051
 21
74.70995
 31
0.0
  0
LINE
  5
1CC
100
AcDbEntity
  8
0
370
    -3
390
0
  6
Continuous
100
AcDbLine
 10
-83.864949
 20
73.70995
 30
0.0
 11
-84.864949
 21
74.70995
 31
0.0
  0
LINE
  5
1CD
100
AcDbEntity
  8
0
370
    -3
390
0
  6
Continuous
100
AcDbLine
 10
65.135051
 20
74.70995
 30
0.0
 11
64.135051
 21
73.70995
 31
0.0
  0
LINE
  5
1CE
100
AcDbEntity
  8
0
370
    -3
390
0
  6
Continuous
100
AcDbLine
 10
90.781541
 20
78.70995
 30
0.0
 11
-189.864949
 21
78.70995
 31
0.0
  0
LINE
  5
1CF
100
AcDbEntity
  8
0
370
    -3
390
0
  6
Continuous
100
AcDbLine
 10
92.135051
 20
92.20995
 30
0.0
 11
91.807718
 21
79.709607
 31
0.0
  0
LINE
  5
1D0
100
AcDbEntity
  8
0
370
    -3
390
0
  6
Continuous
100
AcDbLine
 10
-180.537616
 20
79.709607
 30
0.0
 11
-180.864949
 21
92.20995
 31
0.0
  0
LINE
  5
1D1
100
AcDbEntity
  8
0
370
    -3
390
0
  6
Continuous
100
AcDbLine
 10
94.393687
 20
92.20995
 30
0.0
 11
-183.123585
 21
92.20995
 31
0.0
  0
LINE
  5
1D2
100
AcDbEntity
  8
0
370
    -3
390
0
  6
Continuous
100
AcDbLine
 10
-179.511439
 20
78.70995
 30
0.0
 11
-180.537616
 21
79.709607
 31
0.0
  0
LINE
  5
1D3
100
AcDbEntity
  8
0
370
    -3
390
0
  6
Continuous
100
AcDbLine
 10
90.781541
 20
78.70995
 30
0.0
 11
91.807718
 21
79.709607
 31
0.0
  0
LINE
  5
1D4
100
AcDbEntity
  8
0
370
    -3
390
0
  6
Continuous
100
AcDbLine
 10
90.781541
 20
238.70995
 30
0.0
 11
-189.864949
 21
238.70995
 31
0.0
  0
LINE
  5
1D5
100
AcDbEntity
  8
0
370
    -3
390
0
  6
Continuous
100
AcDbLine
 10
-179.511439
 20
238.70995
 30
0.0
 11
-180.537616
 21
237.710292
 31
0.0
  0
LINE
  5
1D6
100
AcDbEntity
  8
0
370
    -3
390
0
  6
Continuous
100
AcDbLine
 10
-180.537616
 20
237.710292
 30
0.0
 11
-180.864949
 21
225.20995
 31
0.0
  0
LINE
  5
1D7
100
AcDbEntity
  8
0
370
    -3
390
0
  6
Continuous
100
AcDbLine
 10
-84.864949
 20
238.70995
 30
0.0
 11
-84.864949
 21
242.70995
 31
0.0
  0
LINE
  5
1D8
100
AcDbEntity
  8
0
370
    -3
390
0
  6
Continuous
100
AcDbLine
 10
-184.786391
 20
161.70995
 30
0.0
 11
-183.123585
 21
225.20995
 31
0.0
  0
LINE
  5
1D9
100
AcDbEntity
  8
0
370
    -3
390
0
  6
Continuous
100
AcDbLine
 10
94.393687
 20
225.20995
 30
0.0
 11
-183.123585
 21
225.20995
 31
0.0
  0
LINE
  5
1DA
100
AcDbEntity
  8
0
370
    -3
390
0
  6
Continuous
100
AcDbLine
 10
64.135051
 20
243.70995
 30
0.0
 11
-83.864949
 21
243.70995
 31
0.0
  0
LINE
  5
1DB
100
AcDbEntity
  8
0
370
    -3
390
0
  6
Continuous
100
AcDbLine
 10
-83.864949
 20
243.70995
 30
0.0
 11
-84.864949
 21
242.70995
 31
0.0
  0
LINE
  5
1DC
100
AcDbEntity
  8
0
370
    -3
390
0
  6
Continuous
100
AcDbLine
 10
90.781541
 20
238.70995
 30
0.0
 11
91.807718
 21
237.710292
 31
0.0
  0
LINE
  5
1DD
100
AcDbEntity
  8
0
370
    -3
390
0
  6
Continuous
100
AcDbLine
 10
92.135051
 20
225.20995
 30
0.0
 11
91.807718
 21
237.710292
 31
0.0
  0
LINE
  5
1DE
100
AcDbEntity
  8
0
370
    -3
390
0
  6
Continuous
100
AcDbLine
 10
65.135051
 20
238.70995
 30
0.0
 11
65.135051
 21
242.70995
 31
0.0
  0
LINE
  5
1DF
100
AcDbEntity
  8
0
370
    -3
390
0
  6
Continuous
100
AcDbLine
 10
96.056493
 20
161.70995
 30
0.0
 11
94.393687
 21
225.20995
 31
0.0
  0
LINE
  5
1E0
100
AcDbEntity
  8
0
370
    -3
390
0
  6
Continuous
100
AcDbLine
 10
65.135051
 20
242.70995
 30
0.0
 11
64.135051
 21
243.70995
 31
0.0
  0
LINE
  5
1E1
100
AcDbEntity
  8
0
370
    -3
390
0
  6
Continuous
100
AcDbLine
 10
96.056493
 20
161.70995
 30
0.0
 11
-184.786391
 21
161.70995
 31
0.0
  0
LINE
  5
1E2
100
AcDbEntity
  8
0
370
    -3
390
0
  6
Continuous
100
AcDbLine
 10
94.135736
 20
158.657596
 30
0.0
 11
94.055807
 21
161.70995
 31
0.0
  0
LINE
  5
1E3
100
AcDbEntity
  8
0
370
    -3
390
0
  6
Continuous
100
AcDbLine
 10
-182.865635
 20
158.657596
 30
0.0
 11
-182.785706
 21
161.70995
 31
0.0
  0
LINE
  5
1E4
100
AcDbEntity
  8
0
370
    -3
390
0
  6
Continuous
100
AcDbLine
 10
96.135051
 20
158.70995
 30
0.0
 11
-184.864949
 21
158.70995
 31
0.0
  0
LINE
  5
1E5
100
AcDbEntity
  8
0
370
    -3
390
0
  6
Continuous
100
AcDbLine
 10
-191.864949
 20
236.70995
 30
0.0
 11
-191.864949
 21
80.70995
 31
0.0
  0
LINE
  5
1E6
100
AcDbEntity
  8
0
370
    -3
390
0
  6
Continuous
100
AcDbLine
 10
-189.864949
 20
238.70995
 30
0.0
 11
-191.864949
 21
236.70995
 31
0.0
  0
LINE
  5
1E7
100
AcDbEntity
  8
0
370
    -3
390
0
  6
Continuous
100
AcDbLine
 10
-191.864949
 20
80.70995
 30
0.0
 11
-189.864949
 21
78.70995
 31
0.0
  0
LINE
  5
1E8
100
AcDbEntity
  8
0
370
    -3
390
0
  6
Continuous
100
AcDbLine
 10
-191.864949
 20
238.70995
 30
0.0
 11
-191.864949
 21
78.70995
 31
0.0
  0
LINE
  5
1E9
100
AcDbEntity
  8
0
370
    -3
390
0
  6
Continuous
100
AcDbLine
 10
29.635051
 20
69.70995
 30
0.0
 11
-49.864949
 21
69.70995
 31
0.0
  0
LINE
  5
1EA
100
AcDbEntity
  8
0
370
    -3
390
0
  6
Continuous
100
AcDbLine
 10
-49.864949
 20
247.70995
 30
0.0
 11
-49.864949
 21
243.70995
 31
0.0
  0
LINE
  5
1EB
100
AcDbEntity
  8
0
370
    -3
390
0
  6
Continuous
100
AcDbLine
 10
-49.864949
 20
69.70995
 30
0.0
 11
-49.864949
 21
73.70995
 31
0.0
  0
ARC
  5
1EC
100
AcDbEntity
  8
0
370
    -3
390
0
  6
Continuous
100
AcDbCircle
 10
-49.364949
 20
70.10995
 30
0.0
 40
0.4
100
AcDbArc
 50
180.0
 51
270.0
  0
LINE
  5
1ED
100
AcDbEntity
  8
0
370
    -3
390
0
  6
Continuous
100
AcDbLine
 10
-49.364949
 20
69.70995
 30
0.0
 11
30.135051
 21
69.70995
 31
0.0
  0
ARC
  5
1EE
100
AcDbEntity
  8
0
370
    -3
390
0
  6
Continuous
100
AcDbCircle
 10
-49.364949
 20
247.30995
 30
0.0
 40
0.4
100
AcDbArc
 50
90.0
 51
180.0
  0
LINE
  5
1EF
100
AcDbEntity
  8
0
370
    -3
390
0
  6
Continuous
100
AcDbLine
 10
30.135051
 20
247.70995
 30
0.0
 11
30.135051
 21
243.70995
 31
0.0
  0
LINE
  5
1F0
100
AcDbEntity
  8
0
370
    -3
390
0
  6
Continuous
100
AcDbLine
 10
-49.364949
 20
247.70995
 30
0.0
 11
30.135051
 21
247.70995
 31
0.0
  0
LINE
  5
1F1
100
AcDbEntity
  8
0
370
    -3
390
0
  6
Continuous
100
AcDbLine
 10
30.135051
 20
69.70995
 30
0.0
 11
30.135051
 21
73.70995
 31
0.0
  0
LINE
  5
1F2
100
AcDbEntity
  8
0
370
    -3
390
0
  6
CENTER
100
AcDbLine
 10
-633.903704
 20
-6.622715
 30
0.0
 11
-633.903704
 21
-314.322748
 31
0.0
  0
LINE
  5
1F3
100
AcDbEntity
  8
0
370
    -3
390
0
  6
CENTER
100
AcDbLine
 10
-552.955456
 20
-159.862939
 30
0.0
 11
-715.077143
 21
-159.862939
 31
0.0
  0
LINE
  5
1F4
100
AcDbEntity
  8
0
370
    -3
390
0
  6
Continuous
100
AcDbLine
 10
-636.903704
 20
-33.967702
 30
0.0
 11
-643.882613
 21
-34.21141
 31
0.0
  0
LINE
  5
1F5
100
AcDbEntity
  8
0
370
    -3
390
0
  6
Continuous
100
AcDbLine
 10
-712.904389
 20
-38.190281
 30
0.0
 11
-713.903704
 21
-39.216106
 31
0.0
  0
LINE
  5
1F6
100
AcDbEntity
  8
0
370
    -3
390
0
  6
Continuous
100
AcDbLine
 10
-700.403704
 20
-37.862939
 30
0.0
 11
-712.904389
 21
-38.190281
 31
0.0
  0
LINE
  5
1F7
100
AcDbEntity
  8
0
370
    -3
390
0
  6
Continuous
100
AcDbLine
 10
-700.403704
 20
-36.18517
 30
0.0
 11
-700.403704
 21
-89.323793
 31
0.0
  0
LINE
  5
1F8
100
AcDbEntity
  8
0
370
    -3
390
0
  6
Continuous
100
AcDbLine
 10
-718.903704
 20
-64.862939
 30
0.0
 11
-718.903704
 21
-127.430971
 31
0.0
  0
LINE
  5
1F9
100
AcDbEntity
  8
0
370
    -3
390
0
  6
Continuous
100
AcDbLine
 10
-713.903704
 20
-39.216106
 30
0.0
 11
-713.903704
 21
-113.713844
 31
0.0
  0
LINE
  5
1FA
100
AcDbEntity
  8
0
370
    -3
390
0
  6
Continuous
100
AcDbLine
 10
-713.903704
 20
-64.862939
 30
0.0
 11
-718.903704
 21
-64.862939
 31
0.0
  0
LINE
  5
1FB
100
AcDbEntity
  8
0
370
    -3
390
0
  6
Continuous
100
AcDbLine
 10
-633.903704
 20
-33.862939
 30
0.0
 11
-633.903704
 21
-44.862939
 31
0.0
  0
LINE
  5
1FC
100
AcDbEntity
  8
0
370
    -3
390
0
  6
CENTER
100
AcDbLine
 10
-614.820223
 20
-59.862939
 30
0.0
 11
-653.332974
 21
-59.862939
 31
0.0
  0
ARC
  5
1FD
100
AcDbEntity
  8
0
370
    -3
390
0
  6
Continuous
100
AcDbCircle
 10
-653.403832
 20
-52.862996
 30
0.0
 40
3.0
100
AcDbArc
 50
109.47134
 51
180.00007
  0
LINE
  5
1FE
100
AcDbEntity
  8
0
370
    -3
390
0
  6
Continuous
100
AcDbLine
 10
-656.403832
 20
-52.863
 30
0.0
 11
-656.403807
 21
-73.241531
 31
0.0
  0
LINE
  5
1FF
100
AcDbEntity
  8
0
370
    -3
390
0
  6
Continuous
100
AcDbLine
 10
-611.403832
 20
-52.862936
 30
0.0
 11
-611.403807
 21
-73.241513
 31
0.0
  0
ARC
  5
200
100
AcDbEntity
  8
0
370
    -3
390
0
  6
Continuous
100
AcDbCircle
 10
-614.403832
 20
-52.862939
 30
0.0
 40
3.0
100
AcDbArc
 50
0.00007
 51
70.528898
  0
INSERT
  5
20F
100
AcDbEntity
  8
0
390
0
100
AcDbBlockReference
  2
ZU_SYM__USR_MELCAD_MD_SYM_SYM_SYM9_00
 10
-623.403823
 20
-59.862939
 30
0.0
 50
90.0
  0
INSERT
  5
21E
100
AcDbEntity
  8
0
390
0
100
AcDbBlockReference
  2
ZU_SYM__USR_MELCAD_MD_SYM_SYM_SYM8_00
 10
-644.403823
 20
-59.862939
 30
0.0
 50
90.0
  0
LINE
  5
21F
100
AcDbEntity
  8
0
370
    -3
390
0
  6
CENTER
100
AcDbLine
 10
-623.403836
 20
-51.704739
 30
0.0
 11
-623.403816
 21
-67.987607
 31
0.0
  0
LINE
  5
220
100
AcDbEntity
  8
0
370
    -3
390
0
  6
CENTER
100
AcDbLine
 10
-644.403835
 20
-51.803571
 30
0.0
 11
-644.403816
 21
-67.839356
 31
0.0
  0
LINE
  5
221
100
AcDbEntity
  8
0
370
    -3
390
0
  6
CENTER
100
AcDbLine
 10
-646.408765
 20
-34.862939
 30
0.0
 11
-621.24626
 21
-34.862939
 31
0.0
  0
LINE
  5
222
100
AcDbEntity
  8
0
370
    -3
390
0
  6
Continuous
100
AcDbLine
 10
-654.403872
 20
-24.862951
 30
0.0
 11
-654.403819
 21
-64.862945
 31
0.0
  0
ARC
  5
223
100
AcDbEntity
  8
0
370
    -3
390
0
  6
Continuous
100
AcDbCircle
 10
-644.403872
 20
-24.862939
 30
0.0
 40
10.0
100
AcDbArc
 50
90.0
 51
180.00007
  0
CIRCLE
  5
224
100
AcDbEntity
  8
0
370
    -3
390
0
  6
Continuous
100
AcDbCircle
 10
-633.90386
 20
-34.862939
 30
0.0
 40
10.0
  0
LINE
  5
225
100
AcDbEntity
  8
0
370
    -3
390
0
  6
Continuous
100
AcDbLine
 10
-623.403872
 20
-14.862939
 30
0.0
 11
-644.403872
 21
-14.862939
 31
0.0
  0
ARC
  5
226
100
AcDbEntity
  8
0
370
    -3
390
0
  6
Continuous
100
AcDbCircle
 10
-623.403872
 20
-24.862939
 30
0.0
 40
10.0
100
AcDbArc
 50
0.00007
 51
90.0
  0
LINE
  5
227
100
AcDbEntity
  8
0
370
    -3
390
0
  6
Continuous
100
AcDbLine
 10
-613.403872
 20
-24.862927
 30
0.0
 11
-613.403819
 21
-64.862933
 31
0.0
  0
LINE
  5
228
100
AcDbEntity
  8
0
370
    -3
390
0
  6
Continuous
100
AcDbLine
 10
-636.903704
 20
-33.967702
 30
0.0
 11
-636.903704
 21
-44.40238
 31
0.0
  0
LINE
  5
229
100
AcDbEntity
  8
0
370
    -3
390
0
  6
Continuous
100
AcDbLine
 10
-636.899592
 20
-35.705931
 30
0.0
 11
-633.903704
 21
-35.862939
 31
0.0
  0
LINE
  5
22A
100
AcDbEntity
  8
0
370
    -3
390
0
  6
Continuous
100
AcDbLine
 10
-633.903704
 20
-33.862939
 30
0.0
 11
-623.925107
 21
-34.211399
 31
0.0
  0
ARC
  5
22B
100
AcDbEntity
  8
0
370
    -3
390
0
  6
Continuous
100
AcDbCircle
 10
-618.403819
 20
-64.862939
 30
0.0
 40
5.0
100
AcDbArc
 50
270.0
 51
0.00007
  0
LINE
  5
22C
100
AcDbEntity
  8
0
370
    -3
390
0
  6
Continuous
100
AcDbLine
 10
-553.903704
 20
-64.862939
 30
0.0
 11
-548.903704
 21
-64.862939
 31
0.0
  0
LINE
  5
22D
100
AcDbEntity
  8
0
370
    -3
390
0
  6
Continuous
100
AcDbLine
 10
-553.903704
 20
-39.216106
 30
0.0
 11
-553.903704
 21
-113.713844
 31
0.0
  0
LINE
  5
22E
100
AcDbEntity
  8
0
370
    -3
390
0
  6
Continuous
100
AcDbLine
 10
-553.903704
 20
-39.216106
 30
0.0
 11
-554.903019
 21
-38.190281
 31
0.0
  0
LINE
  5
22F
100
AcDbEntity
  8
0
370
    -3
390
0
  6
Continuous
100
AcDbLine
 10
-554.903019
 20
-38.190281
 30
0.0
 11
-553.903704
 21
-39.216106
 31
0.0
  0
LINE
  5
230
100
AcDbEntity
  8
0
370
    -3
390
0
  6
Continuous
100
AcDbLine
 10
-567.403704
 20
-36.18517
 30
0.0
 11
-567.403704
 21
-89.288359
 31
0.0
  0
LINE
  5
231
100
AcDbEntity
  8
0
370
    -3
390
0
  6
Continuous
100
AcDbLine
 10
-567.403704
 20
-37.862939
 30
0.0
 11
-554.903019
 21
-38.190281
 31
0.0
  0
LINE
  5
232
100
AcDbEntity
  8
0
370
    -3
390
0
  6
Continuous
100
AcDbLine
 10
-548.903704
 20
-64.862939
 30
0.0
 11
-548.903704
 21
-127.430971
 31
0.0
  0
LINE
  5
233
100
AcDbEntity
  8
0
370
    -3
390
0
  6
Continuous
100
AcDbLine
 10
-553.903704
 20
-206.012034
 30
0.0
 11
-553.903704
 21
-286.522865
 31
0.0
  0
LINE
  5
234
100
AcDbEntity
  8
0
370
    -3
390
0
  6
Continuous
100
AcDbLine
 10
-554.903019
 20
-287.54869
 30
0.0
 11
-553.903704
 21
-286.522865
 31
0.0
  0
LINE
  5
235
100
AcDbEntity
  8
0
370
    -3
390
0
  6
Continuous
100
AcDbLine
 10
-554.903019
 20
-287.54869
 30
0.0
 11
-566.903704
 21
-287.862939
 31
0.0
  0
LINE
  5
236
100
AcDbEntity
  8
0
370
    -3
390
0
  6
Continuous
100
AcDbLine
 10
-601.758827
 20
-290.740415
 30
0.0
 11
-566.903704
 21
-289.523248
 31
0.0
  0
LINE
  5
237
100
AcDbEntity
  8
0
370
    -3
390
0
  6
Continuous
100
AcDbLine
 10
-713.903704
 20
-206.012034
 30
0.0
 11
-713.903704
 21
-286.522865
 31
0.0
  0
LINE
  5
238
100
AcDbEntity
  8
0
370
    -3
390
0
  6
Continuous
100
AcDbLine
 10
-680.403704
 20
-290.239123
 30
0.0
 11
-700.903704
 21
-289.523248
 31
0.0
  0
LINE
  5
239
100
AcDbEntity
  8
0
370
    -3
390
0
  6
Continuous
100
AcDbLine
 10
-700.903704
 20
-230.170159
 30
0.0
 11
-700.903704
 21
-289.523248
 31
0.0
  0
LINE
  5
23A
100
AcDbEntity
  8
0
370
    -3
390
0
  6
Continuous
100
AcDbLine
 10
-712.904389
 20
-287.54869
 30
0.0
 11
-713.903704
 21
-286.522865
 31
0.0
  0
LINE
  5
23B
100
AcDbEntity
  8
0
370
    -3
390
0
  6
Continuous
100
AcDbLine
 10
-712.904389
 20
-287.54869
 30
0.0
 11
-700.903704
 21
-287.862939
 31
0.0
  0
LINE
  5
23C
100
AcDbEntity
  8
0
370
    -3
390
0
  6
Continuous
100
AcDbLine
 10
-718.903704
 20
-192.294908
 30
0.0
 11
-718.903704
 21
-214.862939
 31
0.0
  0
LINE
  5
23D
100
AcDbEntity
  8
0
370
    -3
390
0
  6
Continuous
100
AcDbLine
 10
-713.903704
 20
-214.862939
 30
0.0
 11
-718.903704
 21
-214.862939
 31
0.0
  0
LINE
  5
23E
100
AcDbEntity
  8
0
370
    -3
390
0
  6
Continuous
100
AcDbLine
 10
-553.903704
 20
-214.862939
 30
0.0
 11
-548.903704
 21
-214.862939
 31
0.0
  0
LINE
  5
23F
100
AcDbEntity
  8
0
370
    -3
390
0
  6
Continuous
100
AcDbLine
 10
-548.903704
 20
-192.294908
 30
0.0
 11
-548.903704
 21
-214.862939
 31
0.0
  0
LINE
  5
240
100
AcDbEntity
  8
0
370
    -3
390
0
  6
Continuous
100
AcDbLine
 10
-613.403856
 20
-34.57881
 30
0.0
 11
-567.403704
 21
-36.18517
 31
0.0
  0
LINE
  5
241
100
AcDbEntity
  8
0
370
    -3
390
0
  6
Continuous
100
AcDbLine
 10
-654.403856
 20
-34.57882
 30
0.0
 11
-700.403704
 21
-36.18517
 31
0.0
  0
LINE
  5
242
100
AcDbEntity
  8
0
370
    -3
390
0
  6
Continuous
100
AcDbLine
 10
-544.903704
 20
-99.862939
 30
0.0
 11
-544.903704
 21
-179.862939
 31
0.0
  0
LINE
  5
243
100
AcDbEntity
  8
0
370
    -3
390
0
  6
Continuous
100
AcDbLine
 10
-722.903704
 20
-179.862939
 30
0.0
 11
-722.903704
 21
-99.862939
 31
0.0
  0
LINE
  5
244
100
AcDbEntity
  8
0
370
    -3
390
0
  6
Continuous
100
AcDbLine
 10
-722.903675
 20
-99.862939
 30
0.0
 11
-718.903675
 21
-99.862939
 31
0.0
  0
LINE
  5
245
100
AcDbEntity
  8
0
370
    -3
390
0
  6
Continuous
100
AcDbLine
 10
-548.903675
 20
-99.862939
 30
0.0
 11
-544.903704
 21
-99.862939
 31
0.0
  0
LINE
  5
246
100
AcDbEntity
  8
0
370
    -3
390
0
  6
CENTER
100
AcDbLine
 10
-728.121417
 20
-139.862939
 30
0.0
 11
-539.644972
 21
-139.862939
 31
0.0
  0
INSERT
  5
252
100
AcDbEntity
  8
0
390
0
100
AcDbBlockReference
  2
ZU_SYM__USR_MELCAD_MD_SYM_SYM_SYM7_00
 10
-566.869981
 20
-92.829216
 30
0.0
 50
225.0
  0
INSERT
  5
25E
100
AcDbEntity
  8
0
390
0
100
AcDbBlockReference
  2
ZU_SYM__USR_MELCAD_MD_SYM_SYM_SYM6_00
 10
-700.937427
 20
-92.829216
 30
0.0
 41
-1.0
 50
135.0
  0
INSERT
  5
26A
100
AcDbEntity
  8
0
390
0
100
AcDbBlockReference
  2
ZU_SYM__USR_MELCAD_MD_SYM_SYM_SYM5_00
 10
-700.937427
 20
-226.896662
 30
0.0
 50
45.0
  0
INSERT
  5
276
100
AcDbEntity
  8
0
390
0
100
AcDbBlockReference
  2
ZU_SYM__USR_MELCAD_MD_SYM_SYM_SYM4_00
 10
-566.869981
 20
-226.896662
 30
0.0
 41
-1.0
 50
315.0
  0
ARC
  5
277
100
AcDbEntity
  8
0
370
    -3
390
0
  6
Continuous
100
AcDbCircle
 10
-592.327378
 20
-261.133039
 30
0.0
 40
1.0
100
AcDbArc
 50
294.0
 51
24.0
  0
LINE
  5
278
100
AcDbEntity
  8
0
370
    -3
390
0
  6
Continuous
100
AcDbLine
 10
-594.246191
 20
-258.922368
 30
0.0
 11
-595.247033
 21
-258.497536
 31
0.0
  0
LINE
  5
279
100
AcDbEntity
  8
0
370
    -3
390
0
  6
Continuous
100
AcDbLine
 10
-595.245484
 20
-259.367282
 30
0.0
 11
-595.559618
 21
-259.23394
 31
0.0
  0
LINE
  5
27A
100
AcDbEntity
  8
0
370
    -3
390
0
  6
Continuous
100
AcDbLine
 10
-595.247033
 20
-258.497536
 30
0.0
 11
-595.559618
 21
-259.23394
 31
0.0
  0
LINE
  5
27B
100
AcDbEntity
  8
0
370
    -3
390
0
  6
Continuous
100
AcDbLine
 10
-591.920642
 20
-262.046585
 30
0.0
 11
-633.903704
 21
-280.738648
 31
0.0
  0
ARC
  5
27C
100
AcDbEntity
  8
0
370
    -3
390
0
  6
Continuous
100
AcDbCircle
 10
-594.703497
 20
-266.5695
 30
0.0
 40
3.0
100
AcDbArc
 50
114.0
 51
170.681877
  0
LINE
  5
27D
100
AcDbEntity
  8
0
370
    -3
390
0
  6
Continuous
100
AcDbLine
 10
-597.663911
 20
-266.083753
 30
0.0
 11
-601.92274
 21
-292.03939
 31
0.0
  0
LINE
  5
27E
100
AcDbEntity
  8
0
370
    -3
390
0
  6
Continuous
100
AcDbLine
 10
-591.413833
 20
-260.726303
 30
0.0
 11
-592.552695
 21
-258.168375
 31
0.0
  0
LINE
  5
27F
100
AcDbEntity
  8
0
370
    -3
390
0
  6
Continuous
100
AcDbLine
 10
-597.66855
 20
-260.4461
 30
0.0
 11
-598.471463
 21
-258.642729
 31
0.0
  0
ARC
  5
280
100
AcDbEntity
  8
0
370
    -3
390
0
  6
Continuous
100
AcDbCircle
 10
-601.212099
 20
-259.862939
 30
0.0
 40
3.0
100
AcDbArc
 50
24.0
 51
90.0
  0
LINE
  5
281
100
AcDbEntity
  8
0
370
    -3
390
0
  6
Continuous
100
AcDbLine
 10
-592.552695
 20
-258.168375
 30
0.0
 11
-695.235205
 21
-303.885574
 31
0.0
  0
LINE
  5
282
100
AcDbEntity
  8
0
370
    -3
390
0
  6
Continuous
100
AcDbLine
 10
-690.530446
 20
-301.79088
 30
0.0
 11
-692.23874
 21
-297.953989
 31
0.0
  0
LINE
  5
283
100
AcDbEntity
  8
0
370
    -3
390
0
  6
Continuous
100
AcDbLine
 10
-687.515746
 20
-300.448649
 30
0.0
 11
-689.22404
 21
-296.611758
 31
0.0
  0
LINE
  5
284
100
AcDbEntity
  8
0
370
    -3
390
0
  6
Continuous
100
AcDbLine
 10
-688.761941
 20
-296.789141
 30
0.0
 11
-689.22404
 21
-296.611758
 31
0.0
  0
LINE
  5
285
100
AcDbEntity
  8
0
370
    -3
390
0
  6
Continuous
100
AcDbLine
 10
-692.416123
 20
-298.416088
 30
0.0
 11
-692.23874
 21
-297.953989
 31
0.0
  0
LINE
  5
286
100
AcDbEntity
  8
0
370
    -3
390
0
  6
Continuous
100
AcDbLine
 10
-689.22404
 20
-296.611758
 30
0.0
 11
-692.23874
 21
-297.953989
 31
0.0
  0
LINE
  5
287
100
AcDbEntity
  8
0
370
    -3
390
0
  6
Continuous
100
AcDbLine
 10
-684.280087
 20
-303.167659
 30
0.0
 11
-690.674906
 21
-306.014816
 31
0.0
  0
LINE
  5
288
100
AcDbEntity
  8
0
370
    -3
390
0
  6
Continuous
100
AcDbLine
 10
-684.280087
 20
-303.167659
 30
0.0
 11
-690.674906
 21
-306.014816
 31
0.0
  0
LINE
  5
289
100
AcDbEntity
  8
0
370
    -3
390
0
  6
Continuous
100
AcDbLine
 10
-690.674906
 20
-306.014816
 30
0.0
 11
-690.2767
 21
-306.9092
 31
0.0
  0
LINE
  5
28A
100
AcDbEntity
  8
0
370
    -3
390
0
  6
Continuous
100
AcDbLine
 10
-684.280087
 20
-303.167659
 30
0.0
 11
-683.881882
 21
-304.062043
 31
0.0
  0
ARC
  5
28B
100
AcDbEntity
  8
0
370
    -3
390
0
  6
Continuous
100
AcDbCircle
 10
-685.06949
 20
-304.590801
 30
0.0
 40
1.299999
100
AcDbArc
 50
310.601531
 51
24.000001
  0
ARC
  5
28C
100
AcDbEntity
  8
0
370
    -3
390
0
  6
Continuous
100
AcDbCircle
 10
-633.903704
 20
295.137061
 30
0.0
 40
600.0
100
AcDbArc
 50
265.284875
 51
271.682769
  0
ARC
  5
28D
100
AcDbEntity
  8
0
370
    -3
390
0
  6
Continuous
100
AcDbCircle
 10
-683.306863
 20
-303.828988
 30
0.0
 40
1.0
100
AcDbArc
 50
85.284875
 51
114.0
  0
ARC
  5
28E
100
AcDbEntity
  8
0
370
    -3
390
0
  6
Continuous
100
AcDbCircle
 10
-675.403704
 20
-261.862939
 30
0.0
 40
5.0
100
AcDbArc
 50
90.0
 51
180.0
  0
LINE
  5
28F
100
AcDbEntity
  8
0
370
    -3
390
0
  6
Continuous
100
AcDbLine
 10
-680.403704
 20
-261.862939
 30
0.0
 11
-680.403704
 21
-297.282164
 31
0.0
  0
LINE
  5
290
100
AcDbEntity
  8
0
370
    -3
390
0
  6
Continuous
100
AcDbLine
 10
-694.096342
 20
-306.443501
 30
0.0
 11
-695.235205
 21
-303.885574
 31
0.0
  0
ARC
  5
291
100
AcDbEntity
  8
0
370
    -3
390
0
  6
Continuous
100
AcDbCircle
 10
-693.182797
 20
-306.036765
 30
0.0
 40
1.0
100
AcDbArc
 50
204.0
 51
294.0
  0
LINE
  5
292
100
AcDbEntity
  8
0
370
    -3
390
0
  6
Continuous
100
AcDbLine
 10
-633.903704
 20
-280.738648
 30
0.0
 11
-692.77606
 21
-306.95031
 31
0.0
  0
ARC
  5
293
100
AcDbEntity
  8
0
370
    -3
390
0
  6
Continuous
100
AcDbCircle
 10
-680.675942
 20
-302.657626
 30
0.0
 40
1.0
100
AcDbArc
 50
24.0
 51
114.0
  0
ARC
  5
294
100
AcDbEntity
  8
0
370
    -3
390
0
  6
Continuous
100
AcDbCircle
 10
-678.026338
 20
-301.232953
 30
0.0
 40
2.0
100
AcDbArc
 50
204.0
 51
265.768662
  0
LINE
  5
295
100
AcDbEntity
  8
0
370
    -3
390
0
  6
Continuous
100
AcDbLine
 10
-687.196005
 20
-300.306291
 30
0.0
 11
-688.761941
 21
-296.789141
 31
0.0
  0
LINE
  5
296
100
AcDbEntity
  8
0
370
    -3
390
0
  6
Continuous
100
AcDbLine
 10
-690.850187
 20
-301.933238
 30
0.0
 11
-692.416123
 21
-298.416088
 31
0.0
  0
LINE
  5
297
100
AcDbEntity
  8
0
370
    -3
390
0
  6
Continuous
100
AcDbLine
 10
-601.212099
 20
-256.862939
 30
0.0
 11
-675.403704
 21
-256.862939
 31
0.0
  0
LINE
  5
298
100
AcDbEntity
  8
0
370
    -3
390
0
  6
CENTER
100
AcDbLine
 10
-666.02118
 20
-280.862939
 30
0.0
 11
-688.889689
 21
-280.862939
 31
0.0
  0
ARC
  5
299
100
AcDbEntity
  8
0
370
    -3
390
0
  6
Continuous
100
AcDbCircle
 10
-689.089092
 20
-306.380443
 30
0.0
 40
1.299999
100
AcDbArc
 50
203.999982
 51
277.398452
  0
ARC
  5
29A
100
AcDbEntity
  8
0
370
    -3
390
0
  6
Continuous
100
AcDbCircle
 10
-690.080611
 20
-298.744547
 30
0.0
 40
9.0
100
AcDbArc
 50
277.398452
 51
310.601531
  0
ARC
  5
29B
100
AcDbEntity
  8
0
370
    -3
390
0
  6
Continuous
100
AcDbCircle
 10
-616.724808
 20
-289.61065
 30
0.0
 40
15.0
100
AcDbArc
 50
271.682769
 51
350.681877
  0
LINE
  5
29C
100
AcDbEntity
  8
0
370
    -3
390
0
  6
Continuous
100
AcDbLine
 10
-664.903704
 20
-255.862939
 30
0.0
 11
-664.903704
 21
-256.862939
 31
0.0
  0
LINE
  5
29D
100
AcDbEntity
  8
0
370
    -3
390
0
  6
Continuous
100
AcDbLine
 10
-602.903704
 20
-255.862939
 30
0.0
 11
-602.903704
 21
-256.862939
 31
0.0
  0
LINE
  5
29E
100
AcDbEntity
  8
0
370
    -3
390
0
  6
Continuous
100
AcDbLine
 10
-658.503704
 20
-252.262939
 30
0.0
 11
-658.503704
 21
-246.270852
 31
0.0
  0
LINE
  5
29F
100
AcDbEntity
  8
0
370
    -3
390
0
  6
Continuous
100
AcDbLine
 10
-609.303704
 20
-252.262939
 30
0.0
 11
-609.303704
 21
-246.270852
 31
0.0
  0
LINE
  5
2A0
100
AcDbEntity
  8
0
370
    -3
390
0
  6
Continuous
100
AcDbLine
 10
-664.903704
 20
-254.262939
 30
0.0
 11
-602.903704
 21
-254.262939
 31
0.0
  0
ARC
  5
2A1
100
AcDbEntity
  8
0
370
    -3
390
0
  6
Continuous
100
AcDbCircle
 10
-607.303704
 20
-252.262939
 30
0.0
 40
2.0
100
AcDbArc
 50
180.0
 51
270.0
  0
LINE
  5
2A2
100
AcDbEntity
  8
0
370
    -3
390
0
  6
Continuous
100
AcDbLine
 10
-664.903704
 20
-255.862939
 30
0.0
 11
-602.903704
 21
-255.862939
 31
0.0
  0
LINE
  5
2A3
100
AcDbEntity
  8
0
370
    -3
390
0
  6
Continuous
100
AcDbLine
 10
-602.903704
 20
-255.862939
 30
0.0
 11
-602.903704
 21
-254.262939
 31
0.0
  0
LINE
  5
2A4
100
AcDbEntity
  8
0
370
    -3
390
0
  6
Continuous
100
AcDbLine
 10
-664.903704
 20
-255.862939
 30
0.0
 11
-664.903704
 21
-254.262939
 31
0.0
  0
ARC
  5
2A5
100
AcDbEntity
  8
0
370
    -3
390
0
  6
Continuous
100
AcDbCircle
 10
-660.503704
 20
-252.262939
 30
0.0
 40
2.0
100
AcDbArc
 50
270.0
 51
0.0
  0
LINE
  5
2A6
100
AcDbEntity
  8
0
370
    -3
390
0
  6
Continuous
100
AcDbLine
 10
-567.435666
 20
-93.394902
 30
0.0
 11
-564.112265
 21
-96.718304
 31
0.0
  0
LINE
  5
2A7
100
AcDbEntity
  8
0
370
    -3
390
0
  6
Continuous
100
AcDbLine
 10
-566.869981
 20
-92.829216
 30
0.0
 11
-563.688
 21
-96.011197
 31
0.0
  0
LINE
  5
2A8
100
AcDbEntity
  8
0
370
    -3
390
0
  6
Continuous
100
AcDbLine
 10
-564.112265
 20
-97.142568
 30
0.0
 11
-564.843976
 21
-97.874279
 31
0.0
  0
LINE
  5
2A9
100
AcDbEntity
  8
0
370
    -3
390
0
  6
Continuous
100
AcDbLine
 10
-565.915387
 20
-94.915181
 30
0.0
 11
-564.112265
 21
-96.718304
 31
0.0
  0
LINE
  5
2AA
100
AcDbEntity
  8
0
370
    -3
390
0
  6
Continuous
100
AcDbLine
 10
-563.688
 20
-96.011197
 30
0.0
 11
-564.253686
 21
-96.576882
 31
0.0
  0
ARC
  5
2AB
100
AcDbEntity
  8
0
370
    -3
390
0
  6
Continuous
100
AcDbCircle
 10
-564.324397
 20
-96.930436
 30
0.0
 40
0.3
100
AcDbArc
 50
315.0
 51
45.0
  0
LINE
  5
2AC
100
AcDbEntity
  8
0
370
    -3
390
0
  6
Continuous
100
AcDbLine
 10
-567.435666
 20
-93.394902
 30
0.0
 11
-570.759068
 21
-90.0715
 31
0.0
  0
LINE
  5
2AD
100
AcDbEntity
  8
0
370
    -3
390
0
  6
Continuous
100
AcDbLine
 10
-566.869981
 20
-92.829216
 30
0.0
 11
-570.051962
 21
-89.647236
 31
0.0
  0
LINE
  5
2AE
100
AcDbEntity
  8
0
370
    -3
390
0
  6
Continuous
100
AcDbLine
 10
-571.183332
 20
-90.0715
 30
0.0
 11
-571.915044
 21
-90.803211
 31
0.0
  0
LINE
  5
2AF
100
AcDbEntity
  8
0
370
    -3
390
0
  6
Continuous
100
AcDbLine
 10
-565.915387
 20
-94.915181
 30
0.0
 11
-564.253686
 21
-96.576882
 31
0.0
  0
LINE
  5
2B0
100
AcDbEntity
  8
0
370
    -3
390
0
  6
Continuous
100
AcDbLine
 10
-568.955946
 20
-91.874622
 30
0.0
 11
-570.759068
 21
-90.0715
 31
0.0
  0
LINE
  5
2B1
100
AcDbEntity
  8
0
370
    -3
390
0
  6
Continuous
100
AcDbLine
 10
-570.051962
 20
-89.647236
 30
0.0
 11
-570.617647
 21
-90.212921
 31
0.0
  0
ARC
  5
2B2
100
AcDbEntity
  8
0
370
    -3
390
0
  6
Continuous
100
AcDbCircle
 10
-570.9712
 20
-90.283632
 30
0.0
 40
0.3
100
AcDbArc
 50
45.0
 51
135.0
  0
LINE
  5
2B3
100
AcDbEntity
  8
0
370
    -3
390
0
  6
Continuous
100
AcDbLine
 10
-700.371741
 20
-93.394902
 30
0.0
 11
-703.695143
 21
-96.718304
 31
0.0
  0
LINE
  5
2B4
100
AcDbEntity
  8
0
370
    -3
390
0
  6
Continuous
100
AcDbLine
 10
-700.937427
 20
-92.829216
 30
0.0
 11
-704.119407
 21
-96.011197
 31
0.0
  0
LINE
  5
2B5
100
AcDbEntity
  8
0
370
    -3
390
0
  6
Continuous
100
AcDbLine
 10
-703.695143
 20
-97.142568
 30
0.0
 11
-702.963432
 21
-97.874279
 31
0.0
  0
LINE
  5
2B6
100
AcDbEntity
  8
0
370
    -3
390
0
  6
Continuous
100
AcDbLine
 10
-701.892021
 20
-94.915181
 30
0.0
 11
-703.695143
 21
-96.718304
 31
0.0
  0
LINE
  5
2B7
100
AcDbEntity
  8
0
370
    -3
390
0
  6
Continuous
100
AcDbLine
 10
-704.119407
 20
-96.011197
 30
0.0
 11
-703.553722
 21
-96.576882
 31
0.0
  0
ARC
  5
2B8
100
AcDbEntity
  8
0
370
    -3
390
0
  6
Continuous
100
AcDbCircle
 10
-703.483011
 20
-96.930436
 30
0.0
 40
0.3
100
AcDbArc
 50
135.0
 51
225.0
  0
LINE
  5
2B9
100
AcDbEntity
  8
0
370
    -3
390
0
  6
Continuous
100
AcDbLine
 10
-700.371741
 20
-93.394902
 30
0.0
 11
-697.048339
 21
-90.0715
 31
0.0
  0
LINE
  5
2BA
100
AcDbEntity
  8
0
370
    -3
390
0
  6
Continuous
100
AcDbLine
 10
-700.937427
 20
-92.829216
 30
0.0
 11
-697.755446
 21
-89.647236
 31
0.0
  0
LINE
  5
2BB
100
AcDbEntity
  8
0
370
    -3
390
0
  6
Continuous
100
AcDbLine
 10
-696.624075
 20
-90.0715
 30
0.0
 11
-695.892364
 21
-90.803211
 31
0.0
  0
LINE
  5
2BC
100
AcDbEntity
  8
0
370
    -3
390
0
  6
Continuous
100
AcDbLine
 10
-701.892021
 20
-94.915181
 30
0.0
 11
-703.553722
 21
-96.576882
 31
0.0
  0
LINE
  5
2BD
100
AcDbEntity
  8
0
370
    -3
390
0
  6
Continuous
100
AcDbLine
 10
-698.851462
 20
-91.874622
 30
0.0
 11
-697.048339
 21
-90.0715
 31
0.0
  0
LINE
  5
2BE
100
AcDbEntity
  8
0
370
    -3
390
0
  6
Continuous
100
AcDbLine
 10
-697.755446
 20
-89.647236
 30
0.0
 11
-697.189761
 21
-90.212921
 31
0.0
  0
ARC
  5
2BF
100
AcDbEntity
  8
0
370
    -3
390
0
  6
Continuous
100
AcDbCircle
 10
-696.836207
 20
-90.283632
 30
0.0
 40
0.3
100
AcDbArc
 50
45.0
 51
135.0
  0
LINE
  5
2C0
100
AcDbEntity
  8
0
370
    -3
390
0
  6
Continuous
100
AcDbLine
 10
-700.371741
 20
-226.330977
 30
0.0
 11
-703.695143
 21
-223.007575
 31
0.0
  0
LINE
  5
2C1
100
AcDbEntity
  8
0
370
    -3
390
0
  6
Continuous
100
AcDbLine
 10
-700.937427
 20
-226.896662
 30
0.0
 11
-704.119407
 21
-223.714682
 31
0.0
  0
LINE
  5
2C2
100
AcDbEntity
  8
0
370
    -3
390
0
  6
Continuous
100
AcDbLine
 10
-703.695143
 20
-222.583311
 30
0.0
 11
-702.963432
 21
-221.851599
 31
0.0
  0
LINE
  5
2C3
100
AcDbEntity
  8
0
370
    -3
390
0
  6
Continuous
100
AcDbLine
 10
-701.892021
 20
-224.810697
 30
0.0
 11
-703.695143
 21
-223.007575
 31
0.0
  0
LINE
  5
2C4
100
AcDbEntity
  8
0
370
    -3
390
0
  6
Continuous
100
AcDbLine
 10
-704.119407
 20
-223.714682
 30
0.0
 11
-703.553722
 21
-223.148996
 31
0.0
  0
ARC
  5
2C5
100
AcDbEntity
  8
0
370
    -3
390
0
  6
Continuous
100
AcDbCircle
 10
-703.483011
 20
-222.795443
 30
0.0
 40
0.3
100
AcDbArc
 50
135.0
 51
225.0
  0
LINE
  5
2C6
100
AcDbEntity
  8
0
370
    -3
390
0
  6
Continuous
100
AcDbLine
 10
-700.371741
 20
-226.330977
 30
0.0
 11
-697.048339
 21
-229.654379
 31
0.0
  0
LINE
  5
2C7
100
AcDbEntity
  8
0
370
    -3
390
0
  6
Continuous
100
AcDbLine
 10
-700.937427
 20
-226.896662
 30
0.0
 11
-697.755446
 21
-230.078643
 31
0.0
  0
LINE
  5
2C8
100
AcDbEntity
  8
0
370
    -3
390
0
  6
Continuous
100
AcDbLine
 10
-696.624075
 20
-229.654379
 30
0.0
 11
-695.892364
 21
-228.922667
 31
0.0
  0
LINE
  5
2C9
100
AcDbEntity
  8
0
370
    -3
390
0
  6
Continuous
100
AcDbLine
 10
-701.892021
 20
-224.810697
 30
0.0
 11
-703.553722
 21
-223.148996
 31
0.0
  0
LINE
  5
2CA
100
AcDbEntity
  8
0
370
    -3
390
0
  6
Continuous
100
AcDbLine
 10
-698.851462
 20
-227.851256
 30
0.0
 11
-697.048339
 21
-229.654379
 31
0.0
  0
LINE
  5
2CB
100
AcDbEntity
  8
0
370
    -3
390
0
  6
Continuous
100
AcDbLine
 10
-697.755446
 20
-230.078643
 30
0.0
 11
-697.189761
 21
-229.512957
 31
0.0
  0
ARC
  5
2CC
100
AcDbEntity
  8
0
370
    -3
390
0
  6
Continuous
100
AcDbCircle
 10
-696.836207
 20
-229.442246
 30
0.0
 40
0.3
100
AcDbArc
 50
225.0
 51
315.0
  0
LINE
  5
2CD
100
AcDbEntity
  8
0
370
    -3
390
0
  6
Continuous
100
AcDbLine
 10
-567.435666
 20
-226.330977
 30
0.0
 11
-564.112265
 21
-223.007575
 31
0.0
  0
LINE
  5
2CE
100
AcDbEntity
  8
0
370
    -3
390
0
  6
Continuous
100
AcDbLine
 10
-566.869981
 20
-226.896662
 30
0.0
 11
-563.688
 21
-223.714682
 31
0.0
  0
LINE
  5
2CF
100
AcDbEntity
  8
0
370
    -3
390
0
  6
Continuous
100
AcDbLine
 10
-564.112265
 20
-222.583311
 30
0.0
 11
-564.843976
 21
-221.851599
 31
0.0
  0
LINE
  5
2D0
100
AcDbEntity
  8
0
370
    -3
390
0
  6
Continuous
100
AcDbLine
 10
-565.915387
 20
-224.810697
 30
0.0
 11
-564.112265
 21
-223.007575
 31
0.0
  0
LINE
  5
2D1
100
AcDbEntity
  8
0
370
    -3
390
0
  6
Continuous
100
AcDbLine
 10
-563.688
 20
-223.714682
 30
0.0
 11
-564.253686
 21
-223.148996
 31
0.0
  0
ARC
  5
2D2
100
AcDbEntity
  8
0
370
    -3
390
0
  6
Continuous
100
AcDbCircle
 10
-564.324397
 20
-222.795443
 30
0.0
 40
0.3
100
AcDbArc
 50
315.0
 51
45.0
  0
LINE
  5
2D3
100
AcDbEntity
  8
0
370
    -3
390
0
  6
Continuous
100
AcDbLine
 10
-567.435666
 20
-226.330977
 30
0.0
 11
-570.759068
 21
-229.654379
 31
0.0
  0
LINE
  5
2D4
100
AcDbEntity
  8
0
370
    -3
390
0
  6
Continuous
100
AcDbLine
 10
-566.869981
 20
-226.896662
 30
0.0
 11
-570.051962
 21
-230.078643
 31
0.0
  0
LINE
  5
2D5
100
AcDbEntity
  8
0
370
    -3
390
0
  6
Continuous
100
AcDbLine
 10
-571.183332
 20
-229.654379
 30
0.0
 11
-571.915044
 21
-228.922667
 31
0.0
  0
LINE
  5
2D6
100
AcDbEntity
  8
0
370
    -3
390
0
  6
Continuous
100
AcDbLine
 10
-565.915387
 20
-224.810697
 30
0.0
 11
-564.253686
 21
-223.148996
 31
0.0
  0
LINE
  5
2D7
100
AcDbEntity
  8
0
370
    -3
390
0
  6
Continuous
100
AcDbLine
 10
-568.955946
 20
-227.851256
 30
0.0
 11
-570.759068
 21
-229.654379
 31
0.0
  0
LINE
  5
2D8
100
AcDbEntity
  8
0
370
    -3
390
0
  6
Continuous
100
AcDbLine
 10
-570.051962
 20
-230.078643
 30
0.0
 11
-570.617647
 21
-229.512957
 31
0.0
  0
ARC
  5
2D9
100
AcDbEntity
  8
0
370
    -3
390
0
  6
Continuous
100
AcDbCircle
 10
-570.9712
 20
-229.442246
 30
0.0
 40
0.3
100
AcDbArc
 50
225.0
 51
315.0
  0
ARC
  5
2DA
100
AcDbEntity
  8
0
370
    -3
390
0
  6
Continuous
100
AcDbCircle
 10
-670.456674
 20
-108.551338
 30
0.0
 40
2.0
100
AcDbArc
 50
30.0
 51
125.465024
  0
ARC
  5
2DB
100
AcDbEntity
  8
0
370
    -3
390
0
  6
Continuous
100
AcDbCircle
 10
-670.456674
 20
-211.17454
 30
0.0
 40
2.0
100
AcDbArc
 50
234.534976
 51
330.0
  0
ARC
  5
2DC
100
AcDbEntity
  8
0
370
    -3
390
0
  6
Continuous
100
AcDbCircle
 10
-669.954354
 20
-210.304496
 30
0.0
 40
2.0
100
AcDbArc
 50
330.0
 51
54.446556
  0
ARC
  5
2DD
100
AcDbEntity
  8
0
370
    -3
390
0
  6
Continuous
100
AcDbCircle
 10
-665.429497
 20
-202.467215
 30
0.0
 40
2.0
100
AcDbArc
 50
233.49975
 51
330.0
  0
ARC
  5
2DE
100
AcDbEntity
  8
0
370
    -3
390
0
  6
Continuous
100
AcDbCircle
 10
-663.667365
 20
-199.415113
 30
0.0
 40
2.0
100
AcDbArc
 50
330.0
 51
53.037937
  0
ARC
  5
2DF
100
AcDbEntity
  8
0
370
    -3
390
0
  6
Continuous
100
AcDbCircle
 10
-659.126401
 20
-191.549932
 30
0.0
 40
2.0
100
AcDbArc
 50
231.480376
 51
330.0
  0
ARC
  5
2E0
100
AcDbEntity
  8
0
370
    -3
390
0
  6
Continuous
100
AcDbCircle
 10
-657.354993
 20
-188.481763
 30
0.0
 40
2.0
100
AcDbArc
 50
330.0
 51
50.667582
  0
ARC
  5
2E1
100
AcDbEntity
  8
0
370
    -3
390
0
  6
Continuous
100
AcDbCircle
 10
-652.774651
 20
-180.548378
 30
0.0
 40
2.0
100
AcDbArc
 50
227.626375
 51
330.0
  0
ARC
  5
2E2
100
AcDbEntity
  8
0
370
    -3
390
0
  6
Continuous
100
AcDbCircle
 10
-650.97683
 20
-177.434461
 30
0.0
 40
2.0
100
AcDbArc
 50
330.0
 51
45.824196
  0
ARC
  5
2E3
100
AcDbEntity
  8
0
370
    -3
390
0
  6
Continuous
100
AcDbCircle
 10
-646.245659
 20
-169.239833
 30
0.0
 40
2.0
100
AcDbArc
 50
217.226028
 51
330.0
  0
ARC
  5
2E4
100
AcDbEntity
  8
0
370
    -3
390
0
  6
Continuous
100
AcDbCircle
 10
-644.296009
 20
-165.862939
 30
0.0
 40
2.0
100
AcDbArc
 50
330.0
 51
30.0
  0
ARC
  5
2E5
100
AcDbEntity
  8
0
370
    -3
390
0
  6
Continuous
100
AcDbCircle
 10
-633.903704
 20
-171.862939
 30
0.0
 40
2.0
100
AcDbArc
 50
90.0
 51
150.0
  0
ARC
  5
2E6
100
AcDbEntity
  8
0
370
    -3
390
0
  6
Continuous
100
AcDbCircle
 10
-635.853354
 20
-175.239833
 30
0.0
 40
2.0
100
AcDbArc
 50
150.0
 51
262.773972
  0
ARC
  5
2E7
100
AcDbEntity
  8
0
370
    -3
390
0
  6
Continuous
100
AcDbCircle
 10
-640.584525
 20
-183.434461
 30
0.0
 40
2.0
100
AcDbArc
 50
74.175804
 51
150.0
  0
ARC
  5
2E8
100
AcDbEntity
  8
0
370
    -3
390
0
  6
Continuous
100
AcDbCircle
 10
-642.382346
 20
-186.548378
 30
0.0
 40
2.0
100
AcDbArc
 50
150.0
 51
252.373625
  0
ARC
  5
2E9
100
AcDbEntity
  8
0
370
    -3
390
0
  6
Continuous
100
AcDbCircle
 10
-646.962688
 20
-194.481763
 30
0.0
 40
2.0
100
AcDbArc
 50
69.332418
 51
150.0
  0
ARC
  5
2EA
100
AcDbEntity
  8
0
370
    -3
390
0
  6
Continuous
100
AcDbCircle
 10
-648.734096
 20
-197.549932
 30
0.0
 40
2.0
100
AcDbArc
 50
150.0
 51
248.519624
  0
ARC
  5
2EB
100
AcDbEntity
  8
0
370
    -3
390
0
  6
Continuous
100
AcDbCircle
 10
-653.27506
 20
-205.415113
 30
0.0
 40
2.0
100
AcDbArc
 50
66.962063
 51
150.0
  0
ARC
  5
2EC
100
AcDbEntity
  8
0
370
    -3
390
0
  6
Continuous
100
AcDbCircle
 10
-655.037193
 20
-208.467215
 30
0.0
 40
2.0
100
AcDbArc
 50
150.0
 51
246.50025
  0
ARC
  5
2ED
100
AcDbEntity
  8
0
370
    -3
390
0
  6
Continuous
100
AcDbCircle
 10
-659.562049
 20
-216.304496
 30
0.0
 40
2.0
100
AcDbArc
 50
65.553444
 51
150.0
  0
ARC
  5
2EE
100
AcDbEntity
  8
0
370
    -3
390
0
  6
Continuous
100
AcDbCircle
 10
-660.064369
 20
-217.17454
 30
0.0
 40
2.0
100
AcDbArc
 50
150.0
 51
245.465024
  0
LINE
  5
2EF
100
AcDbEntity
  8
0
370
    -3
390
0
  6
Continuous
100
AcDbLine
 10
-668.222303
 20
-211.304496
 30
0.0
 11
-668.724623
 21
-212.17454
 31
0.0
  0
LINE
  5
2F0
100
AcDbEntity
  8
0
370
    -3
390
0
  6
Continuous
100
AcDbLine
 10
-661.935315
 20
-200.415113
 30
0.0
 11
-663.697447
 21
-203.467215
 31
0.0
  0
LINE
  5
2F1
100
AcDbEntity
  8
0
370
    -3
390
0
  6
Continuous
100
AcDbLine
 10
-655.622942
 20
-189.481763
 30
0.0
 11
-657.39435
 21
-192.549932
 31
0.0
  0
LINE
  5
2F2
100
AcDbEntity
  8
0
370
    -3
390
0
  6
Continuous
100
AcDbLine
 10
-649.244779
 20
-178.434461
 30
0.0
 11
-651.0426
 21
-181.548378
 31
0.0
  0
LINE
  5
2F3
100
AcDbEntity
  8
0
370
    -3
390
0
  6
Continuous
100
AcDbLine
 10
-642.316576
 20
-182.434461
 30
0.0
 11
-644.114397
 21
-185.548378
 31
0.0
  0
LINE
  5
2F4
100
AcDbEntity
  8
0
370
    -3
390
0
  6
Continuous
100
AcDbLine
 10
-648.694739
 20
-193.481763
 30
0.0
 11
-650.466147
 21
-196.549932
 31
0.0
  0
LINE
  5
2F5
100
AcDbEntity
  8
0
370
    -3
390
0
  6
Continuous
100
AcDbLine
 10
-655.007111
 20
-204.415113
 30
0.0
 11
-656.769243
 21
-207.467215
 31
0.0
  0
LINE
  5
2F6
100
AcDbEntity
  8
0
370
    -3
390
0
  6
Continuous
100
AcDbLine
 10
-661.294099
 20
-215.304496
 30
0.0
 11
-661.79642
 21
-216.17454
 31
0.0
  0
LINE
  5
2F7
100
AcDbEntity
  8
0
370
    -3
390
0
  6
Continuous
100
AcDbLine
 10
-642.563958
 20
-166.862939
 30
0.0
 11
-644.513608
 21
-170.239833
 31
0.0
  0
LINE
  5
2F8
100
AcDbEntity
  8
0
370
    -3
390
0
  6
Continuous
100
AcDbLine
 10
-635.635755
 20
-170.862939
 30
0.0
 11
-637.585405
 21
-174.239833
 31
0.0
  0
ARC
  5
2F9
100
AcDbEntity
  8
0
370
    -3
390
0
  6
Continuous
100
AcDbCircle
 10
-652.774651
 20
-139.177501
 30
0.0
 40
2.0
100
AcDbArc
 50
30.0
 51
132.373625
  0
ARC
  5
2FA
100
AcDbEntity
  8
0
370
    -3
390
0
  6
Continuous
100
AcDbCircle
 10
-650.97683
 20
-142.291418
 30
0.0
 40
2.0
100
AcDbArc
 50
314.175804
 51
30.0
  0
LINE
  5
2FB
100
AcDbEntity
  8
0
370
    -3
390
0
  6
Continuous
100
AcDbLine
 10
-649.244779
 20
-141.291418
 30
0.0
 11
-651.0426
 21
-138.177501
 31
0.0
  0
ARC
  5
2FC
100
AcDbEntity
  8
0
370
    -3
390
0
  6
Continuous
100
AcDbCircle
 10
-653.27506
 20
-114.310765
 30
0.0
 40
2.0
100
AcDbArc
 50
210.0
 51
293.037937
  0
ARC
  5
2FD
100
AcDbEntity
  8
0
370
    -3
390
0
  6
Continuous
100
AcDbCircle
 10
-624.458854
 20
-133.503979
 30
0.0
 40
2.0
100
AcDbArc
 50
330.0
 51
70.286561
  0
ARC
  5
2FE
100
AcDbEntity
  8
0
370
    -3
390
0
  6
Continuous
100
AcDbCircle
 10
-626.241646
 20
-136.591866
 30
0.0
 40
2.0
100
AcDbArc
 50
251.775744
 51
330.0
  0
ARC
  5
2FF
100
AcDbEntity
  8
0
370
    -3
390
0
  6
Continuous
100
AcDbCircle
 10
-640.584525
 20
-136.291418
 30
0.0
 40
2.0
100
AcDbArc
 50
210.0
 51
285.824196
  0
ARC
  5
300
100
AcDbEntity
  8
0
370
    -3
390
0
  6
Continuous
100
AcDbCircle
 10
-642.382346
 20
-133.177501
 30
0.0
 40
2.0
100
AcDbArc
 50
107.626375
 51
210.0
  0
ARC
  5
301
100
AcDbEntity
  8
0
370
    -3
390
0
  6
Continuous
100
AcDbCircle
 10
-648.734096
 20
-122.175946
 30
0.0
 40
2.0
100
AcDbArc
 50
111.480376
 51
210.0
  0
ARC
  5
302
100
AcDbEntity
  8
0
370
    -3
390
0
  6
Continuous
100
AcDbCircle
 10
-646.962688
 20
-125.244116
 30
0.0
 40
2.0
100
AcDbArc
 50
210.0
 51
290.667582
  0
ARC
  5
303
100
AcDbEntity
  8
0
370
    -3
390
0
  6
Continuous
100
AcDbCircle
 10
-657.354993
 20
-131.244116
 30
0.0
 40
2.0
100
AcDbArc
 50
309.332418
 51
30.0
  0
ARC
  5
304
100
AcDbEntity
  8
0
370
    -3
390
0
  6
Continuous
100
AcDbCircle
 10
-659.126401
 20
-128.175946
 30
0.0
 40
2.0
100
AcDbArc
 50
30.0
 51
128.519624
  0
ARC
  5
305
100
AcDbEntity
  8
0
370
    -3
390
0
  6
Continuous
100
AcDbCircle
 10
-657.888074
 20
-154.862939
 30
0.0
 40
2.0
100
AcDbArc
 50
270.0
 51
348.224256
  0
ARC
  5
306
100
AcDbEntity
  8
0
370
    -3
390
0
  6
Continuous
100
AcDbCircle
 10
-661.453658
 20
-154.862939
 30
0.0
 40
2.0
100
AcDbArc
 50
169.713439
 51
270.0
  0
ARC
  5
307
100
AcDbEntity
  8
0
370
    -3
390
0
  6
Continuous
100
AcDbCircle
 10
-670.564309
 20
-154.862939
 30
0.0
 40
2.0
100
AcDbArc
 50
270.0
 51
352.233566
  0
ARC
  5
308
100
AcDbEntity
  8
0
370
    -3
390
0
  6
Continuous
100
AcDbCircle
 10
-674.093877
 20
-154.862939
 30
0.0
 40
2.0
100
AcDbArc
 50
172.908354
 51
270.0
  0
ARC
  5
309
100
AcDbEntity
  8
0
370
    -3
390
0
  6
Continuous
100
AcDbCircle
 10
-674.093877
 20
-164.862939
 30
0.0
 40
2.0
100
AcDbArc
 50
90.0
 51
187.091646
  0
ARC
  5
30A
100
AcDbEntity
  8
0
370
    -3
390
0
  6
Continuous
100
AcDbCircle
 10
-670.564309
 20
-164.862939
 30
0.0
 40
2.0
100
AcDbArc
 50
7.766434
 51
90.0
  0
ARC
  5
30B
100
AcDbEntity
  8
0
370
    -3
390
0
  6
Continuous
100
AcDbCircle
 10
-661.453658
 20
-164.862939
 30
0.0
 40
2.0
100
AcDbArc
 50
90.0
 51
190.286561
  0
ARC
  5
30C
100
AcDbEntity
  8
0
370
    -3
390
0
  6
Continuous
100
AcDbCircle
 10
-657.888074
 20
-164.862939
 30
0.0
 40
2.0
100
AcDbArc
 50
11.775744
 51
90.0
  0
ARC
  5
30D
100
AcDbEntity
  8
0
370
    -3
390
0
  6
Continuous
100
AcDbCircle
 10
-618.138744
 20
-197.16865
 30
0.0
 40
2.0
100
AcDbArc
 50
292.908354
 51
30.0
  0
ARC
  5
30E
100
AcDbEntity
  8
0
370
    -3
390
0
  6
Continuous
100
AcDbCircle
 10
-619.903528
 20
-194.111955
 30
0.0
 40
2.0
100
AcDbArc
 50
30.0
 51
112.233566
  0
ARC
  5
30F
100
AcDbEntity
  8
0
370
    -3
390
0
  6
Continuous
100
AcDbCircle
 10
-624.458854
 20
-186.2219
 30
0.0
 40
2.0
100
AcDbArc
 50
289.713439
 51
30.0
  0
ARC
  5
310
100
AcDbEntity
  8
0
370
    -3
390
0
  6
Continuous
100
AcDbCircle
 10
-626.241646
 20
-183.134013
 30
0.0
 40
2.0
100
AcDbArc
 50
30.0
 51
108.224256
  0
ARC
  5
311
100
AcDbEntity
  8
0
370
    -3
390
0
  6
Continuous
100
AcDbCircle
 10
-630.898131
 20
-175.068745
 30
0.0
 40
2.0
100
AcDbArc
 50
281.180937
 51
30.0
  0
ARC
  5
312
100
AcDbEntity
  8
0
370
    -3
390
0
  6
Continuous
100
AcDbCircle
 10
-632.779475
 20
-171.810161
 30
0.0
 40
2.0
100
AcDbArc
 50
30.0
 51
95.375682
  0
ARC
  5
313
100
AcDbEntity
  8
0
370
    -3
390
0
  6
Continuous
100
AcDbCircle
 10
-644.812416
 20
-164.862939
 30
0.0
 40
2.0
100
AcDbArc
 50
24.624318
 51
90.0
  0
ARC
  5
314
100
AcDbEntity
  8
0
370
    -3
390
0
  6
Continuous
100
AcDbCircle
 10
-648.575105
 20
-164.862939
 30
0.0
 40
2.0
100
AcDbArc
 50
90.0
 51
198.819063
  0
ARC
  5
315
100
AcDbEntity
  8
0
370
    -3
390
0
  6
Continuous
100
AcDbCircle
 10
-648.575105
 20
-154.862939
 30
0.0
 40
2.0
100
AcDbArc
 50
161.180937
 51
270.0
  0
ARC
  5
316
100
AcDbEntity
  8
0
370
    -3
390
0
  6
Continuous
100
AcDbCircle
 10
-646.245659
 20
-150.486045
 30
0.0
 40
2.0
100
AcDbArc
 50
30.0
 51
142.773972
  0
ARC
  5
317
100
AcDbEntity
  8
0
370
    -3
390
0
  6
Continuous
100
AcDbCircle
 10
-644.812416
 20
-154.862939
 30
0.0
 40
2.0
100
AcDbArc
 50
270.0
 51
335.375682
  0
ARC
  5
318
100
AcDbEntity
  8
0
370
    -3
390
0
  6
Continuous
100
AcDbCircle
 10
-644.296009
 20
-153.862939
 30
0.0
 40
2.0
100
AcDbArc
 50
330.0
 51
30.0
  0
ARC
  5
319
100
AcDbEntity
  8
0
370
    -3
390
0
  6
Continuous
100
AcDbCircle
 10
-633.903704
 20
-147.862939
 30
0.0
 40
2.0
100
AcDbArc
 50
210.0
 51
270.0
  0
ARC
  5
31A
100
AcDbEntity
  8
0
370
    -3
390
0
  6
Continuous
100
AcDbCircle
 10
-635.853354
 20
-144.486045
 30
0.0
 40
2.0
100
AcDbArc
 50
97.226028
 51
210.0
  0
ARC
  5
31B
100
AcDbEntity
  8
0
370
    -3
390
0
  6
Continuous
100
AcDbCircle
 10
-630.898131
 20
-144.657133
 30
0.0
 40
2.0
100
AcDbArc
 50
330.0
 51
78.819063
  0
ARC
  5
31C
100
AcDbEntity
  8
0
370
    -3
390
0
  6
Continuous
100
AcDbCircle
 10
-632.779475
 20
-147.915717
 30
0.0
 40
2.0
100
AcDbArc
 50
264.624318
 51
330.0
  0
ARC
  5
31D
100
AcDbEntity
  8
0
370
    -3
390
0
  6
Continuous
100
AcDbCircle
 10
-624.119221
 20
-152.915717
 30
0.0
 40
2.0
100
AcDbArc
 50
150.0
 51
215.375682
  0
ARC
  5
31E
100
AcDbEntity
  8
0
370
    -3
390
0
  6
Continuous
100
AcDbCircle
 10
-623.511399
 20
-153.862939
 30
0.0
 40
2.0
100
AcDbArc
 50
210.0
 51
270.0
  0
ARC
  5
31F
100
AcDbEntity
  8
0
370
    -3
390
0
  6
Continuous
100
AcDbCircle
 10
-622.237876
 20
-149.657133
 30
0.0
 40
2.0
100
AcDbArc
 50
41.180937
 51
150.0
  0
ARC
  5
320
100
AcDbEntity
  8
0
370
    -3
390
0
  6
Continuous
100
AcDbCircle
 10
-619.612098
 20
-153.862939
 30
0.0
 40
2.0
100
AcDbArc
 50
270.0
 51
22.773972
  0
ARC
  5
321
100
AcDbEntity
  8
0
370
    -3
390
0
  6
Continuous
100
AcDbCircle
 10
-610.149757
 20
-153.862939
 30
0.0
 40
2.0
100
AcDbArc
 50
194.175804
 51
270.0
  0
ARC
  5
322
100
AcDbEntity
  8
0
370
    -3
390
0
  6
Continuous
100
AcDbCircle
 10
-617.581392
 20
-141.591866
 30
0.0
 40
2.0
100
AcDbArc
 50
150.0
 51
228.224256
  0
ARC
  5
323
100
AcDbEntity
  8
0
370
    -3
390
0
  6
Continuous
100
AcDbCircle
 10
-615.7986
 20
-138.503979
 30
0.0
 40
2.0
100
AcDbArc
 50
49.713439
 51
150.0
  0
ARC
  5
324
100
AcDbEntity
  8
0
370
    -3
390
0
  6
Continuous
100
AcDbCircle
 10
-606.554115
 20
-153.862939
 30
0.0
 40
2.0
100
AcDbArc
 50
270.0
 51
12.373625
  0
ARC
  5
325
100
AcDbEntity
  8
0
370
    -3
390
0
  6
Continuous
100
AcDbCircle
 10
-613.610417
 20
-114.713936
 30
0.0
 40
2.0
100
AcDbArc
 50
245.79734
 51
330.0
  0
ARC
  5
326
100
AcDbEntity
  8
0
370
    -3
390
0
  6
Continuous
100
AcDbCircle
 10
-618.138744
 20
-122.557228
 30
0.0
 40
2.0
100
AcDbArc
 50
330.0
 51
67.091646
  0
ARC
  5
327
100
AcDbEntity
  8
0
370
    -3
390
0
  6
Continuous
100
AcDbCircle
 10
-619.903528
 20
-125.613923
 30
0.0
 40
2.0
100
AcDbArc
 50
247.766434
 51
330.0
  0
ARC
  5
328
100
AcDbEntity
  8
0
370
    -3
390
0
  6
Continuous
100
AcDbCircle
 10
-609.47849
 20
-127.557228
 30
0.0
 40
2.0
100
AcDbArc
 50
52.908354
 51
150.0
  0
ARC
  5
329
100
AcDbEntity
  8
0
370
    -3
390
0
  6
Continuous
100
AcDbCircle
 10
-611.243274
 20
-130.613923
 30
0.0
 40
2.0
100
AcDbArc
 50
150.0
 51
232.233566
  0
ARC
  5
32A
100
AcDbEntity
  8
0
370
    -3
390
0
  6
Continuous
100
AcDbCircle
 10
-597.393431
 20
-153.862939
 30
0.0
 40
2.0
100
AcDbArc
 50
189.332418
 51
270.0
  0
ARC
  5
32B
100
AcDbEntity
  8
0
370
    -3
390
0
  6
Continuous
100
AcDbCircle
 10
-593.850614
 20
-153.862939
 30
0.0
 40
2.0
100
AcDbArc
 50
270.0
 51
8.519624
  0
ARC
  5
32C
100
AcDbEntity
  8
0
370
    -3
390
0
  6
Continuous
100
AcDbCircle
 10
-604.950163
 20
-119.713936
 30
0.0
 40
2.0
100
AcDbArc
 50
150.0
 51
234.20266
  0
ARC
  5
32D
100
AcDbEntity
  8
0
370
    -3
390
0
  6
Continuous
100
AcDbCircle
 10
-584.768686
 20
-153.862939
 30
0.0
 40
2.0
100
AcDbArc
 50
186.962063
 51
270.0
  0
ARC
  5
32E
100
AcDbEntity
  8
0
370
    -3
390
0
  6
Continuous
100
AcDbCircle
 10
-581.244422
 20
-153.862939
 30
0.0
 40
2.0
100
AcDbArc
 50
270.0
 51
6.50025
  0
ARC
  5
32F
100
AcDbEntity
  8
0
370
    -3
390
0
  6
Continuous
100
AcDbCircle
 10
-603.191765
 20
-116.668301
 30
0.0
 40
2.0
100
AcDbArc
 50
54.586688
 51
150.0
  0
ARC
  5
330
100
AcDbEntity
  8
0
370
    -3
390
0
  6
Continuous
100
AcDbCircle
 10
-611.852019
 20
-111.668301
 30
0.0
 40
2.0
100
AcDbArc
 50
330.0
 51
65.413312
  0
ARC
  5
331
100
AcDbEntity
  8
0
370
    -3
390
0
  6
Continuous
100
AcDbCircle
 10
-655.037193
 20
-111.258663
 30
0.0
 40
2.0
100
AcDbArc
 50
113.49975
 51
210.0
  0
ARC
  5
332
100
AcDbEntity
  8
0
370
    -3
390
0
  6
Continuous
100
AcDbCircle
 10
-665.429497
 20
-117.258663
 30
0.0
 40
2.0
100
AcDbArc
 50
30.0
 51
126.50025
  0
ARC
  5
333
100
AcDbEntity
  8
0
370
    -3
390
0
  6
Continuous
100
AcDbCircle
 10
-663.667365
 20
-120.310765
 30
0.0
 40
2.0
100
AcDbArc
 50
306.962063
 51
30.0
  0
ARC
  5
334
100
AcDbEntity
  8
0
370
    -3
390
0
  6
Continuous
100
AcDbCircle
 10
-683.150531
 20
-154.862939
 30
0.0
 40
2.0
100
AcDbArc
 50
270.0
 51
354.20266
  0
ARC
  5
335
100
AcDbEntity
  8
0
370
    -3
390
0
  6
Continuous
100
AcDbCircle
 10
-686.667328
 20
-154.862939
 30
0.0
 40
2.0
100
AcDbArc
 50
174.586688
 51
270.0
  0
ARC
  5
336
100
AcDbEntity
  8
0
370
    -3
390
0
  6
Continuous
100
AcDbCircle
 10
-686.667328
 20
-164.862939
 30
0.0
 40
2.0
100
AcDbArc
 50
90.0
 51
185.413312
  0
ARC
  5
337
100
AcDbEntity
  8
0
370
    -3
390
0
  6
Continuous
100
AcDbCircle
 10
-683.150531
 20
-164.862939
 30
0.0
 40
2.0
100
AcDbArc
 50
5.79734
 51
90.0
  0
ARC
  5
338
100
AcDbEntity
  8
0
370
    -3
390
0
  6
Continuous
100
AcDbCircle
 10
-613.610417
 20
-205.011943
 30
0.0
 40
2.0
100
AcDbArc
 50
30.0
 51
114.20266
  0
ARC
  5
339
100
AcDbEntity
  8
0
370
    -3
390
0
  6
Continuous
100
AcDbCircle
 10
-611.852019
 20
-208.057578
 30
0.0
 40
2.0
100
AcDbArc
 50
294.586688
 51
30.0
  0
ARC
  5
33A
100
AcDbEntity
  8
0
370
    -3
390
0
  6
Continuous
100
AcDbCircle
 10
-633.903704
 20
-159.862939
 30
0.0
 40
10.0
100
AcDbArc
 50
84.624318
 51
90.0
  0
ARC
  5
33B
100
AcDbEntity
  8
0
370
    -3
390
0
  6
Continuous
100
AcDbCircle
 10
-633.903704
 20
-159.862939
 30
0.0
 40
17.5
100
AcDbArc
 50
78.819063
 51
97.226028
  0
ARC
  5
33C
100
AcDbEntity
  8
0
370
    -3
390
0
  6
Continuous
100
AcDbCircle
 10
-633.903704
 20
-159.862939
 30
0.0
 40
22.5
100
AcDbArc
 50
71.775744
 51
105.824196
  0
ARC
  5
33D
100
AcDbEntity
  8
0
370
    -3
390
0
  6
Continuous
100
AcDbCircle
 10
-633.903704
 20
-159.862939
 30
0.0
 40
30.0
100
AcDbArc
 50
70.286561
 51
107.626375
  0
ARC
  5
33E
100
AcDbEntity
  8
0
370
    -3
390
0
  6
Continuous
100
AcDbCircle
 10
-633.903704
 20
-159.862939
 30
0.0
 40
35.0
100
AcDbArc
 50
67.766434
 51
110.667582
  0
ARC
  5
33F
100
AcDbEntity
  8
0
370
    -3
390
0
  6
Continuous
100
AcDbCircle
 10
-633.903704
 20
-159.862939
 30
0.0
 40
42.5
100
AcDbArc
 50
67.091646
 51
111.480376
  0
ARC
  5
340
100
AcDbEntity
  8
0
370
    -3
390
0
  6
Continuous
100
AcDbCircle
 10
-633.903704
 20
-159.862939
 30
0.0
 40
47.5
100
AcDbArc
 50
65.79734
 51
113.037937
  0
ARC
  5
341
100
AcDbEntity
  8
0
370
    -3
390
0
  6
Continuous
100
AcDbCircle
 10
-633.903704
 20
-159.862939
 30
0.0
 40
55.0
100
AcDbArc
 50
65.413312
 51
113.49975
  0
ARC
  5
342
100
AcDbEntity
  8
0
370
    -3
390
0
  6
Continuous
100
AcDbCircle
 10
-633.903704
 20
-159.862939
 30
0.0
 40
10.0
100
AcDbArc
 50
150.0
 51
155.375682
  0
ARC
  5
343
100
AcDbEntity
  8
0
370
    -3
390
0
  6
Continuous
100
AcDbCircle
 10
-633.903704
 20
-159.862939
 30
0.0
 40
17.5
100
AcDbArc
 50
142.773972
 51
161.180937
  0
ARC
  5
344
100
AcDbEntity
  8
0
370
    -3
390
0
  6
Continuous
100
AcDbCircle
 10
-633.903704
 20
-159.862939
 30
0.0
 40
22.5
100
AcDbArc
 50
134.175804
 51
168.224256
  0
ARC
  5
345
100
AcDbEntity
  8
0
370
    -3
390
0
  6
Continuous
100
AcDbCircle
 10
-633.903704
 20
-159.862939
 30
0.0
 40
30.0
100
AcDbArc
 50
132.373625
 51
169.713439
  0
ARC
  5
346
100
AcDbEntity
  8
0
370
    -3
390
0
  6
Continuous
100
AcDbCircle
 10
-633.903704
 20
-159.862939
 30
0.0
 40
35.0
100
AcDbArc
 50
129.332418
 51
172.233566
  0
ARC
  5
347
100
AcDbEntity
  8
0
370
    -3
390
0
  6
Continuous
100
AcDbCircle
 10
-633.903704
 20
-159.862939
 30
0.0
 40
42.5
100
AcDbArc
 50
128.519624
 51
172.908354
  0
ARC
  5
348
100
AcDbEntity
  8
0
370
    -3
390
0
  6
Continuous
100
AcDbCircle
 10
-633.903704
 20
-159.862939
 30
0.0
 40
47.5
100
AcDbArc
 50
126.962063
 51
174.20266
  0
ARC
  5
349
100
AcDbEntity
  8
0
370
    -3
390
0
  6
Continuous
100
AcDbCircle
 10
-633.903704
 20
-159.862939
 30
0.0
 40
55.0
100
AcDbArc
 50
126.50025
 51
174.586688
  0
ARC
  5
34A
100
AcDbEntity
  8
0
370
    -3
390
0
  6
Continuous
100
AcDbCircle
 10
-633.903704
 20
-159.862939
 30
0.0
 40
55.0
100
AcDbArc
 50
185.413312
 51
233.49975
  0
ARC
  5
34B
100
AcDbEntity
  8
0
370
    -3
390
0
  6
Continuous
100
AcDbCircle
 10
-633.903704
 20
-159.862939
 30
0.0
 40
47.5
100
AcDbArc
 50
185.79734
 51
233.037937
  0
ARC
  5
34C
100
AcDbEntity
  8
0
370
    -3
390
0
  6
Continuous
100
AcDbCircle
 10
-633.903704
 20
-159.862939
 30
0.0
 40
42.5
100
AcDbArc
 50
187.091646
 51
231.480376
  0
ARC
  5
34D
100
AcDbEntity
  8
0
370
    -3
390
0
  6
Continuous
100
AcDbCircle
 10
-633.903704
 20
-159.862939
 30
0.0
 40
35.0
100
AcDbArc
 50
187.766434
 51
230.667582
  0
ARC
  5
34E
100
AcDbEntity
  8
0
370
    -3
390
0
  6
Continuous
100
AcDbCircle
 10
-633.903704
 20
-159.862939
 30
0.0
 40
30.0
100
AcDbArc
 50
190.286561
 51
227.626375
  0
ARC
  5
34F
100
AcDbEntity
  8
0
370
    -3
390
0
  6
Continuous
100
AcDbCircle
 10
-633.903704
 20
-159.862939
 30
0.0
 40
22.5
100
AcDbArc
 50
191.775744
 51
225.824196
  0
ARC
  5
350
100
AcDbEntity
  8
0
370
    -3
390
0
  6
Continuous
100
AcDbCircle
 10
-633.903704
 20
-159.862939
 30
0.0
 40
17.5
100
AcDbArc
 50
198.819063
 51
217.226028
  0
ARC
  5
351
100
AcDbEntity
  8
0
370
    -3
390
0
  6
Continuous
100
AcDbCircle
 10
-633.903704
 20
-159.862939
 30
0.0
 40
10.0
100
AcDbArc
 50
270.0
 51
275.375682
  0
ARC
  5
352
100
AcDbEntity
  8
0
370
    -3
390
0
  6
Continuous
100
AcDbCircle
 10
-633.903704
 20
-159.862939
 30
0.0
 40
17.5
100
AcDbArc
 50
262.773972
 51
281.180937
  0
ARC
  5
353
100
AcDbEntity
  8
0
370
    -3
390
0
  6
Continuous
100
AcDbCircle
 10
-633.903704
 20
-159.862939
 30
0.0
 40
22.5
100
AcDbArc
 50
254.175804
 51
288.224256
  0
ARC
  5
354
100
AcDbEntity
  8
0
370
    -3
390
0
  6
Continuous
100
AcDbCircle
 10
-633.903704
 20
-159.862939
 30
0.0
 40
30.0
100
AcDbArc
 50
252.373625
 51
289.713439
  0
ARC
  5
355
100
AcDbEntity
  8
0
370
    -3
390
0
  6
Continuous
100
AcDbCircle
 10
-633.903704
 20
-159.862939
 30
0.0
 40
35.0
100
AcDbArc
 50
249.332418
 51
292.233566
  0
ARC
  5
356
100
AcDbEntity
  8
0
370
    -3
390
0
  6
Continuous
100
AcDbCircle
 10
-633.903704
 20
-159.862939
 30
0.0
 40
42.5
100
AcDbArc
 50
248.519624
 51
292.908354
  0
ARC
  5
357
100
AcDbEntity
  8
0
370
    -3
390
0
  6
Continuous
100
AcDbCircle
 10
-633.903704
 20
-159.862939
 30
0.0
 40
47.5
100
AcDbArc
 50
246.962063
 51
294.20266
  0
ARC
  5
358
100
AcDbEntity
  8
0
370
    -3
390
0
  6
Continuous
100
AcDbCircle
 10
-633.903704
 20
-159.862939
 30
0.0
 40
55.0
100
AcDbArc
 50
246.50025
 51
294.586688
  0
ARC
  5
359
100
AcDbEntity
  8
0
370
    -3
390
0
  6
Continuous
100
AcDbCircle
 10
-624.119221
 20
-166.810161
 30
0.0
 40
2.0
100
AcDbArc
 50
144.624318
 51
210.0
  0
ARC
  5
35A
100
AcDbEntity
  8
0
370
    -3
390
0
  6
Continuous
100
AcDbCircle
 10
-623.511399
 20
-165.862939
 30
0.0
 40
2.0
100
AcDbArc
 50
90.0
 51
150.0
  0
ARC
  5
35B
100
AcDbEntity
  8
0
370
    -3
390
0
  6
Continuous
100
AcDbCircle
 10
-633.903704
 20
-159.862939
 30
0.0
 40
10.0
100
AcDbArc
 50
324.624318
 51
330.0
  0
ARC
  5
35C
100
AcDbEntity
  8
0
370
    -3
390
0
  6
Continuous
100
AcDbCircle
 10
-633.903704
 20
-159.862939
 30
0.0
 40
10.0
100
AcDbArc
 50
204.624318
 51
210.0
  0
ARC
  5
35D
100
AcDbEntity
  8
0
370
    -3
390
0
  6
Continuous
100
AcDbCircle
 10
-619.612098
 20
-165.862939
 30
0.0
 40
2.0
100
AcDbArc
 50
337.226028
 51
90.0
  0
ARC
  5
35E
100
AcDbEntity
  8
0
370
    -3
390
0
  6
Continuous
100
AcDbCircle
 10
-622.237876
 20
-170.068745
 30
0.0
 40
2.0
100
AcDbArc
 50
210.0
 51
318.819063
  0
ARC
  5
35F
100
AcDbEntity
  8
0
370
    -3
390
0
  6
Continuous
100
AcDbCircle
 10
-617.581392
 20
-178.134013
 30
0.0
 40
2.0
100
AcDbArc
 50
131.775744
 51
210.0
  0
ARC
  5
360
100
AcDbEntity
  8
0
370
    -3
390
0
  6
Continuous
100
AcDbCircle
 10
-610.149757
 20
-165.862939
 30
0.0
 40
2.0
100
AcDbArc
 50
90.0
 51
165.824196
  0
ARC
  5
361
100
AcDbEntity
  8
0
370
    -3
390
0
  6
Continuous
100
AcDbCircle
 10
-606.554115
 20
-165.862939
 30
0.0
 40
2.0
100
AcDbArc
 50
347.626375
 51
90.0
  0
ARC
  5
362
100
AcDbEntity
  8
0
370
    -3
390
0
  6
Continuous
100
AcDbCircle
 10
-615.7986
 20
-181.2219
 30
0.0
 40
2.0
100
AcDbArc
 50
210.0
 51
310.286561
  0
ARC
  5
363
100
AcDbEntity
  8
0
370
    -3
390
0
  6
Continuous
100
AcDbCircle
 10
-611.243274
 20
-189.111955
 30
0.0
 40
2.0
100
AcDbArc
 50
127.766434
 51
210.0
  0
ARC
  5
364
100
AcDbEntity
  8
0
370
    -3
390
0
  6
Continuous
100
AcDbCircle
 10
-597.393431
 20
-165.862939
 30
0.0
 40
2.0
100
AcDbArc
 50
90.0
 51
170.667582
  0
ARC
  5
365
100
AcDbEntity
  8
0
370
    -3
390
0
  6
Continuous
100
AcDbCircle
 10
-593.850614
 20
-165.862939
 30
0.0
 40
2.0
100
AcDbArc
 50
351.480376
 51
90.0
  0
ARC
  5
366
100
AcDbEntity
  8
0
370
    -3
390
0
  6
Continuous
100
AcDbCircle
 10
-609.47849
 20
-192.16865
 30
0.0
 40
2.0
100
AcDbArc
 50
210.0
 51
307.091646
  0
ARC
  5
367
100
AcDbEntity
  8
0
370
    -3
390
0
  6
Continuous
100
AcDbCircle
 10
-604.950163
 20
-200.011943
 30
0.0
 40
2.0
100
AcDbArc
 50
125.79734
 51
210.0
  0
ARC
  5
368
100
AcDbEntity
  8
0
370
    -3
390
0
  6
Continuous
100
AcDbCircle
 10
-603.191765
 20
-203.057578
 30
0.0
 40
2.0
100
AcDbArc
 50
210.0
 51
305.413312
  0
ARC
  5
369
100
AcDbEntity
  8
0
370
    -3
390
0
  6
Continuous
100
AcDbCircle
 10
-584.768686
 20
-165.862939
 30
0.0
 40
2.0
100
AcDbArc
 50
90.0
 51
173.037937
  0
ARC
  5
36A
100
AcDbEntity
  8
0
370
    -3
390
0
  6
Continuous
100
AcDbCircle
 10
-581.244422
 20
-165.862939
 30
0.0
 40
2.0
100
AcDbArc
 50
353.49975
 51
90.0
  0
ARC
  5
36B
100
AcDbEntity
  8
0
370
    -3
390
0
  6
Continuous
100
AcDbCircle
 10
-633.903704
 20
-159.862939
 30
0.0
 40
17.5
100
AcDbArc
 50
318.819063
 51
337.226028
  0
ARC
  5
36C
100
AcDbEntity
  8
0
370
    -3
390
0
  6
Continuous
100
AcDbCircle
 10
-633.903704
 20
-159.862939
 30
0.0
 40
22.5
100
AcDbArc
 50
311.775744
 51
345.824196
  0
ARC
  5
36D
100
AcDbEntity
  8
0
370
    -3
390
0
  6
Continuous
100
AcDbCircle
 10
-633.903704
 20
-159.862939
 30
0.0
 40
30.0
100
AcDbArc
 50
310.286561
 51
347.626375
  0
ARC
  5
36E
100
AcDbEntity
  8
0
370
    -3
390
0
  6
Continuous
100
AcDbCircle
 10
-633.903704
 20
-159.862939
 30
0.0
 40
35.0
100
AcDbArc
 50
307.766434
 51
350.667582
  0
ARC
  5
36F
100
AcDbEntity
  8
0
370
    -3
390
0
  6
Continuous
100
AcDbCircle
 10
-633.903704
 20
-159.862939
 30
0.0
 40
42.5
100
AcDbArc
 50
307.091646
 51
351.480376
  0
ARC
  5
370
100
AcDbEntity
  8
0
370
    -3
390
0
  6
Continuous
100
AcDbCircle
 10
-633.903704
 20
-159.862939
 30
0.0
 40
47.5
100
AcDbArc
 50
305.79734
 51
353.037937
  0
ARC
  5
371
100
AcDbEntity
  8
0
370
    -3
390
0
  6
Continuous
100
AcDbCircle
 10
-633.903704
 20
-159.862939
 30
0.0
 40
55.0
100
AcDbArc
 50
305.413312
 51
353.49975
  0
ARC
  5
372
100
AcDbEntity
  8
0
370
    -3
390
0
  6
Continuous
100
AcDbCircle
 10
-633.903704
 20
-159.862939
 30
0.0
 40
10.0
100
AcDbArc
 50
30.0
 51
35.375682
  0
ARC
  5
373
100
AcDbEntity
  8
0
370
    -3
390
0
  6
Continuous
100
AcDbCircle
 10
-633.903704
 20
-159.862939
 30
0.0
 40
17.5
100
AcDbArc
 50
22.773972
 51
41.180937
  0
ARC
  5
374
100
AcDbEntity
  8
0
370
    -3
390
0
  6
Continuous
100
AcDbCircle
 10
-633.903704
 20
-159.862939
 30
0.0
 40
22.5
100
AcDbArc
 50
14.175804
 51
48.224256
  0
ARC
  5
375
100
AcDbEntity
  8
0
370
    -3
390
0
  6
Continuous
100
AcDbCircle
 10
-633.903704
 20
-159.862939
 30
0.0
 40
30.0
100
AcDbArc
 50
12.373625
 51
49.713439
  0
ARC
  5
376
100
AcDbEntity
  8
0
370
    -3
390
0
  6
Continuous
100
AcDbCircle
 10
-633.903704
 20
-159.862939
 30
0.0
 40
35.0
100
AcDbArc
 50
9.332418
 51
52.233566
  0
ARC
  5
377
100
AcDbEntity
  8
0
370
    -3
390
0
  6
Continuous
100
AcDbCircle
 10
-633.903704
 20
-159.862939
 30
0.0
 40
42.5
100
AcDbArc
 50
8.519624
 51
52.908354
  0
ARC
  5
378
100
AcDbEntity
  8
0
370
    -3
390
0
  6
Continuous
100
AcDbCircle
 10
-633.903704
 20
-159.862939
 30
0.0
 40
47.5
100
AcDbArc
 50
6.962063
 51
54.20266
  0
ARC
  5
379
100
AcDbEntity
  8
0
370
    -3
390
0
  6
Continuous
100
AcDbCircle
 10
-633.903704
 20
-159.862939
 30
0.0
 40
55.0
100
AcDbArc
 50
6.50025
 51
54.586688
  0
ARC
  5
37A
100
AcDbEntity
  8
0
370
    -3
390
0
  6
Continuous
100
AcDbCircle
 10
-572.194709
 20
-153.862939
 30
0.0
 40
2.0
100
AcDbArc
 50
185.553444
 51
270.0
  0
ARC
  5
37B
100
AcDbEntity
  8
0
370
    -3
390
0
  6
Continuous
100
AcDbCircle
 10
-598.674548
 20
-108.844251
 30
0.0
 40
2.0
100
AcDbArc
 50
150.0
 51
235.374349
  0
ARC
  5
37C
100
AcDbEntity
  8
0
370
    -3
390
0
  6
Continuous
100
AcDbCircle
 10
-607.334802
 20
-103.844251
 30
0.0
 40
2.0
100
AcDbArc
 50
244.625651
 51
330.0
  0
ARC
  5
37D
100
AcDbEntity
  8
0
370
    -3
390
0
  6
Continuous
100
AcDbCircle
 10
-659.562049
 20
-103.421382
 30
0.0
 40
2.0
100
AcDbArc
 50
210.0
 51
294.446556
  0
ARC
  5
37E
100
AcDbEntity
  8
0
370
    -3
390
0
  6
Continuous
100
AcDbCircle
 10
-669.954354
 20
-109.421382
 30
0.0
 40
2.0
100
AcDbArc
 50
305.553444
 51
30.0
  0
ARC
  5
37F
100
AcDbEntity
  8
0
370
    -3
390
0
  6
Continuous
100
AcDbCircle
 10
-695.701762
 20
-154.862939
 30
0.0
 40
2.0
100
AcDbArc
 50
270.0
 51
355.374349
  0
ARC
  5
380
100
AcDbEntity
  8
0
370
    -3
390
0
  6
Continuous
100
AcDbCircle
 10
-695.701762
 20
-164.862939
 30
0.0
 40
2.0
100
AcDbArc
 50
4.625651
 51
90.0
  0
ARC
  5
381
100
AcDbEntity
  8
0
370
    -3
390
0
  6
Continuous
100
AcDbCircle
 10
-607.334802
 20
-215.881628
 30
0.0
 40
2.0
100
AcDbArc
 50
30.0
 51
115.374349
  0
ARC
  5
382
100
AcDbEntity
  8
0
370
    -3
390
0
  6
Continuous
100
AcDbCircle
 10
-598.674548
 20
-210.881628
 30
0.0
 40
2.0
100
AcDbArc
 50
124.625651
 51
210.0
  0
ARC
  5
383
100
AcDbEntity
  8
0
370
    -3
390
0
  6
Continuous
100
AcDbCircle
 10
-572.194709
 20
-165.862939
 30
0.0
 40
2.0
100
AcDbArc
 50
90.0
 51
174.446556
  0
ARC
  5
384
100
AcDbEntity
  8
0
370
    -3
390
0
  6
Continuous
100
AcDbCircle
 10
-633.903704
 20
-159.862939
 30
0.0
 40
60.0
100
AcDbArc
 50
304.625651
 51
354.446556
  0
ARC
  5
385
100
AcDbEntity
  8
0
370
    -3
390
0
  6
Continuous
100
AcDbCircle
 10
-633.903704
 20
-159.862939
 30
0.0
 40
60.0
100
AcDbArc
 50
245.553444
 51
295.374349
  0
ARC
  5
386
100
AcDbEntity
  8
0
370
    -3
390
0
  6
Continuous
100
AcDbCircle
 10
-633.903704
 20
-159.862939
 30
0.0
 40
60.0
100
AcDbArc
 50
184.625651
 51
234.446556
  0
ARC
  5
387
100
AcDbEntity
  8
0
370
    -3
390
0
  6
Continuous
100
AcDbCircle
 10
-633.903704
 20
-159.862939
 30
0.0
 40
60.0
100
AcDbArc
 50
125.553444
 51
175.374349
  0
ARC
  5
388
100
AcDbEntity
  8
0
370
    -3
390
0
  6
Continuous
100
AcDbCircle
 10
-633.903704
 20
-159.862939
 30
0.0
 40
60.0
100
AcDbArc
 50
64.625651
 51
114.446556
  0
ARC
  5
389
100
AcDbEntity
  8
0
370
    -3
390
0
  6
Continuous
100
AcDbCircle
 10
-633.903704
 20
-159.862939
 30
0.0
 40
60.0
100
AcDbArc
 50
5.553444
 51
55.374349
  0
ARC
  5
38A
100
AcDbEntity
  8
0
370
    -3
390
0
  6
Continuous
100
AcDbCircle
 10
-330.403704
 20
-159.862939
 30
0.0
 40
390.8
100
AcDbArc
 50
177.020093
 51
182.979907
  0
ARC
  5
38B
100
AcDbEntity
  8
0
370
    -3
390
0
  6
Continuous
100
AcDbCircle
 10
-633.903704
 20
-463.362939
 30
0.0
 40
390.8
100
AcDbArc
 50
87.020093
 51
92.979907
  0
ARC
  5
38C
100
AcDbEntity
  8
0
370
    -3
390
0
  6
Continuous
100
AcDbCircle
 10
-937.403704
 20
-159.862939
 30
0.0
 40
390.8
100
AcDbArc
 50
357.020093
 51
2.979907
  0
ARC
  5
38D
100
AcDbEntity
  8
0
370
    -3
390
0
  6
Continuous
100
AcDbCircle
 10
-633.903704
 20
-463.362939
 30
0.0
 40
374.8
100
AcDbArc
 50
87.020093
 51
90.0
  0
LINE
  5
38E
100
AcDbEntity
  8
0
370
    -3
390
0
  6
Continuous
100
AcDbLine
 10
-644.812416
 20
-162.862939
 30
0.0
 11
-648.575105
 21
-162.862939
 31
0.0
  0
LINE
  5
38F
100
AcDbEntity
  8
0
370
    -3
390
0
  6
Continuous
100
AcDbLine
 10
-657.888074
 20
-162.862939
 30
0.0
 11
-661.453658
 21
-162.862939
 31
0.0
  0
LINE
  5
390
100
AcDbEntity
  8
0
370
    -3
390
0
  6
Continuous
100
AcDbLine
 10
-670.564309
 20
-162.862939
 30
0.0
 11
-674.093877
 21
-162.862939
 31
0.0
  0
LINE
  5
391
100
AcDbEntity
  8
0
370
    -3
390
0
  6
Continuous
100
AcDbLine
 10
-683.150531
 20
-162.862939
 30
0.0
 11
-686.667328
 21
-162.862939
 31
0.0
  0
ARC
  5
392
100
AcDbEntity
  8
0
370
    -3
390
0
  6
Continuous
100
AcDbCircle
 10
-696.704978
 20
-164.862939
 30
0.0
 40
2.0
100
AcDbArc
 50
90.0
 51
184.552071
  0
LINE
  5
393
100
AcDbEntity
  8
0
370
    -3
390
0
  6
Continuous
100
AcDbLine
 10
-695.701762
 20
-162.862939
 30
0.0
 11
-696.704978
 21
-162.862939
 31
0.0
  0
ARC
  5
394
100
AcDbEntity
  8
0
370
    -3
390
0
  6
Continuous
100
AcDbCircle
 10
-633.903704
 20
-159.862939
 30
0.0
 40
65.0
100
AcDbArc
 50
184.552071
 51
234.534976
  0
LINE
  5
395
100
AcDbEntity
  8
0
370
    -3
390
0
  6
Continuous
100
AcDbLine
 10
-657.888074
 20
-156.862939
 30
0.0
 11
-661.453658
 21
-156.862939
 31
0.0
  0
LINE
  5
396
100
AcDbEntity
  8
0
370
    -3
390
0
  6
Continuous
100
AcDbLine
 10
-670.564309
 20
-156.862939
 30
0.0
 11
-674.093877
 21
-156.862939
 31
0.0
  0
LINE
  5
397
100
AcDbEntity
  8
0
370
    -3
390
0
  6
Continuous
100
AcDbLine
 10
-683.150531
 20
-156.862939
 30
0.0
 11
-686.667328
 21
-156.862939
 31
0.0
  0
ARC
  5
398
100
AcDbEntity
  8
0
370
    -3
390
0
  6
Continuous
100
AcDbCircle
 10
-696.704978
 20
-154.862939
 30
0.0
 40
2.0
100
AcDbArc
 50
175.447929
 51
270.0
  0
LINE
  5
399
100
AcDbEntity
  8
0
370
    -3
390
0
  6
Continuous
100
AcDbLine
 10
-695.701762
 20
-156.862939
 30
0.0
 11
-696.704978
 21
-156.862939
 31
0.0
  0
LINE
  5
39A
100
AcDbEntity
  8
0
370
    -3
390
0
  6
Continuous
100
AcDbLine
 10
-668.222303
 20
-108.421382
 30
0.0
 11
-668.724623
 21
-107.551338
 31
0.0
  0
LINE
  5
39B
100
AcDbEntity
  8
0
370
    -3
390
0
  6
Continuous
100
AcDbLine
 10
-661.935315
 20
-119.310765
 30
0.0
 11
-663.697447
 21
-116.258663
 31
0.0
  0
LINE
  5
39C
100
AcDbEntity
  8
0
370
    -3
390
0
  6
Continuous
100
AcDbLine
 10
-655.622942
 20
-130.244116
 30
0.0
 11
-657.39435
 21
-127.175946
 31
0.0
  0
LINE
  5
39D
100
AcDbEntity
  8
0
370
    -3
390
0
  6
Continuous
100
AcDbLine
 10
-642.563958
 20
-152.862939
 30
0.0
 11
-644.513608
 21
-149.486045
 31
0.0
  0
LINE
  5
39E
100
AcDbEntity
  8
0
370
    -3
390
0
  6
Continuous
100
AcDbLine
 10
-644.812416
 20
-156.862939
 30
0.0
 11
-648.575105
 21
-156.862939
 31
0.0
  0
ARC
  5
39F
100
AcDbEntity
  8
0
370
    -3
390
0
  6
Continuous
100
AcDbCircle
 10
-633.903704
 20
-159.862939
 30
0.0
 40
65.0
100
AcDbArc
 50
125.465024
 51
175.447929
  0
LINE
  5
3A0
100
AcDbEntity
  8
0
370
    -3
390
0
  6
Continuous
100
AcDbLine
 10
-624.509595
 20
-137.591866
 30
0.0
 11
-622.726803
 21
-134.503979
 31
0.0
  0
LINE
  5
3A1
100
AcDbEntity
  8
0
370
    -3
390
0
  6
Continuous
100
AcDbLine
 10
-648.694739
 20
-126.244116
 30
0.0
 11
-650.466147
 21
-123.175946
 31
0.0
  0
LINE
  5
3A2
100
AcDbEntity
  8
0
370
    -3
390
0
  6
Continuous
100
AcDbLine
 10
-642.316576
 20
-137.291418
 30
0.0
 11
-644.114397
 21
-134.177501
 31
0.0
  0
LINE
  5
3A3
100
AcDbEntity
  8
0
370
    -3
390
0
  6
Continuous
100
AcDbLine
 10
-635.635755
 20
-148.862939
 30
0.0
 11
-637.585405
 21
-145.486045
 31
0.0
  0
LINE
  5
3A4
100
AcDbEntity
  8
0
370
    -3
390
0
  6
Continuous
100
AcDbLine
 10
-631.047424
 20
-148.915717
 30
0.0
 11
-629.16608
 21
-145.657133
 31
0.0
  0
LINE
  5
3A5
100
AcDbEntity
  8
0
370
    -3
390
0
  6
Continuous
100
AcDbLine
 10
-618.171477
 20
-126.613923
 30
0.0
 11
-616.406694
 21
-123.557228
 31
0.0
  0
LINE
  5
3A6
100
AcDbEntity
  8
0
370
    -3
390
0
  6
Continuous
100
AcDbLine
 10
-611.878366
 20
-115.713936
 30
0.0
 11
-610.119968
 21
-112.668301
 31
0.0
  0
LINE
  5
3A7
100
AcDbEntity
  8
0
370
    -3
390
0
  6
Continuous
100
AcDbLine
 10
-655.007111
 20
-115.310765
 30
0.0
 11
-656.769243
 21
-112.258663
 31
0.0
  0
ARC
  5
3A8
100
AcDbEntity
  8
0
370
    -3
390
0
  6
Continuous
100
AcDbCircle
 10
-660.064369
 20
-102.551338
 30
0.0
 40
2.0
100
AcDbArc
 50
114.534976
 51
210.0
  0
LINE
  5
3A9
100
AcDbEntity
  8
0
370
    -3
390
0
  6
Continuous
100
AcDbLine
 10
-661.294099
 20
-104.421382
 30
0.0
 11
-661.79642
 21
-103.551338
 31
0.0
  0
ARC
  5
3AA
100
AcDbEntity
  8
0
370
    -3
390
0
  6
Continuous
100
AcDbCircle
 10
-606.833194
 20
-102.975441
 30
0.0
 40
2.0
100
AcDbArc
 50
330.0
 51
64.552071
  0
LINE
  5
3AB
100
AcDbEntity
  8
0
370
    -3
390
0
  6
Continuous
100
AcDbLine
 10
-605.602751
 20
-104.844251
 30
0.0
 11
-605.101143
 21
-103.975441
 31
0.0
  0
ARC
  5
3AC
100
AcDbEntity
  8
0
370
    -3
390
0
  6
Continuous
100
AcDbCircle
 10
-633.903704
 20
-159.862939
 30
0.0
 40
65.0
100
AcDbArc
 50
64.552071
 51
114.534976
  0
ARC
  5
3AD
100
AcDbEntity
  8
0
370
    -3
390
0
  6
Continuous
100
AcDbCircle
 10
-633.903704
 20
-159.862939
 30
0.0
 40
65.0
100
AcDbArc
 50
304.552071
 51
354.534976
  0
LINE
  5
3AE
100
AcDbEntity
  8
0
370
    -3
390
0
  6
Continuous
100
AcDbLine
 10
-624.509595
 20
-182.134013
 30
0.0
 11
-622.726803
 21
-185.2219
 31
0.0
  0
LINE
  5
3AF
100
AcDbEntity
  8
0
370
    -3
390
0
  6
Continuous
100
AcDbLine
 10
-618.171477
 20
-193.111955
 30
0.0
 11
-616.406694
 21
-196.16865
 31
0.0
  0
LINE
  5
3B0
100
AcDbEntity
  8
0
370
    -3
390
0
  6
Continuous
100
AcDbLine
 10
-611.878366
 20
-204.011943
 30
0.0
 11
-610.119968
 21
-207.057578
 31
0.0
  0
LINE
  5
3B1
100
AcDbEntity
  8
0
370
    -3
390
0
  6
Continuous
100
AcDbLine
 10
-605.602751
 20
-214.881628
 30
0.0
 11
-605.101143
 21
-215.750438
 31
0.0
  0
LINE
  5
3B2
100
AcDbEntity
  8
0
370
    -3
390
0
  6
Continuous
100
AcDbLine
 10
-619.313443
 20
-179.134013
 30
0.0
 11
-617.53065
 21
-182.2219
 31
0.0
  0
LINE
  5
3B3
100
AcDbEntity
  8
0
370
    -3
390
0
  6
Continuous
100
AcDbLine
 10
-612.975325
 20
-190.111955
 30
0.0
 11
-611.210541
 21
-193.16865
 31
0.0
  0
LINE
  5
3B4
100
AcDbEntity
  8
0
370
    -3
390
0
  6
Continuous
100
AcDbLine
 10
-606.682214
 20
-201.011943
 30
0.0
 11
-604.923816
 21
-204.057578
 31
0.0
  0
LINE
  5
3B5
100
AcDbEntity
  8
0
370
    -3
390
0
  6
Continuous
100
AcDbLine
 10
-600.406599
 20
-211.881628
 30
0.0
 11
-599.904991
 21
-212.750438
 31
0.0
  0
LINE
  5
3B6
100
AcDbEntity
  8
0
370
    -3
390
0
  6
Continuous
100
AcDbLine
 10
-619.313443
 20
-140.591866
 30
0.0
 11
-617.53065
 21
-137.503979
 31
0.0
  0
LINE
  5
3B7
100
AcDbEntity
  8
0
370
    -3
390
0
  6
Continuous
100
AcDbLine
 10
-612.975325
 20
-129.613923
 30
0.0
 11
-611.210541
 21
-126.557228
 31
0.0
  0
LINE
  5
3B8
100
AcDbEntity
  8
0
370
    -3
390
0
  6
Continuous
100
AcDbLine
 10
-606.682214
 20
-118.713936
 30
0.0
 11
-604.923816
 21
-115.668301
 31
0.0
  0
LINE
  5
3B9
100
AcDbEntity
  8
0
370
    -3
390
0
  6
Continuous
100
AcDbLine
 10
-600.406599
 20
-107.844251
 30
0.0
 11
-599.904991
 21
-106.975441
 31
0.0
  0
LINE
  5
3BA
100
AcDbEntity
  8
0
370
    -3
390
0
  6
Continuous
100
AcDbLine
 10
-610.149757
 20
-163.862939
 30
0.0
 11
-606.554115
 21
-163.862939
 31
0.0
  0
LINE
  5
3BB
100
AcDbEntity
  8
0
370
    -3
390
0
  6
Continuous
100
AcDbLine
 10
-597.393431
 20
-163.862939
 30
0.0
 11
-593.850614
 21
-163.862939
 31
0.0
  0
LINE
  5
3BC
100
AcDbEntity
  8
0
370
    -3
390
0
  6
Continuous
100
AcDbLine
 10
-584.768686
 20
-163.862939
 30
0.0
 11
-581.244422
 21
-163.862939
 31
0.0
  0
LINE
  5
3BD
100
AcDbEntity
  8
0
370
    -3
390
0
  6
Continuous
100
AcDbLine
 10
-572.194709
 20
-163.862939
 30
0.0
 11
-571.190069
 21
-163.862939
 31
0.0
  0
LINE
  5
3BE
100
AcDbEntity
  8
0
370
    -3
390
0
  6
Continuous
100
AcDbLine
 10
-610.149757
 20
-155.862939
 30
0.0
 11
-606.554115
 21
-155.862939
 31
0.0
  0
LINE
  5
3BF
100
AcDbEntity
  8
0
370
    -3
390
0
  6
Continuous
100
AcDbLine
 10
-597.393431
 20
-155.862939
 30
0.0
 11
-593.850614
 21
-155.862939
 31
0.0
  0
LINE
  5
3C0
100
AcDbEntity
  8
0
370
    -3
390
0
  6
Continuous
100
AcDbLine
 10
-584.768686
 20
-155.862939
 30
0.0
 11
-581.244422
 21
-155.862939
 31
0.0
  0
LINE
  5
3C1
100
AcDbEntity
  8
0
370
    -3
390
0
  6
Continuous
100
AcDbLine
 10
-572.194709
 20
-155.862939
 30
0.0
 11
-571.190069
 21
-155.862939
 31
0.0
  0
ARC
  5
3C2
100
AcDbEntity
  8
0
370
    -3
390
0
  6
Continuous
100
AcDbCircle
 10
-633.903704
 20
-159.862939
 30
0.0
 40
65.0
100
AcDbArc
 50
5.465024
 51
55.447929
  0
ARC
  5
3C3
100
AcDbEntity
  8
0
370
    -3
390
0
  6
Continuous
100
AcDbCircle
 10
-598.17294
 20
-107.975441
 30
0.0
 40
2.0
100
AcDbArc
 50
55.447929
 51
150.0
  0
LINE
  5
3C4
100
AcDbEntity
  8
0
370
    -3
390
0
  6
Continuous
100
AcDbLine
 10
-625.851272
 20
-151.915717
 30
0.0
 11
-623.969927
 21
-148.657133
 31
0.0
  0
ARC
  5
3C5
100
AcDbEntity
  8
0
370
    -3
390
0
  6
Continuous
100
AcDbCircle
 10
-606.833194
 20
-216.750438
 30
0.0
 40
2.0
100
AcDbArc
 50
295.447929
 51
30.0
  0
ARC
  5
3C6
100
AcDbEntity
  8
0
370
    -3
390
0
  6
Continuous
100
AcDbCircle
 10
-571.190069
 20
-153.862939
 30
0.0
 40
2.0
100
AcDbArc
 50
270.0
 51
5.465024
  0
ARC
  5
3C7
100
AcDbEntity
  8
0
370
    -3
390
0
  6
Continuous
100
AcDbCircle
 10
-571.190069
 20
-165.862939
 30
0.0
 40
2.0
100
AcDbArc
 50
354.534976
 51
90.0
  0
ARC
  5
3C8
100
AcDbEntity
  8
0
370
    -3
390
0
  6
Continuous
100
AcDbCircle
 10
-598.17294
 20
-211.750438
 30
0.0
 40
2.0
100
AcDbArc
 50
210.0
 51
304.552071
  0
ARC
  5
3C9
100
AcDbEntity
  8
0
370
    -3
390
0
  6
Continuous
100
AcDbCircle
 10
-633.903704
 20
-159.862939
 30
0.0
 40
65.0
100
AcDbArc
 50
245.465024
 51
295.447929
  0
LINE
  5
3CA
100
AcDbEntity
  8
0
370
    -3
390
0
  6
Continuous
100
AcDbLine
 10
-631.047424
 20
-170.810161
 30
0.0
 11
-629.16608
 21
-174.068745
 31
0.0
  0
LINE
  5
3CB
100
AcDbEntity
  8
0
370
    -3
390
0
  6
Continuous
100
AcDbLine
 10
-623.511399
 20
-155.862939
 30
0.0
 11
-619.612098
 21
-155.862939
 31
0.0
  0
LINE
  5
3CC
100
AcDbEntity
  8
0
370
    -3
390
0
  6
Continuous
100
AcDbLine
 10
-623.511399
 20
-163.862939
 30
0.0
 11
-619.612098
 21
-163.862939
 31
0.0
  0
LINE
  5
3CD
100
AcDbEntity
  8
0
370
    -3
390
0
  6
Continuous
100
AcDbLine
 10
-625.851272
 20
-167.810161
 30
0.0
 11
-623.969927
 21
-171.068745
 31
0.0
  0
CIRCLE
  5
3CE
100
AcDbEntity
  8
0
370
    -3
390
0
  6
Continuous
100
AcDbCircle
 10
-633.903704
 20
-159.862939
 30
0.0
 40
5.0
  0
ARC
  5
3CF
100
AcDbEntity
  8
0
370
    -3
390
0
  6
Continuous
100
AcDbCircle
 10
-650.799073
 20
-180.923483
 30
0.0
 40
65.8
100
AcDbArc
 50
231.262419
 51
267.020093
  0
ARC
  5
3D0
100
AcDbEntity
  8
0
370
    -3
390
0
  6
Continuous
100
AcDbCircle
 10
-633.903704
 20
143.637061
 30
0.0
 40
390.8
100
AcDbArc
 50
267.020093
 51
272.979907
  0
ARC
  5
3D1
100
AcDbEntity
  8
0
370
    -3
390
0
  6
Continuous
100
AcDbCircle
 10
-617.008335
 20
-180.923483
 30
0.0
 40
65.8
100
AcDbArc
 50
272.979907
 51
308.737581
  0
ARC
  5
3D2
100
AcDbEntity
  8
0
370
    -3
390
0
  6
Continuous
100
AcDbCircle
 10
-612.84316
 20
-176.758308
 30
0.0
 40
65.8
100
AcDbArc
 50
321.262419
 51
357.020093
  0
ARC
  5
3D3
100
AcDbEntity
  8
0
370
    -3
390
0
  6
Continuous
100
AcDbCircle
 10
-633.903704
 20
-159.862939
 30
0.0
 40
92.8
100
AcDbArc
 50
308.737581
 51
321.262419
  0
ARC
  5
3D4
100
AcDbEntity
  8
0
370
    -3
390
0
  6
Continuous
100
AcDbCircle
 10
-612.84316
 20
-142.96757
 30
0.0
 40
65.8
100
AcDbArc
 50
2.979907
 51
38.737581
  0
ARC
  5
3D5
100
AcDbEntity
  8
0
370
    -3
390
0
  6
Continuous
100
AcDbCircle
 10
-617.008335
 20
-138.802396
 30
0.0
 40
65.8
100
AcDbArc
 50
51.262419
 51
87.020093
  0
ARC
  5
3D6
100
AcDbEntity
  8
0
370
    -3
390
0
  6
Continuous
100
AcDbCircle
 10
-633.903704
 20
-159.862939
 30
0.0
 40
92.8
100
AcDbArc
 50
38.737581
 51
51.262419
  0
ARC
  5
3D7
100
AcDbEntity
  8
0
370
    -3
390
0
  6
Continuous
100
AcDbCircle
 10
-650.799073
 20
-138.802396
 30
0.0
 40
65.8
100
AcDbArc
 50
92.979907
 51
128.737581
  0
ARC
  5
3D8
100
AcDbEntity
  8
0
370
    -3
390
0
  6
Continuous
100
AcDbCircle
 10
-654.964248
 20
-142.96757
 30
0.0
 40
65.8
100
AcDbArc
 50
141.262419
 51
177.020093
  0
ARC
  5
3D9
100
AcDbEntity
  8
0
370
    -3
390
0
  6
Continuous
100
AcDbCircle
 10
-633.903704
 20
-159.862939
 30
0.0
 40
92.8
100
AcDbArc
 50
128.737581
 51
141.262419
  0
ARC
  5
3DA
100
AcDbEntity
  8
0
370
    -3
390
0
  6
Continuous
100
AcDbCircle
 10
-654.964248
 20
-176.758308
 30
0.0
 40
65.8
100
AcDbArc
 50
182.979907
 51
218.737581
  0
ARC
  5
3DB
100
AcDbEntity
  8
0
370
    -3
390
0
  6
Continuous
100
AcDbCircle
 10
-633.903704
 20
-159.862939
 30
0.0
 40
92.8
100
AcDbArc
 50
218.737581
 51
231.262419
  0
ARC
  5
3DC
100
AcDbEntity
  8
0
370
    -3
390
0
  6
Continuous
100
AcDbCircle
 10
-617.008335
 20
-180.923483
 30
0.0
 40
49.8
100
AcDbArc
 50
272.979907
 51
308.737581
  0
ARC
  5
3DD
100
AcDbEntity
  8
0
370
    -3
390
0
  6
Continuous
100
AcDbCircle
 10
-612.84316
 20
-176.758308
 30
0.0
 40
49.8
100
AcDbArc
 50
321.262419
 51
357.020093
  0
ARC
  5
3DE
100
AcDbEntity
  8
0
370
    -3
390
0
  6
Continuous
100
AcDbCircle
 10
-937.403704
 20
-159.862939
 30
0.0
 40
374.8
100
AcDbArc
 50
357.020093
 51
0.0
  0
ARC
  5
3DF
100
AcDbEntity
  8
0
370
    -3
390
0
  6
Continuous
100
AcDbCircle
 10
-937.403704
 20
-159.862939
 30
0.0
 40
374.8
100
AcDbArc
 50
0.0
 51
2.979907
  0
ARC
  5
3E0
100
AcDbEntity
  8
0
370
    -3
390
0
  6
Continuous
100
AcDbCircle
 10
-612.84316
 20
-142.96757
 30
0.0
 40
49.8
100
AcDbArc
 50
2.979907
 51
38.737581
  0
ARC
  5
3E1
100
AcDbEntity
  8
0
370
    -3
390
0
  6
Continuous
100
AcDbCircle
 10
-633.903704
 20
-159.862939
 30
0.0
 40
76.8
100
AcDbArc
 50
38.737581
 51
51.262419
  0
ARC
  5
3E2
100
AcDbEntity
  8
0
370
    -3
390
0
  6
Continuous
100
AcDbCircle
 10
-617.008335
 20
-138.802396
 30
0.0
 40
49.8
100
AcDbArc
 50
51.262419
 51
87.020093
  0
ARC
  5
3E3
100
AcDbEntity
  8
0
370
    -3
390
0
  6
Continuous
100
AcDbCircle
 10
-633.903704
 20
-463.362939
 30
0.0
 40
374.8
100
AcDbArc
 50
90.0
 51
92.979907
  0
ARC
  5
3E4
100
AcDbEntity
  8
0
370
    -3
390
0
  6
Continuous
100
AcDbCircle
 10
-650.799073
 20
-138.802396
 30
0.0
 40
49.8
100
AcDbArc
 50
92.979907
 51
128.737581
  0
ARC
  5
3E5
100
AcDbEntity
  8
0
370
    -3
390
0
  6
Continuous
100
AcDbCircle
 10
-654.964248
 20
-142.96757
 30
0.0
 40
49.8
100
AcDbArc
 50
141.262419
 51
177.020093
  0
ARC
  5
3E6
100
AcDbEntity
  8
0
370
    -3
390
0
  6
Continuous
100
AcDbCircle
 10
-633.903704
 20
-159.862939
 30
0.0
 40
76.8
100
AcDbArc
 50
128.737581
 51
141.262419
  0
ARC
  5
3E7
100
AcDbEntity
  8
0
370
    -3
390
0
  6
Continuous
100
AcDbCircle
 10
-330.403704
 20
-159.862939
 30
0.0
 40
374.8
100
AcDbArc
 50
177.020093
 51
180.0
  0
ARC
  5
3E8
100
AcDbEntity
  8
0
370
    -3
390
0
  6
Continuous
100
AcDbCircle
 10
-654.964248
 20
-176.758308
 30
0.0
 40
49.8
100
AcDbArc
 50
182.979907
 51
218.737581
  0
ARC
  5
3E9
100
AcDbEntity
  8
0
370
    -3
390
0
  6
Continuous
100
AcDbCircle
 10
-633.903704
 20
-159.862939
 30
0.0
 40
76.8
100
AcDbArc
 50
218.737581
 51
231.262419
  0
ARC
  5
3EA
100
AcDbEntity
  8
0
370
    -3
390
0
  6
Continuous
100
AcDbCircle
 10
-650.799073
 20
-180.923483
 30
0.0
 40
49.8
100
AcDbArc
 50
231.262419
 51
267.020093
  0
ARC
  5
3EB
100
AcDbEntity
  8
0
370
    -3
390
0
  6
Continuous
100
AcDbCircle
 10
-633.903704
 20
143.637061
 30
0.0
 40
374.8
100
AcDbArc
 50
267.020093
 51
270.0
  0
ARC
  5
3EC
100
AcDbEntity
  8
0
370
    -3
390
0
  6
Continuous
100
AcDbCircle
 10
-633.903704
 20
143.637061
 30
0.0
 40
374.8
100
AcDbArc
 50
270.0
 51
272.979907
  0
ARC
  5
3ED
100
AcDbEntity
  8
0
370
    -3
390
0
  6
Continuous
100
AcDbCircle
 10
-330.403704
 20
-159.862939
 30
0.0
 40
374.8
100
AcDbArc
 50
180.0
 51
182.979907
  0
ARC
  5
3EE
100
AcDbEntity
  8
0
370
    -3
390
0
  6
Continuous
100
AcDbCircle
 10
-633.903704
 20
-159.862939
 30
0.0
 40
76.8
100
AcDbArc
 50
308.737581
 51
321.262419
  0
LINE
  5
3EF
100
AcDbEntity
  8
0
370
    -3
390
0
  6
Continuous
100
AcDbLine
 10
-452.86495
 20
89.769481
 30
0.0
 11
-452.86495
 21
158.70995
 31
0.0
  0
LINE
  5
3F0
100
AcDbEntity
  8
0
370
    -3
390
0
  6
Continuous
100
AcDbLine
 10
-450.96495
 20
86.478584
 30
0.0
 11
-434.332982
 21
76.876113
 31
0.0
  0
ARC
  5
3F1
100
AcDbEntity
  8
0
370
    -3
390
0
  6
Continuous
100
AcDbCircle
 10
-413.932982
 20
112.20995
 30
0.0
 40
40.8
100
AcDbArc
 50
240.0
 51
270.0
  0
ARC
  5
3F2
100
AcDbEntity
  8
0
370
    -3
390
0
  6
Continuous
100
AcDbCircle
 10
-449.06495
 20
89.769481
 30
0.0
 40
3.8
100
AcDbArc
 50
180.0
 51
240.0
  0
LINE
  5
3F3
100
AcDbEntity
  8
0
370
    -3
390
0
  6
Continuous
100
AcDbLine
 10
-400.461023
 20
223.671635
 30
0.0
 11
-400.364949
 21
224.361384
 31
0.0
  0
LINE
  5
3F4
100
AcDbEntity
  8
0
370
    -3
390
0
  6
Continuous
100
AcDbLine
 10
-400.745552
 20
223.008393
 30
0.0
 11
-400.461023
 21
223.671635
 31
0.0
  0
LINE
  5
3F5
100
AcDbEntity
  8
0
370
    -3
390
0
  6
Continuous
100
AcDbLine
 10
-401.207601
 20
222.397146
 30
0.0
 11
-400.745552
 21
223.008393
 31
0.0
  0
LINE
  5
3F6
100
AcDbEntity
  8
0
370
    -3
390
0
  6
Continuous
100
AcDbLine
 10
-401.829415
 20
221.861384
 30
0.0
 11
-401.207601
 21
222.397146
 31
0.0
  0
LINE
  5
3F7
100
AcDbEntity
  8
0
370
    -3
390
0
  6
Continuous
100
AcDbLine
 10
-402.587098
 20
221.421695
 30
0.0
 11
-401.829415
 21
221.861384
 31
0.0
  0
LINE
  5
3F8
100
AcDbEntity
  8
0
370
    -3
390
0
  6
Continuous
100
AcDbLine
 10
-403.451532
 20
221.094976
 30
0.0
 11
-402.587098
 21
221.421695
 31
0.0
  0
LINE
  5
3F9
100
AcDbEntity
  8
0
370
    -3
390
0
  6
Continuous
100
AcDbLine
 10
-404.389498
 20
220.893784
 30
0.0
 11
-403.451532
 21
221.094976
 31
0.0
  0
LINE
  5
3FA
100
AcDbEntity
  8
0
370
    -3
390
0
  6
Continuous
100
AcDbLine
 10
-405.364949
 20
220.82585
 30
0.0
 11
-404.389498
 21
220.893784
 31
0.0
  0
LINE
  5
3FB
100
AcDbEntity
  8
0
370
    -3
390
0
  6
Continuous
100
AcDbLine
 10
-406.340401
 20
220.893784
 30
0.0
 11
-405.364949
 21
220.82585
 31
0.0
  0
LINE
  5
3FC
100
AcDbEntity
  8
0
370
    -3
390
0
  6
Continuous
100
AcDbLine
 10
-407.278366
 20
221.094976
 30
0.0
 11
-406.340401
 21
220.893784
 31
0.0
  0
LINE
  5
3FD
100
AcDbEntity
  8
0
370
    -3
390
0
  6
Continuous
100
AcDbLine
 10
-408.1428
 20
221.421695
 30
0.0
 11
-407.278366
 21
221.094976
 31
0.0
  0
LINE
  5
3FE
100
AcDbEntity
  8
0
370
    -3
390
0
  6
Continuous
100
AcDbLine
 10
-408.900483
 20
221.861384
 30
0.0
 11
-408.1428
 21
221.421695
 31
0.0
  0
LINE
  5
3FF
100
AcDbEntity
  8
0
370
    -3
390
0
  6
Continuous
100
AcDbLine
 10
-409.522297
 20
222.397146
 30
0.0
 11
-408.900483
 21
221.861384
 31
0.0
  0
LINE
  5
400
100
AcDbEntity
  8
0
370
    -3
390
0
  6
Continuous
100
AcDbLine
 10
-409.984347
 20
223.008393
 30
0.0
 11
-409.522297
 21
222.397146
 31
0.0
  0
LINE
  5
401
100
AcDbEntity
  8
0
370
    -3
390
0
  6
Continuous
100
AcDbLine
 10
-410.268876
 20
223.671635
 30
0.0
 11
-409.984347
 21
223.008393
 31
0.0
  0
LINE
  5
402
100
AcDbEntity
  8
0
370
    -3
390
0
  6
Continuous
100
AcDbLine
 10
-410.364949
 20
224.361384
 30
0.0
 11
-410.268876
 21
223.671635
 31
0.0
  0
LINE
  5
403
100
AcDbEntity
  8
0
370
    -3
390
0
  6
Continuous
100
AcDbLine
 10
-410.364949
 20
225.177987
 30
0.0
 11
-410.364949
 21
224.361384
 31
0.0
  0
LINE
  5
404
100
AcDbEntity
  8
0
370
    -3
390
0
  6
Continuous
100
AcDbLine
 10
-400.364949
 20
225.177987
 30
0.0
 11
-400.364949
 21
224.361384
 31
0.0
  0
LINE
  5
405
100
AcDbEntity
  8
0
370
    -3
390
0
  6
Continuous
100
AcDbLine
 10
-400.951415
 20
224.557213
 30
0.0
 11
-400.864949
 21
225.177987
 31
0.0
  0
LINE
  5
406
100
AcDbEntity
  8
0
370
    -3
390
0
  6
Continuous
100
AcDbLine
 10
-401.207491
 20
223.960296
 30
0.0
 11
-400.951415
 21
224.557213
 31
0.0
  0
LINE
  5
407
100
AcDbEntity
  8
0
370
    -3
390
0
  6
Continuous
100
AcDbLine
 10
-401.623336
 20
223.410173
 30
0.0
 11
-401.207491
 21
223.960296
 31
0.0
  0
LINE
  5
408
100
AcDbEntity
  8
0
370
    -3
390
0
  6
Continuous
100
AcDbLine
 10
-402.182969
 20
222.927987
 30
0.0
 11
-401.623336
 21
223.410173
 31
0.0
  0
LINE
  5
409
100
AcDbEntity
  8
0
370
    -3
390
0
  6
Continuous
100
AcDbLine
 10
-402.864883
 20
222.532267
 30
0.0
 11
-402.182969
 21
222.927987
 31
0.0
  0
LINE
  5
40A
100
AcDbEntity
  8
0
370
    -3
390
0
  6
Continuous
100
AcDbLine
 10
-403.642874
 20
222.23822
 30
0.0
 11
-402.864883
 21
222.532267
 31
0.0
  0
LINE
  5
40B
100
AcDbEntity
  8
0
370
    -3
390
0
  6
Continuous
100
AcDbLine
 10
-404.487043
 20
222.057147
 30
0.0
 11
-403.642874
 21
222.23822
 31
0.0
  0
LINE
  5
40C
100
AcDbEntity
  8
0
370
    -3
390
0
  6
Continuous
100
AcDbLine
 10
-405.364949
 20
221.996006
 30
0.0
 11
-404.487043
 21
222.057147
 31
0.0
  0
LINE
  5
40D
100
AcDbEntity
  8
0
370
    -3
390
0
  6
Continuous
100
AcDbLine
 10
-406.242856
 20
222.057147
 30
0.0
 11
-405.364949
 21
221.996006
 31
0.0
  0
LINE
  5
40E
100
AcDbEntity
  8
0
370
    -3
390
0
  6
Continuous
100
AcDbLine
 10
-407.087025
 20
222.23822
 30
0.0
 11
-406.242856
 21
222.057147
 31
0.0
  0
LINE
  5
40F
100
AcDbEntity
  8
0
370
    -3
390
0
  6
Continuous
100
AcDbLine
 10
-407.865015
 20
222.532267
 30
0.0
 11
-407.087025
 21
222.23822
 31
0.0
  0
LINE
  5
410
100
AcDbEntity
  8
0
370
    -3
390
0
  6
Continuous
100
AcDbLine
 10
-408.54693
 20
222.927987
 30
0.0
 11
-407.865015
 21
222.532267
 31
0.0
  0
LINE
  5
411
100
AcDbEntity
  8
0
370
    -3
390
0
  6
Continuous
100
AcDbLine
 10
-409.106562
 20
223.410173
 30
0.0
 11
-408.54693
 21
222.927987
 31
0.0
  0
LINE
  5
412
100
AcDbEntity
  8
0
370
    -3
390
0
  6
Continuous
100
AcDbLine
 10
-409.522407
 20
223.960296
 30
0.0
 11
-409.106562
 21
223.410173
 31
0.0
  0
LINE
  5
413
100
AcDbEntity
  8
0
370
    -3
390
0
  6
Continuous
100
AcDbLine
 10
-409.778483
 20
224.557213
 30
0.0
 11
-409.522407
 21
223.960296
 31
0.0
  0
LINE
  5
414
100
AcDbEntity
  8
0
370
    -3
390
0
  6
Continuous
100
AcDbLine
 10
-409.864949
 20
225.177987
 30
0.0
 11
-409.778483
 21
224.557213
 31
0.0
  0
LINE
  5
415
100
AcDbEntity
  8
0
370
    -3
390
0
  6
Continuous
100
AcDbLine
 10
-409.864949
 20
225.743672
 30
0.0
 11
-409.864949
 21
225.177987
 31
0.0
  0
LINE
  5
416
100
AcDbEntity
  8
0
370
    -3
390
0
  6
Continuous
100
AcDbLine
 10
-400.864949
 20
225.743672
 30
0.0
 11
-400.864949
 21
225.177987
 31
0.0
  0
LINE
  5
417
100
AcDbEntity
  8
0
370
    -3
390
0
  6
Continuous
100
AcDbLine
 10
-401.114009
 20
227.039372
 30
0.0
 11
-401.670152
 21
227.560053
 31
0.0
  0
LINE
  5
418
100
AcDbEntity
  8
0
370
    -3
390
0
  6
Continuous
100
AcDbLine
 10
-400.702655
 20
226.45529
 30
0.0
 11
-401.114009
 21
227.039372
 31
0.0
  0
LINE
  5
419
100
AcDbEntity
  8
0
370
    -3
390
0
  6
Continuous
100
AcDbLine
 10
-400.450101
 20
225.827703
 30
0.0
 11
-400.702655
 21
226.45529
 31
0.0
  0
LINE
  5
41A
100
AcDbEntity
  8
0
370
    -3
390
0
  6
Continuous
100
AcDbLine
 10
-400.364949
 20
225.177987
 30
0.0
 11
-400.450101
 21
225.827703
 31
0.0
  0
LINE
  5
41B
100
AcDbEntity
  8
0
370
    -3
390
0
  6
Continuous
100
AcDbLine
 10
-410.279798
 20
225.827703
 30
0.0
 11
-410.364949
 21
225.177987
 31
0.0
  0
LINE
  5
41C
100
AcDbEntity
  8
0
370
    -3
390
0
  6
Continuous
100
AcDbLine
 10
-410.027244
 20
226.45529
 30
0.0
 11
-410.279798
 21
225.827703
 31
0.0
  0
LINE
  5
41D
100
AcDbEntity
  8
0
370
    -3
390
0
  6
Continuous
100
AcDbLine
 10
-409.61589
 20
227.039372
 30
0.0
 11
-410.027244
 21
226.45529
 31
0.0
  0
LINE
  5
41E
100
AcDbEntity
  8
0
370
    -3
390
0
  6
Continuous
100
AcDbLine
 10
-409.059746
 20
227.560053
 30
0.0
 11
-409.61589
 21
227.039372
 31
0.0
  0
LINE
  5
41F
100
AcDbEntity
  8
0
370
    -3
390
0
  6
Continuous
100
AcDbLine
 10
-401.932201
 20
225.692697
 30
0.0
 11
-401.864949
 21
226.280191
 31
0.0
  0
LINE
  5
420
100
AcDbEntity
  8
0
370
    -3
390
0
  6
Continuous
100
AcDbLine
 10
-402.131371
 20
225.127781
 30
0.0
 11
-401.932201
 21
225.692697
 31
0.0
  0
LINE
  5
421
100
AcDbEntity
  8
0
370
    -3
390
0
  6
Continuous
100
AcDbLine
 10
-402.454806
 20
224.607151
 30
0.0
 11
-402.131371
 21
225.127781
 31
0.0
  0
LINE
  5
422
100
AcDbEntity
  8
0
370
    -3
390
0
  6
Continuous
100
AcDbLine
 10
-402.890075
 20
224.150815
 30
0.0
 11
-402.454806
 21
224.607151
 31
0.0
  0
LINE
  5
423
100
AcDbEntity
  8
0
370
    -3
390
0
  6
Continuous
100
AcDbLine
 10
-403.420453
 20
223.77631
 30
0.0
 11
-402.890075
 21
224.150815
 31
0.0
  0
LINE
  5
424
100
AcDbEntity
  8
0
370
    -3
390
0
  6
Continuous
100
AcDbLine
 10
-404.025557
 20
223.498027
 30
0.0
 11
-403.420453
 21
223.77631
 31
0.0
  0
LINE
  5
425
100
AcDbEntity
  8
0
370
    -3
390
0
  6
Continuous
100
AcDbLine
 10
-404.682133
 20
223.326662
 30
0.0
 11
-404.025557
 21
223.498027
 31
0.0
  0
LINE
  5
426
100
AcDbEntity
  8
0
370
    -3
390
0
  6
Continuous
100
AcDbLine
 10
-405.364949
 20
223.268799
 30
0.0
 11
-404.682133
 21
223.326662
 31
0.0
  0
LINE
  5
427
100
AcDbEntity
  8
0
370
    -3
390
0
  6
Continuous
100
AcDbLine
 10
-406.047765
 20
223.326662
 30
0.0
 11
-405.364949
 21
223.268799
 31
0.0
  0
LINE
  5
428
100
AcDbEntity
  8
0
370
    -3
390
0
  6
Continuous
100
AcDbLine
 10
-406.704341
 20
223.498027
 30
0.0
 11
-406.047765
 21
223.326662
 31
0.0
  0
LINE
  5
429
100
AcDbEntity
  8
0
370
    -3
390
0
  6
Continuous
100
AcDbLine
 10
-407.309445
 20
223.77631
 30
0.0
 11
-406.704341
 21
223.498027
 31
0.0
  0
LINE
  5
42A
100
AcDbEntity
  8
0
370
    -3
390
0
  6
Continuous
100
AcDbLine
 10
-407.839823
 20
224.150815
 30
0.0
 11
-407.309445
 21
223.77631
 31
0.0
  0
LINE
  5
42B
100
AcDbEntity
  8
0
370
    -3
390
0
  6
Continuous
100
AcDbLine
 10
-408.275093
 20
224.607151
 30
0.0
 11
-407.839823
 21
224.150815
 31
0.0
  0
LINE
  5
42C
100
AcDbEntity
  8
0
370
    -3
390
0
  6
Continuous
100
AcDbLine
 10
-408.598528
 20
225.127781
 30
0.0
 11
-408.275093
 21
224.607151
 31
0.0
  0
LINE
  5
42D
100
AcDbEntity
  8
0
370
    -3
390
0
  6
Continuous
100
AcDbLine
 10
-408.797698
 20
225.692697
 30
0.0
 11
-408.598528
 21
225.127781
 31
0.0
  0
LINE
  5
42E
100
AcDbEntity
  8
0
370
    -3
390
0
  6
Continuous
100
AcDbLine
 10
-408.864949
 20
226.280191
 30
0.0
 11
-408.797698
 21
225.692697
 31
0.0
  0
LINE
  5
42F
100
AcDbEntity
  8
0
370
    -3
390
0
  6
Continuous
100
AcDbLine
 10
-408.797698
 20
226.867684
 30
0.0
 11
-408.864949
 21
226.280191
 31
0.0
  0
LINE
  5
430
100
AcDbEntity
  8
0
370
    -3
390
0
  6
Continuous
100
AcDbLine
 10
-408.598528
 20
227.4326
 30
0.0
 11
-408.797698
 21
226.867684
 31
0.0
  0
LINE
  5
431
100
AcDbEntity
  8
0
370
    -3
390
0
  6
Continuous
100
AcDbLine
 10
-408.275093
 20
227.95323
 30
0.0
 11
-408.598528
 21
227.4326
 31
0.0
  0
LINE
  5
432
100
AcDbEntity
  8
0
370
    -3
390
0
  6
Continuous
100
AcDbLine
 10
-407.839823
 20
228.409566
 30
0.0
 11
-408.275093
 21
227.95323
 31
0.0
  0
LINE
  5
433
100
AcDbEntity
  8
0
370
    -3
390
0
  6
Continuous
100
AcDbLine
 10
-407.309445
 20
228.784071
 30
0.0
 11
-407.839823
 21
228.409566
 31
0.0
  0
LINE
  5
434
100
AcDbEntity
  8
0
370
    -3
390
0
  6
Continuous
100
AcDbLine
 10
-406.704341
 20
229.062354
 30
0.0
 11
-407.309445
 21
228.784071
 31
0.0
  0
LINE
  5
435
100
AcDbEntity
  8
0
370
    -3
390
0
  6
Continuous
100
AcDbLine
 10
-406.047765
 20
229.233719
 30
0.0
 11
-406.704341
 21
229.062354
 31
0.0
  0
LINE
  5
436
100
AcDbEntity
  8
0
370
    -3
390
0
  6
Continuous
100
AcDbLine
 10
-405.364949
 20
229.291582
 30
0.0
 11
-406.047765
 21
229.233719
 31
0.0
  0
LINE
  5
437
100
AcDbEntity
  8
0
370
    -3
390
0
  6
Continuous
100
AcDbLine
 10
-404.682133
 20
229.233719
 30
0.0
 11
-405.364949
 21
229.291582
 31
0.0
  0
LINE
  5
438
100
AcDbEntity
  8
0
370
    -3
390
0
  6
Continuous
100
AcDbLine
 10
-404.025557
 20
229.062354
 30
0.0
 11
-404.682133
 21
229.233719
 31
0.0
  0
LINE
  5
439
100
AcDbEntity
  8
0
370
    -3
390
0
  6
Continuous
100
AcDbLine
 10
-403.420453
 20
228.784071
 30
0.0
 11
-404.025557
 21
229.062354
 31
0.0
  0
LINE
  5
43A
100
AcDbEntity
  8
0
370
    -3
390
0
  6
Continuous
100
AcDbLine
 10
-402.890075
 20
228.409566
 30
0.0
 11
-403.420453
 21
228.784071
 31
0.0
  0
LINE
  5
43B
100
AcDbEntity
  8
0
370
    -3
390
0
  6
Continuous
100
AcDbLine
 10
-402.454806
 20
227.95323
 30
0.0
 11
-402.890075
 21
228.409566
 31
0.0
  0
LINE
  5
43C
100
AcDbEntity
  8
0
370
    -3
390
0
  6
Continuous
100
AcDbLine
 10
-402.131371
 20
227.4326
 30
0.0
 11
-402.454806
 21
227.95323
 31
0.0
  0
LINE
  5
43D
100
AcDbEntity
  8
0
370
    -3
390
0
  6
Continuous
100
AcDbLine
 10
-401.932201
 20
226.867684
 30
0.0
 11
-402.131371
 21
227.4326
 31
0.0
  0
LINE
  5
43E
100
AcDbEntity
  8
0
370
    -3
390
0
  6
Continuous
100
AcDbLine
 10
-401.864949
 20
226.280191
 30
0.0
 11
-401.932201
 21
226.867684
 31
0.0
  0
LINE
  5
43F
100
AcDbEntity
  8
0
370
    -3
390
0
  6
Continuous
100
AcDbLine
 10
-402.209572
 20
228.012328
 30
0.0
 11
-402.869144
 21
228.391403
 31
0.0
  0
LINE
  5
440
100
AcDbEntity
  8
0
370
    -3
390
0
  6
Continuous
100
AcDbLine
 10
-401.662571
 20
227.552318
 30
0.0
 11
-402.209572
 21
228.012328
 31
0.0
  0
LINE
  5
441
100
AcDbEntity
  8
0
370
    -3
390
0
  6
Continuous
100
AcDbLine
 10
-401.247654
 20
227.027783
 30
0.0
 11
-401.662571
 21
227.552318
 31
0.0
  0
LINE
  5
442
100
AcDbEntity
  8
0
370
    -3
390
0
  6
Continuous
100
AcDbLine
 10
-400.979623
 20
226.457436
 30
0.0
 11
-401.247654
 21
227.027783
 31
0.0
  0
LINE
  5
443
100
AcDbEntity
  8
0
370
    -3
390
0
  6
Continuous
100
AcDbLine
 10
-400.868042
 20
225.861626
 30
0.0
 11
-400.979623
 21
226.457436
 31
0.0
  0
LINE
  5
444
100
AcDbEntity
  8
0
370
    -3
390
0
  6
Continuous
100
AcDbLine
 10
-400.91689
 20
225.261608
 30
0.0
 11
-400.868042
 21
225.861626
 31
0.0
  0
LINE
  5
445
100
AcDbEntity
  8
0
370
    -3
390
0
  6
Continuous
100
AcDbLine
 10
-401.124426
 20
224.678787
 30
0.0
 11
-400.91689
 21
225.261608
 31
0.0
  0
LINE
  5
446
100
AcDbEntity
  8
0
370
    -3
390
0
  6
Continuous
100
AcDbLine
 10
-401.483244
 20
224.133957
 30
0.0
 11
-401.124426
 21
224.678787
 31
0.0
  0
LINE
  5
447
100
AcDbEntity
  8
0
370
    -3
390
0
  6
Continuous
100
AcDbLine
 10
-401.980545
 20
223.646555
 30
0.0
 11
-401.483244
 21
224.133957
 31
0.0
  0
LINE
  5
448
100
AcDbEntity
  8
0
370
    -3
390
0
  6
Continuous
100
AcDbLine
 10
-402.598585
 20
223.233968
 30
0.0
 11
-401.980545
 21
223.646555
 31
0.0
  0
LINE
  5
449
100
AcDbEntity
  8
0
370
    -3
390
0
  6
Continuous
100
AcDbLine
 10
-403.315318
 20
222.910916
 30
0.0
 11
-402.598585
 21
223.233968
 31
0.0
  0
LINE
  5
44A
100
AcDbEntity
  8
0
370
    -3
390
0
  6
Continuous
100
AcDbLine
 10
-404.105172
 20
222.688925
 30
0.0
 11
-403.315318
 21
222.910916
 31
0.0
  0
LINE
  5
44B
100
AcDbEntity
  8
0
370
    -3
390
0
  6
Continuous
100
AcDbLine
 10
-404.93997
 20
222.575913
 30
0.0
 11
-404.105172
 21
222.688925
 31
0.0
  0
LINE
  5
44C
100
AcDbEntity
  8
0
370
    -3
390
0
  6
Continuous
100
AcDbLine
 10
-405.789929
 20
222.575913
 30
0.0
 11
-404.93997
 21
222.575913
 31
0.0
  0
LINE
  5
44D
100
AcDbEntity
  8
0
370
    -3
390
0
  6
Continuous
100
AcDbLine
 10
-406.624726
 20
222.688925
 30
0.0
 11
-405.789929
 21
222.575913
 31
0.0
  0
LINE
  5
44E
100
AcDbEntity
  8
0
370
    -3
390
0
  6
Continuous
100
AcDbLine
 10
-407.41458
 20
222.910916
 30
0.0
 11
-406.624726
 21
222.688925
 31
0.0
  0
LINE
  5
44F
100
AcDbEntity
  8
0
370
    -3
390
0
  6
Continuous
100
AcDbLine
 10
-408.131313
 20
223.233968
 30
0.0
 11
-407.41458
 21
222.910916
 31
0.0
  0
LINE
  5
450
100
AcDbEntity
  8
0
370
    -3
390
0
  6
Continuous
100
AcDbLine
 10
-408.749354
 20
223.646555
 30
0.0
 11
-408.131313
 21
223.233968
 31
0.0
  0
LINE
  5
451
100
AcDbEntity
  8
0
370
    -3
390
0
  6
Continuous
100
AcDbLine
 10
-409.246654
 20
224.133957
 30
0.0
 11
-408.749354
 21
223.646555
 31
0.0
  0
LINE
  5
452
100
AcDbEntity
  8
0
370
    -3
390
0
  6
Continuous
100
AcDbLine
 10
-409.605473
 20
224.678787
 30
0.0
 11
-409.246654
 21
224.133957
 31
0.0
  0
LINE
  5
453
100
AcDbEntity
  8
0
370
    -3
390
0
  6
Continuous
100
AcDbLine
 10
-409.813008
 20
225.261608
 30
0.0
 11
-409.605473
 21
224.678787
 31
0.0
  0
LINE
  5
454
100
AcDbEntity
  8
0
370
    -3
390
0
  6
Continuous
100
AcDbLine
 10
-409.861856
 20
225.861626
 30
0.0
 11
-409.813008
 21
225.261608
 31
0.0
  0
LINE
  5
455
100
AcDbEntity
  8
0
370
    -3
390
0
  6
Continuous
100
AcDbLine
 10
-409.750275
 20
226.457436
 30
0.0
 11
-409.861856
 21
225.861626
 31
0.0
  0
LINE
  5
456
100
AcDbEntity
  8
0
370
    -3
390
0
  6
Continuous
100
AcDbLine
 10
-409.482245
 20
227.027783
 30
0.0
 11
-409.750275
 21
226.457436
 31
0.0
  0
LINE
  5
457
100
AcDbEntity
  8
0
370
    -3
390
0
  6
Continuous
100
AcDbLine
 10
-409.067328
 20
227.552318
 30
0.0
 11
-409.482245
 21
227.027783
 31
0.0
  0
LINE
  5
458
100
AcDbEntity
  8
0
370
    -3
390
0
  6
Continuous
100
AcDbLine
 10
-408.520326
 20
228.012328
 30
0.0
 11
-409.067328
 21
227.552318
 31
0.0
  0
LINE
  5
459
100
AcDbEntity
  8
0
370
    -3
390
0
  6
Continuous
100
AcDbLine
 10
-407.860755
 20
228.391403
 30
0.0
 11
-408.520326
 21
228.012328
 31
0.0
  0
LINE
  5
45A
100
AcDbEntity
  8
0
370
    -3
390
0
  6
Continuous
100
AcDbLine
 10
-405.364949
 20
227.58215
 30
0.0
 11
-403.364949
 21
226.008812
 31
0.0
  0
LINE
  5
45B
100
AcDbEntity
  8
0
370
    -3
390
0
  6
Continuous
100
AcDbLine
 10
-405.364949
 20
227.58215
 30
0.0
 11
-403.435744
 21
228.792812
 31
0.0
  0
LINE
  5
45C
100
AcDbEntity
  8
0
370
    -3
390
0
  6
Continuous
100
AcDbLine
 10
-405.364949
 20
227.58215
 30
0.0
 11
-407.364949
 21
226.008812
 31
0.0
  0
LINE
  5
45D
100
AcDbEntity
  8
0
370
    -3
390
0
  6
Continuous
100
AcDbLine
 10
-405.364949
 20
227.58215
 30
0.0
 11
-407.294154
 21
228.792812
 31
0.0
  0
LINE
  5
45E
100
AcDbEntity
  8
0
370
    -3
390
0
  6
Continuous
100
AcDbLine
 10
-410.268876
 20
93.748264
 30
0.0
 11
-410.364949
 21
93.058515
 31
0.0
  0
LINE
  5
45F
100
AcDbEntity
  8
0
370
    -3
390
0
  6
Continuous
100
AcDbLine
 10
-409.984347
 20
94.411506
 30
0.0
 11
-410.268876
 21
93.748264
 31
0.0
  0
LINE
  5
460
100
AcDbEntity
  8
0
370
    -3
390
0
  6
Continuous
100
AcDbLine
 10
-409.522297
 20
95.022753
 30
0.0
 11
-409.984347
 21
94.411506
 31
0.0
  0
LINE
  5
461
100
AcDbEntity
  8
0
370
    -3
390
0
  6
Continuous
100
AcDbLine
 10
-408.900483
 20
95.558515
 30
0.0
 11
-409.522297
 21
95.022753
 31
0.0
  0
LINE
  5
462
100
AcDbEntity
  8
0
370
    -3
390
0
  6
Continuous
100
AcDbLine
 10
-408.1428
 20
95.998204
 30
0.0
 11
-408.900483
 21
95.558515
 31
0.0
  0
LINE
  5
463
100
AcDbEntity
  8
0
370
    -3
390
0
  6
Continuous
100
AcDbLine
 10
-407.278366
 20
96.324923
 30
0.0
 11
-408.1428
 21
95.998204
 31
0.0
  0
LINE
  5
464
100
AcDbEntity
  8
0
370
    -3
390
0
  6
Continuous
100
AcDbLine
 10
-406.340401
 20
96.526115
 30
0.0
 11
-407.278366
 21
96.324923
 31
0.0
  0
LINE
  5
465
100
AcDbEntity
  8
0
370
    -3
390
0
  6
Continuous
100
AcDbLine
 10
-405.364949
 20
96.594049
 30
0.0
 11
-406.340401
 21
96.526115
 31
0.0
  0
LINE
  5
466
100
AcDbEntity
  8
0
370
    -3
390
0
  6
Continuous
100
AcDbLine
 10
-404.389498
 20
96.526115
 30
0.0
 11
-405.364949
 21
96.594049
 31
0.0
  0
LINE
  5
467
100
AcDbEntity
  8
0
370
    -3
390
0
  6
Continuous
100
AcDbLine
 10
-403.451532
 20
96.324923
 30
0.0
 11
-404.389498
 21
96.526115
 31
0.0
  0
LINE
  5
468
100
AcDbEntity
  8
0
370
    -3
390
0
  6
Continuous
100
AcDbLine
 10
-402.587098
 20
95.998204
 30
0.0
 11
-403.451532
 21
96.324923
 31
0.0
  0
LINE
  5
469
100
AcDbEntity
  8
0
370
    -3
390
0
  6
Continuous
100
AcDbLine
 10
-401.829415
 20
95.558515
 30
0.0
 11
-402.587098
 21
95.998204
 31
0.0
  0
LINE
  5
46A
100
AcDbEntity
  8
0
370
    -3
390
0
  6
Continuous
100
AcDbLine
 10
-401.207601
 20
95.022753
 30
0.0
 11
-401.829415
 21
95.558515
 31
0.0
  0
LINE
  5
46B
100
AcDbEntity
  8
0
370
    -3
390
0
  6
Continuous
100
AcDbLine
 10
-400.745552
 20
94.411506
 30
0.0
 11
-401.207601
 21
95.022753
 31
0.0
  0
LINE
  5
46C
100
AcDbEntity
  8
0
370
    -3
390
0
  6
Continuous
100
AcDbLine
 10
-400.461023
 20
93.748264
 30
0.0
 11
-400.745552
 21
94.411506
 31
0.0
  0
LINE
  5
46D
100
AcDbEntity
  8
0
370
    -3
390
0
  6
Continuous
100
AcDbLine
 10
-400.364949
 20
93.058515
 30
0.0
 11
-400.461023
 21
93.748264
 31
0.0
  0
LINE
  5
46E
100
AcDbEntity
  8
0
370
    -3
390
0
  6
Continuous
100
AcDbLine
 10
-410.364949
 20
92.241912
 30
0.0
 11
-410.364949
 21
93.058515
 31
0.0
  0
LINE
  5
46F
100
AcDbEntity
  8
0
370
    -3
390
0
  6
Continuous
100
AcDbLine
 10
-400.364949
 20
92.241912
 30
0.0
 11
-400.364949
 21
93.058515
 31
0.0
  0
LINE
  5
470
100
AcDbEntity
  8
0
370
    -3
390
0
  6
Continuous
100
AcDbLine
 10
-409.778483
 20
92.862686
 30
0.0
 11
-409.864949
 21
92.241912
 31
0.0
  0
LINE
  5
471
100
AcDbEntity
  8
0
370
    -3
390
0
  6
Continuous
100
AcDbLine
 10
-409.522407
 20
93.459603
 30
0.0
 11
-409.778483
 21
92.862686
 31
0.0
  0
LINE
  5
472
100
AcDbEntity
  8
0
370
    -3
390
0
  6
Continuous
100
AcDbLine
 10
-409.106562
 20
94.009726
 30
0.0
 11
-409.522407
 21
93.459603
 31
0.0
  0
LINE
  5
473
100
AcDbEntity
  8
0
370
    -3
390
0
  6
Continuous
100
AcDbLine
 10
-408.54693
 20
94.491912
 30
0.0
 11
-409.106562
 21
94.009726
 31
0.0
  0
LINE
  5
474
100
AcDbEntity
  8
0
370
    -3
390
0
  6
Continuous
100
AcDbLine
 10
-407.865015
 20
94.887632
 30
0.0
 11
-408.54693
 21
94.491912
 31
0.0
  0
LINE
  5
475
100
AcDbEntity
  8
0
370
    -3
390
0
  6
Continuous
100
AcDbLine
 10
-407.087025
 20
95.181679
 30
0.0
 11
-407.865015
 21
94.887632
 31
0.0
  0
LINE
  5
476
100
AcDbEntity
  8
0
370
    -3
390
0
  6
Continuous
100
AcDbLine
 10
-406.242856
 20
95.362752
 30
0.0
 11
-407.087025
 21
95.181679
 31
0.0
  0
LINE
  5
477
100
AcDbEntity
  8
0
370
    -3
390
0
  6
Continuous
100
AcDbLine
 10
-405.364949
 20
95.423893
 30
0.0
 11
-406.242856
 21
95.362752
 31
0.0
  0
LINE
  5
478
100
AcDbEntity
  8
0
370
    -3
390
0
  6
Continuous
100
AcDbLine
 10
-404.487043
 20
95.362752
 30
0.0
 11
-405.364949
 21
95.423893
 31
0.0
  0
LINE
  5
479
100
AcDbEntity
  8
0
370
    -3
390
0
  6
Continuous
100
AcDbLine
 10
-403.642874
 20
95.181679
 30
0.0
 11
-404.487043
 21
95.362752
 31
0.0
  0
LINE
  5
47A
100
AcDbEntity
  8
0
370
    -3
390
0
  6
Continuous
100
AcDbLine
 10
-402.864883
 20
94.887632
 30
0.0
 11
-403.642874
 21
95.181679
 31
0.0
  0
LINE
  5
47B
100
AcDbEntity
  8
0
370
    -3
390
0
  6
Continuous
100
AcDbLine
 10
-402.182969
 20
94.491912
 30
0.0
 11
-402.864883
 21
94.887632
 31
0.0
  0
LINE
  5
47C
100
AcDbEntity
  8
0
370
    -3
390
0
  6
Continuous
100
AcDbLine
 10
-401.623336
 20
94.009726
 30
0.0
 11
-402.182969
 21
94.491912
 31
0.0
  0
LINE
  5
47D
100
AcDbEntity
  8
0
370
    -3
390
0
  6
Continuous
100
AcDbLine
 10
-401.207491
 20
93.459603
 30
0.0
 11
-401.623336
 21
94.009726
 31
0.0
  0
LINE
  5
47E
100
AcDbEntity
  8
0
370
    -3
390
0
  6
Continuous
100
AcDbLine
 10
-400.951415
 20
92.862686
 30
0.0
 11
-401.207491
 21
93.459603
 31
0.0
  0
LINE
  5
47F
100
AcDbEntity
  8
0
370
    -3
390
0
  6
Continuous
100
AcDbLine
 10
-400.864949
 20
92.241912
 30
0.0
 11
-400.951415
 21
92.862686
 31
0.0
  0
LINE
  5
480
100
AcDbEntity
  8
0
370
    -3
390
0
  6
Continuous
100
AcDbLine
 10
-409.864949
 20
91.676227
 30
0.0
 11
-409.864949
 21
92.241912
 31
0.0
  0
LINE
  5
481
100
AcDbEntity
  8
0
370
    -3
390
0
  6
Continuous
100
AcDbLine
 10
-400.864949
 20
91.676227
 30
0.0
 11
-400.864949
 21
92.241912
 31
0.0
  0
LINE
  5
482
100
AcDbEntity
  8
0
370
    -3
390
0
  6
Continuous
100
AcDbLine
 10
-400.450101
 20
91.592196
 30
0.0
 11
-400.364949
 21
92.241912
 31
0.0
  0
LINE
  5
483
100
AcDbEntity
  8
0
370
    -3
390
0
  6
Continuous
100
AcDbLine
 10
-400.702655
 20
90.964609
 30
0.0
 11
-400.450101
 21
91.592196
 31
0.0
  0
LINE
  5
484
100
AcDbEntity
  8
0
370
    -3
390
0
  6
Continuous
100
AcDbLine
 10
-401.114009
 20
90.380527
 30
0.0
 11
-400.702655
 21
90.964609
 31
0.0
  0
LINE
  5
485
100
AcDbEntity
  8
0
370
    -3
390
0
  6
Continuous
100
AcDbLine
 10
-401.670152
 20
89.859846
 30
0.0
 11
-401.114009
 21
90.380527
 31
0.0
  0
LINE
  5
486
100
AcDbEntity
  8
0
370
    -3
390
0
  6
Continuous
100
AcDbLine
 10
-409.61589
 20
90.380527
 30
0.0
 11
-409.059746
 21
89.859846
 31
0.0
  0
LINE
  5
487
100
AcDbEntity
  8
0
370
    -3
390
0
  6
Continuous
100
AcDbLine
 10
-410.027244
 20
90.964609
 30
0.0
 11
-409.61589
 21
90.380527
 31
0.0
  0
LINE
  5
488
100
AcDbEntity
  8
0
370
    -3
390
0
  6
Continuous
100
AcDbLine
 10
-410.279798
 20
91.592196
 30
0.0
 11
-410.027244
 21
90.964609
 31
0.0
  0
LINE
  5
489
100
AcDbEntity
  8
0
370
    -3
390
0
  6
Continuous
100
AcDbLine
 10
-410.364949
 20
92.241912
 30
0.0
 11
-410.279798
 21
91.592196
 31
0.0
  0
LINE
  5
48A
100
AcDbEntity
  8
0
370
    -3
390
0
  6
Continuous
100
AcDbLine
 10
-401.932201
 20
90.552215
 30
0.0
 11
-401.864949
 21
91.139708
 31
0.0
  0
LINE
  5
48B
100
AcDbEntity
  8
0
370
    -3
390
0
  6
Continuous
100
AcDbLine
 10
-402.131371
 20
89.987299
 30
0.0
 11
-401.932201
 21
90.552215
 31
0.0
  0
LINE
  5
48C
100
AcDbEntity
  8
0
370
    -3
390
0
  6
Continuous
100
AcDbLine
 10
-402.454806
 20
89.466669
 30
0.0
 11
-402.131371
 21
89.987299
 31
0.0
  0
LINE
  5
48D
100
AcDbEntity
  8
0
370
    -3
390
0
  6
Continuous
100
AcDbLine
 10
-402.890075
 20
89.010333
 30
0.0
 11
-402.454806
 21
89.466669
 31
0.0
  0
LINE
  5
48E
100
AcDbEntity
  8
0
370
    -3
390
0
  6
Continuous
100
AcDbLine
 10
-403.420453
 20
88.635828
 30
0.0
 11
-402.890075
 21
89.010333
 31
0.0
  0
LINE
  5
48F
100
AcDbEntity
  8
0
370
    -3
390
0
  6
Continuous
100
AcDbLine
 10
-404.025557
 20
88.357545
 30
0.0
 11
-403.420453
 21
88.635828
 31
0.0
  0
LINE
  5
490
100
AcDbEntity
  8
0
370
    -3
390
0
  6
Continuous
100
AcDbLine
 10
-404.682133
 20
88.18618
 30
0.0
 11
-404.025557
 21
88.357545
 31
0.0
  0
LINE
  5
491
100
AcDbEntity
  8
0
370
    -3
390
0
  6
Continuous
100
AcDbLine
 10
-405.364949
 20
88.128317
 30
0.0
 11
-404.682133
 21
88.18618
 31
0.0
  0
LINE
  5
492
100
AcDbEntity
  8
0
370
    -3
390
0
  6
Continuous
100
AcDbLine
 10
-406.047765
 20
88.18618
 30
0.0
 11
-405.364949
 21
88.128317
 31
0.0
  0
LINE
  5
493
100
AcDbEntity
  8
0
370
    -3
390
0
  6
Continuous
100
AcDbLine
 10
-406.704341
 20
88.357545
 30
0.0
 11
-406.047765
 21
88.18618
 31
0.0
  0
LINE
  5
494
100
AcDbEntity
  8
0
370
    -3
390
0
  6
Continuous
100
AcDbLine
 10
-407.309445
 20
88.635828
 30
0.0
 11
-406.704341
 21
88.357545
 31
0.0
  0
LINE
  5
495
100
AcDbEntity
  8
0
370
    -3
390
0
  6
Continuous
100
AcDbLine
 10
-407.839823
 20
89.010333
 30
0.0
 11
-407.309445
 21
88.635828
 31
0.0
  0
LINE
  5
496
100
AcDbEntity
  8
0
370
    -3
390
0
  6
Continuous
100
AcDbLine
 10
-408.275093
 20
89.466669
 30
0.0
 11
-407.839823
 21
89.010333
 31
0.0
  0
LINE
  5
497
100
AcDbEntity
  8
0
370
    -3
390
0
  6
Continuous
100
AcDbLine
 10
-408.598528
 20
89.987299
 30
0.0
 11
-408.275093
 21
89.466669
 31
0.0
  0
LINE
  5
498
100
AcDbEntity
  8
0
370
    -3
390
0
  6
Continuous
100
AcDbLine
 10
-408.797698
 20
90.552215
 30
0.0
 11
-408.598528
 21
89.987299
 31
0.0
  0
LINE
  5
499
100
AcDbEntity
  8
0
370
    -3
390
0
  6
Continuous
100
AcDbLine
 10
-408.864949
 20
91.139708
 30
0.0
 11
-408.797698
 21
90.552215
 31
0.0
  0
LINE
  5
49A
100
AcDbEntity
  8
0
370
    -3
390
0
  6
Continuous
100
AcDbLine
 10
-408.797698
 20
91.727202
 30
0.0
 11
-408.864949
 21
91.139708
 31
0.0
  0
LINE
  5
49B
100
AcDbEntity
  8
0
370
    -3
390
0
  6
Continuous
100
AcDbLine
 10
-408.598528
 20
92.292118
 30
0.0
 11
-408.797698
 21
91.727202
 31
0.0
  0
LINE
  5
49C
100
AcDbEntity
  8
0
370
    -3
390
0
  6
Continuous
100
AcDbLine
 10
-408.275093
 20
92.812748
 30
0.0
 11
-408.598528
 21
92.292118
 31
0.0
  0
LINE
  5
49D
100
AcDbEntity
  8
0
370
    -3
390
0
  6
Continuous
100
AcDbLine
 10
-407.839823
 20
93.269084
 30
0.0
 11
-408.275093
 21
92.812748
 31
0.0
  0
LINE
  5
49E
100
AcDbEntity
  8
0
370
    -3
390
0
  6
Continuous
100
AcDbLine
 10
-407.309445
 20
93.643589
 30
0.0
 11
-407.839823
 21
93.269084
 31
0.0
  0
LINE
  5
49F
100
AcDbEntity
  8
0
370
    -3
390
0
  6
Continuous
100
AcDbLine
 10
-406.704341
 20
93.921872
 30
0.0
 11
-407.309445
 21
93.643589
 31
0.0
  0
LINE
  5
4A0
100
AcDbEntity
  8
0
370
    -3
390
0
  6
Continuous
100
AcDbLine
 10
-406.047765
 20
94.093237
 30
0.0
 11
-406.704341
 21
93.921872
 31
0.0
  0
LINE
  5
4A1
100
AcDbEntity
  8
0
370
    -3
390
0
  6
Continuous
100
AcDbLine
 10
-405.364949
 20
94.1511
 30
0.0
 11
-406.047765
 21
94.093237
 31
0.0
  0
LINE
  5
4A2
100
AcDbEntity
  8
0
370
    -3
390
0
  6
Continuous
100
AcDbLine
 10
-404.682133
 20
94.093237
 30
0.0
 11
-405.364949
 21
94.1511
 31
0.0
  0
LINE
  5
4A3
100
AcDbEntity
  8
0
370
    -3
390
0
  6
Continuous
100
AcDbLine
 10
-404.025557
 20
93.921872
 30
0.0
 11
-404.682133
 21
94.093237
 31
0.0
  0
LINE
  5
4A4
100
AcDbEntity
  8
0
370
    -3
390
0
  6
Continuous
100
AcDbLine
 10
-403.420453
 20
93.643589
 30
0.0
 11
-404.025557
 21
93.921872
 31
0.0
  0
LINE
  5
4A5
100
AcDbEntity
  8
0
370
    -3
390
0
  6
Continuous
100
AcDbLine
 10
-402.890075
 20
93.269084
 30
0.0
 11
-403.420453
 21
93.643589
 31
0.0
  0
LINE
  5
4A6
100
AcDbEntity
  8
0
370
    -3
390
0
  6
Continuous
100
AcDbLine
 10
-402.454806
 20
92.812748
 30
0.0
 11
-402.890075
 21
93.269084
 31
0.0
  0
LINE
  5
4A7
100
AcDbEntity
  8
0
370
    -3
390
0
  6
Continuous
100
AcDbLine
 10
-402.131371
 20
92.292118
 30
0.0
 11
-402.454806
 21
92.812748
 31
0.0
  0
LINE
  5
4A8
100
AcDbEntity
  8
0
370
    -3
390
0
  6
Continuous
100
AcDbLine
 10
-401.932201
 20
91.727202
 30
0.0
 11
-402.131371
 21
92.292118
 31
0.0
  0
LINE
  5
4A9
100
AcDbEntity
  8
0
370
    -3
390
0
  6
Continuous
100
AcDbLine
 10
-401.864949
 20
91.139708
 30
0.0
 11
-401.932201
 21
91.727202
 31
0.0
  0
LINE
  5
4AA
100
AcDbEntity
  8
0
370
    -3
390
0
  6
Continuous
100
AcDbLine
 10
-408.520326
 20
89.407571
 30
0.0
 11
-407.860755
 21
89.028496
 31
0.0
  0
LINE
  5
4AB
100
AcDbEntity
  8
0
370
    -3
390
0
  6
Continuous
100
AcDbLine
 10
-409.067328
 20
89.867582
 30
0.0
 11
-408.520326
 21
89.407571
 31
0.0
  0
LINE
  5
4AC
100
AcDbEntity
  8
0
370
    -3
390
0
  6
Continuous
100
AcDbLine
 10
-409.482245
 20
90.392116
 30
0.0
 11
-409.067328
 21
89.867582
 31
0.0
  0
LINE
  5
4AD
100
AcDbEntity
  8
0
370
    -3
390
0
  6
Continuous
100
AcDbLine
 10
-409.750275
 20
90.962463
 30
0.0
 11
-409.482245
 21
90.392116
 31
0.0
  0
LINE
  5
4AE
100
AcDbEntity
  8
0
370
    -3
390
0
  6
Continuous
100
AcDbLine
 10
-409.861856
 20
91.558273
 30
0.0
 11
-409.750275
 21
90.962463
 31
0.0
  0
LINE
  5
4AF
100
AcDbEntity
  8
0
370
    -3
390
0
  6
Continuous
100
AcDbLine
 10
-409.813008
 20
92.158291
 30
0.0
 11
-409.861856
 21
91.558273
 31
0.0
  0
LINE
  5
4B0
100
AcDbEntity
  8
0
370
    -3
390
0
  6
Continuous
100
AcDbLine
 10
-409.605473
 20
92.741112
 30
0.0
 11
-409.813008
 21
92.158291
 31
0.0
  0
LINE
  5
4B1
100
AcDbEntity
  8
0
370
    -3
390
0
  6
Continuous
100
AcDbLine
 10
-409.246654
 20
93.285942
 30
0.0
 11
-409.605473
 21
92.741112
 31
0.0
  0
LINE
  5
4B2
100
AcDbEntity
  8
0
370
    -3
390
0
  6
Continuous
100
AcDbLine
 10
-408.749354
 20
93.773344
 30
0.0
 11
-409.246654
 21
93.285942
 31
0.0
  0
LINE
  5
4B3
100
AcDbEntity
  8
0
370
    -3
390
0
  6
Continuous
100
AcDbLine
 10
-408.131313
 20
94.185931
 30
0.0
 11
-408.749354
 21
93.773344
 31
0.0
  0
LINE
  5
4B4
100
AcDbEntity
  8
0
370
    -3
390
0
  6
Continuous
100
AcDbLine
 10
-407.41458
 20
94.508983
 30
0.0
 11
-408.131313
 21
94.185931
 31
0.0
  0
LINE
  5
4B5
100
AcDbEntity
  8
0
370
    -3
390
0
  6
Continuous
100
AcDbLine
 10
-406.624726
 20
94.730974
 30
0.0
 11
-407.41458
 21
94.508983
 31
0.0
  0
LINE
  5
4B6
100
AcDbEntity
  8
0
370
    -3
390
0
  6
Continuous
100
AcDbLine
 10
-405.789929
 20
94.843986
 30
0.0
 11
-406.624726
 21
94.730974
 31
0.0
  0
LINE
  5
4B7
100
AcDbEntity
  8
0
370
    -3
390
0
  6
Continuous
100
AcDbLine
 10
-404.93997
 20
94.843986
 30
0.0
 11
-405.789929
 21
94.843986
 31
0.0
  0
LINE
  5
4B8
100
AcDbEntity
  8
0
370
    -3
390
0
  6
Continuous
100
AcDbLine
 10
-404.105172
 20
94.730974
 30
0.0
 11
-404.93997
 21
94.843986
 31
0.0
  0
LINE
  5
4B9
100
AcDbEntity
  8
0
370
    -3
390
0
  6
Continuous
100
AcDbLine
 10
-403.315318
 20
94.508983
 30
0.0
 11
-404.105172
 21
94.730974
 31
0.0
  0
LINE
  5
4BA
100
AcDbEntity
  8
0
370
    -3
390
0
  6
Continuous
100
AcDbLine
 10
-402.598585
 20
94.185931
 30
0.0
 11
-403.315318
 21
94.508983
 31
0.0
  0
LINE
  5
4BB
100
AcDbEntity
  8
0
370
    -3
390
0
  6
Continuous
100
AcDbLine
 10
-401.980545
 20
93.773344
 30
0.0
 11
-402.598585
 21
94.185931
 31
0.0
  0
LINE
  5
4BC
100
AcDbEntity
  8
0
370
    -3
390
0
  6
Continuous
100
AcDbLine
 10
-401.483244
 20
93.285942
 30
0.0
 11
-401.980545
 21
93.773344
 31
0.0
  0
LINE
  5
4BD
100
AcDbEntity
  8
0
370
    -3
390
0
  6
Continuous
100
AcDbLine
 10
-401.124426
 20
92.741112
 30
0.0
 11
-401.483244
 21
93.285942
 31
0.0
  0
LINE
  5
4BE
100
AcDbEntity
  8
0
370
    -3
390
0
  6
Continuous
100
AcDbLine
 10
-400.91689
 20
92.158291
 30
0.0
 11
-401.124426
 21
92.741112
 31
0.0
  0
LINE
  5
4BF
100
AcDbEntity
  8
0
370
    -3
390
0
  6
Continuous
100
AcDbLine
 10
-400.868042
 20
91.558273
 30
0.0
 11
-400.91689
 21
92.158291
 31
0.0
  0
LINE
  5
4C0
100
AcDbEntity
  8
0
370
    -3
390
0
  6
Continuous
100
AcDbLine
 10
-400.979623
 20
90.962463
 30
0.0
 11
-400.868042
 21
91.558273
 31
0.0
  0
LINE
  5
4C1
100
AcDbEntity
  8
0
370
    -3
390
0
  6
Continuous
100
AcDbLine
 10
-401.247654
 20
90.392116
 30
0.0
 11
-400.979623
 21
90.962463
 31
0.0
  0
LINE
  5
4C2
100
AcDbEntity
  8
0
370
    -3
390
0
  6
Continuous
100
AcDbLine
 10
-401.662571
 20
89.867582
 30
0.0
 11
-401.247654
 21
90.392116
 31
0.0
  0
LINE
  5
4C3
100
AcDbEntity
  8
0
370
    -3
390
0
  6
Continuous
100
AcDbLine
 10
-402.209572
 20
89.407571
 30
0.0
 11
-401.662571
 21
89.867582
 31
0.0
  0
LINE
  5
4C4
100
AcDbEntity
  8
0
370
    -3
390
0
  6
Continuous
100
AcDbLine
 10
-402.869144
 20
89.028496
 30
0.0
 11
-402.209572
 21
89.407571
 31
0.0
  0
LINE
  5
4C5
100
AcDbEntity
  8
0
370
    -3
390
0
  6
Continuous
100
AcDbLine
 10
-405.364949
 20
89.837749
 30
0.0
 11
-403.364949
 21
91.411087
 31
0.0
  0
LINE
  5
4C6
100
AcDbEntity
  8
0
370
    -3
390
0
  6
Continuous
100
AcDbLine
 10
-405.364949
 20
89.837749
 30
0.0
 11
-403.435744
 21
88.627087
 31
0.0
  0
LINE
  5
4C7
100
AcDbEntity
  8
0
370
    -3
390
0
  6
Continuous
100
AcDbLine
 10
-405.364949
 20
89.837749
 30
0.0
 11
-407.364949
 21
91.411087
 31
0.0
  0
LINE
  5
4C8
100
AcDbEntity
  8
0
370
    -3
390
0
  6
Continuous
100
AcDbLine
 10
-405.364949
 20
89.837749
 30
0.0
 11
-407.294154
 21
88.627087
 31
0.0
  0
ARC
  5
4C9
100
AcDbEntity
  8
0
370
    -3
390
0
  6
Continuous
100
AcDbCircle
 10
-413.932982
 20
205.20995
 30
0.0
 40
40.8
100
AcDbArc
 50
90.0
 51
120.0
  0
LINE
  5
4CA
100
AcDbEntity
  8
0
370
    -3
390
0
  6
Continuous
100
AcDbLine
 10
-452.86495
 20
227.650418
 30
0.0
 11
-452.86495
 21
158.70995
 31
0.0
  0
LINE
  5
4CB
100
AcDbEntity
  8
0
370
    -3
390
0
  6
Continuous
100
AcDbLine
 10
-450.96495
 20
230.941315
 30
0.0
 11
-434.332982
 21
240.543786
 31
0.0
  0
ARC
  5
4CC
100
AcDbEntity
  8
0
370
    -3
390
0
  6
Continuous
100
AcDbCircle
 10
-449.06495
 20
227.650418
 30
0.0
 40
3.8
100
AcDbArc
 50
120.0
 51
180.0
  0
LINE
  5
4CD
100
AcDbEntity
  8
0
370
    -3
390
0
  6
Continuous
100
AcDbLine
 10
-413.932982
 20
71.40995
 30
0.0
 11
-379.86495
 21
71.40995
 31
0.0
  0
LINE
  5
4CE
100
AcDbEntity
  8
0
370
    -3
390
0
  6
Continuous
100
AcDbLine
 10
-379.86495
 20
71.40995
 30
0.0
 11
-379.86495
 21
158.70995
 31
0.0
  0
LINE
  5
4CF
100
AcDbEntity
  8
0
370
    -3
390
0
  6
Continuous
100
AcDbLine
 10
-413.932982
 20
246.00995
 30
0.0
 11
-379.86495
 21
246.00995
 31
0.0
  0
LINE
  5
4D0
100
AcDbEntity
  8
0
370
    -3
390
0
  6
Continuous
100
AcDbLine
 10
-379.86495
 20
246.00995
 30
0.0
 11
-379.86495
 21
158.70995
 31
0.0
  0
LINE
  5
4D1
100
AcDbEntity
  8
0
370
    -3
390
0
  6
Continuous
100
AcDbLine
 10
-209.864949
 20
242.20995
 30
0.0
 11
-379.86495
 21
242.20995
 31
0.0
  0
LINE
  5
4D2
100
AcDbEntity
  8
0
370
    -3
390
0
  6
Continuous
100
AcDbLine
 10
-209.864949
 20
241.70995
 30
0.0
 11
-379.86495
 21
241.70995
 31
0.0
  0
LINE
  5
4D3
100
AcDbEntity
  8
0
370
    -3
390
0
  6
Continuous
100
AcDbLine
 10
-209.864949
 20
241.20995
 30
0.0
 11
-379.86495
 21
241.20995
 31
0.0
  0
LINE
  5
4D4
100
AcDbEntity
  8
0
370
    -3
390
0
  6
Continuous
100
AcDbLine
 10
-209.864949
 20
238.70995
 30
0.0
 11
-379.86495
 21
238.70995
 31
0.0
  0
LINE
  5
4D5
100
AcDbEntity
  8
0
370
    -3
390
0
  6
Continuous
100
AcDbLine
 10
-209.864949
 20
233.70995
 30
0.0
 11
-379.86495
 21
233.70995
 31
0.0
  0
LINE
  5
4D6
100
AcDbEntity
  8
0
370
    -3
390
0
  6
Continuous
100
AcDbLine
 10
-209.864949
 20
224.589162
 30
0.0
 11
-379.86495
 21
224.589162
 31
0.0
  0
LINE
  5
4D7
100
AcDbEntity
  8
0
370
    -3
390
0
  6
Continuous
100
AcDbLine
 10
-209.864949
 20
192.648177
 30
0.0
 11
-379.86495
 21
192.648177
 31
0.0
  0
LINE
  5
4D8
100
AcDbEntity
  8
0
370
    -3
390
0
  6
Continuous
100
AcDbLine
 10
-209.864949
 20
194.814888
 30
0.0
 11
-379.86495
 21
194.814888
 31
0.0
  0
LINE
  5
4D9
100
AcDbEntity
  8
0
370
    -3
390
0
  6
Continuous
100
AcDbLine
 10
-209.864949
 20
204.847674
 30
0.0
 11
-379.86495
 21
204.847674
 31
0.0
  0
LINE
  5
4DA
100
AcDbEntity
  8
0
370
    -3
390
0
  6
Continuous
100
AcDbLine
 10
-209.864949
 20
202.625347
 30
0.0
 11
-379.86495
 21
202.625347
 31
0.0
  0
LINE
  5
4DB
100
AcDbEntity
  8
0
370
    -3
390
0
  6
Continuous
100
AcDbLine
 10
-209.864949
 20
217.518094
 30
0.0
 11
-379.86495
 21
217.518094
 31
0.0
  0
LINE
  5
4DC
100
AcDbEntity
  8
0
370
    -3
390
0
  6
Continuous
100
AcDbLine
 10
-209.864949
 20
182.70995
 30
0.0
 11
-379.86495
 21
182.70995
 31
0.0
  0
LINE
  5
4DD
100
AcDbEntity
  8
0
370
    -3
390
0
  6
Continuous
100
AcDbLine
 10
-209.864949
 20
75.70995
 30
0.0
 11
-379.86495
 21
75.70995
 31
0.0
  0
LINE
  5
4DE
100
AcDbEntity
  8
0
370
    -3
390
0
  6
Continuous
100
AcDbLine
 10
-209.864949
 20
76.20995
 30
0.0
 11
-379.86495
 21
76.20995
 31
0.0
  0
LINE
  5
4DF
100
AcDbEntity
  8
0
370
    -3
390
0
  6
Continuous
100
AcDbLine
 10
-209.864949
 20
78.70995
 30
0.0
 11
-379.86495
 21
78.70995
 31
0.0
  0
LINE
  5
4E0
100
AcDbEntity
  8
0
370
    -3
390
0
  6
Continuous
100
AcDbLine
 10
-209.864949
 20
83.70995
 30
0.0
 11
-379.86495
 21
83.70995
 31
0.0
  0
LINE
  5
4E1
100
AcDbEntity
  8
0
370
    -3
390
0
  6
Continuous
100
AcDbLine
 10
-209.864949
 20
92.830737
 30
0.0
 11
-379.86495
 21
92.830737
 31
0.0
  0
LINE
  5
4E2
100
AcDbEntity
  8
0
370
    -3
390
0
  6
Continuous
100
AcDbLine
 10
-209.864949
 20
124.771722
 30
0.0
 11
-379.86495
 21
124.771722
 31
0.0
  0
LINE
  5
4E3
100
AcDbEntity
  8
0
370
    -3
390
0
  6
Continuous
100
AcDbLine
 10
-209.864949
 20
134.70995
 30
0.0
 11
-379.86495
 21
134.70995
 31
0.0
  0
LINE
  5
4E4
100
AcDbEntity
  8
0
370
    -3
390
0
  6
Continuous
100
AcDbLine
 10
-209.864949
 20
75.20995
 30
0.0
 11
-379.86495
 21
75.20995
 31
0.0
  0
LINE
  5
4E5
100
AcDbEntity
  8
0
370
    -3
390
0
  6
Continuous
100
AcDbLine
 10
-209.864949
 20
122.605011
 30
0.0
 11
-379.86495
 21
122.605011
 31
0.0
  0
LINE
  5
4E6
100
AcDbEntity
  8
0
370
    -3
390
0
  6
Continuous
100
AcDbLine
 10
-209.864949
 20
114.794552
 30
0.0
 11
-379.86495
 21
114.794552
 31
0.0
  0
LINE
  5
4E7
100
AcDbEntity
  8
0
370
    -3
390
0
  6
Continuous
100
AcDbLine
 10
-209.864949
 20
112.572225
 30
0.0
 11
-379.86495
 21
112.572225
 31
0.0
  0
LINE
  5
4E8
100
AcDbEntity
  8
0
370
    -3
390
0
  6
Continuous
100
AcDbLine
 10
-209.864949
 20
99.901805
 30
0.0
 11
-379.86495
 21
99.901805
 31
0.0
  0
LINE
  5
4E9
100
AcDbEntity
  8
0
370
    -3
390
0
  6
Continuous
100
AcDbLine
 10
-547.11581
 20
-179.862939
 30
0.0
 11
-544.903704
 21
-179.862939
 31
0.0
  0
LINE
  5
4EA
100
AcDbEntity
  8
0
370
    -3
390
0
  6
Continuous
100
AcDbLine
 10
-722.903675
 20
-179.862939
 30
0.0
 11
-720.691598
 21
-179.862939
 31
0.0
  0
LINE
  5
4EB
100
AcDbEntity
  8
0
370
    -3
390
0
  6
Continuous
100
AcDbLine
 10
-566.903704
 20
-230.170159
 30
0.0
 11
-566.903704
 21
-289.523248
 31
0.0
  0
ARC
  5
4EC
100
AcDbEntity
  8
0
370
    -3
390
0
  6
Continuous
100
AcDbCircle
 10
-649.403588
 20
-64.862939
 30
0.0
 40
5.0
100
AcDbArc
 50
179.99993
 51
270.0
  0
LINE
  5
4ED
100
AcDbEntity
  8
0
370
    -3
390
0
  6
Continuous
100
AcDbLine
 10
-649.403588
 20
-69.862939
 30
0.0
 11
-618.403819
 21
-69.862939
 31
0.0
  0
LINE
  5
4EE
100
AcDbEntity
  8
0
370
    -3
390
0
  6
Continuous
100
AcDbLine
 10
-209.864949
 20
75.20995
 30
0.0
 11
-209.864949
 21
136.20995
 31
0.0
  0
LINE
  5
4EF
100
AcDbEntity
  8
0
370
    -3
390
0
  6
Continuous
100
AcDbLine
 10
-209.864949
 20
181.20995
 30
0.0
 11
-209.864949
 21
242.20995
 31
0.0
  0
INSERT
  5
4FB
100
AcDbEntity
  8
0
390
0
100
AcDbBlockReference
  2
ZU_SYM__USR_MELCAD_MD_SYM_SYM_SYM2_00
 10
-217.864949
 20
169.20995
 30
0.0
 50
360.0
  0
LINE
  5
4FC
100
AcDbEntity
  8
0
370
    -3
390
0
  6
CENTER
100
AcDbLine
 10
-231.044494
 20
169.20995
 30
0.0
 11
-198.304705
 21
169.20995
 31
0.0
  0
INSERT
  5
508
100
AcDbEntity
  8
0
390
0
100
AcDbBlockReference
  2
ZU_SYM__USR_MELCAD_MD_SYM_SYM_SYM1_00
 10
-217.864949
 20
148.20995
 30
0.0
 41
-1.0
 50
180.0
  0
LINE
  5
509
100
AcDbEntity
  8
0
370
    -3
390
0
  6
Continuous
100
AcDbLine
 10
-209.864949
 20
181.20995
 30
0.0
 11
-209.864949
 21
229.709854
 31
0.0
  0
LINE
  5
50A
100
AcDbEntity
  8
0
370
    -3
390
0
  6
Continuous
100
AcDbLine
 10
-217.864949
 20
181.20995
 30
0.0
 11
-208.864949
 21
181.20995
 31
0.0
  0
LINE
  5
50B
100
AcDbEntity
  8
0
370
    -3
390
0
  6
Continuous
100
AcDbLine
 10
-217.864949
 20
136.20995
 30
0.0
 11
-208.864949
 21
136.20995
 31
0.0
  0
LINE
  5
50C
100
AcDbEntity
  8
0
370
    -3
390
0
  6
Continuous
100
AcDbLine
 10
-217.864949
 20
136.20995
 30
0.0
 11
-217.864949
 21
181.20995
 31
0.0
  0
LINE
  5
50D
100
AcDbEntity
  8
0
370
    -3
390
0
  6
CENTER
100
AcDbLine
 10
-231.044494
 20
148.20995
 30
0.0
 11
-198.304705
 21
148.20995
 31
0.0
  0
ARC
  5
50E
100
AcDbEntity
  8
0
370
    -3
390
0
  6
Continuous
100
AcDbCircle
 10
-205.864949
 20
178.20995
 30
0.0
 40
3.0
100
AcDbArc
 50
90.0
 51
180.0
  0
ARC
  5
50F
100
AcDbEntity
  8
0
370
    -3
390
0
  6
Continuous
100
AcDbCircle
 10
-205.864949
 20
139.20995
 30
0.0
 40
3.0
100
AcDbArc
 50
180.0
 51
270.0
  0
LINE
  5
510
100
AcDbEntity
  8
0
370
    -3
390
0
  6
Continuous
100
AcDbLine
 10
-205.864949
 20
181.20995
 30
0.0
 11
-193.864949
 21
181.20995
 31
0.0
  0
LINE
  5
511
100
AcDbEntity
  8
0
370
    -3
390
0
  6
Continuous
100
AcDbLine
 10
-205.864949
 20
136.20995
 30
0.0
 11
-193.864949
 21
136.20995
 31
0.0
  0
LINE
  5
512
100
AcDbEntity
  8
0
370
    -3
390
0
  6
Continuous
100
AcDbLine
 10
-208.864949
 20
136.20995
 30
0.0
 11
-208.864949
 21
181.20995
 31
0.0
  0
LINE
  5
513
100
AcDbEntity
  8
0
370
    -3
390
0
  6
Continuous
100
AcDbLine
 10
-193.953511
 20
240.798512
 30
0.0
 11
-191.864949
 21
238.70995
 31
0.0
  0
ARC
  5
514
100
AcDbEntity
  8
0
370
    -3
390
0
  6
Continuous
100
AcDbCircle
 10
-195.864949
 20
240.20995
 30
0.0
 40
2.0
100
AcDbArc
 50
0.0
 51
90.0
  0
LINE
  5
515
100
AcDbEntity
  8
0
370
    -3
390
0
  6
Continuous
100
AcDbLine
 10
-206.864949
 20
242.20995
 30
0.0
 11
-195.864949
 21
242.20995
 31
0.0
  0
LINE
  5
516
100
AcDbEntity
  8
0
370
    -3
390
0
  6
Continuous
100
AcDbLine
 10
-193.864949
 20
158.70995
 30
0.0
 11
-193.864949
 21
240.20995
 31
0.0
  0
LINE
  5
517
100
AcDbEntity
  8
0
370
    -3
390
0
  6
Continuous
100
AcDbLine
 10
-208.864949
 20
181.20995
 30
0.0
 11
-208.864949
 21
240.20995
 31
0.0
  0
ARC
  5
518
100
AcDbEntity
  8
0
370
    -3
390
0
  6
Continuous
100
AcDbCircle
 10
-209.864949
 20
230.709854
 30
0.0
 40
1.0
100
AcDbArc
 50
270.0
 51
0.0
  0
ARC
  5
519
100
AcDbEntity
  8
0
370
    -3
390
0
  6
Continuous
100
AcDbCircle
 10
-206.864949
 20
240.20995
 30
0.0
 40
2.0
100
AcDbArc
 50
90.0
 51
180.0
  0
LINE
  5
51A
100
AcDbEntity
  8
0
370
    -3
390
0
  6
Continuous
100
AcDbLine
 10
-193.864949
 20
158.70995
 30
0.0
 11
-193.864949
 21
77.20995
 31
0.0
  0
LINE
  5
51B
100
AcDbEntity
  8
0
370
    -3
390
0
  6
Continuous
100
AcDbLine
 10
-209.864949
 20
136.20995
 30
0.0
 11
-209.864949
 21
87.710045
 31
0.0
  0
LINE
  5
51C
100
AcDbEntity
  8
0
370
    -3
390
0
  6
Continuous
100
AcDbLine
 10
-208.864949
 20
136.20995
 30
0.0
 11
-208.864949
 21
77.20995
 31
0.0
  0
ARC
  5
51D
100
AcDbEntity
  8
0
370
    -3
390
0
  6
Continuous
100
AcDbCircle
 10
-206.864949
 20
77.20995
 30
0.0
 40
2.0
100
AcDbArc
 50
180.0
 51
270.0
  0
LINE
  5
51E
100
AcDbEntity
  8
0
370
    -3
390
0
  6
Continuous
100
AcDbLine
 10
-206.864949
 20
75.20995
 30
0.0
 11
-195.864949
 21
75.20995
 31
0.0
  0
ARC
  5
51F
100
AcDbEntity
  8
0
370
    -3
390
0
  6
Continuous
100
AcDbCircle
 10
-209.864949
 20
86.710045
 30
0.0
 40
1.0
100
AcDbArc
 50
0.0
 51
90.0
  0
LINE
  5
520
100
AcDbEntity
  8
0
370
    -3
390
0
  6
Continuous
100
AcDbLine
 10
-193.953511
 20
76.621387
 30
0.0
 11
-191.864949
 21
78.70995
 31
0.0
  0
ARC
  5
521
100
AcDbEntity
  8
0
370
    -3
390
0
  6
Continuous
100
AcDbCircle
 10
-195.864949
 20
77.20995
 30
0.0
 40
2.0
100
AcDbArc
 50
270.0
 51
0.0
  0
ENDSEC
  0
SECTION
  2
OBJECTS
  0
DICTIONARY
  5
19
100
AcDbDictionary
280
     0
281
     1
  3
ACAD_GROUP
350
1A
  3
ACAD_MLINESTYLE
350
1B
  3
ACAD_LAYOUT
350
1E
  3
ACAD_PLOTSETTINGS
350
22
  3
ACAD_PLOTSTYLENAME
350
1F
  3
ACAD_WIPEOUT_VARS
350
23
  3
DWGPROPS
350
522
  0
DICTIONARY
  5
1A
102
{ACAD_REACTORS
330
19
102
}
100
AcDbDictionary
280
     0
281
     1
  0
DICTIONARY
  5
1B
102
{ACAD_REACTORS
330
19
102
}
100
AcDbDictionary
280
     0
281
     1
  3
Standard
350
1C
  0
MLINESTYLE
  5
1C
102
{ACAD_REACTORS
330
1B
102
}
100
AcDbMlineStyle
  2
Standard
 70
     0
  3

 62
     0
 51
90.0
 52
90.0
 71
     2
 49
0.5
 62
   256
  6
ByLayer
 49
-0.5
 62
   256
  6
ByLayer
  0
ACDBDICTIONARYWDFLT
  5
1F
102
{ACAD_REACTORS
330
19
102
}
100
AcDbDictionary
281
     1
  3
Normal
350
1D
100
AcDbDictionaryWithDefault
340
1D
  0
ACDBPLACEHOLDER
  5
1D
102
{ACAD_REACTORS
330
1F
102
}
  0
LAYOUT
  5
20
102
{ACAD_REACTORS
330
1E
102
}
100
AcDbPlotSettings
  1

  2

  4

  6

 40
0.0
 41
0.0
 42
0.0
 43
0.0
 44
0.0
 45
0.0
 46
0.0
 47
0.0
 48
0.0
 49
0.0
140
0.0
141
0.0
142
1.0
143
1.0
 70
  1024
 72
     0
 73
     0
 74
     0
  7

 75
     0
147
1.0
148
0.0
149
0.0
100
AcDbLayout
  1
Model
 70
     0
 71
     0
 10
0.0
 20
0.0
 11
0.0
 21
0.0
 12
0.0
 22
0.0
 32
0.0
 14
0.0
 24
0.0
 34
0.0
 15
0.0
 25
0.0
 35
0.0
146
0.0
 13
0.0
 23
0.0
 33
0.0
 16
0.0
 26
0.0
 36
0.0
 17
0.0
 27
0.0
 37
0.0
 76
     0
330
A
331
0
345
0
346
0
  0
LAYOUT
  5
21
102
{ACAD_REACTORS
330
1E
102
}
100
AcDbPlotSettings
  1

  2

  4

  6

 40
0.0
 41
0.0
 42
0.0
 43
0.0
 44
0.0
 45
0.0
 46
0.0
 47
0.0
 48
0.0
 49
0.0
140
0.0
141
0.0
142
1.0
143
1.0
 70
     0
 72
     0
 73
     0
 74
     0
  7

 75
     0
147
1.0
148
0.0
149
0.0
100
AcDbLayout
  1
Layout1
 70
     0
 71
     0
 10
0.0
 20
0.0
 11
0.0
 21
0.0
 12
0.0
 22
0.0
 32
0.0
 14
0.0
 24
0.0
 34
0.0
 15
0.0
 25
0.0
 35
0.0
146
0.0
 13
0.0
 23
0.0
 33
0.0
 16
0.0
 26
0.0
 36
0.0
 17
0.0
 27
0.0
 37
0.0
 76
     0
330
B
331
0
345
0
346
0
  0
DICTIONARY
  5
1E
102
{ACAD_REACTORS
330
19
102
}
100
AcDbDictionary
280
     0
281
     1
  3
Layout1
350
21
  3
Model
350
20
  0
DICTIONARY
  5
22
102
{ACAD_REACTORS
330
19
102
}
100
AcDbDictionary
280
     0
281
     1
  0
WIPEOUTVARIABLES
  5
23
100
AcDbWipeoutVariables
 70
     1
  0
XRECORD
  5
522
100
AcDbXrecord
280
     1
  1
DWGPROPS COOKIE
  2

  3

  4

  6

  7

  8
YP81315
  9

300
=
301
=
302
=
303
=
304
=
305
=
306
=
307
=
308
=
309
=
 40
0.0
 41
2456812.584896
 42
2456812.584896
  1

 90
        0
  0
ENDSEC
  0
EOF
