  0
SECTION
  2
HEADER
  9
$ACADVER
  1
AC1015
  9
$ACADMAINTVER
 70
     6
  9
$DWGCODEPAGE
  3
ANSI_932
  9
$INSBASE
 10
0.0
 20
0.0
 30
0.0
  9
$EXTMIN
 10
1.000000E+20
 20
1.000000E+20
 30
1.000000E+20
  9
$EXTMAX
 10
-1.000000E+20
 20
-1.000000E+20
 30
-1.000000E+20
  9
$LIMMIN
 10
0.0
 20
0.0
  9
$LIMMAX
 10
0.0
 20
0.0
  9
$ORTHOMODE
 70
     0
  9
$REGENMODE
 70
     1
  9
$FILLMODE
 70
     1
  9
$QTEXTMODE
 70
     0
  9
$MIRRTEXT
 70
     1
  9
$LTSCALE
 40
1.0
  9
$ATTMODE
 70
     1
  9
$TEXTSIZE
 40
3.3
  9
$TRACEWID
 40
0.05
  9
$TEXTSTYLE
  7
Standard
  9
$CLAYER
  8
0
  9
$CELTYPE
  6
Continuous
  9
$CECOLOR
 62
   256
  9
$CELTSCALE
 40
1.0
  9
$DISPSILH
 70
     0
  9
$DIMSCALE
 40
1.0
  9
$DIMASZ
 40
1.931852
  9
$DIMEXO
 40
1.0
  9
$DIMDLI
 40
0.38
  9
$DIMRND
 40
0.0
  9
$DIMDLE
 40
0.0
  9
$DIMEXE
 40
2.0
  9
$DIMTP
 40
0.0
  9
$DIMTM
 40
0.0
  9
$DIMTXT
 40
2.8
  9
$DIMCEN
 40
0.09
  9
$DIMTSZ
 40
0.0
  9
$DIMTOL
 70
     0
  9
$DIMLIM
 70
     0
  9
$DIMTIH
 70
     1
  9
$DIMTOH
 70
     1
  9
$DIMSE1
 70
     0
  9
$DIMSE2
 70
     0
  9
$DIMTAD
 70
     1
  9
$DIMZIN
 70
     0
  9
$DIMBLK
  1

  9
$DIMASO
 70
     1
  9
$DIMSHO
 70
     1
  9
$DIMPOST
  1

  9
$DIMAPOST
  1

  9
$DIMALT
 70
     0
  9
$DIMALTD
 70
     2
  9
$DIMALTF
 40
25.4
  9
$DIMLFAC
 40
1.0
  9
$DIMTOFL
 70
     0
  9
$DIMTVP
 40
0.0
  9
$DIMTIX
 70
     0
  9
$DIMSOXD
 70
     0
  9
$DIMSAH
 70
     0
  9
$DIMBLK1
  1

  9
$DIMBLK2
  1

  9
$DIMSTYLE
  2
Standard
  9
$DIMCLRD
 70
     0
  9
$DIMCLRE
 70
     0
  9
$DIMCLRT
 70
     0
  9
$DIMTFAC
 40
0.714286
  9
$DIMGAP
 40
0.09
  9
$DIMJUST
 70
     0
  9
$DIMSD1
 70
     0
  9
$DIMSD2
 70
     0
  9
$DIMTOLJ
 70
     1
  9
$DIMTZIN
 70
     0
  9
$DIMALTZ
 70
     0
  9
$DIMALTTZ
 70
     0
  9
$DIMUPT
 70
     0
  9
$DIMDEC
 70
     4
  9
$DIMTDEC
 70
     4
  9
$DIMALTU
 70
     2
  9
$DIMALTTD
 70
     2
  9
$DIMTXSTY
  7
Standard
  9
$DIMAUNIT
 70
     0
  9
$DIMADEC
 70
     0
  9
$DIMALTRND
 40
0.0
  9
$DIMAZIN
 70
     0
  9
$DIMDSEP
 70
     0
  9
$DIMATFIT
 70
     3
  9
$DIMFRAC
 70
     0
  9
$DIMLDRBLK
  1

  9
$DIMLUNIT
 70
     2
  9
$DIMLWD
 70
     0
  9
$DIMLWE
 70
     0
  9
$DIMTMOVE
 70
     0
  9
$LUNITS
 70
     2
  9
$LUPREC
 70
     3
  9
$SKETCHINC
 40
0.1
  9
$FILLETRAD
 40
0.0
  9
$AUNITS
 70
     0
  9
$AUPREC
 70
     0
  9
$MENU
  1
acad
  9
$ELEVATION
 40
0.0
  9
$PELEVATION
 40
0.0
  9
$THICKNESS
 40
0.0
  9
$LIMCHECK
 70
     0
  9
$CHAMFERA
 40
0.0
  9
$CHAMFERB
 40
0.0
  9
$CHAMFERC
 40
0.0
  9
$CHAMFERD
 40
0.0
  9
$SKPOLY
 70
     0
  9
$TDCREATE
 40
0.000000000
  9
$TDUCREATE
 40
0.000000000
  9
$TDUPDATE
 40
0.000000000
  9
$TDUUPDATE
 40
0.000000000
  9
$TDINDWG
 40
0.0000000000
  9
$TDUSRTIMER
 40
0.0000000000
  9
$USRTIMER
 70
     1
  9
$ANGBASE
 50
0.0
  9
$ANGDIR
 70
     0
  9
$PDMODE
 70
     0
  9
$PDSIZE
 40
0.0
  9
$PLINEWID
 40
0.0
  9
$SPLFRAME
 70
     0
  9
$SPLINETYPE
 70
     6
  9
$SPLINESEGS
 70
     8
  9
$HANDSEED
  5
4B0
  9
$SURFTAB1
 70
     6
  9
$SURFTAB2
 70
     6
  9
$SURFTYPE
 70
     6
  9
$SURFU
 70
     6
  9
$SURFV
 70
     6
  9
$UCSBASE
  2

  9
$UCSNAME
  2

  9
$UCSORG
 10
0.0
 20
0.0
 30
0.0
  9
$UCSXDIR
 10
1.0
 20
0.0
 30
0.0
  9
$UCSYDIR
 10
0.0
 20
1.0
 30
0.0
  9
$UCSORTHOREF
  2

  9
$UCSORTHOVIEW
 70
     0
  9
$UCSORGTOP
 10
0.0
 20
0.0
 30
0.0
  9
$UCSORGBOTTOM
 10
0.0
 20
0.0
 30
0.0
  9
$UCSORGLEFT
 10
0.0
 20
0.0
 30
0.0
  9
$UCSORGRIGHT
 10
0.0
 20
0.0
 30
0.0
  9
$UCSORGFRONT
 10
0.0
 20
0.0
 30
0.0
  9
$UCSORGBACK
 10
0.0
 20
0.0
 30
0.0
  9
$PUCSBASE
  2

  9
$PUCSNAME
  2

  9
$PUCSORG
 10
0.0
 20
0.0
 30
0.0
  9
$PUCSXDIR
 10
1.0
 20
0.0
 30
0.0
  9
$PUCSYDIR
 10
0.0
 20
1.0
 30
0.0
  9
$PUCSORTHOREF
  2

  9
$PUCSORTHOVIEW
 70
     0
  9
$PUCSORGTOP
 10
0.0
 20
0.0
 30
0.0
  9
$PUCSORGBOTTOM
 10
0.0
 20
0.0
 30
0.0
  9
$PUCSORGLEFT
 10
0.0
 20
0.0
 30
0.0
  9
$PUCSORGRIGHT
 10
0.0
 20
0.0
 30
0.0
  9
$PUCSORGFRONT
 10
0.0
 20
0.0
 30
0.0
  9
$PUCSORGBACK
 10
0.0
 20
0.0
 30
0.0
  9
$USERI1
 70
     0
  9
$USERI2
 70
     0
  9
$USERI3
 70
     0
  9
$USERI4
 70
     0
  9
$USERI5
 70
     0
  9
$USERR1
 40
0.0
  9
$USERR2
 40
0.0
  9
$USERR3
 40
0.0
  9
$USERR4
 40
0.0
  9
$USERR5
 40
0.0
  9
$WORLDVIEW
 70
     1
  9
$SHADEDGE
 70
     3
  9
$SHADEDIF
 70
    70
  9
$TILEMODE
 70
     1
  9
$MAXACTVP
 70
    16
  9
$PINSBASE
 10
0.0
 20
0.0
 30
0.0
  9
$PLIMCHECK
 70
     0
  9
$PEXTMIN
 10
1.000000E+20
 20
1.000000E+20
 30
1.000000E+20
  9
$PEXTMAX
 10
-1.000000E+20
 20
-1.000000E+20
 30
-1.000000E+20
  9
$PLIMMIN
 10
0.0
 20
0.0
  9
$PLIMMAX
 10
12.0
 20
9.0
  9
$UNITMODE
 70
     0
  9
$VISRETAIN
 70
     0
  9
$PLINEGEN
 70
     1
  9
$PSLTSCALE
 70
     0
  9
$TREEDEPTH
 70
  3020
  9
$CMLSTYLE
  2
Standard
  9
$CMLJUST
 70
     0
  9
$CMLSCALE
 40
1.0
  9
$PROXYGRAPHICS
 70
     0
  9
$MEASUREMENT
 70
     0
  9
$CELWEIGHT
370
     0
  9
$ENDCAPS
280
     0
  9
$JOINSTYLE
280
     0
  9
$LWDISPLAY
290
     0
  9
$INSUNITS
 70
     0
  9
$HYPERLINKBASE
  1

  9
$STYLESHEET
  1

  9
$XEDIT
290
     1
  9
$CEPSNTYPE
380
     0
  9
$PSTYLEMODE
290
     1
  9
$FINGERPRINTGUID
  2

  9
$VERSIONGUID
  2

  9
$EXTNAMES
290
     1
  9
$PSVPSCALE
 40
0.0
  0
ENDSEC
  0
SECTION
  2
CLASSES
  0
CLASS
  1
LWPOLYLINE
  2
AcDbPolyline
  3
AutoCAD 2000
 90
        0
280
     0
281
     1
  0
CLASS
  1
IMAGE
  2
AcDbRasterImage
  3
ISM
 90
      127
280
     0
281
     1
  0
CLASS
  1
OLE2FRAME
  2
AcDbOle2Frame
  3
AutoCAD 2000
 90
        0
280
     0
281
     1
  0
CLASS
  1
HATCH
  2
AcDbHatch
  3
AutoCAD 2000
 90
        0
280
     0
281
     1
  0
CLASS
  1
DICTIONARYVAR
  2
AcDbDictionaryVar
  3
AutoCAD 2000
 90
        0
280
     0
281
     0
  0
CLASS
  1
RASTERVARIABLES
  2
AcDbRasterVariables
  3
ISM
 90
        0
280
     0
281
     0
  0
CLASS
  1
IMAGEDEF
  2
AcDbRasterImageDef
  3
ISM
 90
        0
280
     0
281
     0
  0
CLASS
  1
IMAGEDEF_REACTOR
  2
AcDbRasterImageDefReactor
  3
ISM
 90
        1
280
     0
281
     0
  0
CLASS
  1
IDBUFFER
  2
AcDbIdBuffer
  3
AutoCAD 2000
 90
        0
280
     0
281
     0
  0
CLASS
  1
SPATIAL_FILTER
  2
AcDbSpatialFilter
  3
AutoCAD 2000
 90
        0
280
     0
281
     0
  0
CLASS
  1
XRECORD
  2
AcDbXrecord
  3
AutoCAD 2000
 90
        0
280
     0
281
     0
  0
CLASS
  1
SORTENTSTABLE
  2
AcDbSortentsTable
  3
AutoCAD 2000
 90
        0
280
     0
281
     0
  0
CLASS
  1
LAYER_INDEX
  2
AcDbLayerIndex
  3
AutoCAD 2000
 90
        0
280
     0
281
     0
  0
CLASS
  1
SPATIAL_INDEX
  2
AcDbSpatialIndex
  3
AutoCAD 2000
 90
        0
280
     0
281
     0
  0
CLASS
  1
OBJECT_PTR
  2
CAseDLPNTableRecord
  3
"ASE-LPNTableRecord"
 90
        1
280
     0
281
     0
  0
CLASS
  1
LAYOUT
  2
AcDbLayout
  3
AutoCAD 2000
 90
        0
280
     0
281
     0
  0
CLASS
  1
PLOTSETTINGS
  2
AcDbPlotSettings
  3
AutoCAD 2000
 90
        0
280
     0
281
     0
  0
CLASS
  1
ACDBDICTIONARYWDFLT
  2
AcDbDictionaryWithDefault
  3
AutoCAD 2000
 90
        0
280
     0
281
     0
  0
CLASS
  1
ACDBPLACEHOLDER
  2
AcDbPlaceHolder
  3
AutoCAD 2000
 90
        0
280
     0
281
     0
  0
CLASS
  1
VBA_PROJECT
  2
AcDbVbaProject
  3
acadvba
 90
        0
280
     0
281
     0
  0
CLASS
  1
WIPEOUT
  2
AcDbWipeout
  3
WipeOut|AutoCAD Express Tool|expresstools@autodesk.com
 90
      127
280
     0
281
     1
  0
CLASS
  1
WIPEOUTVARIABLES
  2
AcDbWipeoutVariables
  3
WipeOut|AutoCAD Express Tool|expresstools@autodesk.com
 90
        0
280
     0
281
     0
  0
CLASS
  1
RTEXT
  2
RText
  3
RText|AutoCAD Express Tool|expresstools@autodesk.com
 90
        0
280
     0
281
     1
  0
CLASS
  1
ARCALIGNEDTEXT
  2
AcDbArcAlignedText
  3
ATEXT|AutoCAD Express Tool|expresstools@autodesk.com
 90
        0
280
     0
281
     1
  0
ENDSEC
  0
SECTION
  2
TABLES
  0
TABLE
  2
VPORT
  5
7
100
AcDbSymbolTable
 70
     1
  0
VPORT
  5
15
100
AcDbSymbolTableRecord
100
AcDbViewportTableRecord
  2
*ACTIVE
 70
     0
 10
0.0
 20
0.0
 11
1.0
 21
1.0
 12
0.0
 22
0.0
 13
0.0
 23
0.0
 14
1.0
 24
1.0
 15
0.0
 25
0.0
 16
0.0
 26
0.0
 36
1.0
 17
0.0
 27
0.0
 37
0.0
 40
100.0
 41
1.0
 42
50.0
 43
0.0
 44
0.0
 50
0.0
 51
0.0
 71
     0
 72
   100
 73
     1
 74
     1
 75
     0
 76
     0
 77
     0
 78
     0
281
     0
 65
     0
110
0.0
120
0.0
130
0.0
111
1.0
121
0.0
131
0.0
112
0.0
122
1.0
132
0.0
345
0
346
0
 79
     0
146
0.0
  0
ENDTAB
  0
TABLE
  2
LTYPE
  5
4
100
AcDbSymbolTable
 70
     7
  0
LTYPE
  5
11
100
AcDbSymbolTableRecord
100
AcDbLinetypeTableRecord
  2
ByBlock
 70
    64
  3

 72
    65
 73
     0
 40
0.0
  0
LTYPE
  5
12
100
AcDbSymbolTableRecord
100
AcDbLinetypeTableRecord
  2
ByLayer
 70
    64
  3

 72
    65
 73
     0
 40
0.0
  0
LTYPE
  5
13
100
AcDbSymbolTableRecord
100
AcDbLinetypeTableRecord
  2
Continuous
 70
    64
  3
Solid line
 72
    65
 73
     0
 40
0.0
  0
LTYPE
  5
24
100
AcDbSymbolTableRecord
100
AcDbLinetypeTableRecord
  2
DASHED
 70
    64
  3
Dashed __ __ __ __ __ __ __ __ __ __ __ __ __ _
 72
    65
 73
     2
 40
0.75
 49
0.5
 74
     0
 49
-0.25
 74
     0
  0
LTYPE
  5
25
100
AcDbSymbolTableRecord
100
AcDbLinetypeTableRecord
  2
CENTER
 70
    64
  3
Center ____ _ ____ _ ____ _ ____ _ ____ _ ____
 72
    65
 73
     4
 40
1.0
 49
0.5
 74
     0
 49
-0.25
 74
     0
 49
0.0
 74
     0
 49
-0.25
 74
     0
  0
LTYPE
  5
26
100
AcDbSymbolTableRecord
100
AcDbLinetypeTableRecord
  2
DIVIDE
 70
    64
  3
Divide ____ . . ____ . . ____ . . ____ . . ____
 72
    65
 73
     6
 40
1.25
 49
0.5
 74
     0
 49
-0.25
 74
     0
 49
0.0
 74
     0
 49
-0.25
 74
     0
 49
0.0
 74
     0
 49
-0.25
 74
     0
  0
LTYPE
  5
27
100
AcDbSymbolTableRecord
100
AcDbLinetypeTableRecord
  2
PHANTOM
 70
    64
  3
Phantom ______  __  __  ______  __  __  ______
 72
    65
 73
     6
 40
9.0
 49
4.3
 74
     0
 49
-0.7
 74
     0
 49
1.3
 74
     0
 49
-0.7
 74
     0
 49
1.3
 74
     0
 49
-0.7
 74
     0
  0
ENDTAB
  0
TABLE
  2
LAYER
  5
2
100
AcDbSymbolTable
 70
     2
  0
LAYER
  5
14
100
AcDbSymbolTableRecord
100
AcDbLayerTableRecord
  2
0
 70
    64
 62
   102
  6
Continuous
290
     1
370
    -3
390
1D
  0
LAYER
  5
28
100
AcDbSymbolTableRecord
100
AcDbLayerTableRecord
  2
1
 70
    64
 62
    42
  6
Continuous
290
     1
370
    -3
390
1D
  0
ENDTAB
  0
TABLE
  2
STYLE
  5
3
100
AcDbSymbolTable
 70
     2
  0
STYLE
  5
17
100
AcDbSymbolTableRecord
100
AcDbTextStyleTableRecord
  2
Standard
 70
     0
 40
0.0
 41
1.0
 50
0.0
 71
     0
 42
0.0
  3
txt
  4

  0
STYLE
  5
469
100
AcDbSymbolTableRecord
100
AcDbTextStyleTableRecord
  2
ZU_SHPTB00001
 70
     0
 40
0.0
 41
1.0
 50
0.0
 71
     0
 42
0.0
  3
monotxt
  4
bigfont
  0
ENDTAB
  0
TABLE
  2
VIEW
  5
5
100
AcDbSymbolTable
 70
     0
  0
ENDTAB
  0
TABLE
  2
UCS
  5
6
100
AcDbSymbolTable
 70
     0
  0
ENDTAB
  0
TABLE
  2
APPID
  5
8
100
AcDbSymbolTable
 70
     1
  0
APPID
  5
16
100
AcDbSymbolTableRecord
100
AcDbRegAppTableRecord
  2
ACAD
 70
     0
  0
ENDTAB
  0
TABLE
  2
DIMSTYLE
  5
9
100
AcDbSymbolTable
 70
     1
100
AcDbDimStyleTable
 71
     0
  0
DIMSTYLE
105
18
100
AcDbSymbolTableRecord
100
AcDbDimStyleTableRecord
  2
Standard
 70
     0
  3

  4

 40
1.0
 41
0.18
 42
0.0625
 43
0.38
 44
0.18
 45
0.0
 46
0.0
 47
0.0
 48
0.0
 71
     0
 72
     0
 73
     1
 74
     1
 75
     0
 76
     0
 77
     0
 78
     0
 79
     0
140
0.18
141
0.09
142
0.0
143
25.4
144
1.0
145
0.0
146
1.0
147
0.09
148
0.0
170
     0
171
     2
172
     0
173
     0
174
     0
175
     0
176
     0
177
     0
178
     0
179
     0
271
     4
272
     4
273
     2
274
     2
275
     0
276
     0
277
     2
278
    46
279
     0
280
     0
281
     0
282
     0
283
     1
284
     0
285
     0
286
     0
288
     0
289
     3
340
17
341
0
342
0
343
0
344
0
371
    -2
372
    -2
  0
ENDTAB
  0
TABLE
  2
BLOCK_RECORD
  5
1
100
AcDbSymbolTable
 70
     3
  0
BLOCK_RECORD
  5
A
100
AcDbSymbolTableRecord
100
AcDbBlockTableRecord
  2
*MODEL_SPACE
340
20
  0
BLOCK_RECORD
  5
B
100
AcDbSymbolTableRecord
100
AcDbBlockTableRecord
  2
*PAPER_SPACE
340
21
  0
BLOCK_RECORD
  5
30
100
AcDbSymbolTableRecord
100
AcDbBlockTableRecord
  2
ZU_SYM__USERS_HOME_SYMBOL_POO_SYM_B20_18
340
0
102
{BLKREFS
331
3B
102
}
  0
BLOCK_RECORD
  5
3C
100
AcDbSymbolTableRecord
100
AcDbBlockTableRecord
  2
ZU_SYM__USERS_HOME_SYMBOL_POO_SYM_B20_0000118
340
0
102
{BLKREFS
331
47
102
}
  0
BLOCK_RECORD
  5
48
100
AcDbSymbolTableRecord
100
AcDbBlockTableRecord
  2
ZU_SYM__USERS_HOME_SYMBOL_POO_SYM_B20_0000218
340
0
102
{BLKREFS
331
53
102
}
  0
ENDTAB
  0
ENDSEC
  0
SECTION
  2
BLOCKS
  0
BLOCK
  5
D
100
AcDbEntity
  8
0
390
0
100
AcDbBlockBegin
  2
*MODEL_SPACE
 70
     0
 10
0.0
 20
0.0
 30
0.0
  3
*MODEL_SPACE
  1

  0
ENDBLK
  5
E
100
AcDbEntity
  8
0
390
0
100
AcDbBlockEnd
  0
BLOCK
  5
F
100
AcDbEntity
 67
     1
  8
0
390
0
100
AcDbBlockBegin
  2
*PAPER_SPACE
 70
     0
 10
0.0
 20
0.0
 30
0.0
  3
*PAPER_SPACE
  1

  0
ENDBLK
  5
10
100
AcDbEntity
 67
     1
  8
0
390
0
100
AcDbBlockEnd
  0
BLOCK
  5
31
100
AcDbEntity
  8
0
390
0
100
AcDbBlockBegin
  2
ZU_SYM__USERS_HOME_SYMBOL_POO_SYM_B20_18
 70
    64
 10
0.0
 20
0.0
 30
0.0
  3
ZU_SYM__USERS_HOME_SYMBOL_POO_SYM_B20_18
  1

  0
LINE
  5
32
100
AcDbEntity
  8
0
370
    -3
390
0
  6
Continuous
100
AcDbLine
 10
-7.499999
 20
6.5
 30
0.0
 11
-7.499999
 21
-6.5
 31
0.0
  0
LINE
  5
33
100
AcDbEntity
  8
0
370
    -3
390
0
  6
Continuous
100
AcDbLine
 10
-7.499998
 20
-6.499999
 30
0.0
 11
-7.999999
 21
-5.63407
 31
0.0
  0
LINE
  5
34
100
AcDbEntity
  8
0
370
    -3
390
0
  6
Continuous
100
AcDbLine
 10
-7.499999
 20
6.5
 30
0.0
 11
-7.999999
 21
5.633876
 31
0.0
  0
LINE
  5
35
100
AcDbEntity
  8
0
370
    -3
390
0
  6
Continuous
100
AcDbLine
 10
0.0
 20
-6.5
 30
0.0
 11
-7.499998
 21
-6.5
 31
0.0
  0
LINE
  5
36
100
AcDbEntity
  8
0
370
    -3
390
0
  6
Continuous
100
AcDbLine
 10
0.0
 20
6.5
 30
0.0
 11
-7.499999
 21
6.5
 31
0.0
  0
LINE
  5
37
100
AcDbEntity
  8
0
370
    -3
390
0
  6
Continuous
100
AcDbLine
 10
-7.999999
 20
5.633876
 30
0.0
 11
-7.999999
 21
-5.63407
 31
0.0
  0
LINE
  5
38
100
AcDbEntity
  8
0
370
    -3
390
0
  6
Continuous
100
AcDbLine
 10
0.0
 20
-6.5
 30
0.0
 11
0.0
 21
6.5
 31
0.0
  0
POINT
  5
39
100
AcDbEntity
  8
0
370
    -3
390
0
  6
Continuous
100
AcDbPoint
 10
0.0
 20
0.0
 30
0.0
  0
ENDBLK
  5
3A
100
AcDbEntity
  8
0
390
0
100
AcDbBlockEnd
  0
BLOCK
  5
3D
100
AcDbEntity
  8
0
390
0
100
AcDbBlockBegin
  2
ZU_SYM__USERS_HOME_SYMBOL_POO_SYM_B20_0000118
 70
    64
 10
0.0
 20
0.0
 30
0.0
  3
ZU_SYM__USERS_HOME_SYMBOL_POO_SYM_B20_0000118
  1

  0
LINE
  5
3E
100
AcDbEntity
  8
0
370
    -3
390
0
  6
Continuous
100
AcDbLine
 10
-7.499999
 20
6.5
 30
0.0
 11
-7.499999
 21
-6.5
 31
0.0
  0
LINE
  5
3F
100
AcDbEntity
  8
0
370
    -3
390
0
  6
Continuous
100
AcDbLine
 10
-7.499998
 20
-6.499999
 30
0.0
 11
-7.999999
 21
-5.63407
 31
0.0
  0
LINE
  5
40
100
AcDbEntity
  8
0
370
    -3
390
0
  6
Continuous
100
AcDbLine
 10
-7.499999
 20
6.5
 30
0.0
 11
-7.999999
 21
5.633876
 31
0.0
  0
LINE
  5
41
100
AcDbEntity
  8
0
370
    -3
390
0
  6
Continuous
100
AcDbLine
 10
0.0
 20
-6.5
 30
0.0
 11
-7.499998
 21
-6.5
 31
0.0
  0
LINE
  5
42
100
AcDbEntity
  8
0
370
    -3
390
0
  6
Continuous
100
AcDbLine
 10
0.0
 20
6.5
 30
0.0
 11
-7.499999
 21
6.5
 31
0.0
  0
LINE
  5
43
100
AcDbEntity
  8
0
370
    -3
390
0
  6
Continuous
100
AcDbLine
 10
-7.999999
 20
5.633876
 30
0.0
 11
-7.999999
 21
-5.63407
 31
0.0
  0
LINE
  5
44
100
AcDbEntity
  8
0
370
    -3
390
0
  6
Continuous
100
AcDbLine
 10
0.0
 20
-6.5
 30
0.0
 11
0.0
 21
6.5
 31
0.0
  0
POINT
  5
45
100
AcDbEntity
  8
0
370
    -3
390
0
  6
Continuous
100
AcDbPoint
 10
0.0
 20
0.0
 30
0.0
  0
ENDBLK
  5
46
100
AcDbEntity
  8
0
390
0
100
AcDbBlockEnd
  0
BLOCK
  5
49
100
AcDbEntity
  8
0
390
0
100
AcDbBlockBegin
  2
ZU_SYM__USERS_HOME_SYMBOL_POO_SYM_B20_0000218
 70
    64
 10
0.0
 20
0.0
 30
0.0
  3
ZU_SYM__USERS_HOME_SYMBOL_POO_SYM_B20_0000218
  1

  0
LINE
  5
4A
100
AcDbEntity
  8
0
370
    -3
390
0
  6
Continuous
100
AcDbLine
 10
-7.499999
 20
6.5
 30
0.0
 11
-7.499999
 21
-6.5
 31
0.0
  0
LINE
  5
4B
100
AcDbEntity
  8
0
370
    -3
390
0
  6
Continuous
100
AcDbLine
 10
-7.499998
 20
-6.499999
 30
0.0
 11
-7.999999
 21
-5.63407
 31
0.0
  0
LINE
  5
4C
100
AcDbEntity
  8
0
370
    -3
390
0
  6
Continuous
100
AcDbLine
 10
-7.499999
 20
6.5
 30
0.0
 11
-7.999999
 21
5.633876
 31
0.0
  0
LINE
  5
4D
100
AcDbEntity
  8
0
370
    -3
390
0
  6
Continuous
100
AcDbLine
 10
0.0
 20
-6.5
 30
0.0
 11
-7.499998
 21
-6.5
 31
0.0
  0
LINE
  5
4E
100
AcDbEntity
  8
0
370
    -3
390
0
  6
Continuous
100
AcDbLine
 10
0.0
 20
6.5
 30
0.0
 11
-7.499999
 21
6.5
 31
0.0
  0
LINE
  5
4F
100
AcDbEntity
  8
0
370
    -3
390
0
  6
Continuous
100
AcDbLine
 10
-7.999999
 20
5.633876
 30
0.0
 11
-7.999999
 21
-5.63407
 31
0.0
  0
LINE
  5
50
100
AcDbEntity
  8
0
370
    -3
390
0
  6
Continuous
100
AcDbLine
 10
0.0
 20
-6.5
 30
0.0
 11
0.0
 21
6.5
 31
0.0
  0
POINT
  5
51
100
AcDbEntity
  8
0
370
    -3
390
0
  6
Continuous
100
AcDbPoint
 10
0.0
 20
0.0
 30
0.0
  0
ENDBLK
  5
52
100
AcDbEntity
  8
0
390
0
100
AcDbBlockEnd
  0
ENDSEC
  0
SECTION
  2
ENTITIES
  0
ARC
  5
29
100
AcDbEntity
  8
0
370
    -3
390
0
  6
Continuous
100
AcDbCircle
 10
-147.982982
 20
-27.110985
 30
0.0
 40
9.0
100
AcDbArc
 50
253.398469
 51
286.601548
  0
ARC
  5
2A
100
AcDbEntity
  8
0
370
    -3
390
0
  6
Continuous
100
AcDbCircle
 10
-145.982982
 20
-34.093482
 30
0.0
 40
1.5
100
AcDbArc
 50
0.0
 51
32.230953
  0
LINE
  5
2B
100
AcDbEntity
  8
0
370
    -3
390
0
  6
Continuous
100
AcDbLine
 10
-144.482982
 20
-34.49001
 30
0.0
 11
-144.482982
 21
-34.093482
 31
0.0
  0
ARC
  5
2C
100
AcDbEntity
  8
0
370
    -3
390
0
  6
Continuous
100
AcDbCircle
 10
-145.782981
 20
-34.49001
 30
0.0
 40
1.299999
100
AcDbArc
 50
286.601531
 51
0.0
  0
ARC
  5
2D
100
AcDbEntity
  8
0
370
    -3
390
0
  6
Continuous
100
AcDbCircle
 10
-149.982982
 20
-34.093482
 30
0.0
 40
1.5
100
AcDbArc
 50
147.769047
 51
180.0
  0
LINE
  5
2E
100
AcDbEntity
  8
0
370
    -3
390
0
  6
Continuous
100
AcDbLine
 10
-151.482982
 20
-34.49001
 30
0.0
 11
-151.482982
 21
-34.093482
 31
0.0
  0
ARC
  5
2F
100
AcDbEntity
  8
0
370
    -3
390
0
  6
Continuous
100
AcDbCircle
 10
-150.182983
 20
-34.49001
 30
0.0
 40
1.299999
100
AcDbArc
 50
180.0
 51
253.398469
  0
INSERT
  5
3B
100
AcDbEntity
  8
0
390
0
100
AcDbBlockReference
  2
ZU_SYM__USERS_HOME_SYMBOL_POO_SYM_B20_18
 10
61.517012
 20
-237.597348
 30
0.0
  0
INSERT
  5
47
100
AcDbEntity
  8
0
390
0
100
AcDbBlockReference
  2
ZU_SYM__USERS_HOME_SYMBOL_POO_SYM_B20_0000118
 10
61.517012
 20
-171.597348
 30
0.0
  0
INSERT
  5
53
100
AcDbEntity
  8
0
390
0
100
AcDbBlockReference
  2
ZU_SYM__USERS_HOME_SYMBOL_POO_SYM_B20_0000218
 10
61.517012
 20
-96.089908
 30
0.0
  0
LINE
  5
54
100
AcDbEntity
  8
0
370
    -3
390
0
  6
Continuous
100
AcDbLine
 10
49.517012
 20
-40.597348
 30
0.0
 11
49.517012
 21
-95.789554
 31
0.0
  0
LINE
  5
55
100
AcDbEntity
  8
0
370
    -3
390
0
  6
Continuous
100
AcDbLine
 10
45.017012
 20
-96.025389
 30
0.0
 11
45.017012
 21
-40.597348
 31
0.0
  0
LINE
  5
56
100
AcDbEntity
  8
0
370
    -3
390
0
  6
Continuous
100
AcDbLine
 10
37.517013
 20
-82.097348
 30
0.0
 11
37.517013
 21
-95.097348
 31
0.0
  0
LINE
  5
57
100
AcDbEntity
  8
0
370
    -3
390
0
  6
Continuous
100
AcDbLine
 10
37.517014
 20
-95.097348
 30
0.0
 11
37.017013
 21
-94.231418
 31
0.0
  0
LINE
  5
58
100
AcDbEntity
  8
0
370
    -3
390
0
  6
Continuous
100
AcDbLine
 10
37.517013
 20
-82.097348
 30
0.0
 11
37.017013
 21
-82.963472
 31
0.0
  0
LINE
  5
59
100
AcDbEntity
  8
0
370
    -3
390
0
  6
Continuous
100
AcDbLine
 10
45.017012
 20
-95.097348
 30
0.0
 11
37.517014
 21
-95.097348
 31
0.0
  0
LINE
  5
5A
100
AcDbEntity
  8
0
370
    -3
390
0
  6
Continuous
100
AcDbLine
 10
45.017012
 20
-82.097348
 30
0.0
 11
37.517013
 21
-82.097348
 31
0.0
  0
LINE
  5
5B
100
AcDbEntity
  8
0
370
    -3
390
0
  6
Continuous
100
AcDbLine
 10
37.017013
 20
-82.963472
 30
0.0
 11
37.017013
 21
-94.231418
 31
0.0
  0
LINE
  5
5C
100
AcDbEntity
  8
0
370
    -3
390
0
  6
Continuous
100
AcDbLine
 10
45.017012
 20
-80.897348
 30
0.0
 11
45.017012
 21
-96.297348
 31
0.0
  0
POINT
  5
5D
100
AcDbEntity
  8
0
370
    -3
390
0
  6
Continuous
100
AcDbPoint
 10
45.017012
 20
-88.597348
 30
0.0
  0
LINE
  5
5E
100
AcDbEntity
  8
0
370
    -3
390
0
  6
CENTER
100
AcDbLine
 10
39.286764
 20
-60.597348
 30
0.0
 11
57.38603
 21
-60.597348
 31
0.0
  0
LINE
  5
5F
100
AcDbEntity
  8
0
370
    -3
390
0
  6
Continuous
100
AcDbLine
 10
45.017012
 20
-40.597348
 30
0.0
 11
49.517012
 21
-40.597348
 31
0.0
  0
LINE
  5
60
100
AcDbEntity
  8
0
370
    -3
390
0
  6
CENTER
100
AcDbLine
 10
271.001959
 20
-160.59736
 30
0.0
 11
146.844167
 21
-160.59736
 31
0.0
  0
LINE
  5
61
100
AcDbEntity
  8
0
370
    -3
390
0
  6
Continuous
100
AcDbLine
 10
265.017018
 20
-160.59736
 30
0.0
 11
265.017018
 21
-140.99736
 31
0.0
  0
LINE
  5
62
100
AcDbEntity
  8
0
370
    -3
390
0
  6
Continuous
100
AcDbLine
 10
204.617018
 20
-183.09736
 30
0.0
 11
203.017018
 21
-183.09736
 31
0.0
  0
LINE
  5
63
100
AcDbEntity
  8
0
370
    -3
390
0
  6
Continuous
100
AcDbLine
 10
204.617018
 20
-138.09736
 30
0.0
 11
203.017018
 21
-138.09736
 31
0.0
  0
ARC
  5
64
100
AcDbEntity
  8
0
370
    -3
390
0
  6
Continuous
100
AcDbCircle
 10
264.617018
 20
-140.99736
 30
0.0
 40
0.4
100
AcDbArc
 50
0.0
 51
90.0
  0
LINE
  5
65
100
AcDbEntity
  8
0
370
    -3
390
0
  6
Continuous
100
AcDbLine
 10
264.617018
 20
-140.59736
 30
0.0
 11
208.076833
 21
-140.59736
 31
0.0
  0
ARC
  5
66
100
AcDbEntity
  8
0
370
    -3
390
0
  6
Continuous
100
AcDbCircle
 10
206.617018
 20
-139.14736
 30
0.0
 40
1.6
100
AcDbArc
 50
180.0
 51
270.0
  0
LINE
  5
67
100
AcDbEntity
  8
0
370
    -3
390
0
  6
Continuous
100
AcDbLine
 10
207.517025
 20
-140.74736
 30
0.0
 11
206.617018
 21
-140.74736
 31
0.0
  0
LINE
  5
68
100
AcDbEntity
  8
0
370
    -3
390
0
  6
Continuous
100
AcDbLine
 10
204.617018
 20
-138.09736
 30
0.0
 11
205.017018
 21
-138.49736
 31
0.0
  0
LINE
  5
69
100
AcDbEntity
  8
0
370
    -3
390
0
  6
Continuous
100
AcDbLine
 10
205.017018
 20
-160.59736
 30
0.0
 11
205.017018
 21
-138.49736
 31
0.0
  0
LINE
  5
6A
100
AcDbEntity
  8
0
370
    -3
390
0
  6
Continuous
100
AcDbLine
 10
208.076833
 20
-140.59736
 30
0.0
 11
207.517025
 21
-140.74736
 31
0.0
  0
ARC
  5
6B
100
AcDbEntity
  8
0
370
    -3
390
0
  6
Continuous
100
AcDbCircle
 10
206.617018
 20
-182.04736
 30
0.0
 40
1.6
100
AcDbArc
 50
90.0
 51
180.0
  0
LINE
  5
6C
100
AcDbEntity
  8
0
370
    -3
390
0
  6
Continuous
100
AcDbLine
 10
207.517025
 20
-180.44736
 30
0.0
 11
206.617018
 21
-180.44736
 31
0.0
  0
LINE
  5
6D
100
AcDbEntity
  8
0
370
    -3
390
0
  6
Continuous
100
AcDbLine
 10
204.617018
 20
-183.09736
 30
0.0
 11
205.017018
 21
-182.69736
 31
0.0
  0
LINE
  5
6E
100
AcDbEntity
  8
0
370
    -3
390
0
  6
Continuous
100
AcDbLine
 10
205.017018
 20
-160.59736
 30
0.0
 11
205.017018
 21
-182.69736
 31
0.0
  0
LINE
  5
6F
100
AcDbEntity
  8
0
370
    -3
390
0
  6
Continuous
100
AcDbLine
 10
264.617018
 20
-180.59736
 30
0.0
 11
208.076833
 21
-180.59736
 31
0.0
  0
LINE
  5
70
100
AcDbEntity
  8
0
370
    -3
390
0
  6
Continuous
100
AcDbLine
 10
208.076833
 20
-180.59736
 30
0.0
 11
207.517025
 21
-180.44736
 31
0.0
  0
LINE
  5
71
100
AcDbEntity
  8
0
370
    -3
390
0
  6
Continuous
100
AcDbLine
 10
265.017018
 20
-160.59736
 30
0.0
 11
265.017018
 21
-180.19736
 31
0.0
  0
ARC
  5
72
100
AcDbEntity
  8
0
370
    -3
390
0
  6
Continuous
100
AcDbCircle
 10
264.617018
 20
-180.19736
 30
0.0
 40
0.4
100
AcDbArc
 50
270.0
 51
0.0
  0
LINE
  5
73
100
AcDbEntity
  8
0
370
    -3
390
0
  6
Continuous
100
AcDbLine
 10
39.017012
 20
-192.59736
 30
0.0
 11
39.017012
 21
-281.854885
 31
0.0
  0
LINE
  5
74
100
AcDbEntity
  8
0
370
    -3
390
0
  6
Continuous
100
AcDbLine
 10
61.517012
 20
-277.625612
 30
0.0
 11
61.517012
 21
-192.59736
 31
0.0
  0
LINE
  5
75
100
AcDbEntity
  8
0
370
    -3
390
0
  6
Continuous
100
AcDbLine
 10
72.517012
 20
-265.683815
 30
0.0
 11
72.517012
 21
-192.59736
 31
0.0
  0
LINE
  5
76
100
AcDbEntity
  8
0
370
    -3
390
0
  6
Continuous
100
AcDbLine
 10
41.017012
 20
-96.235021
 30
0.0
 11
53.517013
 21
-95.579923
 31
0.0
  0
LINE
  5
77
100
AcDbEntity
  8
0
370
    -3
390
0
  6
Continuous
100
AcDbLine
 10
39.017012
 20
-192.59736
 30
0.0
 11
39.017012
 21
-98.235021
 31
0.0
  0
ARC
  5
78
100
AcDbEntity
  8
0
370
    -3
390
0
  6
Continuous
100
AcDbCircle
 10
64.517012
 20
-78.59736
 30
0.0
 40
3.0
100
AcDbArc
 50
90.0
 51
180.0
  0
LINE
  5
79
100
AcDbEntity
  8
0
370
    -3
390
0
  6
Continuous
100
AcDbLine
 10
49.517012
 20
-78.59736
 30
0.0
 11
49.517012
 21
-95.789554
 31
0.0
  0
LINE
  5
7A
100
AcDbEntity
  8
0
370
    -3
390
0
  6
Continuous
100
AcDbLine
 10
72.517012
 20
-75.597381
 30
0.0
 11
72.517012
 21
-192.59736
 31
0.0
  0
LINE
  5
7B
100
AcDbEntity
  8
0
370
    -3
390
0
  6
Continuous
100
AcDbLine
 10
37.017012
 20
-192.59736
 30
0.0
 11
37.017012
 21
-276.59736
 31
0.0
  0
LINE
  5
7C
100
AcDbEntity
  8
0
370
    -3
390
0
  6
Continuous
100
AcDbLine
 10
37.017012
 20
-192.59736
 30
0.0
 11
37.017012
 21
-108.59736
 31
0.0
  0
LINE
  5
7D
100
AcDbEntity
  8
0
370
    -3
390
0
  6
Continuous
100
AcDbLine
 10
72.517012
 20
-75.59736
 30
0.0
 11
52.517012
 21
-75.59736
 31
0.0
  0
ARC
  5
7E
100
AcDbEntity
  8
0
370
    -3
390
0
  6
Continuous
100
AcDbCircle
 10
52.517012
 20
-78.59736
 30
0.0
 40
3.0
100
AcDbArc
 50
90.0
 51
180.0
  0
ARC
  5
7F
100
AcDbEntity
  8
0
370
    -3
390
0
  6
Continuous
100
AcDbCircle
 10
41.017012
 20
-98.235021
 30
0.0
 40
2.0
100
AcDbArc
 50
90.0
 51
180.0
  0
ARC
  5
80
100
AcDbEntity
  8
0
370
    -3
390
0
  6
Continuous
100
AcDbCircle
 10
37.017012
 20
-278.59736
 30
0.0
 40
2.0
100
AcDbArc
 50
0.0
 51
90.0
  0
ARC
  5
81
100
AcDbEntity
  8
0
370
    -3
390
0
  6
Continuous
100
AcDbCircle
 10
37.017012
 20
-106.59736
 30
0.0
 40
2.0
100
AcDbArc
 50
270.0
 51
0.0
  0
LINE
  5
82
100
AcDbEntity
  8
0
370
    -3
390
0
  6
Continuous
100
AcDbLine
 10
202.017018
 20
-201.59736
 30
0.0
 11
203.017018
 21
-201.59736
 31
0.0
  0
LINE
  5
83
100
AcDbEntity
  8
0
370
    -3
390
0
  6
Continuous
100
AcDbLine
 10
202.017018
 20
-119.59736
 30
0.0
 11
203.017018
 21
-119.59736
 31
0.0
  0
LINE
  5
84
100
AcDbEntity
  8
0
370
    -3
390
0
  6
Continuous
100
AcDbLine
 10
161.502797
 20
-160.59736
 30
0.0
 11
161.502797
 21
-279.250599
 31
0.0
  0
LINE
  5
85
100
AcDbEntity
  8
0
370
    -3
390
0
  6
Continuous
100
AcDbLine
 10
196.372797
 20
-160.59736
 30
0.0
 11
196.372797
 21
-280.468286
 31
0.0
  0
ELLIPSE
  5
86
100
AcDbEntity
  8
0
370
    -3
390
0
  6
Continuous
100
AcDbEllipse
 10
178.937797
 20
-160.59736
 30
0.0
 11
0.0
 21
20.0
 31
0.0
210
0.0
220
0.0
230
1.0
 40
0.87175
 41
4.7123889803846897
 42
1.5707963267948968
  0
LINE
  5
87
100
AcDbEntity
  8
0
370
    -3
390
0
  6
Continuous
100
AcDbLine
 10
203.017018
 20
-201.59736
 30
0.0
 11
203.017018
 21
-160.59736
 31
0.0
  0
ARC
  5
88
100
AcDbEntity
  8
0
370
    -3
390
0
  6
Continuous
100
AcDbCircle
 10
202.017018
 20
-202.59736
 30
0.0
 40
1.0
100
AcDbArc
 50
90.0
 51
180.0
  0
LINE
  5
89
100
AcDbEntity
  8
0
370
    -3
390
0
  6
Continuous
100
AcDbLine
 10
73.017012
 20
-75.597381
 30
0.0
 11
73.017012
 21
-160.59736
 31
0.0
  0
ARC
  5
8A
100
AcDbEntity
  8
0
370
    -3
390
0
  6
Continuous
100
AcDbCircle
 10
198.017018
 20
-113.920832
 30
0.0
 40
3.0
100
AcDbArc
 50
0.0
 51
31.668453
  0
LINE
  5
8B
100
AcDbEntity
  8
0
370
    -3
390
0
  6
Continuous
100
AcDbLine
 10
201.017018
 20
-113.920832
 30
0.0
 11
201.017018
 21
-160.59736
 31
0.0
  0
ARC
  5
8C
100
AcDbEntity
  8
0
370
    -3
390
0
  6
Continuous
100
AcDbCircle
 10
136.737796
 20
-151.721056
 30
0.0
 40
75.0
100
AcDbArc
 50
31.668453
 51
89.0
  0
LINE
  5
8D
100
AcDbEntity
  8
0
370
    -3
390
0
  6
Continuous
100
AcDbLine
 10
73.017012
 20
-75.597381
 30
0.0
 11
138.046726
 21
-76.732479
 31
0.0
  0
LINE
  5
8E
100
AcDbEntity
  8
0
370
    -3
390
0
  6
Continuous
100
AcDbLine
 10
201.016999
 20
-160.59736
 30
0.0
 11
201.016999
 21
-282.286868
 31
0.0
  0
LINE
  5
8F
100
AcDbEntity
  8
0
370
    -3
390
0
  6
Continuous
100
AcDbLine
 10
203.017018
 20
-119.59736
 30
0.0
 11
203.017018
 21
-160.59736
 31
0.0
  0
ARC
  5
90
100
AcDbEntity
  8
0
370
    -3
390
0
  6
Continuous
100
AcDbCircle
 10
202.017018
 20
-118.59736
 30
0.0
 40
1.0
100
AcDbArc
 50
180.0
 51
270.0
  0
LINE
  5
91
100
AcDbEntity
  8
0
370
    -3
390
0
  6
Continuous
100
AcDbLine
 10
203.016999
 20
-286.977284
 30
0.0
 11
203.016999
 21
-305.597387
 31
0.0
  0
LINE
  5
92
100
AcDbEntity
  8
0
370
    -3
390
0
  6
Continuous
100
AcDbLine
 10
203.016999
 20
-305.597387
 30
0.0
 11
16.017003
 21
-305.597387
 31
0.0
  0
LINE
  5
93
100
AcDbEntity
  8
0
370
    -3
390
0
  6
CENTER
100
AcDbLine
 10
185.017013
 20
-277.579398
 30
0.0
 11
185.017013
 21
-311.049352
 31
0.0
  0
ARC
  5
94
100
AcDbEntity
  8
0
370
    -3
390
0
  6
Continuous
100
AcDbCircle
 10
19.517003
 20
-286.842242
 30
0.0
 40
3.5
100
AcDbArc
 50
94.332469
 51
180.0
  0
ARC
  5
95
100
AcDbEntity
  8
0
370
    -3
390
0
  6
Continuous
100
AcDbCircle
 10
73.017012
 20
-241.362733
 30
0.0
 40
2.0
100
AcDbArc
 50
0.0
 51
90.0
  0
ARC
  5
96
100
AcDbEntity
  8
0
370
    -3
390
0
  6
Continuous
100
AcDbCircle
 10
73.017012
 20
-262.189012
 30
0.0
 40
2.0
100
AcDbArc
 50
317.350764
 51
0.0
  0
LINE
  5
97
100
AcDbEntity
  8
0
370
    -3
390
0
  6
Continuous
100
AcDbLine
 10
75.017012
 20
-241.362733
 30
0.0
 11
75.017012
 21
-262.189012
 31
0.0
  0
LINE
  5
98
100
AcDbEntity
  8
0
370
    -3
390
0
  6
Continuous
100
AcDbLine
 10
75.017012
 20
-279.127515
 30
0.0
 11
56.017003
 21
-280.566961
 31
0.0
  0
LINE
  5
99
100
AcDbEntity
  8
0
370
    -3
390
0
  6
Continuous
100
AcDbLine
 10
74.488042
 20
-263.544029
 30
0.0
 11
60.619005
 21
-278.600505
 31
0.0
  0
LINE
  5
9A
100
AcDbEntity
  8
0
370
    -3
390
0
  6
Continuous
100
AcDbLine
 10
16.017003
 20
-305.597387
 30
0.0
 11
16.017003
 21
-286.842242
 31
0.0
  0
LINE
  5
9B
100
AcDbEntity
  8
0
370
    -3
390
0
  6
CENTER
100
AcDbLine
 10
35.01699
 20
-278.38729
 30
0.0
 11
35.01699
 21
-311.049352
 31
0.0
  0
LINE
  5
9C
100
AcDbEntity
  8
0
370
    -3
390
0
  6
Continuous
100
AcDbLine
 10
75.017012
 20
-279.127515
 30
0.0
 11
163.016999
 21
-282.200542
 31
0.0
  0
LINE
  5
9D
100
AcDbEntity
  8
0
370
    -3
390
0
  6
Continuous
100
AcDbLine
 10
73.017012
 20
-160.59736
 30
0.0
 11
73.017012
 21
-265.141006
 31
0.0
  0
ARC
  5
9E
100
AcDbEntity
  8
0
370
    -3
390
0
  6
Continuous
100
AcDbCircle
 10
164.502797
 20
-279.250599
 30
0.0
 40
3.0
100
AcDbArc
 50
180.0
 51
268.0
  0
ARC
  5
9F
100
AcDbEntity
  8
0
370
    -3
390
0
  6
Continuous
100
AcDbCircle
 10
199.372797
 20
-280.468286
 30
0.0
 40
3.0
100
AcDbArc
 50
180.0
 51
268.0
  0
ARC
  5
A0
100
AcDbEntity
  8
0
370
    -3
390
0
  6
Continuous
100
AcDbCircle
 10
199.516999
 20
-286.977284
 30
0.0
 40
3.5
100
AcDbArc
 50
0.0
 51
46.186939
  0
ARC
  5
A1
100
AcDbEntity
  8
0
370
    -3
390
0
  6
Continuous
100
AcDbCircle
 10
199.516999
 20
-286.977284
 30
0.0
 40
3.5
100
AcDbArc
 50
46.186939
 51
88.0
  0
ARC
  5
A2
100
AcDbEntity
  8
0
370
    -3
390
0
  6
Continuous
100
AcDbCircle
 10
204.016999
 20
-282.286868
 30
0.0
 40
3.0
100
AcDbArc
 50
180.0
 51
226.186939
  0
ARC
  5
A3
100
AcDbEntity
  8
0
370
    -3
390
0
  6
Continuous
100
AcDbCircle
 10
56.205914
 20
-274.535455
 30
0.0
 40
6.0
100
AcDbArc
 50
274.332469
 51
317.350764
  0
LINE
  5
A4
100
AcDbEntity
  8
0
370
    -3
390
0
  6
Continuous
100
AcDbLine
 10
163.016999
 20
-282.200542
 30
0.0
 11
199.639147
 21
-283.479416
 31
0.0
  0
LINE
  5
A5
100
AcDbEntity
  8
0
370
    -3
390
0
  6
Continuous
100
AcDbLine
 10
56.017003
 20
-280.566961
 30
0.0
 11
19.2526
 21
-283.352243
 31
0.0
  0
ARC
  5
A6
100
AcDbEntity
  8
0
370
    -3
390
0
  6
Continuous
100
AcDbCircle
 10
59.517012
 20
-130.865276
 30
0.0
 40
2.0
100
AcDbArc
 50
270.0
 51
0.0
  0
ARC
  5
A7
100
AcDbEntity
  8
0
370
    -3
390
0
  6
Continuous
100
AcDbCircle
 10
59.517012
 20
-160.329378
 30
0.0
 40
2.0
100
AcDbArc
 50
0.0
 51
90.0
  0
LINE
  5
A8
100
AcDbEntity
  8
0
370
    -3
390
0
  6
Continuous
100
AcDbLine
 10
59.517012
 20
-158.329378
 30
0.0
 11
56.517012
 21
-158.329378
 31
0.0
  0
ARC
  5
A9
100
AcDbEntity
  8
0
370
    -3
390
0
  6
Continuous
100
AcDbCircle
 10
56.517012
 20
-156.329378
 30
0.0
 40
2.0
100
AcDbArc
 50
180.0
 51
270.0
  0
LINE
  5
AA
100
AcDbEntity
  8
0
370
    -3
390
0
  6
Continuous
100
AcDbLine
 10
54.517012
 20
-134.865276
 30
0.0
 11
54.517012
 21
-156.329378
 31
0.0
  0
LINE
  5
AB
100
AcDbEntity
  8
0
370
    -3
390
0
  6
Continuous
100
AcDbLine
 10
59.517012
 20
-132.865276
 30
0.0
 11
56.517012
 21
-132.865276
 31
0.0
  0
ARC
  5
AC
100
AcDbEntity
  8
0
370
    -3
390
0
  6
Continuous
100
AcDbCircle
 10
56.517012
 20
-134.865276
 30
0.0
 40
2.0
100
AcDbArc
 50
90.0
 51
180.0
  0
LINE
  5
AD
100
AcDbEntity
  8
0
370
    -3
390
0
  6
Continuous
100
AcDbLine
 10
61.517012
 20
-78.59736
 30
0.0
 11
61.517012
 21
-130.865276
 31
0.0
  0
LINE
  5
AE
100
AcDbEntity
  8
0
370
    -3
390
0
  6
Continuous
100
AcDbLine
 10
61.517012
 20
-160.329378
 30
0.0
 11
61.517012
 21
-192.59736
 31
0.0
  0
LINE
  5
AF
100
AcDbEntity
  8
0
370
    -3
390
0
  6
Continuous
100
AcDbLine
 10
37.017012
 20
-281.959602
 30
0.0
 11
37.017012
 21
-94.231416
 31
0.0
  0
LINE
  5
B0
100
AcDbEntity
  8
0
370
    -3
390
0
  6
CENTER
100
AcDbLine
 10
70.199308
 20
-192.59736
 30
0.0
 11
-256.266505
 21
-192.59736
 31
0.0
  0
LINE
  5
B1
100
AcDbEntity
  8
0
370
    -3
390
0
  6
Continuous
100
AcDbLine
 10
-101.532988
 20
-216.59736
 30
0.0
 11
37.017012
 21
-216.59736
 31
0.0
  0
LINE
  5
B2
100
AcDbEntity
  8
0
370
    -3
390
0
  6
Continuous
100
AcDbLine
 10
-101.532988
 20
-168.59736
 30
0.0
 11
37.017012
 21
-168.59736
 31
0.0
  0
LINE
  5
B3
100
AcDbEntity
  8
0
370
    -3
390
0
  6
Continuous
100
AcDbLine
 10
-195.482988
 20
-115.639579
 30
0.0
 11
-195.482988
 21
-114.353482
 31
0.0
  0
LINE
  5
B4
100
AcDbEntity
  8
0
370
    -3
390
0
  6
Continuous
100
AcDbLine
 10
-183.482988
 20
-115.639579
 30
0.0
 11
-183.482988
 21
-114.353482
 31
0.0
  0
ELLIPSE
  5
B5
100
AcDbEntity
  8
0
370
    -3
390
0
  6
Continuous
100
AcDbEllipse
 10
-189.482988
 20
-114.353482
 30
0.0
 11
6.0
 21
0.0
 31
0.0
210
0.0
220
0.0
230
1.0
 40
0.689848
 41
2.3102549650649529
 42
3.1415926535897931
  0
ELLIPSE
  5
B6
100
AcDbEntity
  8
0
370
    -3
390
0
  6
Continuous
100
AcDbEllipse
 10
-189.482988
 20
-115.639579
 30
0.0
 11
6.0
 21
0.0
 31
0.0
210
0.0
220
0.0
230
1.0
 40
0.707107
 41
3.1415926535897931
 42
0.0
  0
LINE
  5
B7
100
AcDbEntity
  8
0
370
    -3
390
0
  6
Continuous
100
AcDbLine
 10
-194.482988
 20
-113.967086
 30
0.0
 11
-194.482988
 21
-113.684243
 31
0.0
  0
LINE
  5
B8
100
AcDbEntity
  8
0
370
    -3
390
0
  6
Continuous
100
AcDbLine
 10
-184.482988
 20
-113.967086
 30
0.0
 11
-184.482988
 21
-113.684243
 31
0.0
  0
ELLIPSE
  5
B9
100
AcDbEntity
  8
0
370
    -3
390
0
  6
Continuous
100
AcDbEllipse
 10
-189.482988
 20
-113.684243
 30
0.0
 11
5.0
 21
0.0
 31
0.0
210
0.0
220
0.0
230
1.0
 40
0.707107
 41
2.6124407455910639
 42
0.5291519079987291
  0
ELLIPSE
  5
BA
100
AcDbEntity
  8
0
370
    -3
390
0
  6
Continuous
100
AcDbEllipse
 10
-189.482988
 20
-113.967086
 30
0.0
 11
5.0
 21
0.0
 31
0.0
210
0.0
220
0.0
230
1.0
 40
0.763675
 41
3.1415926535897931
 42
0.0
  0
ELLIPSE
  5
BB
100
AcDbEntity
  8
0
370
    -3
390
0
  6
Continuous
100
AcDbEllipse
 10
-189.482988
 20
-112.994731
 30
0.0
 11
4.5
 21
0.0
 31
0.0
210
0.0
220
0.0
230
1.0
 40
0.860332
 41
0.0
 42
6.2831853071795862
  0
ELLIPSE
  5
BC
100
AcDbEntity
  8
0
370
    -3
390
0
  6
Continuous
100
AcDbEllipse
 10
-189.482988
 20
-114.353482
 30
0.0
 11
6.0
 21
0.0
 31
0.0
210
0.0
220
0.0
230
1.0
 40
0.689848
 41
0.0
 42
0.8313376885249523
  0
ELLIPSE
  5
BD
100
AcDbEntity
  8
0
370
    -3
390
0
  6
Continuous
100
AcDbEllipse
 10
-189.482988
 20
-114.353482
 30
0.0
 11
6.0
 21
0.0
 31
0.0
210
0.0
220
0.0
230
1.0
 40
0.689848
 41
3.1415926535897931
 42
0.0
  0
LINE
  5
BE
100
AcDbEntity
  8
0
370
    -3
390
0
  6
Continuous
100
AcDbLine
 10
-189.482988
 20
-111.35079
 30
0.0
 11
-191.482988
 21
-110.055257
 31
0.0
  0
LINE
  5
BF
100
AcDbEntity
  8
0
370
    -3
390
0
  6
Continuous
100
AcDbLine
 10
-189.482988
 20
-111.35079
 30
0.0
 11
-191.482988
 21
-112.883685
 31
0.0
  0
LINE
  5
C0
100
AcDbEntity
  8
0
370
    -3
390
0
  6
Continuous
100
AcDbLine
 10
-189.482988
 20
-111.35079
 30
0.0
 11
-187.482988
 21
-112.883685
 31
0.0
  0
LINE
  5
C1
100
AcDbEntity
  8
0
370
    -3
390
0
  6
Continuous
100
AcDbLine
 10
-189.482988
 20
-111.35079
 30
0.0
 11
-187.482988
 21
-110.055257
 31
0.0
  0
ARC
  5
C2
100
AcDbEntity
  8
0
370
    -3
390
0
  6
Continuous
100
AcDbCircle
 10
-240.982988
 20
-275.390101
 30
0.0
 40
5.0
100
AcDbArc
 50
180.0
 51
240.0
  0
LINE
  5
C3
100
AcDbEntity
  8
0
370
    -3
390
0
  6
Continuous
100
AcDbLine
 10
-162.982988
 20
-295.59736
 30
0.0
 11
-199.638087
 21
-295.59736
 31
0.0
  0
ARC
  5
C4
100
AcDbEntity
  8
0
370
    -3
390
0
  6
Continuous
100
AcDbCircle
 10
-199.638087
 20
-234.59736
 30
0.0
 40
61.0
100
AcDbArc
 50
240.0
 51
270.0
  0
LINE
  5
C5
100
AcDbEntity
  8
0
370
    -3
390
0
  6
Continuous
100
AcDbLine
 10
-243.482988
 20
-279.720228
 30
0.0
 11
-230.138087
 21
-287.42491
 31
0.0
  0
LINE
  5
C6
100
AcDbEntity
  8
0
370
    -3
390
0
  6
Continuous
100
AcDbLine
 10
-245.982988
 20
-275.390101
 30
0.0
 11
-245.982988
 21
-192.59736
 31
0.0
  0
ARC
  5
C7
100
AcDbEntity
  8
0
370
    -3
390
0
  6
Continuous
100
AcDbCircle
 10
-240.982988
 20
-109.804619
 30
0.0
 40
5.0
100
AcDbArc
 50
120.0
 51
180.0
  0
LINE
  5
C8
100
AcDbEntity
  8
0
370
    -3
390
0
  6
Continuous
100
AcDbLine
 10
-162.982988
 20
-89.59736
 30
0.0
 11
-199.638087
 21
-89.59736
 31
0.0
  0
ARC
  5
C9
100
AcDbEntity
  8
0
370
    -3
390
0
  6
Continuous
100
AcDbCircle
 10
-199.638087
 20
-150.59736
 30
0.0
 40
61.0
100
AcDbArc
 50
90.0
 51
120.0
  0
LINE
  5
CA
100
AcDbEntity
  8
0
370
    -3
390
0
  6
Continuous
100
AcDbLine
 10
-243.482988
 20
-105.474492
 30
0.0
 11
-230.138087
 21
-97.76981
 31
0.0
  0
LINE
  5
CB
100
AcDbEntity
  8
0
370
    -3
390
0
  6
Continuous
100
AcDbLine
 10
-245.982988
 20
-109.804619
 30
0.0
 11
-245.982988
 21
-192.59736
 31
0.0
  0
LINE
  5
CC
100
AcDbEntity
  8
0
370
    -3
390
0
  6
Continuous
100
AcDbLine
 10
-162.982988
 20
-92.59736
 30
0.0
 11
37.017012
 21
-92.59736
 31
0.0
  0
LINE
  5
CD
100
AcDbEntity
  8
0
370
    -3
390
0
  6
Continuous
100
AcDbLine
 10
-162.982988
 20
-97.09736
 30
0.0
 11
37.017012
 21
-97.09736
 31
0.0
  0
LINE
  5
CE
100
AcDbEntity
  8
0
370
    -3
390
0
  6
Continuous
100
AcDbLine
 10
-162.982988
 20
-99.59736
 30
0.0
 11
37.017012
 21
-99.59736
 31
0.0
  0
LINE
  5
CF
100
AcDbEntity
  8
0
370
    -3
390
0
  6
Continuous
100
AcDbLine
 10
-162.982988
 20
-103.59736
 30
0.0
 11
37.017012
 21
-103.59736
 31
0.0
  0
LINE
  5
D0
100
AcDbEntity
  8
0
370
    -3
390
0
  6
Continuous
100
AcDbLine
 10
-162.982988
 20
-115.427637
 30
0.0
 11
37.017012
 21
-115.427637
 31
0.0
  0
LINE
  5
D1
100
AcDbEntity
  8
0
370
    -3
390
0
  6
Continuous
100
AcDbLine
 10
-162.982988
 20
-123.912918
 30
0.0
 11
37.017012
 21
-123.912918
 31
0.0
  0
LINE
  5
D2
100
AcDbEntity
  8
0
370
    -3
390
0
  6
Continuous
100
AcDbLine
 10
-162.982988
 20
-138.832788
 30
0.0
 11
37.017012
 21
-138.832788
 31
0.0
  0
LINE
  5
D3
100
AcDbEntity
  8
0
370
    -3
390
0
  6
Continuous
100
AcDbLine
 10
-162.982988
 20
-141.363699
 30
0.0
 11
37.017012
 21
-141.363699
 31
0.0
  0
LINE
  5
D4
100
AcDbEntity
  8
0
370
    -3
390
0
  6
Continuous
100
AcDbLine
 10
-162.982988
 20
-149.345111
 30
0.0
 11
37.017012
 21
-149.345111
 31
0.0
  0
LINE
  5
D5
100
AcDbEntity
  8
0
370
    -3
390
0
  6
Continuous
100
AcDbLine
 10
-106.508437
 20
-151.797232
 30
0.0
 11
37.017012
 21
-151.797232
 31
0.0
  0
LINE
  5
D6
100
AcDbEntity
  8
0
370
    -3
390
0
  6
Continuous
100
AcDbLine
 10
-101.585669
 20
-159.925484
 30
0.0
 11
37.017012
 21
-159.925484
 31
0.0
  0
LINE
  5
D7
100
AcDbEntity
  8
0
370
    -3
390
0
  6
Continuous
100
AcDbLine
 10
-101.532988
 20
-162.240583
 30
0.0
 11
37.017012
 21
-162.240583
 31
0.0
  0
LINE
  5
D8
100
AcDbEntity
  8
0
370
    -3
390
0
  6
Continuous
100
AcDbLine
 10
-162.982988
 20
-289.59736
 30
0.0
 11
16.017003
 21
-289.59736
 31
0.0
  0
LINE
  5
D9
100
AcDbEntity
  8
0
370
    -3
390
0
  6
Continuous
100
AcDbLine
 10
-162.982988
 20
-288.09736
 30
0.0
 11
16.017003
 21
-288.09736
 31
0.0
  0
LINE
  5
DA
100
AcDbEntity
  8
0
370
    -3
390
0
  6
Continuous
100
AcDbLine
 10
-162.982988
 20
-285.59736
 30
0.0
 11
16.245877
 21
-285.59736
 31
0.0
  0
LINE
  5
DB
100
AcDbEntity
  8
0
370
    -3
390
0
  6
Continuous
100
AcDbLine
 10
-162.982988
 20
-281.59736
 30
0.0
 11
37.017012
 21
-281.59736
 31
0.0
  0
LINE
  5
DC
100
AcDbEntity
  8
0
370
    -3
390
0
  6
Continuous
100
AcDbLine
 10
-162.982988
 20
-269.767083
 30
0.0
 11
37.017012
 21
-269.767083
 31
0.0
  0
LINE
  5
DD
100
AcDbEntity
  8
0
370
    -3
390
0
  6
Continuous
100
AcDbLine
 10
-162.982988
 20
-261.281802
 30
0.0
 11
37.017012
 21
-261.281802
 31
0.0
  0
LINE
  5
DE
100
AcDbEntity
  8
0
370
    -3
390
0
  6
Continuous
100
AcDbLine
 10
-101.585669
 20
-225.269236
 30
0.0
 11
37.017012
 21
-225.269236
 31
0.0
  0
LINE
  5
DF
100
AcDbEntity
  8
0
370
    -3
390
0
  6
Continuous
100
AcDbLine
 10
-101.532988
 20
-222.954137
 30
0.0
 11
37.017012
 21
-222.954137
 31
0.0
  0
LINE
  5
E0
100
AcDbEntity
  8
0
370
    -3
390
0
  6
Continuous
100
AcDbLine
 10
-162.982988
 20
-292.59736
 30
0.0
 11
16.017003
 21
-292.59736
 31
0.0
  0
LINE
  5
E1
100
AcDbEntity
  8
0
370
    -3
390
0
  6
Continuous
100
AcDbLine
 10
-101.532988
 20
-233.397488
 30
0.0
 11
37.017012
 21
-233.397488
 31
0.0
  0
LINE
  5
E2
100
AcDbEntity
  8
0
370
    -3
390
0
  6
Continuous
100
AcDbLine
 10
-101.532988
 20
-235.849609
 30
0.0
 11
37.017012
 21
-235.849609
 31
0.0
  0
LINE
  5
E3
100
AcDbEntity
  8
0
370
    -3
390
0
  6
Continuous
100
AcDbLine
 10
-101.601697
 20
-243.831021
 30
0.0
 11
37.017012
 21
-243.831021
 31
0.0
  0
LINE
  5
E4
100
AcDbEntity
  8
0
370
    -3
390
0
  6
Continuous
100
AcDbLine
 10
-102.195001
 20
-246.361932
 30
0.0
 11
37.017012
 21
-246.361932
 31
0.0
  0
LINE
  5
E5
100
AcDbEntity
  8
0
370
    -3
390
0
  6
Continuous
100
AcDbLine
 10
-195.482988
 20
-269.555141
 30
0.0
 11
-195.482988
 21
-270.841238
 31
0.0
  0
LINE
  5
E6
100
AcDbEntity
  8
0
370
    -3
390
0
  6
Continuous
100
AcDbLine
 10
-183.482988
 20
-269.555141
 30
0.0
 11
-183.482988
 21
-270.841238
 31
0.0
  0
ELLIPSE
  5
E7
100
AcDbEntity
  8
0
370
    -3
390
0
  6
Continuous
100
AcDbEllipse
 10
-189.482988
 20
-270.841238
 30
0.0
 11
6.0
 21
0.0
 31
0.0
210
0.0
220
0.0
230
1.0
 40
0.689848
 41
3.1415926535897931
 42
3.9729303421146369
  0
ELLIPSE
  5
E8
100
AcDbEntity
  8
0
370
    -3
390
0
  6
Continuous
100
AcDbEllipse
 10
-189.482988
 20
-269.555141
 30
0.0
 11
6.0
 21
0.0
 31
0.0
210
0.0
220
0.0
230
1.0
 40
0.707107
 41
0.0
 42
3.1415926535897931
  0
LINE
  5
E9
100
AcDbEntity
  8
0
370
    -3
390
0
  6
Continuous
100
AcDbLine
 10
-194.482988
 20
-271.227634
 30
0.0
 11
-194.482988
 21
-271.510477
 31
0.0
  0
LINE
  5
EA
100
AcDbEntity
  8
0
370
    -3
390
0
  6
Continuous
100
AcDbLine
 10
-184.482988
 20
-271.227634
 30
0.0
 11
-184.482988
 21
-271.510477
 31
0.0
  0
ELLIPSE
  5
EB
100
AcDbEntity
  8
0
370
    -3
390
0
  6
Continuous
100
AcDbEllipse
 10
-189.482988
 20
-271.510477
 30
0.0
 11
5.0
 21
0.0
 31
0.0
210
0.0
220
0.0
230
1.0
 40
0.707107
 41
5.7540333991808534
 42
3.6707445615885259
  0
ELLIPSE
  5
EC
100
AcDbEntity
  8
0
370
    -3
390
0
  6
Continuous
100
AcDbEllipse
 10
-189.482988
 20
-271.227634
 30
0.0
 11
5.0
 21
0.0
 31
0.0
210
0.0
220
0.0
230
1.0
 40
0.763675
 41
0.0
 42
3.1415926535897931
  0
ELLIPSE
  5
ED
100
AcDbEntity
  8
0
370
    -3
390
0
  6
Continuous
100
AcDbEllipse
 10
-189.482988
 20
-272.199989
 30
0.0
 11
4.5
 21
0.0
 31
0.0
210
0.0
220
0.0
230
1.0
 40
0.860332
 41
0.0
 42
6.2831853071795862
  0
ELLIPSE
  5
EE
100
AcDbEntity
  8
0
370
    -3
390
0
  6
Continuous
100
AcDbEllipse
 10
-189.482988
 20
-270.841238
 30
0.0
 11
6.0
 21
0.0
 31
0.0
210
0.0
220
0.0
230
1.0
 40
0.689848
 41
5.4518476186546305
 42
0.0
  0
ELLIPSE
  5
EF
100
AcDbEntity
  8
0
370
    -3
390
0
  6
Continuous
100
AcDbEllipse
 10
-189.482988
 20
-270.841238
 30
0.0
 11
6.0
 21
0.0
 31
0.0
210
0.0
220
0.0
230
1.0
 40
0.689848
 41
0.0
 42
3.1415926535897931
  0
LINE
  5
F0
100
AcDbEntity
  8
0
370
    -3
390
0
  6
Continuous
100
AcDbLine
 10
-189.482988
 20
-273.84393
 30
0.0
 11
-191.482988
 21
-275.139463
 31
0.0
  0
LINE
  5
F1
100
AcDbEntity
  8
0
370
    -3
390
0
  6
Continuous
100
AcDbLine
 10
-189.482988
 20
-273.84393
 30
0.0
 11
-191.482988
 21
-272.311035
 31
0.0
  0
LINE
  5
F2
100
AcDbEntity
  8
0
370
    -3
390
0
  6
Continuous
100
AcDbLine
 10
-189.482988
 20
-273.84393
 30
0.0
 11
-187.482988
 21
-272.311035
 31
0.0
  0
LINE
  5
F3
100
AcDbEntity
  8
0
370
    -3
390
0
  6
Continuous
100
AcDbLine
 10
-189.482988
 20
-273.84393
 30
0.0
 11
-187.482988
 21
-275.139463
 31
0.0
  0
LINE
  5
F4
100
AcDbEntity
  8
0
370
    -3
390
0
  6
Continuous
100
AcDbLine
 10
-162.982988
 20
-150.000752
 30
0.0
 11
-162.982988
 21
-89.59736
 31
0.0
  0
LINE
  5
F5
100
AcDbEntity
  8
0
370
    -3
390
0
  6
Continuous
100
AcDbLine
 10
-162.982988
 20
-253.603472
 30
0.0
 11
-162.982988
 21
-295.59736
 31
0.0
  0
LINE
  5
F6
100
AcDbEntity
  8
0
370
    -3
390
0
  6
Continuous
100
AcDbLine
 10
-162.982988
 20
-95.59736
 30
0.0
 11
37.017012
 21
-95.59736
 31
0.0
  0
LINE
  5
F7
100
AcDbEntity
  8
0
370
    -3
390
0
  6
Continuous
100
AcDbLine
 10
265.017018
 20
-154.59736
 30
0.0
 11
216.017018
 21
-154.59736
 31
0.0
  0
LINE
  5
F8
100
AcDbEntity
  8
0
370
    -3
390
0
  6
Continuous
100
AcDbLine
 10
265.017018
 20
-166.59736
 30
0.0
 11
216.017018
 21
-166.59736
 31
0.0
  0
ARC
  5
F9
100
AcDbEntity
  8
0
370
    -3
390
0
  6
Continuous
100
AcDbCircle
 10
216.017018
 20
-160.59736
 30
0.0
 40
6.0
100
AcDbArc
 50
90.0
 51
270.0
  0
LINE
  5
FA
100
AcDbEntity
  8
0
370
    -3
390
0
  6
CENTER
100
AcDbLine
 10
-147.982988
 20
-147.09776
 30
0.0
 11
-147.982988
 21
-259.75148
 31
0.0
  0
LINE
  5
FB
100
AcDbEntity
  8
0
370
    -3
390
0
  6
Continuous
100
AcDbLine
 10
-112.532988
 20
-150.000752
 30
0.0
 11
-147.982988
 21
-150.000752
 31
0.0
  0
LINE
  5
FC
100
AcDbEntity
  8
0
370
    -3
390
0
  6
Continuous
100
AcDbLine
 10
-147.982988
 20
-162.59736
 30
0.0
 11
-112.932988
 21
-162.59736
 31
0.0
  0
LINE
  5
FD
100
AcDbEntity
  8
0
370
    -3
390
0
  6
Continuous
100
AcDbLine
 10
-147.982988
 20
-156.095571
 30
0.0
 11
-112.932988
 21
-156.095571
 31
0.0
  0
ARC
  5
FE
100
AcDbEntity
  8
0
370
    -3
390
0
  6
Continuous
100
AcDbCircle
 10
-112.532988
 20
-161.000752
 30
0.0
 40
11.0
100
AcDbArc
 50
0.0
 51
90.0
  0
ARC
  5
FF
100
AcDbEntity
  8
0
370
    -3
390
0
  6
Continuous
100
AcDbCircle
 10
-112.932988
 20
-167.59736
 30
0.0
 40
5.0
100
AcDbArc
 50
0.0
 51
90.0
  0
ARC
  5
100
100
AcDbEntity
  8
0
370
    -3
390
0
  6
Continuous
100
AcDbCircle
 10
-112.932988
 20
-161.095571
 30
0.0
 40
5.0
100
AcDbArc
 50
0.0
 51
90.0
  0
LINE
  5
101
100
AcDbEntity
  8
0
370
    -3
390
0
  6
Continuous
100
AcDbLine
 10
-101.532988
 20
-161.000752
 30
0.0
 11
-101.532988
 21
-242.603472
 31
0.0
  0
LINE
  5
102
100
AcDbEntity
  8
0
370
    -3
390
0
  6
Continuous
100
AcDbLine
 10
-107.932988
 20
-161.095571
 30
0.0
 11
-107.932988
 21
-237.173315
 31
0.0
  0
ARC
  5
103
100
AcDbEntity
  8
0
370
    -3
390
0
  6
Continuous
100
AcDbCircle
 10
-112.532988
 20
-242.603472
 30
0.0
 40
11.0
100
AcDbArc
 50
270.0
 51
0.0
  0
ARC
  5
104
100
AcDbEntity
  8
0
370
    -3
390
0
  6
Continuous
100
AcDbCircle
 10
-112.532988
 20
-241.383262
 30
0.0
 40
11.0
100
AcDbArc
 50
270.0
 51
0.0
  0
ARC
  5
105
100
AcDbEntity
  8
0
370
    -3
390
0
  6
Continuous
100
AcDbCircle
 10
-112.932988
 20
-237.173315
 30
0.0
 40
5.0
100
AcDbArc
 50
270.0
 51
0.0
  0
POINT
  5
106
100
AcDbEntity
  8
0
370
    -3
390
0
  6
CENTER
100
AcDbPoint
 10
-134.487645
 20
-252.32853
 30
0.0
  0
LINE
  5
107
100
AcDbEntity
  8
0
370
    -3
390
0
  6
Continuous
100
AcDbLine
 10
-112.532988
 20
-253.603472
 30
0.0
 11
-147.982988
 21
-253.603472
 31
0.0
  0
LINE
  5
108
100
AcDbEntity
  8
0
370
    -3
390
0
  6
Continuous
100
AcDbLine
 10
-112.532988
 20
-252.383262
 30
0.0
 11
-147.982988
 21
-252.383262
 31
0.0
  0
POINT
  5
109
100
AcDbEntity
  8
0
370
    -3
390
0
  6
CENTER
100
AcDbPoint
 10
-161.487645
 20
-252.32853
 30
0.0
  0
LINE
  5
10A
100
AcDbEntity
  8
0
370
    -3
390
0
  6
Continuous
100
AcDbLine
 10
-183.432988
 20
-253.603472
 30
0.0
 11
-147.982988
 21
-253.603472
 31
0.0
  0
LINE
  5
10B
100
AcDbEntity
  8
0
370
    -3
390
0
  6
Continuous
100
AcDbLine
 10
-183.432988
 20
-252.383262
 30
0.0
 11
-147.982988
 21
-252.383262
 31
0.0
  0
ARC
  5
10C
100
AcDbEntity
  8
0
370
    -3
390
0
  6
Continuous
100
AcDbCircle
 10
-138.72277
 20
-238.173315
 30
0.0
 40
4.0
100
AcDbArc
 50
221.178434
 51
270.0
  0
ELLIPSE
  5
10D
100
AcDbEntity
  8
0
370
    -3
390
0
  6
Continuous
100
AcDbEllipse
 10
-147.982988
 20
-245.369449
 30
0.0
 11
8.0
 21
0.0
 31
0.0
210
0.0
220
0.0
230
1.0
 40
0.913545
 41
0.6742171987029189
 42
1.5707963267948966
  0
ARC
  5
10E
100
AcDbEntity
  8
0
370
    -3
390
0
  6
Continuous
100
AcDbCircle
 10
-139.495514
 20
-238.173315
 30
0.0
 40
4.0
100
AcDbArc
 50
226.698421
 51
270.0
  0
ELLIPSE
  5
10F
100
AcDbEntity
  8
0
370
    -3
390
0
  6
Continuous
100
AcDbEllipse
 10
-147.982988
 20
-246.171153
 30
0.0
 11
8.0
 21
0.0
 31
0.0
210
0.0
220
0.0
230
1.0
 40
0.913545
 41
0.7698500149202718
 42
1.5707963267948966
  0
ELLIPSE
  5
110
100
AcDbEntity
  8
0
370
    -3
390
0
  6
Continuous
100
AcDbEllipse
 10
-147.982988
 20
-245.915855
 30
0.0
 11
3.5
 21
0.0
 31
0.0
210
0.0
220
0.0
230
1.0
 40
0.986488
 41
0.0
 42
6.2831853071795862
  0
LINE
  5
111
100
AcDbEntity
  8
0
370
    -3
390
0
  6
Continuous
100
AcDbLine
 10
-149.982988
 20
-247.032258
 30
0.0
 11
-145.982988
 21
-243.378077
 31
0.0
  0
LINE
  5
112
100
AcDbEntity
  8
0
370
    -3
390
0
  6
Continuous
100
AcDbLine
 10
-145.982988
 20
-247.032258
 30
0.0
 11
-149.982988
 21
-243.378077
 31
0.0
  0
ELLIPSE
  5
113
100
AcDbEntity
  8
0
370
    -3
390
0
  6
Continuous
100
AcDbEllipse
 10
-147.982988
 20
-246.171153
 30
0.0
 11
8.0
 21
0.0
 31
0.0
210
0.0
220
0.0
230
1.0
 40
0.913545
 41
1.5707963267948966
 42
2.3717426386695215
  0
ARC
  5
114
100
AcDbEntity
  8
0
370
    -3
390
0
  6
Continuous
100
AcDbCircle
 10
-156.470462
 20
-238.173315
 30
0.0
 40
4.0
100
AcDbArc
 50
270.0
 51
313.301579
  0
ELLIPSE
  5
115
100
AcDbEntity
  8
0
370
    -3
390
0
  6
Continuous
100
AcDbEllipse
 10
-147.982988
 20
-245.369449
 30
0.0
 11
8.0
 21
0.0
 31
0.0
210
0.0
220
0.0
230
1.0
 40
0.913545
 41
1.5707963267948966
 42
2.4673754548869451
  0
ARC
  5
116
100
AcDbEntity
  8
0
370
    -3
390
0
  6
Continuous
100
AcDbCircle
 10
-157.243206
 20
-238.173315
 30
0.0
 40
4.0
100
AcDbArc
 50
270.0
 51
318.821566
  0
LINE
  5
117
100
AcDbEntity
  8
0
370
    -3
390
0
  6
Continuous
100
AcDbLine
 10
-139.495514
 20
-242.173315
 30
0.0
 11
-112.932988
 21
-242.173315
 31
0.0
  0
LINE
  5
118
100
AcDbEntity
  8
0
370
    -3
390
0
  6
Continuous
100
AcDbLine
 10
-156.470462
 20
-242.173315
 30
0.0
 11
-183.032988
 21
-242.173315
 31
0.0
  0
ARC
  5
119
100
AcDbEntity
  8
0
370
    -3
390
0
  6
Continuous
100
AcDbCircle
 10
-183.432988
 20
-241.383262
 30
0.0
 40
11.0
100
AcDbArc
 50
180.0
 51
270.0
  0
ARC
  5
11A
100
AcDbEntity
  8
0
370
    -3
390
0
  6
Continuous
100
AcDbCircle
 10
-183.432988
 20
-242.603472
 30
0.0
 40
11.0
100
AcDbArc
 50
180.0
 51
270.0
  0
ARC
  5
11B
100
AcDbEntity
  8
0
370
    -3
390
0
  6
Continuous
100
AcDbCircle
 10
-183.032988
 20
-237.173315
 30
0.0
 40
5.0
100
AcDbArc
 50
180.0
 51
270.0
  0
LINE
  5
11C
100
AcDbEntity
  8
0
370
    -3
390
0
  6
Continuous
100
AcDbLine
 10
-188.032988
 20
-161.095571
 30
0.0
 11
-188.032988
 21
-237.173315
 31
0.0
  0
LINE
  5
11D
100
AcDbEntity
  8
0
370
    -3
390
0
  6
Continuous
100
AcDbLine
 10
-194.432988
 20
-161.000752
 30
0.0
 11
-194.432988
 21
-242.603472
 31
0.0
  0
LINE
  5
11E
100
AcDbEntity
  8
0
370
    -3
390
0
  6
Continuous
100
AcDbLine
 10
-147.982988
 20
-162.59736
 30
0.0
 11
-183.032988
 21
-162.59736
 31
0.0
  0
LINE
  5
11F
100
AcDbEntity
  8
0
370
    -3
390
0
  6
DIVIDE
100
AcDbLine
 10
-165.982988
 20
-162.59736
 30
0.0
 11
-171.982988
 21
-162.59736
 31
0.0
  0
ARC
  5
120
100
AcDbEntity
  8
0
370
    -3
390
0
  6
Continuous
100
AcDbCircle
 10
-183.032988
 20
-167.59736
 30
0.0
 40
5.0
100
AcDbArc
 50
90.0
 51
180.0
  0
LINE
  5
121
100
AcDbEntity
  8
0
370
    -3
390
0
  6
Continuous
100
AcDbLine
 10
-183.432988
 20
-150.000752
 30
0.0
 11
-147.982988
 21
-150.000752
 31
0.0
  0
ARC
  5
122
100
AcDbEntity
  8
0
370
    -3
390
0
  6
Continuous
100
AcDbCircle
 10
-183.432988
 20
-161.000752
 30
0.0
 40
11.0
100
AcDbArc
 50
90.0
 51
180.0
  0
LINE
  5
123
100
AcDbEntity
  8
0
370
    -3
390
0
  6
Continuous
100
AcDbLine
 10
-147.982988
 20
-156.095571
 30
0.0
 11
-183.032988
 21
-156.095571
 31
0.0
  0
ARC
  5
124
100
AcDbEntity
  8
0
370
    -3
390
0
  6
Continuous
100
AcDbCircle
 10
-183.032988
 20
-161.095571
 30
0.0
 40
5.0
100
AcDbArc
 50
90.0
 51
180.0
  0
LINE
  5
125
100
AcDbEntity
  8
0
370
    -3
390
0
  6
CENTER
100
AcDbLine
 10
472.396433
 20
-307.731434
 30
0.0
 11
472.396433
 21
-24.382811
 31
0.0
  0
LINE
  5
126
100
AcDbEntity
  8
0
370
    -3
390
0
  6
Continuous
100
AcDbLine
 10
451.896433
 20
-50.59736
 30
0.0
 11
451.896433
 21
-76.017787
 31
0.0
  0
CIRCLE
  5
127
100
AcDbEntity
  8
0
370
    -3
390
0
  6
Continuous
100
AcDbCircle
 10
472.396433
 20
-60.59736
 30
0.0
 40
10.0
  0
LINE
  5
128
100
AcDbEntity
  8
0
370
    -3
390
0
  6
CENTER
100
AcDbLine
 10
495.564346
 20
-60.59736
 30
0.0
 11
448.541832
 21
-60.59736
 31
0.0
  0
ARC
  5
129
100
AcDbEntity
  8
0
370
    -3
390
0
  6
Continuous
100
AcDbCircle
 10
461.896433
 20
-50.59736
 30
0.0
 40
10.0
100
AcDbArc
 50
90.0
 51
180.0
  0
LINE
  5
12A
100
AcDbEntity
  8
0
370
    -3
390
0
  6
Continuous
100
AcDbLine
 10
482.896433
 20
-40.59736
 30
0.0
 11
461.896433
 21
-40.59736
 31
0.0
  0
ARC
  5
12B
100
AcDbEntity
  8
0
370
    -3
390
0
  6
Continuous
100
AcDbCircle
 10
482.896433
 20
-50.59736
 30
0.0
 40
10.0
100
AcDbArc
 50
0.0
 51
90.0
  0
LINE
  5
12C
100
AcDbEntity
  8
0
370
    -3
390
0
  6
Continuous
100
AcDbLine
 10
492.896433
 20
-50.59736
 30
0.0
 11
492.896433
 21
-76.017787
 31
0.0
  0
CIRCLE
  5
12D
100
AcDbEntity
  8
0
370
    -3
390
0
  6
Continuous
100
AcDbCircle
 10
472.396433
 20
-160.59736
 30
0.0
 40
4.0
  0
CIRCLE
  5
12E
100
AcDbEntity
  8
0
370
    -3
390
0
  6
Continuous
100
AcDbCircle
 10
472.396433
 20
-160.59736
 30
0.0
 40
3.325
  0
CIRCLE
  5
12F
100
AcDbEntity
  8
0
370
    -3
390
0
  6
Continuous
100
AcDbCircle
 10
472.396433
 20
-160.59736
 30
0.0
 40
31.0
  0
ARC
  5
130
100
AcDbEntity
  8
0
370
    -3
390
0
  6
Continuous
100
AcDbCircle
 10
504.396433
 20
-161.832934
 30
0.0
 40
85.0
100
AcDbArc
 50
0.0
 51
85.577622
  0
ARC
  5
131
100
AcDbEntity
  8
0
370
    -3
390
0
  6
Continuous
100
AcDbCircle
 10
472.396433
 20
-575.59736
 30
0.0
 40
500.0
100
AcDbArc
 50
85.577622
 51
90.0
  0
ARC
  5
132
100
AcDbEntity
  8
0
370
    -3
390
0
  6
Continuous
100
AcDbCircle
 10
472.396433
 20
-575.59736
 30
0.0
 40
500.0
100
AcDbArc
 50
90.0
 51
94.422378
  0
LINE
  5
133
100
AcDbEntity
  8
0
370
    -3
390
0
  6
Continuous
100
AcDbLine
 10
472.396433
 20
-283.597363
 30
0.0
 11
594.396436
 21
-283.597363
 31
0.0
  0
LINE
  5
134
100
AcDbEntity
  8
0
370
    -3
390
0
  6
Continuous
100
AcDbLine
 10
472.396433
 20
-302.597364
 30
0.0
 11
532.255008
 21
-302.597364
 31
0.0
  0
LINE
  5
135
100
AcDbEntity
  8
0
370
    -3
390
0
  6
Continuous
100
AcDbLine
 10
597.396436
 20
-305.597364
 30
0.0
 11
597.396436
 21
-286.597363
 31
0.0
  0
LINE
  5
136
100
AcDbEntity
  8
0
370
    -3
390
0
  6
Continuous
100
AcDbLine
 10
552.396435
 20
-305.597364
 30
0.0
 11
597.396436
 21
-305.597364
 31
0.0
  0
LINE
  5
137
100
AcDbEntity
  8
0
370
    -3
390
0
  6
CENTER
100
AcDbLine
 10
579.896436
 20
-313.421822
 30
0.0
 11
579.896436
 21
-277.883785
 31
0.0
  0
LINE
  5
138
100
AcDbEntity
  8
0
370
    -3
390
0
  6
CENTER
100
AcDbLine
 10
505.943257
 20
-192.597361
 30
0.0
 11
443.300945
 21
-192.597361
 31
0.0
  0
LINE
  5
139
100
AcDbEntity
  8
0
370
    -3
390
0
  6
Continuous
100
AcDbLine
 10
392.396431
 20
-305.597364
 30
0.0
 11
347.39643
 21
-305.597364
 31
0.0
  0
LINE
  5
13A
100
AcDbEntity
  8
0
370
    -3
390
0
  6
Continuous
100
AcDbLine
 10
472.396433
 20
-302.597364
 30
0.0
 11
412.537858
 21
-302.597364
 31
0.0
  0
ARC
  5
13B
100
AcDbEntity
  8
0
370
    -3
390
0
  6
Continuous
100
AcDbCircle
 10
594.396436
 20
-286.597363
 30
0.0
 40
3.0
100
AcDbArc
 50
0.0
 51
90.0
  0
LINE
  5
13C
100
AcDbEntity
  8
0
370
    -3
390
0
  6
Continuous
100
AcDbLine
 10
589.396433
 20
-280.597363
 30
0.0
 11
589.396433
 21
-161.832934
 31
0.0
  0
ARC
  5
13D
100
AcDbEntity
  8
0
370
    -3
390
0
  6
Continuous
100
AcDbCircle
 10
472.396433
 20
-160.59736
 30
0.0
 40
31.0
100
AcDbArc
 50
180.0
 51
0.0
  0
LINE
  5
13E
100
AcDbEntity
  8
0
370
    -3
390
0
  6
Continuous
100
AcDbLine
 10
557.520018
 20
-160.59736
 30
0.0
 11
557.520018
 21
-280.597363
 31
0.0
  0
ARC
  5
13F
100
AcDbEntity
  8
0
370
    -3
390
0
  6
Continuous
100
AcDbCircle
 10
560.520018
 20
-280.597363
 30
0.0
 40
3.0
100
AcDbArc
 50
180.0
 51
270.0
  0
ARC
  5
140
100
AcDbEntity
  8
0
370
    -3
390
0
  6
Continuous
100
AcDbCircle
 10
592.396433
 20
-280.597363
 30
0.0
 40
3.0
100
AcDbArc
 50
180.0
 51
270.0
  0
LINE
  5
141
100
AcDbEntity
  8
0
370
    -3
390
0
  6
Continuous
100
AcDbLine
 10
583.920018
 20
-160.59736
 30
0.0
 11
583.920018
 21
-280.597363
 31
0.0
  0
ELLIPSE
  5
142
100
AcDbEntity
  8
0
370
    -3
390
0
  6
Continuous
100
AcDbEllipse
 10
570.720018
 20
-160.59736
 30
0.0
 11
0.0
 21
20.0
 31
0.0
210
0.0
220
0.0
230
1.0
 40
0.66
 41
4.7123889803846897
 42
1.5707963267948968
  0
ARC
  5
143
100
AcDbEntity
  8
0
370
    -3
390
0
  6
Continuous
100
AcDbCircle
 10
586.920018
 20
-280.597363
 30
0.0
 40
3.0
100
AcDbArc
 50
180.0
 51
270.0
  0
LINE
  5
144
100
AcDbEntity
  8
0
370
    -3
390
0
  6
Continuous
100
AcDbLine
 10
533.396438
 20
-303.597364
 30
0.0
 11
550.396435
 21
-303.597364
 31
0.0
  0
ARC
  5
145
100
AcDbEntity
  8
0
370
    -3
390
0
  6
Continuous
100
AcDbCircle
 10
539.396433
 20
-295.59736
 30
0.0
 40
10.0
100
AcDbArc
 50
224.427032
 51
233.130136
  0
LINE
  5
146
100
AcDbEntity
  8
0
370
    -3
390
0
  6
Continuous
100
AcDbLine
 10
411.396428
 20
-303.597364
 30
0.0
 11
394.396431
 21
-303.597364
 31
0.0
  0
ARC
  5
147
100
AcDbEntity
  8
0
370
    -3
390
0
  6
Continuous
100
AcDbCircle
 10
405.396433
 20
-295.59736
 30
0.0
 40
10.0
100
AcDbArc
 50
306.869864
 51
315.572968
  0
ARC
  5
148
100
AcDbEntity
  8
0
370
    -3
390
0
  6
Continuous
100
AcDbCircle
 10
472.396433
 20
-160.59736
 30
0.0
 40
31.0
100
AcDbArc
 50
70.008591
 51
180.0
  0
ARC
  5
149
100
AcDbEntity
  8
0
370
    -3
390
0
  6
Continuous
100
AcDbCircle
 10
550.396435
 20
-305.597364
 30
0.0
 40
2.0
100
AcDbArc
 50
0.0
 51
90.0
  0
ARC
  5
14A
100
AcDbEntity
  8
0
370
    -3
390
0
  6
Continuous
100
AcDbCircle
 10
394.396431
 20
-305.597364
 30
0.0
 40
2.0
100
AcDbArc
 50
90.0
 51
180.0
  0
LINE
  5
14B
100
AcDbEntity
  8
0
370
    -3
390
0
  6
Continuous
100
AcDbLine
 10
524.309822
 20
-160.59736
 30
0.0
 11
539.896433
 21
-160.59736
 31
0.0
  0
ARC
  5
14C
100
AcDbEntity
  8
0
370
    -3
390
0
  6
Continuous
100
AcDbCircle
 10
472.396433
 20
-575.59736
 30
0.0
 40
462.518012
100
AcDbArc
 50
85.577622
 51
90.0
  0
ARC
  5
14D
100
AcDbEntity
  8
0
370
    -3
390
0
  6
Continuous
100
AcDbCircle
 10
504.396433
 20
-161.832934
 30
0.0
 40
47.518012
100
AcDbArc
 50
0.0
 51
85.577622
  0
LINE
  5
14E
100
AcDbEntity
  8
0
370
    -3
390
0
  6
Continuous
100
AcDbLine
 10
551.914445
 20
-280.597363
 30
0.0
 11
551.914445
 21
-160.59736
 31
0.0
  0
ARC
  5
14F
100
AcDbEntity
  8
0
370
    -3
390
0
  6
Continuous
100
AcDbCircle
 10
554.914445
 20
-280.597363
 30
0.0
 40
3.0
100
AcDbArc
 50
180.0
 51
270.0
  0
ARC
  5
150
100
AcDbEntity
  8
0
370
    -3
390
0
  6
Continuous
100
AcDbCircle
 10
472.396433
 20
-160.59736
 30
0.0
 40
49.0
100
AcDbArc
 50
270.0
 51
356.692638
  0
LINE
  5
151
100
AcDbEntity
  8
0
370
    -3
390
0
  6
Continuous
100
AcDbLine
 10
543.896433
 20
-267.897363
 30
0.0
 11
543.896433
 21
-164.59736
 31
0.0
  0
LINE
  5
152
100
AcDbEntity
  8
0
370
    -3
390
0
  6
Continuous
100
AcDbLine
 10
472.396433
 20
-275.897363
 30
0.0
 11
535.896433
 21
-275.897363
 31
0.0
  0
ARC
  5
153
100
AcDbEntity
  8
0
370
    -3
390
0
  6
Continuous
100
AcDbCircle
 10
535.896433
 20
-267.897363
 30
0.0
 40
8.0
100
AcDbArc
 50
270.0
 51
0.0
  0
ARC
  5
154
100
AcDbEntity
  8
0
370
    -3
390
0
  6
Continuous
100
AcDbCircle
 10
539.896433
 20
-164.59736
 30
0.0
 40
4.0
100
AcDbArc
 50
0.0
 51
90.0
  0
ARC
  5
155
100
AcDbEntity
  8
0
370
    -3
390
0
  6
Continuous
100
AcDbCircle
 10
524.309822
 20
-163.59736
 30
0.0
 40
3.0
100
AcDbArc
 50
90.0
 51
176.692638
  0
LINE
  5
156
100
AcDbEntity
  8
0
370
    -3
390
0
  6
Continuous
100
AcDbLine
 10
449.396433
 20
-154.59736
 30
0.0
 11
449.396433
 21
-166.59736
 31
0.0
  0
LINE
  5
157
100
AcDbEntity
  8
0
370
    -3
390
0
  6
Continuous
100
AcDbLine
 10
449.396433
 20
-154.59736
 30
0.0
 11
457.396433
 21
-154.59736
 31
0.0
  0
ARC
  5
158
100
AcDbEntity
  8
0
370
    -3
390
0
  6
Continuous
100
AcDbCircle
 10
472.396433
 20
-160.59736
 30
0.0
 40
20.0
100
AcDbArc
 50
197.457603
 51
162.542397
  0
LINE
  5
159
100
AcDbEntity
  8
0
370
    -3
390
0
  6
Continuous
100
AcDbLine
 10
457.396433
 20
-154.59736
 30
0.0
 11
457.396433
 21
-166.59736
 31
0.0
  0
LINE
  5
15A
100
AcDbEntity
  8
0
370
    -3
390
0
  6
Continuous
100
AcDbLine
 10
449.396433
 20
-166.59736
 30
0.0
 11
457.396433
 21
-166.59736
 31
0.0
  0
LINE
  5
15B
100
AcDbEntity
  8
0
370
    -3
390
0
  6
Continuous
100
AcDbLine
 10
472.396433
 20
-275.897363
 30
0.0
 11
408.896433
 21
-275.897363
 31
0.0
  0
ARC
  5
15C
100
AcDbEntity
  8
0
370
    -3
390
0
  6
Continuous
100
AcDbCircle
 10
408.896433
 20
-267.897363
 30
0.0
 40
8.0
100
AcDbArc
 50
180.0
 51
270.0
  0
LINE
  5
15D
100
AcDbEntity
  8
0
370
    -3
390
0
  6
Continuous
100
AcDbLine
 10
400.896433
 20
-267.897363
 30
0.0
 11
400.896433
 21
-164.59736
 31
0.0
  0
ARC
  5
15E
100
AcDbEntity
  8
0
370
    -3
390
0
  6
Continuous
100
AcDbCircle
 10
404.896433
 20
-164.59736
 30
0.0
 40
4.0
100
AcDbArc
 50
90.0
 51
180.0
  0
ARC
  5
15F
100
AcDbEntity
  8
0
370
    -3
390
0
  6
Continuous
100
AcDbCircle
 10
472.396433
 20
-160.59736
 30
0.0
 40
49.0
100
AcDbArc
 50
183.307362
 51
270.0
  0
LINE
  5
160
100
AcDbEntity
  8
0
370
    -3
390
0
  6
Continuous
100
AcDbLine
 10
420.483044
 20
-160.59736
 30
0.0
 11
404.896433
 21
-160.59736
 31
0.0
  0
ARC
  5
161
100
AcDbEntity
  8
0
370
    -3
390
0
  6
Continuous
100
AcDbCircle
 10
420.483044
 20
-163.59736
 30
0.0
 40
3.0
100
AcDbArc
 50
3.307362
 51
90.0
  0
ARC
  5
162
100
AcDbEntity
  8
0
370
    -3
390
0
  6
Continuous
100
AcDbCircle
 10
389.878421
 20
-280.597363
 30
0.0
 40
3.0
100
AcDbArc
 50
270.0
 51
0.0
  0
LINE
  5
163
100
AcDbEntity
  8
0
370
    -3
390
0
  6
Continuous
100
AcDbLine
 10
392.878421
 20
-280.597363
 30
0.0
 11
392.878421
 21
-160.59736
 31
0.0
  0
ARC
  5
164
100
AcDbEntity
  8
0
370
    -3
390
0
  6
Continuous
100
AcDbCircle
 10
440.396433
 20
-161.832934
 30
0.0
 40
47.518012
100
AcDbArc
 50
94.422378
 51
180.0
  0
ARC
  5
165
100
AcDbEntity
  8
0
370
    -3
390
0
  6
Continuous
100
AcDbCircle
 10
472.396433
 20
-575.59736
 30
0.0
 40
462.518012
100
AcDbArc
 50
90.0
 51
94.422378
  0
ARC
  5
166
100
AcDbEntity
  8
0
370
    -3
390
0
  6
Continuous
100
AcDbCircle
 10
384.272848
 20
-280.597363
 30
0.0
 40
3.0
100
AcDbArc
 50
270.0
 51
0.0
  0
ARC
  5
167
100
AcDbEntity
  8
0
370
    -3
390
0
  6
Continuous
100
AcDbCircle
 10
357.872848
 20
-280.597363
 30
0.0
 40
3.0
100
AcDbArc
 50
270.0
 51
0.0
  0
LINE
  5
168
100
AcDbEntity
  8
0
370
    -3
390
0
  6
Continuous
100
AcDbLine
 10
360.872848
 20
-160.59736
 30
0.0
 11
360.872848
 21
-280.597363
 31
0.0
  0
LINE
  5
169
100
AcDbEntity
  8
0
370
    -3
390
0
  6
Continuous
100
AcDbLine
 10
387.272848
 20
-160.59736
 30
0.0
 11
387.272848
 21
-280.597363
 31
0.0
  0
ELLIPSE
  5
16A
100
AcDbEntity
  8
0
370
    -3
390
0
  6
Continuous
100
AcDbEllipse
 10
374.072848
 20
-160.59736
 30
0.0
 11
0.0
 21
20.0
 31
0.0
210
0.0
220
0.0
230
1.0
 40
0.66
 41
4.7123889803846897
 42
1.5707963267948968
  0
ARC
  5
16B
100
AcDbEntity
  8
0
370
    -3
390
0
  6
Continuous
100
AcDbCircle
 10
352.396433
 20
-280.597363
 30
0.0
 40
3.0
100
AcDbArc
 50
270.0
 51
0.0
  0
LINE
  5
16C
100
AcDbEntity
  8
0
370
    -3
390
0
  6
Continuous
100
AcDbLine
 10
355.396433
 20
-280.597363
 30
0.0
 11
355.396433
 21
-161.832934
 31
0.0
  0
ARC
  5
16D
100
AcDbEntity
  8
0
370
    -3
390
0
  6
Continuous
100
AcDbCircle
 10
350.39643
 20
-286.597363
 30
0.0
 40
3.0
100
AcDbArc
 50
90.0
 51
180.0
  0
LINE
  5
16E
100
AcDbEntity
  8
0
370
    -3
390
0
  6
CENTER
100
AcDbLine
 10
364.89643
 20
-313.421822
 30
0.0
 11
364.89643
 21
-277.883785
 31
0.0
  0
LINE
  5
16F
100
AcDbEntity
  8
0
370
    -3
390
0
  6
Continuous
100
AcDbLine
 10
472.396433
 20
-283.597363
 30
0.0
 11
350.39643
 21
-283.597363
 31
0.0
  0
LINE
  5
170
100
AcDbEntity
  8
0
370
    -3
390
0
  6
Continuous
100
AcDbLine
 10
347.39643
 20
-305.597364
 30
0.0
 11
347.39643
 21
-286.597363
 31
0.0
  0
LINE
  5
171
100
AcDbEntity
  8
0
370
    -3
390
0
  6
CENTER
100
AcDbLine
 10
351.639645
 20
-160.59736
 30
0.0
 11
594.675766
 21
-160.59736
 31
0.0
  0
ARC
  5
172
100
AcDbEntity
  8
0
370
    -3
390
0
  6
Continuous
100
AcDbCircle
 10
440.396433
 20
-161.832934
 30
0.0
 40
85.0
100
AcDbArc
 50
94.422378
 51
180.0
  0
CIRCLE
  5
173
100
AcDbEntity
  8
0
370
    -3
390
0
  6
Continuous
100
AcDbCircle
 10
472.396433
 20
-160.59736
 30
0.0
 40
41.0
  0
LINE
  5
174
100
AcDbEntity
  8
0
370
    -3
390
0
  6
CENTER
100
AcDbLine
 10
371.314291
 20
-192.597361
 30
0.0
 11
313.002661
 21
-192.597361
 31
0.0
  0
LINE
  5
175
100
AcDbEntity
  8
0
370
    -3
390
0
  6
Continuous
100
AcDbLine
 10
354.17562
 20
-156.357568
 30
0.0
 11
328.219982
 21
-160.616397
 31
0.0
  0
ARC
  5
176
100
AcDbEntity
  8
0
370
    -3
390
0
  6
Continuous
100
AcDbCircle
 10
330.648722
 20
-175.418465
 30
0.0
 40
15.0
100
AcDbArc
 50
99.318123
 51
178.317231
  0
ARC
  5
177
100
AcDbEntity
  8
0
370
    -3
390
0
  6
Continuous
100
AcDbCircle
 10
915.396433
 20
-192.597361
 30
0.0
 40
600.0
100
AcDbArc
 50
178.317231
 51
184.715125
  0
ARC
  5
178
100
AcDbEntity
  8
0
370
    -3
390
0
  6
Continuous
100
AcDbCircle
 10
319.026419
 20
-236.719995
 30
0.0
 40
2.0
100
AcDbArc
 50
184.231338
 51
246.0
  0
ARC
  5
179
100
AcDbEntity
  8
0
370
    -3
390
0
  6
Continuous
100
AcDbCircle
 10
317.601746
 20
-239.369599
 30
0.0
 40
1.0
100
AcDbArc
 50
336.0
 51
66.0
  0
LINE
  5
17A
100
AcDbEntity
  8
0
370
    -3
390
0
  6
Continuous
100
AcDbLine
 10
339.520724
 20
-192.597361
 30
0.0
 11
313.309062
 21
-251.469717
 31
0.0
  0
ARC
  5
17B
100
AcDbEntity
  8
0
370
    -3
390
0
  6
Continuous
100
AcDbCircle
 10
314.222608
 20
-251.876454
 30
0.0
 40
1.0
100
AcDbArc
 50
156.0
 51
246.0
  0
ARC
  5
17C
100
AcDbEntity
  8
0
370
    -3
390
0
  6
Continuous
100
AcDbCircle
 10
321.514825
 20
-248.774268
 30
0.0
 40
9.0
100
AcDbArc
 50
139.398469
 51
172.601548
  0
LINE
  5
17D
100
AcDbEntity
  8
0
370
    -3
390
0
  6
Continuous
100
AcDbLine
 10
355.396433
 20
-166.282589
 30
0.0
 11
316.373798
 21
-253.928862
 31
0.0
  0
LINE
  5
17E
100
AcDbEntity
  8
0
370
    -3
390
0
  6
Continuous
100
AcDbLine
 10
355.396433
 20
-239.097361
 30
0.0
 11
322.977208
 21
-239.097361
 31
0.0
  0
ARC
  5
17F
100
AcDbEntity
  8
0
370
    -3
390
0
  6
Continuous
100
AcDbCircle
 10
313.87893
 20
-247.782749
 30
0.0
 40
1.299999
100
AcDbArc
 50
172.601548
 51
246.000018
  0
LINE
  5
180
100
AcDbEntity
  8
0
370
    -3
390
0
  6
Continuous
100
AcDbLine
 10
318.326134
 20
-249.543844
 30
0.0
 11
321.843284
 21
-251.10978
 31
0.0
  0
LINE
  5
181
100
AcDbEntity
  8
0
370
    -3
390
0
  6
Continuous
100
AcDbLine
 10
319.953081
 20
-245.889662
 30
0.0
 11
323.470231
 21
-247.455598
 31
0.0
  0
LINE
  5
182
100
AcDbEntity
  8
0
370
    -3
390
0
  6
Continuous
100
AcDbLine
 10
313.815871
 20
-252.789999
 30
0.0
 11
316.373798
 21
-253.928862
 31
0.0
  0
ARC
  5
183
100
AcDbEntity
  8
0
370
    -3
390
0
  6
Continuous
100
AcDbCircle
 10
316.430384
 20
-242.00052
 30
0.0
 40
1.0
100
AcDbArc
 50
336.0
 51
4.715125
  0
ARC
  5
184
100
AcDbEntity
  8
0
370
    -3
390
0
  6
Continuous
100
AcDbCircle
 10
315.668571
 20
-243.763147
 30
0.0
 40
1.299999
100
AcDbArc
 50
65.999999
 51
139.398469
  0
LINE
  5
185
100
AcDbEntity
  8
0
370
    -3
390
0
  6
Continuous
100
AcDbLine
 10
317.091713
 20
-242.973744
 30
0.0
 11
316.197329
 21
-242.575539
 31
0.0
  0
LINE
  5
186
100
AcDbEntity
  8
0
370
    -3
390
0
  6
Continuous
100
AcDbLine
 10
314.244556
 20
-249.368563
 30
0.0
 11
313.350172
 21
-248.970357
 31
0.0
  0
POINT
  5
187
100
AcDbEntity
  8
0
370
    -3
390
0
  6
Continuous
100
AcDbPoint
 10
315.668135
 20
-246.171154
 30
0.0
  0
LINE
  5
188
100
AcDbEntity
  8
0
370
    -3
390
0
  6
Continuous
100
AcDbLine
 10
323.647614
 20
-247.917697
 30
0.0
 11
322.305383
 21
-250.932397
 31
0.0
  0
LINE
  5
189
100
AcDbEntity
  8
0
370
    -3
390
0
  6
Continuous
100
AcDbLine
 10
321.843284
 20
-251.10978
 30
0.0
 11
322.305383
 21
-250.932397
 31
0.0
  0
LINE
  5
18A
100
AcDbEntity
  8
0
370
    -3
390
0
  6
Continuous
100
AcDbLine
 10
323.470231
 20
-247.455598
 30
0.0
 11
323.647614
 21
-247.917697
 31
0.0
  0
LINE
  5
18B
100
AcDbEntity
  8
0
370
    -3
390
0
  6
Continuous
100
AcDbLine
 10
319.810723
 20
-246.209403
 30
0.0
 11
323.647614
 21
-247.917697
 31
0.0
  0
LINE
  5
18C
100
AcDbEntity
  8
0
370
    -3
390
0
  6
Continuous
100
AcDbLine
 10
318.468492
 20
-249.224103
 30
0.0
 11
322.305383
 21
-250.932397
 31
0.0
  0
LINE
  5
18D
100
AcDbEntity
  8
0
370
    -3
390
0
  6
Continuous
100
AcDbLine
 10
355.55926
 20
-156.574219
 30
0.0
 11
339.520724
 21
-192.597361
 31
0.0
  0
ARC
  5
18E
100
AcDbEntity
  8
0
370
    -3
390
0
  6
Continuous
100
AcDbCircle
 10
353.689872
 20
-153.397154
 30
0.0
 40
3.0
100
AcDbArc
 50
279.318123
 51
310.002136
  0
LINE
  5
18F
100
AcDbEntity
  8
0
370
    -3
390
0
  6
CENTER
100
AcDbLine
 10
339.377208
 20
-231.599758
 30
0.0
 11
339.377208
 21
-241.917847
 31
0.0
  0
LINE
  5
190
100
AcDbEntity
  8
0
370
    -3
390
0
  6
CENTER
100
AcDbLine
 10
312.614451
 20
-244.811566
 30
0.0
 11
324.006868
 21
-249.883797
 31
0.0
  0
LINE
  5
191
100
AcDbEntity
  8
0
370
    -3
390
0
  6
Continuous
100
AcDbLine
 10
72.517018
 20
6.706518
 30
0.0
 11
72.517018
 21
123.706518
 31
0.0
  0
LINE
  5
192
100
AcDbEntity
  8
0
370
    -3
390
0
  6
Continuous
100
AcDbLine
 10
72.517018
 20
6.706518
 30
0.0
 11
57.517018
 21
6.706518
 31
0.0
  0
ARC
  5
193
100
AcDbEntity
  8
0
370
    -3
390
0
  6
Continuous
100
AcDbCircle
 10
57.517018
 20
9.706518
 30
0.0
 40
3.0
100
AcDbArc
 50
180.0
 51
270.0
  0
LINE
  5
194
100
AcDbEntity
  8
0
370
    -3
390
0
  6
Continuous
100
AcDbLine
 10
53.517019
 20
23.340394
 30
0.0
 11
53.517019
 21
12.072448
 31
0.0
  0
LINE
  5
195
100
AcDbEntity
  8
0
370
    -3
390
0
  6
Continuous
100
AcDbLine
 10
53.855435
 20
23.926613
 30
0.0
 11
53.517019
 21
23.340394
 31
0.0
  0
LINE
  5
196
100
AcDbEntity
  8
0
370
    -3
390
0
  6
Continuous
100
AcDbLine
 10
54.01702
 20
11.206518
 30
0.0
 11
53.517019
 21
12.072448
 31
0.0
  0
LINE
  5
197
100
AcDbEntity
  8
0
370
    -3
390
0
  6
Continuous
100
AcDbLine
 10
54.017019
 20
23.705615
 30
0.0
 11
54.017019
 21
11.206518
 31
0.0
  0
LINE
  5
198
100
AcDbEntity
  8
0
370
    -3
390
0
  6
Continuous
100
AcDbLine
 10
54.517018
 20
11.206518
 30
0.0
 11
54.01702
 21
11.206518
 31
0.0
  0
ARC
  5
199
100
AcDbEntity
  8
0
370
    -3
390
0
  6
Continuous
100
AcDbCircle
 10
64.517018
 20
9.706518
 30
0.0
 40
3.0
100
AcDbArc
 50
180.0
 51
270.0
  0
ARC
  5
19A
100
AcDbEntity
  8
0
370
    -3
390
0
  6
Continuous
100
AcDbCircle
 10
58.517018
 20
100.206518
 30
0.0
 40
3.0
100
AcDbArc
 50
0.0
 51
90.0
  0
ARC
  5
19B
100
AcDbEntity
  8
0
370
    -3
390
0
  6
Continuous
100
AcDbCircle
 10
52.517018
 20
106.206518
 30
0.0
 40
3.0
100
AcDbArc
 50
180.0
 51
270.0
  0
LINE
  5
19C
100
AcDbEntity
  8
0
370
    -3
390
0
  6
Continuous
100
AcDbLine
 10
49.517018
 20
123.706518
 30
0.0
 11
49.517018
 21
103.206518
 31
0.0
  0
LINE
  5
19D
100
AcDbEntity
  8
0
370
    -3
390
0
  6
Continuous
100
AcDbLine
 10
45.017018
 20
103.206518
 30
0.0
 11
45.017018
 21
123.706518
 31
0.0
  0
LINE
  5
19E
100
AcDbEntity
  8
0
370
    -3
390
0
  6
Continuous
100
AcDbLine
 10
45.017018
 20
103.206518
 30
0.0
 11
49.517018
 21
103.206518
 31
0.0
  0
LINE
  5
19F
100
AcDbEntity
  8
0
370
    -3
390
0
  6
Continuous
100
AcDbLine
 10
52.517018
 20
103.206518
 30
0.0
 11
58.517018
 21
103.206518
 31
0.0
  0
LINE
  5
1A0
100
AcDbEntity
  8
0
370
    -3
390
0
  6
Continuous
100
AcDbLine
 10
61.517018
 20
9.706518
 30
0.0
 11
61.517018
 21
123.706518
 31
0.0
  0
ARC
  5
1A1
100
AcDbEntity
  8
0
370
    -3
390
0
  6
Continuous
100
AcDbCircle
 10
37.017018
 20
37.706518
 30
0.0
 40
2.0
100
AcDbArc
 50
0.0
 51
90.0
  0
LINE
  5
1A2
100
AcDbEntity
  8
0
370
    -3
390
0
  6
Continuous
100
AcDbLine
 10
39.017018
 20
123.706518
 30
0.0
 11
39.017018
 21
119.706518
 31
0.0
  0
LINE
  5
1A3
100
AcDbEntity
  8
0
370
    -3
390
0
  6
Continuous
100
AcDbLine
 10
37.017018
 20
123.706518
 30
0.0
 11
37.017018
 21
118.840391
 31
0.0
  0
LINE
  5
1A4
100
AcDbEntity
  8
0
370
    -3
390
0
  6
Continuous
100
AcDbLine
 10
37.017018
 20
107.57245
 30
0.0
 11
37.017018
 21
25.706518
 31
0.0
  0
LINE
  5
1A5
100
AcDbEntity
  8
0
370
    -3
390
0
  6
Continuous
100
AcDbLine
 10
39.017018
 20
100.206518
 30
0.0
 11
61.517018
 21
100.206518
 31
0.0
  0
ARC
  5
1A6
100
AcDbEntity
  8
0
370
    -3
390
0
  6
Continuous
100
AcDbCircle
 10
58.517018
 20
21.680449
 30
0.0
 40
3.0
100
AcDbArc
 50
0.0
 51
87.0
  0
ARC
  5
1A7
100
AcDbEntity
  8
0
370
    -3
390
0
  6
Continuous
100
AcDbCircle
 10
51.517018
 20
22.047304
 30
0.0
 40
3.0
100
AcDbArc
 50
0.0
 51
87.0
  0
LINE
  5
1A8
100
AcDbEntity
  8
0
370
    -3
390
0
  6
Continuous
100
AcDbLine
 10
58.674026
 20
24.676338
 30
0.0
 11
40.912346
 21
25.607188
 31
0.0
  0
ARC
  5
1A9
100
AcDbEntity
  8
0
370
    -3
390
0
  6
Continuous
100
AcDbCircle
 10
41.017018
 20
27.604447
 30
0.0
 40
2.0
100
AcDbArc
 50
180.0
 51
267.0
  0
LINE
  5
1AA
100
AcDbEntity
  8
0
370
    -3
390
0
  6
Continuous
100
AcDbLine
 10
39.017018
 20
106.706518
 30
0.0
 11
39.017018
 21
27.604447
 31
0.0
  0
LINE
  5
1AB
100
AcDbEntity
  8
0
370
    -3
390
0
  6
Continuous
100
AcDbLine
 10
54.517018
 20
22.047304
 30
0.0
 11
54.517018
 21
9.706518
 31
0.0
  0
LINE
  5
1AC
100
AcDbEntity
  8
0
370
    -3
390
0
  6
Continuous
100
AcDbLine
 10
72.517018
 20
240.706518
 30
0.0
 11
72.517018
 21
123.706518
 31
0.0
  0
LINE
  5
1AD
100
AcDbEntity
  8
0
370
    -3
390
0
  6
Continuous
100
AcDbLine
 10
72.517018
 20
240.706518
 30
0.0
 11
57.517018
 21
240.706518
 31
0.0
  0
ARC
  5
1AE
100
AcDbEntity
  8
0
370
    -3
390
0
  6
Continuous
100
AcDbCircle
 10
57.517018
 20
237.706518
 30
0.0
 40
3.0
100
AcDbArc
 50
90.0
 51
180.0
  0
LINE
  5
1AF
100
AcDbEntity
  8
0
370
    -3
390
0
  6
Continuous
100
AcDbLine
 10
53.517019
 20
224.072642
 30
0.0
 11
53.517019
 21
235.340588
 31
0.0
  0
LINE
  5
1B0
100
AcDbEntity
  8
0
370
    -3
390
0
  6
Continuous
100
AcDbLine
 10
53.855435
 20
223.486422
 30
0.0
 11
53.517019
 21
224.072642
 31
0.0
  0
LINE
  5
1B1
100
AcDbEntity
  8
0
370
    -3
390
0
  6
Continuous
100
AcDbLine
 10
54.01702
 20
236.206518
 30
0.0
 11
53.517019
 21
235.340588
 31
0.0
  0
LINE
  5
1B2
100
AcDbEntity
  8
0
370
    -3
390
0
  6
Continuous
100
AcDbLine
 10
54.017019
 20
223.707421
 30
0.0
 11
54.017019
 21
236.206518
 31
0.0
  0
LINE
  5
1B3
100
AcDbEntity
  8
0
370
    -3
390
0
  6
Continuous
100
AcDbLine
 10
54.517018
 20
236.206518
 30
0.0
 11
54.01702
 21
236.206518
 31
0.0
  0
ARC
  5
1B4
100
AcDbEntity
  8
0
370
    -3
390
0
  6
Continuous
100
AcDbCircle
 10
64.517018
 20
237.706518
 30
0.0
 40
3.0
100
AcDbArc
 50
90.0
 51
180.0
  0
ARC
  5
1B5
100
AcDbEntity
  8
0
370
    -3
390
0
  6
Continuous
100
AcDbCircle
 10
58.517018
 20
147.206518
 30
0.0
 40
3.0
100
AcDbArc
 50
270.0
 51
0.0
  0
ARC
  5
1B6
100
AcDbEntity
  8
0
370
    -3
390
0
  6
Continuous
100
AcDbCircle
 10
52.517018
 20
141.206518
 30
0.0
 40
3.0
100
AcDbArc
 50
90.0
 51
180.0
  0
LINE
  5
1B7
100
AcDbEntity
  8
0
370
    -3
390
0
  6
Continuous
100
AcDbLine
 10
49.517018
 20
123.706518
 30
0.0
 11
49.517018
 21
144.206518
 31
0.0
  0
LINE
  5
1B8
100
AcDbEntity
  8
0
370
    -3
390
0
  6
Continuous
100
AcDbLine
 10
45.017018
 20
144.206518
 30
0.0
 11
45.017018
 21
123.706518
 31
0.0
  0
LINE
  5
1B9
100
AcDbEntity
  8
0
370
    -3
390
0
  6
Continuous
100
AcDbLine
 10
45.017018
 20
144.206518
 30
0.0
 11
49.517018
 21
144.206518
 31
0.0
  0
LINE
  5
1BA
100
AcDbEntity
  8
0
370
    -3
390
0
  6
Continuous
100
AcDbLine
 10
52.517018
 20
144.206518
 30
0.0
 11
58.517018
 21
144.206518
 31
0.0
  0
LINE
  5
1BB
100
AcDbEntity
  8
0
370
    -3
390
0
  6
Continuous
100
AcDbLine
 10
61.517018
 20
237.706518
 30
0.0
 11
61.517018
 21
123.706518
 31
0.0
  0
ARC
  5
1BC
100
AcDbEntity
  8
0
370
    -3
390
0
  6
Continuous
100
AcDbCircle
 10
37.017018
 20
209.706518
 30
0.0
 40
2.0
100
AcDbArc
 50
270.0
 51
0.0
  0
LINE
  5
1BD
100
AcDbEntity
  8
0
370
    -3
390
0
  6
Continuous
100
AcDbLine
 10
39.017018
 20
123.706518
 30
0.0
 11
39.017018
 21
127.706518
 31
0.0
  0
LINE
  5
1BE
100
AcDbEntity
  8
0
370
    -3
390
0
  6
Continuous
100
AcDbLine
 10
37.017018
 20
123.706518
 30
0.0
 11
37.017018
 21
128.572645
 31
0.0
  0
LINE
  5
1BF
100
AcDbEntity
  8
0
370
    -3
390
0
  6
Continuous
100
AcDbLine
 10
37.017018
 20
139.840586
 30
0.0
 11
37.017018
 21
221.706518
 31
0.0
  0
LINE
  5
1C0
100
AcDbEntity
  8
0
370
    -3
390
0
  6
Continuous
100
AcDbLine
 10
39.017018
 20
147.206518
 30
0.0
 11
61.517018
 21
147.206518
 31
0.0
  0
ARC
  5
1C1
100
AcDbEntity
  8
0
370
    -3
390
0
  6
Continuous
100
AcDbCircle
 10
58.517018
 20
225.732587
 30
0.0
 40
3.0
100
AcDbArc
 50
273.0
 51
0.0
  0
ARC
  5
1C2
100
AcDbEntity
  8
0
370
    -3
390
0
  6
Continuous
100
AcDbCircle
 10
51.517018
 20
225.365732
 30
0.0
 40
3.0
100
AcDbArc
 50
273.0
 51
0.0
  0
LINE
  5
1C3
100
AcDbEntity
  8
0
370
    -3
390
0
  6
Continuous
100
AcDbLine
 10
58.674026
 20
222.736698
 30
0.0
 11
40.912346
 21
221.805848
 31
0.0
  0
ARC
  5
1C4
100
AcDbEntity
  8
0
370
    -3
390
0
  6
Continuous
100
AcDbCircle
 10
41.017018
 20
219.808589
 30
0.0
 40
2.0
100
AcDbArc
 50
93.0
 51
180.0
  0
LINE
  5
1C5
100
AcDbEntity
  8
0
370
    -3
390
0
  6
Continuous
100
AcDbLine
 10
39.017018
 20
140.706518
 30
0.0
 11
39.017018
 21
219.808589
 31
0.0
  0
LINE
  5
1C6
100
AcDbEntity
  8
0
370
    -3
390
0
  6
Continuous
100
AcDbLine
 10
54.517018
 20
225.365732
 30
0.0
 11
54.517018
 21
237.706518
 31
0.0
  0
LINE
  5
1C7
100
AcDbEntity
  8
0
370
    -3
390
0
  6
CENTER
100
AcDbLine
 10
52.517018
 20
231.206521
 30
0.0
 11
17.517018
 21
231.206521
 31
0.0
  0
LINE
  5
1C8
100
AcDbEntity
  8
0
370
    -3
390
0
  6
CENTER
100
AcDbLine
 10
35.017018
 20
248.706521
 30
0.0
 11
35.017018
 21
217.243288
 31
0.0
  0
LINE
  5
1C9
100
AcDbEntity
  8
0
370
    -3
390
0
  6
Continuous
100
AcDbLine
 10
73.017018
 20
240.706518
 30
0.0
 11
138.052825
 21
239.571314
 31
0.0
  0
LINE
  5
1CA
100
AcDbEntity
  8
0
370
    -3
390
0
  6
CENTER
100
AcDbLine
 10
202.517018
 20
231.206521
 30
0.0
 11
167.517018
 21
231.206521
 31
0.0
  0
LINE
  5
1CB
100
AcDbEntity
  8
0
370
    -3
390
0
  6
CENTER
100
AcDbLine
 10
185.017018
 20
248.706521
 30
0.0
 11
185.017018
 21
213.706521
 31
0.0
  0
LINE
  5
1CC
100
AcDbEntity
  8
0
370
    -3
390
0
  6
Continuous
100
AcDbLine
 10
73.017018
 20
123.706518
 30
0.0
 11
73.017018
 21
240.706518
 31
0.0
  0
ARC
  5
1CD
100
AcDbEntity
  8
0
370
    -3
390
0
  6
Continuous
100
AcDbCircle
 10
136.743895
 20
164.582737
 30
0.0
 40
75.0
100
AcDbArc
 50
71.103485
 51
89.0
  0
ARC
  5
1CE
100
AcDbEntity
  8
0
370
    -3
390
0
  6
Continuous
100
AcDbCircle
 10
198.017018
 20
202.392846
 30
0.0
 40
3.0
100
AcDbArc
 50
0.0
 51
31.677696
  0
ARC
  5
1CF
100
AcDbEntity
  8
0
370
    -3
390
0
  6
Continuous
100
AcDbCircle
 10
136.743895
 20
164.582737
 30
0.0
 40
75.0
100
AcDbArc
 50
31.677696
 51
35.133475
  0
CIRCLE
  5
1D0
100
AcDbEntity
  8
0
370
    -3
390
0
  6
Continuous
100
AcDbCircle
 10
35.017018
 20
231.206521
 30
0.0
 40
7.5
  0
CIRCLE
  5
1D1
100
AcDbEntity
  8
0
370
    -3
390
0
  6
Continuous
100
AcDbCircle
 10
185.017018
 20
231.206521
 30
0.0
 40
7.5
  0
ARC
  5
1D2
100
AcDbEntity
  8
0
370
    -3
390
0
  6
Continuous
100
AcDbCircle
 10
185.017018
 20
231.206521
 30
0.0
 40
22.0
100
AcDbArc
 50
176.569876
 51
269.0
  0
ARC
  5
1D3
100
AcDbEntity
  8
0
370
    -3
390
0
  6
Continuous
100
AcDbCircle
 10
160.061805
 20
232.702301
 30
0.0
 40
3.0
100
AcDbArc
 50
356.569876
 51
71.103485
  0
LINE
  5
1D4
100
AcDbEntity
  8
0
370
    -3
390
0
  6
Continuous
100
AcDbLine
 10
184.633065
 20
209.209871
 30
0.0
 11
195.678833
 21
209.017067
 31
0.0
  0
ARC
  5
1D5
100
AcDbEntity
  8
0
370
    -3
390
0
  6
Continuous
100
AcDbCircle
 10
195.626476
 20
206.017524
 30
0.0
 40
3.0
100
AcDbArc
 50
35.133475
 51
89.0
  0
ARC
  5
1D6
100
AcDbEntity
  8
0
370
    -3
390
0
  6
Continuous
100
AcDbCircle
 10
195.017018
 20
240.844943
 30
0.0
 40
8.0
100
AcDbArc
 50
0.0
 51
89.0
  0
LINE
  5
1D7
100
AcDbEntity
  8
0
370
    -3
390
0
  6
Continuous
100
AcDbLine
 10
195.156637
 20
248.843724
 30
0.0
 11
75.017018
 21
250.940769
 31
0.0
  0
ARC
  5
1D8
100
AcDbEntity
  8
0
370
    -3
390
0
  6
Continuous
100
AcDbCircle
 10
24.017018
 20
241.003736
 30
0.0
 40
8.0
100
AcDbArc
 50
92.168676
 51
180.0
  0
LINE
  5
1D9
100
AcDbEntity
  8
0
370
    -3
390
0
  6
Continuous
100
AcDbLine
 10
23.714286
 20
248.998006
 30
0.0
 11
75.017018
 21
250.940769
 31
0.0
  0
LINE
  5
1DA
100
AcDbEntity
  8
0
370
    -3
390
0
  6
CENTER
100
AcDbLine
 10
202.517018
 20
16.206515
 30
0.0
 11
167.517018
 21
16.206515
 31
0.0
  0
LINE
  5
1DB
100
AcDbEntity
  8
0
370
    -3
390
0
  6
CENTER
100
AcDbLine
 10
52.517018
 20
16.206515
 30
0.0
 11
17.517018
 21
16.206515
 31
0.0
  0
LINE
  5
1DC
100
AcDbEntity
  8
0
370
    -3
390
0
  6
CENTER
100
AcDbLine
 10
35.017018
 20
217.243288
 30
0.0
 11
35.017018
 21
213.706521
 31
0.0
  0
LINE
  5
1DD
100
AcDbEntity
  8
0
370
    -3
390
0
  6
Continuous
100
AcDbLine
 10
73.017018
 20
6.706518
 30
0.0
 11
138.052825
 21
7.841722
 31
0.0
  0
LINE
  5
1DE
100
AcDbEntity
  8
0
370
    -3
390
0
  6
Continuous
100
AcDbLine
 10
73.017018
 20
123.706518
 30
0.0
 11
73.017018
 21
6.706518
 31
0.0
  0
ARC
  5
1DF
100
AcDbEntity
  8
0
370
    -3
390
0
  6
Continuous
100
AcDbCircle
 10
136.743895
 20
82.830299
 30
0.0
 40
75.0
100
AcDbArc
 50
271.0
 51
288.896515
  0
ARC
  5
1E0
100
AcDbEntity
  8
0
370
    -3
390
0
  6
Continuous
100
AcDbCircle
 10
160.061805
 20
14.710735
 30
0.0
 40
3.0
100
AcDbArc
 50
288.896515
 51
3.430124
  0
ARC
  5
1E1
100
AcDbEntity
  8
0
370
    -3
390
0
  6
Continuous
100
AcDbCircle
 10
195.017018
 20
6.568093
 30
0.0
 40
8.0
100
AcDbArc
 50
271.0
 51
0.0
  0
LINE
  5
1E2
100
AcDbEntity
  8
0
370
    -3
390
0
  6
Continuous
100
AcDbLine
 10
195.156637
 20
-1.430689
 30
0.0
 11
75.017018
 21
-3.527734
 31
0.0
  0
LINE
  5
1E3
100
AcDbEntity
  8
0
370
    -3
390
0
  6
CENTER
100
AcDbLine
 10
35.017018
 20
-1.293485
 30
0.0
 11
35.017018
 21
33.706515
 31
0.0
  0
CIRCLE
  5
1E4
100
AcDbEntity
  8
0
370
    -3
390
0
  6
Continuous
100
AcDbCircle
 10
35.017018
 20
16.206515
 30
0.0
 40
7.5
  0
LINE
  5
1E5
100
AcDbEntity
  8
0
370
    -3
390
0
  6
Continuous
100
AcDbLine
 10
23.714286
 20
-1.58497
 30
0.0
 11
75.017018
 21
-3.527734
 31
0.0
  0
ARC
  5
1E6
100
AcDbEntity
  8
0
370
    -3
390
0
  6
Continuous
100
AcDbCircle
 10
24.017018
 20
6.4093
 30
0.0
 40
8.0
100
AcDbArc
 50
180.0
 51
267.831324
  0
ARC
  5
1E7
100
AcDbEntity
  8
0
370
    -3
390
0
  6
Continuous
100
AcDbCircle
 10
264.617018
 20
104.106518
 30
0.0
 40
0.4
100
AcDbArc
 50
270.0
 51
0.0
  0
LINE
  5
1E8
100
AcDbEntity
  8
0
370
    -3
390
0
  6
Continuous
100
AcDbLine
 10
265.017018
 20
123.706518
 30
0.0
 11
265.017018
 21
100.706518
 31
0.0
  0
LINE
  5
1E9
100
AcDbEntity
  8
0
370
    -3
390
0
  6
Continuous
100
AcDbLine
 10
208.076833
 20
103.706518
 30
0.0
 11
207.517025
 21
103.856518
 31
0.0
  0
LINE
  5
1EA
100
AcDbEntity
  8
0
370
    -3
390
0
  6
Continuous
100
AcDbLine
 10
264.617018
 20
103.706518
 30
0.0
 11
208.076833
 21
103.706518
 31
0.0
  0
LINE
  5
1EB
100
AcDbEntity
  8
0
370
    -3
390
0
  6
Continuous
100
AcDbLine
 10
205.017018
 20
123.706518
 30
0.0
 11
205.017018
 21
101.606518
 31
0.0
  0
LINE
  5
1EC
100
AcDbEntity
  8
0
370
    -3
390
0
  6
Continuous
100
AcDbLine
 10
204.617018
 20
101.206518
 30
0.0
 11
205.017018
 21
101.606518
 31
0.0
  0
LINE
  5
1ED
100
AcDbEntity
  8
0
370
    -3
390
0
  6
Continuous
100
AcDbLine
 10
207.517025
 20
103.856518
 30
0.0
 11
206.617018
 21
103.856518
 31
0.0
  0
ARC
  5
1EE
100
AcDbEntity
  8
0
370
    -3
390
0
  6
Continuous
100
AcDbCircle
 10
206.617018
 20
102.256518
 30
0.0
 40
1.6
100
AcDbArc
 50
90.0
 51
180.0
  0
LINE
  5
1EF
100
AcDbEntity
  8
0
370
    -3
390
0
  6
Continuous
100
AcDbLine
 10
204.617018
 20
101.206518
 30
0.0
 11
203.017018
 21
101.206518
 31
0.0
  0
LINE
  5
1F0
100
AcDbEntity
  8
0
370
    -3
390
0
  6
Continuous
100
AcDbLine
 10
208.076833
 20
143.706518
 30
0.0
 11
207.517025
 21
143.556518
 31
0.0
  0
LINE
  5
1F1
100
AcDbEntity
  8
0
370
    -3
390
0
  6
Continuous
100
AcDbLine
 10
205.017018
 20
123.706518
 30
0.0
 11
205.017018
 21
145.806518
 31
0.0
  0
LINE
  5
1F2
100
AcDbEntity
  8
0
370
    -3
390
0
  6
Continuous
100
AcDbLine
 10
204.617018
 20
146.206518
 30
0.0
 11
203.017018
 21
146.206518
 31
0.0
  0
LINE
  5
1F3
100
AcDbEntity
  8
0
370
    -3
390
0
  6
Continuous
100
AcDbLine
 10
204.617018
 20
146.206518
 30
0.0
 11
205.017018
 21
145.806518
 31
0.0
  0
LINE
  5
1F4
100
AcDbEntity
  8
0
370
    -3
390
0
  6
Continuous
100
AcDbLine
 10
207.517025
 20
143.556518
 30
0.0
 11
206.617018
 21
143.556518
 31
0.0
  0
ARC
  5
1F5
100
AcDbEntity
  8
0
370
    -3
390
0
  6
Continuous
100
AcDbCircle
 10
206.617018
 20
145.156518
 30
0.0
 40
1.6
100
AcDbArc
 50
180.0
 51
270.0
  0
LINE
  5
1F6
100
AcDbEntity
  8
0
370
    -3
390
0
  6
Continuous
100
AcDbLine
 10
265.017018
 20
123.706518
 30
0.0
 11
265.017018
 21
143.306518
 31
0.0
  0
LINE
  5
1F7
100
AcDbEntity
  8
0
370
    -3
390
0
  6
Continuous
100
AcDbLine
 10
264.617018
 20
143.706518
 30
0.0
 11
208.076833
 21
143.706518
 31
0.0
  0
ARC
  5
1F8
100
AcDbEntity
  8
0
370
    -3
390
0
  6
Continuous
100
AcDbCircle
 10
264.617018
 20
143.306518
 30
0.0
 40
0.4
100
AcDbArc
 50
0.0
 51
90.0
  0
LINE
  5
1F9
100
AcDbEntity
  8
0
370
    -3
390
0
  6
Continuous
100
AcDbLine
 10
210.017018
 20
103.706518
 30
0.0
 11
210.017018
 21
100.706518
 31
0.0
  0
LINE
  5
1FA
100
AcDbEntity
  8
0
370
    -3
390
0
  6
Continuous
100
AcDbLine
 10
265.017025
 20
100.706518
 30
0.0
 11
210.017025
 21
100.706518
 31
0.0
  0
CIRCLE
  5
1FB
100
AcDbEntity
  8
0
370
    -3
390
0
  6
Continuous
100
AcDbCircle
 10
185.017018
 20
16.206515
 30
0.0
 40
7.5
  0
LINE
  5
1FC
100
AcDbEntity
  8
0
370
    -3
390
0
  6
CENTER
100
AcDbLine
 10
185.017018
 20
-1.293485
 30
0.0
 11
185.017018
 21
33.706515
 31
0.0
  0
LINE
  5
1FD
100
AcDbEntity
  8
0
370
    -3
390
0
  6
Continuous
100
AcDbLine
 10
203.017018
 20
123.706518
 30
0.0
 11
203.017018
 21
6.432025
 31
0.0
  0
ARC
  5
1FE
100
AcDbEntity
  8
0
370
    -3
390
0
  6
Continuous
100
AcDbCircle
 10
136.743895
 20
82.830299
 30
0.0
 40
75.0
100
AcDbArc
 50
324.866525
 51
328.322304
  0
LINE
  5
1FF
100
AcDbEntity
  8
0
370
    -3
390
0
  6
Continuous
100
AcDbLine
 10
184.633065
 20
38.203165
 30
0.0
 11
195.678833
 21
38.395969
 31
0.0
  0
ARC
  5
200
100
AcDbEntity
  8
0
370
    -3
390
0
  6
Continuous
100
AcDbCircle
 10
195.626476
 20
41.395512
 30
0.0
 40
3.0
100
AcDbArc
 50
271.0
 51
324.866525
  0
ARC
  5
201
100
AcDbEntity
  8
0
370
    -3
390
0
  6
Continuous
100
AcDbCircle
 10
185.017018
 20
16.206515
 30
0.0
 40
22.0
100
AcDbArc
 50
91.0
 51
183.430124
  0
ARC
  5
202
100
AcDbEntity
  8
0
370
    -3
390
0
  6
Continuous
100
AcDbCircle
 10
202.017018
 20
81.706518
 30
0.0
 40
1.0
100
AcDbArc
 50
90.0
 51
180.0
  0
ARC
  5
203
100
AcDbEntity
  8
0
370
    -3
390
0
  6
Continuous
100
AcDbCircle
 10
202.017018
 20
165.706518
 30
0.0
 40
1.0
100
AcDbArc
 50
180.0
 51
270.0
  0
ARC
  5
204
100
AcDbEntity
  8
0
370
    -3
390
0
  6
Continuous
100
AcDbCircle
 10
198.017018
 20
45.02019
 30
0.0
 40
3.0
100
AcDbArc
 50
328.322304
 51
0.0
  0
LINE
  5
205
100
AcDbEntity
  8
0
370
    -3
390
0
  6
CENTER
100
AcDbLine
 10
-262.097788
 20
123.706518
 30
0.0
 11
282.032008
 21
123.706518
 31
0.0
  0
LINE
  5
206
100
AcDbEntity
  8
0
370
    -3
390
0
  6
Continuous
100
AcDbLine
 10
201.017018
 20
123.706518
 30
0.0
 11
201.017018
 21
45.02019
 31
0.0
  0
LINE
  5
207
100
AcDbEntity
  8
0
370
    -3
390
0
  6
Continuous
100
AcDbLine
 10
203.017018
 20
123.706518
 30
0.0
 11
203.017018
 21
240.844943
 31
0.0
  0
LINE
  5
208
100
AcDbEntity
  8
0
370
    -3
390
0
  6
Continuous
100
AcDbLine
 10
201.017018
 20
123.706518
 30
0.0
 11
201.017018
 21
202.392846
 31
0.0
  0
LINE
  5
209
100
AcDbEntity
  8
0
370
    -3
390
0
  6
Continuous
100
AcDbLine
 10
202.017018
 20
82.706518
 30
0.0
 11
203.017018
 21
82.706518
 31
0.0
  0
LINE
  5
20A
100
AcDbEntity
  8
0
370
    -3
390
0
  6
Continuous
100
AcDbLine
 10
202.017018
 20
164.706518
 30
0.0
 11
203.017018
 21
164.706518
 31
0.0
  0
LINE
  5
20B
100
AcDbEntity
  8
0
370
    -3
390
0
  6
Continuous
100
AcDbLine
 10
16.017018
 20
221.706518
 30
0.0
 11
16.017018
 21
241.003736
 31
0.0
  0
LINE
  5
20C
100
AcDbEntity
  8
0
370
    -3
390
0
  6
Continuous
100
AcDbLine
 10
16.017018
 20
25.706518
 30
0.0
 11
16.017018
 21
6.123358
 31
0.0
  0
LINE
  5
20D
100
AcDbEntity
  8
0
370
    -3
390
0
  6
Continuous
100
AcDbLine
 10
-419.452599
 20
-50.597359
 30
0.0
 11
-419.452599
 21
-90.06351
 31
0.0
  0
ARC
  5
20E
100
AcDbEntity
  8
0
370
    -3
390
0
  6
Continuous
100
AcDbCircle
 10
-429.452599
 20
-50.597359
 30
0.0
 40
10.0
100
AcDbArc
 50
0.0
 51
90.0
  0
LINE
  5
20F
100
AcDbEntity
  8
0
370
    -3
390
0
  6
Continuous
100
AcDbLine
 10
-429.452599
 20
-40.597359
 30
0.0
 11
-450.452599
 21
-40.597359
 31
0.0
  0
ARC
  5
210
100
AcDbEntity
  8
0
370
    -3
390
0
  6
Continuous
100
AcDbCircle
 10
-450.452599
 20
-50.597359
 30
0.0
 40
10.0
100
AcDbArc
 50
90.0
 51
180.0
  0
LINE
  5
211
100
AcDbEntity
  8
0
370
    -3
390
0
  6
CENTER
100
AcDbLine
 10
-416.784686
 20
-60.597359
 30
0.0
 11
-463.8072
 21
-60.597359
 31
0.0
  0
CIRCLE
  5
212
100
AcDbEntity
  8
0
370
    -3
390
0
  6
Continuous
100
AcDbCircle
 10
-439.952599
 20
-60.597359
 30
0.0
 40
10.0
  0
LINE
  5
213
100
AcDbEntity
  8
0
370
    -3
390
0
  6
Continuous
100
AcDbLine
 10
-460.452599
 20
-50.597359
 30
0.0
 11
-460.452599
 21
-90.06351
 31
0.0
  0
ARC
  5
214
100
AcDbEntity
  8
0
370
    -3
390
0
  6
Continuous
100
AcDbCircle
 10
-551.952599
 20
-267.969769
 30
0.0
 40
5.0
100
AcDbArc
 50
33.939289
 51
180.0
  0
ARC
  5
215
100
AcDbEntity
  8
0
370
    -3
390
0
  6
Continuous
100
AcDbCircle
 10
-439.952599
 20
-192.59736
 30
0.0
 40
130.0
100
AcDbArc
 50
213.939289
 51
230.380873
  0
ARC
  5
216
100
AcDbEntity
  8
0
370
    -3
390
0
  6
Continuous
100
AcDbCircle
 10
-327.952599
 20
-267.969769
 30
0.0
 40
5.0
100
AcDbArc
 50
0.0
 51
146.060711
  0
ARC
  5
217
100
AcDbEntity
  8
0
370
    -3
390
0
  6
Continuous
100
AcDbCircle
 10
-439.952599
 20
-192.59736
 30
0.0
 40
130.0
100
AcDbArc
 50
309.619127
 51
326.060711
  0
ARC
  5
218
100
AcDbEntity
  8
0
370
    -3
390
0
  6
Continuous
100
AcDbCircle
 10
-372.952599
 20
-295.597359
 30
0.0
 40
10.0
100
AcDbArc
 50
224.427032
 51
233.130136
  0
ARC
  5
219
100
AcDbEntity
  8
0
370
    -3
390
0
  6
Continuous
100
AcDbCircle
 10
-439.952599
 20
-575.597359
 30
0.0
 40
500.0
100
AcDbArc
 50
92.349786
 51
94.422378
  0
ARC
  5
21A
100
AcDbEntity
  8
0
370
    -3
390
0
  6
Continuous
100
AcDbCircle
 10
-471.952599
 20
-161.832934
 30
0.0
 40
85.0
100
AcDbArc
 50
94.422378
 51
180.0
  0
ARC
  5
21B
100
AcDbEntity
  8
0
370
    -3
390
0
  6
Continuous
100
AcDbCircle
 10
-559.952599
 20
-280.597362
 30
0.0
 40
3.0
100
AcDbArc
 50
270.0
 51
0.0
  0
ARC
  5
21C
100
AcDbEntity
  8
0
370
    -3
390
0
  6
Continuous
100
AcDbCircle
 10
-561.952602
 20
-286.597362
 30
0.0
 40
3.0
100
AcDbArc
 50
90.0
 51
180.0
  0
ARC
  5
21D
100
AcDbEntity
  8
0
370
    -3
390
0
  6
Continuous
100
AcDbCircle
 10
-517.952601
 20
-305.597363
 30
0.0
 40
2.0
100
AcDbArc
 50
90.0
 51
180.0
  0
ARC
  5
21E
100
AcDbEntity
  8
0
370
    -3
390
0
  6
Continuous
100
AcDbCircle
 10
-534.042979
 20
-286.597362
 30
0.0
 40
3.0
100
AcDbArc
 50
44.972469
 51
90.0
  0
ARC
  5
21F
100
AcDbEntity
  8
0
370
    -3
390
0
  6
Continuous
100
AcDbCircle
 10
-506.952599
 20
-295.597359
 30
0.0
 40
10.0
100
AcDbArc
 50
306.869864
 51
315.572968
  0
ARC
  5
220
100
AcDbEntity
  8
0
370
    -3
390
0
  6
Continuous
100
AcDbCircle
 10
-361.952597
 20
-305.597363
 30
0.0
 40
2.0
100
AcDbArc
 50
0.0
 51
90.0
  0
ARC
  5
221
100
AcDbEntity
  8
0
370
    -3
390
0
  6
Continuous
100
AcDbCircle
 10
-439.952599
 20
-575.597359
 30
0.0
 40
500.0
100
AcDbArc
 50
85.577622
 51
87.650214
  0
ARC
  5
222
100
AcDbEntity
  8
0
370
    -3
390
0
  6
Continuous
100
AcDbCircle
 10
-319.952599
 20
-280.597362
 30
0.0
 40
3.0
100
AcDbArc
 50
180.0
 51
270.0
  0
ARC
  5
223
100
AcDbEntity
  8
0
370
    -3
390
0
  6
Continuous
100
AcDbCircle
 10
-317.952596
 20
-286.597362
 30
0.0
 40
3.0
100
AcDbArc
 50
0.0
 51
90.0
  0
ARC
  5
224
100
AcDbEntity
  8
0
370
    -3
390
0
  6
Continuous
100
AcDbCircle
 10
-345.862219
 20
-286.597362
 30
0.0
 40
3.0
100
AcDbArc
 50
90.0
 51
135.027531
  0
LINE
  5
225
100
AcDbEntity
  8
0
370
    -3
390
0
  6
CENTER
100
AcDbLine
 10
-547.452601
 20
-313.421822
 30
0.0
 11
-547.452601
 21
-277.883784
 31
0.0
  0
LINE
  5
226
100
AcDbEntity
  8
0
370
    -3
390
0
  6
Continuous
100
AcDbLine
 10
-519.952601
 20
-305.597363
 30
0.0
 11
-564.952602
 21
-305.597363
 31
0.0
  0
LINE
  5
227
100
AcDbEntity
  8
0
370
    -3
390
0
  6
Continuous
100
AcDbLine
 10
-564.952602
 20
-305.597363
 30
0.0
 11
-564.952602
 21
-286.597362
 31
0.0
  0
LINE
  5
228
100
AcDbEntity
  8
0
370
    -3
390
0
  6
Continuous
100
AcDbLine
 10
-534.042979
 20
-283.597362
 30
0.0
 11
-561.952602
 21
-283.597362
 31
0.0
  0
LINE
  5
229
100
AcDbEntity
  8
0
370
    -3
390
0
  6
Continuous
100
AcDbLine
 10
-500.952603
 20
-303.597363
 30
0.0
 11
-517.952601
 21
-303.597363
 31
0.0
  0
LINE
  5
22A
100
AcDbEntity
  8
0
370
    -3
390
0
  6
Continuous
100
AcDbLine
 10
-519.952601
 20
-305.597363
 30
0.0
 11
-519.952601
 21
-298.898817
 31
0.0
  0
LINE
  5
22B
100
AcDbEntity
  8
0
370
    -3
390
0
  6
Continuous
100
AcDbLine
 10
-439.952599
 20
-302.597363
 30
0.0
 11
-499.811174
 21
-302.597363
 31
0.0
  0
LINE
  5
22C
100
AcDbEntity
  8
0
370
    -3
390
0
  6
Continuous
100
AcDbLine
 10
-378.952594
 20
-303.597363
 30
0.0
 11
-361.952597
 21
-303.597363
 31
0.0
  0
LINE
  5
22D
100
AcDbEntity
  8
0
370
    -3
390
0
  6
Continuous
100
AcDbLine
 10
-439.952599
 20
-302.597363
 30
0.0
 11
-380.094024
 21
-302.597363
 31
0.0
  0
LINE
  5
22E
100
AcDbEntity
  8
0
370
    -3
390
0
  6
Continuous
100
AcDbLine
 10
-359.952597
 20
-305.597363
 30
0.0
 11
-359.952597
 21
-298.898817
 31
0.0
  0
LINE
  5
22F
100
AcDbEntity
  8
0
370
    -3
390
0
  6
CENTER
100
AcDbLine
 10
-332.452596
 20
-313.421822
 30
0.0
 11
-332.452596
 21
-277.883784
 31
0.0
  0
LINE
  5
230
100
AcDbEntity
  8
0
370
    -3
390
0
  6
Continuous
100
AcDbLine
 10
-359.952597
 20
-305.597363
 30
0.0
 11
-314.952596
 21
-305.597363
 31
0.0
  0
LINE
  5
231
100
AcDbEntity
  8
0
370
    -3
390
0
  6
Continuous
100
AcDbLine
 10
-314.952596
 20
-305.597363
 30
0.0
 11
-314.952596
 21
-286.597362
 31
0.0
  0
LINE
  5
232
100
AcDbEntity
  8
0
370
    -3
390
0
  6
Continuous
100
AcDbLine
 10
-345.862219
 20
-283.597362
 30
0.0
 11
-317.952596
 21
-283.597362
 31
0.0
  0
LINE
  5
233
100
AcDbEntity
  8
0
370
    -3
390
0
  6
Continuous
100
AcDbLine
 10
-556.952599
 20
-280.597362
 30
0.0
 11
-556.952599
 21
-161.832934
 31
0.0
  0
LINE
  5
234
100
AcDbEntity
  8
0
370
    -3
390
0
  6
Continuous
100
AcDbLine
 10
-322.952599
 20
-280.597362
 30
0.0
 11
-322.952599
 21
-239.09736
 31
0.0
  0
ARC
  5
235
100
AcDbEntity
  8
0
370
    -3
390
0
  6
Continuous
100
AcDbCircle
 10
-351.952597
 20
-298.898817
 30
0.0
 40
8.0
100
AcDbArc
 50
129.619127
 51
180.0
  0
ARC
  5
236
100
AcDbEntity
  8
0
370
    -3
390
0
  6
Continuous
100
AcDbCircle
 10
-527.952601
 20
-298.898817
 30
0.0
 40
8.0
100
AcDbArc
 50
0.0
 51
50.380873
  0
LINE
  5
237
100
AcDbEntity
  8
0
370
    -3
390
0
  6
CENTER
100
AcDbLine
 10
-411.483712
 20
-160.597359
 30
0.0
 11
-468.031548
 21
-160.597359
 31
0.0
  0
ARC
  5
238
100
AcDbEntity
  8
0
370
    -3
390
0
  6
Continuous
100
AcDbCircle
 10
-553.952599
 20
-161.597359
 30
0.0
 40
3.0
100
AcDbArc
 50
90.0
 51
180.0
  0
ARC
  5
239
100
AcDbEntity
  8
0
370
    -3
390
0
  6
Continuous
100
AcDbCircle
 10
-547.350661
 20
-129.597359
 30
0.0
 40
3.0
100
AcDbArc
 50
156.851427
 51
270.0
  0
ARC
  5
23A
100
AcDbEntity
  8
0
370
    -3
390
0
  6
Continuous
100
AcDbCircle
 10
-332.554537
 20
-129.597359
 30
0.0
 40
3.0
100
AcDbArc
 50
270.0
 51
23.148573
  0
ARC
  5
23B
100
AcDbEntity
  8
0
370
    -3
390
0
  6
Continuous
100
AcDbCircle
 10
-439.952599
 20
-192.59736
 30
0.0
 40
126.0
100
AcDbArc
 50
309.364679
 51
337.668355
  0
ARC
  5
23C
100
AcDbEntity
  8
0
370
    -3
390
0
  6
Continuous
100
AcDbCircle
 10
-328.952599
 20
-238.193413
 30
0.0
 40
6.0
100
AcDbArc
 50
337.668355
 51
351.334944
  0
ARC
  5
23D
100
AcDbEntity
  8
0
370
    -3
390
0
  6
Continuous
100
AcDbCircle
 10
-439.952599
 20
-192.59736
 30
0.0
 40
126.0
100
AcDbArc
 50
202.331645
 51
230.635321
  0
ARC
  5
23E
100
AcDbEntity
  8
0
370
    -3
390
0
  6
Continuous
100
AcDbCircle
 10
-550.952599
 20
-238.193413
 30
0.0
 40
6.0
100
AcDbArc
 50
180.0
 51
202.331645
  0
ARC
  5
23F
100
AcDbEntity
  8
0
370
    -3
390
0
  6
Continuous
100
AcDbCircle
 10
-439.952599
 20
-575.597359
 30
0.0
 40
500.0
100
AcDbArc
 50
85.577622
 51
87.650214
  0
ARC
  5
240
100
AcDbEntity
  8
0
370
    -3
390
0
  6
Continuous
100
AcDbCircle
 10
-407.952599
 20
-161.832934
 30
0.0
 40
85.0
100
AcDbArc
 50
4.140844
 51
85.577622
  0
ARC
  5
241
100
AcDbEntity
  8
0
370
    -3
390
0
  6
Continuous
100
AcDbCircle
 10
-354.962559
 20
-296.196072
 30
0.0
 40
8.0
100
AcDbArc
 50
129.364679
 51
178.093887
  0
ARC
  5
242
100
AcDbEntity
  8
0
370
    -3
390
0
  6
Continuous
100
AcDbCircle
 10
-506.952599
 20
-295.597359
 30
0.0
 40
10.0
100
AcDbArc
 50
306.869864
 51
315.572968
  0
ARC
  5
243
100
AcDbEntity
  8
0
370
    -3
390
0
  6
Continuous
100
AcDbCircle
 10
-524.942639
 20
-296.196072
 30
0.0
 40
8.0
100
AcDbArc
 50
1.906113
 51
50.635321
  0
ARC
  5
244
100
AcDbEntity
  8
0
370
    -3
390
0
  6
Continuous
100
AcDbCircle
 10
-506.952599
 20
-295.597359
 30
0.0
 40
10.0
100
AcDbArc
 50
181.906113
 51
233.130136
  0
ARC
  5
245
100
AcDbEntity
  8
0
370
    -3
390
0
  6
Continuous
100
AcDbCircle
 10
-471.952599
 20
-161.832934
 30
0.0
 40
85.0
100
AcDbArc
 50
94.422378
 51
180.0
  0
ARC
  5
246
100
AcDbEntity
  8
0
370
    -3
390
0
  6
Continuous
100
AcDbCircle
 10
-439.952599
 20
-575.597359
 30
0.0
 40
500.0
100
AcDbArc
 50
92.349786
 51
94.422378
  0
ARC
  5
247
100
AcDbEntity
  8
0
370
    -3
390
0
  6
Continuous
100
AcDbCircle
 10
-372.952599
 20
-295.597359
 30
0.0
 40
10.0
100
AcDbArc
 50
224.427032
 51
233.130136
  0
ARC
  5
248
100
AcDbEntity
  8
0
370
    -3
390
0
  6
Continuous
100
AcDbCircle
 10
-372.952599
 20
-295.597359
 30
0.0
 40
10.0
100
AcDbArc
 50
306.869864
 51
358.093887
  0
LINE
  5
249
100
AcDbEntity
  8
0
370
    -3
390
0
  6
Continuous
100
AcDbLine
 10
-338.681771
 20
-158.597359
 30
0.0
 11
-330.652247
 21
-158.597359
 31
0.0
  0
LINE
  5
24A
100
AcDbEntity
  8
0
370
    -3
390
0
  6
Continuous
100
AcDbLine
 10
-541.223427
 20
-158.597359
 30
0.0
 11
-553.952599
 21
-158.597359
 31
0.0
  0
LINE
  5
24B
100
AcDbEntity
  8
0
370
    -3
390
0
  6
Continuous
100
AcDbLine
 10
-530.94424
 20
-132.597359
 30
0.0
 11
-547.350661
 21
-132.597359
 31
0.0
  0
LINE
  5
24C
100
AcDbEntity
  8
0
370
    -3
390
0
  6
Continuous
100
AcDbLine
 10
-348.960958
 20
-132.597359
 30
0.0
 11
-332.554537
 21
-132.597359
 31
0.0
  0
LINE
  5
24D
100
AcDbEntity
  8
0
370
    -3
390
0
  6
CENTER
100
AcDbLine
 10
-272.30058
 20
-192.59736
 30
0.0
 11
-568.972798
 21
-192.59736
 31
0.0
  0
LINE
  5
24E
100
AcDbEntity
  8
0
370
    -3
390
0
  6
Continuous
100
AcDbLine
 10
-439.952599
 20
-302.597363
 30
0.0
 11
-380.094024
 21
-302.597363
 31
0.0
  0
LINE
  5
24F
100
AcDbEntity
  8
0
370
    -3
390
0
  6
Continuous
100
AcDbLine
 10
-439.952599
 20
-302.597363
 30
0.0
 11
-499.811174
 21
-302.597363
 31
0.0
  0
LINE
  5
250
100
AcDbEntity
  8
0
370
    -3
390
0
  6
Continuous
100
AcDbLine
 10
-556.952599
 20
-238.193413
 30
0.0
 11
-556.952599
 21
-161.832934
 31
0.0
  0
LINE
  5
251
100
AcDbEntity
  8
0
370
    -3
390
0
  6
Continuous
100
AcDbLine
 10
-378.952594
 20
-303.597363
 30
0.0
 11
-366.952603
 21
-303.597363
 31
0.0
  0
LINE
  5
252
100
AcDbEntity
  8
0
370
    -3
390
0
  6
Continuous
100
AcDbLine
 10
-500.952603
 20
-303.597363
 30
0.0
 11
-512.952594
 21
-303.597363
 31
0.0
  0
LINE
  5
253
100
AcDbEntity
  8
0
370
    -3
390
0
  6
CENTER
100
AcDbLine
 10
-439.952599
 20
-316.627848
 30
0.0
 11
-439.952599
 21
-27.999222
 31
0.0
  0
CIRCLE
  5
254
100
AcDbEntity
  8
0
370
    -3
390
0
  6
Continuous
100
AcDbCircle
 10
-439.952599
 20
-192.59736
 30
0.0
 40
5.0
  0
LINE
  5
255
100
AcDbEntity
  8
0
370
    -3
390
0
  6
Continuous
100
AcDbLine
 10
-443.952599
 20
-119.844353
 30
0.0
 11
-443.952599
 21
-123.356837
 31
0.0
  0
LINE
  5
256
100
AcDbEntity
  8
0
370
    -3
390
0
  6
Continuous
100
AcDbLine
 10
-501.523987
 20
-153.585001
 30
0.0
 11
-498.485402
 21
-155.339329
 31
0.0
  0
ARC
  5
257
100
AcDbEntity
  8
0
370
    -3
390
0
  6
Continuous
100
AcDbCircle
 10
-439.952599
 20
-192.59736
 30
0.0
 40
75.0
100
AcDbArc
 50
94.714561
 51
146.072557
  0
ARC
  5
258
100
AcDbEntity
  8
0
370
    -3
390
0
  6
Continuous
100
AcDbCircle
 10
-445.952599
 20
-119.844353
 30
0.0
 40
2.0
100
AcDbArc
 50
0.0
 51
94.714561
  0
ARC
  5
259
100
AcDbEntity
  8
0
370
    -3
390
0
  6
Continuous
100
AcDbCircle
 10
-500.523987
 20
-151.85295
 30
0.0
 40
2.0
100
AcDbArc
 50
146.072557
 51
240.0
  0
LINE
  5
25A
100
AcDbEntity
  8
0
370
    -3
390
0
  6
Continuous
100
AcDbLine
 10
-443.952599
 20
-172.472748
 30
0.0
 11
-443.952599
 21
-176.691386
 31
0.0
  0
LINE
  5
25B
100
AcDbEntity
  8
0
370
    -3
390
0
  6
Continuous
100
AcDbLine
 10
-456.11612
 20
-179.801245
 30
0.0
 11
-452.523846
 21
-181.875245
 31
0.0
  0
LINE
  5
25C
100
AcDbEntity
  8
0
370
    -3
390
0
  6
Continuous
100
AcDbLine
 10
-443.952599
 20
-159.130959
 30
0.0
 11
-443.952599
 21
-163.203483
 31
0.0
  0
LINE
  5
25D
100
AcDbEntity
  8
0
370
    -3
390
0
  6
Continuous
100
AcDbLine
 10
-443.952599
 20
-145.981912
 30
0.0
 11
-443.952599
 21
-150.018022
 31
0.0
  0
LINE
  5
25E
100
AcDbEntity
  8
0
370
    -3
390
0
  6
Continuous
100
AcDbLine
 10
-443.952599
 20
-132.898114
 30
0.0
 11
-443.952599
 21
-136.919716
 31
0.0
  0
LINE
  5
25F
100
AcDbEntity
  8
0
370
    -3
390
0
  6
Continuous
100
AcDbLine
 10
-490.233387
 20
-160.103632
 30
0.0
 11
-486.756325
 21
-162.111114
 31
0.0
  0
LINE
  5
260
100
AcDbEntity
  8
0
370
    -3
390
0
  6
Continuous
100
AcDbLine
 10
-478.924811
 20
-166.632641
 30
0.0
 11
-475.439083
 21
-168.645127
 31
0.0
  0
LINE
  5
261
100
AcDbEntity
  8
0
370
    -3
390
0
  6
Continuous
100
AcDbLine
 10
-467.57733
 20
-173.184112
 30
0.0
 11
-464.069976
 21
-175.209084
 31
0.0
  0
ARC
  5
262
100
AcDbEntity
  8
0
370
    -3
390
0
  6
Continuous
100
AcDbCircle
 10
-439.952599
 20
-192.59736
 30
0.0
 40
62.0
100
AcDbArc
 50
95.73917
 51
145.219808
  0
ARC
  5
263
100
AcDbEntity
  8
0
370
    -3
390
0
  6
Continuous
100
AcDbCircle
 10
-439.952599
 20
-192.59736
 30
0.0
 40
54.0
100
AcDbArc
 50
96.15064
 51
144.877484
  0
ARC
  5
264
100
AcDbEntity
  8
0
370
    -3
390
0
  6
Continuous
100
AcDbCircle
 10
-439.952599
 20
-192.59736
 30
0.0
 40
49.0
100
AcDbArc
 50
97.334369
 51
143.893148
  0
ARC
  5
265
100
AcDbEntity
  8
0
370
    -3
390
0
  6
Continuous
100
AcDbCircle
 10
-439.952599
 20
-192.59736
 30
0.0
 40
41.0
100
AcDbArc
 50
98.020933
 51
143.322595
  0
ARC
  5
266
100
AcDbEntity
  8
0
370
    -3
390
0
  6
Continuous
100
AcDbCircle
 10
-439.952599
 20
-192.59736
 30
0.0
 40
36.0
100
AcDbArc
 50
100.164249
 51
141.543481
  0
ARC
  5
267
100
AcDbEntity
  8
0
370
    -3
390
0
  6
Continuous
100
AcDbCircle
 10
-439.952599
 20
-192.59736
 30
0.0
 40
28.0
100
AcDbArc
 50
101.536959
 51
140.405932
  0
ARC
  5
268
100
AcDbEntity
  8
0
370
    -3
390
0
  6
Continuous
100
AcDbCircle
 10
-439.952599
 20
-192.59736
 30
0.0
 40
23.0
100
AcDbArc
 50
106.60155
 51
136.225853
  0
ARC
  5
269
100
AcDbEntity
  8
0
370
    -3
390
0
  6
Continuous
100
AcDbCircle
 10
-439.952599
 20
-192.59736
 30
0.0
 40
15.0
100
AcDbArc
 50
110.667316
 51
132.895365
  0
ARC
  5
26A
100
AcDbEntity
  8
0
370
    -3
390
0
  6
Continuous
100
AcDbCircle
 10
-445.952599
 20
-132.898114
 30
0.0
 40
2.0
100
AcDbArc
 50
0.0
 51
95.73917
  0
ARC
  5
26B
100
AcDbEntity
  8
0
370
    -3
390
0
  6
Continuous
100
AcDbCircle
 10
-489.233387
 20
-158.371581
 30
0.0
 40
2.0
100
AcDbArc
 50
145.219808
 51
240.0
  0
ARC
  5
26C
100
AcDbEntity
  8
0
370
    -3
390
0
  6
Continuous
100
AcDbCircle
 10
-485.756325
 20
-160.379064
 30
0.0
 40
2.0
100
AcDbArc
 50
240.0
 51
324.877484
  0
ARC
  5
26D
100
AcDbEntity
  8
0
370
    -3
390
0
  6
Continuous
100
AcDbCircle
 10
-445.952599
 20
-136.919716
 30
0.0
 40
2.0
100
AcDbArc
 50
276.15064
 51
0.0
  0
ARC
  5
26E
100
AcDbEntity
  8
0
370
    -3
390
0
  6
Continuous
100
AcDbCircle
 10
-445.952599
 20
-145.981912
 30
0.0
 40
2.0
100
AcDbArc
 50
0.0
 51
97.334369
  0
ARC
  5
26F
100
AcDbEntity
  8
0
370
    -3
390
0
  6
Continuous
100
AcDbCircle
 10
-445.952599
 20
-150.018022
 30
0.0
 40
2.0
100
AcDbArc
 50
278.020933
 51
0.0
  0
ARC
  5
270
100
AcDbEntity
  8
0
370
    -3
390
0
  6
Continuous
100
AcDbCircle
 10
-474.439083
 20
-166.913077
 30
0.0
 40
2.0
100
AcDbArc
 50
240.0
 51
323.322595
  0
ARC
  5
271
100
AcDbEntity
  8
0
370
    -3
390
0
  6
Continuous
100
AcDbCircle
 10
-477.924811
 20
-164.90059
 30
0.0
 40
2.0
100
AcDbArc
 50
143.893148
 51
240.0
  0
ARC
  5
272
100
AcDbEntity
  8
0
370
    -3
390
0
  6
Continuous
100
AcDbCircle
 10
-466.57733
 20
-171.452061
 30
0.0
 40
2.0
100
AcDbArc
 50
141.543481
 51
240.0
  0
ARC
  5
273
100
AcDbEntity
  8
0
370
    -3
390
0
  6
Continuous
100
AcDbCircle
 10
-463.069976
 20
-173.477034
 30
0.0
 40
2.0
100
AcDbArc
 50
240.0
 51
320.405932
  0
ARC
  5
274
100
AcDbEntity
  8
0
370
    -3
390
0
  6
Continuous
100
AcDbCircle
 10
-445.952599
 20
-163.203483
 30
0.0
 40
2.0
100
AcDbArc
 50
281.536959
 51
0.0
  0
ARC
  5
275
100
AcDbEntity
  8
0
370
    -3
390
0
  6
Continuous
100
AcDbCircle
 10
-445.952599
 20
-159.130959
 30
0.0
 40
2.0
100
AcDbArc
 50
0.0
 51
100.164249
  0
ARC
  5
276
100
AcDbEntity
  8
0
370
    -3
390
0
  6
Continuous
100
AcDbCircle
 10
-445.952599
 20
-172.472748
 30
0.0
 40
2.0
100
AcDbArc
 50
0.0
 51
106.60155
  0
ARC
  5
277
100
AcDbEntity
  8
0
370
    -3
390
0
  6
Continuous
100
AcDbCircle
 10
-445.952599
 20
-176.691386
 30
0.0
 40
2.0
100
AcDbArc
 50
290.667316
 51
0.0
  0
ARC
  5
278
100
AcDbEntity
  8
0
370
    -3
390
0
  6
Continuous
100
AcDbCircle
 10
-455.11612
 20
-178.069194
 30
0.0
 40
2.0
100
AcDbArc
 50
136.225853
 51
240.0
  0
ARC
  5
279
100
AcDbEntity
  8
0
370
    -3
390
0
  6
Continuous
100
AcDbCircle
 10
-451.523846
 20
-180.143195
 30
0.0
 40
2.0
100
AcDbArc
 50
240.0
 51
312.895365
  0
ARC
  5
27A
100
AcDbEntity
  8
0
370
    -3
390
0
  6
Continuous
100
AcDbCircle
 10
-428.381351
 20
-180.143195
 30
0.0
 40
2.0
100
AcDbArc
 50
227.104635
 51
300.0
  0
LINE
  5
27B
100
AcDbEntity
  8
0
370
    -3
390
0
  6
Continuous
100
AcDbLine
 10
-423.789077
 20
-179.801245
 30
0.0
 11
-427.381351
 21
-181.875245
 31
0.0
  0
ARC
  5
27C
100
AcDbEntity
  8
0
370
    -3
390
0
  6
Continuous
100
AcDbCircle
 10
-439.952599
 20
-192.59736
 30
0.0
 40
15.0
100
AcDbArc
 50
47.104635
 51
69.332684
  0
ARC
  5
27D
100
AcDbEntity
  8
0
370
    -3
390
0
  6
Continuous
100
AcDbCircle
 10
-424.789077
 20
-178.069194
 30
0.0
 40
2.0
100
AcDbArc
 50
300.0
 51
43.774147
  0
ARC
  5
27E
100
AcDbEntity
  8
0
370
    -3
390
0
  6
Continuous
100
AcDbCircle
 10
-439.952599
 20
-192.59736
 30
0.0
 40
23.0
100
AcDbArc
 50
43.774147
 51
73.39845
  0
ARC
  5
27F
100
AcDbEntity
  8
0
370
    -3
390
0
  6
Continuous
100
AcDbCircle
 10
-433.952599
 20
-176.691386
 30
0.0
 40
2.0
100
AcDbArc
 50
180.0
 51
249.332684
  0
ARC
  5
280
100
AcDbEntity
  8
0
370
    -3
390
0
  6
Continuous
100
AcDbCircle
 10
-433.952599
 20
-172.472748
 30
0.0
 40
2.0
100
AcDbArc
 50
73.39845
 51
180.0
  0
ARC
  5
281
100
AcDbEntity
  8
0
370
    -3
390
0
  6
Continuous
100
AcDbCircle
 10
-433.952599
 20
-159.130959
 30
0.0
 40
2.0
100
AcDbArc
 50
79.835751
 51
180.0
  0
ARC
  5
282
100
AcDbEntity
  8
0
370
    -3
390
0
  6
Continuous
100
AcDbCircle
 10
-439.952599
 20
-192.59736
 30
0.0
 40
36.0
100
AcDbArc
 50
38.456519
 51
79.835751
  0
ARC
  5
283
100
AcDbEntity
  8
0
370
    -3
390
0
  6
Continuous
100
AcDbCircle
 10
-433.952599
 20
-163.203483
 30
0.0
 40
2.0
100
AcDbArc
 50
180.0
 51
258.463041
  0
ARC
  5
284
100
AcDbEntity
  8
0
370
    -3
390
0
  6
Continuous
100
AcDbCircle
 10
-439.952599
 20
-192.59736
 30
0.0
 40
28.0
100
AcDbArc
 50
39.594068
 51
78.463041
  0
ARC
  5
285
100
AcDbEntity
  8
0
370
    -3
390
0
  6
Continuous
100
AcDbCircle
 10
-416.835222
 20
-173.477034
 30
0.0
 40
2.0
100
AcDbArc
 50
219.594068
 51
300.0
  0
LINE
  5
286
100
AcDbEntity
  8
0
370
    -3
390
0
  6
Continuous
100
AcDbLine
 10
-412.327867
 20
-173.184112
 30
0.0
 11
-415.835222
 21
-175.209084
 31
0.0
  0
ARC
  5
287
100
AcDbEntity
  8
0
370
    -3
390
0
  6
Continuous
100
AcDbCircle
 10
-413.327867
 20
-171.452061
 30
0.0
 40
2.0
100
AcDbArc
 50
300.0
 51
38.456519
  0
ARC
  5
288
100
AcDbEntity
  8
0
370
    -3
390
0
  6
Continuous
100
AcDbCircle
 10
-401.980386
 20
-164.90059
 30
0.0
 40
2.0
100
AcDbArc
 50
300.0
 51
36.106852
  0
LINE
  5
289
100
AcDbEntity
  8
0
370
    -3
390
0
  6
Continuous
100
AcDbLine
 10
-400.980386
 20
-166.632641
 30
0.0
 11
-404.466115
 21
-168.645127
 31
0.0
  0
ARC
  5
28A
100
AcDbEntity
  8
0
370
    -3
390
0
  6
Continuous
100
AcDbCircle
 10
-439.952599
 20
-192.59736
 30
0.0
 40
49.0
100
AcDbArc
 50
36.106852
 51
82.665631
  0
ARC
  5
28B
100
AcDbEntity
  8
0
370
    -3
390
0
  6
Continuous
100
AcDbCircle
 10
-405.466115
 20
-166.913077
 30
0.0
 40
2.0
100
AcDbArc
 50
216.677405
 51
300.0
  0
ARC
  5
28C
100
AcDbEntity
  8
0
370
    -3
390
0
  6
Continuous
100
AcDbCircle
 10
-439.952599
 20
-192.59736
 30
0.0
 40
41.0
100
AcDbArc
 50
36.677405
 51
81.979067
  0
ARC
  5
28D
100
AcDbEntity
  8
0
370
    -3
390
0
  6
Continuous
100
AcDbCircle
 10
-433.952599
 20
-150.018022
 30
0.0
 40
2.0
100
AcDbArc
 50
180.0
 51
261.979067
  0
ARC
  5
28E
100
AcDbEntity
  8
0
370
    -3
390
0
  6
Continuous
100
AcDbCircle
 10
-439.952599
 20
-192.59736
 30
0.0
 40
54.0
100
AcDbArc
 50
35.122516
 51
83.84936
  0
ARC
  5
28F
100
AcDbEntity
  8
0
370
    -3
390
0
  6
Continuous
100
AcDbCircle
 10
-394.148872
 20
-160.379064
 30
0.0
 40
2.0
100
AcDbArc
 50
215.122516
 51
300.0
  0
LINE
  5
290
100
AcDbEntity
  8
0
370
    -3
390
0
  6
Continuous
100
AcDbLine
 10
-389.671811
 20
-160.103632
 30
0.0
 11
-393.148872
 21
-162.111114
 31
0.0
  0
ARC
  5
291
100
AcDbEntity
  8
0
370
    -3
390
0
  6
Continuous
100
AcDbCircle
 10
-390.671811
 20
-158.371581
 30
0.0
 40
2.0
100
AcDbArc
 50
300.0
 51
34.780192
  0
ARC
  5
292
100
AcDbEntity
  8
0
370
    -3
390
0
  6
Continuous
100
AcDbCircle
 10
-439.952599
 20
-192.59736
 30
0.0
 40
62.0
100
AcDbArc
 50
34.780192
 51
84.26083
  0
LINE
  5
293
100
AcDbEntity
  8
0
370
    -3
390
0
  6
Continuous
100
AcDbLine
 10
-378.381211
 20
-153.585001
 30
0.0
 11
-381.419795
 21
-155.339329
 31
0.0
  0
ARC
  5
294
100
AcDbEntity
  8
0
370
    -3
390
0
  6
Continuous
100
AcDbCircle
 10
-379.381211
 20
-151.85295
 30
0.0
 40
2.0
100
AcDbArc
 50
300.0
 51
33.927443
  0
ARC
  5
295
100
AcDbEntity
  8
0
370
    -3
390
0
  6
Continuous
100
AcDbCircle
 10
-439.952599
 20
-192.59736
 30
0.0
 40
75.0
100
AcDbArc
 50
33.927443
 51
85.285439
  0
LINE
  5
296
100
AcDbEntity
  8
0
370
    -3
390
0
  6
Continuous
100
AcDbLine
 10
-435.952599
 20
-172.472748
 30
0.0
 11
-435.952599
 21
-176.691386
 31
0.0
  0
LINE
  5
297
100
AcDbEntity
  8
0
370
    -3
390
0
  6
Continuous
100
AcDbLine
 10
-435.952599
 20
-159.130959
 30
0.0
 11
-435.952599
 21
-163.203483
 31
0.0
  0
LINE
  5
298
100
AcDbEntity
  8
0
370
    -3
390
0
  6
Continuous
100
AcDbLine
 10
-435.952599
 20
-145.981912
 30
0.0
 11
-435.952599
 21
-150.018022
 31
0.0
  0
ARC
  5
299
100
AcDbEntity
  8
0
370
    -3
390
0
  6
Continuous
100
AcDbCircle
 10
-433.952599
 20
-145.981912
 30
0.0
 40
2.0
100
AcDbArc
 50
82.665631
 51
180.0
  0
ARC
  5
29A
100
AcDbEntity
  8
0
370
    -3
390
0
  6
Continuous
100
AcDbCircle
 10
-433.952599
 20
-136.919716
 30
0.0
 40
2.0
100
AcDbArc
 50
180.0
 51
263.84936
  0
LINE
  5
29B
100
AcDbEntity
  8
0
370
    -3
390
0
  6
Continuous
100
AcDbLine
 10
-435.952599
 20
-132.898114
 30
0.0
 11
-435.952599
 21
-136.919716
 31
0.0
  0
LINE
  5
29C
100
AcDbEntity
  8
0
370
    -3
390
0
  6
Continuous
100
AcDbLine
 10
-435.952599
 20
-119.844353
 30
0.0
 11
-435.952599
 21
-123.356837
 31
0.0
  0
ARC
  5
29D
100
AcDbEntity
  8
0
370
    -3
390
0
  6
Continuous
100
AcDbCircle
 10
-433.952599
 20
-132.898114
 30
0.0
 40
2.0
100
AcDbArc
 50
84.26083
 51
180.0
  0
ARC
  5
29E
100
AcDbEntity
  8
0
370
    -3
390
0
  6
Continuous
100
AcDbCircle
 10
-433.952599
 20
-119.844353
 30
0.0
 40
2.0
100
AcDbArc
 50
85.285439
 51
180.0
  0
ARC
  5
29F
100
AcDbEntity
  8
0
370
    -3
390
0
  6
Continuous
100
AcDbCircle
 10
-423.381351
 20
-188.803449
 30
0.0
 40
2.0
100
AcDbArc
 50
120.0
 51
192.895365
  0
LINE
  5
2A0
100
AcDbEntity
  8
0
370
    -3
390
0
  6
Continuous
100
AcDbLine
 10
-420.789077
 20
-184.997397
 30
0.0
 11
-424.381351
 21
-187.071398
 31
0.0
  0
ARC
  5
2A1
100
AcDbEntity
  8
0
370
    -3
390
0
  6
Continuous
100
AcDbCircle
 10
-439.952599
 20
-192.59736
 30
0.0
 40
15.0
100
AcDbArc
 50
350.667316
 51
12.895365
  0
ARC
  5
2A2
100
AcDbEntity
  8
0
370
    -3
390
0
  6
Continuous
100
AcDbCircle
 10
-419.789077
 20
-186.729448
 30
0.0
 40
2.0
100
AcDbArc
 50
16.225853
 51
120.0
  0
ARC
  5
2A3
100
AcDbEntity
  8
0
370
    -3
390
0
  6
Continuous
100
AcDbCircle
 10
-439.952599
 20
-192.59736
 30
0.0
 40
23.0
100
AcDbArc
 50
346.60155
 51
16.225853
  0
ARC
  5
2A4
100
AcDbEntity
  8
0
370
    -3
390
0
  6
Continuous
100
AcDbCircle
 10
-423.177621
 20
-195.354194
 30
0.0
 40
2.0
100
AcDbArc
 50
170.667316
 51
240.0
  0
ARC
  5
2A5
100
AcDbEntity
  8
0
370
    -3
390
0
  6
Continuous
100
AcDbCircle
 10
-419.524174
 20
-197.463514
 30
0.0
 40
2.0
100
AcDbArc
 50
240.0
 51
346.60155
  0
ARC
  5
2A6
100
AcDbEntity
  8
0
370
    -3
390
0
  6
Continuous
100
AcDbCircle
 10
-407.969845
 20
-204.134408
 30
0.0
 40
2.0
100
AcDbArc
 50
240.0
 51
340.164249
  0
ARC
  5
2A7
100
AcDbEntity
  8
0
370
    -3
390
0
  6
Continuous
100
AcDbCircle
 10
-439.952599
 20
-192.59736
 30
0.0
 40
36.0
100
AcDbArc
 50
340.164249
 51
21.543481
  0
ARC
  5
2A8
100
AcDbEntity
  8
0
370
    -3
390
0
  6
Continuous
100
AcDbCircle
 10
-411.496755
 20
-202.098146
 30
0.0
 40
2.0
100
AcDbArc
 50
161.536959
 51
240.0
  0
ARC
  5
2A9
100
AcDbEntity
  8
0
370
    -3
390
0
  6
Continuous
100
AcDbCircle
 10
-439.952599
 20
-192.59736
 30
0.0
 40
28.0
100
AcDbArc
 50
341.536959
 51
20.405932
  0
ARC
  5
2AA
100
AcDbEntity
  8
0
370
    -3
390
0
  6
Continuous
100
AcDbCircle
 10
-411.835222
 20
-182.137288
 30
0.0
 40
2.0
100
AcDbArc
 50
120.0
 51
200.405932
  0
LINE
  5
2AB
100
AcDbEntity
  8
0
370
    -3
390
0
  6
Continuous
100
AcDbLine
 10
-409.327867
 20
-178.380265
 30
0.0
 11
-412.835222
 21
-180.405237
 31
0.0
  0
ARC
  5
2AC
100
AcDbEntity
  8
0
370
    -3
390
0
  6
Continuous
100
AcDbCircle
 10
-408.327867
 20
-180.112315
 30
0.0
 40
2.0
100
AcDbArc
 50
21.543481
 51
120.0
  0
ARC
  5
2AD
100
AcDbEntity
  8
0
370
    -3
390
0
  6
Continuous
100
AcDbCircle
 10
-396.980386
 20
-173.560844
 30
0.0
 40
2.0
100
AcDbArc
 50
23.893148
 51
120.0
  0
LINE
  5
2AE
100
AcDbEntity
  8
0
370
    -3
390
0
  6
Continuous
100
AcDbLine
 10
-397.980386
 20
-171.828793
 30
0.0
 11
-401.466115
 21
-173.84128
 31
0.0
  0
ARC
  5
2AF
100
AcDbEntity
  8
0
370
    -3
390
0
  6
Continuous
100
AcDbCircle
 10
-439.952599
 20
-192.59736
 30
0.0
 40
49.0
100
AcDbArc
 50
337.334369
 51
23.893148
  0
ARC
  5
2B0
100
AcDbEntity
  8
0
370
    -3
390
0
  6
Continuous
100
AcDbCircle
 10
-400.466115
 20
-175.573331
 30
0.0
 40
2.0
100
AcDbArc
 50
120.0
 51
203.322595
  0
ARC
  5
2B1
100
AcDbEntity
  8
0
370
    -3
390
0
  6
Continuous
100
AcDbCircle
 10
-439.952599
 20
-192.59736
 30
0.0
 40
41.0
100
AcDbArc
 50
338.020933
 51
23.322595
  0
ARC
  5
2B2
100
AcDbEntity
  8
0
370
    -3
390
0
  6
Continuous
100
AcDbCircle
 10
-400.077811
 20
-208.690876
 30
0.0
 40
2.0
100
AcDbArc
 50
158.020933
 51
240.0
  0
ARC
  5
2B3
100
AcDbEntity
  8
0
370
    -3
390
0
  6
Continuous
100
AcDbCircle
 10
-439.952599
 20
-192.59736
 30
0.0
 40
54.0
100
AcDbArc
 50
336.15064
 51
24.877484
  0
ARC
  5
2B4
100
AcDbEntity
  8
0
370
    -3
390
0
  6
Continuous
100
AcDbCircle
 10
-389.148872
 20
-169.039318
 30
0.0
 40
2.0
100
AcDbArc
 50
120.0
 51
204.877484
  0
LINE
  5
2B5
100
AcDbEntity
  8
0
370
    -3
390
0
  6
Continuous
100
AcDbLine
 10
-386.671811
 20
-165.299784
 30
0.0
 11
-390.148872
 21
-167.307267
 31
0.0
  0
ARC
  5
2B6
100
AcDbEntity
  8
0
370
    -3
390
0
  6
Continuous
100
AcDbCircle
 10
-385.671811
 20
-167.031835
 30
0.0
 40
2.0
100
AcDbArc
 50
25.219808
 51
120.0
  0
ARC
  5
2B7
100
AcDbEntity
  8
0
370
    -3
390
0
  6
Continuous
100
AcDbCircle
 10
-439.952599
 20
-192.59736
 30
0.0
 40
62.0
100
AcDbArc
 50
335.73917
 51
25.219808
  0
LINE
  5
2B8
100
AcDbEntity
  8
0
370
    -3
390
0
  6
Continuous
100
AcDbLine
 10
-375.381211
 20
-158.781153
 30
0.0
 11
-378.419795
 21
-160.535481
 31
0.0
  0
ARC
  5
2B9
100
AcDbEntity
  8
0
370
    -3
390
0
  6
Continuous
100
AcDbCircle
 10
-374.381211
 20
-160.513204
 30
0.0
 40
2.0
100
AcDbArc
 50
26.072557
 51
120.0
  0
ARC
  5
2BA
100
AcDbEntity
  8
0
370
    -3
390
0
  6
Continuous
100
AcDbCircle
 10
-439.952599
 20
-192.59736
 30
0.0
 40
75.0
100
AcDbArc
 50
334.714561
 51
26.072557
  0
LINE
  5
2BB
100
AcDbEntity
  8
0
370
    -3
390
0
  6
Continuous
100
AcDbLine
 10
-420.524174
 20
-199.195564
 30
0.0
 11
-424.177621
 21
-197.086245
 31
0.0
  0
LINE
  5
2BC
100
AcDbEntity
  8
0
370
    -3
390
0
  6
Continuous
100
AcDbLine
 10
-408.969845
 20
-205.866459
 30
0.0
 11
-412.496755
 21
-203.830197
 31
0.0
  0
LINE
  5
2BD
100
AcDbEntity
  8
0
370
    -3
390
0
  6
Continuous
100
AcDbLine
 10
-397.582436
 20
-212.440982
 30
0.0
 11
-401.077811
 21
-210.422927
 31
0.0
  0
ARC
  5
2BE
100
AcDbEntity
  8
0
370
    -3
390
0
  6
Continuous
100
AcDbCircle
 10
-396.582436
 20
-210.708932
 30
0.0
 40
2.0
100
AcDbArc
 50
240.0
 51
337.334369
  0
ARC
  5
2BF
100
AcDbEntity
  8
0
370
    -3
390
0
  6
Continuous
100
AcDbCircle
 10
-388.734345
 20
-215.240029
 30
0.0
 40
2.0
100
AcDbArc
 50
156.15064
 51
240.0
  0
LINE
  5
2C0
100
AcDbEntity
  8
0
370
    -3
390
0
  6
Continuous
100
AcDbLine
 10
-374.946647
 20
-225.509762
 30
0.0
 11
-377.988547
 21
-223.75352
 31
0.0
  0
ARC
  5
2C1
100
AcDbEntity
  8
0
370
    -3
390
0
  6
Continuous
100
AcDbCircle
 10
-385.251535
 20
-217.250831
 30
0.0
 40
2.0
100
AcDbArc
 50
240.0
 51
335.73917
  0
ARC
  5
2C2
100
AcDbEntity
  8
0
370
    -3
390
0
  6
Continuous
100
AcDbCircle
 10
-373.946647
 20
-223.777711
 30
0.0
 40
2.0
100
AcDbArc
 50
240.0
 51
334.714561
  0
ARC
  5
2C3
100
AcDbEntity
  8
0
370
    -3
390
0
  6
Continuous
100
AcDbCircle
 10
-434.952599
 20
-208.845437
 30
0.0
 40
2.0
100
AcDbArc
 50
107.104635
 51
180.0
  0
LINE
  5
2C4
100
AcDbEntity
  8
0
370
    -3
390
0
  6
Continuous
100
AcDbLine
 10
-436.952599
 20
-212.993438
 30
0.0
 11
-436.952599
 21
-208.845437
 31
0.0
  0
ARC
  5
2C5
100
AcDbEntity
  8
0
370
    -3
390
0
  6
Continuous
100
AcDbCircle
 10
-439.952599
 20
-192.59736
 30
0.0
 40
15.0
100
AcDbArc
 50
287.104635
 51
309.332684
  0
ARC
  5
2C6
100
AcDbEntity
  8
0
370
    -3
390
0
  6
Continuous
100
AcDbCircle
 10
-434.952599
 20
-212.993438
 30
0.0
 40
2.0
100
AcDbArc
 50
180.0
 51
283.774147
  0
ARC
  5
2C7
100
AcDbEntity
  8
0
370
    -3
390
0
  6
Continuous
100
AcDbCircle
 10
-439.952599
 20
-192.59736
 30
0.0
 40
23.0
100
AcDbArc
 50
283.774147
 51
313.39845
  0
ARC
  5
2C8
100
AcDbEntity
  8
0
370
    -3
390
0
  6
Continuous
100
AcDbCircle
 10
-429.177621
 20
-205.746499
 30
0.0
 40
2.0
100
AcDbArc
 50
60.0
 51
129.332684
  0
ARC
  5
2C9
100
AcDbEntity
  8
0
370
    -3
390
0
  6
Continuous
100
AcDbCircle
 10
-425.524174
 20
-207.855818
 30
0.0
 40
2.0
100
AcDbArc
 50
313.39845
 51
60.0
  0
ARC
  5
2CA
100
AcDbEntity
  8
0
370
    -3
390
0
  6
Continuous
100
AcDbCircle
 10
-413.969845
 20
-214.526713
 30
0.0
 40
2.0
100
AcDbArc
 50
319.835751
 51
60.0
  0
ARC
  5
2CB
100
AcDbEntity
  8
0
370
    -3
390
0
  6
Continuous
100
AcDbCircle
 10
-439.952599
 20
-192.59736
 30
0.0
 40
36.0
100
AcDbArc
 50
278.456519
 51
319.835751
  0
ARC
  5
2CC
100
AcDbEntity
  8
0
370
    -3
390
0
  6
Continuous
100
AcDbCircle
 10
-417.496755
 20
-212.490451
 30
0.0
 40
2.0
100
AcDbArc
 50
60.0
 51
138.463041
  0
ARC
  5
2CD
100
AcDbEntity
  8
0
370
    -3
390
0
  6
Continuous
100
AcDbCircle
 10
-439.952599
 20
-192.59736
 30
0.0
 40
28.0
100
AcDbArc
 50
279.594068
 51
318.463041
  0
ARC
  5
2CE
100
AcDbEntity
  8
0
370
    -3
390
0
  6
Continuous
100
AcDbCircle
 10
-434.952599
 20
-222.177759
 30
0.0
 40
2.0
100
AcDbArc
 50
99.594068
 51
180.0
  0
LINE
  5
2CF
100
AcDbEntity
  8
0
370
    -3
390
0
  6
Continuous
100
AcDbLine
 10
-436.952599
 20
-226.227703
 30
0.0
 11
-436.952599
 21
-222.177759
 31
0.0
  0
ARC
  5
2D0
100
AcDbEntity
  8
0
370
    -3
390
0
  6
Continuous
100
AcDbCircle
 10
-434.952599
 20
-226.227703
 30
0.0
 40
2.0
100
AcDbArc
 50
180.0
 51
278.456519
  0
ARC
  5
2D1
100
AcDbEntity
  8
0
370
    -3
390
0
  6
Continuous
100
AcDbCircle
 10
-434.952599
 20
-239.330646
 30
0.0
 40
2.0
100
AcDbArc
 50
180.0
 51
276.106852
  0
LINE
  5
2D2
100
AcDbEntity
  8
0
370
    -3
390
0
  6
Continuous
100
AcDbLine
 10
-436.952599
 20
-239.330646
 30
0.0
 11
-436.952599
 21
-235.305673
 31
0.0
  0
ARC
  5
2D3
100
AcDbEntity
  8
0
370
    -3
390
0
  6
Continuous
100
AcDbCircle
 10
-439.952599
 20
-192.59736
 30
0.0
 40
49.0
100
AcDbArc
 50
276.106852
 51
322.665631
  0
ARC
  5
2D4
100
AcDbEntity
  8
0
370
    -3
390
0
  6
Continuous
100
AcDbCircle
 10
-434.952599
 20
-235.305673
 30
0.0
 40
2.0
100
AcDbArc
 50
96.677405
 51
180.0
  0
ARC
  5
2D5
100
AcDbEntity
  8
0
370
    -3
390
0
  6
Continuous
100
AcDbCircle
 10
-439.952599
 20
-192.59736
 30
0.0
 40
41.0
100
AcDbArc
 50
276.677405
 51
321.979067
  0
ARC
  5
2D6
100
AcDbEntity
  8
0
370
    -3
390
0
  6
Continuous
100
AcDbCircle
 10
-406.077811
 20
-219.083181
 30
0.0
 40
2.0
100
AcDbArc
 50
60.0
 51
141.979067
  0
ARC
  5
2D7
100
AcDbEntity
  8
0
370
    -3
390
0
  6
Continuous
100
AcDbCircle
 10
-439.952599
 20
-192.59736
 30
0.0
 40
54.0
100
AcDbArc
 50
275.122516
 51
323.84936
  0
ARC
  5
2D8
100
AcDbEntity
  8
0
370
    -3
390
0
  6
Continuous
100
AcDbCircle
 10
-434.952599
 20
-248.373699
 30
0.0
 40
2.0
100
AcDbArc
 50
95.122516
 51
180.0
  0
LINE
  5
2D9
100
AcDbEntity
  8
0
370
    -3
390
0
  6
Continuous
100
AcDbLine
 10
-436.952599
 20
-252.388664
 30
0.0
 11
-436.952599
 21
-248.373699
 31
0.0
  0
ARC
  5
2DA
100
AcDbEntity
  8
0
370
    -3
390
0
  6
Continuous
100
AcDbCircle
 10
-434.952599
 20
-252.388664
 30
0.0
 40
2.0
100
AcDbArc
 50
180.0
 51
274.780192
  0
ARC
  5
2DB
100
AcDbEntity
  8
0
370
    -3
390
0
  6
Continuous
100
AcDbCircle
 10
-439.952599
 20
-192.59736
 30
0.0
 40
62.0
100
AcDbArc
 50
274.780192
 51
324.26083
  0
LINE
  5
2DC
100
AcDbEntity
  8
0
370
    -3
390
0
  6
Continuous
100
AcDbLine
 10
-436.952599
 20
-265.425926
 30
0.0
 11
-436.952599
 21
-261.917271
 31
0.0
  0
ARC
  5
2DD
100
AcDbEntity
  8
0
370
    -3
390
0
  6
Continuous
100
AcDbCircle
 10
-434.952599
 20
-265.425926
 30
0.0
 40
2.0
100
AcDbArc
 50
180.0
 51
273.927443
  0
ARC
  5
2DE
100
AcDbEntity
  8
0
370
    -3
390
0
  6
Continuous
100
AcDbCircle
 10
-439.952599
 20
-192.59736
 30
0.0
 40
75.0
100
AcDbArc
 50
273.927443
 51
325.285439
  0
LINE
  5
2DF
100
AcDbEntity
  8
0
370
    -3
390
0
  6
Continuous
100
AcDbLine
 10
-424.524174
 20
-206.123768
 30
0.0
 11
-428.177621
 21
-204.014449
 31
0.0
  0
LINE
  5
2E0
100
AcDbEntity
  8
0
370
    -3
390
0
  6
Continuous
100
AcDbLine
 10
-412.969845
 20
-212.794662
 30
0.0
 11
-416.496755
 21
-210.7584
 31
0.0
  0
LINE
  5
2E1
100
AcDbEntity
  8
0
370
    -3
390
0
  6
Continuous
100
AcDbLine
 10
-390.251535
 20
-225.911085
 30
0.0
 11
-393.734345
 21
-223.900283
 31
0.0
  0
ARC
  5
2E2
100
AcDbEntity
  8
0
370
    -3
390
0
  6
Continuous
100
AcDbCircle
 10
-402.582436
 20
-221.101237
 30
0.0
 40
2.0
100
AcDbArc
 50
322.665631
 51
60.0
  0
ARC
  5
2E3
100
AcDbEntity
  8
0
370
    -3
390
0
  6
Continuous
100
AcDbCircle
 10
-394.734345
 20
-225.632334
 30
0.0
 40
2.0
100
AcDbArc
 50
60.0
 51
143.84936
  0
LINE
  5
2E4
100
AcDbEntity
  8
0
370
    -3
390
0
  6
Continuous
100
AcDbLine
 10
-378.946647
 20
-232.437965
 30
0.0
 11
-381.988547
 21
-230.681723
 31
0.0
  0
ARC
  5
2E5
100
AcDbEntity
  8
0
370
    -3
390
0
  6
Continuous
100
AcDbCircle
 10
-391.251535
 20
-227.643136
 30
0.0
 40
2.0
100
AcDbArc
 50
324.26083
 51
60.0
  0
ARC
  5
2E6
100
AcDbEntity
  8
0
370
    -3
390
0
  6
Continuous
100
AcDbCircle
 10
-379.946647
 20
-234.170016
 30
0.0
 40
2.0
100
AcDbArc
 50
325.285439
 51
60.0
  0
ARC
  5
2E7
100
AcDbEntity
  8
0
370
    -3
390
0
  6
Continuous
100
AcDbCircle
 10
-444.952599
 20
-208.845437
 30
0.0
 40
2.0
100
AcDbArc
 50
0.0
 51
72.895365
  0
LINE
  5
2E8
100
AcDbEntity
  8
0
370
    -3
390
0
  6
Continuous
100
AcDbLine
 10
-442.952599
 20
-212.993438
 30
0.0
 11
-442.952599
 21
-208.845437
 31
0.0
  0
ARC
  5
2E9
100
AcDbEntity
  8
0
370
    -3
390
0
  6
Continuous
100
AcDbCircle
 10
-439.952599
 20
-192.59736
 30
0.0
 40
15.0
100
AcDbArc
 50
230.667316
 51
252.895365
  0
ARC
  5
2EA
100
AcDbEntity
  8
0
370
    -3
390
0
  6
Continuous
100
AcDbCircle
 10
-444.952599
 20
-212.993438
 30
0.0
 40
2.0
100
AcDbArc
 50
256.225853
 51
0.0
  0
ARC
  5
2EB
100
AcDbEntity
  8
0
370
    -3
390
0
  6
Continuous
100
AcDbCircle
 10
-439.952599
 20
-192.59736
 30
0.0
 40
23.0
100
AcDbArc
 50
226.60155
 51
256.225853
  0
ARC
  5
2EC
100
AcDbEntity
  8
0
370
    -3
390
0
  6
Continuous
100
AcDbCircle
 10
-450.727576
 20
-205.746499
 30
0.0
 40
2.0
100
AcDbArc
 50
50.667316
 51
120.0
  0
ARC
  5
2ED
100
AcDbEntity
  8
0
370
    -3
390
0
  6
Continuous
100
AcDbCircle
 10
-454.381024
 20
-207.855818
 30
0.0
 40
2.0
100
AcDbArc
 50
120.0
 51
226.60155
  0
ARC
  5
2EE
100
AcDbEntity
  8
0
370
    -3
390
0
  6
Continuous
100
AcDbCircle
 10
-465.935352
 20
-214.526713
 30
0.0
 40
2.0
100
AcDbArc
 50
120.0
 51
220.164249
  0
ARC
  5
2EF
100
AcDbEntity
  8
0
370
    -3
390
0
  6
Continuous
100
AcDbCircle
 10
-439.952599
 20
-192.59736
 30
0.0
 40
36.0
100
AcDbArc
 50
220.164249
 51
261.543481
  0
ARC
  5
2F0
100
AcDbEntity
  8
0
370
    -3
390
0
  6
Continuous
100
AcDbCircle
 10
-462.408443
 20
-212.490451
 30
0.0
 40
2.0
100
AcDbArc
 50
41.536959
 51
120.0
  0
ARC
  5
2F1
100
AcDbEntity
  8
0
370
    -3
390
0
  6
Continuous
100
AcDbCircle
 10
-439.952599
 20
-192.59736
 30
0.0
 40
28.0
100
AcDbArc
 50
221.536959
 51
260.405932
  0
ARC
  5
2F2
100
AcDbEntity
  8
0
370
    -3
390
0
  6
Continuous
100
AcDbCircle
 10
-444.952599
 20
-222.177759
 30
0.0
 40
2.0
100
AcDbArc
 50
0.0
 51
80.405932
  0
LINE
  5
2F3
100
AcDbEntity
  8
0
370
    -3
390
0
  6
Continuous
100
AcDbLine
 10
-442.952599
 20
-226.227703
 30
0.0
 11
-442.952599
 21
-222.177759
 31
0.0
  0
ARC
  5
2F4
100
AcDbEntity
  8
0
370
    -3
390
0
  6
Continuous
100
AcDbCircle
 10
-444.952599
 20
-226.227703
 30
0.0
 40
2.0
100
AcDbArc
 50
261.543481
 51
0.0
  0
ARC
  5
2F5
100
AcDbEntity
  8
0
370
    -3
390
0
  6
Continuous
100
AcDbCircle
 10
-444.952599
 20
-239.330646
 30
0.0
 40
2.0
100
AcDbArc
 50
263.893148
 51
0.0
  0
LINE
  5
2F6
100
AcDbEntity
  8
0
370
    -3
390
0
  6
Continuous
100
AcDbLine
 10
-442.952599
 20
-239.330646
 30
0.0
 11
-442.952599
 21
-235.305673
 31
0.0
  0
ARC
  5
2F7
100
AcDbEntity
  8
0
370
    -3
390
0
  6
Continuous
100
AcDbCircle
 10
-439.952599
 20
-192.59736
 30
0.0
 40
49.0
100
AcDbArc
 50
217.334369
 51
263.893148
  0
ARC
  5
2F8
100
AcDbEntity
  8
0
370
    -3
390
0
  6
Continuous
100
AcDbCircle
 10
-444.952599
 20
-235.305673
 30
0.0
 40
2.0
100
AcDbArc
 50
0.0
 51
83.322595
  0
ARC
  5
2F9
100
AcDbEntity
  8
0
370
    -3
390
0
  6
Continuous
100
AcDbCircle
 10
-439.952599
 20
-192.59736
 30
0.0
 40
41.0
100
AcDbArc
 50
218.020933
 51
263.322595
  0
ARC
  5
2FA
100
AcDbEntity
  8
0
370
    -3
390
0
  6
Continuous
100
AcDbCircle
 10
-473.827387
 20
-219.083181
 30
0.0
 40
2.0
100
AcDbArc
 50
38.020933
 51
120.0
  0
ARC
  5
2FB
100
AcDbEntity
  8
0
370
    -3
390
0
  6
Continuous
100
AcDbCircle
 10
-439.952599
 20
-192.59736
 30
0.0
 40
54.0
100
AcDbArc
 50
216.15064
 51
264.877484
  0
ARC
  5
2FC
100
AcDbEntity
  8
0
370
    -3
390
0
  6
Continuous
100
AcDbCircle
 10
-444.952599
 20
-248.373699
 30
0.0
 40
2.0
100
AcDbArc
 50
0.0
 51
84.877484
  0
LINE
  5
2FD
100
AcDbEntity
  8
0
370
    -3
390
0
  6
Continuous
100
AcDbLine
 10
-442.952599
 20
-252.388664
 30
0.0
 11
-442.952599
 21
-248.373699
 31
0.0
  0
ARC
  5
2FE
100
AcDbEntity
  8
0
370
    -3
390
0
  6
Continuous
100
AcDbCircle
 10
-444.952599
 20
-252.388664
 30
0.0
 40
2.0
100
AcDbArc
 50
265.219808
 51
0.0
  0
ARC
  5
2FF
100
AcDbEntity
  8
0
370
    -3
390
0
  6
Continuous
100
AcDbCircle
 10
-439.952599
 20
-192.59736
 30
0.0
 40
62.0
100
AcDbArc
 50
215.73917
 51
265.219808
  0
LINE
  5
300
100
AcDbEntity
  8
0
370
    -3
390
0
  6
Continuous
100
AcDbLine
 10
-442.952599
 20
-265.425926
 30
0.0
 11
-442.952599
 21
-261.917271
 31
0.0
  0
ARC
  5
301
100
AcDbEntity
  8
0
370
    -3
390
0
  6
Continuous
100
AcDbCircle
 10
-444.952599
 20
-265.425926
 30
0.0
 40
2.0
100
AcDbArc
 50
266.072557
 51
0.0
  0
ARC
  5
302
100
AcDbEntity
  8
0
370
    -3
390
0
  6
Continuous
100
AcDbCircle
 10
-439.952599
 20
-192.59736
 30
0.0
 40
75.0
100
AcDbArc
 50
214.714561
 51
266.072557
  0
LINE
  5
303
100
AcDbEntity
  8
0
370
    -3
390
0
  6
Continuous
100
AcDbLine
 10
-455.381024
 20
-206.123768
 30
0.0
 11
-451.727576
 21
-204.014449
 31
0.0
  0
LINE
  5
304
100
AcDbEntity
  8
0
370
    -3
390
0
  6
Continuous
100
AcDbLine
 10
-466.935352
 20
-212.794662
 30
0.0
 11
-463.408443
 21
-210.7584
 31
0.0
  0
LINE
  5
305
100
AcDbEntity
  8
0
370
    -3
390
0
  6
Continuous
100
AcDbLine
 10
-478.322761
 20
-219.369186
 30
0.0
 11
-474.827387
 21
-217.351131
 31
0.0
  0
ARC
  5
306
100
AcDbEntity
  8
0
370
    -3
390
0
  6
Continuous
100
AcDbCircle
 10
-477.322761
 20
-221.101237
 30
0.0
 40
2.0
100
AcDbArc
 50
120.0
 51
217.334369
  0
ARC
  5
307
100
AcDbEntity
  8
0
370
    -3
390
0
  6
Continuous
100
AcDbCircle
 10
-485.170852
 20
-225.632334
 30
0.0
 40
2.0
100
AcDbArc
 50
36.15064
 51
120.0
  0
LINE
  5
308
100
AcDbEntity
  8
0
370
    -3
390
0
  6
Continuous
100
AcDbLine
 10
-489.653663
 20
-225.911085
 30
0.0
 11
-486.170852
 21
-223.900283
 31
0.0
  0
LINE
  5
309
100
AcDbEntity
  8
0
370
    -3
390
0
  6
Continuous
100
AcDbLine
 10
-500.958551
 20
-232.437965
 30
0.0
 11
-497.91665
 21
-230.681723
 31
0.0
  0
ARC
  5
30A
100
AcDbEntity
  8
0
370
    -3
390
0
  6
Continuous
100
AcDbCircle
 10
-488.653663
 20
-227.643136
 30
0.0
 40
2.0
100
AcDbArc
 50
120.0
 51
215.73917
  0
ARC
  5
30B
100
AcDbEntity
  8
0
370
    -3
390
0
  6
Continuous
100
AcDbCircle
 10
-499.958551
 20
-234.170016
 30
0.0
 40
2.0
100
AcDbArc
 50
120.0
 51
214.714561
  0
ARC
  5
30C
100
AcDbEntity
  8
0
370
    -3
390
0
  6
Continuous
100
AcDbCircle
 10
-456.523846
 20
-188.803449
 30
0.0
 40
2.0
100
AcDbArc
 50
347.104635
 51
60.0
  0
LINE
  5
30D
100
AcDbEntity
  8
0
370
    -3
390
0
  6
Continuous
100
AcDbLine
 10
-459.11612
 20
-184.997397
 30
0.0
 11
-455.523846
 21
-187.071398
 31
0.0
  0
ARC
  5
30E
100
AcDbEntity
  8
0
370
    -3
390
0
  6
Continuous
100
AcDbCircle
 10
-439.952599
 20
-192.59736
 30
0.0
 40
15.0
100
AcDbArc
 50
167.104635
 51
189.332684
  0
ARC
  5
30F
100
AcDbEntity
  8
0
370
    -3
390
0
  6
Continuous
100
AcDbCircle
 10
-460.11612
 20
-186.729448
 30
0.0
 40
2.0
100
AcDbArc
 50
60.0
 51
163.774147
  0
ARC
  5
310
100
AcDbEntity
  8
0
370
    -3
390
0
  6
Continuous
100
AcDbCircle
 10
-439.952599
 20
-192.59736
 30
0.0
 40
23.0
100
AcDbArc
 50
163.774147
 51
193.39845
  0
ARC
  5
311
100
AcDbEntity
  8
0
370
    -3
390
0
  6
Continuous
100
AcDbCircle
 10
-456.727576
 20
-195.354194
 30
0.0
 40
2.0
100
AcDbArc
 50
300.0
 51
9.332684
  0
ARC
  5
312
100
AcDbEntity
  8
0
370
    -3
390
0
  6
Continuous
100
AcDbCircle
 10
-460.381024
 20
-197.463514
 30
0.0
 40
2.0
100
AcDbArc
 50
193.39845
 51
300.0
  0
ARC
  5
313
100
AcDbEntity
  8
0
370
    -3
390
0
  6
Continuous
100
AcDbCircle
 10
-471.935352
 20
-204.134408
 30
0.0
 40
2.0
100
AcDbArc
 50
199.835751
 51
300.0
  0
ARC
  5
314
100
AcDbEntity
  8
0
370
    -3
390
0
  6
Continuous
100
AcDbCircle
 10
-439.952599
 20
-192.59736
 30
0.0
 40
36.0
100
AcDbArc
 50
158.456519
 51
199.835751
  0
ARC
  5
315
100
AcDbEntity
  8
0
370
    -3
390
0
  6
Continuous
100
AcDbCircle
 10
-468.408443
 20
-202.098146
 30
0.0
 40
2.0
100
AcDbArc
 50
300.0
 51
18.463041
  0
ARC
  5
316
100
AcDbEntity
  8
0
370
    -3
390
0
  6
Continuous
100
AcDbCircle
 10
-439.952599
 20
-192.59736
 30
0.0
 40
28.0
100
AcDbArc
 50
159.594068
 51
198.463041
  0
ARC
  5
317
100
AcDbEntity
  8
0
370
    -3
390
0
  6
Continuous
100
AcDbCircle
 10
-468.069976
 20
-182.137288
 30
0.0
 40
2.0
100
AcDbArc
 50
339.594068
 51
60.0
  0
LINE
  5
318
100
AcDbEntity
  8
0
370
    -3
390
0
  6
Continuous
100
AcDbLine
 10
-470.57733
 20
-178.380265
 30
0.0
 11
-467.069976
 21
-180.405237
 31
0.0
  0
ARC
  5
319
100
AcDbEntity
  8
0
370
    -3
390
0
  6
Continuous
100
AcDbCircle
 10
-471.57733
 20
-180.112315
 30
0.0
 40
2.0
100
AcDbArc
 50
60.0
 51
158.456519
  0
ARC
  5
31A
100
AcDbEntity
  8
0
370
    -3
390
0
  6
Continuous
100
AcDbCircle
 10
-482.924811
 20
-173.560844
 30
0.0
 40
2.0
100
AcDbArc
 50
60.0
 51
156.106852
  0
LINE
  5
31B
100
AcDbEntity
  8
0
370
    -3
390
0
  6
Continuous
100
AcDbLine
 10
-481.924811
 20
-171.828793
 30
0.0
 11
-478.439083
 21
-173.84128
 31
0.0
  0
ARC
  5
31C
100
AcDbEntity
  8
0
370
    -3
390
0
  6
Continuous
100
AcDbCircle
 10
-439.952599
 20
-192.59736
 30
0.0
 40
49.0
100
AcDbArc
 50
156.106852
 51
202.665631
  0
ARC
  5
31D
100
AcDbEntity
  8
0
370
    -3
390
0
  6
Continuous
100
AcDbCircle
 10
-479.439083
 20
-175.573331
 30
0.0
 40
2.0
100
AcDbArc
 50
336.677405
 51
60.0
  0
ARC
  5
31E
100
AcDbEntity
  8
0
370
    -3
390
0
  6
Continuous
100
AcDbCircle
 10
-439.952599
 20
-192.59736
 30
0.0
 40
41.0
100
AcDbArc
 50
156.677405
 51
201.979067
  0
ARC
  5
31F
100
AcDbEntity
  8
0
370
    -3
390
0
  6
Continuous
100
AcDbCircle
 10
-479.827387
 20
-208.690876
 30
0.0
 40
2.0
100
AcDbArc
 50
300.0
 51
21.979067
  0
ARC
  5
320
100
AcDbEntity
  8
0
370
    -3
390
0
  6
Continuous
100
AcDbCircle
 10
-439.952599
 20
-192.59736
 30
0.0
 40
54.0
100
AcDbArc
 50
155.122516
 51
203.84936
  0
ARC
  5
321
100
AcDbEntity
  8
0
370
    -3
390
0
  6
Continuous
100
AcDbCircle
 10
-490.756325
 20
-169.039318
 30
0.0
 40
2.0
100
AcDbArc
 50
335.122516
 51
60.0
  0
LINE
  5
322
100
AcDbEntity
  8
0
370
    -3
390
0
  6
Continuous
100
AcDbLine
 10
-493.233387
 20
-165.299784
 30
0.0
 11
-489.756325
 21
-167.307267
 31
0.0
  0
ARC
  5
323
100
AcDbEntity
  8
0
370
    -3
390
0
  6
Continuous
100
AcDbCircle
 10
-494.233387
 20
-167.031835
 30
0.0
 40
2.0
100
AcDbArc
 50
60.0
 51
154.780192
  0
ARC
  5
324
100
AcDbEntity
  8
0
370
    -3
390
0
  6
Continuous
100
AcDbCircle
 10
-439.952599
 20
-192.59736
 30
0.0
 40
62.0
100
AcDbArc
 50
154.780192
 51
204.26083
  0
LINE
  5
325
100
AcDbEntity
  8
0
370
    -3
390
0
  6
Continuous
100
AcDbLine
 10
-504.523987
 20
-158.781153
 30
0.0
 11
-501.485402
 21
-160.535481
 31
0.0
  0
ARC
  5
326
100
AcDbEntity
  8
0
370
    -3
390
0
  6
Continuous
100
AcDbCircle
 10
-505.523987
 20
-160.513204
 30
0.0
 40
2.0
100
AcDbArc
 50
60.0
 51
153.927443
  0
ARC
  5
327
100
AcDbEntity
  8
0
370
    -3
390
0
  6
Continuous
100
AcDbCircle
 10
-439.952599
 20
-192.59736
 30
0.0
 40
75.0
100
AcDbArc
 50
153.927443
 51
205.285439
  0
LINE
  5
328
100
AcDbEntity
  8
0
370
    -3
390
0
  6
Continuous
100
AcDbLine
 10
-459.381024
 20
-199.195564
 30
0.0
 11
-455.727576
 21
-197.086245
 31
0.0
  0
LINE
  5
329
100
AcDbEntity
  8
0
370
    -3
390
0
  6
Continuous
100
AcDbLine
 10
-470.935352
 20
-205.866459
 30
0.0
 11
-467.408443
 21
-203.830197
 31
0.0
  0
LINE
  5
32A
100
AcDbEntity
  8
0
370
    -3
390
0
  6
Continuous
100
AcDbLine
 10
-482.322761
 20
-212.440982
 30
0.0
 11
-478.827387
 21
-210.422927
 31
0.0
  0
ARC
  5
32B
100
AcDbEntity
  8
0
370
    -3
390
0
  6
Continuous
100
AcDbCircle
 10
-483.322761
 20
-210.708932
 30
0.0
 40
2.0
100
AcDbArc
 50
202.665631
 51
300.0
  0
ARC
  5
32C
100
AcDbEntity
  8
0
370
    -3
390
0
  6
Continuous
100
AcDbCircle
 10
-491.170852
 20
-215.240029
 30
0.0
 40
2.0
100
AcDbArc
 50
300.0
 51
23.84936
  0
LINE
  5
32D
100
AcDbEntity
  8
0
370
    -3
390
0
  6
Continuous
100
AcDbLine
 10
-493.653663
 20
-218.982882
 30
0.0
 11
-490.170852
 21
-216.97208
 31
0.0
  0
LINE
  5
32E
100
AcDbEntity
  8
0
370
    -3
390
0
  6
Continuous
100
AcDbLine
 10
-504.958551
 20
-225.509762
 30
0.0
 11
-501.91665
 21
-223.75352
 31
0.0
  0
ARC
  5
32F
100
AcDbEntity
  8
0
370
    -3
390
0
  6
Continuous
100
AcDbCircle
 10
-494.653663
 20
-217.250831
 30
0.0
 40
2.0
100
AcDbArc
 50
204.26083
 51
300.0
  0
ARC
  5
330
100
AcDbEntity
  8
0
370
    -3
390
0
  6
Continuous
100
AcDbCircle
 10
-505.958551
 20
-223.777711
 30
0.0
 40
2.0
100
AcDbArc
 50
205.285439
 51
300.0
  0
ARC
  5
331
100
AcDbEntity
  8
0
370
    -3
390
0
  6
Continuous
100
AcDbCircle
 10
-461.359526
 20
-223.993912
 30
0.0
 40
71.0
100
AcDbArc
 50
235.712889
 51
266.770589
  0
ARC
  5
332
100
AcDbEntity
  8
0
370
    -3
390
0
  6
Continuous
100
AcDbCircle
 10
-439.952599
 20
155.40264
 30
0.0
 40
451.0
100
AcDbArc
 50
266.770589
 51
273.229411
  0
ARC
  5
333
100
AcDbEntity
  8
0
370
    -3
390
0
  6
Continuous
100
AcDbCircle
 10
-471.34915
 20
-214.004287
 30
0.0
 40
71.0
100
AcDbArc
 50
183.229411
 51
214.287111
  0
ARC
  5
334
100
AcDbEntity
  8
0
370
    -3
390
0
  6
Continuous
100
AcDbCircle
 10
-408.556047
 20
-214.004287
 30
0.0
 40
71.0
100
AcDbArc
 50
325.712889
 51
356.770589
  0
ARC
  5
335
100
AcDbEntity
  8
0
370
    -3
390
0
  6
Continuous
100
AcDbCircle
 10
-418.545671
 20
-223.993912
 30
0.0
 40
71.0
100
AcDbArc
 50
273.229411
 51
304.287111
  0
ARC
  5
336
100
AcDbEntity
  8
0
370
    -3
390
0
  6
Continuous
100
AcDbCircle
 10
-439.952599
 20
-192.59736
 30
0.0
 40
109.0
100
AcDbArc
 50
304.287111
 51
325.712889
  0
ARC
  5
337
100
AcDbEntity
  8
0
370
    -3
390
0
  6
Continuous
100
AcDbCircle
 10
-408.556047
 20
-171.190433
 30
0.0
 40
71.0
100
AcDbArc
 50
3.229411
 51
34.287111
  0
ARC
  5
338
100
AcDbEntity
  8
0
370
    -3
390
0
  6
Continuous
100
AcDbCircle
 10
-439.952599
 20
-192.59736
 30
0.0
 40
109.0
100
AcDbArc
 50
34.287111
 51
55.712889
  0
ARC
  5
339
100
AcDbEntity
  8
0
370
    -3
390
0
  6
Continuous
100
AcDbCircle
 10
-471.34915
 20
-171.190433
 30
0.0
 40
71.0
100
AcDbArc
 50
145.712889
 51
176.770589
  0
ARC
  5
33A
100
AcDbEntity
  8
0
370
    -3
390
0
  6
Continuous
100
AcDbCircle
 10
-461.359526
 20
-161.200808
 30
0.0
 40
71.0
100
AcDbArc
 50
93.229411
 51
124.287111
  0
ARC
  5
33B
100
AcDbEntity
  8
0
370
    -3
390
0
  6
Continuous
100
AcDbCircle
 10
-439.952599
 20
-192.59736
 30
0.0
 40
109.0
100
AcDbArc
 50
124.287111
 51
145.712889
  0
ARC
  5
33C
100
AcDbEntity
  8
0
370
    -3
390
0
  6
Continuous
100
AcDbCircle
 10
-787.952599
 20
-192.59736
 30
0.0
 40
451.0
100
AcDbArc
 50
356.770589
 51
3.229411
  0
ARC
  5
33D
100
AcDbEntity
  8
0
370
    -3
390
0
  6
Continuous
100
AcDbCircle
 10
-439.952599
 20
-540.59736
 30
0.0
 40
451.0
100
AcDbArc
 50
86.770589
 51
93.229411
  0
ARC
  5
33E
100
AcDbEntity
  8
0
370
    -3
390
0
  6
Continuous
100
AcDbCircle
 10
-91.952599
 20
-192.59736
 30
0.0
 40
451.0
100
AcDbArc
 50
176.770589
 51
183.229411
  0
ARC
  5
33F
100
AcDbEntity
  8
0
370
    -3
390
0
  6
Continuous
100
AcDbCircle
 10
-439.952599
 20
-192.59736
 30
0.0
 40
109.0
100
AcDbArc
 50
214.287111
 51
235.712889
  0
ARC
  5
340
100
AcDbEntity
  8
0
370
    -3
390
0
  6
Continuous
100
AcDbCircle
 10
-439.952599
 20
155.40264
 30
0.0
 40
433.679
100
AcDbArc
 50
266.770589
 51
273.229411
  0
ARC
  5
341
100
AcDbEntity
  8
0
370
    -3
390
0
  6
Continuous
100
AcDbCircle
 10
-418.545671
 20
-223.993912
 30
0.0
 40
53.679
100
AcDbArc
 50
273.229411
 51
304.287111
  0
ARC
  5
342
100
AcDbEntity
  8
0
370
    -3
390
0
  6
Continuous
100
AcDbCircle
 10
-439.952599
 20
-192.59736
 30
0.0
 40
91.679
100
AcDbArc
 50
304.287111
 51
325.712889
  0
ARC
  5
343
100
AcDbEntity
  8
0
370
    -3
390
0
  6
Continuous
100
AcDbCircle
 10
-408.556047
 20
-214.004287
 30
0.0
 40
53.679
100
AcDbArc
 50
325.712889
 51
356.770589
  0
ARC
  5
344
100
AcDbEntity
  8
0
370
    -3
390
0
  6
Continuous
100
AcDbCircle
 10
-787.952599
 20
-192.59736
 30
0.0
 40
433.679
100
AcDbArc
 50
356.770589
 51
3.229411
  0
ARC
  5
345
100
AcDbEntity
  8
0
370
    -3
390
0
  6
Continuous
100
AcDbCircle
 10
-439.952599
 20
-192.59736
 30
0.0
 40
91.679
100
AcDbArc
 50
34.287111
 51
55.712889
  0
ARC
  5
346
100
AcDbEntity
  8
0
370
    -3
390
0
  6
Continuous
100
AcDbCircle
 10
-408.556047
 20
-171.190433
 30
0.0
 40
53.679
100
AcDbArc
 50
3.229411
 51
34.287111
  0
ARC
  5
347
100
AcDbEntity
  8
0
370
    -3
390
0
  6
Continuous
100
AcDbCircle
 10
-418.545671
 20
-161.200808
 30
0.0
 40
53.679
100
AcDbArc
 50
55.712889
 51
86.770589
  0
ARC
  5
348
100
AcDbEntity
  8
0
370
    -3
390
0
  6
Continuous
100
AcDbCircle
 10
-439.952599
 20
-192.59736
 30
0.0
 40
91.679
100
AcDbArc
 50
124.287111
 51
145.712889
  0
ARC
  5
349
100
AcDbEntity
  8
0
370
    -3
390
0
  6
Continuous
100
AcDbCircle
 10
-471.34915
 20
-171.190433
 30
0.0
 40
53.679
100
AcDbArc
 50
145.712889
 51
176.770589
  0
ARC
  5
34A
100
AcDbEntity
  8
0
370
    -3
390
0
  6
Continuous
100
AcDbCircle
 10
-461.359526
 20
-161.200808
 30
0.0
 40
53.679
100
AcDbArc
 50
93.229411
 51
124.287111
  0
ARC
  5
34B
100
AcDbEntity
  8
0
370
    -3
390
0
  6
Continuous
100
AcDbCircle
 10
-439.952599
 20
-192.59736
 30
0.0
 40
91.679
100
AcDbArc
 50
214.287111
 51
235.712889
  0
ARC
  5
34C
100
AcDbEntity
  8
0
370
    -3
390
0
  6
Continuous
100
AcDbCircle
 10
-471.34915
 20
-214.004287
 30
0.0
 40
53.679
100
AcDbArc
 50
183.229411
 51
214.287111
  0
ARC
  5
34D
100
AcDbEntity
  8
0
370
    -3
390
0
  6
Continuous
100
AcDbCircle
 10
-461.359526
 20
-223.993912
 30
0.0
 40
53.679
100
AcDbArc
 50
235.712889
 51
266.770589
  0
ARC
  5
34E
100
AcDbEntity
  8
0
370
    -3
390
0
  6
Continuous
100
AcDbCircle
 10
-91.952599
 20
-192.59736
 30
0.0
 40
433.679
100
AcDbArc
 50
176.770589
 51
183.229411
  0
ARC
  5
34F
100
AcDbEntity
  8
0
370
    -3
390
0
  6
Continuous
100
AcDbCircle
 10
-439.952599
 20
-540.59736
 30
0.0
 40
433.679
100
AcDbArc
 50
86.770589
 51
93.229411
  0
LINE
  5
350
100
AcDbEntity
  8
0
370
    -3
390
0
  6
Continuous
100
AcDbLine
 10
-386.251535
 20
-218.982882
 30
0.0
 11
-389.734345
 21
-216.97208
 31
0.0
  0
ARC
  5
351
100
AcDbEntity
  8
0
370
    -3
390
0
  6
Continuous
100
AcDbCircle
 10
-439.952599
 20
-192.59736
 30
0.0
 40
67.5
100
AcDbArc
 50
94.952563
 51
145.874437
  0
ARC
  5
352
100
AcDbEntity
  8
0
370
    -3
390
0
  6
Continuous
100
AcDbCircle
 10
-439.952599
 20
-192.59736
 30
0.0
 40
67.5
100
AcDbArc
 50
154.125563
 51
205.047437
  0
ARC
  5
353
100
AcDbEntity
  8
0
370
    -3
390
0
  6
Continuous
100
AcDbCircle
 10
-439.952599
 20
-192.59736
 30
0.0
 40
67.5
100
AcDbArc
 50
214.952563
 51
265.874437
  0
ARC
  5
354
100
AcDbEntity
  8
0
370
    -3
390
0
  6
Continuous
100
AcDbCircle
 10
-439.952599
 20
-192.59736
 30
0.0
 40
67.5
100
AcDbArc
 50
274.125563
 51
325.047437
  0
ARC
  5
355
100
AcDbEntity
  8
0
370
    -3
390
0
  6
Continuous
100
AcDbCircle
 10
-439.952599
 20
-192.59736
 30
0.0
 40
67.5
100
AcDbArc
 50
334.952563
 51
25.874437
  0
ARC
  5
356
100
AcDbEntity
  8
0
370
    -3
390
0
  6
Continuous
100
AcDbCircle
 10
-439.952599
 20
-192.59736
 30
0.0
 40
67.5
100
AcDbArc
 50
34.125563
 51
85.047437
  0
ARC
  5
357
100
AcDbEntity
  8
0
370
    -3
390
0
  6
Continuous
100
AcDbCircle
 10
-433.952599
 20
-123.356837
 30
0.0
 40
2.0
100
AcDbArc
 50
180.0
 51
265.047437
  0
ARC
  5
358
100
AcDbEntity
  8
0
370
    -3
390
0
  6
Continuous
100
AcDbCircle
 10
-382.419795
 20
-153.607278
 30
0.0
 40
2.0
100
AcDbArc
 50
214.125563
 51
300.0
  0
ARC
  5
359
100
AcDbEntity
  8
0
370
    -3
390
0
  6
Continuous
100
AcDbCircle
 10
-445.952599
 20
-123.356837
 30
0.0
 40
2.0
100
AcDbArc
 50
274.952563
 51
0.0
  0
ARC
  5
35A
100
AcDbEntity
  8
0
370
    -3
390
0
  6
Continuous
100
AcDbCircle
 10
-497.485402
 20
-153.607278
 30
0.0
 40
2.0
100
AcDbArc
 50
240.0
 51
325.874437
  0
ARC
  5
35B
100
AcDbEntity
  8
0
370
    -3
390
0
  6
Continuous
100
AcDbCircle
 10
-502.485402
 20
-162.267532
 30
0.0
 40
2.0
100
AcDbArc
 50
334.125563
 51
60.0
  0
ARC
  5
35C
100
AcDbEntity
  8
0
370
    -3
390
0
  6
Continuous
100
AcDbCircle
 10
-502.91665
 20
-222.021469
 30
0.0
 40
2.0
100
AcDbArc
 50
300.0
 51
25.047437
  0
ARC
  5
35D
100
AcDbEntity
  8
0
370
    -3
390
0
  6
Continuous
100
AcDbCircle
 10
-496.91665
 20
-232.413774
 30
0.0
 40
2.0
100
AcDbArc
 50
34.952563
 51
120.0
  0
ARC
  5
35E
100
AcDbEntity
  8
0
370
    -3
390
0
  6
Continuous
100
AcDbCircle
 10
-444.952599
 20
-261.917271
 30
0.0
 40
2.0
100
AcDbArc
 50
0.0
 51
85.874437
  0
ARC
  5
35F
100
AcDbEntity
  8
0
370
    -3
390
0
  6
Continuous
100
AcDbCircle
 10
-434.952599
 20
-261.917271
 30
0.0
 40
2.0
100
AcDbArc
 50
94.125563
 51
180.0
  0
ARC
  5
360
100
AcDbEntity
  8
0
370
    -3
390
0
  6
Continuous
100
AcDbCircle
 10
-382.988547
 20
-232.413774
 30
0.0
 40
2.0
100
AcDbArc
 50
60.0
 51
145.047437
  0
ARC
  5
361
100
AcDbEntity
  8
0
370
    -3
390
0
  6
Continuous
100
AcDbCircle
 10
-376.988547
 20
-222.021469
 30
0.0
 40
2.0
100
AcDbArc
 50
154.952563
 51
240.0
  0
ARC
  5
362
100
AcDbEntity
  8
0
370
    -3
390
0
  6
Continuous
100
AcDbCircle
 10
-377.419795
 20
-162.267532
 30
0.0
 40
2.0
100
AcDbArc
 50
120.0
 51
205.874437
  0
LINE
  5
363
100
AcDbEntity
  8
0
370
    -3
390
0
  6
Continuous
100
AcDbLine
 10
-401.582436
 20
-219.369186
 30
0.0
 11
-405.077811
 21
-217.351131
 31
0.0
  0
ARC
  5
364
100
AcDbEntity
  8
0
370
    -3
390
0
  6
Continuous
100
AcDbCircle
 10
-418.545671
 20
-161.200808
 30
0.0
 40
71.0
100
AcDbArc
 50
55.712889
 51
86.770589
  0
ARC
  5
365
100
AcDbEntity
  8
0
370
    -3
390
0
  6
Continuous
100
AcDbCircle
 10
-358.078476
 20
-114.824458
 30
0.0
 40
1.599999
100
AcDbArc
 50
314.999999
 51
28.808717
  0
LINE
  5
366
100
AcDbEntity
  8
0
370
    -3
390
0
  6
Continuous
100
AcDbLine
 10
-357.857501
 20
-116.866224
 30
0.0
 11
-364.221462
 21
-110.502263
 31
0.0
  0
LINE
  5
367
100
AcDbEntity
  8
0
370
    -3
390
0
  6
Continuous
100
AcDbLine
 10
-357.857501
 20
-116.866224
 30
0.0
 11
-356.947106
 21
-115.955828
 31
0.0
  0
LINE
  5
368
100
AcDbEntity
  8
0
370
    -3
390
0
  6
Continuous
100
AcDbLine
 10
-358.069633
 20
-117.785463
 30
0.0
 11
-357.503948
 21
-117.219777
 31
0.0
  0
ARC
  5
369
100
AcDbEntity
  8
0
370
    -3
390
0
  6
Continuous
100
AcDbCircle
 10
-358.069633
 20
-118.492569
 30
0.0
 40
0.5
100
AcDbArc
 50
315.0
 51
45.0
  0
LINE
  5
36A
100
AcDbEntity
  8
0
370
    -3
390
0
  6
Continuous
100
AcDbLine
 10
-358.752177
 20
-119.88222
 30
0.0
 11
-357.71608
 21
-118.846123
 31
0.0
  0
ARC
  5
36B
100
AcDbEntity
  8
0
370
    -3
390
0
  6
Continuous
100
AcDbCircle
 10
-365.847808
 20
-110.714395
 30
0.0
 40
0.5
100
AcDbArc
 50
45.0
 51
135.0
  0
LINE
  5
36C
100
AcDbEntity
  8
0
370
    -3
390
0
  6
Continuous
100
AcDbLine
 10
-367.237459
 20
-111.396939
 30
0.0
 11
-366.201361
 21
-110.360841
 31
0.0
  0
LINE
  5
36D
100
AcDbEntity
  8
0
370
    -3
390
0
  6
Continuous
100
AcDbLine
 10
-364.221462
 20
-110.502263
 30
0.0
 11
-363.311067
 21
-109.591867
 31
0.0
  0
ARC
  5
36E
100
AcDbEntity
  8
0
370
    -3
390
0
  6
Continuous
100
AcDbCircle
 10
-362.179696
 20
-110.723238
 30
0.0
 40
1.599999
100
AcDbArc
 50
61.191409
 51
135.000018
  0
LINE
  5
36F
100
AcDbEntity
  8
0
370
    -3
390
0
  6
Continuous
100
AcDbLine
 10
-364.575016
 20
-110.148709
 30
0.0
 11
-357.503948
 21
-117.219777
 31
0.0
  0
LINE
  5
370
100
AcDbEntity
  8
0
370
    -3
390
0
  6
Continuous
100
AcDbLine
 10
-364.575016
 20
-110.148709
 30
0.0
 11
-365.140701
 21
-110.714395
 31
0.0
  0
LINE
  5
371
100
AcDbEntity
  8
0
370
    -3
390
0
  6
Continuous
100
AcDbLine
 10
-357.71608
 20
-118.139016
 30
0.0
 11
-365.494255
 21
-110.360841
 31
0.0
  0
ARC
  5
372
100
AcDbEntity
  8
0
370
    -3
390
0
  6
Continuous
100
AcDbCircle
 10
-367.19131
 20
-119.836071
 30
0.0
 40
12.0
100
AcDbArc
 50
28.808663
 51
61.191355
  0
LINE
  5
373
100
AcDbEntity
  8
0
370
    -3
390
0
  6
Continuous
100
AcDbLine
 10
-367.237459
 20
-273.797781
 30
0.0
 11
-366.201361
 21
-274.833879
 31
0.0
  0
LINE
  5
374
100
AcDbEntity
  8
0
370
    -3
390
0
  6
Continuous
100
AcDbLine
 10
-358.069633
 20
-267.409258
 30
0.0
 11
-357.503948
 21
-267.974943
 31
0.0
  0
ARC
  5
375
100
AcDbEntity
  8
0
370
    -3
390
0
  6
Continuous
100
AcDbCircle
 10
-358.069633
 20
-266.702151
 30
0.0
 40
0.5
100
AcDbArc
 50
315.0
 51
45.0
  0
LINE
  5
376
100
AcDbEntity
  8
0
370
    -3
390
0
  6
Continuous
100
AcDbLine
 10
-358.752177
 20
-265.3125
 30
0.0
 11
-357.71608
 21
-266.348597
 31
0.0
  0
ARC
  5
377
100
AcDbEntity
  8
0
370
    -3
390
0
  6
Continuous
100
AcDbCircle
 10
-358.078476
 20
-270.370262
 30
0.0
 40
1.599999
100
AcDbArc
 50
331.191283
 51
45.000001
  0
LINE
  5
378
100
AcDbEntity
  8
0
370
    -3
390
0
  6
Continuous
100
AcDbLine
 10
-357.857501
 20
-268.328496
 30
0.0
 11
-356.947106
 21
-269.238892
 31
0.0
  0
ARC
  5
379
100
AcDbEntity
  8
0
370
    -3
390
0
  6
Continuous
100
AcDbCircle
 10
-367.19131
 20
-265.358649
 30
0.0
 40
12.0
100
AcDbArc
 50
298.808645
 51
331.191337
  0
LINE
  5
37A
100
AcDbEntity
  8
0
370
    -3
390
0
  6
Continuous
100
AcDbLine
 10
-357.857501
 20
-268.328496
 30
0.0
 11
-364.221462
 21
-274.692457
 31
0.0
  0
ARC
  5
37B
100
AcDbEntity
  8
0
370
    -3
390
0
  6
Continuous
100
AcDbCircle
 10
-365.847808
 20
-274.480325
 30
0.0
 40
0.5
100
AcDbArc
 50
225.0
 51
315.0
  0
LINE
  5
37C
100
AcDbEntity
  8
0
370
    -3
390
0
  6
Continuous
100
AcDbLine
 10
-364.221462
 20
-274.692457
 30
0.0
 11
-363.311067
 21
-275.602853
 31
0.0
  0
ARC
  5
37D
100
AcDbEntity
  8
0
370
    -3
390
0
  6
Continuous
100
AcDbCircle
 10
-362.179696
 20
-274.471483
 30
0.0
 40
1.599999
100
AcDbArc
 50
224.999982
 51
298.808591
  0
LINE
  5
37E
100
AcDbEntity
  8
0
370
    -3
390
0
  6
Continuous
100
AcDbLine
 10
-364.575016
 20
-275.046011
 30
0.0
 11
-357.503948
 21
-267.974943
 31
0.0
  0
LINE
  5
37F
100
AcDbEntity
  8
0
370
    -3
390
0
  6
Continuous
100
AcDbLine
 10
-364.575016
 20
-275.046011
 30
0.0
 11
-365.140701
 21
-274.480325
 31
0.0
  0
LINE
  5
380
100
AcDbEntity
  8
0
370
    -3
390
0
  6
Continuous
100
AcDbLine
 10
-357.71608
 20
-267.055704
 30
0.0
 11
-365.494255
 21
-274.833879
 31
0.0
  0
LINE
  5
381
100
AcDbEntity
  8
0
370
    -3
390
0
  6
Continuous
100
AcDbLine
 10
-512.667739
 20
-273.797781
 30
0.0
 11
-513.703836
 21
-274.833879
 31
0.0
  0
LINE
  5
382
100
AcDbEntity
  8
0
370
    -3
390
0
  6
Continuous
100
AcDbLine
 10
-521.835564
 20
-267.409258
 30
0.0
 11
-522.40125
 21
-267.974943
 31
0.0
  0
ARC
  5
383
100
AcDbEntity
  8
0
370
    -3
390
0
  6
Continuous
100
AcDbCircle
 10
-521.835564
 20
-266.702151
 30
0.0
 40
0.5
100
AcDbArc
 50
135.0
 51
225.0
  0
LINE
  5
384
100
AcDbEntity
  8
0
370
    -3
390
0
  6
Continuous
100
AcDbLine
 10
-521.15302
 20
-265.3125
 30
0.0
 11
-522.189117
 21
-266.348597
 31
0.0
  0
ARC
  5
385
100
AcDbEntity
  8
0
370
    -3
390
0
  6
Continuous
100
AcDbCircle
 10
-521.826721
 20
-270.370262
 30
0.0
 40
1.599999
100
AcDbArc
 50
134.999999
 51
208.808717
  0
LINE
  5
386
100
AcDbEntity
  8
0
370
    -3
390
0
  6
Continuous
100
AcDbLine
 10
-522.047696
 20
-268.328496
 30
0.0
 11
-522.958092
 21
-269.238892
 31
0.0
  0
ARC
  5
387
100
AcDbEntity
  8
0
370
    -3
390
0
  6
Continuous
100
AcDbCircle
 10
-512.713887
 20
-265.358649
 30
0.0
 40
12.0
100
AcDbArc
 50
208.808663
 51
241.191355
  0
LINE
  5
388
100
AcDbEntity
  8
0
370
    -3
390
0
  6
Continuous
100
AcDbLine
 10
-522.047696
 20
-268.328496
 30
0.0
 11
-515.683735
 21
-274.692457
 31
0.0
  0
ARC
  5
389
100
AcDbEntity
  8
0
370
    -3
390
0
  6
Continuous
100
AcDbCircle
 10
-514.057389
 20
-274.480325
 30
0.0
 40
0.5
100
AcDbArc
 50
225.0
 51
315.0
  0
LINE
  5
38A
100
AcDbEntity
  8
0
370
    -3
390
0
  6
Continuous
100
AcDbLine
 10
-515.683735
 20
-274.692457
 30
0.0
 11
-516.594131
 21
-275.602853
 31
0.0
  0
ARC
  5
38B
100
AcDbEntity
  8
0
370
    -3
390
0
  6
Continuous
100
AcDbCircle
 10
-517.725501
 20
-274.471483
 30
0.0
 40
1.599999
100
AcDbArc
 50
241.191409
 51
315.000018
  0
LINE
  5
38C
100
AcDbEntity
  8
0
370
    -3
390
0
  6
Continuous
100
AcDbLine
 10
-515.330182
 20
-275.046011
 30
0.0
 11
-522.40125
 21
-267.974943
 31
0.0
  0
LINE
  5
38D
100
AcDbEntity
  8
0
370
    -3
390
0
  6
Continuous
100
AcDbLine
 10
-515.330182
 20
-275.046011
 30
0.0
 11
-514.764496
 21
-274.480325
 31
0.0
  0
LINE
  5
38E
100
AcDbEntity
  8
0
370
    -3
390
0
  6
Continuous
100
AcDbLine
 10
-522.189117
 20
-267.055704
 30
0.0
 11
-514.410943
 21
-274.833879
 31
0.0
  0
LINE
  5
38F
100
AcDbEntity
  8
0
370
    -3
390
0
  6
Continuous
100
AcDbLine
 10
-512.667739
 20
-111.396939
 30
0.0
 11
-513.703836
 21
-110.360841
 31
0.0
  0
LINE
  5
390
100
AcDbEntity
  8
0
370
    -3
390
0
  6
Continuous
100
AcDbLine
 10
-521.835564
 20
-117.785463
 30
0.0
 11
-522.40125
 21
-117.219777
 31
0.0
  0
ARC
  5
391
100
AcDbEntity
  8
0
370
    -3
390
0
  6
Continuous
100
AcDbCircle
 10
-521.835564
 20
-118.492569
 30
0.0
 40
0.5
100
AcDbArc
 50
135.0
 51
225.0
  0
LINE
  5
392
100
AcDbEntity
  8
0
370
    -3
390
0
  6
Continuous
100
AcDbLine
 10
-521.15302
 20
-119.88222
 30
0.0
 11
-522.189117
 21
-118.846123
 31
0.0
  0
ARC
  5
393
100
AcDbEntity
  8
0
370
    -3
390
0
  6
Continuous
100
AcDbCircle
 10
-521.826721
 20
-114.824458
 30
0.0
 40
1.599999
100
AcDbArc
 50
151.191283
 51
225.000001
  0
LINE
  5
394
100
AcDbEntity
  8
0
370
    -3
390
0
  6
Continuous
100
AcDbLine
 10
-522.047696
 20
-116.866224
 30
0.0
 11
-522.958092
 21
-115.955828
 31
0.0
  0
ARC
  5
395
100
AcDbEntity
  8
0
370
    -3
390
0
  6
Continuous
100
AcDbCircle
 10
-512.713887
 20
-119.836071
 30
0.0
 40
12.0
100
AcDbArc
 50
118.808645
 51
151.191337
  0
LINE
  5
396
100
AcDbEntity
  8
0
370
    -3
390
0
  6
Continuous
100
AcDbLine
 10
-522.047696
 20
-116.866224
 30
0.0
 11
-515.683735
 21
-110.502263
 31
0.0
  0
ARC
  5
397
100
AcDbEntity
  8
0
370
    -3
390
0
  6
Continuous
100
AcDbCircle
 10
-514.057389
 20
-110.714395
 30
0.0
 40
0.5
100
AcDbArc
 50
45.0
 51
135.0
  0
LINE
  5
398
100
AcDbEntity
  8
0
370
    -3
390
0
  6
Continuous
100
AcDbLine
 10
-515.683735
 20
-110.502263
 30
0.0
 11
-516.594131
 21
-109.591867
 31
0.0
  0
ARC
  5
399
100
AcDbEntity
  8
0
370
    -3
390
0
  6
Continuous
100
AcDbCircle
 10
-517.725501
 20
-110.723238
 30
0.0
 40
1.599999
100
AcDbArc
 50
44.999982
 51
118.808591
  0
LINE
  5
39A
100
AcDbEntity
  8
0
370
    -3
390
0
  6
Continuous
100
AcDbLine
 10
-515.330182
 20
-110.148709
 30
0.0
 11
-522.40125
 21
-117.219777
 31
0.0
  0
LINE
  5
39B
100
AcDbEntity
  8
0
370
    -3
390
0
  6
Continuous
100
AcDbLine
 10
-515.330182
 20
-110.148709
 30
0.0
 11
-514.764496
 21
-110.714395
 31
0.0
  0
LINE
  5
39C
100
AcDbEntity
  8
0
370
    -3
390
0
  6
Continuous
100
AcDbLine
 10
-522.189117
 20
-118.139016
 30
0.0
 11
-514.410943
 21
-110.360841
 31
0.0
  0
ARC
  5
39D
100
AcDbEntity
  8
0
370
    -3
390
0
  6
Continuous
100
AcDbCircle
 10
-335.552599
 20
-165.99736
 30
0.0
 40
2.0
100
AcDbArc
 50
270.0
 51
0.0
  0
LINE
  5
39E
100
AcDbEntity
  8
0
370
    -3
390
0
  6
Continuous
100
AcDbLine
 10
-331.952599
 20
-161.59736
 30
0.0
 11
-333.552599
 21
-161.59736
 31
0.0
  0
LINE
  5
39F
100
AcDbEntity
  8
0
370
    -3
390
0
  6
Continuous
100
AcDbLine
 10
-333.552599
 20
-161.59736
 30
0.0
 11
-333.552599
 21
-192.59736
 31
0.0
  0
LINE
  5
3A0
100
AcDbEntity
  8
0
370
    -3
390
0
  6
Continuous
100
AcDbLine
 10
-335.552599
 20
-167.99736
 30
0.0
 11
-337.624008
 21
-167.99736
 31
0.0
  0
LINE
  5
3A1
100
AcDbEntity
  8
0
370
    -3
390
0
  6
Continuous
100
AcDbLine
 10
-335.552599
 20
-217.19736
 30
0.0
 11
-337.624008
 21
-217.19736
 31
0.0
  0
ARC
  5
3A2
100
AcDbEntity
  8
0
370
    -3
390
0
  6
Continuous
100
AcDbCircle
 10
-335.552599
 20
-219.19736
 30
0.0
 40
2.0
100
AcDbArc
 50
0.0
 51
90.0
  0
LINE
  5
3A3
100
AcDbEntity
  8
0
370
    -3
390
0
  6
Continuous
100
AcDbLine
 10
-331.952599
 20
-223.59736
 30
0.0
 11
-333.552599
 21
-223.59736
 31
0.0
  0
LINE
  5
3A4
100
AcDbEntity
  8
0
370
    -3
390
0
  6
Continuous
100
AcDbLine
 10
-333.552599
 20
-223.59736
 30
0.0
 11
-333.552599
 21
-192.59736
 31
0.0
  0
ARC
  5
3A5
100
AcDbEntity
  8
0
370
    -3
390
0
  6
Continuous
100
AcDbCircle
 10
-326.682499
 20
-151.021035
 30
0.0
 40
1.0
100
AcDbArc
 50
24.0
 51
114.0
  0
LINE
  5
3A6
100
AcDbEntity
  8
0
370
    -3
390
0
  6
Continuous
100
AcDbLine
 10
-328.89317
 20
-152.939848
 30
0.0
 11
-329.318002
 21
-153.940689
 31
0.0
  0
LINE
  5
3A7
100
AcDbEntity
  8
0
370
    -3
390
0
  6
Continuous
100
AcDbLine
 10
-328.448256
 20
-153.93914
 30
0.0
 11
-328.581598
 21
-154.253274
 31
0.0
  0
LINE
  5
3A8
100
AcDbEntity
  8
0
370
    -3
390
0
  6
Continuous
100
AcDbLine
 10
-329.318002
 20
-153.940689
 30
0.0
 11
-328.581598
 21
-154.253274
 31
0.0
  0
LINE
  5
3A9
100
AcDbEntity
  8
0
370
    -3
390
0
  6
Continuous
100
AcDbLine
 10
-325.768953
 20
-150.614298
 30
0.0
 11
-307.07689
 21
-192.59736
 31
0.0
  0
ARC
  5
3AA
100
AcDbEntity
  8
0
370
    -3
390
0
  6
Continuous
100
AcDbCircle
 10
-321.246037
 20
-153.397153
 30
0.0
 40
3.0
100
AcDbArc
 50
204.0
 51
260.681877
  0
LINE
  5
3AB
100
AcDbEntity
  8
0
370
    -3
390
0
  6
Continuous
100
AcDbLine
 10
-321.731785
 20
-156.357567
 30
0.0
 11
-295.776148
 21
-160.616396
 31
0.0
  0
LINE
  5
3AC
100
AcDbEntity
  8
0
370
    -3
390
0
  6
Continuous
100
AcDbLine
 10
-327.089235
 20
-150.107489
 30
0.0
 11
-329.647163
 21
-151.246352
 31
0.0
  0
LINE
  5
3AD
100
AcDbEntity
  8
0
370
    -3
390
0
  6
Continuous
100
AcDbLine
 10
-327.369437
 20
-156.362206
 30
0.0
 11
-329.172809
 21
-157.165119
 31
0.0
  0
ARC
  5
3AE
100
AcDbEntity
  8
0
370
    -3
390
0
  6
Continuous
100
AcDbCircle
 10
-327.952599
 20
-159.905755
 30
0.0
 40
3.0
100
AcDbArc
 50
114.0
 51
180.0
  0
LINE
  5
3AF
100
AcDbEntity
  8
0
370
    -3
390
0
  6
Continuous
100
AcDbLine
 10
-329.647163
 20
-151.246352
 30
0.0
 11
-283.929964
 21
-253.928861
 31
0.0
  0
LINE
  5
3B0
100
AcDbEntity
  8
0
370
    -3
390
0
  6
Continuous
100
AcDbLine
 10
-286.024658
 20
-249.224102
 30
0.0
 11
-289.861549
 21
-250.932396
 31
0.0
  0
LINE
  5
3B1
100
AcDbEntity
  8
0
370
    -3
390
0
  6
Continuous
100
AcDbLine
 10
-287.366889
 20
-246.209402
 30
0.0
 11
-291.20378
 21
-247.917696
 31
0.0
  0
LINE
  5
3B2
100
AcDbEntity
  8
0
370
    -3
390
0
  6
Continuous
100
AcDbLine
 10
-291.026396
 20
-247.455597
 30
0.0
 11
-291.20378
 21
-247.917696
 31
0.0
  0
LINE
  5
3B3
100
AcDbEntity
  8
0
370
    -3
390
0
  6
Continuous
100
AcDbLine
 10
-289.39945
 20
-251.109779
 30
0.0
 11
-289.861549
 21
-250.932396
 31
0.0
  0
LINE
  5
3B4
100
AcDbEntity
  8
0
370
    -3
390
0
  6
Continuous
100
AcDbLine
 10
-291.20378
 20
-247.917696
 30
0.0
 11
-289.861549
 21
-250.932396
 31
0.0
  0
LINE
  5
3B5
100
AcDbEntity
  8
0
370
    -3
390
0
  6
Continuous
100
AcDbLine
 10
-284.647879
 20
-242.973744
 30
0.0
 11
-281.800722
 21
-249.368562
 31
0.0
  0
LINE
  5
3B6
100
AcDbEntity
  8
0
370
    -3
390
0
  6
Continuous
100
AcDbLine
 10
-284.647879
 20
-242.973744
 30
0.0
 11
-281.800722
 21
-249.368562
 31
0.0
  0
LINE
  5
3B7
100
AcDbEntity
  8
0
370
    -3
390
0
  6
Continuous
100
AcDbLine
 10
-281.800722
 20
-249.368562
 30
0.0
 11
-280.906338
 21
-248.970356
 31
0.0
  0
LINE
  5
3B8
100
AcDbEntity
  8
0
370
    -3
390
0
  6
Continuous
100
AcDbLine
 10
-284.647879
 20
-242.973744
 30
0.0
 11
-283.753495
 21
-242.575538
 31
0.0
  0
ARC
  5
3B9
100
AcDbEntity
  8
0
370
    -3
390
0
  6
Continuous
100
AcDbCircle
 10
-283.224737
 20
-243.763147
 30
0.0
 40
1.299999
100
AcDbArc
 50
40.601531
 51
114.000001
  0
ARC
  5
3BA
100
AcDbEntity
  8
0
370
    -3
390
0
  6
Continuous
100
AcDbCircle
 10
-882.952599
 20
-192.59736
 30
0.0
 40
600.0
100
AcDbArc
 50
355.284875
 51
1.682769
  0
ARC
  5
3BB
100
AcDbEntity
  8
0
370
    -3
390
0
  6
Continuous
100
AcDbCircle
 10
-283.98655
 20
-242.000519
 30
0.0
 40
1.0
100
AcDbArc
 50
175.284875
 51
204.0
  0
ARC
  5
3BC
100
AcDbEntity
  8
0
370
    -3
390
0
  6
Continuous
100
AcDbCircle
 10
-325.952599
 20
-234.09736
 30
0.0
 40
5.0
100
AcDbArc
 50
180.0
 51
270.0
  0
LINE
  5
3BD
100
AcDbEntity
  8
0
370
    -3
390
0
  6
Continuous
100
AcDbLine
 10
-325.952599
 20
-239.09736
 30
0.0
 11
-290.533374
 21
-239.09736
 31
0.0
  0
LINE
  5
3BE
100
AcDbEntity
  8
0
370
    -3
390
0
  6
Continuous
100
AcDbLine
 10
-281.372037
 20
-252.789998
 30
0.0
 11
-283.929964
 21
-253.928861
 31
0.0
  0
ARC
  5
3BF
100
AcDbEntity
  8
0
370
    -3
390
0
  6
Continuous
100
AcDbCircle
 10
-281.778773
 20
-251.876453
 30
0.0
 40
1.0
100
AcDbArc
 50
294.0
 51
24.0
  0
LINE
  5
3C0
100
AcDbEntity
  8
0
370
    -3
390
0
  6
Continuous
100
AcDbLine
 10
-307.07689
 20
-192.59736
 30
0.0
 11
-280.865228
 21
-251.469716
 31
0.0
  0
ARC
  5
3C1
100
AcDbEntity
  8
0
370
    -3
390
0
  6
Continuous
100
AcDbCircle
 10
-285.157911
 20
-239.369598
 30
0.0
 40
1.0
100
AcDbArc
 50
114.0
 51
204.0
  0
ARC
  5
3C2
100
AcDbEntity
  8
0
370
    -3
390
0
  6
Continuous
100
AcDbCircle
 10
-286.582585
 20
-236.719995
 30
0.0
 40
2.0
100
AcDbArc
 50
294.0
 51
355.768662
  0
LINE
  5
3C3
100
AcDbEntity
  8
0
370
    -3
390
0
  6
Continuous
100
AcDbLine
 10
-287.509246
 20
-245.889661
 30
0.0
 11
-291.026396
 21
-247.455597
 31
0.0
  0
LINE
  5
3C4
100
AcDbEntity
  8
0
370
    -3
390
0
  6
Continuous
100
AcDbLine
 10
-285.8823
 20
-249.543843
 30
0.0
 11
-289.39945
 21
-251.109779
 31
0.0
  0
LINE
  5
3C5
100
AcDbEntity
  8
0
370
    -3
390
0
  6
Continuous
100
AcDbLine
 10
-330.952599
 20
-159.905755
 30
0.0
 11
-330.952599
 21
-234.09736
 31
0.0
  0
LINE
  5
3C6
100
AcDbEntity
  8
0
370
    -3
390
0
  6
CENTER
100
AcDbLine
 10
-306.952599
 20
-224.714836
 30
0.0
 11
-306.952599
 21
-247.583345
 31
0.0
  0
ARC
  5
3C7
100
AcDbEntity
  8
0
370
    -3
390
0
  6
Continuous
100
AcDbCircle
 10
-281.435095
 20
-247.782748
 30
0.0
 40
1.299999
100
AcDbArc
 50
293.999982
 51
7.398452
  0
ARC
  5
3C8
100
AcDbEntity
  8
0
370
    -3
390
0
  6
Continuous
100
AcDbCircle
 10
-289.070991
 20
-248.774267
 30
0.0
 40
9.0
100
AcDbArc
 50
7.398452
 51
40.601531
  0
ARC
  5
3C9
100
AcDbEntity
  8
0
370
    -3
390
0
  6
Continuous
100
AcDbCircle
 10
-298.204888
 20
-175.418464
 30
0.0
 40
15.0
100
AcDbArc
 50
1.682769
 51
80.681877
  0
LINE
  5
3CA
100
AcDbEntity
  8
0
370
    -3
390
0
  6
Continuous
100
AcDbLine
 10
-331.952599
 20
-223.59736
 30
0.0
 11
-330.952599
 21
-223.59736
 31
0.0
  0
LINE
  5
3CB
100
AcDbEntity
  8
0
370
    -3
390
0
  6
Continuous
100
AcDbLine
 10
-331.952599
 20
-161.59736
 30
0.0
 11
-330.952599
 21
-161.59736
 31
0.0
  0
LINE
  5
3CC
100
AcDbEntity
  8
0
370
    -3
390
0
  6
Continuous
100
AcDbLine
 10
-331.952599
 20
-223.59736
 30
0.0
 11
-331.952599
 21
-161.59736
 31
0.0
  0
LINE
  5
3CD
100
AcDbEntity
  8
0
370
    -3
390
0
  6
Continuous
100
AcDbLine
 10
-195.482982
 20
200.664299
 30
0.0
 11
-195.482982
 21
201.950396
 31
0.0
  0
LINE
  5
3CE
100
AcDbEntity
  8
0
370
    -3
390
0
  6
Continuous
100
AcDbLine
 10
-183.482982
 20
200.664299
 30
0.0
 11
-183.482982
 21
201.950396
 31
0.0
  0
ELLIPSE
  5
3CF
100
AcDbEntity
  8
0
370
    -3
390
0
  6
Continuous
100
AcDbEllipse
 10
-189.482982
 20
201.950396
 30
0.0
 11
6.0
 21
0.0
 31
0.0
210
0.0
220
0.0
230
1.0
 40
0.689848
 41
2.3102549650648787
 42
3.1415926535897931
  0
ELLIPSE
  5
3D0
100
AcDbEntity
  8
0
370
    -3
390
0
  6
Continuous
100
AcDbEllipse
 10
-189.482982
 20
200.664299
 30
0.0
 11
6.0
 21
0.0
 31
0.0
210
0.0
220
0.0
230
1.0
 40
0.707107
 41
3.1415926535897931
 42
0.0
  0
LINE
  5
3D1
100
AcDbEntity
  8
0
370
    -3
390
0
  6
Continuous
100
AcDbLine
 10
-194.482982
 20
202.336792
 30
0.0
 11
-194.482982
 21
202.619635
 31
0.0
  0
LINE
  5
3D2
100
AcDbEntity
  8
0
370
    -3
390
0
  6
Continuous
100
AcDbLine
 10
-184.482982
 20
202.336792
 30
0.0
 11
-184.482982
 21
202.619635
 31
0.0
  0
ELLIPSE
  5
3D3
100
AcDbEntity
  8
0
370
    -3
390
0
  6
Continuous
100
AcDbEllipse
 10
-189.482982
 20
202.619635
 30
0.0
 11
5.0
 21
0.0
 31
0.0
210
0.0
220
0.0
230
1.0
 40
0.707107
 41
2.6124407455910639
 42
0.5291519079987291
  0
ELLIPSE
  5
3D4
100
AcDbEntity
  8
0
370
    -3
390
0
  6
Continuous
100
AcDbEllipse
 10
-189.482982
 20
202.336792
 30
0.0
 11
5.0
 21
0.0
 31
0.0
210
0.0
220
0.0
230
1.0
 40
0.763675
 41
3.1415926535897931
 42
0.0
  0
ELLIPSE
  5
3D5
100
AcDbEntity
  8
0
370
    -3
390
0
  6
Continuous
100
AcDbEllipse
 10
-189.482982
 20
203.309147
 30
0.0
 11
4.5
 21
0.0
 31
0.0
210
0.0
220
0.0
230
1.0
 40
0.860332
 41
0.0
 42
6.2831853071795862
  0
ELLIPSE
  5
3D6
100
AcDbEntity
  8
0
370
    -3
390
0
  6
Continuous
100
AcDbEllipse
 10
-189.482982
 20
201.950396
 30
0.0
 11
6.0
 21
0.0
 31
0.0
210
0.0
220
0.0
230
1.0
 40
0.689848
 41
0.0
 42
0.8313376885250264
  0
ELLIPSE
  5
3D7
100
AcDbEntity
  8
0
370
    -3
390
0
  6
Continuous
100
AcDbEllipse
 10
-189.482982
 20
201.950396
 30
0.0
 11
6.0
 21
0.0
 31
0.0
210
0.0
220
0.0
230
1.0
 40
0.689848
 41
3.1415926535897931
 42
0.0
  0
LINE
  5
3D8
100
AcDbEntity
  8
0
370
    -3
390
0
  6
Continuous
100
AcDbLine
 10
-189.482982
 20
204.953088
 30
0.0
 11
-191.482982
 21
206.24862
 31
0.0
  0
LINE
  5
3D9
100
AcDbEntity
  8
0
370
    -3
390
0
  6
Continuous
100
AcDbLine
 10
-189.482982
 20
204.953088
 30
0.0
 11
-191.482982
 21
203.420193
 31
0.0
  0
LINE
  5
3DA
100
AcDbEntity
  8
0
370
    -3
390
0
  6
Continuous
100
AcDbLine
 10
-189.482982
 20
204.953088
 30
0.0
 11
-187.482982
 21
203.420193
 31
0.0
  0
LINE
  5
3DB
100
AcDbEntity
  8
0
370
    -3
390
0
  6
Continuous
100
AcDbLine
 10
-189.482982
 20
204.953088
 30
0.0
 11
-187.482982
 21
206.24862
 31
0.0
  0
ARC
  5
3DC
100
AcDbEntity
  8
0
370
    -3
390
0
  6
Continuous
100
AcDbCircle
 10
-240.982982
 20
40.913777
 30
0.0
 40
5.0
100
AcDbArc
 50
180.0
 51
240.0
  0
ARC
  5
3DD
100
AcDbEntity
  8
0
370
    -3
390
0
  6
Continuous
100
AcDbCircle
 10
-199.638081
 20
81.706518
 30
0.0
 40
61.0
100
AcDbArc
 50
240.0
 51
270.0
  0
LINE
  5
3DE
100
AcDbEntity
  8
0
370
    -3
390
0
  6
Continuous
100
AcDbLine
 10
-243.482982
 20
36.58365
 30
0.0
 11
-230.138081
 21
28.878968
 31
0.0
  0
LINE
  5
3DF
100
AcDbEntity
  8
0
370
    -3
390
0
  6
Continuous
100
AcDbLine
 10
-245.982982
 20
40.913777
 30
0.0
 11
-245.982982
 21
123.706518
 31
0.0
  0
ARC
  5
3E0
100
AcDbEntity
  8
0
370
    -3
390
0
  6
Continuous
100
AcDbCircle
 10
-240.982982
 20
206.499258
 30
0.0
 40
5.0
100
AcDbArc
 50
120.0
 51
180.0
  0
ARC
  5
3E1
100
AcDbEntity
  8
0
370
    -3
390
0
  6
Continuous
100
AcDbCircle
 10
-199.638081
 20
165.706518
 30
0.0
 40
61.0
100
AcDbArc
 50
90.0
 51
120.0
  0
LINE
  5
3E2
100
AcDbEntity
  8
0
370
    -3
390
0
  6
Continuous
100
AcDbLine
 10
-243.482982
 20
210.829386
 30
0.0
 11
-230.138081
 21
218.534068
 31
0.0
  0
LINE
  5
3E3
100
AcDbEntity
  8
0
370
    -3
390
0
  6
Continuous
100
AcDbLine
 10
-245.982982
 20
206.499258
 30
0.0
 11
-245.982982
 21
123.706518
 31
0.0
  0
LINE
  5
3E4
100
AcDbEntity
  8
0
370
    -3
390
0
  6
Continuous
100
AcDbLine
 10
-195.482982
 20
46.748737
 30
0.0
 11
-195.482982
 21
45.46264
 31
0.0
  0
LINE
  5
3E5
100
AcDbEntity
  8
0
370
    -3
390
0
  6
Continuous
100
AcDbLine
 10
-183.482982
 20
46.748737
 30
0.0
 11
-183.482982
 21
45.46264
 31
0.0
  0
ELLIPSE
  5
3E6
100
AcDbEntity
  8
0
370
    -3
390
0
  6
Continuous
100
AcDbEllipse
 10
-189.482982
 20
45.46264
 30
0.0
 11
6.0
 21
0.0
 31
0.0
210
0.0
220
0.0
230
1.0
 40
0.689848
 41
3.1415926535897931
 42
3.9729303421146334
  0
ELLIPSE
  5
3E7
100
AcDbEntity
  8
0
370
    -3
390
0
  6
Continuous
100
AcDbEllipse
 10
-189.482982
 20
46.748737
 30
0.0
 11
6.0
 21
0.0
 31
0.0
210
0.0
220
0.0
230
1.0
 40
0.707107
 41
0.0
 42
3.1415926535897931
  0
LINE
  5
3E8
100
AcDbEntity
  8
0
370
    -3
390
0
  6
Continuous
100
AcDbLine
 10
-194.482982
 20
45.076244
 30
0.0
 11
-194.482982
 21
44.793401
 31
0.0
  0
LINE
  5
3E9
100
AcDbEntity
  8
0
370
    -3
390
0
  6
Continuous
100
AcDbLine
 10
-184.482982
 20
45.076244
 30
0.0
 11
-184.482982
 21
44.793401
 31
0.0
  0
ELLIPSE
  5
3EA
100
AcDbEntity
  8
0
370
    -3
390
0
  6
Continuous
100
AcDbEllipse
 10
-189.482982
 20
44.793401
 30
0.0
 11
5.0
 21
0.0
 31
0.0
210
0.0
220
0.0
230
1.0
 40
0.707107
 41
5.754033399180857
 42
3.6707445615885224
  0
ELLIPSE
  5
3EB
100
AcDbEntity
  8
0
370
    -3
390
0
  6
Continuous
100
AcDbEllipse
 10
-189.482982
 20
45.076244
 30
0.0
 11
5.0
 21
0.0
 31
0.0
210
0.0
220
0.0
230
1.0
 40
0.763675
 41
0.0
 42
3.1415926535897931
  0
ELLIPSE
  5
3EC
100
AcDbEntity
  8
0
370
    -3
390
0
  6
Continuous
100
AcDbEllipse
 10
-189.482982
 20
44.103889
 30
0.0
 11
4.5
 21
0.0
 31
0.0
210
0.0
220
0.0
230
1.0
 40
0.860332
 41
0.0
 42
6.2831853071795862
  0
ELLIPSE
  5
3ED
100
AcDbEntity
  8
0
370
    -3
390
0
  6
Continuous
100
AcDbEllipse
 10
-189.482982
 20
45.46264
 30
0.0
 11
6.0
 21
0.0
 31
0.0
210
0.0
220
0.0
230
1.0
 40
0.689848
 41
5.4518476186546341
 42
0.0
  0
ELLIPSE
  5
3EE
100
AcDbEntity
  8
0
370
    -3
390
0
  6
Continuous
100
AcDbEllipse
 10
-189.482982
 20
45.46264
 30
0.0
 11
6.0
 21
0.0
 31
0.0
210
0.0
220
0.0
230
1.0
 40
0.689848
 41
0.0
 42
3.1415926535897931
  0
LINE
  5
3EF
100
AcDbEntity
  8
0
370
    -3
390
0
  6
Continuous
100
AcDbLine
 10
-189.482982
 20
42.459948
 30
0.0
 11
-191.482982
 21
41.164415
 31
0.0
  0
LINE
  5
3F0
100
AcDbEntity
  8
0
370
    -3
390
0
  6
Continuous
100
AcDbLine
 10
-189.482982
 20
42.459948
 30
0.0
 11
-191.482982
 21
43.992842
 31
0.0
  0
LINE
  5
3F1
100
AcDbEntity
  8
0
370
    -3
390
0
  6
Continuous
100
AcDbLine
 10
-189.482982
 20
42.459948
 30
0.0
 11
-187.482982
 21
43.992842
 31
0.0
  0
LINE
  5
3F2
100
AcDbEntity
  8
0
370
    -3
390
0
  6
Continuous
100
AcDbLine
 10
-189.482982
 20
42.459948
 30
0.0
 11
-187.482982
 21
41.164415
 31
0.0
  0
LINE
  5
3F3
100
AcDbEntity
  8
0
370
    -3
390
0
  6
Continuous
100
AcDbLine
 10
37.017018
 20
220.706518
 30
0.0
 11
-162.982982
 21
220.706518
 31
0.0
  0
LINE
  5
3F4
100
AcDbEntity
  8
0
370
    -3
390
0
  6
Continuous
100
AcDbLine
 10
37.017018
 20
216.706518
 30
0.0
 11
-162.982982
 21
216.706518
 31
0.0
  0
LINE
  5
3F5
100
AcDbEntity
  8
0
370
    -3
390
0
  6
Continuous
100
AcDbLine
 10
37.017018
 20
219.206518
 30
0.0
 11
-162.982982
 21
219.206518
 31
0.0
  0
LINE
  5
3F6
100
AcDbEntity
  8
0
370
    -3
390
0
  6
Continuous
100
AcDbLine
 10
37.017018
 20
212.706518
 30
0.0
 11
-162.982982
 21
212.706518
 31
0.0
  0
LINE
  5
3F7
100
AcDbEntity
  8
0
370
    -3
390
0
  6
Continuous
100
AcDbLine
 10
37.017018
 20
200.876241
 30
0.0
 11
-162.982982
 21
200.876241
 31
0.0
  0
LINE
  5
3F8
100
AcDbEntity
  8
0
370
    -3
390
0
  6
Continuous
100
AcDbLine
 10
37.017018
 20
192.39096
 30
0.0
 11
-162.982982
 21
192.39096
 31
0.0
  0
LINE
  5
3F9
100
AcDbEntity
  8
0
370
    -3
390
0
  6
Continuous
100
AcDbLine
 10
37.017018
 20
177.47109
 30
0.0
 11
-162.982982
 21
177.47109
 31
0.0
  0
LINE
  5
3FA
100
AcDbEntity
  8
0
370
    -3
390
0
  6
Continuous
100
AcDbLine
 10
37.017018
 20
174.940179
 30
0.0
 11
-162.982982
 21
174.940179
 31
0.0
  0
LINE
  5
3FB
100
AcDbEntity
  8
0
370
    -3
390
0
  6
Continuous
100
AcDbLine
 10
37.017018
 20
166.958767
 30
0.0
 11
-162.982982
 21
166.958767
 31
0.0
  0
LINE
  5
3FC
100
AcDbEntity
  8
0
370
    -3
390
0
  6
Continuous
100
AcDbLine
 10
37.017018
 20
164.506646
 30
0.0
 11
-162.982982
 21
164.506646
 31
0.0
  0
LINE
  5
3FD
100
AcDbEntity
  8
0
370
    -3
390
0
  6
Continuous
100
AcDbLine
 10
37.017018
 20
156.378394
 30
0.0
 11
-162.982982
 21
156.378394
 31
0.0
  0
LINE
  5
3FE
100
AcDbEntity
  8
0
370
    -3
390
0
  6
Continuous
100
AcDbLine
 10
37.017018
 20
154.063295
 30
0.0
 11
-162.982982
 21
154.063295
 31
0.0
  0
LINE
  5
3FF
100
AcDbEntity
  8
0
370
    -3
390
0
  6
Continuous
100
AcDbLine
 10
37.017018
 20
145.816858
 30
0.0
 11
-162.982982
 21
145.816858
 31
0.0
  0
LINE
  5
400
100
AcDbEntity
  8
0
370
    -3
390
0
  6
Continuous
100
AcDbLine
 10
37.017018
 20
143.605269
 30
0.0
 11
-162.982982
 21
143.605269
 31
0.0
  0
LINE
  5
401
100
AcDbEntity
  8
0
370
    -3
390
0
  6
Continuous
100
AcDbLine
 10
37.017019
 20
135.527361
 30
0.0
 11
-162.982982
 21
135.527361
 31
0.0
  0
LINE
  5
402
100
AcDbEntity
  8
0
370
    -3
390
0
  6
Continuous
100
AcDbLine
 10
37.017018
 20
127.956518
 30
0.0
 11
-162.982982
 21
127.956518
 31
0.0
  0
LINE
  5
403
100
AcDbEntity
  8
0
370
    -3
390
0
  6
Continuous
100
AcDbLine
 10
37.017018
 20
221.706518
 30
0.0
 11
-162.982982
 21
221.706518
 31
0.0
  0
LINE
  5
404
100
AcDbEntity
  8
0
370
    -3
390
0
  6
Continuous
100
AcDbLine
 10
37.017018
 20
221.206518
 30
0.0
 11
-162.982982
 21
221.206518
 31
0.0
  0
LINE
  5
405
100
AcDbEntity
  8
0
370
    -3
390
0
  6
Continuous
100
AcDbLine
 10
-162.982982
 20
46.536795
 30
0.0
 11
37.017018
 21
46.536795
 31
0.0
  0
LINE
  5
406
100
AcDbEntity
  8
0
370
    -3
390
0
  6
Continuous
100
AcDbLine
 10
-162.982982
 20
55.022076
 30
0.0
 11
37.017018
 21
55.022076
 31
0.0
  0
LINE
  5
407
100
AcDbEntity
  8
0
370
    -3
390
0
  6
Continuous
100
AcDbLine
 10
-162.982982
 20
72.472857
 30
0.0
 11
37.017018
 21
72.472857
 31
0.0
  0
LINE
  5
408
100
AcDbEntity
  8
0
370
    -3
390
0
  6
Continuous
100
AcDbLine
 10
-162.982982
 20
69.941945
 30
0.0
 11
37.017018
 21
69.941945
 31
0.0
  0
LINE
  5
409
100
AcDbEntity
  8
0
370
    -3
390
0
  6
Continuous
100
AcDbLine
 10
-162.982982
 20
82.90639
 30
0.0
 11
37.017018
 21
82.90639
 31
0.0
  0
LINE
  5
40A
100
AcDbEntity
  8
0
370
    -3
390
0
  6
Continuous
100
AcDbLine
 10
-162.982982
 20
80.454269
 30
0.0
 11
37.017018
 21
80.454269
 31
0.0
  0
LINE
  5
40B
100
AcDbEntity
  8
0
370
    -3
390
0
  6
Continuous
100
AcDbLine
 10
-162.982982
 20
91.034642
 30
0.0
 11
37.017018
 21
91.034642
 31
0.0
  0
LINE
  5
40C
100
AcDbEntity
  8
0
370
    -3
390
0
  6
Continuous
100
AcDbLine
 10
-162.982982
 20
93.349741
 30
0.0
 11
37.017018
 21
93.349741
 31
0.0
  0
LINE
  5
40D
100
AcDbEntity
  8
0
370
    -3
390
0
  6
Continuous
100
AcDbLine
 10
-162.982982
 20
103.807767
 30
0.0
 11
37.017018
 21
103.807767
 31
0.0
  0
LINE
  5
40E
100
AcDbEntity
  8
0
370
    -3
390
0
  6
Continuous
100
AcDbLine
 10
-162.982982
 20
101.596178
 30
0.0
 11
37.017018
 21
101.596178
 31
0.0
  0
LINE
  5
40F
100
AcDbEntity
  8
0
370
    -3
390
0
  6
Continuous
100
AcDbLine
 10
-162.982982
 20
111.885675
 30
0.0
 11
37.017019
 21
111.885675
 31
0.0
  0
LINE
  5
410
100
AcDbEntity
  8
0
370
    -3
390
0
  6
Continuous
100
AcDbLine
 10
-162.982982
 20
119.456518
 30
0.0
 11
37.017018
 21
119.456518
 31
0.0
  0
LINE
  5
411
100
AcDbEntity
  8
0
370
    -3
390
0
  6
Continuous
100
AcDbLine
 10
-123.982982
 20
34.706518
 30
0.0
 11
-123.982982
 21
30.706518
 31
0.0
  0
ARC
  5
412
100
AcDbEntity
  8
0
370
    -3
390
0
  6
Continuous
100
AcDbCircle
 10
-121.382982
 20
19.306518
 30
0.0
 40
2.0
100
AcDbArc
 50
180.0
 51
270.0
  0
LINE
  5
413
100
AcDbEntity
  8
0
370
    -3
390
0
  6
Continuous
100
AcDbLine
 10
-123.382982
 20
19.306518
 30
0.0
 11
-123.382982
 21
27.506518
 31
0.0
  0
ARC
  5
414
100
AcDbEntity
  8
0
370
    -3
390
0
  6
Continuous
100
AcDbCircle
 10
-126.582982
 20
27.506518
 30
0.0
 40
3.2
100
AcDbArc
 50
0.0
 51
90.0
  0
LINE
  5
415
100
AcDbEntity
  8
0
370
    -3
390
0
  6
Continuous
100
AcDbLine
 10
-147.982982
 20
30.706518
 30
0.0
 11
-123.982982
 21
30.706518
 31
0.0
  0
ARC
  5
416
100
AcDbEntity
  8
0
370
    -3
390
0
  6
Continuous
100
AcDbCircle
 10
-174.582982
 20
19.306518
 30
0.0
 40
2.0
100
AcDbArc
 50
270.0
 51
0.0
  0
LINE
  5
417
100
AcDbEntity
  8
0
370
    -3
390
0
  6
Continuous
100
AcDbLine
 10
-178.982982
 20
15.706518
 30
0.0
 11
-178.982982
 21
17.306518
 31
0.0
  0
LINE
  5
418
100
AcDbEntity
  8
0
370
    -3
390
0
  6
Continuous
100
AcDbLine
 10
-116.982982
 20
15.706518
 30
0.0
 11
-116.982982
 21
17.306518
 31
0.0
  0
LINE
  5
419
100
AcDbEntity
  8
0
370
    -3
390
0
  6
Continuous
100
AcDbLine
 10
-116.982982
 20
17.306518
 30
0.0
 11
-178.982982
 21
17.306518
 31
0.0
  0
LINE
  5
41A
100
AcDbEntity
  8
0
370
    -3
390
0
  6
Continuous
100
AcDbLine
 10
-147.982982
 20
30.706518
 30
0.0
 11
-162.982982
 21
30.706518
 31
0.0
  0
ARC
  5
41B
100
AcDbEntity
  8
0
370
    -3
390
0
  6
Continuous
100
AcDbCircle
 10
-176.982982
 20
20.831891
 30
0.0
 40
1.0
100
AcDbArc
 50
90.0
 51
180.0
  0
LINE
  5
41C
100
AcDbEntity
  8
0
370
    -3
390
0
  6
Continuous
100
AcDbLine
 10
-165.982982
 20
21.831891
 30
0.0
 11
-176.982982
 21
21.831891
 31
0.0
  0
ARC
  5
41D
100
AcDbEntity
  8
0
370
    -3
390
0
  6
Continuous
100
AcDbCircle
 10
-165.982982
 20
24.831891
 30
0.0
 40
3.0
100
AcDbArc
 50
270.0
 51
0.0
  0
LINE
  5
41E
100
AcDbEntity
  8
0
370
    -3
390
0
  6
Continuous
100
AcDbLine
 10
-177.982982
 20
20.706518
 30
0.0
 11
-199.638081
 21
20.706518
 31
0.0
  0
LINE
  5
41F
100
AcDbEntity
  8
0
370
    -3
390
0
  6
Continuous
100
AcDbLine
 10
-172.582982
 20
19.306518
 30
0.0
 11
-172.582982
 21
21.831891
 31
0.0
  0
LINE
  5
420
100
AcDbEntity
  8
0
370
    -3
390
0
  6
Continuous
100
AcDbLine
 10
-177.982982
 20
20.706518
 30
0.0
 11
-177.982982
 21
20.831891
 31
0.0
  0
LINE
  5
421
100
AcDbEntity
  8
0
370
    -3
390
0
  6
Continuous
100
AcDbLine
 10
-178.982982
 20
15.706518
 30
0.0
 11
-178.982982
 21
14.706518
 31
0.0
  0
LINE
  5
422
100
AcDbEntity
  8
0
370
    -3
390
0
  6
Continuous
100
AcDbLine
 10
-116.982982
 20
15.706518
 30
0.0
 11
-116.982982
 21
14.706518
 31
0.0
  0
LINE
  5
423
100
AcDbEntity
  8
0
370
    -3
390
0
  6
Continuous
100
AcDbLine
 10
-181.782982
 20
14.706518
 30
0.0
 11
-114.182982
 21
14.706518
 31
0.0
  0
LINE
  5
424
100
AcDbEntity
  8
0
370
    -3
390
0
  6
Continuous
100
AcDbLine
 10
-194.432982
 20
2.401082
 30
0.0
 11
-194.432982
 21
-24.467307
 31
0.0
  0
LINE
  5
425
100
AcDbEntity
  8
0
370
    -3
390
0
  6
Continuous
100
AcDbLine
 10
-144.925726
 20
-35.467307
 30
0.0
 11
-112.532982
 21
-35.467307
 31
0.0
  0
CIRCLE
  5
426
100
AcDbEntity
  8
0
370
    -3
390
0
  6
DASHED
100
AcDbCircle
 10
-147.982982
 20
-9.293482
 30
0.0
 40
13.5
  0
LINE
  5
427
100
AcDbEntity
  8
0
370
    -3
390
0
  6
CENTER
100
AcDbLine
 10
-170.806614
 20
-9.293482
 30
0.0
 11
-126.518896
 21
-9.293482
 31
0.0
  0
ARC
  5
428
100
AcDbEntity
  8
0
370
    -3
390
0
  6
Continuous
100
AcDbCircle
 10
-181.782982
 20
9.706518
 30
0.0
 40
5.0
100
AcDbArc
 50
90.0
 51
135.074044
  0
ARC
  5
429
100
AcDbEntity
  8
0
370
    -3
390
0
  6
Continuous
100
AcDbCircle
 10
-114.182982
 20
9.706518
 30
0.0
 40
5.0
100
AcDbArc
 50
44.925956
 51
90.0
  0
ARC
  5
42A
100
AcDbEntity
  8
0
370
    -3
390
0
  6
Continuous
100
AcDbCircle
 10
-183.432982
 20
2.401082
 30
0.0
 40
11.0
100
AcDbArc
 50
90.0
 51
180.0
  0
ARC
  5
42B
100
AcDbEntity
  8
0
370
    -3
390
0
  6
Continuous
100
AcDbCircle
 10
-183.432982
 20
-1.070391
 30
0.0
 40
11.0
100
AcDbArc
 50
90.0
 51
180.0
  0
ARC
  5
42C
100
AcDbEntity
  8
0
370
    -3
390
0
  6
Continuous
100
AcDbCircle
 10
-112.532982
 20
2.401082
 30
0.0
 40
11.0
100
AcDbArc
 50
0.0
 51
90.0
  0
ARC
  5
42D
100
AcDbEntity
  8
0
370
    -3
390
0
  6
Continuous
100
AcDbCircle
 10
-112.532982
 20
-1.070391
 30
0.0
 40
11.0
100
AcDbArc
 50
0.0
 51
90.0
  0
ARC
  5
42E
100
AcDbEntity
  8
0
370
    -3
390
0
  6
Continuous
100
AcDbCircle
 10
-182.232982
 20
-27.493482
 30
0.0
 40
5.8
100
AcDbArc
 50
180.0
 51
270.0
  0
ARC
  5
42F
100
AcDbEntity
  8
0
370
    -3
390
0
  6
Continuous
100
AcDbCircle
 10
-113.732982
 20
-27.493482
 30
0.0
 40
5.8
100
AcDbArc
 50
270.0
 51
0.0
  0
LINE
  5
430
100
AcDbEntity
  8
0
370
    -3
390
0
  6
Continuous
100
AcDbLine
 10
-182.232982
 20
-33.293482
 30
0.0
 11
-113.732982
 21
-33.293482
 31
0.0
  0
ARC
  5
431
100
AcDbEntity
  8
0
370
    -3
390
0
  6
Continuous
100
AcDbCircle
 10
-183.432982
 20
-24.467307
 30
0.0
 40
11.0
100
AcDbArc
 50
180.0
 51
270.0
  0
ARC
  5
432
100
AcDbEntity
  8
0
370
    -3
390
0
  6
Continuous
100
AcDbCircle
 10
-112.532982
 20
-24.467307
 30
0.0
 40
11.0
100
AcDbArc
 50
270.0
 51
0.0
  0
ARC
  5
433
100
AcDbEntity
  8
0
370
    -3
390
0
  6
Continuous
100
AcDbCircle
 10
-183.032982
 20
2.082453
 30
0.0
 40
5.0
100
AcDbArc
 50
90.0
 51
180.0
  0
ARC
  5
434
100
AcDbEntity
  8
0
370
    -3
390
0
  6
Continuous
100
AcDbCircle
 10
-112.932982
 20
2.082453
 30
0.0
 40
5.0
100
AcDbArc
 50
0.0
 51
90.0
  0
LINE
  5
435
100
AcDbEntity
  8
0
370
    -3
390
0
  6
Continuous
100
AcDbLine
 10
-183.032982
 20
7.082453
 30
0.0
 11
-112.932982
 21
7.082453
 31
0.0
  0
LINE
  5
436
100
AcDbEntity
  8
0
370
    -3
390
0
  6
Continuous
100
AcDbLine
 10
-188.032982
 20
-27.493482
 30
0.0
 11
-188.032982
 21
2.082453
 31
0.0
  0
LINE
  5
437
100
AcDbEntity
  8
0
370
    -3
390
0
  6
Continuous
100
AcDbLine
 10
-107.932982
 20
-27.493482
 30
0.0
 11
-107.932982
 21
2.082453
 31
0.0
  0
LINE
  5
438
100
AcDbEntity
  8
0
370
    -3
390
0
  6
Continuous
100
AcDbLine
 10
-101.532982
 20
2.401082
 30
0.0
 11
-101.532982
 21
-24.467307
 31
0.0
  0
LINE
  5
439
100
AcDbEntity
  8
0
370
    -3
390
0
  6
Continuous
100
AcDbLine
 10
-183.432982
 20
9.929609
 30
0.0
 11
-112.532982
 21
9.929609
 31
0.0
  0
LINE
  5
43A
100
AcDbEntity
  8
0
370
    -3
390
0
  6
Continuous
100
AcDbLine
 10
-183.432982
 20
13.401082
 30
0.0
 11
-112.532982
 21
13.401082
 31
0.0
  0
LINE
  5
43B
100
AcDbEntity
  8
0
370
    -3
390
0
  6
Continuous
100
AcDbLine
 10
-183.432982
 20
-35.467307
 30
0.0
 11
-151.040238
 21
-35.467307
 31
0.0
  0
LINE
  5
43C
100
AcDbEntity
  8
0
370
    -3
390
0
  6
CENTER
100
AcDbLine
 10
-147.982982
 20
21.540231
 30
0.0
 11
-147.982982
 21
-40.522182
 31
0.0
  0
LINE
  5
43D
100
AcDbEntity
  8
0
370
    -3
390
0
  6
Continuous
100
AcDbLine
 10
-162.982982
 20
226.706518
 30
0.0
 11
-199.638081
 21
226.706518
 31
0.0
  0
LINE
  5
43E
100
AcDbEntity
  8
0
370
    -3
390
0
  6
Continuous
100
AcDbLine
 10
-162.982982
 20
226.706518
 30
0.0
 11
-162.982982
 21
24.831891
 31
0.0
  0
LINE
  5
43F
100
AcDbEntity
  8
0
370
    -3
390
0
  6
Continuous
100
AcDbLine
 10
37.017018
 20
26.706518
 30
0.0
 11
-123.382982
 21
26.706518
 31
0.0
  0
LINE
  5
440
100
AcDbEntity
  8
0
370
    -3
390
0
  6
Continuous
100
AcDbLine
 10
37.017018
 20
30.706518
 30
0.0
 11
-123.982982
 21
30.706518
 31
0.0
  0
LINE
  5
441
100
AcDbEntity
  8
0
370
    -3
390
0
  6
Continuous
100
AcDbLine
 10
37.017018
 20
28.206518
 30
0.0
 11
-123.460483
 21
28.206518
 31
0.0
  0
LINE
  5
442
100
AcDbEntity
  8
0
370
    -3
390
0
  6
Continuous
100
AcDbLine
 10
37.017018
 20
34.706518
 30
0.0
 11
-162.982982
 21
34.706518
 31
0.0
  0
LINE
  5
443
100
AcDbEntity
  8
0
370
    -3
390
0
  6
Continuous
100
AcDbLine
 10
37.017018
 20
25.706518
 30
0.0
 11
-123.382982
 21
25.706518
 31
0.0
  0
LINE
  5
444
100
AcDbEntity
  8
0
370
    -3
390
0
  6
Continuous
100
AcDbLine
 10
37.017018
 20
26.206518
 30
0.0
 11
-123.382982
 21
26.206518
 31
0.0
  0
ARC
  5
445
100
AcDbEntity
  8
0
370
    -3
390
0
  6
Continuous
100
AcDbCircle
 10
-429.452599
 20
-88.597359
 30
0.0
 40
5.633955
100
AcDbArc
 50
346.832562
 51
190.505945
  0
ARC
  5
446
100
AcDbEntity
  8
0
370
    -3
390
0
  6
Continuous
100
AcDbCircle
 10
-429.452599
 20
-88.597359
 30
0.0
 40
6.5
100
AcDbArc
 50
348.323917
 51
189.01459
  0
LINE
  5
447
100
AcDbEntity
  8
0
370
    -3
390
0
  6
Continuous
100
AcDbLine
 10
-432.452596
 20
-89.659726
 30
0.0
 11
-432.452596
 21
-86.865307
 31
0.0
  0
LINE
  5
448
100
AcDbEntity
  8
0
370
    -3
390
0
  6
Continuous
100
AcDbLine
 10
-426.452602
 20
-86.865312
 30
0.0
 11
-426.452601
 21
-89.799456
 31
0.0
  0
LINE
  5
449
100
AcDbEntity
  8
0
370
    -3
390
0
  6
Continuous
100
AcDbLine
 10
-429.452592
 20
-85.133262
 30
0.0
 11
-432.452597
 21
-86.865307
 31
0.0
  0
LINE
  5
44A
100
AcDbEntity
  8
0
370
    -3
390
0
  6
Continuous
100
AcDbLine
 10
-429.452592
 20
-85.133262
 30
0.0
 11
-426.452601
 21
-86.865312
 31
0.0
  0
ARC
  5
44B
100
AcDbEntity
  8
0
370
    -3
390
0
  6
Continuous
100
AcDbCircle
 10
-450.452599
 20
-88.597359
 30
0.0
 40
5.633955
100
AcDbArc
 50
349.494055
 51
193.167438
  0
ARC
  5
44C
100
AcDbEntity
  8
0
370
    -3
390
0
  6
Continuous
100
AcDbCircle
 10
-450.452599
 20
-88.597359
 30
0.0
 40
6.5
100
AcDbArc
 50
350.98541
 51
191.676083
  0
LINE
  5
44D
100
AcDbEntity
  8
0
370
    -3
390
0
  6
Continuous
100
AcDbLine
 10
-447.452602
 20
-89.659726
 30
0.0
 11
-447.452601
 21
-86.865307
 31
0.0
  0
LINE
  5
44E
100
AcDbEntity
  8
0
370
    -3
390
0
  6
Continuous
100
AcDbLine
 10
-453.452595
 20
-86.865312
 30
0.0
 11
-453.452596
 21
-89.799456
 31
0.0
  0
LINE
  5
44F
100
AcDbEntity
  8
0
370
    -3
390
0
  6
Continuous
100
AcDbLine
 10
-450.452605
 20
-85.133262
 30
0.0
 11
-447.452601
 21
-86.865307
 31
0.0
  0
LINE
  5
450
100
AcDbEntity
  8
0
370
    -3
390
0
  6
Continuous
100
AcDbLine
 10
-450.452605
 20
-85.133262
 30
0.0
 11
-453.452596
 21
-86.865312
 31
0.0
  0
CIRCLE
  5
451
100
AcDbEntity
  8
0
370
    -3
390
0
  6
Continuous
100
AcDbCircle
 10
-506.952599
 20
-95.597359
 30
0.0
 40
5.633955
  0
CIRCLE
  5
452
100
AcDbEntity
  8
0
370
    -3
390
0
  6
Continuous
100
AcDbCircle
 10
-506.952599
 20
-95.597359
 30
0.0
 40
6.5
  0
LINE
  5
453
100
AcDbEntity
  8
0
370
    -3
390
0
  6
Continuous
100
AcDbLine
 10
-503.952602
 20
-97.329405
 30
0.0
 11
-503.952601
 21
-93.865307
 31
0.0
  0
LINE
  5
454
100
AcDbEntity
  8
0
370
    -3
390
0
  6
Continuous
100
AcDbLine
 10
-509.952595
 20
-93.865312
 30
0.0
 11
-509.952596
 21
-97.32941
 31
0.0
  0
LINE
  5
455
100
AcDbEntity
  8
0
370
    -3
390
0
  6
Continuous
100
AcDbLine
 10
-506.952605
 20
-92.133262
 30
0.0
 11
-503.952601
 21
-93.865307
 31
0.0
  0
LINE
  5
456
100
AcDbEntity
  8
0
370
    -3
390
0
  6
Continuous
100
AcDbLine
 10
-509.952597
 20
-97.329411
 30
0.0
 11
-506.952594
 21
-99.061458
 31
0.0
  0
LINE
  5
457
100
AcDbEntity
  8
0
370
    -3
390
0
  6
Continuous
100
AcDbLine
 10
-506.952605
 20
-92.133262
 30
0.0
 11
-509.952596
 21
-93.865312
 31
0.0
  0
LINE
  5
458
100
AcDbEntity
  8
0
370
    -3
390
0
  6
Continuous
100
AcDbLine
 10
-506.952594
 20
-99.061457
 30
0.0
 11
-503.952601
 21
-97.329405
 31
0.0
  0
ARC
  5
459
100
AcDbEntity
  8
0
370
    -3
390
0
  6
Continuous
100
AcDbCircle
 10
-545.952599
 20
-171.597359
 30
0.0
 40
5.633955
100
AcDbArc
 50
48.852701
 51
305.848515
  0
ARC
  5
45A
100
AcDbEntity
  8
0
370
    -3
390
0
  6
Continuous
100
AcDbCircle
 10
-545.952599
 20
-171.597359
 30
0.0
 40
6.5
100
AcDbArc
 50
54.529745
 51
300.124762
  0
LINE
  5
45B
100
AcDbEntity
  8
0
370
    -3
390
0
  6
Continuous
100
AcDbLine
 10
-542.952602
 20
-173.329405
 30
0.0
 11
-542.952601
 21
-169.865307
 31
0.0
  0
LINE
  5
45C
100
AcDbEntity
  8
0
370
    -3
390
0
  6
Continuous
100
AcDbLine
 10
-548.952595
 20
-169.865312
 30
0.0
 11
-548.952596
 21
-173.32941
 31
0.0
  0
LINE
  5
45D
100
AcDbEntity
  8
0
370
    -3
390
0
  6
Continuous
100
AcDbLine
 10
-545.952605
 20
-168.133262
 30
0.0
 11
-542.952601
 21
-169.865307
 31
0.0
  0
LINE
  5
45E
100
AcDbEntity
  8
0
370
    -3
390
0
  6
Continuous
100
AcDbLine
 10
-548.952597
 20
-173.329411
 30
0.0
 11
-545.952594
 21
-175.061458
 31
0.0
  0
LINE
  5
45F
100
AcDbEntity
  8
0
370
    -3
390
0
  6
Continuous
100
AcDbLine
 10
-545.952605
 20
-168.133262
 30
0.0
 11
-548.952596
 21
-169.865312
 31
0.0
  0
LINE
  5
460
100
AcDbEntity
  8
0
370
    -3
390
0
  6
Continuous
100
AcDbLine
 10
-545.952594
 20
-175.061457
 30
0.0
 11
-542.952601
 21
-173.329405
 31
0.0
  0
ARC
  5
461
100
AcDbEntity
  8
0
370
    -3
390
0
  6
Continuous
100
AcDbCircle
 10
-332.952599
 20
-237.597359
 30
0.0
 40
5.633955
100
AcDbArc
 50
69.207143
 51
347.009376
  0
ARC
  5
462
100
AcDbEntity
  8
0
370
    -3
390
0
  6
Continuous
100
AcDbCircle
 10
-332.952599
 20
-237.597359
 30
0.0
 40
6.5
100
AcDbArc
 50
72.079787
 51
346.657629
  0
LINE
  5
463
100
AcDbEntity
  8
0
370
    -3
390
0
  6
Continuous
100
AcDbLine
 10
-335.952595
 20
-239.329405
 30
0.0
 11
-335.952596
 21
-235.865307
 31
0.0
  0
LINE
  5
464
100
AcDbEntity
  8
0
370
    -3
390
0
  6
Continuous
100
AcDbLine
 10
-329.952602
 20
-237.097356
 30
0.0
 11
-329.952601
 21
-239.32941
 31
0.0
  0
LINE
  5
465
100
AcDbEntity
  8
0
370
    -3
390
0
  6
Continuous
100
AcDbLine
 10
-332.952592
 20
-234.133262
 30
0.0
 11
-335.952597
 21
-235.865307
 31
0.0
  0
LINE
  5
466
100
AcDbEntity
  8
0
370
    -3
390
0
  6
Continuous
100
AcDbLine
 10
-329.952601
 20
-239.329411
 30
0.0
 11
-332.952603
 21
-241.061458
 31
0.0
  0
LINE
  5
467
100
AcDbEntity
  8
0
370
    -3
390
0
  6
Continuous
100
AcDbLine
 10
-332.952592
 20
-234.133262
 30
0.0
 11
-330.783849
 21
-235.38539
 31
0.0
  0
LINE
  5
468
100
AcDbEntity
  8
0
370
    -3
390
0
  6
Continuous
100
AcDbLine
 10
-332.952603
 20
-241.061457
 30
0.0
 11
-335.952596
 21
-239.329405
 31
0.0
  0
MTEXT
  5
46A
100
AcDbEntity
  8
0
370
    -3
390
0
  6
Continuous
100
AcDbMText
 10
-538.551636
 20
156.723129
 30
0.0
 40
10.0
 41
0.0
 71
     7
 72
     1
  1
\W0.63;三菱ギヤードモータ  
  7
ZU_SHPTB00001
 11
1.0
 21
0.0
 31
0.0
 73
     1
 44
1.0
  0
MTEXT
  5
46B
100
AcDbEntity
  8
0
370
    -3
390
0
  6
Continuous
100
AcDbMText
 10
-538.551636
 20
145.423126
 30
0.0
 40
10.0
 41
0.0
 71
     7
 72
     1
  1
\W0.47;GM-SP
  7
ZU_SHPTB00001
 11
1.0
 21
0.0
 31
0.0
 73
     1
 44
1.0
  0
MTEXT
  5
46C
100
AcDbEntity
  8
0
370
    -3
390
0
  6
Continuous
100
AcDbMText
 10
-538.551636
 20
134.123123
 30
0.0
 40
10.0
 41
0.0
 71
     7
 72
     1
  1
\W0.47;2.2kW
  7
ZU_SHPTB00001
 11
1.0
 21
0.0
 31
0.0
 73
     1
 44
1.0
  0
MTEXT
  5
46D
100
AcDbEntity
  8
0
370
    -3
390
0
  6
Continuous
100
AcDbMText
 10
-538.551636
 20
122.823128
 30
0.0
 40
10.0
 41
0.0
 71
     7
 72
     1
  1
\W0.47;1/40,1/50
  7
ZU_SHPTB00001
 11
1.0
 21
0.0
 31
0.0
 73
     1
 44
1.0
  0
MTEXT
  5
46E
100
AcDbEntity
  8
0
370
    -3
390
0
  6
Continuous
100
AcDbMText
 10
-538.551636
 20
111.523125
 30
0.0
 40
10.0
 41
0.0
 71
     7
 72
     1
  1
\W0.47;SCALE1/1
  7
ZU_SHPTB00001
 11
1.0
 21
0.0
 31
0.0
 73
     1
 44
1.0
  0
LINE
  5
46F
100
AcDbEntity
  8
0
370
    -3
390
0
  6
Continuous
100
AcDbLine
 10
37.017019
 20
128.572642
 30
0.0
 11
37.017019
 21
139.840588
 31
0.0
  0
LINE
  5
470
100
AcDbEntity
  8
0
370
    -3
390
0
  6
Continuous
100
AcDbLine
 10
45.017018
 20
127.706518
 30
0.0
 11
37.517019
 21
127.706518
 31
0.0
  0
LINE
  5
471
100
AcDbEntity
  8
0
370
    -3
390
0
  6
Continuous
100
AcDbLine
 10
45.017018
 20
140.706518
 30
0.0
 11
37.51702
 21
140.706518
 31
0.0
  0
LINE
  5
472
100
AcDbEntity
  8
0
370
    -3
390
0
  6
Continuous
100
AcDbLine
 10
37.517019
 20
127.706518
 30
0.0
 11
37.017019
 21
128.572642
 31
0.0
  0
LINE
  5
473
100
AcDbEntity
  8
0
370
    -3
390
0
  6
Continuous
100
AcDbLine
 10
37.51702
 20
140.706518
 30
0.0
 11
37.017019
 21
139.840588
 31
0.0
  0
LINE
  5
474
100
AcDbEntity
  8
0
370
    -3
390
0
  6
Continuous
100
AcDbLine
 10
37.517019
 20
127.706518
 30
0.0
 11
37.517019
 21
140.706518
 31
0.0
  0
LINE
  5
475
100
AcDbEntity
  8
0
370
    -3
390
0
  6
Continuous
100
AcDbLine
 10
37.017019
 20
118.840394
 30
0.0
 11
37.017019
 21
107.572448
 31
0.0
  0
LINE
  5
476
100
AcDbEntity
  8
0
370
    -3
390
0
  6
Continuous
100
AcDbLine
 10
45.017018
 20
119.706518
 30
0.0
 11
37.517019
 21
119.706518
 31
0.0
  0
LINE
  5
477
100
AcDbEntity
  8
0
370
    -3
390
0
  6
Continuous
100
AcDbLine
 10
45.017018
 20
106.706518
 30
0.0
 11
37.51702
 21
106.706518
 31
0.0
  0
LINE
  5
478
100
AcDbEntity
  8
0
370
    -3
390
0
  6
Continuous
100
AcDbLine
 10
37.517019
 20
119.706518
 30
0.0
 11
37.017019
 21
118.840394
 31
0.0
  0
LINE
  5
479
100
AcDbEntity
  8
0
370
    -3
390
0
  6
Continuous
100
AcDbLine
 10
37.51702
 20
106.706518
 30
0.0
 11
37.017019
 21
107.572448
 31
0.0
  0
LINE
  5
47A
100
AcDbEntity
  8
0
370
    -3
390
0
  6
Continuous
100
AcDbLine
 10
37.517019
 20
119.706518
 30
0.0
 11
37.517019
 21
106.706518
 31
0.0
  0
LINE
  5
47B
100
AcDbEntity
  8
0
370
    -3
390
0
  6
Continuous
100
AcDbLine
 10
53.517019
 20
62.340394
 30
0.0
 11
53.517019
 21
51.072448
 31
0.0
  0
LINE
  5
47C
100
AcDbEntity
  8
0
370
    -3
390
0
  6
Continuous
100
AcDbLine
 10
61.517018
 20
63.206518
 30
0.0
 11
54.017019
 21
63.206518
 31
0.0
  0
LINE
  5
47D
100
AcDbEntity
  8
0
370
    -3
390
0
  6
Continuous
100
AcDbLine
 10
61.517018
 20
50.206518
 30
0.0
 11
54.01702
 21
50.206518
 31
0.0
  0
LINE
  5
47E
100
AcDbEntity
  8
0
370
    -3
390
0
  6
Continuous
100
AcDbLine
 10
54.017019
 20
63.206518
 30
0.0
 11
53.517019
 21
62.340394
 31
0.0
  0
LINE
  5
47F
100
AcDbEntity
  8
0
370
    -3
390
0
  6
Continuous
100
AcDbLine
 10
54.01702
 20
50.206518
 30
0.0
 11
53.517019
 21
51.072448
 31
0.0
  0
LINE
  5
480
100
AcDbEntity
  8
0
370
    -3
390
0
  6
Continuous
100
AcDbLine
 10
54.017019
 20
63.206518
 30
0.0
 11
54.017019
 21
50.206518
 31
0.0
  0
CIRCLE
  5
481
100
AcDbEntity
  8
0
370
    -3
390
0
  6
Continuous
100
AcDbCircle
 10
-372.952599
 20
-295.597359
 30
0.0
 40
5.633955
  0
CIRCLE
  5
482
100
AcDbEntity
  8
0
370
    -3
390
0
  6
Continuous
100
AcDbCircle
 10
-372.952599
 20
-295.597359
 30
0.0
 40
6.5
  0
LINE
  5
483
100
AcDbEntity
  8
0
370
    -3
390
0
  6
Continuous
100
AcDbLine
 10
-375.952595
 20
-297.329405
 30
0.0
 11
-375.952596
 21
-293.865307
 31
0.0
  0
LINE
  5
484
100
AcDbEntity
  8
0
370
    -3
390
0
  6
Continuous
100
AcDbLine
 10
-369.952602
 20
-293.865312
 30
0.0
 11
-369.952601
 21
-297.32941
 31
0.0
  0
LINE
  5
485
100
AcDbEntity
  8
0
370
    -3
390
0
  6
Continuous
100
AcDbLine
 10
-372.952592
 20
-292.133262
 30
0.0
 11
-375.952597
 21
-293.865307
 31
0.0
  0
LINE
  5
486
100
AcDbEntity
  8
0
370
    -3
390
0
  6
Continuous
100
AcDbLine
 10
-369.952601
 20
-297.329411
 30
0.0
 11
-372.952603
 21
-299.061458
 31
0.0
  0
LINE
  5
487
100
AcDbEntity
  8
0
370
    -3
390
0
  6
Continuous
100
AcDbLine
 10
-372.952592
 20
-292.133262
 30
0.0
 11
-369.952601
 21
-293.865312
 31
0.0
  0
LINE
  5
488
100
AcDbEntity
  8
0
370
    -3
390
0
  6
Continuous
100
AcDbLine
 10
-372.952603
 20
-299.061457
 30
0.0
 11
-375.952596
 21
-297.329405
 31
0.0
  0
CIRCLE
  5
489
100
AcDbEntity
  8
0
370
    -3
390
0
  6
Continuous
100
AcDbCircle
 10
-506.952599
 20
-295.597359
 30
0.0
 40
5.633955
  0
CIRCLE
  5
48A
100
AcDbEntity
  8
0
370
    -3
390
0
  6
Continuous
100
AcDbCircle
 10
-506.952599
 20
-295.597359
 30
0.0
 40
6.5
  0
LINE
  5
48B
100
AcDbEntity
  8
0
370
    -3
390
0
  6
Continuous
100
AcDbLine
 10
-503.952602
 20
-297.329405
 30
0.0
 11
-503.952601
 21
-293.865307
 31
0.0
  0
LINE
  5
48C
100
AcDbEntity
  8
0
370
    -3
390
0
  6
Continuous
100
AcDbLine
 10
-509.952595
 20
-293.865312
 30
0.0
 11
-509.952596
 21
-297.32941
 31
0.0
  0
LINE
  5
48D
100
AcDbEntity
  8
0
370
    -3
390
0
  6
Continuous
100
AcDbLine
 10
-506.952605
 20
-292.133262
 30
0.0
 11
-503.952601
 21
-293.865307
 31
0.0
  0
LINE
  5
48E
100
AcDbEntity
  8
0
370
    -3
390
0
  6
Continuous
100
AcDbLine
 10
-509.952597
 20
-297.329411
 30
0.0
 11
-506.952594
 21
-299.061458
 31
0.0
  0
LINE
  5
48F
100
AcDbEntity
  8
0
370
    -3
390
0
  6
Continuous
100
AcDbLine
 10
-506.952605
 20
-292.133262
 30
0.0
 11
-509.952596
 21
-293.865312
 31
0.0
  0
LINE
  5
490
100
AcDbEntity
  8
0
370
    -3
390
0
  6
Continuous
100
AcDbLine
 10
-506.952594
 20
-299.061457
 30
0.0
 11
-503.952601
 21
-297.329405
 31
0.0
  0
CIRCLE
  5
491
100
AcDbEntity
  8
0
370
    -3
390
0
  6
Continuous
100
AcDbCircle
 10
-546.952599
 20
-237.597359
 30
0.0
 40
5.633955
  0
CIRCLE
  5
492
100
AcDbEntity
  8
0
370
    -3
390
0
  6
Continuous
100
AcDbCircle
 10
-546.952599
 20
-237.597359
 30
0.0
 40
6.5
  0
LINE
  5
493
100
AcDbEntity
  8
0
370
    -3
390
0
  6
Continuous
100
AcDbLine
 10
-543.952602
 20
-239.329405
 30
0.0
 11
-543.952601
 21
-235.865307
 31
0.0
  0
LINE
  5
494
100
AcDbEntity
  8
0
370
    -3
390
0
  6
Continuous
100
AcDbLine
 10
-549.952595
 20
-235.865312
 30
0.0
 11
-549.952596
 21
-239.32941
 31
0.0
  0
LINE
  5
495
100
AcDbEntity
  8
0
370
    -3
390
0
  6
Continuous
100
AcDbLine
 10
-546.952605
 20
-234.133262
 30
0.0
 11
-543.952601
 21
-235.865307
 31
0.0
  0
LINE
  5
496
100
AcDbEntity
  8
0
370
    -3
390
0
  6
Continuous
100
AcDbLine
 10
-549.952597
 20
-239.329411
 30
0.0
 11
-546.952594
 21
-241.061458
 31
0.0
  0
LINE
  5
497
100
AcDbEntity
  8
0
370
    -3
390
0
  6
Continuous
100
AcDbLine
 10
-546.952605
 20
-234.133262
 30
0.0
 11
-549.952596
 21
-235.865312
 31
0.0
  0
LINE
  5
498
100
AcDbEntity
  8
0
370
    -3
390
0
  6
Continuous
100
AcDbLine
 10
-546.952594
 20
-241.061457
 30
0.0
 11
-543.952601
 21
-239.329405
 31
0.0
  0
CIRCLE
  5
499
100
AcDbEntity
  8
0
370
    -3
390
0
  6
Continuous
100
AcDbCircle
 10
-372.952599
 20
-95.597359
 30
0.0
 40
5.633955
  0
CIRCLE
  5
49A
100
AcDbEntity
  8
0
370
    -3
390
0
  6
Continuous
100
AcDbCircle
 10
-372.952599
 20
-95.597359
 30
0.0
 40
6.5
  0
LINE
  5
49B
100
AcDbEntity
  8
0
370
    -3
390
0
  6
Continuous
100
AcDbLine
 10
-375.952595
 20
-97.329405
 30
0.0
 11
-375.952596
 21
-93.865307
 31
0.0
  0
LINE
  5
49C
100
AcDbEntity
  8
0
370
    -3
390
0
  6
Continuous
100
AcDbLine
 10
-369.952602
 20
-93.865312
 30
0.0
 11
-369.952601
 21
-97.32941
 31
0.0
  0
LINE
  5
49D
100
AcDbEntity
  8
0
370
    -3
390
0
  6
Continuous
100
AcDbLine
 10
-372.952592
 20
-92.133262
 30
0.0
 11
-375.952597
 21
-93.865307
 31
0.0
  0
LINE
  5
49E
100
AcDbEntity
  8
0
370
    -3
390
0
  6
Continuous
100
AcDbLine
 10
-369.952601
 20
-97.329411
 30
0.0
 11
-372.952603
 21
-99.061458
 31
0.0
  0
LINE
  5
49F
100
AcDbEntity
  8
0
370
    -3
390
0
  6
Continuous
100
AcDbLine
 10
-372.952592
 20
-92.133262
 30
0.0
 11
-369.952601
 21
-93.865312
 31
0.0
  0
LINE
  5
4A0
100
AcDbEntity
  8
0
370
    -3
390
0
  6
Continuous
100
AcDbLine
 10
-372.952603
 20
-99.061457
 30
0.0
 11
-375.952596
 21
-97.329405
 31
0.0
  0
POINT
  5
4A1
100
AcDbEntity
  8
0
370
    -3
390
0
  6
Continuous
100
AcDbPoint
 10
-372.952599
 20
-89.963404
 30
0.0
  0
POINT
  5
4A2
100
AcDbEntity
  8
0
370
    -3
390
0
  6
Continuous
100
AcDbPoint
 10
-372.452599
 20
-89.097359
 30
0.0
  0
POINT
  5
4A3
100
AcDbEntity
  8
0
370
    -3
390
0
  6
Continuous
100
AcDbPoint
 10
-546.952599
 20
-231.963404
 30
0.0
  0
POINT
  5
4A4
100
AcDbEntity
  8
0
370
    -3
390
0
  6
Continuous
100
AcDbPoint
 10
-547.452599
 20
-231.097359
 30
0.0
  0
POINT
  5
4A5
100
AcDbEntity
  8
0
370
    -3
390
0
  6
Continuous
100
AcDbPoint
 10
-506.952599
 20
-289.963404
 30
0.0
  0
POINT
  5
4A6
100
AcDbEntity
  8
0
370
    -3
390
0
  6
Continuous
100
AcDbPoint
 10
-507.452599
 20
-289.097359
 30
0.0
  0
POINT
  5
4A7
100
AcDbEntity
  8
0
370
    -3
390
0
  6
Continuous
100
AcDbPoint
 10
-372.952599
 20
-289.963404
 30
0.0
  0
POINT
  5
4A8
100
AcDbEntity
  8
0
370
    -3
390
0
  6
Continuous
100
AcDbPoint
 10
-372.452599
 20
-289.097359
 30
0.0
  0
POINT
  5
4A9
100
AcDbEntity
  8
0
370
    -3
390
0
  6
Continuous
100
AcDbPoint
 10
-392.952599
 20
-231.963404
 30
0.0
  0
POINT
  5
4AA
100
AcDbEntity
  8
0
370
    -3
390
0
  6
Continuous
100
AcDbPoint
 10
-392.452599
 20
-231.097359
 30
0.0
  0
POINT
  5
4AB
100
AcDbEntity
  8
0
370
    -3
390
0
  6
Continuous
100
AcDbPoint
 10
-510.452599
 20
-82.963404
 30
0.0
  0
POINT
  5
4AC
100
AcDbEntity
  8
0
370
    -3
390
0
  6
Continuous
100
AcDbPoint
 10
-510.952599
 20
-82.097359
 30
0.0
  0
POINT
  5
4AD
100
AcDbEntity
  8
0
370
    -3
390
0
  6
Continuous
100
AcDbPoint
 10
-489.452599
 20
-82.963404
 30
0.0
  0
POINT
  5
4AE
100
AcDbEntity
  8
0
370
    -3
390
0
  6
Continuous
100
AcDbPoint
 10
-488.952599
 20
-82.097359
 30
0.0
  0
ENDSEC
  0
SECTION
  2
OBJECTS
  0
DICTIONARY
  5
19
100
AcDbDictionary
280
     0
281
     1
  3
ACAD_GROUP
350
1A
  3
ACAD_MLINESTYLE
350
1B
  3
ACAD_LAYOUT
350
1E
  3
ACAD_PLOTSETTINGS
350
22
  3
ACAD_PLOTSTYLENAME
350
1F
  3
ACAD_WIPEOUT_VARS
350
23
  3
DWGPROPS
350
4AF
  0
DICTIONARY
  5
1A
102
{ACAD_REACTORS
330
19
102
}
100
AcDbDictionary
280
     0
281
     1
  0
DICTIONARY
  5
1B
102
{ACAD_REACTORS
330
19
102
}
100
AcDbDictionary
280
     0
281
     1
  3
Standard
350
1C
  0
MLINESTYLE
  5
1C
102
{ACAD_REACTORS
330
1B
102
}
100
AcDbMlineStyle
  2
Standard
 70
     0
  3

 62
     0
 51
90.0
 52
90.0
 71
     2
 49
0.5
 62
   256
  6
ByLayer
 49
-0.5
 62
   256
  6
ByLayer
  0
ACDBDICTIONARYWDFLT
  5
1F
102
{ACAD_REACTORS
330
19
102
}
100
AcDbDictionary
281
     1
  3
Normal
350
1D
100
AcDbDictionaryWithDefault
340
1D
  0
ACDBPLACEHOLDER
  5
1D
102
{ACAD_REACTORS
330
1F
102
}
  0
LAYOUT
  5
20
102
{ACAD_REACTORS
330
1E
102
}
100
AcDbPlotSettings
  1

  2

  4

  6

 40
0.0
 41
0.0
 42
0.0
 43
0.0
 44
0.0
 45
0.0
 46
0.0
 47
0.0
 48
0.0
 49
0.0
140
0.0
141
0.0
142
1.0
143
1.0
 70
  1024
 72
     0
 73
     0
 74
     0
  7

 75
     0
147
1.0
148
0.0
149
0.0
100
AcDbLayout
  1
Model
 70
     0
 71
     0
 10
0.0
 20
0.0
 11
0.0
 21
0.0
 12
0.0
 22
0.0
 32
0.0
 14
0.0
 24
0.0
 34
0.0
 15
0.0
 25
0.0
 35
0.0
146
0.0
 13
0.0
 23
0.0
 33
0.0
 16
0.0
 26
0.0
 36
0.0
 17
0.0
 27
0.0
 37
0.0
 76
     0
330
A
331
0
345
0
346
0
  0
LAYOUT
  5
21
102
{ACAD_REACTORS
330
1E
102
}
100
AcDbPlotSettings
  1

  2

  4

  6

 40
0.0
 41
0.0
 42
0.0
 43
0.0
 44
0.0
 45
0.0
 46
0.0
 47
0.0
 48
0.0
 49
0.0
140
0.0
141
0.0
142
1.0
143
1.0
 70
     0
 72
     0
 73
     0
 74
     0
  7

 75
     0
147
1.0
148
0.0
149
0.0
100
AcDbLayout
  1
Layout1
 70
     0
 71
     0
 10
0.0
 20
0.0
 11
0.0
 21
0.0
 12
0.0
 22
0.0
 32
0.0
 14
0.0
 24
0.0
 34
0.0
 15
0.0
 25
0.0
 35
0.0
146
0.0
 13
0.0
 23
0.0
 33
0.0
 16
0.0
 26
0.0
 36
0.0
 17
0.0
 27
0.0
 37
0.0
 76
     0
330
B
331
0
345
0
346
0
  0
DICTIONARY
  5
1E
102
{ACAD_REACTORS
330
19
102
}
100
AcDbDictionary
280
     0
281
     1
  3
Layout1
350
21
  3
Model
350
20
  0
DICTIONARY
  5
22
102
{ACAD_REACTORS
330
19
102
}
100
AcDbDictionary
280
     0
281
     1
  0
WIPEOUTVARIABLES
  5
23
100
AcDbWipeoutVariables
 70
     1
  0
XRECORD
  5
4AF
100
AcDbXrecord
280
     1
  1
DWGPROPS COOKIE
  2

  3

  4

  6

  7

  8
YP81315
  9

300
=
301
=
302
=
303
=
304
=
305
=
306
=
307
=
308
=
309
=
 40
0.0
 41
2456785.704028
 42
2456785.704028
  1

 90
        0
  0
ENDSEC
  0
EOF
