  0
SECTION
  2
HEADER
  9
$ACADVER
  1
AC1015
  9
$ACADMAINTVER
 70
     6
  9
$DWGCODEPAGE
  3
ANSI_932
  9
$INSBASE
 10
0.0
 20
0.0
 30
0.0
  9
$EXTMIN
 10
1.000000E+20
 20
1.000000E+20
 30
1.000000E+20
  9
$EXTMAX
 10
-1.000000E+20
 20
-1.000000E+20
 30
-1.000000E+20
  9
$LIMMIN
 10
0.0
 20
0.0
  9
$LIMMAX
 10
0.0
 20
0.0
  9
$ORTHOMODE
 70
     0
  9
$REGENMODE
 70
     1
  9
$FILLMODE
 70
     1
  9
$QTEXTMODE
 70
     0
  9
$MIRRTEXT
 70
     1
  9
$LTSCALE
 40
1.0
  9
$ATTMODE
 70
     1
  9
$TEXTSIZE
 40
3.3
  9
$TRACEWID
 40
0.05
  9
$TEXTSTYLE
  7
Standard
  9
$CLAYER
  8
0
  9
$CELTYPE
  6
Continuous
  9
$CECOLOR
 62
   256
  9
$CELTSCALE
 40
1.0
  9
$DISPSILH
 70
     0
  9
$DIMSCALE
 40
1.0
  9
$DIMASZ
 40
1.931852
  9
$DIMEXO
 40
1.0
  9
$DIMDLI
 40
0.38
  9
$DIMRND
 40
0.0
  9
$DIMDLE
 40
0.0
  9
$DIMEXE
 40
2.0
  9
$DIMTP
 40
0.0
  9
$DIMTM
 40
0.0
  9
$DIMTXT
 40
2.8
  9
$DIMCEN
 40
0.09
  9
$DIMTSZ
 40
0.0
  9
$DIMTOL
 70
     0
  9
$DIMLIM
 70
     0
  9
$DIMTIH
 70
     1
  9
$DIMTOH
 70
     1
  9
$DIMSE1
 70
     0
  9
$DIMSE2
 70
     0
  9
$DIMTAD
 70
     1
  9
$DIMZIN
 70
     0
  9
$DIMBLK
  1

  9
$DIMASO
 70
     1
  9
$DIMSHO
 70
     1
  9
$DIMPOST
  1

  9
$DIMAPOST
  1

  9
$DIMALT
 70
     0
  9
$DIMALTD
 70
     2
  9
$DIMALTF
 40
25.4
  9
$DIMLFAC
 40
1.0
  9
$DIMTOFL
 70
     0
  9
$DIMTVP
 40
0.0
  9
$DIMTIX
 70
     0
  9
$DIMSOXD
 70
     0
  9
$DIMSAH
 70
     0
  9
$DIMBLK1
  1

  9
$DIMBLK2
  1

  9
$DIMSTYLE
  2
Standard
  9
$DIMCLRD
 70
     0
  9
$DIMCLRE
 70
     0
  9
$DIMCLRT
 70
     0
  9
$DIMTFAC
 40
0.714286
  9
$DIMGAP
 40
0.09
  9
$DIMJUST
 70
     0
  9
$DIMSD1
 70
     0
  9
$DIMSD2
 70
     0
  9
$DIMTOLJ
 70
     1
  9
$DIMTZIN
 70
     0
  9
$DIMALTZ
 70
     0
  9
$DIMALTTZ
 70
     0
  9
$DIMUPT
 70
     0
  9
$DIMDEC
 70
     4
  9
$DIMTDEC
 70
     4
  9
$DIMALTU
 70
     2
  9
$DIMALTTD
 70
     2
  9
$DIMTXSTY
  7
Standard
  9
$DIMAUNIT
 70
     0
  9
$DIMADEC
 70
     0
  9
$DIMALTRND
 40
0.0
  9
$DIMAZIN
 70
     0
  9
$DIMDSEP
 70
     0
  9
$DIMATFIT
 70
     3
  9
$DIMFRAC
 70
     0
  9
$DIMLDRBLK
  1

  9
$DIMLUNIT
 70
     2
  9
$DIMLWD
 70
     0
  9
$DIMLWE
 70
     0
  9
$DIMTMOVE
 70
     0
  9
$LUNITS
 70
     2
  9
$LUPREC
 70
     3
  9
$SKETCHINC
 40
0.1
  9
$FILLETRAD
 40
0.0
  9
$AUNITS
 70
     0
  9
$AUPREC
 70
     0
  9
$MENU
  1
acad
  9
$ELEVATION
 40
0.0
  9
$PELEVATION
 40
0.0
  9
$THICKNESS
 40
0.0
  9
$LIMCHECK
 70
     0
  9
$CHAMFERA
 40
0.0
  9
$CHAMFERB
 40
0.0
  9
$CHAMFERC
 40
0.0
  9
$CHAMFERD
 40
0.0
  9
$SKPOLY
 70
     0
  9
$TDCREATE
 40
0.000000000
  9
$TDUCREATE
 40
0.000000000
  9
$TDUPDATE
 40
0.000000000
  9
$TDUUPDATE
 40
0.000000000
  9
$TDINDWG
 40
0.0000000000
  9
$TDUSRTIMER
 40
0.0000000000
  9
$USRTIMER
 70
     1
  9
$ANGBASE
 50
0.0
  9
$ANGDIR
 70
     0
  9
$PDMODE
 70
     0
  9
$PDSIZE
 40
0.0
  9
$PLINEWID
 40
0.0
  9
$SPLFRAME
 70
     0
  9
$SPLINETYPE
 70
     6
  9
$SPLINESEGS
 70
     8
  9
$HANDSEED
  5
668
  9
$SURFTAB1
 70
     6
  9
$SURFTAB2
 70
     6
  9
$SURFTYPE
 70
     6
  9
$SURFU
 70
     6
  9
$SURFV
 70
     6
  9
$UCSBASE
  2

  9
$UCSNAME
  2

  9
$UCSORG
 10
0.0
 20
0.0
 30
0.0
  9
$UCSXDIR
 10
1.0
 20
0.0
 30
0.0
  9
$UCSYDIR
 10
0.0
 20
1.0
 30
0.0
  9
$UCSORTHOREF
  2

  9
$UCSORTHOVIEW
 70
     0
  9
$UCSORGTOP
 10
0.0
 20
0.0
 30
0.0
  9
$UCSORGBOTTOM
 10
0.0
 20
0.0
 30
0.0
  9
$UCSORGLEFT
 10
0.0
 20
0.0
 30
0.0
  9
$UCSORGRIGHT
 10
0.0
 20
0.0
 30
0.0
  9
$UCSORGFRONT
 10
0.0
 20
0.0
 30
0.0
  9
$UCSORGBACK
 10
0.0
 20
0.0
 30
0.0
  9
$PUCSBASE
  2

  9
$PUCSNAME
  2

  9
$PUCSORG
 10
0.0
 20
0.0
 30
0.0
  9
$PUCSXDIR
 10
1.0
 20
0.0
 30
0.0
  9
$PUCSYDIR
 10
0.0
 20
1.0
 30
0.0
  9
$PUCSORTHOREF
  2

  9
$PUCSORTHOVIEW
 70
     0
  9
$PUCSORGTOP
 10
0.0
 20
0.0
 30
0.0
  9
$PUCSORGBOTTOM
 10
0.0
 20
0.0
 30
0.0
  9
$PUCSORGLEFT
 10
0.0
 20
0.0
 30
0.0
  9
$PUCSORGRIGHT
 10
0.0
 20
0.0
 30
0.0
  9
$PUCSORGFRONT
 10
0.0
 20
0.0
 30
0.0
  9
$PUCSORGBACK
 10
0.0
 20
0.0
 30
0.0
  9
$USERI1
 70
     0
  9
$USERI2
 70
     0
  9
$USERI3
 70
     0
  9
$USERI4
 70
     0
  9
$USERI5
 70
     0
  9
$USERR1
 40
0.0
  9
$USERR2
 40
0.0
  9
$USERR3
 40
0.0
  9
$USERR4
 40
0.0
  9
$USERR5
 40
0.0
  9
$WORLDVIEW
 70
     1
  9
$SHADEDGE
 70
     3
  9
$SHADEDIF
 70
    70
  9
$TILEMODE
 70
     1
  9
$MAXACTVP
 70
    16
  9
$PINSBASE
 10
0.0
 20
0.0
 30
0.0
  9
$PLIMCHECK
 70
     0
  9
$PEXTMIN
 10
1.000000E+20
 20
1.000000E+20
 30
1.000000E+20
  9
$PEXTMAX
 10
-1.000000E+20
 20
-1.000000E+20
 30
-1.000000E+20
  9
$PLIMMIN
 10
0.0
 20
0.0
  9
$PLIMMAX
 10
12.0
 20
9.0
  9
$UNITMODE
 70
     0
  9
$VISRETAIN
 70
     0
  9
$PLINEGEN
 70
     1
  9
$PSLTSCALE
 70
     0
  9
$TREEDEPTH
 70
  3020
  9
$CMLSTYLE
  2
Standard
  9
$CMLJUST
 70
     0
  9
$CMLSCALE
 40
1.0
  9
$PROXYGRAPHICS
 70
     0
  9
$MEASUREMENT
 70
     0
  9
$CELWEIGHT
370
     0
  9
$ENDCAPS
280
     0
  9
$JOINSTYLE
280
     0
  9
$LWDISPLAY
290
     0
  9
$INSUNITS
 70
     0
  9
$HYPERLINKBASE
  1

  9
$STYLESHEET
  1

  9
$XEDIT
290
     1
  9
$CEPSNTYPE
380
     0
  9
$PSTYLEMODE
290
     1
  9
$FINGERPRINTGUID
  2

  9
$VERSIONGUID
  2

  9
$EXTNAMES
290
     1
  9
$PSVPSCALE
 40
0.0
  0
ENDSEC
  0
SECTION
  2
CLASSES
  0
CLASS
  1
LWPOLYLINE
  2
AcDbPolyline
  3
AutoCAD 2000
 90
        0
280
     0
281
     1
  0
CLASS
  1
IMAGE
  2
AcDbRasterImage
  3
ISM
 90
      127
280
     0
281
     1
  0
CLASS
  1
OLE2FRAME
  2
AcDbOle2Frame
  3
AutoCAD 2000
 90
        0
280
     0
281
     1
  0
CLASS
  1
HATCH
  2
AcDbHatch
  3
AutoCAD 2000
 90
        0
280
     0
281
     1
  0
CLASS
  1
DICTIONARYVAR
  2
AcDbDictionaryVar
  3
AutoCAD 2000
 90
        0
280
     0
281
     0
  0
CLASS
  1
RASTERVARIABLES
  2
AcDbRasterVariables
  3
ISM
 90
        0
280
     0
281
     0
  0
CLASS
  1
IMAGEDEF
  2
AcDbRasterImageDef
  3
ISM
 90
        0
280
     0
281
     0
  0
CLASS
  1
IMAGEDEF_REACTOR
  2
AcDbRasterImageDefReactor
  3
ISM
 90
        1
280
     0
281
     0
  0
CLASS
  1
IDBUFFER
  2
AcDbIdBuffer
  3
AutoCAD 2000
 90
        0
280
     0
281
     0
  0
CLASS
  1
SPATIAL_FILTER
  2
AcDbSpatialFilter
  3
AutoCAD 2000
 90
        0
280
     0
281
     0
  0
CLASS
  1
XRECORD
  2
AcDbXrecord
  3
AutoCAD 2000
 90
        0
280
     0
281
     0
  0
CLASS
  1
SORTENTSTABLE
  2
AcDbSortentsTable
  3
AutoCAD 2000
 90
        0
280
     0
281
     0
  0
CLASS
  1
LAYER_INDEX
  2
AcDbLayerIndex
  3
AutoCAD 2000
 90
        0
280
     0
281
     0
  0
CLASS
  1
SPATIAL_INDEX
  2
AcDbSpatialIndex
  3
AutoCAD 2000
 90
        0
280
     0
281
     0
  0
CLASS
  1
OBJECT_PTR
  2
CAseDLPNTableRecord
  3
"ASE-LPNTableRecord"
 90
        1
280
     0
281
     0
  0
CLASS
  1
LAYOUT
  2
AcDbLayout
  3
AutoCAD 2000
 90
        0
280
     0
281
     0
  0
CLASS
  1
PLOTSETTINGS
  2
AcDbPlotSettings
  3
AutoCAD 2000
 90
        0
280
     0
281
     0
  0
CLASS
  1
ACDBDICTIONARYWDFLT
  2
AcDbDictionaryWithDefault
  3
AutoCAD 2000
 90
        0
280
     0
281
     0
  0
CLASS
  1
ACDBPLACEHOLDER
  2
AcDbPlaceHolder
  3
AutoCAD 2000
 90
        0
280
     0
281
     0
  0
CLASS
  1
VBA_PROJECT
  2
AcDbVbaProject
  3
acadvba
 90
        0
280
     0
281
     0
  0
CLASS
  1
WIPEOUT
  2
AcDbWipeout
  3
WipeOut|AutoCAD Express Tool|expresstools@autodesk.com
 90
      127
280
     0
281
     1
  0
CLASS
  1
WIPEOUTVARIABLES
  2
AcDbWipeoutVariables
  3
WipeOut|AutoCAD Express Tool|expresstools@autodesk.com
 90
        0
280
     0
281
     0
  0
CLASS
  1
RTEXT
  2
RText
  3
RText|AutoCAD Express Tool|expresstools@autodesk.com
 90
        0
280
     0
281
     1
  0
CLASS
  1
ARCALIGNEDTEXT
  2
AcDbArcAlignedText
  3
ATEXT|AutoCAD Express Tool|expresstools@autodesk.com
 90
        0
280
     0
281
     1
  0
ENDSEC
  0
SECTION
  2
TABLES
  0
TABLE
  2
VPORT
  5
7
100
AcDbSymbolTable
 70
     1
  0
VPORT
  5
15
100
AcDbSymbolTableRecord
100
AcDbViewportTableRecord
  2
*ACTIVE
 70
     0
 10
0.0
 20
0.0
 11
1.0
 21
1.0
 12
0.0
 22
0.0
 13
0.0
 23
0.0
 14
1.0
 24
1.0
 15
0.0
 25
0.0
 16
0.0
 26
0.0
 36
1.0
 17
0.0
 27
0.0
 37
0.0
 40
100.0
 41
1.0
 42
50.0
 43
0.0
 44
0.0
 50
0.0
 51
0.0
 71
     0
 72
   100
 73
     1
 74
     1
 75
     0
 76
     0
 77
     0
 78
     0
281
     0
 65
     0
110
0.0
120
0.0
130
0.0
111
1.0
121
0.0
131
0.0
112
0.0
122
1.0
132
0.0
345
0
346
0
 79
     0
146
0.0
  0
ENDTAB
  0
TABLE
  2
LTYPE
  5
4
100
AcDbSymbolTable
 70
     7
  0
LTYPE
  5
11
100
AcDbSymbolTableRecord
100
AcDbLinetypeTableRecord
  2
ByBlock
 70
    64
  3

 72
    65
 73
     0
 40
0.0
  0
LTYPE
  5
12
100
AcDbSymbolTableRecord
100
AcDbLinetypeTableRecord
  2
ByLayer
 70
    64
  3

 72
    65
 73
     0
 40
0.0
  0
LTYPE
  5
13
100
AcDbSymbolTableRecord
100
AcDbLinetypeTableRecord
  2
Continuous
 70
    64
  3
Solid line
 72
    65
 73
     0
 40
0.0
  0
LTYPE
  5
24
100
AcDbSymbolTableRecord
100
AcDbLinetypeTableRecord
  2
DASHED
 70
    64
  3
Dashed __ __ __ __ __ __ __ __ __ __ __ __ __ _
 72
    65
 73
     2
 40
0.75
 49
0.5
 74
     0
 49
-0.25
 74
     0
  0
LTYPE
  5
25
100
AcDbSymbolTableRecord
100
AcDbLinetypeTableRecord
  2
CENTER
 70
    64
  3
Center ____ _ ____ _ ____ _ ____ _ ____ _ ____
 72
    65
 73
     4
 40
1.0
 49
0.5
 74
     0
 49
-0.25
 74
     0
 49
0.0
 74
     0
 49
-0.25
 74
     0
  0
LTYPE
  5
26
100
AcDbSymbolTableRecord
100
AcDbLinetypeTableRecord
  2
DIVIDE
 70
    64
  3
Divide ____ . . ____ . . ____ . . ____ . . ____
 72
    65
 73
     6
 40
1.25
 49
0.5
 74
     0
 49
-0.25
 74
     0
 49
0.0
 74
     0
 49
-0.25
 74
     0
 49
0.0
 74
     0
 49
-0.25
 74
     0
  0
LTYPE
  5
27
100
AcDbSymbolTableRecord
100
AcDbLinetypeTableRecord
  2
PHANTOM
 70
    64
  3
Phantom ______  __  __  ______  __  __  ______
 72
    65
 73
     6
 40
9.0
 49
4.3
 74
     0
 49
-0.7
 74
     0
 49
1.3
 74
     0
 49
-0.7
 74
     0
 49
1.3
 74
     0
 49
-0.7
 74
     0
  0
ENDTAB
  0
TABLE
  2
LAYER
  5
2
100
AcDbSymbolTable
 70
     2
  0
LAYER
  5
14
100
AcDbSymbolTableRecord
100
AcDbLayerTableRecord
  2
0
 70
    64
 62
   102
  6
Continuous
290
     1
370
    -3
390
1D
  0
LAYER
  5
28
100
AcDbSymbolTableRecord
100
AcDbLayerTableRecord
  2
1
 70
    64
 62
    42
  6
Continuous
290
     1
370
    -3
390
1D
  0
ENDTAB
  0
TABLE
  2
STYLE
  5
3
100
AcDbSymbolTable
 70
     2
  0
STYLE
  5
17
100
AcDbSymbolTableRecord
100
AcDbTextStyleTableRecord
  2
Standard
 70
     0
 40
0.0
 41
1.0
 50
0.0
 71
     0
 42
0.0
  3
txt
  4

  0
STYLE
  5
2B8
100
AcDbSymbolTableRecord
100
AcDbTextStyleTableRecord
  2
ZU_SHPTB00001
 70
     0
 40
0.0
 41
1.0
 50
0.0
 71
     0
 42
0.0
  3
monotxt
  4
bigfont
  0
ENDTAB
  0
TABLE
  2
VIEW
  5
5
100
AcDbSymbolTable
 70
     0
  0
ENDTAB
  0
TABLE
  2
UCS
  5
6
100
AcDbSymbolTable
 70
     0
  0
ENDTAB
  0
TABLE
  2
APPID
  5
8
100
AcDbSymbolTable
 70
     1
  0
APPID
  5
16
100
AcDbSymbolTableRecord
100
AcDbRegAppTableRecord
  2
ACAD
 70
     0
  0
ENDTAB
  0
TABLE
  2
DIMSTYLE
  5
9
100
AcDbSymbolTable
 70
     1
100
AcDbDimStyleTable
 71
     0
  0
DIMSTYLE
105
18
100
AcDbSymbolTableRecord
100
AcDbDimStyleTableRecord
  2
Standard
 70
     0
  3

  4

 40
1.0
 41
0.18
 42
0.0625
 43
0.38
 44
0.18
 45
0.0
 46
0.0
 47
0.0
 48
0.0
 71
     0
 72
     0
 73
     1
 74
     1
 75
     0
 76
     0
 77
     0
 78
     0
 79
     0
140
0.18
141
0.09
142
0.0
143
25.4
144
1.0
145
0.0
146
1.0
147
0.09
148
0.0
170
     0
171
     2
172
     0
173
     0
174
     0
175
     0
176
     0
177
     0
178
     0
179
     0
271
     4
272
     4
273
     2
274
     2
275
     0
276
     0
277
     2
278
    46
279
     0
280
     0
281
     0
282
     0
283
     1
284
     0
285
     0
286
     0
288
     0
289
     3
340
17
341
0
342
0
343
0
344
0
371
    -2
372
    -2
  0
ENDTAB
  0
TABLE
  2
BLOCK_RECORD
  5
1
100
AcDbSymbolTable
 70
    26
  0
BLOCK_RECORD
  5
A
100
AcDbSymbolTableRecord
100
AcDbBlockTableRecord
  2
*MODEL_SPACE
340
20
  0
BLOCK_RECORD
  5
B
100
AcDbSymbolTableRecord
100
AcDbBlockTableRecord
  2
*PAPER_SPACE
340
21
  0
BLOCK_RECORD
  5
98
100
AcDbSymbolTableRecord
100
AcDbBlockTableRecord
  2
ZU_SYM__USERS_HOME_SYMBOL_POO_SYM_B20_18
340
0
102
{BLKREFS
331
A3
102
}
  0
BLOCK_RECORD
  5
A4
100
AcDbSymbolTableRecord
100
AcDbBlockTableRecord
  2
ZU_SYM__USERS_HOME_SYMBOL_POO_SYM_B20_0000118
340
0
102
{BLKREFS
331
AF
102
}
  0
BLOCK_RECORD
  5
B0
100
AcDbSymbolTableRecord
100
AcDbBlockTableRecord
  2
ZU_SYM__USERS_HOME_SYMBOL_POO_SYM_B20_0000218
340
0
102
{BLKREFS
331
BB
102
}
  0
BLOCK_RECORD
  5
BC
100
AcDbSymbolTableRecord
100
AcDbBlockTableRecord
  2
ZU_SYM__USERS_HOME_SYMBOL_POO_SYM_B20_0000318
340
0
102
{BLKREFS
331
C7
102
}
  0
BLOCK_RECORD
  5
D3
100
AcDbSymbolTableRecord
100
AcDbBlockTableRecord
  2
ZU_SYM__USERS_HOME_SYMBOL_POO_SYM_B20_0000418
340
0
102
{BLKREFS
331
DE
102
}
  0
BLOCK_RECORD
  5
F1
100
AcDbSymbolTableRecord
100
AcDbBlockTableRecord
  2
ZU_SYM__USERS_HOME_SYMBOL_POO_SYM_B20_0000518
340
0
102
{BLKREFS
331
FC
102
}
  0
BLOCK_RECORD
  5
2BE
100
AcDbSymbolTableRecord
100
AcDbBlockTableRecord
  2
ZU_SYM__USERS_HOME_SYMBOL_STD_SYM_B02_48
340
0
102
{BLKREFS
331
2CD
102
}
  0
BLOCK_RECORD
  5
2CE
100
AcDbSymbolTableRecord
100
AcDbBlockTableRecord
  2
ZU_SYM__USERS_HOME_SYMBOL_STD_SYM_B02_0000648
340
0
102
{BLKREFS
331
2DD
102
}
  0
BLOCK_RECORD
  5
2FC
100
AcDbSymbolTableRecord
100
AcDbBlockTableRecord
  2
ZU_SYM__USERS_HOME_SYMBOL_POO_SYM_B20_0000718
340
0
102
{BLKREFS
331
307
102
}
  0
BLOCK_RECORD
  5
308
100
AcDbSymbolTableRecord
100
AcDbBlockTableRecord
  2
ZU_SYM__USERS_HOME_SYMBOL_POO_SYM_B20_0000818
340
0
102
{BLKREFS
331
313
102
}
  0
BLOCK_RECORD
  5
33A
100
AcDbSymbolTableRecord
100
AcDbBlockTableRecord
  2
ZU_SYM__USERS_HOME_SYMBOL_STD_SYM_B02_73
340
0
102
{BLKREFS
331
345
102
}
  0
BLOCK_RECORD
  5
346
100
AcDbSymbolTableRecord
100
AcDbBlockTableRecord
  2
ZU_SYM__USERS_HOME_SYMBOL_STD_SYM_B02_0000973
340
0
102
{BLKREFS
331
351
102
}
  0
BLOCK_RECORD
  5
39A
100
AcDbSymbolTableRecord
100
AcDbBlockTableRecord
  2
ZU_SYM__USERS_HOME_SYMBOL_POO_SYM_B20_05
340
0
102
{BLKREFS
331
3A6
102
}
  0
BLOCK_RECORD
  5
3A7
100
AcDbSymbolTableRecord
100
AcDbBlockTableRecord
  2
ZU_SYM__USERS_HOME_SYMBOL_POO_SYM_B20_0001005
340
0
102
{BLKREFS
331
3B3
102
}
  0
BLOCK_RECORD
  5
3B4
100
AcDbSymbolTableRecord
100
AcDbBlockTableRecord
  2
ZU_SYM__USERS_HOME_SYMBOL_POO_SYM_B20_0001105
340
0
102
{BLKREFS
331
3C0
102
}
  0
BLOCK_RECORD
  5
3C1
100
AcDbSymbolTableRecord
100
AcDbBlockTableRecord
  2
ZU_SYM__USERS_HOME_SYMBOL_POO_SYM_B20_0001205
340
0
102
{BLKREFS
331
3CD
102
}
  0
BLOCK_RECORD
  5
3CE
100
AcDbSymbolTableRecord
100
AcDbBlockTableRecord
  2
ZU_SYM__USERS_HOME_SYMBOL_POO_SYM_B20_0001305
340
0
102
{BLKREFS
331
3DA
102
}
  0
BLOCK_RECORD
  5
3DC
100
AcDbSymbolTableRecord
100
AcDbBlockTableRecord
  2
ZU_SYM__USERS_HOME_SYMBOL_POO_SYM_B20_0001405
340
0
102
{BLKREFS
331
3E8
102
}
  0
BLOCK_RECORD
  5
3E9
100
AcDbSymbolTableRecord
100
AcDbBlockTableRecord
  2
ZU_SYM__USERS_HOME_SYMBOL_POO_SYM_B20_0001505
340
0
102
{BLKREFS
331
3F5
102
}
  0
BLOCK_RECORD
  5
3F6
100
AcDbSymbolTableRecord
100
AcDbBlockTableRecord
  2
ZU_SYM__USERS_HOME_SYMBOL_POO_SYM_B20_0001605
340
0
102
{BLKREFS
331
402
102
}
  0
BLOCK_RECORD
  5
403
100
AcDbSymbolTableRecord
100
AcDbBlockTableRecord
  2
ZU_SYM__USERS_HOME_SYMBOL_POO_SYM_B20_0001705
340
0
102
{BLKREFS
331
40F
102
}
  0
BLOCK_RECORD
  5
410
100
AcDbSymbolTableRecord
100
AcDbBlockTableRecord
  2
ZU_SYM__USERS_HOME_SYMBOL_POO_SYM_B20_0001805
340
0
102
{BLKREFS
331
41C
102
}
  0
BLOCK_RECORD
  5
5C6
100
AcDbSymbolTableRecord
100
AcDbBlockTableRecord
  2
ZU_SYM__USERS_HOME_SYMBOL_POO_SYM_B20_0001918
340
0
102
{BLKREFS
331
5D1
102
}
  0
BLOCK_RECORD
  5
5D2
100
AcDbSymbolTableRecord
100
AcDbBlockTableRecord
  2
ZU_SYM__USERS_HOME_SYMBOL_POO_SYM_B20_0002018
340
0
102
{BLKREFS
331
5DD
102
}
  0
BLOCK_RECORD
  5
5DE
100
AcDbSymbolTableRecord
100
AcDbBlockTableRecord
  2
ZU_SYM__USERS_HOME_SYMBOL_POO_SYM_B20_0002118
340
0
102
{BLKREFS
331
5E9
102
}
  0
BLOCK_RECORD
  5
5EA
100
AcDbSymbolTableRecord
100
AcDbBlockTableRecord
  2
ZU_SYM__USERS_HOME_SYMBOL_POO_SYM_B20_0002218
340
0
102
{BLKREFS
331
5F5
102
}
  0
ENDTAB
  0
ENDSEC
  0
SECTION
  2
BLOCKS
  0
BLOCK
  5
D
100
AcDbEntity
  8
0
390
0
100
AcDbBlockBegin
  2
*MODEL_SPACE
 70
     0
 10
0.0
 20
0.0
 30
0.0
  3
*MODEL_SPACE
  1

  0
ENDBLK
  5
E
100
AcDbEntity
  8
0
390
0
100
AcDbBlockEnd
  0
BLOCK
  5
F
100
AcDbEntity
 67
     1
  8
0
390
0
100
AcDbBlockBegin
  2
*PAPER_SPACE
 70
     0
 10
0.0
 20
0.0
 30
0.0
  3
*PAPER_SPACE
  1

  0
ENDBLK
  5
10
100
AcDbEntity
 67
     1
  8
0
390
0
100
AcDbBlockEnd
  0
BLOCK
  5
99
100
AcDbEntity
  8
0
390
0
100
AcDbBlockBegin
  2
ZU_SYM__USERS_HOME_SYMBOL_POO_SYM_B20_18
 70
    64
 10
0.0
 20
0.0
 30
0.0
  3
ZU_SYM__USERS_HOME_SYMBOL_POO_SYM_B20_18
  1

  0
LINE
  5
9A
100
AcDbEntity
  8
0
370
    -3
390
0
  6
Continuous
100
AcDbLine
 10
-7.499999
 20
6.5
 30
0.0
 11
-7.499999
 21
-6.5
 31
0.0
  0
LINE
  5
9B
100
AcDbEntity
  8
0
370
    -3
390
0
  6
Continuous
100
AcDbLine
 10
-7.499998
 20
-6.499999
 30
0.0
 11
-7.999999
 21
-5.63407
 31
0.0
  0
LINE
  5
9C
100
AcDbEntity
  8
0
370
    -3
390
0
  6
Continuous
100
AcDbLine
 10
-7.499999
 20
6.5
 30
0.0
 11
-7.999999
 21
5.633876
 31
0.0
  0
LINE
  5
9D
100
AcDbEntity
  8
0
370
    -3
390
0
  6
Continuous
100
AcDbLine
 10
0.0
 20
-6.5
 30
0.0
 11
-7.499998
 21
-6.5
 31
0.0
  0
LINE
  5
9E
100
AcDbEntity
  8
0
370
    -3
390
0
  6
Continuous
100
AcDbLine
 10
0.0
 20
6.5
 30
0.0
 11
-7.499999
 21
6.5
 31
0.0
  0
LINE
  5
9F
100
AcDbEntity
  8
0
370
    -3
390
0
  6
Continuous
100
AcDbLine
 10
-7.999999
 20
5.633876
 30
0.0
 11
-7.999999
 21
-5.63407
 31
0.0
  0
LINE
  5
A0
100
AcDbEntity
  8
0
370
    -3
390
0
  6
Continuous
100
AcDbLine
 10
0.0
 20
-6.5
 30
0.0
 11
0.0
 21
6.5
 31
0.0
  0
POINT
  5
A1
100
AcDbEntity
  8
0
370
    -3
390
0
  6
Continuous
100
AcDbPoint
 10
0.0
 20
0.0
 30
0.0
  0
ENDBLK
  5
A2
100
AcDbEntity
  8
0
390
0
100
AcDbBlockEnd
  0
BLOCK
  5
A5
100
AcDbEntity
  8
0
390
0
100
AcDbBlockBegin
  2
ZU_SYM__USERS_HOME_SYMBOL_POO_SYM_B20_0000118
 70
    64
 10
0.0
 20
0.0
 30
0.0
  3
ZU_SYM__USERS_HOME_SYMBOL_POO_SYM_B20_0000118
  1

  0
LINE
  5
A6
100
AcDbEntity
  8
0
370
    -3
390
0
  6
Continuous
100
AcDbLine
 10
-7.499999
 20
6.5
 30
0.0
 11
-7.499999
 21
-6.5
 31
0.0
  0
LINE
  5
A7
100
AcDbEntity
  8
0
370
    -3
390
0
  6
Continuous
100
AcDbLine
 10
-7.499998
 20
-6.499999
 30
0.0
 11
-7.999999
 21
-5.63407
 31
0.0
  0
LINE
  5
A8
100
AcDbEntity
  8
0
370
    -3
390
0
  6
Continuous
100
AcDbLine
 10
-7.499999
 20
6.5
 30
0.0
 11
-7.999999
 21
5.633876
 31
0.0
  0
LINE
  5
A9
100
AcDbEntity
  8
0
370
    -3
390
0
  6
Continuous
100
AcDbLine
 10
0.0
 20
-6.5
 30
0.0
 11
-7.499998
 21
-6.5
 31
0.0
  0
LINE
  5
AA
100
AcDbEntity
  8
0
370
    -3
390
0
  6
Continuous
100
AcDbLine
 10
0.0
 20
6.5
 30
0.0
 11
-7.499999
 21
6.5
 31
0.0
  0
LINE
  5
AB
100
AcDbEntity
  8
0
370
    -3
390
0
  6
Continuous
100
AcDbLine
 10
-7.999999
 20
5.633876
 30
0.0
 11
-7.999999
 21
-5.63407
 31
0.0
  0
LINE
  5
AC
100
AcDbEntity
  8
0
370
    -3
390
0
  6
Continuous
100
AcDbLine
 10
0.0
 20
-6.5
 30
0.0
 11
0.0
 21
6.5
 31
0.0
  0
POINT
  5
AD
100
AcDbEntity
  8
0
370
    -3
390
0
  6
Continuous
100
AcDbPoint
 10
0.0
 20
0.0
 30
0.0
  0
ENDBLK
  5
AE
100
AcDbEntity
  8
0
390
0
100
AcDbBlockEnd
  0
BLOCK
  5
B1
100
AcDbEntity
  8
0
390
0
100
AcDbBlockBegin
  2
ZU_SYM__USERS_HOME_SYMBOL_POO_SYM_B20_0000218
 70
    64
 10
0.0
 20
0.0
 30
0.0
  3
ZU_SYM__USERS_HOME_SYMBOL_POO_SYM_B20_0000218
  1

  0
LINE
  5
B2
100
AcDbEntity
  8
0
370
    -3
390
0
  6
Continuous
100
AcDbLine
 10
-7.499999
 20
6.5
 30
0.0
 11
-7.499999
 21
-6.5
 31
0.0
  0
LINE
  5
B3
100
AcDbEntity
  8
0
370
    -3
390
0
  6
Continuous
100
AcDbLine
 10
-7.499998
 20
-6.499999
 30
0.0
 11
-7.999999
 21
-5.63407
 31
0.0
  0
LINE
  5
B4
100
AcDbEntity
  8
0
370
    -3
390
0
  6
Continuous
100
AcDbLine
 10
-7.499999
 20
6.5
 30
0.0
 11
-7.999999
 21
5.633876
 31
0.0
  0
LINE
  5
B5
100
AcDbEntity
  8
0
370
    -3
390
0
  6
Continuous
100
AcDbLine
 10
0.0
 20
-6.5
 30
0.0
 11
-7.499998
 21
-6.5
 31
0.0
  0
LINE
  5
B6
100
AcDbEntity
  8
0
370
    -3
390
0
  6
Continuous
100
AcDbLine
 10
0.0
 20
6.5
 30
0.0
 11
-7.499999
 21
6.5
 31
0.0
  0
LINE
  5
B7
100
AcDbEntity
  8
0
370
    -3
390
0
  6
Continuous
100
AcDbLine
 10
-7.999999
 20
5.633876
 30
0.0
 11
-7.999999
 21
-5.63407
 31
0.0
  0
LINE
  5
B8
100
AcDbEntity
  8
0
370
    -3
390
0
  6
Continuous
100
AcDbLine
 10
0.0
 20
-6.5
 30
0.0
 11
0.0
 21
6.5
 31
0.0
  0
POINT
  5
B9
100
AcDbEntity
  8
0
370
    -3
390
0
  6
Continuous
100
AcDbPoint
 10
0.0
 20
0.0
 30
0.0
  0
ENDBLK
  5
BA
100
AcDbEntity
  8
0
390
0
100
AcDbBlockEnd
  0
BLOCK
  5
BD
100
AcDbEntity
  8
0
390
0
100
AcDbBlockBegin
  2
ZU_SYM__USERS_HOME_SYMBOL_POO_SYM_B20_0000318
 70
    64
 10
0.0
 20
0.0
 30
0.0
  3
ZU_SYM__USERS_HOME_SYMBOL_POO_SYM_B20_0000318
  1

  0
LINE
  5
BE
100
AcDbEntity
  8
0
370
    -3
390
0
  6
Continuous
100
AcDbLine
 10
-7.499999
 20
6.5
 30
0.0
 11
-7.499999
 21
-6.5
 31
0.0
  0
LINE
  5
BF
100
AcDbEntity
  8
0
370
    -3
390
0
  6
Continuous
100
AcDbLine
 10
-7.499998
 20
-6.499999
 30
0.0
 11
-7.999999
 21
-5.63407
 31
0.0
  0
LINE
  5
C0
100
AcDbEntity
  8
0
370
    -3
390
0
  6
Continuous
100
AcDbLine
 10
-7.499999
 20
6.5
 30
0.0
 11
-7.999999
 21
5.633876
 31
0.0
  0
LINE
  5
C1
100
AcDbEntity
  8
0
370
    -3
390
0
  6
Continuous
100
AcDbLine
 10
0.0
 20
-6.5
 30
0.0
 11
-7.499998
 21
-6.5
 31
0.0
  0
LINE
  5
C2
100
AcDbEntity
  8
0
370
    -3
390
0
  6
Continuous
100
AcDbLine
 10
0.0
 20
6.5
 30
0.0
 11
-7.499999
 21
6.5
 31
0.0
  0
LINE
  5
C3
100
AcDbEntity
  8
0
370
    -3
390
0
  6
Continuous
100
AcDbLine
 10
-7.999999
 20
5.633876
 30
0.0
 11
-7.999999
 21
-5.63407
 31
0.0
  0
LINE
  5
C4
100
AcDbEntity
  8
0
370
    -3
390
0
  6
Continuous
100
AcDbLine
 10
0.0
 20
-6.5
 30
0.0
 11
0.0
 21
6.5
 31
0.0
  0
POINT
  5
C5
100
AcDbEntity
  8
0
370
    -3
390
0
  6
Continuous
100
AcDbPoint
 10
0.0
 20
0.0
 30
0.0
  0
ENDBLK
  5
C6
100
AcDbEntity
  8
0
390
0
100
AcDbBlockEnd
  0
BLOCK
  5
D4
100
AcDbEntity
  8
0
390
0
100
AcDbBlockBegin
  2
ZU_SYM__USERS_HOME_SYMBOL_POO_SYM_B20_0000418
 70
    64
 10
0.0
 20
0.0
 30
0.0
  3
ZU_SYM__USERS_HOME_SYMBOL_POO_SYM_B20_0000418
  1

  0
LINE
  5
D5
100
AcDbEntity
  8
0
370
    -3
390
0
  6
Continuous
100
AcDbLine
 10
-7.499999
 20
6.5
 30
0.0
 11
-7.499999
 21
-6.5
 31
0.0
  0
LINE
  5
D6
100
AcDbEntity
  8
0
370
    -3
390
0
  6
Continuous
100
AcDbLine
 10
-7.499998
 20
-6.499999
 30
0.0
 11
-7.999999
 21
-5.63407
 31
0.0
  0
LINE
  5
D7
100
AcDbEntity
  8
0
370
    -3
390
0
  6
Continuous
100
AcDbLine
 10
-7.499999
 20
6.5
 30
0.0
 11
-7.999999
 21
5.633876
 31
0.0
  0
LINE
  5
D8
100
AcDbEntity
  8
0
370
    -3
390
0
  6
Continuous
100
AcDbLine
 10
0.0
 20
-6.5
 30
0.0
 11
-7.499998
 21
-6.5
 31
0.0
  0
LINE
  5
D9
100
AcDbEntity
  8
0
370
    -3
390
0
  6
Continuous
100
AcDbLine
 10
0.0
 20
6.5
 30
0.0
 11
-7.499999
 21
6.5
 31
0.0
  0
LINE
  5
DA
100
AcDbEntity
  8
0
370
    -3
390
0
  6
Continuous
100
AcDbLine
 10
-7.999999
 20
5.633876
 30
0.0
 11
-7.999999
 21
-5.63407
 31
0.0
  0
LINE
  5
DB
100
AcDbEntity
  8
0
370
    -3
390
0
  6
Continuous
100
AcDbLine
 10
0.0
 20
-6.5
 30
0.0
 11
0.0
 21
6.5
 31
0.0
  0
POINT
  5
DC
100
AcDbEntity
  8
0
370
    -3
390
0
  6
Continuous
100
AcDbPoint
 10
0.0
 20
0.0
 30
0.0
  0
ENDBLK
  5
DD
100
AcDbEntity
  8
0
390
0
100
AcDbBlockEnd
  0
BLOCK
  5
F2
100
AcDbEntity
  8
0
390
0
100
AcDbBlockBegin
  2
ZU_SYM__USERS_HOME_SYMBOL_POO_SYM_B20_0000518
 70
    64
 10
0.0
 20
0.0
 30
0.0
  3
ZU_SYM__USERS_HOME_SYMBOL_POO_SYM_B20_0000518
  1

  0
LINE
  5
F3
100
AcDbEntity
  8
0
370
    -3
390
0
  6
Continuous
100
AcDbLine
 10
-7.499999
 20
6.5
 30
0.0
 11
-7.499999
 21
-6.5
 31
0.0
  0
LINE
  5
F4
100
AcDbEntity
  8
0
370
    -3
390
0
  6
Continuous
100
AcDbLine
 10
-7.499998
 20
-6.499999
 30
0.0
 11
-7.999999
 21
-5.63407
 31
0.0
  0
LINE
  5
F5
100
AcDbEntity
  8
0
370
    -3
390
0
  6
Continuous
100
AcDbLine
 10
-7.499999
 20
6.5
 30
0.0
 11
-7.999999
 21
5.633876
 31
0.0
  0
LINE
  5
F6
100
AcDbEntity
  8
0
370
    -3
390
0
  6
Continuous
100
AcDbLine
 10
0.0
 20
-6.5
 30
0.0
 11
-7.499998
 21
-6.5
 31
0.0
  0
LINE
  5
F7
100
AcDbEntity
  8
0
370
    -3
390
0
  6
Continuous
100
AcDbLine
 10
0.0
 20
6.5
 30
0.0
 11
-7.499999
 21
6.5
 31
0.0
  0
LINE
  5
F8
100
AcDbEntity
  8
0
370
    -3
390
0
  6
Continuous
100
AcDbLine
 10
-7.999999
 20
5.633876
 30
0.0
 11
-7.999999
 21
-5.63407
 31
0.0
  0
LINE
  5
F9
100
AcDbEntity
  8
0
370
    -3
390
0
  6
Continuous
100
AcDbLine
 10
0.0
 20
-6.5
 30
0.0
 11
0.0
 21
6.5
 31
0.0
  0
POINT
  5
FA
100
AcDbEntity
  8
0
370
    -3
390
0
  6
Continuous
100
AcDbPoint
 10
0.0
 20
0.0
 30
0.0
  0
ENDBLK
  5
FB
100
AcDbEntity
  8
0
390
0
100
AcDbBlockEnd
  0
BLOCK
  5
2BF
100
AcDbEntity
  8
0
390
0
100
AcDbBlockBegin
  2
ZU_SYM__USERS_HOME_SYMBOL_STD_SYM_B02_48
 70
    64
 10
0.0
 20
0.0
 30
0.0
  3
ZU_SYM__USERS_HOME_SYMBOL_STD_SYM_B02_48
  1

  0
POINT
  5
2C0
100
AcDbEntity
  8
0
370
    -3
390
0
  6
Continuous
100
AcDbPoint
 10
0.0
 20
0.0
 30
0.0
  0
LINE
  5
2C1
100
AcDbEntity
  8
0
370
    -3
390
0
  6
Continuous
100
AcDbLine
 10
-0.00003
 20
-7.499999
 30
0.0
 11
-4.750026
 21
-7.499979
 31
0.0
  0
LINE
  5
2C2
100
AcDbEntity
  8
0
370
    -3
390
0
  6
Continuous
100
AcDbLine
 10
-4.750049
 20
-7.499994
 30
0.0
 11
-5.500046
 21
-6.29999
 31
0.0
  0
LINE
  5
2C3
100
AcDbEntity
  8
0
370
    -3
390
0
  6
Continuous
100
AcDbLine
 10
-5.500023
 20
-6.299976
 30
0.0
 11
-5.499971
 21
6.300019
 31
0.0
  0
LINE
  5
2C4
100
AcDbEntity
  8
0
370
    -3
390
0
  6
Continuous
100
AcDbLine
 10
-5.499983
 20
6.300025
 30
0.0
 11
-4.749977
 21
7.500023
 31
0.0
  0
LINE
  5
2C5
100
AcDbEntity
  8
0
370
    -3
390
0
  6
Continuous
100
AcDbLine
 10
-4.749965
 20
7.500017
 30
0.0
 11
0.000031
 21
7.499999
 31
0.0
  0
LINE
  5
2C6
100
AcDbEntity
  8
0
370
    -3
390
0
  6
Continuous
100
AcDbLine
 10
0.000031
 20
7.5
 30
0.0
 11
-0.000031
 21
-7.5
 31
0.0
  0
LINE
  5
2C7
100
AcDbEntity
  8
0
370
    -3
390
0
  6
Continuous
100
AcDbLine
 10
-4.750012
 20
-3.749974
 30
0.0
 11
-0.000012
 21
-3.749994
 31
0.0
  0
LINE
  5
2C8
100
AcDbEntity
  8
0
370
    -3
390
0
  6
Continuous
100
AcDbLine
 10
-4.749979
 20
3.750014
 30
0.0
 11
0.000018
 21
3.749996
 31
0.0
  0
ARC
  5
2C9
100
AcDbEntity
  8
0
370
    -3
390
0
  6
Continuous
100
AcDbCircle
 10
-2.780023
 20
-5.624989
 30
0.0
 40
2.72
100
AcDbArc
 50
136.399752
 51
179.999745
  0
ARC
  5
2CA
100
AcDbEntity
  8
0
370
    -3
390
0
  6
Continuous
100
AcDbCircle
 10
-2.779976
 20
5.625011
 30
0.0
 40
2.72
100
AcDbArc
 50
179.999745
 51
223.599739
  0
ARC
  5
2CB
100
AcDbEntity
  8
0
370
    -3
390
0
  6
Continuous
100
AcDbCircle
 10
4.25
 20
-0.000018
 30
0.0
 40
9.75
100
AcDbArc
 50
157.379853
 51
202.619583
  0
ENDBLK
  5
2CC
100
AcDbEntity
  8
0
390
0
100
AcDbBlockEnd
  0
BLOCK
  5
2CF
100
AcDbEntity
  8
0
390
0
100
AcDbBlockBegin
  2
ZU_SYM__USERS_HOME_SYMBOL_STD_SYM_B02_0000648
 70
    64
 10
0.0
 20
0.0
 30
0.0
  3
ZU_SYM__USERS_HOME_SYMBOL_STD_SYM_B02_0000648
  1

  0
POINT
  5
2D0
100
AcDbEntity
  8
0
370
    -3
390
0
  6
Continuous
100
AcDbPoint
 10
0.0
 20
0.0
 30
0.0
  0
LINE
  5
2D1
100
AcDbEntity
  8
0
370
    -3
390
0
  6
Continuous
100
AcDbLine
 10
-0.00003
 20
-7.499999
 30
0.0
 11
-4.750026
 21
-7.499979
 31
0.0
  0
LINE
  5
2D2
100
AcDbEntity
  8
0
370
    -3
390
0
  6
Continuous
100
AcDbLine
 10
-4.750049
 20
-7.499994
 30
0.0
 11
-5.500046
 21
-6.29999
 31
0.0
  0
LINE
  5
2D3
100
AcDbEntity
  8
0
370
    -3
390
0
  6
Continuous
100
AcDbLine
 10
-5.500023
 20
-6.299976
 30
0.0
 11
-5.499971
 21
6.300019
 31
0.0
  0
LINE
  5
2D4
100
AcDbEntity
  8
0
370
    -3
390
0
  6
Continuous
100
AcDbLine
 10
-5.499983
 20
6.300025
 30
0.0
 11
-4.749977
 21
7.500023
 31
0.0
  0
LINE
  5
2D5
100
AcDbEntity
  8
0
370
    -3
390
0
  6
Continuous
100
AcDbLine
 10
-4.749965
 20
7.500017
 30
0.0
 11
0.000031
 21
7.499999
 31
0.0
  0
LINE
  5
2D6
100
AcDbEntity
  8
0
370
    -3
390
0
  6
Continuous
100
AcDbLine
 10
0.000031
 20
7.5
 30
0.0
 11
-0.000031
 21
-7.5
 31
0.0
  0
LINE
  5
2D7
100
AcDbEntity
  8
0
370
    -3
390
0
  6
Continuous
100
AcDbLine
 10
-4.750012
 20
-3.749974
 30
0.0
 11
-0.000012
 21
-3.749994
 31
0.0
  0
LINE
  5
2D8
100
AcDbEntity
  8
0
370
    -3
390
0
  6
Continuous
100
AcDbLine
 10
-4.749979
 20
3.750014
 30
0.0
 11
0.000018
 21
3.749996
 31
0.0
  0
ARC
  5
2D9
100
AcDbEntity
  8
0
370
    -3
390
0
  6
Continuous
100
AcDbCircle
 10
-2.780023
 20
-5.624989
 30
0.0
 40
2.72
100
AcDbArc
 50
136.399752
 51
179.999745
  0
ARC
  5
2DA
100
AcDbEntity
  8
0
370
    -3
390
0
  6
Continuous
100
AcDbCircle
 10
-2.779976
 20
5.625011
 30
0.0
 40
2.72
100
AcDbArc
 50
179.999745
 51
223.599739
  0
ARC
  5
2DB
100
AcDbEntity
  8
0
370
    -3
390
0
  6
Continuous
100
AcDbCircle
 10
4.25
 20
-0.000018
 30
0.0
 40
9.75
100
AcDbArc
 50
157.379853
 51
202.619583
  0
ENDBLK
  5
2DC
100
AcDbEntity
  8
0
390
0
100
AcDbBlockEnd
  0
BLOCK
  5
2FD
100
AcDbEntity
  8
0
390
0
100
AcDbBlockBegin
  2
ZU_SYM__USERS_HOME_SYMBOL_POO_SYM_B20_0000718
 70
    64
 10
0.0
 20
0.0
 30
0.0
  3
ZU_SYM__USERS_HOME_SYMBOL_POO_SYM_B20_0000718
  1

  0
LINE
  5
2FE
100
AcDbEntity
  8
0
370
    -3
390
0
  6
Continuous
100
AcDbLine
 10
-7.499999
 20
6.5
 30
0.0
 11
-7.499999
 21
-6.5
 31
0.0
  0
LINE
  5
2FF
100
AcDbEntity
  8
0
370
    -3
390
0
  6
Continuous
100
AcDbLine
 10
-7.499998
 20
-6.499999
 30
0.0
 11
-7.999999
 21
-5.63407
 31
0.0
  0
LINE
  5
300
100
AcDbEntity
  8
0
370
    -3
390
0
  6
Continuous
100
AcDbLine
 10
-7.499999
 20
6.5
 30
0.0
 11
-7.999999
 21
5.633876
 31
0.0
  0
LINE
  5
301
100
AcDbEntity
  8
0
370
    -3
390
0
  6
Continuous
100
AcDbLine
 10
0.0
 20
-6.5
 30
0.0
 11
-7.499998
 21
-6.5
 31
0.0
  0
LINE
  5
302
100
AcDbEntity
  8
0
370
    -3
390
0
  6
Continuous
100
AcDbLine
 10
0.0
 20
6.5
 30
0.0
 11
-7.499999
 21
6.5
 31
0.0
  0
LINE
  5
303
100
AcDbEntity
  8
0
370
    -3
390
0
  6
Continuous
100
AcDbLine
 10
-7.999999
 20
5.633876
 30
0.0
 11
-7.999999
 21
-5.63407
 31
0.0
  0
LINE
  5
304
100
AcDbEntity
  8
0
370
    -3
390
0
  6
Continuous
100
AcDbLine
 10
0.0
 20
-6.5
 30
0.0
 11
0.0
 21
6.5
 31
0.0
  0
POINT
  5
305
100
AcDbEntity
  8
0
370
    -3
390
0
  6
Continuous
100
AcDbPoint
 10
0.0
 20
0.0
 30
0.0
  0
ENDBLK
  5
306
100
AcDbEntity
  8
0
390
0
100
AcDbBlockEnd
  0
BLOCK
  5
309
100
AcDbEntity
  8
0
390
0
100
AcDbBlockBegin
  2
ZU_SYM__USERS_HOME_SYMBOL_POO_SYM_B20_0000818
 70
    64
 10
0.0
 20
0.0
 30
0.0
  3
ZU_SYM__USERS_HOME_SYMBOL_POO_SYM_B20_0000818
  1

  0
LINE
  5
30A
100
AcDbEntity
  8
0
370
    -3
390
0
  6
Continuous
100
AcDbLine
 10
-7.499999
 20
6.5
 30
0.0
 11
-7.499999
 21
-6.5
 31
0.0
  0
LINE
  5
30B
100
AcDbEntity
  8
0
370
    -3
390
0
  6
Continuous
100
AcDbLine
 10
-7.499998
 20
-6.499999
 30
0.0
 11
-7.999999
 21
-5.63407
 31
0.0
  0
LINE
  5
30C
100
AcDbEntity
  8
0
370
    -3
390
0
  6
Continuous
100
AcDbLine
 10
-7.499999
 20
6.5
 30
0.0
 11
-7.999999
 21
5.633876
 31
0.0
  0
LINE
  5
30D
100
AcDbEntity
  8
0
370
    -3
390
0
  6
Continuous
100
AcDbLine
 10
0.0
 20
-6.5
 30
0.0
 11
-7.499998
 21
-6.5
 31
0.0
  0
LINE
  5
30E
100
AcDbEntity
  8
0
370
    -3
390
0
  6
Continuous
100
AcDbLine
 10
0.0
 20
6.5
 30
0.0
 11
-7.499999
 21
6.5
 31
0.0
  0
LINE
  5
30F
100
AcDbEntity
  8
0
370
    -3
390
0
  6
Continuous
100
AcDbLine
 10
-7.999999
 20
5.633876
 30
0.0
 11
-7.999999
 21
-5.63407
 31
0.0
  0
LINE
  5
310
100
AcDbEntity
  8
0
370
    -3
390
0
  6
Continuous
100
AcDbLine
 10
0.0
 20
-6.5
 30
0.0
 11
0.0
 21
6.5
 31
0.0
  0
POINT
  5
311
100
AcDbEntity
  8
0
370
    -3
390
0
  6
Continuous
100
AcDbPoint
 10
0.0
 20
0.0
 30
0.0
  0
ENDBLK
  5
312
100
AcDbEntity
  8
0
390
0
100
AcDbBlockEnd
  0
BLOCK
  5
33B
100
AcDbEntity
  8
0
390
0
100
AcDbBlockBegin
  2
ZU_SYM__USERS_HOME_SYMBOL_STD_SYM_B02_73
 70
    64
 10
0.0
 20
0.0
 30
0.0
  3
ZU_SYM__USERS_HOME_SYMBOL_STD_SYM_B02_73
  1

  0
CIRCLE
  5
33C
100
AcDbEntity
  8
0
370
    -3
390
0
  6
Continuous
100
AcDbCircle
 10
0.0
 20
0.0
 30
0.0
 40
6.5
  0
LINE
  5
33D
100
AcDbEntity
  8
0
370
    -3
390
0
  6
Continuous
100
AcDbLine
 10
6.497594
 20
-3.754168
 30
0.0
 11
0.002401
 21
-7.504164
 31
0.0
  0
LINE
  5
33E
100
AcDbEntity
  8
0
370
    -3
390
0
  6
Continuous
100
AcDbLine
 10
6.495189
 20
3.749994
 30
0.0
 11
6.497592
 21
-3.754165
 31
0.0
  0
LINE
  5
33F
100
AcDbEntity
  8
0
370
    -3
390
0
  6
Continuous
100
AcDbLine
 10
-0.002401
 20
7.504163
 30
0.0
 11
6.495188
 21
3.749995
 31
0.0
  0
LINE
  5
340
100
AcDbEntity
  8
0
370
    -3
390
0
  6
Continuous
100
AcDbLine
 10
-6.497594
 20
3.754168
 30
0.0
 11
-0.002401
 21
7.504164
 31
0.0
  0
LINE
  5
341
100
AcDbEntity
  8
0
370
    -3
390
0
  6
Continuous
100
AcDbLine
 10
-6.495189
 20
-3.749994
 30
0.0
 11
-6.497592
 21
3.754165
 31
0.0
  0
LINE
  5
342
100
AcDbEntity
  8
0
370
    -3
390
0
  6
Continuous
100
AcDbLine
 10
0.002401
 20
-7.504163
 30
0.0
 11
-6.495188
 21
-3.749995
 31
0.0
  0
POINT
  5
343
100
AcDbEntity
  8
0
370
    -3
390
0
  6
Continuous
100
AcDbPoint
 10
0.0
 20
0.0
 30
0.0
  0
ENDBLK
  5
344
100
AcDbEntity
  8
0
390
0
100
AcDbBlockEnd
  0
BLOCK
  5
347
100
AcDbEntity
  8
0
390
0
100
AcDbBlockBegin
  2
ZU_SYM__USERS_HOME_SYMBOL_STD_SYM_B02_0000973
 70
    64
 10
0.0
 20
0.0
 30
0.0
  3
ZU_SYM__USERS_HOME_SYMBOL_STD_SYM_B02_0000973
  1

  0
CIRCLE
  5
348
100
AcDbEntity
  8
0
370
    -3
390
0
  6
Continuous
100
AcDbCircle
 10
0.0
 20
0.0
 30
0.0
 40
6.5
  0
LINE
  5
349
100
AcDbEntity
  8
0
370
    -3
390
0
  6
Continuous
100
AcDbLine
 10
6.497594
 20
-3.754168
 30
0.0
 11
0.002401
 21
-7.504164
 31
0.0
  0
LINE
  5
34A
100
AcDbEntity
  8
0
370
    -3
390
0
  6
Continuous
100
AcDbLine
 10
6.495189
 20
3.749994
 30
0.0
 11
6.497592
 21
-3.754165
 31
0.0
  0
LINE
  5
34B
100
AcDbEntity
  8
0
370
    -3
390
0
  6
Continuous
100
AcDbLine
 10
-0.002401
 20
7.504163
 30
0.0
 11
6.495188
 21
3.749995
 31
0.0
  0
LINE
  5
34C
100
AcDbEntity
  8
0
370
    -3
390
0
  6
Continuous
100
AcDbLine
 10
-6.497594
 20
3.754168
 30
0.0
 11
-0.002401
 21
7.504164
 31
0.0
  0
LINE
  5
34D
100
AcDbEntity
  8
0
370
    -3
390
0
  6
Continuous
100
AcDbLine
 10
-6.495189
 20
-3.749994
 30
0.0
 11
-6.497592
 21
3.754165
 31
0.0
  0
LINE
  5
34E
100
AcDbEntity
  8
0
370
    -3
390
0
  6
Continuous
100
AcDbLine
 10
0.002401
 20
-7.504163
 30
0.0
 11
-6.495188
 21
-3.749995
 31
0.0
  0
POINT
  5
34F
100
AcDbEntity
  8
0
370
    -3
390
0
  6
Continuous
100
AcDbPoint
 10
0.0
 20
0.0
 30
0.0
  0
ENDBLK
  5
350
100
AcDbEntity
  8
0
390
0
100
AcDbBlockEnd
  0
BLOCK
  5
39B
100
AcDbEntity
  8
0
390
0
100
AcDbBlockBegin
  2
ZU_SYM__USERS_HOME_SYMBOL_POO_SYM_B20_05
 70
    64
 10
0.0
 20
0.0
 30
0.0
  3
ZU_SYM__USERS_HOME_SYMBOL_POO_SYM_B20_05
  1

  0
LINE
  5
39C
100
AcDbEntity
  8
0
370
    -3
390
0
  6
Continuous
100
AcDbLine
 10
-0.000005
 20
-3.464098
 30
0.0
 11
-2.999998
 21
-1.732046
 31
0.0
  0
LINE
  5
39D
100
AcDbEntity
  8
0
370
    -3
390
0
  6
Continuous
100
AcDbLine
 10
0.000007
 20
3.464097
 30
0.0
 11
2.999997
 21
1.732047
 31
0.0
  0
LINE
  5
39E
100
AcDbEntity
  8
0
370
    -3
390
0
  6
Continuous
100
AcDbLine
 10
2.999998
 20
-1.732051
 30
0.0
 11
-0.000004
 21
-3.464098
 31
0.0
  0
LINE
  5
39F
100
AcDbEntity
  8
0
370
    -3
390
0
  6
Continuous
100
AcDbLine
 10
0.000007
 20
3.464097
 30
0.0
 11
-2.999998
 21
1.732052
 31
0.0
  0
LINE
  5
3A0
100
AcDbEntity
  8
0
370
    -3
390
0
  6
Continuous
100
AcDbLine
 10
2.999997
 20
1.732047
 30
0.0
 11
2.999998
 21
-1.732051
 31
0.0
  0
LINE
  5
3A1
100
AcDbEntity
  8
0
370
    -3
390
0
  6
Continuous
100
AcDbLine
 10
-2.999997
 20
-1.732046
 30
0.0
 11
-2.999998
 21
1.732052
 31
0.0
  0
POINT
  5
3A2
100
AcDbEntity
  8
0
370
    -3
390
0
  6
Continuous
100
AcDbPoint
 10
0.0
 20
0.0
 30
0.0
  0
CIRCLE
  5
3A3
100
AcDbEntity
  8
0
370
    -3
390
0
  6
Continuous
100
AcDbCircle
 10
0.0
 20
0.0
 30
0.0
 40
6.5
  0
CIRCLE
  5
3A4
100
AcDbEntity
  8
0
370
    -3
390
0
  6
Continuous
100
AcDbCircle
 10
0.0
 20
0.0
 30
0.0
 40
5.633955
  0
ENDBLK
  5
3A5
100
AcDbEntity
  8
0
390
0
100
AcDbBlockEnd
  0
BLOCK
  5
3A8
100
AcDbEntity
  8
0
390
0
100
AcDbBlockBegin
  2
ZU_SYM__USERS_HOME_SYMBOL_POO_SYM_B20_0001005
 70
    64
 10
0.0
 20
0.0
 30
0.0
  3
ZU_SYM__USERS_HOME_SYMBOL_POO_SYM_B20_0001005
  1

  0
LINE
  5
3A9
100
AcDbEntity
  8
0
370
    -3
390
0
  6
Continuous
100
AcDbLine
 10
-0.000005
 20
-3.464098
 30
0.0
 11
-2.999998
 21
-1.732046
 31
0.0
  0
LINE
  5
3AA
100
AcDbEntity
  8
0
370
    -3
390
0
  6
Continuous
100
AcDbLine
 10
0.000007
 20
3.464097
 30
0.0
 11
2.999997
 21
1.732047
 31
0.0
  0
LINE
  5
3AB
100
AcDbEntity
  8
0
370
    -3
390
0
  6
Continuous
100
AcDbLine
 10
2.999998
 20
-1.732051
 30
0.0
 11
-0.000004
 21
-3.464098
 31
0.0
  0
LINE
  5
3AC
100
AcDbEntity
  8
0
370
    -3
390
0
  6
Continuous
100
AcDbLine
 10
0.000007
 20
3.464097
 30
0.0
 11
-2.999998
 21
1.732052
 31
0.0
  0
LINE
  5
3AD
100
AcDbEntity
  8
0
370
    -3
390
0
  6
Continuous
100
AcDbLine
 10
2.999997
 20
1.732047
 30
0.0
 11
2.999998
 21
-1.732051
 31
0.0
  0
LINE
  5
3AE
100
AcDbEntity
  8
0
370
    -3
390
0
  6
Continuous
100
AcDbLine
 10
-2.999997
 20
-1.732046
 30
0.0
 11
-2.999998
 21
1.732052
 31
0.0
  0
POINT
  5
3AF
100
AcDbEntity
  8
0
370
    -3
390
0
  6
Continuous
100
AcDbPoint
 10
0.0
 20
0.0
 30
0.0
  0
CIRCLE
  5
3B0
100
AcDbEntity
  8
0
370
    -3
390
0
  6
Continuous
100
AcDbCircle
 10
0.0
 20
0.0
 30
0.0
 40
6.5
  0
CIRCLE
  5
3B1
100
AcDbEntity
  8
0
370
    -3
390
0
  6
Continuous
100
AcDbCircle
 10
0.0
 20
0.0
 30
0.0
 40
5.633955
  0
ENDBLK
  5
3B2
100
AcDbEntity
  8
0
390
0
100
AcDbBlockEnd
  0
BLOCK
  5
3B5
100
AcDbEntity
  8
0
390
0
100
AcDbBlockBegin
  2
ZU_SYM__USERS_HOME_SYMBOL_POO_SYM_B20_0001105
 70
    64
 10
0.0
 20
0.0
 30
0.0
  3
ZU_SYM__USERS_HOME_SYMBOL_POO_SYM_B20_0001105
  1

  0
LINE
  5
3B6
100
AcDbEntity
  8
0
370
    -3
390
0
  6
Continuous
100
AcDbLine
 10
-0.000005
 20
-3.464098
 30
0.0
 11
-2.999998
 21
-1.732046
 31
0.0
  0
LINE
  5
3B7
100
AcDbEntity
  8
0
370
    -3
390
0
  6
Continuous
100
AcDbLine
 10
0.000007
 20
3.464097
 30
0.0
 11
2.999997
 21
1.732047
 31
0.0
  0
LINE
  5
3B8
100
AcDbEntity
  8
0
370
    -3
390
0
  6
Continuous
100
AcDbLine
 10
2.999998
 20
-1.732051
 30
0.0
 11
-0.000004
 21
-3.464098
 31
0.0
  0
LINE
  5
3B9
100
AcDbEntity
  8
0
370
    -3
390
0
  6
Continuous
100
AcDbLine
 10
0.000007
 20
3.464097
 30
0.0
 11
-2.999998
 21
1.732052
 31
0.0
  0
LINE
  5
3BA
100
AcDbEntity
  8
0
370
    -3
390
0
  6
Continuous
100
AcDbLine
 10
2.999997
 20
1.732047
 30
0.0
 11
2.999998
 21
-1.732051
 31
0.0
  0
LINE
  5
3BB
100
AcDbEntity
  8
0
370
    -3
390
0
  6
Continuous
100
AcDbLine
 10
-2.999997
 20
-1.732046
 30
0.0
 11
-2.999998
 21
1.732052
 31
0.0
  0
POINT
  5
3BC
100
AcDbEntity
  8
0
370
    -3
390
0
  6
Continuous
100
AcDbPoint
 10
0.0
 20
0.0
 30
0.0
  0
CIRCLE
  5
3BD
100
AcDbEntity
  8
0
370
    -3
390
0
  6
Continuous
100
AcDbCircle
 10
0.0
 20
0.0
 30
0.0
 40
6.5
  0
CIRCLE
  5
3BE
100
AcDbEntity
  8
0
370
    -3
390
0
  6
Continuous
100
AcDbCircle
 10
0.0
 20
0.0
 30
0.0
 40
5.633955
  0
ENDBLK
  5
3BF
100
AcDbEntity
  8
0
390
0
100
AcDbBlockEnd
  0
BLOCK
  5
3C2
100
AcDbEntity
  8
0
390
0
100
AcDbBlockBegin
  2
ZU_SYM__USERS_HOME_SYMBOL_POO_SYM_B20_0001205
 70
    64
 10
0.0
 20
0.0
 30
0.0
  3
ZU_SYM__USERS_HOME_SYMBOL_POO_SYM_B20_0001205
  1

  0
LINE
  5
3C3
100
AcDbEntity
  8
0
370
    -3
390
0
  6
Continuous
100
AcDbLine
 10
-0.000005
 20
-3.464098
 30
0.0
 11
-2.999998
 21
-1.732046
 31
0.0
  0
LINE
  5
3C4
100
AcDbEntity
  8
0
370
    -3
390
0
  6
Continuous
100
AcDbLine
 10
0.000007
 20
3.464097
 30
0.0
 11
2.999997
 21
1.732047
 31
0.0
  0
LINE
  5
3C5
100
AcDbEntity
  8
0
370
    -3
390
0
  6
Continuous
100
AcDbLine
 10
2.999998
 20
-1.732051
 30
0.0
 11
-0.000004
 21
-3.464098
 31
0.0
  0
LINE
  5
3C6
100
AcDbEntity
  8
0
370
    -3
390
0
  6
Continuous
100
AcDbLine
 10
0.000007
 20
3.464097
 30
0.0
 11
-2.999998
 21
1.732052
 31
0.0
  0
LINE
  5
3C7
100
AcDbEntity
  8
0
370
    -3
390
0
  6
Continuous
100
AcDbLine
 10
2.999997
 20
1.732047
 30
0.0
 11
2.999998
 21
-1.732051
 31
0.0
  0
LINE
  5
3C8
100
AcDbEntity
  8
0
370
    -3
390
0
  6
Continuous
100
AcDbLine
 10
-2.999997
 20
-1.732046
 30
0.0
 11
-2.999998
 21
1.732052
 31
0.0
  0
POINT
  5
3C9
100
AcDbEntity
  8
0
370
    -3
390
0
  6
Continuous
100
AcDbPoint
 10
0.0
 20
0.0
 30
0.0
  0
CIRCLE
  5
3CA
100
AcDbEntity
  8
0
370
    -3
390
0
  6
Continuous
100
AcDbCircle
 10
0.0
 20
0.0
 30
0.0
 40
6.5
  0
CIRCLE
  5
3CB
100
AcDbEntity
  8
0
370
    -3
390
0
  6
Continuous
100
AcDbCircle
 10
0.0
 20
0.0
 30
0.0
 40
5.633955
  0
ENDBLK
  5
3CC
100
AcDbEntity
  8
0
390
0
100
AcDbBlockEnd
  0
BLOCK
  5
3CF
100
AcDbEntity
  8
0
390
0
100
AcDbBlockBegin
  2
ZU_SYM__USERS_HOME_SYMBOL_POO_SYM_B20_0001305
 70
    64
 10
0.0
 20
0.0
 30
0.0
  3
ZU_SYM__USERS_HOME_SYMBOL_POO_SYM_B20_0001305
  1

  0
LINE
  5
3D0
100
AcDbEntity
  8
0
370
    -3
390
0
  6
Continuous
100
AcDbLine
 10
-0.000005
 20
-3.464098
 30
0.0
 11
-2.999998
 21
-1.732046
 31
0.0
  0
LINE
  5
3D1
100
AcDbEntity
  8
0
370
    -3
390
0
  6
Continuous
100
AcDbLine
 10
0.000007
 20
3.464097
 30
0.0
 11
2.999997
 21
1.732047
 31
0.0
  0
LINE
  5
3D2
100
AcDbEntity
  8
0
370
    -3
390
0
  6
Continuous
100
AcDbLine
 10
2.999998
 20
-1.732051
 30
0.0
 11
-0.000004
 21
-3.464098
 31
0.0
  0
LINE
  5
3D3
100
AcDbEntity
  8
0
370
    -3
390
0
  6
Continuous
100
AcDbLine
 10
0.000007
 20
3.464097
 30
0.0
 11
-2.999998
 21
1.732052
 31
0.0
  0
LINE
  5
3D4
100
AcDbEntity
  8
0
370
    -3
390
0
  6
Continuous
100
AcDbLine
 10
2.999997
 20
1.732047
 30
0.0
 11
2.999998
 21
-1.732051
 31
0.0
  0
LINE
  5
3D5
100
AcDbEntity
  8
0
370
    -3
390
0
  6
Continuous
100
AcDbLine
 10
-2.999997
 20
-1.732046
 30
0.0
 11
-2.999998
 21
1.732052
 31
0.0
  0
POINT
  5
3D6
100
AcDbEntity
  8
0
370
    -3
390
0
  6
Continuous
100
AcDbPoint
 10
0.0
 20
0.0
 30
0.0
  0
CIRCLE
  5
3D7
100
AcDbEntity
  8
0
370
    -3
390
0
  6
Continuous
100
AcDbCircle
 10
0.0
 20
0.0
 30
0.0
 40
6.5
  0
CIRCLE
  5
3D8
100
AcDbEntity
  8
0
370
    -3
390
0
  6
Continuous
100
AcDbCircle
 10
0.0
 20
0.0
 30
0.0
 40
5.633955
  0
ENDBLK
  5
3D9
100
AcDbEntity
  8
0
390
0
100
AcDbBlockEnd
  0
BLOCK
  5
3DD
100
AcDbEntity
  8
0
390
0
100
AcDbBlockBegin
  2
ZU_SYM__USERS_HOME_SYMBOL_POO_SYM_B20_0001405
 70
    64
 10
0.0
 20
0.0
 30
0.0
  3
ZU_SYM__USERS_HOME_SYMBOL_POO_SYM_B20_0001405
  1

  0
LINE
  5
3DE
100
AcDbEntity
  8
0
370
    -3
390
0
  6
Continuous
100
AcDbLine
 10
-0.000005
 20
-3.464098
 30
0.0
 11
-2.999998
 21
-1.732046
 31
0.0
  0
LINE
  5
3DF
100
AcDbEntity
  8
0
370
    -3
390
0
  6
Continuous
100
AcDbLine
 10
0.000007
 20
3.464097
 30
0.0
 11
2.999997
 21
1.732047
 31
0.0
  0
LINE
  5
3E0
100
AcDbEntity
  8
0
370
    -3
390
0
  6
Continuous
100
AcDbLine
 10
2.999998
 20
-1.732051
 30
0.0
 11
-0.000004
 21
-3.464098
 31
0.0
  0
LINE
  5
3E1
100
AcDbEntity
  8
0
370
    -3
390
0
  6
Continuous
100
AcDbLine
 10
0.000007
 20
3.464097
 30
0.0
 11
-2.999998
 21
1.732052
 31
0.0
  0
LINE
  5
3E2
100
AcDbEntity
  8
0
370
    -3
390
0
  6
Continuous
100
AcDbLine
 10
2.999997
 20
1.732047
 30
0.0
 11
2.999998
 21
-1.732051
 31
0.0
  0
LINE
  5
3E3
100
AcDbEntity
  8
0
370
    -3
390
0
  6
Continuous
100
AcDbLine
 10
-2.999997
 20
-1.732046
 30
0.0
 11
-2.999998
 21
1.732052
 31
0.0
  0
POINT
  5
3E4
100
AcDbEntity
  8
0
370
    -3
390
0
  6
Continuous
100
AcDbPoint
 10
0.0
 20
0.0
 30
0.0
  0
CIRCLE
  5
3E5
100
AcDbEntity
  8
0
370
    -3
390
0
  6
Continuous
100
AcDbCircle
 10
0.0
 20
0.0
 30
0.0
 40
6.5
  0
CIRCLE
  5
3E6
100
AcDbEntity
  8
0
370
    -3
390
0
  6
Continuous
100
AcDbCircle
 10
0.0
 20
0.0
 30
0.0
 40
5.633955
  0
ENDBLK
  5
3E7
100
AcDbEntity
  8
0
390
0
100
AcDbBlockEnd
  0
BLOCK
  5
3EA
100
AcDbEntity
  8
0
390
0
100
AcDbBlockBegin
  2
ZU_SYM__USERS_HOME_SYMBOL_POO_SYM_B20_0001505
 70
    64
 10
0.0
 20
0.0
 30
0.0
  3
ZU_SYM__USERS_HOME_SYMBOL_POO_SYM_B20_0001505
  1

  0
LINE
  5
3EB
100
AcDbEntity
  8
0
370
    -3
390
0
  6
Continuous
100
AcDbLine
 10
-0.000005
 20
-3.464098
 30
0.0
 11
-2.999998
 21
-1.732046
 31
0.0
  0
LINE
  5
3EC
100
AcDbEntity
  8
0
370
    -3
390
0
  6
Continuous
100
AcDbLine
 10
0.000007
 20
3.464097
 30
0.0
 11
2.999997
 21
1.732047
 31
0.0
  0
LINE
  5
3ED
100
AcDbEntity
  8
0
370
    -3
390
0
  6
Continuous
100
AcDbLine
 10
2.999998
 20
-1.732051
 30
0.0
 11
-0.000004
 21
-3.464098
 31
0.0
  0
LINE
  5
3EE
100
AcDbEntity
  8
0
370
    -3
390
0
  6
Continuous
100
AcDbLine
 10
0.000007
 20
3.464097
 30
0.0
 11
-2.999998
 21
1.732052
 31
0.0
  0
LINE
  5
3EF
100
AcDbEntity
  8
0
370
    -3
390
0
  6
Continuous
100
AcDbLine
 10
2.999997
 20
1.732047
 30
0.0
 11
2.999998
 21
-1.732051
 31
0.0
  0
LINE
  5
3F0
100
AcDbEntity
  8
0
370
    -3
390
0
  6
Continuous
100
AcDbLine
 10
-2.999997
 20
-1.732046
 30
0.0
 11
-2.999998
 21
1.732052
 31
0.0
  0
POINT
  5
3F1
100
AcDbEntity
  8
0
370
    -3
390
0
  6
Continuous
100
AcDbPoint
 10
0.0
 20
0.0
 30
0.0
  0
CIRCLE
  5
3F2
100
AcDbEntity
  8
0
370
    -3
390
0
  6
Continuous
100
AcDbCircle
 10
0.0
 20
0.0
 30
0.0
 40
6.5
  0
CIRCLE
  5
3F3
100
AcDbEntity
  8
0
370
    -3
390
0
  6
Continuous
100
AcDbCircle
 10
0.0
 20
0.0
 30
0.0
 40
5.633955
  0
ENDBLK
  5
3F4
100
AcDbEntity
  8
0
390
0
100
AcDbBlockEnd
  0
BLOCK
  5
3F7
100
AcDbEntity
  8
0
390
0
100
AcDbBlockBegin
  2
ZU_SYM__USERS_HOME_SYMBOL_POO_SYM_B20_0001605
 70
    64
 10
0.0
 20
0.0
 30
0.0
  3
ZU_SYM__USERS_HOME_SYMBOL_POO_SYM_B20_0001605
  1

  0
LINE
  5
3F8
100
AcDbEntity
  8
0
370
    -3
390
0
  6
Continuous
100
AcDbLine
 10
-0.000005
 20
-3.464098
 30
0.0
 11
-2.999998
 21
-1.732046
 31
0.0
  0
LINE
  5
3F9
100
AcDbEntity
  8
0
370
    -3
390
0
  6
Continuous
100
AcDbLine
 10
0.000007
 20
3.464097
 30
0.0
 11
2.999997
 21
1.732047
 31
0.0
  0
LINE
  5
3FA
100
AcDbEntity
  8
0
370
    -3
390
0
  6
Continuous
100
AcDbLine
 10
2.999998
 20
-1.732051
 30
0.0
 11
-0.000004
 21
-3.464098
 31
0.0
  0
LINE
  5
3FB
100
AcDbEntity
  8
0
370
    -3
390
0
  6
Continuous
100
AcDbLine
 10
0.000007
 20
3.464097
 30
0.0
 11
-2.999998
 21
1.732052
 31
0.0
  0
LINE
  5
3FC
100
AcDbEntity
  8
0
370
    -3
390
0
  6
Continuous
100
AcDbLine
 10
2.999997
 20
1.732047
 30
0.0
 11
2.999998
 21
-1.732051
 31
0.0
  0
LINE
  5
3FD
100
AcDbEntity
  8
0
370
    -3
390
0
  6
Continuous
100
AcDbLine
 10
-2.999997
 20
-1.732046
 30
0.0
 11
-2.999998
 21
1.732052
 31
0.0
  0
POINT
  5
3FE
100
AcDbEntity
  8
0
370
    -3
390
0
  6
Continuous
100
AcDbPoint
 10
0.0
 20
0.0
 30
0.0
  0
CIRCLE
  5
3FF
100
AcDbEntity
  8
0
370
    -3
390
0
  6
Continuous
100
AcDbCircle
 10
0.0
 20
0.0
 30
0.0
 40
6.5
  0
CIRCLE
  5
400
100
AcDbEntity
  8
0
370
    -3
390
0
  6
Continuous
100
AcDbCircle
 10
0.0
 20
0.0
 30
0.0
 40
5.633955
  0
ENDBLK
  5
401
100
AcDbEntity
  8
0
390
0
100
AcDbBlockEnd
  0
BLOCK
  5
404
100
AcDbEntity
  8
0
390
0
100
AcDbBlockBegin
  2
ZU_SYM__USERS_HOME_SYMBOL_POO_SYM_B20_0001705
 70
    64
 10
0.0
 20
0.0
 30
0.0
  3
ZU_SYM__USERS_HOME_SYMBOL_POO_SYM_B20_0001705
  1

  0
LINE
  5
405
100
AcDbEntity
  8
0
370
    -3
390
0
  6
Continuous
100
AcDbLine
 10
-0.000005
 20
-3.464098
 30
0.0
 11
-2.999998
 21
-1.732046
 31
0.0
  0
LINE
  5
406
100
AcDbEntity
  8
0
370
    -3
390
0
  6
Continuous
100
AcDbLine
 10
0.000007
 20
3.464097
 30
0.0
 11
2.999997
 21
1.732047
 31
0.0
  0
LINE
  5
407
100
AcDbEntity
  8
0
370
    -3
390
0
  6
Continuous
100
AcDbLine
 10
2.999998
 20
-1.732051
 30
0.0
 11
-0.000004
 21
-3.464098
 31
0.0
  0
LINE
  5
408
100
AcDbEntity
  8
0
370
    -3
390
0
  6
Continuous
100
AcDbLine
 10
0.000007
 20
3.464097
 30
0.0
 11
-2.999998
 21
1.732052
 31
0.0
  0
LINE
  5
409
100
AcDbEntity
  8
0
370
    -3
390
0
  6
Continuous
100
AcDbLine
 10
2.999997
 20
1.732047
 30
0.0
 11
2.999998
 21
-1.732051
 31
0.0
  0
LINE
  5
40A
100
AcDbEntity
  8
0
370
    -3
390
0
  6
Continuous
100
AcDbLine
 10
-2.999997
 20
-1.732046
 30
0.0
 11
-2.999998
 21
1.732052
 31
0.0
  0
POINT
  5
40B
100
AcDbEntity
  8
0
370
    -3
390
0
  6
Continuous
100
AcDbPoint
 10
0.0
 20
0.0
 30
0.0
  0
CIRCLE
  5
40C
100
AcDbEntity
  8
0
370
    -3
390
0
  6
Continuous
100
AcDbCircle
 10
0.0
 20
0.0
 30
0.0
 40
6.5
  0
CIRCLE
  5
40D
100
AcDbEntity
  8
0
370
    -3
390
0
  6
Continuous
100
AcDbCircle
 10
0.0
 20
0.0
 30
0.0
 40
5.633955
  0
ENDBLK
  5
40E
100
AcDbEntity
  8
0
390
0
100
AcDbBlockEnd
  0
BLOCK
  5
411
100
AcDbEntity
  8
0
390
0
100
AcDbBlockBegin
  2
ZU_SYM__USERS_HOME_SYMBOL_POO_SYM_B20_0001805
 70
    64
 10
0.0
 20
0.0
 30
0.0
  3
ZU_SYM__USERS_HOME_SYMBOL_POO_SYM_B20_0001805
  1

  0
LINE
  5
412
100
AcDbEntity
  8
0
370
    -3
390
0
  6
Continuous
100
AcDbLine
 10
-0.000005
 20
-3.464098
 30
0.0
 11
-2.999998
 21
-1.732046
 31
0.0
  0
LINE
  5
413
100
AcDbEntity
  8
0
370
    -3
390
0
  6
Continuous
100
AcDbLine
 10
0.000007
 20
3.464097
 30
0.0
 11
2.999997
 21
1.732047
 31
0.0
  0
LINE
  5
414
100
AcDbEntity
  8
0
370
    -3
390
0
  6
Continuous
100
AcDbLine
 10
2.999998
 20
-1.732051
 30
0.0
 11
-0.000004
 21
-3.464098
 31
0.0
  0
LINE
  5
415
100
AcDbEntity
  8
0
370
    -3
390
0
  6
Continuous
100
AcDbLine
 10
0.000007
 20
3.464097
 30
0.0
 11
-2.999998
 21
1.732052
 31
0.0
  0
LINE
  5
416
100
AcDbEntity
  8
0
370
    -3
390
0
  6
Continuous
100
AcDbLine
 10
2.999997
 20
1.732047
 30
0.0
 11
2.999998
 21
-1.732051
 31
0.0
  0
LINE
  5
417
100
AcDbEntity
  8
0
370
    -3
390
0
  6
Continuous
100
AcDbLine
 10
-2.999997
 20
-1.732046
 30
0.0
 11
-2.999998
 21
1.732052
 31
0.0
  0
POINT
  5
418
100
AcDbEntity
  8
0
370
    -3
390
0
  6
Continuous
100
AcDbPoint
 10
0.0
 20
0.0
 30
0.0
  0
CIRCLE
  5
419
100
AcDbEntity
  8
0
370
    -3
390
0
  6
Continuous
100
AcDbCircle
 10
0.0
 20
0.0
 30
0.0
 40
6.5
  0
CIRCLE
  5
41A
100
AcDbEntity
  8
0
370
    -3
390
0
  6
Continuous
100
AcDbCircle
 10
0.0
 20
0.0
 30
0.0
 40
5.633955
  0
ENDBLK
  5
41B
100
AcDbEntity
  8
0
390
0
100
AcDbBlockEnd
  0
BLOCK
  5
5C7
100
AcDbEntity
  8
0
390
0
100
AcDbBlockBegin
  2
ZU_SYM__USERS_HOME_SYMBOL_POO_SYM_B20_0001918
 70
    64
 10
0.0
 20
0.0
 30
0.0
  3
ZU_SYM__USERS_HOME_SYMBOL_POO_SYM_B20_0001918
  1

  0
LINE
  5
5C8
100
AcDbEntity
  8
0
370
    -3
390
0
  6
Continuous
100
AcDbLine
 10
-7.499999
 20
6.5
 30
0.0
 11
-7.499999
 21
-6.5
 31
0.0
  0
LINE
  5
5C9
100
AcDbEntity
  8
0
370
    -3
390
0
  6
Continuous
100
AcDbLine
 10
-7.499998
 20
-6.499999
 30
0.0
 11
-7.999999
 21
-5.63407
 31
0.0
  0
LINE
  5
5CA
100
AcDbEntity
  8
0
370
    -3
390
0
  6
Continuous
100
AcDbLine
 10
-7.499999
 20
6.5
 30
0.0
 11
-7.999999
 21
5.633876
 31
0.0
  0
LINE
  5
5CB
100
AcDbEntity
  8
0
370
    -3
390
0
  6
Continuous
100
AcDbLine
 10
0.0
 20
-6.5
 30
0.0
 11
-7.499998
 21
-6.5
 31
0.0
  0
LINE
  5
5CC
100
AcDbEntity
  8
0
370
    -3
390
0
  6
Continuous
100
AcDbLine
 10
0.0
 20
6.5
 30
0.0
 11
-7.499999
 21
6.5
 31
0.0
  0
LINE
  5
5CD
100
AcDbEntity
  8
0
370
    -3
390
0
  6
Continuous
100
AcDbLine
 10
-7.999999
 20
5.633876
 30
0.0
 11
-7.999999
 21
-5.63407
 31
0.0
  0
LINE
  5
5CE
100
AcDbEntity
  8
0
370
    -3
390
0
  6
Continuous
100
AcDbLine
 10
0.0
 20
-6.5
 30
0.0
 11
0.0
 21
6.5
 31
0.0
  0
POINT
  5
5CF
100
AcDbEntity
  8
0
370
    -3
390
0
  6
Continuous
100
AcDbPoint
 10
0.0
 20
0.0
 30
0.0
  0
ENDBLK
  5
5D0
100
AcDbEntity
  8
0
390
0
100
AcDbBlockEnd
  0
BLOCK
  5
5D3
100
AcDbEntity
  8
0
390
0
100
AcDbBlockBegin
  2
ZU_SYM__USERS_HOME_SYMBOL_POO_SYM_B20_0002018
 70
    64
 10
0.0
 20
0.0
 30
0.0
  3
ZU_SYM__USERS_HOME_SYMBOL_POO_SYM_B20_0002018
  1

  0
LINE
  5
5D4
100
AcDbEntity
  8
0
370
    -3
390
0
  6
Continuous
100
AcDbLine
 10
-7.499999
 20
6.5
 30
0.0
 11
-7.499999
 21
-6.5
 31
0.0
  0
LINE
  5
5D5
100
AcDbEntity
  8
0
370
    -3
390
0
  6
Continuous
100
AcDbLine
 10
-7.499998
 20
-6.499999
 30
0.0
 11
-7.999999
 21
-5.63407
 31
0.0
  0
LINE
  5
5D6
100
AcDbEntity
  8
0
370
    -3
390
0
  6
Continuous
100
AcDbLine
 10
-7.499999
 20
6.5
 30
0.0
 11
-7.999999
 21
5.633876
 31
0.0
  0
LINE
  5
5D7
100
AcDbEntity
  8
0
370
    -3
390
0
  6
Continuous
100
AcDbLine
 10
0.0
 20
-6.5
 30
0.0
 11
-7.499998
 21
-6.5
 31
0.0
  0
LINE
  5
5D8
100
AcDbEntity
  8
0
370
    -3
390
0
  6
Continuous
100
AcDbLine
 10
0.0
 20
6.5
 30
0.0
 11
-7.499999
 21
6.5
 31
0.0
  0
LINE
  5
5D9
100
AcDbEntity
  8
0
370
    -3
390
0
  6
Continuous
100
AcDbLine
 10
-7.999999
 20
5.633876
 30
0.0
 11
-7.999999
 21
-5.63407
 31
0.0
  0
LINE
  5
5DA
100
AcDbEntity
  8
0
370
    -3
390
0
  6
Continuous
100
AcDbLine
 10
0.0
 20
-6.5
 30
0.0
 11
0.0
 21
6.5
 31
0.0
  0
POINT
  5
5DB
100
AcDbEntity
  8
0
370
    -3
390
0
  6
Continuous
100
AcDbPoint
 10
0.0
 20
0.0
 30
0.0
  0
ENDBLK
  5
5DC
100
AcDbEntity
  8
0
390
0
100
AcDbBlockEnd
  0
BLOCK
  5
5DF
100
AcDbEntity
  8
0
390
0
100
AcDbBlockBegin
  2
ZU_SYM__USERS_HOME_SYMBOL_POO_SYM_B20_0002118
 70
    64
 10
0.0
 20
0.0
 30
0.0
  3
ZU_SYM__USERS_HOME_SYMBOL_POO_SYM_B20_0002118
  1

  0
LINE
  5
5E0
100
AcDbEntity
  8
0
370
    -3
390
0
  6
Continuous
100
AcDbLine
 10
-7.499999
 20
6.5
 30
0.0
 11
-7.499999
 21
-6.5
 31
0.0
  0
LINE
  5
5E1
100
AcDbEntity
  8
0
370
    -3
390
0
  6
Continuous
100
AcDbLine
 10
-7.499998
 20
-6.499999
 30
0.0
 11
-7.999999
 21
-5.63407
 31
0.0
  0
LINE
  5
5E2
100
AcDbEntity
  8
0
370
    -3
390
0
  6
Continuous
100
AcDbLine
 10
-7.499999
 20
6.5
 30
0.0
 11
-7.999999
 21
5.633876
 31
0.0
  0
LINE
  5
5E3
100
AcDbEntity
  8
0
370
    -3
390
0
  6
Continuous
100
AcDbLine
 10
0.0
 20
-6.5
 30
0.0
 11
-7.499998
 21
-6.5
 31
0.0
  0
LINE
  5
5E4
100
AcDbEntity
  8
0
370
    -3
390
0
  6
Continuous
100
AcDbLine
 10
0.0
 20
6.5
 30
0.0
 11
-7.499999
 21
6.5
 31
0.0
  0
LINE
  5
5E5
100
AcDbEntity
  8
0
370
    -3
390
0
  6
Continuous
100
AcDbLine
 10
-7.999999
 20
5.633876
 30
0.0
 11
-7.999999
 21
-5.63407
 31
0.0
  0
LINE
  5
5E6
100
AcDbEntity
  8
0
370
    -3
390
0
  6
Continuous
100
AcDbLine
 10
0.0
 20
-6.5
 30
0.0
 11
0.0
 21
6.5
 31
0.0
  0
POINT
  5
5E7
100
AcDbEntity
  8
0
370
    -3
390
0
  6
Continuous
100
AcDbPoint
 10
0.0
 20
0.0
 30
0.0
  0
ENDBLK
  5
5E8
100
AcDbEntity
  8
0
390
0
100
AcDbBlockEnd
  0
BLOCK
  5
5EB
100
AcDbEntity
  8
0
390
0
100
AcDbBlockBegin
  2
ZU_SYM__USERS_HOME_SYMBOL_POO_SYM_B20_0002218
 70
    64
 10
0.0
 20
0.0
 30
0.0
  3
ZU_SYM__USERS_HOME_SYMBOL_POO_SYM_B20_0002218
  1

  0
LINE
  5
5EC
100
AcDbEntity
  8
0
370
    -3
390
0
  6
Continuous
100
AcDbLine
 10
-7.499999
 20
6.5
 30
0.0
 11
-7.499999
 21
-6.5
 31
0.0
  0
LINE
  5
5ED
100
AcDbEntity
  8
0
370
    -3
390
0
  6
Continuous
100
AcDbLine
 10
-7.499998
 20
-6.499999
 30
0.0
 11
-7.999999
 21
-5.63407
 31
0.0
  0
LINE
  5
5EE
100
AcDbEntity
  8
0
370
    -3
390
0
  6
Continuous
100
AcDbLine
 10
-7.499999
 20
6.5
 30
0.0
 11
-7.999999
 21
5.633876
 31
0.0
  0
LINE
  5
5EF
100
AcDbEntity
  8
0
370
    -3
390
0
  6
Continuous
100
AcDbLine
 10
0.0
 20
-6.5
 30
0.0
 11
-7.499998
 21
-6.5
 31
0.0
  0
LINE
  5
5F0
100
AcDbEntity
  8
0
370
    -3
390
0
  6
Continuous
100
AcDbLine
 10
0.0
 20
6.5
 30
0.0
 11
-7.499999
 21
6.5
 31
0.0
  0
LINE
  5
5F1
100
AcDbEntity
  8
0
370
    -3
390
0
  6
Continuous
100
AcDbLine
 10
-7.999999
 20
5.633876
 30
0.0
 11
-7.999999
 21
-5.63407
 31
0.0
  0
LINE
  5
5F2
100
AcDbEntity
  8
0
370
    -3
390
0
  6
Continuous
100
AcDbLine
 10
0.0
 20
-6.5
 30
0.0
 11
0.0
 21
6.5
 31
0.0
  0
POINT
  5
5F3
100
AcDbEntity
  8
0
370
    -3
390
0
  6
Continuous
100
AcDbPoint
 10
0.0
 20
0.0
 30
0.0
  0
ENDBLK
  5
5F4
100
AcDbEntity
  8
0
390
0
100
AcDbBlockEnd
  0
ENDSEC
  0
SECTION
  2
ENTITIES
  0
ARC
  5
29
100
AcDbEntity
  8
0
370
    -3
390
0
  6
Continuous
100
AcDbCircle
 10
-205.814012
 20
66.653236
 30
0.0
 40
9.0
100
AcDbArc
 50
253.398469
 51
286.601548
  0
ARC
  5
2A
100
AcDbEntity
  8
0
370
    -3
390
0
  6
Continuous
100
AcDbCircle
 10
-207.814012
 20
59.670739
 30
0.0
 40
1.5
100
AcDbArc
 50
147.769047
 51
180.0
  0
LINE
  5
2B
100
AcDbEntity
  8
0
370
    -3
390
0
  6
Continuous
100
AcDbLine
 10
-209.314012
 20
59.274211
 30
0.0
 11
-209.314012
 21
59.670739
 31
0.0
  0
ARC
  5
2C
100
AcDbEntity
  8
0
370
    -3
390
0
  6
Continuous
100
AcDbCircle
 10
-208.014012
 20
59.274211
 30
0.0
 40
1.299999
100
AcDbArc
 50
180.0
 51
253.398469
  0
LINE
  5
2D
100
AcDbEntity
  8
0
370
    -3
390
0
  6
Continuous
100
AcDbLine
 10
-202.314012
 20
59.274211
 30
0.0
 11
-202.314012
 21
59.670739
 31
0.0
  0
ARC
  5
2E
100
AcDbEntity
  8
0
370
    -3
390
0
  6
Continuous
100
AcDbCircle
 10
-203.614011
 20
59.274211
 30
0.0
 40
1.299999
100
AcDbArc
 50
286.601531
 51
0.0
  0
ARC
  5
2F
100
AcDbEntity
  8
0
370
    -3
390
0
  6
Continuous
100
AcDbCircle
 10
-203.814012
 20
59.670739
 30
0.0
 40
1.5
100
AcDbArc
 50
0.0
 51
32.230953
  0
LINE
  5
30
100
AcDbEntity
  8
0
370
    -3
390
0
  6
Continuous
100
AcDbLine
 10
-408.494075
 20
-364.929149
 30
0.0
 11
-487.994075
 21
-364.929149
 31
0.0
  0
ARC
  5
31
100
AcDbEntity
  8
0
370
    -3
390
0
  6
Continuous
100
AcDbCircle
 10
-390.518481
 20
-352.866177
 30
0.0
 40
6.0
100
AcDbArc
 50
156.035454
 51
177.016
  0
ARC
  5
32
100
AcDbEntity
  8
0
370
    -3
390
0
  6
Continuous
100
AcDbCircle
 10
-408.494075
 20
-352.929149
 30
0.0
 40
12.0
100
AcDbArc
 50
270.0
 51
2.865984
  0
LINE
  5
33
100
AcDbEntity
  8
0
370
    -3
390
0
  6
Continuous
100
AcDbLine
 10
-567.494075
 20
-364.929149
 30
0.0
 11
-487.994075
 21
-364.929149
 31
0.0
  0
ARC
  5
34
100
AcDbEntity
  8
0
370
    -3
390
0
  6
Continuous
100
AcDbCircle
 10
-585.469669
 20
-352.866177
 30
0.0
 40
6.0
100
AcDbArc
 50
2.984
 51
23.964546
  0
ARC
  5
35
100
AcDbEntity
  8
0
370
    -3
390
0
  6
Continuous
100
AcDbCircle
 10
-567.494075
 20
-352.929149
 30
0.0
 40
12.0
100
AcDbArc
 50
177.134016
 51
270.0
  0
ARC
  5
36
100
AcDbEntity
  8
0
370
    -3
390
0
  6
Continuous
100
AcDbCircle
 10
499.275492
 20
-192.929149
 30
0.0
 40
70.0
100
AcDbArc
 50
0.0
 51
90.0
  0
LINE
  5
37
100
AcDbEntity
  8
0
370
    -3
390
0
  6
CENTER
100
AcDbLine
 10
-41.127233
 20
-194.929149
 30
0.0
 11
-286.325093
 21
-194.929149
 31
0.0
  0
LINE
  5
38
100
AcDbEntity
  8
0
370
    -3
390
0
  6
Continuous
100
AcDbLine
 10
-72.814012
 20
-194.929149
 30
0.0
 11
-72.814012
 21
-123.429149
 31
0.0
  0
LINE
  5
39
100
AcDbEntity
  8
0
370
    -3
390
0
  6
Continuous
100
AcDbLine
 10
-72.814012
 20
-194.929149
 30
0.0
 11
-72.814012
 21
-266.429149
 31
0.0
  0
LINE
  5
3A
100
AcDbEntity
  8
0
370
    -3
390
0
  6
Continuous
100
AcDbLine
 10
-72.814012
 20
-266.429149
 30
0.0
 11
-72.814012
 21
-123.429149
 31
0.0
  0
LINE
  5
3B
100
AcDbEntity
  8
0
370
    -3
390
0
  6
CENTER
100
AcDbLine
 10
499.275492
 20
-15.833086
 30
0.0
 11
499.275492
 21
-374.062688
 31
0.0
  0
LINE
  5
3C
100
AcDbEntity
  8
0
370
    -3
390
0
  6
CENTER
100
AcDbLine
 10
530.42751
 20
-194.929149
 30
0.0
 11
462.143524
 21
-194.929149
 31
0.0
  0
LINE
  5
3D
100
AcDbEntity
  8
0
370
    -3
390
0
  6
Continuous
100
AcDbLine
 10
-72.814012
 20
-155.528944
 30
0.0
 11
-162.415511
 21
-155.528944
 31
0.0
  0
LINE
  5
3E
100
AcDbEntity
  8
0
370
    -3
390
0
  6
Continuous
100
AcDbLine
 10
-72.814012
 20
-154.329355
 30
0.0
 11
-164.415209
 21
-154.329355
 31
0.0
  0
LINE
  5
3F
100
AcDbEntity
  8
0
370
    -3
390
0
  6
Continuous
100
AcDbLine
 10
-279.814012
 20
-194.929149
 30
0.0
 11
-279.814012
 21
-253.678812
 31
0.0
  0
ARC
  5
40
100
AcDbEntity
  8
0
370
    -3
390
0
  6
Continuous
100
AcDbCircle
 10
-276.014012
 20
-253.678812
 30
0.0
 40
3.8
100
AcDbArc
 50
180.0
 51
240.0
  0
LINE
  5
41
100
AcDbEntity
  8
0
370
    -3
390
0
  6
Continuous
100
AcDbLine
 10
-215.814012
 20
-269.729149
 30
0.0
 11
-247.561177
 21
-269.729149
 31
0.0
  0
LINE
  5
42
100
AcDbEntity
  8
0
370
    -3
390
0
  6
Continuous
100
AcDbLine
 10
-231.601965
 20
-255.935261
 30
0.0
 11
-230.884807
 21
-256.38531
 31
0.0
  0
LINE
  5
43
100
AcDbEntity
  8
0
370
    -3
390
0
  6
Continuous
100
AcDbLine
 10
-234.026059
 20
-255.935261
 30
0.0
 11
-234.743216
 21
-256.38531
 31
0.0
  0
ELLIPSE
  5
44
100
AcDbEntity
  8
0
370
    -3
390
0
  6
Continuous
100
AcDbEllipse
 10
-232.814012
 20
-253.872688
 30
0.0
 11
3.5
 21
0.0
 31
0.0
210
0.0
220
0.0
230
1.0
 40
0.860398
 41
3.8960914922822831
 42
5.5286864684870967
  0
LINE
  5
45
100
AcDbEntity
  8
0
370
    -3
390
0
  6
Continuous
100
AcDbLine
 10
-277.914012
 20
-256.969708
 30
0.0
 11
-262.961177
 21
-265.602732
 31
0.0
  0
ARC
  5
46
100
AcDbEntity
  8
0
370
    -3
390
0
  6
Continuous
100
AcDbCircle
 10
-247.561177
 20
-238.929149
 30
0.0
 40
30.8
100
AcDbArc
 50
240.0
 51
270.0
  0
ELLIPSE
  5
47
100
AcDbEntity
  8
0
370
    -3
390
0
  6
Continuous
100
AcDbEllipse
 10
-232.814012
 20
-137.904418
 30
0.0
 11
5.0
 21
0.0
 31
0.0
210
0.0
220
0.0
230
1.0
 40
0.707107
 41
3.1415926535897931
 42
0.0
  0
LINE
  5
48
100
AcDbEntity
  8
0
370
    -3
390
0
  6
Continuous
100
AcDbLine
 10
-237.814012
 20
-137.087815
 30
0.0
 11
-237.814012
 21
-137.904418
 31
0.0
  0
LINE
  5
49
100
AcDbEntity
  8
0
370
    -3
390
0
  6
Continuous
100
AcDbLine
 10
-227.814012
 20
-137.087815
 30
0.0
 11
-227.814012
 21
-137.904418
 31
0.0
  0
ELLIPSE
  5
4A
100
AcDbEntity
  8
0
370
    -3
390
0
  6
Continuous
100
AcDbEllipse
 10
-232.814012
 20
-137.087815
 30
0.0
 11
4.5
 21
0.0
 31
0.0
210
0.0
220
0.0
230
1.0
 40
0.707107
 41
3.1415926535897931
 42
0.0
  0
LINE
  5
4B
100
AcDbEntity
  8
0
370
    -3
390
0
  6
Continuous
100
AcDbLine
 10
-237.314012
 20
-136.522129
 30
0.0
 11
-237.314012
 21
-137.087815
 31
0.0
  0
LINE
  5
4C
100
AcDbEntity
  8
0
370
    -3
390
0
  6
Continuous
100
AcDbLine
 10
-228.314012
 20
-136.522129
 30
0.0
 11
-228.314012
 21
-137.087815
 31
0.0
  0
ELLIPSE
  5
4D
100
AcDbEntity
  8
0
370
    -3
390
0
  6
Continuous
100
AcDbEllipse
 10
-232.814012
 20
-137.087815
 30
0.0
 11
5.0
 21
0.0
 31
0.0
210
0.0
220
0.0
230
1.0
 40
0.707107
 41
0.0
 42
0.7392718269406207
  0
ELLIPSE
  5
4E
100
AcDbEntity
  8
0
370
    -3
390
0
  6
Continuous
100
AcDbEllipse
 10
-232.814012
 20
-137.087815
 30
0.0
 11
5.0
 21
0.0
 31
0.0
210
0.0
220
0.0
230
1.0
 40
0.707107
 41
2.4023208266491727
 42
3.1415926535897931
  0
ELLIPSE
  5
4F
100
AcDbEntity
  8
0
370
    -3
390
0
  6
Continuous
100
AcDbEllipse
 10
-232.814012
 20
-135.985611
 30
0.0
 11
3.5
 21
0.0
 31
0.0
210
0.0
220
0.0
230
1.0
 40
0.860398
 41
0.0
 42
6.2831853071795862
  0
ELLIPSE
  5
50
100
AcDbEntity
  8
0
370
    -3
390
0
  6
Continuous
100
AcDbEllipse
 10
-232.814012
 20
-136.522129
 30
0.0
 11
4.5
 21
0.0
 31
0.0
210
0.0
220
0.0
230
1.0
 40
0.707107
 41
2.158706662346169
 42
0.9828859912435821
  0
LINE
  5
51
100
AcDbEntity
  8
0
370
    -3
390
0
  6
Continuous
100
AcDbLine
 10
-232.814012
 20
-134.683651
 30
0.0
 11
-230.814012
 21
-136.256989
 31
0.0
  0
LINE
  5
52
100
AcDbEntity
  8
0
370
    -3
390
0
  6
Continuous
100
AcDbLine
 10
-232.814012
 20
-134.683651
 30
0.0
 11
-230.884807
 21
-133.472989
 31
0.0
  0
LINE
  5
53
100
AcDbEntity
  8
0
370
    -3
390
0
  6
Continuous
100
AcDbLine
 10
-232.814012
 20
-134.683651
 30
0.0
 11
-234.814012
 21
-136.256989
 31
0.0
  0
LINE
  5
54
100
AcDbEntity
  8
0
370
    -3
390
0
  6
Continuous
100
AcDbLine
 10
-232.814012
 20
-134.683651
 30
0.0
 11
-234.743216
 21
-133.472989
 31
0.0
  0
ARC
  5
55
100
AcDbEntity
  8
0
370
    -3
390
0
  6
Continuous
100
AcDbCircle
 10
-247.561177
 20
-150.929149
 30
0.0
 40
30.8
100
AcDbArc
 50
90.0
 51
120.0
  0
ARC
  5
56
100
AcDbEntity
  8
0
370
    -3
390
0
  6
Continuous
100
AcDbCircle
 10
-276.014012
 20
-136.179487
 30
0.0
 40
3.8
100
AcDbArc
 50
120.0
 51
180.0
  0
LINE
  5
57
100
AcDbEntity
  8
0
370
    -3
390
0
  6
Continuous
100
AcDbLine
 10
-279.814012
 20
-194.929149
 30
0.0
 11
-279.814012
 21
-136.179487
 31
0.0
  0
LINE
  5
58
100
AcDbEntity
  8
0
370
    -3
390
0
  6
Continuous
100
AcDbLine
 10
-277.914012
 20
-132.88859
 30
0.0
 11
-262.961177
 21
-124.255567
 31
0.0
  0
LINE
  5
59
100
AcDbEntity
  8
0
370
    -3
390
0
  6
Continuous
100
AcDbLine
 10
-215.814012
 20
-128.429149
 30
0.0
 11
-72.814012
 21
-128.429149
 31
0.0
  0
LINE
  5
5A
100
AcDbEntity
  8
0
370
    -3
390
0
  6
Continuous
100
AcDbLine
 10
-215.814012
 20
-123.929149
 30
0.0
 11
-72.814012
 21
-123.929149
 31
0.0
  0
LINE
  5
5B
100
AcDbEntity
  8
0
370
    -3
390
0
  6
Continuous
100
AcDbLine
 10
-215.814012
 20
-125.429149
 30
0.0
 11
-72.814012
 21
-125.429149
 31
0.0
  0
LINE
  5
5C
100
AcDbEntity
  8
0
370
    -3
390
0
  6
Continuous
100
AcDbLine
 10
-215.814012
 20
-123.429149
 30
0.0
 11
-72.814012
 21
-123.429149
 31
0.0
  0
LINE
  5
5D
100
AcDbEntity
  8
0
370
    -3
390
0
  6
Continuous
100
AcDbLine
 10
-215.814012
 20
-132.929149
 30
0.0
 11
-72.814012
 21
-132.929149
 31
0.0
  0
LINE
  5
5E
100
AcDbEntity
  8
0
370
    -3
390
0
  6
Continuous
100
AcDbLine
 10
-159.434827
 20
-162.329355
 30
0.0
 11
-72.814012
 21
-162.329355
 31
0.0
  0
LINE
  5
5F
100
AcDbEntity
  8
0
370
    -3
390
0
  6
Continuous
100
AcDbLine
 10
-159.364012
 20
-163.528944
 30
0.0
 11
-72.814012
 21
-163.528944
 31
0.0
  0
LINE
  5
60
100
AcDbEntity
  8
0
370
    -3
390
0
  6
Continuous
100
AcDbLine
 10
-159.364012
 20
-170.929149
 30
0.0
 11
-72.814012
 21
-170.929149
 31
0.0
  0
LINE
  5
61
100
AcDbEntity
  8
0
370
    -3
390
0
  6
Continuous
100
AcDbLine
 10
-215.814012
 20
-261.429149
 30
0.0
 11
-72.814012
 21
-261.429149
 31
0.0
  0
LINE
  5
62
100
AcDbEntity
  8
0
370
    -3
390
0
  6
Continuous
100
AcDbLine
 10
-215.814012
 20
-265.929149
 30
0.0
 11
-72.814012
 21
-265.929149
 31
0.0
  0
LINE
  5
63
100
AcDbEntity
  8
0
370
    -3
390
0
  6
Continuous
100
AcDbLine
 10
-215.814012
 20
-264.429149
 30
0.0
 11
-72.814012
 21
-264.429149
 31
0.0
  0
LINE
  5
64
100
AcDbEntity
  8
0
370
    -3
390
0
  6
Continuous
100
AcDbLine
 10
-215.814012
 20
-266.429149
 30
0.0
 11
-72.814012
 21
-266.429149
 31
0.0
  0
LINE
  5
65
100
AcDbEntity
  8
0
370
    -3
390
0
  6
Continuous
100
AcDbLine
 10
-215.814012
 20
-256.929149
 30
0.0
 11
-72.814012
 21
-256.929149
 31
0.0
  0
LINE
  5
66
100
AcDbEntity
  8
0
370
    -3
390
0
  6
Continuous
100
AcDbLine
 10
-159.364012
 20
-218.929149
 30
0.0
 11
-72.814012
 21
-218.929149
 31
0.0
  0
LINE
  5
67
100
AcDbEntity
  8
0
370
    -3
390
0
  6
Continuous
100
AcDbLine
 10
-215.814012
 20
-120.129149
 30
0.0
 11
-247.561177
 21
-120.129149
 31
0.0
  0
LINE
  5
68
100
AcDbEntity
  8
0
370
    -3
390
0
  6
Continuous
100
AcDbLine
 10
-215.814012
 20
-120.129149
 30
0.0
 11
-215.814012
 21
-152.332542
 31
0.0
  0
LINE
  5
69
100
AcDbEntity
  8
0
370
    -3
390
0
  6
Continuous
100
AcDbLine
 10
-215.814012
 20
-269.729149
 30
0.0
 11
-215.814012
 21
-255.935261
 31
0.0
  0
LINE
  5
6A
100
AcDbEntity
  8
0
370
    -3
390
0
  6
Continuous
100
AcDbLine
 10
-215.814012
 20
-139.077528
 30
0.0
 11
-72.814012
 21
-139.077528
 31
0.0
  0
LINE
  5
6B
100
AcDbEntity
  8
0
370
    -3
390
0
  6
Continuous
100
AcDbLine
 10
-215.814012
 20
-146.007175
 30
0.0
 11
-72.814012
 21
-146.007175
 31
0.0
  0
LINE
  5
6C
100
AcDbEntity
  8
0
370
    -3
390
0
  6
Continuous
100
AcDbLine
 10
-159.364012
 20
-243.851124
 30
0.0
 11
-72.814012
 21
-243.851124
 31
0.0
  0
LINE
  5
6D
100
AcDbEntity
  8
0
370
    -3
390
0
  6
Continuous
100
AcDbLine
 10
-161.045749
 20
-250.780771
 30
0.0
 11
-72.814012
 21
-250.780771
 31
0.0
  0
LINE
  5
6E
100
AcDbEntity
  8
0
370
    -3
390
0
  6
Continuous
100
AcDbLine
 10
-72.814012
 20
-234.329355
 30
0.0
 11
-159.364012
 21
-234.329355
 31
0.0
  0
LINE
  5
6F
100
AcDbEntity
  8
0
370
    -3
390
0
  6
Continuous
100
AcDbLine
 10
-72.814012
 20
-235.528944
 30
0.0
 11
-159.364012
 21
-235.528944
 31
0.0
  0
LINE
  5
70
100
AcDbEntity
  8
0
370
    -3
390
0
  6
Continuous
100
AcDbLine
 10
-159.434827
 20
-227.528944
 30
0.0
 11
-72.814012
 21
-227.528944
 31
0.0
  0
LINE
  5
71
100
AcDbEntity
  8
0
370
    -3
390
0
  6
Continuous
100
AcDbLine
 10
-159.364012
 20
-226.329355
 30
0.0
 11
-72.814012
 21
-226.329355
 31
0.0
  0
LINE
  5
72
100
AcDbEntity
  8
0
370
    -3
390
0
  6
CENTER
100
AcDbLine
 10
414.834519
 20
-194.929149
 30
0.0
 11
362.773172
 21
-194.929149
 31
0.0
  0
LINE
  5
73
100
AcDbEntity
  8
0
370
    -3
390
0
  6
Continuous
100
AcDbLine
 10
-72.814012
 20
-123.429149
 30
0.0
 11
-54.575691
 21
-122.47332
 31
0.0
  0
LINE
  5
74
100
AcDbEntity
  8
0
370
    -3
390
0
  6
Continuous
100
AcDbLine
 10
-7.672128
 20
-155.929149
 30
0.0
 11
-44.314012
 21
-155.929149
 31
0.0
  0
LINE
  5
75
100
AcDbEntity
  8
0
370
    -3
390
0
  6
Continuous
100
AcDbLine
 10
-49.314012
 20
-161.929149
 30
0.0
 11
-49.314012
 21
-150.929149
 31
0.0
  0
LINE
  5
76
100
AcDbEntity
  8
0
370
    -3
390
0
  6
Continuous
100
AcDbLine
 10
-49.314012
 20
-203.284488
 30
0.0
 11
-49.314012
 21
-127.466467
 31
0.0
  0
LINE
  5
77
100
AcDbEntity
  8
0
370
    -3
390
0
  6
Continuous
100
AcDbLine
 10
-10.313998
 20
-166.929149
 30
0.0
 11
-44.314012
 21
-166.929149
 31
0.0
  0
LINE
  5
78
100
AcDbEntity
  8
0
370
    -3
390
0
  6
CENTER
100
AcDbLine
 10
-23.814012
 20
-175.509745
 30
0.0
 11
-23.814012
 21
-146.734592
 31
0.0
  0
ARC
  5
79
100
AcDbEntity
  8
0
370
    -3
390
0
  6
Continuous
100
AcDbCircle
 10
-54.314012
 20
-127.466467
 30
0.0
 40
5.0
100
AcDbArc
 50
0.0
 51
93.0
  0
ARC
  5
7A
100
AcDbEntity
  8
0
370
    -3
390
0
  6
Continuous
100
AcDbCircle
 10
-44.314012
 20
-150.929149
 30
0.0
 40
5.0
100
AcDbArc
 50
180.0
 51
270.0
  0
ARC
  5
7B
100
AcDbEntity
  8
0
370
    -3
390
0
  6
Continuous
100
AcDbCircle
 10
-44.314012
 20
-161.929149
 30
0.0
 40
5.0
100
AcDbArc
 50
180.0
 51
270.0
  0
LINE
  5
7C
100
AcDbEntity
  8
0
370
    -3
390
0
  6
Continuous
100
AcDbLine
 10
0.185988
 20
-132.929149
 30
0.0
 11
7.185988
 21
-132.929149
 31
0.0
  0
LINE
  5
7D
100
AcDbEntity
  8
0
370
    -3
390
0
  6
Continuous
100
AcDbLine
 10
7.185988
 20
-135.929149
 30
0.0
 11
0.185988
 21
-135.929149
 31
0.0
  0
LINE
  5
7E
100
AcDbEntity
  8
0
370
    -3
390
0
  6
Continuous
100
AcDbLine
 10
-2.814012
 20
-135.929149
 30
0.0
 11
-2.814012
 21
-329.929149
 31
0.0
  0
LINE
  5
7F
100
AcDbEntity
  8
0
370
    -3
390
0
  6
Continuous
100
AcDbLine
 10
18.185988
 20
-112.929149
 30
0.0
 11
22.185988
 21
-112.929149
 31
0.0
  0
LINE
  5
80
100
AcDbEntity
  8
0
370
    -3
390
0
  6
Continuous
100
AcDbLine
 10
10.685988
 20
-110.929149
 30
0.0
 11
15.185988
 21
-110.929149
 31
0.0
  0
LINE
  5
81
100
AcDbEntity
  8
0
370
    -3
390
0
  6
CENTER
100
AcDbLine
 10
-0.218474
 20
-100.929149
 30
0.0
 11
21.509004
 21
-100.929149
 31
0.0
  0
LINE
  5
82
100
AcDbEntity
  8
0
370
    -3
390
0
  6
Continuous
100
AcDbLine
 10
15.185988
 20
-52.929149
 30
0.0
 11
15.185988
 21
-110.929149
 31
0.0
  0
LINE
  5
83
100
AcDbEntity
  8
0
370
    -3
390
0
  6
Continuous
100
AcDbLine
 10
10.685988
 20
-110.929149
 30
0.0
 11
10.685988
 21
-52.929149
 31
0.0
  0
LINE
  5
84
100
AcDbEntity
  8
0
370
    -3
390
0
  6
Continuous
100
AcDbLine
 10
27.185988
 20
-232.929149
 30
0.0
 11
27.185988
 21
-89.929149
 31
0.0
  0
LINE
  5
85
100
AcDbEntity
  8
0
370
    -3
390
0
  6
Continuous
100
AcDbLine
 10
18.185988
 20
-87.929149
 30
0.0
 11
38.685988
 21
-87.929149
 31
0.0
  0
LINE
  5
86
100
AcDbEntity
  8
0
370
    -3
390
0
  6
Continuous
100
AcDbLine
 10
38.185988
 20
-232.929149
 30
0.0
 11
38.185988
 21
-87.929149
 31
0.0
  0
LINE
  5
87
100
AcDbEntity
  8
0
370
    -3
390
0
  6
Continuous
100
AcDbLine
 10
22.447668
 20
-132.234134
 30
0.0
 11
7.185989
 21
-133.033965
 31
0.0
  0
LINE
  5
88
100
AcDbEntity
  8
0
370
    -3
390
0
  6
Continuous
100
AcDbLine
 10
7.185988
 20
-232.929149
 30
0.0
 11
7.185988
 21
-133.033965
 31
0.0
  0
LINE
  5
89
100
AcDbEntity
  8
0
370
    -3
390
0
  6
Continuous
100
AcDbLine
 10
19.185988
 20
-129.558178
 30
0.0
 11
19.185988
 21
-115.586004
 31
0.0
  0
LINE
  5
8A
100
AcDbEntity
  8
0
370
    -3
390
0
  6
Continuous
100
AcDbLine
 10
15.185988
 20
-104.929149
 30
0.0
 11
15.185988
 21
-90.929149
 31
0.0
  0
LINE
  5
8B
100
AcDbEntity
  8
0
370
    -3
390
0
  6
Continuous
100
AcDbLine
 10
144.399172
 20
-84.220103
 30
0.0
 11
38.685684
 21
-87.9117
 31
0.0
  0
LINE
  5
8C
100
AcDbEntity
  8
0
370
    -3
390
0
  6
Continuous
100
AcDbLine
 10
38.685988
 20
-360.929149
 30
0.0
 11
38.685988
 21
-87.911689
 31
0.0
  0
ARC
  5
8D
100
AcDbEntity
  8
0
370
    -3
390
0
  6
Continuous
100
AcDbCircle
 10
-7.672128
 20
-150.929149
 30
0.0
 40
5.0
100
AcDbArc
 50
270.0
 51
349.193077
  0
ARC
  5
8E
100
AcDbEntity
  8
0
370
    -3
390
0
  6
Continuous
100
AcDbCircle
 10
0.185988
 20
-135.929149
 30
0.0
 40
3.0
100
AcDbArc
 50
90.0
 51
180.0
  0
ARC
  5
8F
100
AcDbEntity
  8
0
370
    -3
390
0
  6
Continuous
100
AcDbCircle
 10
0.185988
 20
-138.929149
 30
0.0
 40
3.0
100
AcDbArc
 50
90.0
 51
180.0
  0
ARC
  5
90
100
AcDbEntity
  8
0
370
    -3
390
0
  6
Continuous
100
AcDbCircle
 10
29.185988
 20
-89.929149
 30
0.0
 40
2.0
100
AcDbArc
 50
90.0
 51
180.0
  0
ARC
  5
91
100
AcDbEntity
  8
0
370
    -3
390
0
  6
Continuous
100
AcDbCircle
 10
22.185988
 20
-127.240987
 30
0.0
 40
5.0
100
AcDbArc
 50
273.0
 51
0.0
  0
ARC
  5
92
100
AcDbEntity
  8
0
370
    -3
390
0
  6
Continuous
100
AcDbCircle
 10
16.185988
 20
-129.558178
 30
0.0
 40
3.0
100
AcDbArc
 50
273.0
 51
0.0
  0
ARC
  5
93
100
AcDbEntity
  8
0
370
    -3
390
0
  6
Continuous
100
AcDbCircle
 10
16.185988
 20
-115.586004
 30
0.0
 40
3.0
100
AcDbArc
 50
0.0
 51
70.528779
  0
ARC
  5
94
100
AcDbEntity
  8
0
370
    -3
390
0
  6
Continuous
100
AcDbCircle
 10
22.185988
 20
-117.929149
 30
0.0
 40
5.0
100
AcDbArc
 50
0.0
 51
90.0
  0
ARC
  5
95
100
AcDbEntity
  8
0
370
    -3
390
0
  6
Continuous
100
AcDbCircle
 10
18.185988
 20
-109.929149
 30
0.0
 40
3.0
100
AcDbArc
 50
180.0
 51
270.0
  0
ARC
  5
96
100
AcDbEntity
  8
0
370
    -3
390
0
  6
Continuous
100
AcDbCircle
 10
18.185988
 20
-90.929149
 30
0.0
 40
3.0
100
AcDbArc
 50
90.0
 51
180.0
  0
ARC
  5
97
100
AcDbEntity
  8
0
370
    -3
390
0
  6
Continuous
100
AcDbCircle
 10
16.185988
 20
-115.586004
 30
0.0
 40
3.0
100
AcDbArc
 50
67.58237
 51
70.528779
  0
INSERT
  5
A3
100
AcDbEntity
  8
0
390
0
100
AcDbBlockReference
  2
ZU_SYM__USERS_HOME_SYMBOL_POO_SYM_B20_18
 10
10.685988
 20
-100.929149
 30
0.0
  0
INSERT
  5
AF
100
AcDbEntity
  8
0
390
0
100
AcDbBlockReference
  2
ZU_SYM__USERS_HOME_SYMBOL_POO_SYM_B20_0000118
 10
-2.814012
 20
-169.289539
 30
0.0
  0
INSERT
  5
BB
100
AcDbEntity
  8
0
390
0
100
AcDbBlockReference
  2
ZU_SYM__USERS_HOME_SYMBOL_POO_SYM_B20_0000218
 10
27.185988
 20
-170.92915
 30
0.0
  0
INSERT
  5
C7
100
AcDbEntity
  8
0
390
0
100
AcDbBlockReference
  2
ZU_SYM__USERS_HOME_SYMBOL_POO_SYM_B20_0000318
 10
27.185988
 20
-101.92915
 30
0.0
  0
LINE
  5
C8
100
AcDbEntity
  8
0
370
    -3
390
0
  6
Continuous
100
AcDbLine
 10
-72.814012
 20
-266.429149
 30
0.0
 11
-41.552332
 21
-268.067505
 31
0.0
  0
LINE
  5
C9
100
AcDbEntity
  8
0
370
    -3
390
0
  6
Continuous
100
AcDbLine
 10
-5.814012
 20
-208.284488
 30
0.0
 11
-44.314012
 21
-208.284488
 31
0.0
  0
LINE
  5
CA
100
AcDbEntity
  8
0
370
    -3
390
0
  6
Continuous
100
AcDbLine
 10
-36.814012
 20
-291.402462
 30
0.0
 11
-36.814012
 21
-220.836896
 31
0.0
  0
LINE
  5
CB
100
AcDbEntity
  8
0
370
    -3
390
0
  6
Continuous
100
AcDbLine
 10
-72.814012
 20
-215.836896
 30
0.0
 11
-41.814012
 21
-215.836896
 31
0.0
  0
LINE
  5
CC
100
AcDbEntity
  8
0
370
    -3
390
0
  6
Continuous
100
AcDbLine
 10
-10.314012
 20
-297.536091
 30
0.0
 11
-32.075691
 21
-296.39561
 31
0.0
  0
LINE
  5
CD
100
AcDbEntity
  8
0
370
    -3
390
0
  6
Continuous
100
AcDbLine
 10
7.185988
 20
-232.929149
 30
0.0
 11
7.185988
 21
-332.929149
 31
0.0
  0
ARC
  5
CE
100
AcDbEntity
  8
0
370
    -3
390
0
  6
Continuous
100
AcDbCircle
 10
-41.814012
 20
-273.060652
 30
0.0
 40
5.0
100
AcDbArc
 50
360.0
 51
87.0
  0
ARC
  5
CF
100
AcDbEntity
  8
0
370
    -3
390
0
  6
Continuous
100
AcDbCircle
 10
-31.814012
 20
-291.402462
 30
0.0
 40
5.0
100
AcDbArc
 50
180.0
 51
267.0
  0
ARC
  5
D0
100
AcDbEntity
  8
0
370
    -3
390
0
  6
Continuous
100
AcDbCircle
 10
-44.314012
 20
-203.284488
 30
0.0
 40
5.0
100
AcDbArc
 50
180.0
 51
270.0
  0
ARC
  5
D1
100
AcDbEntity
  8
0
370
    -3
390
0
  6
Continuous
100
AcDbCircle
 10
-5.814012
 20
-205.284488
 30
0.0
 40
3.0
100
AcDbArc
 50
270.0
 51
0.0
  0
ARC
  5
D2
100
AcDbEntity
  8
0
370
    -3
390
0
  6
Continuous
100
AcDbCircle
 10
-41.814012
 20
-220.836896
 30
0.0
 40
5.0
100
AcDbArc
 50
360.0
 51
90.0
  0
INSERT
  5
DE
100
AcDbEntity
  8
0
390
0
100
AcDbBlockReference
  2
ZU_SYM__USERS_HOME_SYMBOL_POO_SYM_B20_0000418
 10
-2.814012
 20
-296.56876
 30
0.0
  0
LINE
  5
DF
100
AcDbEntity
  8
0
370
    -3
390
0
  6
Continuous
100
AcDbLine
 10
7.185988
 20
-329.929149
 30
0.0
 11
0.185988
 21
-329.929149
 31
0.0
  0
LINE
  5
E0
100
AcDbEntity
  8
0
370
    -3
390
0
  6
Continuous
100
AcDbLine
 10
0.185988
 20
-332.929149
 30
0.0
 11
7.185988
 21
-332.929149
 31
0.0
  0
LINE
  5
E1
100
AcDbEntity
  8
0
370
    -3
390
0
  6
Continuous
100
AcDbLine
 10
27.185988
 20
-232.929149
 30
0.0
 11
27.185988
 21
-358.929149
 31
0.0
  0
LINE
  5
E2
100
AcDbEntity
  8
0
370
    -3
390
0
  6
Continuous
100
AcDbLine
 10
22.185988
 20
-229.929149
 30
0.0
 11
22.185988
 21
-236.929149
 31
0.0
  0
LINE
  5
E3
100
AcDbEntity
  8
0
370
    -3
390
0
  6
Continuous
100
AcDbLine
 10
22.185988
 20
-243.929149
 30
0.0
 11
22.185988
 21
-236.929149
 31
0.0
  0
LINE
  5
E4
100
AcDbEntity
  8
0
370
    -3
390
0
  6
Continuous
100
AcDbLine
 10
38.185988
 20
-232.929149
 30
0.0
 11
38.185988
 21
-360.929149
 31
0.0
  0
LINE
  5
E5
100
AcDbEntity
  8
0
370
    -3
390
0
  6
Continuous
100
AcDbLine
 10
22.447668
 20
-333.72898
 30
0.0
 11
7.185988
 21
-332.929149
 31
0.0
  0
LINE
  5
E6
100
AcDbEntity
  8
0
370
    -3
390
0
  6
Continuous
100
AcDbLine
 10
29.185988
 20
-360.929149
 30
0.0
 11
38.685988
 21
-360.929149
 31
0.0
  0
LINE
  5
E7
100
AcDbEntity
  8
0
370
    -3
390
0
  6
Continuous
100
AcDbLine
 10
38.685988
 20
-360.929149
 30
0.0
 11
157.587681
 21
-364.827566
 31
0.0
  0
ARC
  5
E8
100
AcDbEntity
  8
0
370
    -3
390
0
  6
Continuous
100
AcDbCircle
 10
0.185988
 20
-329.929149
 30
0.0
 40
3.0
100
AcDbArc
 50
180.0
 51
270.0
  0
ARC
  5
E9
100
AcDbEntity
  8
0
370
    -3
390
0
  6
Continuous
100
AcDbCircle
 10
0.185988
 20
-326.929149
 30
0.0
 40
3.0
100
AcDbArc
 50
180.0
 51
270.0
  0
ARC
  5
EA
100
AcDbEntity
  8
0
370
    -3
390
0
  6
Continuous
100
AcDbCircle
 10
25.185988
 20
-229.929149
 30
0.0
 40
3.0
100
AcDbArc
 50
99.594068
 51
180.0
  0
ARC
  5
EB
100
AcDbEntity
  8
0
370
    -3
390
0
  6
Continuous
100
AcDbCircle
 10
25.185988
 20
-243.929149
 30
0.0
 40
3.0
100
AcDbArc
 50
180.0
 51
260.405932
  0
ARC
  5
EC
100
AcDbEntity
  8
0
370
    -3
390
0
  6
Continuous
100
AcDbCircle
 10
24.185988
 20
-224.01307
 30
0.0
 40
3.0
100
AcDbArc
 50
279.594068
 51
0.0
  0
ARC
  5
ED
100
AcDbEntity
  8
0
370
    -3
390
0
  6
Continuous
100
AcDbCircle
 10
24.185988
 20
-249.845229
 30
0.0
 40
3.0
100
AcDbArc
 50
0.0
 51
80.405932
  0
ARC
  5
EE
100
AcDbEntity
  8
0
370
    -3
390
0
  6
Continuous
100
AcDbCircle
 10
22.185988
 20
-338.722128
 30
0.0
 40
5.0
100
AcDbArc
 50
74.02804
 51
87.0
  0
ARC
  5
EF
100
AcDbEntity
  8
0
370
    -3
390
0
  6
Continuous
100
AcDbCircle
 10
29.185988
 20
-358.929149
 30
0.0
 40
2.0
100
AcDbArc
 50
180.0
 51
270.0
  0
ARC
  5
F0
100
AcDbEntity
  8
0
370
    -3
390
0
  6
Continuous
100
AcDbCircle
 10
22.185988
 20
-338.722128
 30
0.0
 40
5.0
100
AcDbArc
 50
0.0
 51
87.0
  0
INSERT
  5
FC
100
AcDbEntity
  8
0
390
0
100
AcDbBlockReference
  2
ZU_SYM__USERS_HOME_SYMBOL_POO_SYM_B20_0000518
 10
27.185988
 20
-352.929149
 30
0.0
  0
LINE
  5
FD
100
AcDbEntity
  8
0
370
    -3
390
0
  6
Continuous
100
AcDbLine
 10
261.185988
 20
-185.960382
 30
0.0
 11
198.185581
 21
-185.960382
 31
0.0
  0
LINE
  5
FE
100
AcDbEntity
  8
0
370
    -3
390
0
  6
Continuous
100
AcDbLine
 10
261.185988
 20
-199.960382
 30
0.0
 11
198.185581
 21
-199.960382
 31
0.0
  0
LINE
  5
FF
100
AcDbEntity
  8
0
370
    -3
390
0
  6
Continuous
100
AcDbLine
 10
261.185988
 20
-192.929149
 30
0.0
 11
261.185988
 21
-169.329149
 31
0.0
  0
LINE
  5
100
100
AcDbEntity
  8
0
370
    -3
390
0
  6
Continuous
100
AcDbLine
 10
260.785988
 20
-168.929149
 30
0.0
 11
188.745796
 21
-168.929149
 31
0.0
  0
LINE
  5
101
100
AcDbEntity
  8
0
370
    -3
390
0
  6
Continuous
100
AcDbLine
 10
261.185988
 20
-192.929149
 30
0.0
 11
261.185988
 21
-216.529149
 31
0.0
  0
LINE
  5
102
100
AcDbEntity
  8
0
370
    -3
390
0
  6
Continuous
100
AcDbLine
 10
260.785988
 20
-216.929149
 30
0.0
 11
188.745796
 21
-216.929149
 31
0.0
  0
LINE
  5
103
100
AcDbEntity
  8
0
370
    -3
390
0
  6
Continuous
100
AcDbLine
 10
185.985988
 20
-167.929149
 30
0.0
 11
184.185988
 21
-167.929149
 31
0.0
  0
LINE
  5
104
100
AcDbEntity
  8
0
370
    -3
390
0
  6
Continuous
100
AcDbLine
 10
185.985988
 20
-217.929149
 30
0.0
 11
184.185988
 21
-217.929149
 31
0.0
  0
LINE
  5
105
100
AcDbEntity
  8
0
370
    -3
390
0
  6
Continuous
100
AcDbLine
 10
186.185988
 20
-217.729149
 30
0.0
 11
185.985988
 21
-217.929149
 31
0.0
  0
LINE
  5
106
100
AcDbEntity
  8
0
370
    -3
390
0
  6
Continuous
100
AcDbLine
 10
186.185988
 20
-217.579149
 30
0.0
 11
186.185988
 21
-217.729149
 31
0.0
  0
LINE
  5
107
100
AcDbEntity
  8
0
370
    -3
390
0
  6
Continuous
100
AcDbLine
 10
188.185988
 20
-216.779149
 30
0.0
 11
186.985988
 21
-216.779149
 31
0.0
  0
LINE
  5
108
100
AcDbEntity
  8
0
370
    -3
390
0
  6
Continuous
100
AcDbLine
 10
188.185988
 20
-216.779149
 30
0.0
 11
188.745796
 21
-216.929149
 31
0.0
  0
LINE
  5
109
100
AcDbEntity
  8
0
370
    -3
390
0
  6
Continuous
100
AcDbLine
 10
186.185988
 20
-192.929149
 30
0.0
 11
186.185988
 21
-217.579149
 31
0.0
  0
LINE
  5
10A
100
AcDbEntity
  8
0
370
    -3
390
0
  6
Continuous
100
AcDbLine
 10
186.185988
 20
-168.129149
 30
0.0
 11
185.985988
 21
-167.929149
 31
0.0
  0
LINE
  5
10B
100
AcDbEntity
  8
0
370
    -3
390
0
  6
Continuous
100
AcDbLine
 10
186.185988
 20
-168.279149
 30
0.0
 11
186.185988
 21
-168.129149
 31
0.0
  0
LINE
  5
10C
100
AcDbEntity
  8
0
370
    -3
390
0
  6
Continuous
100
AcDbLine
 10
188.185988
 20
-169.079149
 30
0.0
 11
186.985988
 21
-169.079149
 31
0.0
  0
LINE
  5
10D
100
AcDbEntity
  8
0
370
    -3
390
0
  6
Continuous
100
AcDbLine
 10
188.185988
 20
-169.079149
 30
0.0
 11
188.745796
 21
-168.929149
 31
0.0
  0
LINE
  5
10E
100
AcDbEntity
  8
0
370
    -3
390
0
  6
Continuous
100
AcDbLine
 10
186.185988
 20
-192.929149
 30
0.0
 11
186.185988
 21
-168.279149
 31
0.0
  0
LINE
  5
10F
100
AcDbEntity
  8
0
370
    -3
390
0
  6
Continuous
100
AcDbLine
 10
174.685988
 20
-197.929149
 30
0.0
 11
169.685988
 21
-197.929149
 31
0.0
  0
LINE
  5
110
100
AcDbEntity
  8
0
370
    -3
390
0
  6
Continuous
100
AcDbLine
 10
174.685988
 20
-279.833983
 30
0.0
 11
169.685988
 21
-279.833983
 31
0.0
  0
LINE
  5
111
100
AcDbEntity
  8
0
370
    -3
390
0
  6
Continuous
100
AcDbLine
 10
174.685988
 20
-315.07381
 30
0.0
 11
169.685988
 21
-315.07381
 31
0.0
  0
LINE
  5
112
100
AcDbEntity
  8
0
370
    -3
390
0
  6
Continuous
100
AcDbLine
 10
167.685988
 20
-199.929149
 30
0.0
 11
167.685988
 21
-313.07381
 31
0.0
  0
LINE
  5
113
100
AcDbEntity
  8
0
370
    -3
390
0
  6
Continuous
100
AcDbLine
 10
174.685988
 20
-187.929149
 30
0.0
 11
169.685988
 21
-187.929149
 31
0.0
  0
LINE
  5
114
100
AcDbEntity
  8
0
370
    -3
390
0
  6
Continuous
100
AcDbLine
 10
174.685988
 20
-106.024316
 30
0.0
 11
169.685988
 21
-106.024316
 31
0.0
  0
LINE
  5
115
100
AcDbEntity
  8
0
370
    -3
390
0
  6
Continuous
100
AcDbLine
 10
174.685988
 20
-70.784488
 30
0.0
 11
169.685988
 21
-70.784488
 31
0.0
  0
LINE
  5
116
100
AcDbEntity
  8
0
370
    -3
390
0
  6
Continuous
100
AcDbLine
 10
167.685988
 20
-185.929149
 30
0.0
 11
167.685988
 21
-72.784488
 31
0.0
  0
LINE
  5
117
100
AcDbEntity
  8
0
370
    -3
390
0
  6
CENTER
100
AcDbLine
 10
183.577377
 20
-327.279438
 30
0.0
 11
147.143645
 21
-327.279438
 31
0.0
  0
LINE
  5
118
100
AcDbEntity
  8
0
370
    -3
390
0
  6
CENTER
100
AcDbLine
 10
181.267698
 20
-58.578861
 30
0.0
 11
148.744704
 21
-58.578861
 31
0.0
  0
LINE
  5
119
100
AcDbEntity
  8
0
370
    -3
390
0
  6
Continuous
100
AcDbLine
 10
154.685988
 20
-347.429149
 30
0.0
 11
154.685988
 21
-38.429149
 31
0.0
  0
LINE
  5
11A
100
AcDbEntity
  8
0
370
    -3
390
0
  6
CENTER
100
AcDbLine
 10
265.88192
 20
-192.929149
 30
0.0
 11
123.720742
 21
-192.929149
 31
0.0
  0
LINE
  5
11B
100
AcDbEntity
  8
0
370
    -3
390
0
  6
Continuous
100
AcDbLine
 10
174.685988
 20
-192.929149
 30
0.0
 11
174.685988
 21
-350.429149
 31
0.0
  0
LINE
  5
11C
100
AcDbEntity
  8
0
370
    -3
390
0
  6
Continuous
100
AcDbLine
 10
178.685988
 20
-192.929149
 30
0.0
 11
178.685988
 21
-336.929149
 31
0.0
  0
LINE
  5
11D
100
AcDbEntity
  8
0
370
    -3
390
0
  6
Continuous
100
AcDbLine
 10
182.185988
 20
-192.929149
 30
0.0
 11
182.185988
 21
-257.929149
 31
0.0
  0
LINE
  5
11E
100
AcDbEntity
  8
0
370
    -3
390
0
  6
Continuous
100
AcDbLine
 10
174.685988
 20
-350.429149
 30
0.0
 11
157.685988
 21
-350.429149
 31
0.0
  0
LINE
  5
11F
100
AcDbEntity
  8
0
370
    -3
390
0
  6
Continuous
100
AcDbLine
 10
178.685988
 20
-192.929149
 30
0.0
 11
178.685988
 21
-48.929149
 31
0.0
  0
LINE
  5
120
100
AcDbEntity
  8
0
370
    -3
390
0
  6
Continuous
100
AcDbLine
 10
182.185988
 20
-192.929149
 30
0.0
 11
182.185988
 21
-127.673972
 31
0.0
  0
LINE
  5
121
100
AcDbEntity
  8
0
370
    -3
390
0
  6
Continuous
100
AcDbLine
 10
174.685988
 20
-192.929149
 30
0.0
 11
174.685988
 21
-35.429149
 31
0.0
  0
LINE
  5
122
100
AcDbEntity
  8
0
370
    -3
390
0
  6
Continuous
100
AcDbLine
 10
177.685988
 20
-337.929149
 30
0.0
 11
174.685988
 21
-337.929149
 31
0.0
  0
LINE
  5
123
100
AcDbEntity
  8
0
370
    -3
390
0
  6
Continuous
100
AcDbLine
 10
174.685988
 20
-35.429149
 30
0.0
 11
157.685988
 21
-35.429149
 31
0.0
  0
LINE
  5
124
100
AcDbEntity
  8
0
370
    -3
390
0
  6
Continuous
100
AcDbLine
 10
177.685988
 20
-47.929149
 30
0.0
 11
174.685988
 21
-47.929149
 31
0.0
  0
LINE
  5
125
100
AcDbEntity
  8
0
370
    -3
390
0
  6
Continuous
100
AcDbLine
 10
184.185988
 20
-236.929149
 30
0.0
 11
184.185988
 21
-148.929149
 31
0.0
  0
LINE
  5
126
100
AcDbEntity
  8
0
370
    -3
390
0
  6
Continuous
100
AcDbLine
 10
160.685988
 20
-361.829177
 30
0.0
 11
160.685988
 21
-353.429149
 31
0.0
  0
LINE
  5
127
100
AcDbEntity
  8
0
370
    -3
390
0
  6
Continuous
100
AcDbLine
 10
178.685988
 20
-336.929149
 30
0.0
 11
177.685988
 21
-337.929149
 31
0.0
  0
LINE
  5
128
100
AcDbEntity
  8
0
370
    -3
390
0
  6
Continuous
100
AcDbLine
 10
178.685988
 20
-48.929149
 30
0.0
 11
177.685988
 21
-47.929149
 31
0.0
  0
LINE
  5
129
100
AcDbEntity
  8
0
370
    -3
390
0
  6
Continuous
100
AcDbLine
 10
183.185988
 20
-148.929149
 30
0.0
 11
184.185988
 21
-148.929149
 31
0.0
  0
LINE
  5
12A
100
AcDbEntity
  8
0
370
    -3
390
0
  6
Continuous
100
AcDbLine
 10
183.185988
 20
-236.929149
 30
0.0
 11
184.185988
 21
-236.929149
 31
0.0
  0
LINE
  5
12B
100
AcDbEntity
  8
0
370
    -3
390
0
  6
Continuous
100
AcDbLine
 10
153.221522
 20
-49.376166
 30
0.0
 11
118.828694
 21
-83.768994
 31
0.0
  0
LINE
  5
12C
100
AcDbEntity
  8
0
370
    -3
390
0
  6
Continuous
100
AcDbLine
 10
149.991308
 20
-108.475918
 30
0.0
 11
122.147798
 21
-108.475918
 31
0.0
  0
LINE
  5
12D
100
AcDbEntity
  8
0
370
    -3
390
0
  6
Continuous
100
AcDbLine
 10
152.571615
 20
-78.444691
 30
0.0
 11
118.733209
 21
-102.358075
 31
0.0
  0
LINE
  5
12E
100
AcDbEntity
  8
0
370
    -3
390
0
  6
Continuous
100
AcDbLine
 10
152.571615
 20
-83.645812
 30
0.0
 11
118.733209
 21
-107.559196
 31
0.0
  0
ARC
  5
12F
100
AcDbEntity
  8
0
370
    -3
390
0
  6
Continuous
100
AcDbCircle
 10
198.185581
 20
-192.960382
 30
0.0
 40
7.0
100
AcDbArc
 50
90.0
 51
270.0
  0
ARC
  5
130
100
AcDbEntity
  8
0
370
    -3
390
0
  6
Continuous
100
AcDbCircle
 10
260.785988
 20
-169.329149
 30
0.0
 40
0.4
100
AcDbArc
 50
0.0
 51
90.0
  0
ARC
  5
131
100
AcDbEntity
  8
0
370
    -3
390
0
  6
Continuous
100
AcDbCircle
 10
260.785988
 20
-216.529149
 30
0.0
 40
0.4
100
AcDbArc
 50
270.0
 51
0.0
  0
ARC
  5
132
100
AcDbEntity
  8
0
370
    -3
390
0
  6
Continuous
100
AcDbCircle
 10
186.985988
 20
-217.579149
 30
0.0
 40
0.8
100
AcDbArc
 50
90.0
 51
180.0
  0
ARC
  5
133
100
AcDbEntity
  8
0
370
    -3
390
0
  6
Continuous
100
AcDbCircle
 10
186.985988
 20
-168.279149
 30
0.0
 40
0.8
100
AcDbArc
 50
180.0
 51
270.0
  0
ARC
  5
134
100
AcDbEntity
  8
0
370
    -3
390
0
  6
Continuous
100
AcDbCircle
 10
169.685988
 20
-313.07381
 30
0.0
 40
2.0
100
AcDbArc
 50
180.0
 51
270.0
  0
ARC
  5
135
100
AcDbEntity
  8
0
370
    -3
390
0
  6
Continuous
100
AcDbCircle
 10
169.685988
 20
-277.833983
 30
0.0
 40
2.0
100
AcDbArc
 50
180.0
 51
270.0
  0
ARC
  5
136
100
AcDbEntity
  8
0
370
    -3
390
0
  6
Continuous
100
AcDbCircle
 10
169.685988
 20
-199.929149
 30
0.0
 40
2.0
100
AcDbArc
 50
90.0
 51
180.0
  0
ARC
  5
137
100
AcDbEntity
  8
0
370
    -3
390
0
  6
Continuous
100
AcDbCircle
 10
169.685988
 20
-72.784488
 30
0.0
 40
2.0
100
AcDbArc
 50
90.0
 51
180.0
  0
ARC
  5
138
100
AcDbEntity
  8
0
370
    -3
390
0
  6
Continuous
100
AcDbCircle
 10
169.685988
 20
-108.024316
 30
0.0
 40
2.0
100
AcDbArc
 50
90.0
 51
180.0
  0
ARC
  5
139
100
AcDbEntity
  8
0
370
    -3
390
0
  6
Continuous
100
AcDbCircle
 10
169.685988
 20
-185.929149
 30
0.0
 40
2.0
100
AcDbArc
 50
180.0
 51
270.0
  0
ARC
  5
13A
100
AcDbEntity
  8
0
370
    -3
390
0
  6
Continuous
100
AcDbCircle
 10
182.685988
 20
-266.280796
 30
0.0
 40
5.0
100
AcDbArc
 50
123.367013
 51
143.130102
  0
ARC
  5
13B
100
AcDbEntity
  8
0
370
    -3
390
0
  6
Continuous
100
AcDbCircle
 10
157.685988
 20
-347.429149
 30
0.0
 40
3.0
100
AcDbArc
 50
180.0
 51
270.0
  0
ARC
  5
13C
100
AcDbEntity
  8
0
370
    -3
390
0
  6
Continuous
100
AcDbCircle
 10
177.185988
 20
-127.673972
 30
0.0
 40
5.0
100
AcDbArc
 50
0.0
 51
72.542397
  0
ARC
  5
13D
100
AcDbEntity
  8
0
370
    -3
390
0
  6
Continuous
100
AcDbCircle
 10
183.185988
 20
-237.929149
 30
0.0
 40
1.0
100
AcDbArc
 50
90.0
 51
180.0
  0
ARC
  5
13E
100
AcDbEntity
  8
0
370
    -3
390
0
  6
Continuous
100
AcDbCircle
 10
183.185988
 20
-147.929149
 30
0.0
 40
1.0
100
AcDbArc
 50
180.0
 51
270.0
  0
ARC
  5
13F
100
AcDbEntity
  8
0
370
    -3
390
0
  6
Continuous
100
AcDbCircle
 10
157.685988
 20
-38.429149
 30
0.0
 40
3.0
100
AcDbArc
 50
90.0
 51
180.0
  0
ARC
  5
140
100
AcDbEntity
  8
0
370
    -3
390
0
  6
Continuous
100
AcDbCircle
 10
163.685988
 20
-353.429149
 30
0.0
 40
3.0
100
AcDbArc
 50
90.0
 51
180.0
  0
ARC
  5
141
100
AcDbEntity
  8
0
370
    -3
390
0
  6
Continuous
100
AcDbCircle
 10
157.685988
 20
-361.829177
 30
0.0
 40
3.0
100
AcDbArc
 50
268.122123
 51
0.0
  0
ARC
  5
142
100
AcDbEntity
  8
0
370
    -3
390
0
  6
Continuous
100
AcDbCircle
 10
149.685988
 20
-45.840632
 30
0.0
 40
5.0
100
AcDbArc
 50
315.0
 51
0.0
  0
ARC
  5
143
100
AcDbEntity
  8
0
370
    -3
390
0
  6
Continuous
100
AcDbCircle
 10
177.185988
 20
-257.929149
 30
0.0
 40
5.0
100
AcDbArc
 50
303.367013
 51
0.0
  0
ARC
  5
144
100
AcDbEntity
  8
0
370
    -3
390
0
  6
Continuous
100
AcDbCircle
 10
149.685988
 20
-74.361412
 30
0.0
 40
5.0
100
AcDbArc
 50
305.248603
 51
0.0
  0
ARC
  5
145
100
AcDbEntity
  8
0
370
    -3
390
0
  6
Continuous
100
AcDbCircle
 10
149.685988
 20
-79.562534
 30
0.0
 40
5.0
100
AcDbArc
 50
305.248603
 51
0.0
  0
ARC
  5
146
100
AcDbEntity
  8
0
370
    -3
390
0
  6
Continuous
100
AcDbCircle
 10
115.29316
 20
-80.23346
 30
0.0
 40
5.0
100
AcDbArc
 50
272.0
 51
315.0
  0
ARC
  5
147
100
AcDbEntity
  8
0
370
    -3
390
0
  6
Continuous
100
AcDbCircle
 10
115.847582
 20
-98.274797
 30
0.0
 40
5.0
100
AcDbArc
 50
270.0
 51
305.248603
  0
ARC
  5
148
100
AcDbEntity
  8
0
370
    -3
390
0
  6
Continuous
100
AcDbCircle
 10
115.847582
 20
-103.475918
 30
0.0
 40
5.0
100
AcDbArc
 50
270.0
 51
305.248603
  0
LINE
  5
149
100
AcDbEntity
  8
0
370
    -3
390
0
  6
Continuous
100
AcDbLine
 10
341.775492
 20
-50.429149
 30
0.0
 11
341.775492
 21
-335.429149
 31
0.0
  0
LINE
  5
14A
100
AcDbEntity
  8
0
370
    -3
390
0
  6
Continuous
100
AcDbLine
 10
641.775492
 20
-35.429149
 30
0.0
 11
356.775492
 21
-35.429149
 31
0.0
  0
LINE
  5
14B
100
AcDbEntity
  8
0
370
    -3
390
0
  6
Continuous
100
AcDbLine
 10
371.200812
 20
-100.209808
 30
0.0
 11
343.239958
 21
-72.248955
 31
0.0
  0
LINE
  5
14C
100
AcDbEntity
  8
0
370
    -3
390
0
  6
Continuous
100
AcDbLine
 10
406.556151
 20
-64.854469
 30
0.0
 11
378.595297
 21
-36.893616
 31
0.0
  0
LINE
  5
14D
100
AcDbEntity
  8
0
370
    -3
390
0
  6
CENTER
100
AcDbLine
 10
378.713786
 20
-72.367443
 30
0.0
 11
351.136621
 21
-44.790279
 31
0.0
  0
ARC
  5
14E
100
AcDbEntity
  8
0
370
    -3
390
0
  6
Continuous
100
AcDbCircle
 10
474.244259
 20
-198.56732
 30
0.0
 40
107.308449
100
AcDbArc
 50
92.924524
 51
172.056783
  0
ARC
  5
14F
100
AcDbEntity
  8
0
370
    -3
390
0
  6
Continuous
100
AcDbCircle
 10
356.775492
 20
-50.429149
 30
0.0
 40
15.0
100
AcDbArc
 50
90.0
 51
180.0
  0
ARC
  5
150
100
AcDbEntity
  8
0
370
    -3
390
0
  6
Continuous
100
AcDbCircle
 10
499.275492
 20
-192.929149
 30
0.0
 40
150.0
100
AcDbArc
 50
57.635625
 51
122.364375
  0
ARC
  5
151
100
AcDbEntity
  8
0
370
    -3
390
0
  6
Continuous
100
AcDbCircle
 10
413.627219
 20
-57.783401
 30
0.0
 40
10.0
100
AcDbArc
 50
225.0
 51
302.364375
  0
ARC
  5
152
100
AcDbEntity
  8
0
370
    -3
390
0
  6
Continuous
100
AcDbCircle
 10
499.275492
 20
-192.929149
 30
0.0
 40
150.0
100
AcDbArc
 50
147.635625
 51
177.002775
  0
ARC
  5
153
100
AcDbEntity
  8
0
370
    -3
390
0
  6
Continuous
100
AcDbCircle
 10
364.129744
 20
-107.280876
 30
0.0
 40
10.0
100
AcDbArc
 50
327.635625
 51
45.0
  0
ARC
  5
154
100
AcDbEntity
  8
0
370
    -3
390
0
  6
Continuous
100
AcDbCircle
 10
375.059763
 20
-40.429149
 30
0.0
 40
5.0
100
AcDbArc
 50
45.0
 51
90.0
  0
ARC
  5
155
100
AcDbEntity
  8
0
370
    -3
390
0
  6
CENTER
100
AcDbCircle
 10
499.275492
 20
-192.929149
 30
0.0
 40
190.0
100
AcDbArc
 50
129.119042
 51
140.880958
  0
CIRCLE
  5
156
100
AcDbEntity
  8
0
370
    -3
390
0
  6
Continuous
100
AcDbCircle
 10
364.925204
 20
-58.578861
 30
0.0
 40
12.0
  0
ARC
  5
157
100
AcDbEntity
  8
0
370
    -3
390
0
  6
Continuous
100
AcDbCircle
 10
346.775492
 20
-68.713421
 30
0.0
 40
5.0
100
AcDbArc
 50
180.0
 51
225.0
  0
CIRCLE
  5
158
100
AcDbEntity
  8
0
370
    -3
390
0
  6
Continuous
100
AcDbCircle
 10
499.275492
 20
-192.929149
 30
0.0
 40
145.0
  0
CIRCLE
  5
159
100
AcDbEntity
  8
0
370
    -3
390
0
  6
Continuous
100
AcDbCircle
 10
499.275492
 20
-192.929149
 30
0.0
 40
138.0
  0
LINE
  5
15A
100
AcDbEntity
  8
0
370
    -3
390
0
  6
Continuous
100
AcDbLine
 10
471.775492
 20
-199.960382
 30
0.0
 11
480.775492
 21
-199.960382
 31
0.0
  0
LINE
  5
15B
100
AcDbEntity
  8
0
370
    -3
390
0
  6
Continuous
100
AcDbLine
 10
471.775492
 20
-185.960382
 30
0.0
 11
480.775492
 21
-185.960382
 31
0.0
  0
LINE
  5
15C
100
AcDbEntity
  8
0
370
    -3
390
0
  6
Continuous
100
AcDbLine
 10
480.775492
 20
-185.960382
 30
0.0
 11
480.775492
 21
-199.960382
 31
0.0
  0
LINE
  5
15D
100
AcDbEntity
  8
0
370
    -3
390
0
  6
Continuous
100
AcDbLine
 10
471.775492
 20
-185.960382
 30
0.0
 11
471.775492
 21
-199.960382
 31
0.0
  0
LINE
  5
15E
100
AcDbEntity
  8
0
370
    -3
390
0
  6
Continuous
100
AcDbLine
 10
502.775492
 20
-58.085722
 30
0.0
 11
502.775492
 21
-120.219109
 31
0.0
  0
LINE
  5
15F
100
AcDbEntity
  8
0
370
    -3
390
0
  6
Continuous
100
AcDbLine
 10
495.775492
 20
-58.085722
 30
0.0
 11
495.775492
 21
-120.219109
 31
0.0
  0
LINE
  5
160
100
AcDbEntity
  8
0
370
    -3
390
0
  6
Continuous
100
AcDbLine
 10
634.11892
 20
-196.429149
 30
0.0
 11
571.985533
 21
-196.429149
 31
0.0
  0
LINE
  5
161
100
AcDbEntity
  8
0
370
    -3
390
0
  6
Continuous
100
AcDbLine
 10
634.11892
 20
-189.429149
 30
0.0
 11
571.985533
 21
-189.429149
 31
0.0
  0
LINE
  5
162
100
AcDbEntity
  8
0
370
    -3
390
0
  6
CENTER
100
AcDbLine
 10
682.590179
 20
-192.929149
 30
0.0
 11
332.014836
 21
-192.929149
 31
0.0
  0
LINE
  5
163
100
AcDbEntity
  8
0
370
    -3
390
0
  6
Continuous
100
AcDbLine
 10
591.994833
 20
-64.854469
 30
0.0
 11
619.955687
 21
-36.893616
 31
0.0
  0
CIRCLE
  5
164
100
AcDbEntity
  8
0
370
    -3
390
0
  6
Continuous
100
AcDbCircle
 10
499.275492
 20
-192.929149
 30
0.0
 40
3.325
  0
CIRCLE
  5
165
100
AcDbEntity
  8
0
370
    -3
390
0
  6
Continuous
100
AcDbCircle
 10
499.275492
 20
-192.929149
 30
0.0
 40
4.0
  0
ARC
  5
166
100
AcDbEntity
  8
0
370
    -3
390
0
  6
Continuous
100
AcDbCircle
 10
499.275492
 20
-192.960382
 30
0.0
 40
24.0
100
AcDbArc
 50
196.957763
 51
163.042237
  0
ARC
  5
167
100
AcDbEntity
  8
0
370
    -3
390
0
  6
Continuous
100
AcDbCircle
 10
588.18232
 20
-285.013762
 30
0.0
 40
10.0
100
AcDbArc
 50
186.015134
 51
313.994124
  0
ARC
  5
168
100
AcDbEntity
  8
0
370
    -3
390
0
  6
Continuous
100
AcDbCircle
 10
530.501654
 20
-291.091649
 30
0.0
 40
48.0
100
AcDbArc
 50
6.015134
 51
56.987252
  0
ARC
  5
169
100
AcDbEntity
  8
0
370
    -3
390
0
  6
Continuous
100
AcDbCircle
 10
562.10154
 20
-242.455786
 30
0.0
 40
10.0
100
AcDbArc
 50
141.750802
 51
236.987252
  0
ARC
  5
16A
100
AcDbEntity
  8
0
370
    -3
390
0
  6
Continuous
100
AcDbCircle
 10
490.775492
 20
-95.681246
 30
0.0
 40
5.0
100
AcDbArc
 50
0.0
 51
90.819237
  0
ARC
  5
16B
100
AcDbEntity
  8
0
370
    -3
390
0
  6
Continuous
100
AcDbCircle
 10
499.244259
 20
-687.929149
 30
0.0
 40
597.308449
100
AcDbArc
 50
90.819237
 51
92.924524
  0
ARC
  5
16C
100
AcDbEntity
  8
0
370
    -3
390
0
  6
Continuous
100
AcDbCircle
 10
507.775492
 20
-95.681246
 30
0.0
 40
5.0
100
AcDbArc
 50
89.180763
 51
180.0
  0
ARC
  5
16D
100
AcDbEntity
  8
0
370
    -3
390
0
  6
Continuous
100
AcDbCircle
 10
499.306725
 20
-687.929149
 30
0.0
 40
597.308449
100
AcDbArc
 50
87.075476
 51
89.180763
  0
ARC
  5
16E
100
AcDbEntity
  8
0
370
    -3
390
0
  6
Continuous
100
AcDbCircle
 10
505.775492
 20
-120.219109
 30
0.0
 40
3.0
100
AcDbArc
 50
180.0
 51
264.891556
  0
ARC
  5
16F
100
AcDbEntity
  8
0
370
    -3
390
0
  6
Continuous
100
AcDbCircle
 10
492.775492
 20
-120.219109
 30
0.0
 40
3.0
100
AcDbArc
 50
275.108444
 51
0.0
  0
ARC
  5
170
100
AcDbEntity
  8
0
370
    -3
390
0
  6
Continuous
100
AcDbCircle
 10
492.775492
 20
-58.085722
 30
0.0
 40
3.0
100
AcDbArc
 50
0.0
 51
92.759753
  0
ARC
  5
171
100
AcDbEntity
  8
0
370
    -3
390
0
  6
Continuous
100
AcDbCircle
 10
505.775492
 20
-58.085722
 30
0.0
 40
3.0
100
AcDbArc
 50
87.240247
 51
180.0
  0
ARC
  5
172
100
AcDbEntity
  8
0
370
    -3
390
0
  6
Continuous
100
AcDbCircle
 10
524.306725
 20
-198.56732
 30
0.0
 40
107.308449
100
AcDbArc
 50
7.943217
 51
87.075476
  0
ARC
  5
173
100
AcDbEntity
  8
0
370
    -3
390
0
  6
Continuous
100
AcDbCircle
 10
571.985533
 20
-199.429149
 30
0.0
 40
3.0
100
AcDbArc
 50
90.0
 51
174.891556
  0
ARC
  5
174
100
AcDbEntity
  8
0
370
    -3
390
0
  6
Continuous
100
AcDbCircle
 10
571.985533
 20
-186.429149
 30
0.0
 40
3.0
100
AcDbArc
 50
185.108444
 51
270.0
  0
CIRCLE
  5
175
100
AcDbEntity
  8
0
370
    -3
390
0
  6
Continuous
100
AcDbCircle
 10
499.275492
 20
-192.929149
 30
0.0
 40
44.0
  0
CIRCLE
  5
176
100
AcDbEntity
  8
0
370
    -3
390
0
  6
Continuous
100
AcDbCircle
 10
499.275492
 20
-192.929149
 30
0.0
 40
34.0
  0
ARC
  5
177
100
AcDbEntity
  8
0
370
    -3
390
0
  6
Continuous
100
AcDbCircle
 10
584.923766
 20
-57.783401
 30
0.0
 40
10.0
100
AcDbArc
 50
237.635625
 51
315.0
  0
ARC
  5
178
100
AcDbEntity
  8
0
370
    -3
390
0
  6
Continuous
100
AcDbCircle
 10
530.501654
 20
-291.091649
 30
0.0
 40
41.0
100
AcDbArc
 50
0.074479
 51
58.061808
  0
ARC
  5
179
100
AcDbEntity
  8
0
370
    -3
390
0
  6
Continuous
100
AcDbCircle
 10
499.275492
 20
-192.929149
 30
0.0
 40
70.0
100
AcDbArc
 50
90.0
 51
0.0
  0
ARC
  5
17A
100
AcDbEntity
  8
0
370
    -3
390
0
  6
Continuous
100
AcDbCircle
 10
581.50161
 20
-291.025354
 30
0.0
 40
10.0
100
AcDbArc
 50
180.074479
 51
309.970383
  0
ARC
  5
17B
100
AcDbEntity
  8
0
370
    -3
390
0
  6
Continuous
100
AcDbCircle
 10
557.480864
 20
-247.812067
 30
0.0
 40
10.0
100
AcDbArc
 50
136.682825
 51
238.061808
  0
LINE
  5
17C
100
AcDbEntity
  8
0
370
    -3
390
0
  6
Continuous
100
AcDbLine
 10
631.615174
 20
-201.429149
 30
0.0
 11
631.615174
 21
-231.316719
 31
0.0
  0
LINE
  5
17D
100
AcDbEntity
  8
0
370
    -3
390
0
  6
Continuous
100
AcDbLine
 10
652.066199
 20
-197.929149
 30
0.0
 11
654.775492
 21
-197.929149
 31
0.0
  0
LINE
  5
17E
100
AcDbEntity
  8
0
370
    -3
390
0
  6
Continuous
100
AcDbLine
 10
652.066199
 20
-187.929149
 30
0.0
 11
654.775492
 21
-187.929149
 31
0.0
  0
LINE
  5
17F
100
AcDbEntity
  8
0
370
    -3
390
0
  6
Continuous
100
AcDbLine
 10
656.775492
 20
-50.429149
 30
0.0
 11
656.775492
 21
-335.429149
 31
0.0
  0
LINE
  5
180
100
AcDbEntity
  8
0
370
    -3
390
0
  6
Continuous
100
AcDbLine
 10
627.350172
 20
-100.209808
 30
0.0
 11
655.311026
 21
-72.248955
 31
0.0
  0
LINE
  5
181
100
AcDbEntity
  8
0
370
    -3
390
0
  6
CENTER
100
AcDbLine
 10
619.837198
 20
-72.367443
 30
0.0
 11
647.414363
 21
-44.790279
 31
0.0
  0
ARC
  5
182
100
AcDbEntity
  8
0
370
    -3
390
0
  6
Continuous
100
AcDbCircle
 10
626.615174
 20
-201.429149
 30
0.0
 40
5.0
100
AcDbArc
 50
0.0
 51
90.0
  0
ARC
  5
183
100
AcDbEntity
  8
0
370
    -3
390
0
  6
Continuous
100
AcDbCircle
 10
625.633576
 20
-184.429149
 30
0.0
 40
5.0
100
AcDbArc
 50
270.0
 51
7.943217
  0
ARC
  5
184
100
AcDbEntity
  8
0
370
    -3
390
0
  6
Continuous
100
AcDbCircle
 10
634.11892
 20
-199.429149
 30
0.0
 40
3.0
100
AcDbArc
 50
357.240247
 51
90.0
  0
ARC
  5
185
100
AcDbEntity
  8
0
370
    -3
390
0
  6
Continuous
100
AcDbCircle
 10
634.11892
 20
-186.429149
 30
0.0
 40
3.0
100
AcDbArc
 50
270.0
 51
2.759753
  0
ARC
  5
186
100
AcDbEntity
  8
0
370
    -3
390
0
  6
Continuous
100
AcDbCircle
 10
654.775492
 20
-195.929149
 30
0.0
 40
2.0
100
AcDbArc
 50
270.0
 51
0.0
  0
ARC
  5
187
100
AcDbEntity
  8
0
370
    -3
390
0
  6
Continuous
100
AcDbCircle
 10
654.775492
 20
-189.929149
 30
0.0
 40
2.0
100
AcDbArc
 50
0.0
 51
90.0
  0
ARC
  5
188
100
AcDbEntity
  8
0
370
    -3
390
0
  6
Continuous
100
AcDbCircle
 10
626.615174
 20
-231.316719
 30
0.0
 40
5.0
100
AcDbArc
 50
343.224145
 51
0.0
  0
ARC
  5
189
100
AcDbEntity
  8
0
370
    -3
390
0
  6
Continuous
100
AcDbCircle
 10
652.066199
 20
-200.929149
 30
0.0
 40
3.0
100
AcDbArc
 50
90.0
 51
177.002775
  0
ARC
  5
18A
100
AcDbEntity
  8
0
370
    -3
390
0
  6
Continuous
100
AcDbCircle
 10
652.066199
 20
-184.929149
 30
0.0
 40
3.0
100
AcDbArc
 50
182.997225
 51
270.0
  0
ARC
  5
18B
100
AcDbEntity
  8
0
370
    -3
390
0
  6
Continuous
100
AcDbCircle
 10
499.275492
 20
-192.929149
 30
0.0
 40
150.0
100
AcDbArc
 50
2.997225
 51
32.364375
  0
ARC
  5
18C
100
AcDbEntity
  8
0
370
    -3
390
0
  6
Continuous
100
AcDbCircle
 10
641.775492
 20
-50.429149
 30
0.0
 40
15.0
100
AcDbArc
 50
0.0
 51
90.0
  0
ARC
  5
18D
100
AcDbEntity
  8
0
370
    -3
390
0
  6
Continuous
100
AcDbCircle
 10
499.275492
 20
-192.929149
 30
0.0
 40
150.0
100
AcDbArc
 50
327.635625
 51
357.002775
  0
ARC
  5
18E
100
AcDbEntity
  8
0
370
    -3
390
0
  6
Continuous
100
AcDbCircle
 10
634.42124
 20
-107.280876
 30
0.0
 40
10.0
100
AcDbArc
 50
135.0
 51
212.364375
  0
ARC
  5
18F
100
AcDbEntity
  8
0
370
    -3
390
0
  6
Continuous
100
AcDbCircle
 10
651.775492
 20
-68.713421
 30
0.0
 40
5.0
100
AcDbArc
 50
315.0
 51
0.0
  0
CIRCLE
  5
190
100
AcDbEntity
  8
0
370
    -3
390
0
  6
Continuous
100
AcDbCircle
 10
633.62578
 20
-58.578861
 30
0.0
 40
12.0
  0
ARC
  5
191
100
AcDbEntity
  8
0
370
    -3
390
0
  6
Continuous
100
AcDbCircle
 10
623.491221
 20
-40.429149
 30
0.0
 40
5.0
100
AcDbArc
 50
90.0
 51
135.0
  0
ARC
  5
192
100
AcDbEntity
  8
0
370
    -3
390
0
  6
CENTER
100
AcDbCircle
 10
499.275492
 20
-192.929149
 30
0.0
 40
190.0
100
AcDbArc
 50
38.073196
 51
51.697379
  0
LINE
  5
193
100
AcDbEntity
  8
0
370
    -3
390
0
  6
Continuous
100
AcDbLine
 10
578.775492
 20
-364.929149
 30
0.0
 11
499.275492
 21
-364.929149
 31
0.0
  0
LINE
  5
194
100
AcDbEntity
  8
0
370
    -3
390
0
  6
Continuous
100
AcDbLine
 10
641.775492
 20
-350.429149
 30
0.0
 11
356.775492
 21
-350.429149
 31
0.0
  0
LINE
  5
195
100
AcDbEntity
  8
0
370
    -3
390
0
  6
Continuous
100
AcDbLine
 10
627.350172
 20
-285.648491
 30
0.0
 11
655.311026
 21
-313.609344
 31
0.0
  0
LINE
  5
196
100
AcDbEntity
  8
0
370
    -3
390
0
  6
Continuous
100
AcDbLine
 10
591.994833
 20
-321.00383
 30
0.0
 11
619.955687
 21
-348.964683
 31
0.0
  0
LINE
  5
197
100
AcDbEntity
  8
0
370
    -3
390
0
  6
CENTER
100
AcDbLine
 10
619.837198
 20
-313.490856
 30
0.0
 11
647.414363
 21
-341.06802
 31
0.0
  0
ARC
  5
198
100
AcDbEntity
  8
0
370
    -3
390
0
  6
Continuous
100
AcDbCircle
 10
596.751086
 20
-352.866177
 30
0.0
 40
6.0
100
AcDbArc
 50
156.035454
 51
177.016
  0
ARC
  5
199
100
AcDbEntity
  8
0
370
    -3
390
0
  6
Continuous
100
AcDbCircle
 10
578.775492
 20
-352.929149
 30
0.0
 40
12.0
100
AcDbArc
 50
270.0
 51
2.865984
  0
ARC
  5
19A
100
AcDbEntity
  8
0
370
    -3
390
0
  6
Continuous
100
AcDbCircle
 10
641.775492
 20
-335.429149
 30
0.0
 40
15.0
100
AcDbArc
 50
270.0
 51
0.0
  0
ARC
  5
19B
100
AcDbEntity
  8
0
370
    -3
390
0
  6
Continuous
100
AcDbCircle
 10
499.275492
 20
-192.929149
 30
0.0
 40
150.0
100
AcDbArc
 50
237.635625
 51
302.364375
  0
ARC
  5
19C
100
AcDbEntity
  8
0
370
    -3
390
0
  6
Continuous
100
AcDbCircle
 10
584.923766
 20
-328.074898
 30
0.0
 40
10.0
100
AcDbArc
 50
45.0
 51
122.364375
  0
ARC
  5
19D
100
AcDbEntity
  8
0
370
    -3
390
0
  6
Continuous
100
AcDbCircle
 10
634.42124
 20
-278.577423
 30
0.0
 40
10.0
100
AcDbArc
 50
147.635625
 51
225.0
  0
ARC
  5
19E
100
AcDbEntity
  8
0
370
    -3
390
0
  6
Continuous
100
AcDbCircle
 10
623.491221
 20
-345.429149
 30
0.0
 40
5.0
100
AcDbArc
 50
225.0
 51
270.0
  0
ARC
  5
19F
100
AcDbEntity
  8
0
370
    -3
390
0
  6
CENTER
100
AcDbCircle
 10
499.275492
 20
-192.929149
 30
0.0
 40
190.0
100
AcDbArc
 50
309.119042
 51
320.880958
  0
CIRCLE
  5
1A0
100
AcDbEntity
  8
0
370
    -3
390
0
  6
Continuous
100
AcDbCircle
 10
633.62578
 20
-327.279438
 30
0.0
 40
12.0
  0
ARC
  5
1A1
100
AcDbEntity
  8
0
370
    -3
390
0
  6
Continuous
100
AcDbCircle
 10
651.775492
 20
-317.144878
 30
0.0
 40
5.0
100
AcDbArc
 50
0.0
 51
45.0
  0
LINE
  5
1A2
100
AcDbEntity
  8
0
370
    -3
390
0
  6
Continuous
100
AcDbLine
 10
419.775492
 20
-364.929149
 30
0.0
 11
499.275492
 21
-364.929149
 31
0.0
  0
LINE
  5
1A3
100
AcDbEntity
  8
0
370
    -3
390
0
  6
CENTER
100
AcDbLine
 10
378.713786
 20
-313.490856
 30
0.0
 11
351.136621
 21
-341.06802
 31
0.0
  0
LINE
  5
1A4
100
AcDbEntity
  8
0
370
    -3
390
0
  6
Continuous
100
AcDbLine
 10
371.200812
 20
-285.648491
 30
0.0
 11
343.239958
 21
-313.609344
 31
0.0
  0
LINE
  5
1A5
100
AcDbEntity
  8
0
370
    -3
390
0
  6
Continuous
100
AcDbLine
 10
406.556151
 20
-321.00383
 30
0.0
 11
378.595297
 21
-348.964683
 31
0.0
  0
ARC
  5
1A6
100
AcDbEntity
  8
0
370
    -3
390
0
  6
Continuous
100
AcDbCircle
 10
401.799898
 20
-352.866177
 30
0.0
 40
6.0
100
AcDbArc
 50
2.984
 51
23.964546
  0
ARC
  5
1A7
100
AcDbEntity
  8
0
370
    -3
390
0
  6
Continuous
100
AcDbCircle
 10
419.775492
 20
-352.929149
 30
0.0
 40
12.0
100
AcDbArc
 50
177.134016
 51
270.0
  0
CIRCLE
  5
1A8
100
AcDbEntity
  8
0
370
    -3
390
0
  6
Continuous
100
AcDbCircle
 10
364.925204
 20
-327.279438
 30
0.0
 40
12.0
  0
ARC
  5
1A9
100
AcDbEntity
  8
0
370
    -3
390
0
  6
Continuous
100
AcDbCircle
 10
356.775492
 20
-335.429149
 30
0.0
 40
15.0
100
AcDbArc
 50
180.0
 51
270.0
  0
ARC
  5
1AA
100
AcDbEntity
  8
0
370
    -3
390
0
  6
Continuous
100
AcDbCircle
 10
346.775492
 20
-317.144878
 30
0.0
 40
5.0
100
AcDbArc
 50
135.0
 51
180.0
  0
ARC
  5
1AB
100
AcDbEntity
  8
0
370
    -3
390
0
  6
Continuous
100
AcDbCircle
 10
375.059763
 20
-345.429149
 30
0.0
 40
5.0
100
AcDbArc
 50
270.0
 51
315.0
  0
ARC
  5
1AC
100
AcDbEntity
  8
0
370
    -3
390
0
  6
Continuous
100
AcDbCircle
 10
413.627219
 20
-328.074898
 30
0.0
 40
10.0
100
AcDbArc
 50
57.635625
 51
135.0
  0
ARC
  5
1AD
100
AcDbEntity
  8
0
370
    -3
390
0
  6
Continuous
100
AcDbCircle
 10
364.129744
 20
-278.577423
 30
0.0
 40
10.0
100
AcDbArc
 50
315.0
 51
32.364375
  0
ARC
  5
1AE
100
AcDbEntity
  8
0
370
    -3
390
0
  6
CENTER
100
AcDbCircle
 10
499.275492
 20
-192.929149
 30
0.0
 40
190.0
100
AcDbArc
 50
218.780323
 51
231.759041
  0
LINE
  5
1AF
100
AcDbEntity
  8
0
370
    -3
390
0
  6
Continuous
100
AcDbLine
 10
346.484786
 20
-197.929149
 30
0.0
 11
343.775492
 21
-197.929149
 31
0.0
  0
LINE
  5
1B0
100
AcDbEntity
  8
0
370
    -3
390
0
  6
Continuous
100
AcDbLine
 10
346.484786
 20
-187.929149
 30
0.0
 11
343.775492
 21
-187.929149
 31
0.0
  0
ARC
  5
1B1
100
AcDbEntity
  8
0
370
    -3
390
0
  6
Continuous
100
AcDbCircle
 10
343.775492
 20
-195.929149
 30
0.0
 40
2.0
100
AcDbArc
 50
180.0
 51
270.0
  0
ARC
  5
1B2
100
AcDbEntity
  8
0
370
    -3
390
0
  6
Continuous
100
AcDbCircle
 10
343.775492
 20
-189.929149
 30
0.0
 40
2.0
100
AcDbArc
 50
90.0
 51
180.0
  0
ARC
  5
1B3
100
AcDbEntity
  8
0
370
    -3
390
0
  6
Continuous
100
AcDbCircle
 10
346.484786
 20
-184.929149
 30
0.0
 40
3.0
100
AcDbArc
 50
270.0
 51
357.002775
  0
ARC
  5
1B4
100
AcDbEntity
  8
0
370
    -3
390
0
  6
Continuous
100
AcDbCircle
 10
346.484786
 20
-200.929149
 30
0.0
 40
3.0
100
AcDbArc
 50
2.997225
 51
90.0
  0
ARC
  5
1B5
100
AcDbEntity
  8
0
370
    -3
390
0
  6
Continuous
100
AcDbCircle
 10
499.275492
 20
-192.929149
 30
0.0
 40
150.0
100
AcDbArc
 50
182.997225
 51
212.364375
  0
LINE
  5
1B6
100
AcDbEntity
  8
0
370
    -3
390
0
  6
Continuous
100
AcDbLine
 10
364.432064
 20
-189.429149
 30
0.0
 11
426.565451
 21
-189.429149
 31
0.0
  0
ARC
  5
1B7
100
AcDbEntity
  8
0
370
    -3
390
0
  6
Continuous
100
AcDbCircle
 10
372.917408
 20
-184.429149
 30
0.0
 40
5.0
100
AcDbArc
 50
172.056783
 51
270.0
  0
ARC
  5
1B8
100
AcDbEntity
  8
0
370
    -3
390
0
  6
Continuous
100
AcDbCircle
 10
364.432064
 20
-186.429149
 30
0.0
 40
3.0
100
AcDbArc
 50
177.240247
 51
270.0
  0
LINE
  5
1B9
100
AcDbEntity
  8
0
370
    -3
390
0
  6
Continuous
100
AcDbLine
 10
366.93581
 20
-201.429149
 30
0.0
 11
366.93581
 21
-231.316719
 31
0.0
  0
LINE
  5
1BA
100
AcDbEntity
  8
0
370
    -3
390
0
  6
Continuous
100
AcDbLine
 10
364.432064
 20
-196.429149
 30
0.0
 11
426.565451
 21
-196.429149
 31
0.0
  0
ARC
  5
1BB
100
AcDbEntity
  8
0
370
    -3
390
0
  6
Continuous
100
AcDbCircle
 10
371.93581
 20
-201.429149
 30
0.0
 40
5.0
100
AcDbArc
 50
90.0
 51
180.0
  0
ARC
  5
1BC
100
AcDbEntity
  8
0
370
    -3
390
0
  6
Continuous
100
AcDbCircle
 10
364.432064
 20
-199.429149
 30
0.0
 40
3.0
100
AcDbArc
 50
90.0
 51
182.759753
  0
ARC
  5
1BD
100
AcDbEntity
  8
0
370
    -3
390
0
  6
Continuous
100
AcDbCircle
 10
426.565451
 20
-186.429149
 30
0.0
 40
3.0
100
AcDbArc
 50
270.0
 51
354.891556
  0
ARC
  5
1BE
100
AcDbEntity
  8
0
370
    -3
390
0
  6
Continuous
100
AcDbCircle
 10
426.565451
 20
-199.429149
 30
0.0
 40
3.0
100
AcDbArc
 50
5.108444
 51
90.0
  0
ARC
  5
1BF
100
AcDbEntity
  8
0
370
    -3
390
0
  6
Continuous
100
AcDbCircle
 10
426.198029
 20
-225.481943
 30
0.0
 40
10.0
100
AcDbArc
 50
294.11503
 51
24.010868
  0
ARC
  5
1C0
100
AcDbEntity
  8
0
370
    -3
390
0
  6
Continuous
100
AcDbCircle
 10
452.755073
 20
-284.8092
 30
0.0
 40
48.0
100
AcDbArc
 50
113.824471
 51
164.803707
  0
ARC
  5
1C1
100
AcDbEntity
  8
0
370
    -3
390
0
  6
Continuous
100
AcDbCircle
 10
429.326783
 20
-231.751541
 30
0.0
 40
10.0
100
AcDbArc
 50
293.824471
 51
29.030812
  0
ARC
  5
1C2
100
AcDbEntity
  8
0
370
    -3
390
0
  6
Continuous
100
AcDbCircle
 10
452.755073
 20
-284.8092
 30
0.0
 40
55.0
100
AcDbArc
 50
114.11503
 51
159.806926
  0
ARC
  5
1C3
100
AcDbEntity
  8
0
370
    -3
390
0
  6
Continuous
100
AcDbCircle
 10
391.750314
 20
-262.372191
 30
0.0
 40
10.0
100
AcDbArc
 50
212.855608
 51
339.806926
  0
ARC
  5
1C4
100
AcDbEntity
  8
0
370
    -3
390
0
  6
Continuous
100
AcDbCircle
 10
396.783132
 20
-269.605849
 30
0.0
 40
10.0
100
AcDbArc
 50
216.800938
 51
344.803707
  0
LINE
  5
1C5
100
AcDbEntity
  8
0
370
    -3
390
0
  6
CENTER
100
AcDbLine
 10
7.523107
 20
-72.929149
 30
0.0
 11
18.576096
 21
-72.929149
 31
0.0
  0
LINE
  5
1C6
100
AcDbEntity
  8
0
370
    -3
390
0
  6
Continuous
100
AcDbLine
 10
10.685988
 20
-52.929149
 30
0.0
 11
15.185988
 21
-52.929149
 31
0.0
  0
LINE
  5
1C7
100
AcDbEntity
  8
0
370
    -3
390
0
  6
DASHED
100
AcDbLine
 10
412.275492
 20
-162.237545
 30
0.0
 11
412.275492
 21
-236.429149
 31
0.0
  0
LINE
  5
1C8
100
AcDbEntity
  8
0
370
    -3
390
0
  6
DASHED
100
AcDbLine
 10
407.275492
 20
-241.429149
 30
0.0
 11
371.856267
 21
-241.429149
 31
0.0
  0
LINE
  5
1C9
100
AcDbEntity
  8
0
370
    -3
390
0
  6
DASHED
100
AcDbLine
 10
367.205193
 20
-251.875632
 30
0.0
 11
370.722343
 21
-253.441568
 31
0.0
  0
LINE
  5
1CA
100
AcDbEntity
  8
0
370
    -3
390
0
  6
DASHED
100
AcDbLine
 10
368.83214
 20
-248.22145
 30
0.0
 11
372.34929
 21
-249.787387
 31
0.0
  0
ARC
  5
1CB
100
AcDbEntity
  8
0
370
    -3
390
0
  6
DASHED
100
AcDbCircle
 10
367.905478
 20
-239.051784
 30
0.0
 40
2.0
100
AcDbArc
 50
184.231338
 51
246.0
  0
ARC
  5
1CC
100
AcDbEntity
  8
0
370
    -3
390
0
  6
DASHED
100
AcDbCircle
 10
366.480805
 20
-241.701387
 30
0.0
 40
1.0
100
AcDbArc
 50
336.0
 51
66.0
  0
LINE
  5
1CD
100
AcDbEntity
  8
0
370
    -3
390
0
  6
DASHED
100
AcDbLine
 10
388.399783
 20
-194.929149
 30
0.0
 11
364.275492
 21
-249.113194
 31
0.0
  0
ARC
  5
1CE
100
AcDbEntity
  8
0
370
    -3
390
0
  6
DASHED
100
AcDbCircle
 10
365.309443
 20
-244.332309
 30
0.0
 40
1.0
100
AcDbArc
 50
336.0
 51
4.715125
  0
LINE
  5
1CF
100
AcDbEntity
  8
0
370
    -3
390
0
  6
DASHED
100
AcDbLine
 10
368.689782
 20
-248.541191
 30
0.0
 11
372.526673
 21
-250.249485
 31
0.0
  0
LINE
  5
1D0
100
AcDbEntity
  8
0
370
    -3
390
0
  6
DASHED
100
AcDbLine
 10
367.347551
 20
-251.555891
 30
0.0
 11
371.184442
 21
-253.264185
 31
0.0
  0
ARC
  5
1D1
100
AcDbEntity
  8
0
370
    -3
390
0
  6
DASHED
100
AcDbCircle
 10
964.275492
 20
-194.929149
 30
0.0
 40
600.0
100
AcDbArc
 50
180.0
 51
184.715125
  0
ARC
  5
1D2
100
AcDbEntity
  8
0
370
    -3
390
0
  6
DASHED
100
AcDbCircle
 10
370.393884
 20
-251.106056
 30
0.0
 40
9.0
100
AcDbArc
 50
139.398469
 51
172.601548
  0
ARC
  5
1D3
100
AcDbEntity
  8
0
370
    -3
390
0
  6
DASHED
100
AcDbCircle
 10
362.757989
 20
-250.114537
 30
0.0
 40
1.299999
100
AcDbArc
 50
172.601548
 51
246.000018
  0
ARC
  5
1D4
100
AcDbEntity
  8
0
370
    -3
390
0
  6
DASHED
100
AcDbCircle
 10
363.101667
 20
-254.208242
 30
0.0
 40
1.0
100
AcDbArc
 50
156.0
 51
246.0
  0
LINE
  5
1D5
100
AcDbEntity
  8
0
370
    -3
390
0
  6
DASHED
100
AcDbLine
 10
362.69493
 20
-255.121788
 30
0.0
 11
364.275492
 21
-255.825499
 31
0.0
  0
LINE
  5
1D6
100
AcDbEntity
  8
0
370
    -3
390
0
  6
DASHED
100
AcDbLine
 10
363.123615
 20
-251.700351
 30
0.0
 11
362.229231
 21
-251.302146
 31
0.0
  0
LINE
  5
1D7
100
AcDbEntity
  8
0
370
    -3
390
0
  6
DASHED
100
AcDbLine
 10
364.275492
 20
-249.113194
 30
0.0
 11
362.188121
 21
-253.801506
 31
0.0
  0
ARC
  5
1D8
100
AcDbEntity
  8
0
370
    -3
390
0
  6
DASHED
100
AcDbCircle
 10
364.547631
 20
-246.094936
 30
0.0
 40
1.299999
100
AcDbArc
 50
65.999999
 51
102.083527
  0
LINE
  5
1D9
100
AcDbEntity
  8
0
370
    -3
390
0
  6
DASHED
100
AcDbLine
 10
365.970772
 20
-245.305533
 30
0.0
 11
365.076388
 21
-244.907328
 31
0.0
  0
POINT
  5
1DA
100
AcDbEntity
  8
0
370
    -3
390
0
  6
DASHED
100
AcDbPoint
 10
364.547194
 20
-248.502942
 30
0.0
  0
LINE
  5
1DB
100
AcDbEntity
  8
0
370
    -3
390
0
  6
DASHED
100
AcDbLine
 10
364.275492
 20
-255.825499
 30
0.0
 11
365.252857
 21
-256.26065
 31
0.0
  0
ARC
  5
1DC
100
AcDbEntity
  8
0
370
    -3
390
0
  6
DASHED
100
AcDbCircle
 10
364.547631
 20
-246.094936
 30
0.0
 40
1.299999
100
AcDbArc
 50
102.083527
 51
139.398469
  0
LINE
  5
1DD
100
AcDbEntity
  8
0
370
    -3
390
0
  6
DASHED
100
AcDbLine
 10
372.526673
 20
-250.249485
 30
0.0
 11
371.184442
 21
-253.264185
 31
0.0
  0
LINE
  5
1DE
100
AcDbEntity
  8
0
370
    -3
390
0
  6
DASHED
100
AcDbLine
 10
370.722343
 20
-253.441568
 30
0.0
 11
371.184442
 21
-253.264185
 31
0.0
  0
LINE
  5
1DF
100
AcDbEntity
  8
0
370
    -3
390
0
  6
DASHED
100
AcDbLine
 10
372.34929
 20
-249.787387
 30
0.0
 11
372.526673
 21
-250.249485
 31
0.0
  0
ARC
  5
1E0
100
AcDbEntity
  8
0
370
    -3
390
0
  6
DASHED
100
AcDbCircle
 10
379.527781
 20
-177.750254
 30
0.0
 40
15.0
100
AcDbArc
 50
135.478869
 51
178.317231
  0
ARC
  5
1E1
100
AcDbEntity
  8
0
370
    -3
390
0
  6
DASHED
100
AcDbCircle
 10
379.527781
 20
-177.750254
 30
0.0
 40
15.0
100
AcDbArc
 50
99.318123
 51
135.478869
  0
ARC
  5
1E2
100
AcDbEntity
  8
0
370
    -3
390
0
  6
DASHED
100
AcDbCircle
 10
964.275492
 20
-194.929149
 30
0.0
 40
600.0
100
AcDbArc
 50
178.317231
 51
180.0
  0
ARC
  5
1E3
100
AcDbEntity
  8
0
370
    -3
390
0
  6
DASHED
100
AcDbCircle
 10
407.275492
 20
-236.429149
 30
0.0
 40
5.0
100
AcDbArc
 50
270.0
 51
0.0
  0
LINE
  5
1E4
100
AcDbEntity
  8
0
370
    -3
390
0
  6
DASHED
100
AcDbLine
 10
410.970056
 20
-153.578141
 30
0.0
 11
365.252857
 21
-256.26065
 31
0.0
  0
ARC
  5
1E5
100
AcDbEntity
  8
0
370
    -3
390
0
  6
DASHED
100
AcDbCircle
 10
409.275492
 20
-162.237545
 30
0.0
 40
3.0
100
AcDbArc
 50
0.0
 51
66.0
  0
LINE
  5
1E6
100
AcDbEntity
  8
0
370
    -3
390
0
  6
DASHED
100
AcDbLine
 10
408.692331
 20
-158.693996
 30
0.0
 11
410.495702
 21
-159.496908
 31
0.0
  0
LINE
  5
1E7
100
AcDbEntity
  8
0
370
    -3
390
0
  6
DASHED
100
AcDbLine
 10
408.412129
 20
-152.439278
 30
0.0
 11
410.970056
 21
-153.578141
 31
0.0
  0
LINE
  5
1E8
100
AcDbEntity
  8
0
370
    -3
390
0
  6
DASHED
100
AcDbLine
 10
403.054679
 20
-158.689356
 30
0.0
 11
377.099042
 21
-162.948185
 31
0.0
  0
ARC
  5
1E9
100
AcDbEntity
  8
0
370
    -3
390
0
  6
DASHED
100
AcDbCircle
 10
402.568931
 20
-155.728943
 30
0.0
 40
3.0
100
AcDbArc
 50
279.318123
 51
336.0
  0
LINE
  5
1EA
100
AcDbEntity
  8
0
370
    -3
390
0
  6
DASHED
100
AcDbLine
 10
407.091847
 20
-152.946087
 30
0.0
 11
388.399783
 21
-194.929149
 31
0.0
  0
LINE
  5
1EB
100
AcDbEntity
  8
0
370
    -3
390
0
  6
DASHED
100
AcDbLine
 10
410.640895
 20
-156.272479
 30
0.0
 11
409.904491
 21
-156.585064
 31
0.0
  0
LINE
  5
1EC
100
AcDbEntity
  8
0
370
    -3
390
0
  6
DASHED
100
AcDbLine
 10
409.771149
 20
-156.27093
 30
0.0
 11
409.904491
 21
-156.585064
 31
0.0
  0
LINE
  5
1ED
100
AcDbEntity
  8
0
370
    -3
390
0
  6
DASHED
100
AcDbLine
 10
410.216063
 20
-155.271637
 30
0.0
 11
410.640895
 21
-156.272479
 31
0.0
  0
ARC
  5
1EE
100
AcDbEntity
  8
0
370
    -3
390
0
  6
DASHED
100
AcDbCircle
 10
408.005392
 20
-153.352824
 30
0.0
 40
1.0
100
AcDbArc
 50
66.0
 51
156.0
  0
LINE
  5
1EF
100
AcDbEntity
  8
0
370
    -3
390
0
  6
CENTER
100
AcDbLine
 10
-205.814012
 20
-149.42955
 30
0.0
 11
-205.814012
 21
-262.083269
 31
0.0
  0
LINE
  5
1F0
100
AcDbEntity
  8
0
370
    -3
390
0
  6
Continuous
100
AcDbLine
 10
-170.364012
 20
-255.935261
 30
0.0
 11
-205.814012
 21
-255.935261
 31
0.0
  0
ARC
  5
1F1
100
AcDbEntity
  8
0
370
    -3
390
0
  6
Continuous
100
AcDbCircle
 10
-170.764012
 20
-239.505104
 30
0.0
 40
5.0
100
AcDbArc
 50
270.0
 51
0.0
  0
LINE
  5
1F2
100
AcDbEntity
  8
0
370
    -3
390
0
  6
Continuous
100
AcDbLine
 10
-197.326537
 20
-244.505104
 30
0.0
 11
-170.764012
 21
-244.505104
 31
0.0
  0
ARC
  5
1F3
100
AcDbEntity
  8
0
370
    -3
390
0
  6
Continuous
100
AcDbCircle
 10
-170.364012
 20
-244.935261
 30
0.0
 40
11.0
100
AcDbArc
 50
270.0
 51
0.0
  0
ARC
  5
1F4
100
AcDbEntity
  8
0
370
    -3
390
0
  6
Continuous
100
AcDbCircle
 10
-170.364012
 20
-243.715051
 30
0.0
 40
11.0
100
AcDbArc
 50
270.0
 51
0.0
  0
LINE
  5
1F5
100
AcDbEntity
  8
0
370
    -3
390
0
  6
Continuous
100
AcDbLine
 10
-170.364012
 20
-254.715051
 30
0.0
 11
-205.814012
 21
-254.715051
 31
0.0
  0
LINE
  5
1F6
100
AcDbEntity
  8
0
370
    -3
390
0
  6
Continuous
100
AcDbLine
 10
-159.364012
 20
-163.332542
 30
0.0
 11
-159.364012
 21
-244.935261
 31
0.0
  0
LINE
  5
1F7
100
AcDbEntity
  8
0
370
    -3
390
0
  6
Continuous
100
AcDbLine
 10
-165.764012
 20
-163.42736
 30
0.0
 11
-165.764012
 21
-239.505104
 31
0.0
  0
ARC
  5
1F8
100
AcDbEntity
  8
0
370
    -3
390
0
  6
Continuous
100
AcDbCircle
 10
-170.364012
 20
-163.332542
 30
0.0
 40
11.0
100
AcDbArc
 50
0.0
 51
90.0
  0
LINE
  5
1F9
100
AcDbEntity
  8
0
370
    -3
390
0
  6
Continuous
100
AcDbLine
 10
-170.364012
 20
-152.332542
 30
0.0
 11
-205.814012
 21
-152.332542
 31
0.0
  0
ARC
  5
1FA
100
AcDbEntity
  8
0
370
    -3
390
0
  6
Continuous
100
AcDbCircle
 10
-170.764012
 20
-169.929149
 30
0.0
 40
5.0
100
AcDbArc
 50
0.0
 51
90.0
  0
LINE
  5
1FB
100
AcDbEntity
  8
0
370
    -3
390
0
  6
Continuous
100
AcDbLine
 10
-205.814012
 20
-164.929149
 30
0.0
 11
-170.764012
 21
-164.929149
 31
0.0
  0
ARC
  5
1FC
100
AcDbEntity
  8
0
370
    -3
390
0
  6
Continuous
100
AcDbCircle
 10
-170.764012
 20
-163.42736
 30
0.0
 40
5.0
100
AcDbArc
 50
0.0
 51
90.0
  0
LINE
  5
1FD
100
AcDbEntity
  8
0
370
    -3
390
0
  6
Continuous
100
AcDbLine
 10
-205.814012
 20
-158.42736
 30
0.0
 11
-170.764012
 21
-158.42736
 31
0.0
  0
ARC
  5
1FE
100
AcDbEntity
  8
0
370
    -3
390
0
  6
Continuous
100
AcDbCircle
 10
-196.553793
 20
-240.505104
 30
0.0
 40
4.0
100
AcDbArc
 50
221.178434
 51
270.0
  0
ELLIPSE
  5
1FF
100
AcDbEntity
  8
0
370
    -3
390
0
  6
Continuous
100
AcDbEllipse
 10
-205.814012
 20
-247.701238
 30
0.0
 11
8.0
 21
0.0
 31
0.0
210
0.0
220
0.0
230
1.0
 40
0.913545
 41
0.6742171987028656
 42
1.5707963267948966
  0
ARC
  5
200
100
AcDbEntity
  8
0
370
    -3
390
0
  6
Continuous
100
AcDbCircle
 10
-197.326537
 20
-240.505104
 30
0.0
 40
4.0
100
AcDbArc
 50
226.698421
 51
270.0
  0
ELLIPSE
  5
201
100
AcDbEntity
  8
0
370
    -3
390
0
  6
Continuous
100
AcDbEllipse
 10
-205.814012
 20
-248.502942
 30
0.0
 11
8.0
 21
0.0
 31
0.0
210
0.0
220
0.0
230
1.0
 40
0.913545
 41
0.7698500149202718
 42
1.5707963267948966
  0
ELLIPSE
  5
202
100
AcDbEntity
  8
0
370
    -3
390
0
  6
Continuous
100
AcDbEllipse
 10
-205.814012
 20
-248.247644
 30
0.0
 11
3.5
 21
0.0
 31
0.0
210
0.0
220
0.0
230
1.0
 40
0.986488
 41
0.0
 42
6.2831853071795862
  0
LINE
  5
203
100
AcDbEntity
  8
0
370
    -3
390
0
  6
Continuous
100
AcDbLine
 10
-207.814012
 20
-249.364048
 30
0.0
 11
-203.814012
 21
-245.709866
 31
0.0
  0
LINE
  5
204
100
AcDbEntity
  8
0
370
    -3
390
0
  6
Continuous
100
AcDbLine
 10
-203.814012
 20
-249.364048
 30
0.0
 11
-207.814012
 21
-245.709866
 31
0.0
  0
ELLIPSE
  5
205
100
AcDbEntity
  8
0
370
    -3
390
0
  6
Continuous
100
AcDbEllipse
 10
-205.814012
 20
-248.502942
 30
0.0
 11
8.0
 21
0.0
 31
0.0
210
0.0
220
0.0
230
1.0
 40
0.913545
 41
1.5707963267948966
 42
2.3717426386695215
  0
ARC
  5
206
100
AcDbEntity
  8
0
370
    -3
390
0
  6
Continuous
100
AcDbCircle
 10
-214.301486
 20
-240.505104
 30
0.0
 40
4.0
100
AcDbArc
 50
270.0
 51
313.301579
  0
ELLIPSE
  5
207
100
AcDbEntity
  8
0
370
    -3
390
0
  6
Continuous
100
AcDbEllipse
 10
-205.814012
 20
-247.701238
 30
0.0
 11
8.0
 21
0.0
 31
0.0
210
0.0
220
0.0
230
1.0
 40
0.913545
 41
1.5707963267948966
 42
2.4673754548869451
  0
ARC
  5
208
100
AcDbEntity
  8
0
370
    -3
390
0
  6
Continuous
100
AcDbCircle
 10
-215.07423
 20
-240.505104
 30
0.0
 40
4.0
100
AcDbArc
 50
270.0
 51
318.821566
  0
LINE
  5
209
100
AcDbEntity
  8
0
370
    -3
390
0
  6
Continuous
100
AcDbLine
 10
-214.301486
 20
-244.505104
 30
0.0
 11
-240.864012
 21
-244.505104
 31
0.0
  0
ARC
  5
20A
100
AcDbEntity
  8
0
370
    -3
390
0
  6
Continuous
100
AcDbCircle
 10
-241.264012
 20
-244.935261
 30
0.0
 40
11.0
100
AcDbArc
 50
180.0
 51
270.0
  0
LINE
  5
20B
100
AcDbEntity
  8
0
370
    -3
390
0
  6
Continuous
100
AcDbLine
 10
-241.264012
 20
-255.935261
 30
0.0
 11
-205.814012
 21
-255.935261
 31
0.0
  0
ARC
  5
20C
100
AcDbEntity
  8
0
370
    -3
390
0
  6
Continuous
100
AcDbCircle
 10
-240.864012
 20
-239.505104
 30
0.0
 40
5.0
100
AcDbArc
 50
180.0
 51
270.0
  0
ARC
  5
20D
100
AcDbEntity
  8
0
370
    -3
390
0
  6
Continuous
100
AcDbCircle
 10
-241.264012
 20
-243.715051
 30
0.0
 40
11.0
100
AcDbArc
 50
180.0
 51
270.0
  0
LINE
  5
20E
100
AcDbEntity
  8
0
370
    -3
390
0
  6
Continuous
100
AcDbLine
 10
-241.264012
 20
-254.715051
 30
0.0
 11
-205.814012
 21
-254.715051
 31
0.0
  0
LINE
  5
20F
100
AcDbEntity
  8
0
370
    -3
390
0
  6
Continuous
100
AcDbLine
 10
-252.264012
 20
-163.332542
 30
0.0
 11
-252.264012
 21
-244.935261
 31
0.0
  0
LINE
  5
210
100
AcDbEntity
  8
0
370
    -3
390
0
  6
Continuous
100
AcDbLine
 10
-245.864012
 20
-163.42736
 30
0.0
 11
-245.864012
 21
-239.505104
 31
0.0
  0
LINE
  5
211
100
AcDbEntity
  8
0
370
    -3
390
0
  6
Continuous
100
AcDbLine
 10
-241.264012
 20
-152.332542
 30
0.0
 11
-205.814012
 21
-152.332542
 31
0.0
  0
ARC
  5
212
100
AcDbEntity
  8
0
370
    -3
390
0
  6
Continuous
100
AcDbCircle
 10
-241.264012
 20
-163.332542
 30
0.0
 40
11.0
100
AcDbArc
 50
90.0
 51
180.0
  0
LINE
  5
213
100
AcDbEntity
  8
0
370
    -3
390
0
  6
Continuous
100
AcDbLine
 10
-205.814012
 20
-158.42736
 30
0.0
 11
-240.864012
 21
-158.42736
 31
0.0
  0
ARC
  5
214
100
AcDbEntity
  8
0
370
    -3
390
0
  6
Continuous
100
AcDbCircle
 10
-240.864012
 20
-163.42736
 30
0.0
 40
5.0
100
AcDbArc
 50
90.0
 51
180.0
  0
LINE
  5
215
100
AcDbEntity
  8
0
370
    -3
390
0
  6
Continuous
100
AcDbLine
 10
-205.814012
 20
-164.929149
 30
0.0
 11
-240.864012
 21
-164.929149
 31
0.0
  0
ARC
  5
216
100
AcDbEntity
  8
0
370
    -3
390
0
  6
Continuous
100
AcDbCircle
 10
-240.864012
 20
-169.929149
 30
0.0
 40
5.0
100
AcDbArc
 50
90.0
 51
180.0
  0
POINT
  5
217
100
AcDbEntity
  8
0
370
    -3
390
0
  6
CENTER
100
AcDbPoint
 10
-192.233082
 20
-254.37619
 30
0.0
  0
POINT
  5
218
100
AcDbEntity
  8
0
370
    -3
390
0
  6
CENTER
100
AcDbPoint
 10
-219.233082
 20
-254.37619
 30
0.0
  0
LINE
  5
219
100
AcDbEntity
  8
0
370
    -3
390
0
  6
CENTER
100
AcDbLine
 10
361.49351
 20
-247.143354
 30
0.0
 11
372.885927
 21
-252.215585
 31
0.0
  0
LINE
  5
21A
100
AcDbEntity
  8
0
370
    -3
390
0
  6
CENTER
100
AcDbLine
 10
388.256267
 20
-233.931547
 30
0.0
 11
388.256267
 21
-244.249636
 31
0.0
  0
ARC
  5
21B
100
AcDbEntity
  8
0
370
    -3
390
0
  6
Continuous
100
AcDbCircle
 10
-434.112538
 20
-248.810686
 30
0.0
 40
9.0
100
AcDbArc
 50
298.398452
 51
331.601531
  0
POINT
  5
21C
100
AcDbEntity
  8
0
370
    -3
390
0
  6
Continuous
100
AcDbPoint
 10
-429.587055
 20
-253.33617
 30
0.0
  0
LINE
  5
21D
100
AcDbEntity
  8
0
370
    -3
390
0
  6
Continuous
100
AcDbLine
 10
-427.112181
 20
-250.861296
 30
0.0
 11
-432.061929
 21
-255.811043
 31
0.0
  0
LINE
  5
21E
100
AcDbEntity
  8
0
370
    -3
390
0
  6
Continuous
100
AcDbLine
 10
-427.112181
 20
-250.861296
 30
0.0
 11
-432.061929
 21
-255.811043
 31
0.0
  0
LINE
  5
21F
100
AcDbEntity
  8
0
370
    -3
390
0
  6
Continuous
100
AcDbLine
 10
-432.061929
 20
-255.811043
 30
0.0
 11
-431.369653
 21
-256.503319
 31
0.0
  0
LINE
  5
220
100
AcDbEntity
  8
0
370
    -3
390
0
  6
Continuous
100
AcDbLine
 10
-427.112181
 20
-250.861296
 30
0.0
 11
-426.419906
 21
-251.553571
 31
0.0
  0
ARC
  5
221
100
AcDbEntity
  8
0
370
    -3
390
0
  6
Continuous
100
AcDbCircle
 10
-430.450415
 20
-255.58408
 30
0.0
 40
1.299999
100
AcDbArc
 50
224.999982
 51
298.398452
  0
ARC
  5
222
100
AcDbEntity
  8
0
370
    -3
390
0
  6
Continuous
100
AcDbCircle
 10
-427.339144
 20
-252.47281
 30
0.0
 40
1.299999
100
AcDbArc
 50
331.601531
 51
45.000001
  0
ARC
  5
223
100
AcDbEntity
  8
0
370
    -3
390
0
  6
Continuous
100
AcDbCircle
 10
-541.875612
 20
-248.810686
 30
0.0
 40
9.0
100
AcDbArc
 50
208.398469
 51
241.601548
  0
POINT
  5
224
100
AcDbEntity
  8
0
370
    -3
390
0
  6
Continuous
100
AcDbPoint
 10
-546.401095
 20
-253.33617
 30
0.0
  0
LINE
  5
225
100
AcDbEntity
  8
0
370
    -3
390
0
  6
Continuous
100
AcDbLine
 10
-548.875969
 20
-250.861296
 30
0.0
 11
-543.926222
 21
-255.811043
 31
0.0
  0
LINE
  5
226
100
AcDbEntity
  8
0
370
    -3
390
0
  6
Continuous
100
AcDbLine
 10
-548.875969
 20
-250.861296
 30
0.0
 11
-543.926222
 21
-255.811043
 31
0.0
  0
LINE
  5
227
100
AcDbEntity
  8
0
370
    -3
390
0
  6
Continuous
100
AcDbLine
 10
-543.926222
 20
-255.811043
 30
0.0
 11
-544.618497
 21
-256.503319
 31
0.0
  0
LINE
  5
228
100
AcDbEntity
  8
0
370
    -3
390
0
  6
Continuous
100
AcDbLine
 10
-548.875969
 20
-250.861296
 30
0.0
 11
-549.568245
 21
-251.553571
 31
0.0
  0
ARC
  5
229
100
AcDbEntity
  8
0
370
    -3
390
0
  6
Continuous
100
AcDbCircle
 10
-545.537735
 20
-255.58408
 30
0.0
 40
1.299999
100
AcDbArc
 50
241.601548
 51
315.000018
  0
ARC
  5
22A
100
AcDbEntity
  8
0
370
    -3
390
0
  6
Continuous
100
AcDbCircle
 10
-548.649006
 20
-252.47281
 30
0.0
 40
1.299999
100
AcDbArc
 50
134.999999
 51
208.398469
  0
ARC
  5
22B
100
AcDbEntity
  8
0
370
    -3
390
0
  6
Continuous
100
AcDbCircle
 10
-541.875612
 20
-141.047612
 30
0.0
 40
9.0
100
AcDbArc
 50
118.398452
 51
151.601531
  0
POINT
  5
22C
100
AcDbEntity
  8
0
370
    -3
390
0
  6
Continuous
100
AcDbPoint
 10
-546.401095
 20
-136.522129
 30
0.0
  0
LINE
  5
22D
100
AcDbEntity
  8
0
370
    -3
390
0
  6
Continuous
100
AcDbLine
 10
-548.875969
 20
-138.997003
 30
0.0
 11
-543.926222
 21
-134.047256
 31
0.0
  0
LINE
  5
22E
100
AcDbEntity
  8
0
370
    -3
390
0
  6
Continuous
100
AcDbLine
 10
-548.875969
 20
-138.997003
 30
0.0
 11
-543.926222
 21
-134.047256
 31
0.0
  0
LINE
  5
22F
100
AcDbEntity
  8
0
370
    -3
390
0
  6
Continuous
100
AcDbLine
 10
-543.926222
 20
-134.047256
 30
0.0
 11
-544.618497
 21
-133.35498
 31
0.0
  0
LINE
  5
230
100
AcDbEntity
  8
0
370
    -3
390
0
  6
Continuous
100
AcDbLine
 10
-548.875969
 20
-138.997003
 30
0.0
 11
-549.568245
 21
-138.304728
 31
0.0
  0
ARC
  5
231
100
AcDbEntity
  8
0
370
    -3
390
0
  6
Continuous
100
AcDbCircle
 10
-545.537735
 20
-134.274218
 30
0.0
 40
1.299999
100
AcDbArc
 50
44.999982
 51
118.398452
  0
ARC
  5
232
100
AcDbEntity
  8
0
370
    -3
390
0
  6
Continuous
100
AcDbCircle
 10
-548.649006
 20
-137.385489
 30
0.0
 40
1.299999
100
AcDbArc
 50
151.601531
 51
225.000001
  0
ARC
  5
233
100
AcDbEntity
  8
0
370
    -3
390
0
  6
Continuous
100
AcDbCircle
 10
-434.112538
 20
-141.047612
 30
0.0
 40
9.0
100
AcDbArc
 50
28.398469
 51
61.601548
  0
POINT
  5
234
100
AcDbEntity
  8
0
370
    -3
390
0
  6
Continuous
100
AcDbPoint
 10
-429.587055
 20
-136.522129
 30
0.0
  0
LINE
  5
235
100
AcDbEntity
  8
0
370
    -3
390
0
  6
Continuous
100
AcDbLine
 10
-427.112181
 20
-138.997003
 30
0.0
 11
-432.061929
 21
-134.047256
 31
0.0
  0
LINE
  5
236
100
AcDbEntity
  8
0
370
    -3
390
0
  6
Continuous
100
AcDbLine
 10
-427.112181
 20
-138.997003
 30
0.0
 11
-432.061929
 21
-134.047256
 31
0.0
  0
LINE
  5
237
100
AcDbEntity
  8
0
370
    -3
390
0
  6
Continuous
100
AcDbLine
 10
-432.061929
 20
-134.047256
 30
0.0
 11
-431.369653
 21
-133.35498
 31
0.0
  0
LINE
  5
238
100
AcDbEntity
  8
0
370
    -3
390
0
  6
Continuous
100
AcDbLine
 10
-427.112181
 20
-138.997003
 30
0.0
 11
-426.419906
 21
-138.304728
 31
0.0
  0
ARC
  5
239
100
AcDbEntity
  8
0
370
    -3
390
0
  6
Continuous
100
AcDbCircle
 10
-430.450415
 20
-134.274218
 30
0.0
 40
1.299999
100
AcDbArc
 50
61.601548
 51
135.000018
  0
ARC
  5
23A
100
AcDbEntity
  8
0
370
    -3
390
0
  6
Continuous
100
AcDbCircle
 10
-427.339144
 20
-137.385489
 30
0.0
 40
1.299999
100
AcDbArc
 50
314.999999
 51
28.398469
  0
LINE
  5
23B
100
AcDbEntity
  8
0
370
    -3
390
0
  6
Continuous
100
AcDbLine
 10
-215.814012
 20
124.470739
 30
0.0
 11
-181.814012
 21
124.470739
 31
0.0
  0
LINE
  5
23C
100
AcDbEntity
  8
0
370
    -3
390
0
  6
Continuous
100
AcDbLine
 10
-181.814012
 20
125.470739
 30
0.0
 11
-181.814012
 21
124.470739
 31
0.0
  0
ARC
  5
23D
100
AcDbEntity
  8
0
370
    -3
390
0
  6
Continuous
100
AcDbCircle
 10
-247.561177
 20
152.970739
 30
0.0
 40
30.8
100
AcDbArc
 50
240.0
 51
270.0
  0
ELLIPSE
  5
23E
100
AcDbEntity
  8
0
370
    -3
390
0
  6
Continuous
100
AcDbEllipse
 10
-232.814012
 20
253.99547
 30
0.0
 11
5.0
 21
0.0
 31
0.0
210
0.0
220
0.0
230
1.0
 40
0.707107
 41
3.1415926535897931
 42
0.0
  0
LINE
  5
23F
100
AcDbEntity
  8
0
370
    -3
390
0
  6
Continuous
100
AcDbLine
 10
-237.814012
 20
254.812074
 30
0.0
 11
-237.814012
 21
253.99547
 31
0.0
  0
LINE
  5
240
100
AcDbEntity
  8
0
370
    -3
390
0
  6
Continuous
100
AcDbLine
 10
-227.814012
 20
254.812074
 30
0.0
 11
-227.814012
 21
253.99547
 31
0.0
  0
ELLIPSE
  5
241
100
AcDbEntity
  8
0
370
    -3
390
0
  6
Continuous
100
AcDbEllipse
 10
-232.814012
 20
254.812074
 30
0.0
 11
4.5
 21
0.0
 31
0.0
210
0.0
220
0.0
230
1.0
 40
0.707107
 41
3.1415926535897931
 42
0.0
  0
LINE
  5
242
100
AcDbEntity
  8
0
370
    -3
390
0
  6
Continuous
100
AcDbLine
 10
-237.314012
 20
255.377759
 30
0.0
 11
-237.314012
 21
254.812074
 31
0.0
  0
LINE
  5
243
100
AcDbEntity
  8
0
370
    -3
390
0
  6
Continuous
100
AcDbLine
 10
-228.314012
 20
255.377759
 30
0.0
 11
-228.314012
 21
254.812074
 31
0.0
  0
ELLIPSE
  5
244
100
AcDbEntity
  8
0
370
    -3
390
0
  6
Continuous
100
AcDbEllipse
 10
-232.814012
 20
254.812074
 30
0.0
 11
5.0
 21
0.0
 31
0.0
210
0.0
220
0.0
230
1.0
 40
0.707107
 41
0.0
 42
0.7392718269406207
  0
ELLIPSE
  5
245
100
AcDbEntity
  8
0
370
    -3
390
0
  6
Continuous
100
AcDbEllipse
 10
-232.814012
 20
254.812074
 30
0.0
 11
5.0
 21
0.0
 31
0.0
210
0.0
220
0.0
230
1.0
 40
0.707107
 41
2.4023208266491727
 42
3.1415926535897931
  0
ELLIPSE
  5
246
100
AcDbEntity
  8
0
370
    -3
390
0
  6
Continuous
100
AcDbEllipse
 10
-232.814012
 20
255.914277
 30
0.0
 11
3.5
 21
0.0
 31
0.0
210
0.0
220
0.0
230
1.0
 40
0.860398
 41
0.0
 42
6.2831853071795862
  0
ELLIPSE
  5
247
100
AcDbEntity
  8
0
370
    -3
390
0
  6
Continuous
100
AcDbEllipse
 10
-232.814012
 20
255.377759
 30
0.0
 11
4.5
 21
0.0
 31
0.0
210
0.0
220
0.0
230
1.0
 40
0.707107
 41
2.158706662346169
 42
0.9828859912436241
  0
LINE
  5
248
100
AcDbEntity
  8
0
370
    -3
390
0
  6
Continuous
100
AcDbLine
 10
-232.814012
 20
257.216237
 30
0.0
 11
-230.814012
 21
255.642899
 31
0.0
  0
LINE
  5
249
100
AcDbEntity
  8
0
370
    -3
390
0
  6
Continuous
100
AcDbLine
 10
-232.814012
 20
257.216237
 30
0.0
 11
-230.884807
 21
258.426899
 31
0.0
  0
LINE
  5
24A
100
AcDbEntity
  8
0
370
    -3
390
0
  6
Continuous
100
AcDbLine
 10
-232.814012
 20
257.216237
 30
0.0
 11
-234.814012
 21
255.642899
 31
0.0
  0
LINE
  5
24B
100
AcDbEntity
  8
0
370
    -3
390
0
  6
Continuous
100
AcDbLine
 10
-232.814012
 20
257.216237
 30
0.0
 11
-234.743216
 21
258.426899
 31
0.0
  0
ARC
  5
24C
100
AcDbEntity
  8
0
370
    -3
390
0
  6
Continuous
100
AcDbCircle
 10
-276.014012
 20
138.221076
 30
0.0
 40
3.8
100
AcDbArc
 50
180.0
 51
240.0
  0
LINE
  5
24D
100
AcDbEntity
  8
0
370
    -3
390
0
  6
Continuous
100
AcDbLine
 10
-279.814012
 20
196.970739
 30
0.0
 11
-279.814012
 21
138.221076
 31
0.0
  0
LINE
  5
24E
100
AcDbEntity
  8
0
370
    -3
390
0
  6
Continuous
100
AcDbLine
 10
-277.914012
 20
134.93018
 30
0.0
 11
-262.961177
 21
126.297157
 31
0.0
  0
ARC
  5
24F
100
AcDbEntity
  8
0
370
    -3
390
0
  6
Continuous
100
AcDbCircle
 10
-247.561177
 20
240.970739
 30
0.0
 40
30.8
100
AcDbArc
 50
90.0
 51
120.0
  0
ARC
  5
250
100
AcDbEntity
  8
0
370
    -3
390
0
  6
Continuous
100
AcDbCircle
 10
-276.014012
 20
255.720402
 30
0.0
 40
3.8
100
AcDbArc
 50
120.0
 51
180.0
  0
LINE
  5
251
100
AcDbEntity
  8
0
370
    -3
390
0
  6
Continuous
100
AcDbLine
 10
-279.814012
 20
196.970739
 30
0.0
 11
-279.814012
 21
255.720402
 31
0.0
  0
LINE
  5
252
100
AcDbEntity
  8
0
370
    -3
390
0
  6
Continuous
100
AcDbLine
 10
-277.914012
 20
259.011298
 30
0.0
 11
-262.961177
 21
267.644321
 31
0.0
  0
LINE
  5
253
100
AcDbEntity
  8
0
370
    -3
390
0
  6
Continuous
100
AcDbLine
 10
-72.814012
 20
196.970739
 30
0.0
 11
-72.814012
 21
268.470739
 31
0.0
  0
LINE
  5
254
100
AcDbEntity
  8
0
370
    -3
390
0
  6
Continuous
100
AcDbLine
 10
-215.814012
 20
271.770739
 30
0.0
 11
-247.561177
 21
271.770739
 31
0.0
  0
LINE
  5
255
100
AcDbEntity
  8
0
370
    -3
390
0
  6
Continuous
100
AcDbLine
 10
-215.814012
 20
271.770739
 30
0.0
 11
-215.814012
 21
196.970739
 31
0.0
  0
LINE
  5
256
100
AcDbEntity
  8
0
370
    -3
390
0
  6
Continuous
100
AcDbLine
 10
-72.814012
 20
268.470739
 30
0.0
 11
-215.814012
 21
268.470739
 31
0.0
  0
LINE
  5
257
100
AcDbEntity
  8
0
370
    -3
390
0
  6
Continuous
100
AcDbLine
 10
-72.814012
 20
266.470739
 30
0.0
 11
-215.814012
 21
266.470739
 31
0.0
  0
LINE
  5
258
100
AcDbEntity
  8
0
370
    -3
390
0
  6
Continuous
100
AcDbLine
 10
-72.814012
 20
263.470739
 30
0.0
 11
-215.814012
 21
263.470739
 31
0.0
  0
LINE
  5
259
100
AcDbEntity
  8
0
370
    -3
390
0
  6
Continuous
100
AcDbLine
 10
-72.814012
 20
258.970739
 30
0.0
 11
-215.814012
 21
258.970739
 31
0.0
  0
LINE
  5
25A
100
AcDbEntity
  8
0
370
    -3
390
0
  6
Continuous
100
AcDbLine
 10
-72.814012
 20
252.556538
 30
0.0
 11
-215.814012
 21
252.556538
 31
0.0
  0
LINE
  5
25B
100
AcDbEntity
  8
0
370
    -3
390
0
  6
Continuous
100
AcDbLine
 10
-72.814012
 20
246.192577
 30
0.0
 11
-215.814012
 21
246.192577
 31
0.0
  0
LINE
  5
25C
100
AcDbEntity
  8
0
370
    -3
390
0
  6
Continuous
100
AcDbLine
 10
-72.814012
 20
237.820008
 30
0.0
 11
-215.814012
 21
237.820008
 31
0.0
  0
LINE
  5
25D
100
AcDbEntity
  8
0
370
    -3
390
0
  6
Continuous
100
AcDbLine
 10
-72.814012
 20
236.171381
 30
0.0
 11
-215.814012
 21
236.171381
 31
0.0
  0
LINE
  5
25E
100
AcDbEntity
  8
0
370
    -3
390
0
  6
Continuous
100
AcDbLine
 10
-72.814012
 20
229.813511
 30
0.0
 11
-215.814012
 21
229.813511
 31
0.0
  0
LINE
  5
25F
100
AcDbEntity
  8
0
370
    -3
390
0
  6
Continuous
100
AcDbLine
 10
-72.814012
 20
228.180783
 30
0.0
 11
-215.814012
 21
228.180783
 31
0.0
  0
LINE
  5
260
100
AcDbEntity
  8
0
370
    -3
390
0
  6
Continuous
100
AcDbLine
 10
-72.814012
 20
221.785247
 30
0.0
 11
-215.814012
 21
221.785247
 31
0.0
  0
LINE
  5
261
100
AcDbEntity
  8
0
370
    -3
390
0
  6
Continuous
100
AcDbLine
 10
-72.814012
 20
197.700535
 30
0.0
 11
-215.814012
 21
197.700535
 31
0.0
  0
LINE
  5
262
100
AcDbEntity
  8
0
370
    -3
390
0
  6
Continuous
100
AcDbLine
 10
-72.814012
 20
205.718895
 30
0.0
 11
-215.814012
 21
205.718895
 31
0.0
  0
LINE
  5
263
100
AcDbEntity
  8
0
370
    -3
390
0
  6
Continuous
100
AcDbLine
 10
-72.814012
 20
204.233737
 30
0.0
 11
-215.814012
 21
204.233737
 31
0.0
  0
LINE
  5
264
100
AcDbEntity
  8
0
370
    -3
390
0
  6
Continuous
100
AcDbLine
 10
-72.814012
 20
213.75074
 30
0.0
 11
-215.814012
 21
213.75074
 31
0.0
  0
LINE
  5
265
100
AcDbEntity
  8
0
370
    -3
390
0
  6
Continuous
100
AcDbLine
 10
-72.814012
 20
212.213903
 30
0.0
 11
-215.814012
 21
212.213903
 31
0.0
  0
LINE
  5
266
100
AcDbEntity
  8
0
370
    -3
390
0
  6
Continuous
100
AcDbLine
 10
-72.814012
 20
267.970739
 30
0.0
 11
-215.814012
 21
267.970739
 31
0.0
  0
LINE
  5
267
100
AcDbEntity
  8
0
370
    -3
390
0
  6
Continuous
100
AcDbLine
 10
-72.814012
 20
220.192995
 30
0.0
 11
-215.814012
 21
220.192995
 31
0.0
  0
LINE
  5
268
100
AcDbEntity
  8
0
370
    -3
390
0
  6
Continuous
100
AcDbLine
 10
-72.814012
 20
196.240943
 30
0.0
 11
-215.814012
 21
196.240943
 31
0.0
  0
ELLIPSE
  5
269
100
AcDbEntity
  8
0
370
    -3
390
0
  6
Continuous
100
AcDbEllipse
 10
-232.814012
 20
139.946008
 30
0.0
 11
5.0
 21
0.0
 31
0.0
210
0.0
220
0.0
230
1.0
 40
0.707107
 41
0.0
 42
3.1415926535897931
  0
LINE
  5
26A
100
AcDbEntity
  8
0
370
    -3
390
0
  6
Continuous
100
AcDbLine
 10
-237.814012
 20
139.129404
 30
0.0
 11
-237.814012
 21
139.946008
 31
0.0
  0
LINE
  5
26B
100
AcDbEntity
  8
0
370
    -3
390
0
  6
Continuous
100
AcDbLine
 10
-227.814012
 20
139.129404
 30
0.0
 11
-227.814012
 21
139.946008
 31
0.0
  0
ELLIPSE
  5
26C
100
AcDbEntity
  8
0
370
    -3
390
0
  6
Continuous
100
AcDbEllipse
 10
-232.814012
 20
139.129404
 30
0.0
 11
4.5
 21
0.0
 31
0.0
210
0.0
220
0.0
230
1.0
 40
0.707107
 41
0.0
 42
3.1415926535897931
  0
LINE
  5
26D
100
AcDbEntity
  8
0
370
    -3
390
0
  6
Continuous
100
AcDbLine
 10
-237.314012
 20
138.563719
 30
0.0
 11
-237.314012
 21
139.129404
 31
0.0
  0
LINE
  5
26E
100
AcDbEntity
  8
0
370
    -3
390
0
  6
Continuous
100
AcDbLine
 10
-228.314012
 20
138.563719
 30
0.0
 11
-228.314012
 21
139.129404
 31
0.0
  0
ELLIPSE
  5
26F
100
AcDbEntity
  8
0
370
    -3
390
0
  6
Continuous
100
AcDbEllipse
 10
-232.814012
 20
139.129404
 30
0.0
 11
5.0
 21
0.0
 31
0.0
210
0.0
220
0.0
230
1.0
 40
0.707107
 41
5.5439134802389658
 42
0.0
  0
ELLIPSE
  5
270
100
AcDbEntity
  8
0
370
    -3
390
0
  6
Continuous
100
AcDbEllipse
 10
-232.814012
 20
139.129404
 30
0.0
 11
5.0
 21
0.0
 31
0.0
210
0.0
220
0.0
230
1.0
 40
0.707107
 41
3.1415926535897931
 42
3.8808644805304136
  0
ELLIPSE
  5
271
100
AcDbEntity
  8
0
370
    -3
390
0
  6
Continuous
100
AcDbEllipse
 10
-232.814012
 20
138.027201
 30
0.0
 11
3.5
 21
0.0
 31
0.0
210
0.0
220
0.0
230
1.0
 40
0.860398
 41
0.0
 42
6.2831853071795862
  0
ELLIPSE
  5
272
100
AcDbEntity
  8
0
370
    -3
390
0
  6
Continuous
100
AcDbEllipse
 10
-232.814012
 20
138.563719
 30
0.0
 11
4.5
 21
0.0
 31
0.0
210
0.0
220
0.0
230
1.0
 40
0.707107
 41
5.3002993159359626
 42
4.1244786448334168
  0
LINE
  5
273
100
AcDbEntity
  8
0
370
    -3
390
0
  6
Continuous
100
AcDbLine
 10
-232.814012
 20
136.725241
 30
0.0
 11
-230.814012
 21
138.298579
 31
0.0
  0
LINE
  5
274
100
AcDbEntity
  8
0
370
    -3
390
0
  6
Continuous
100
AcDbLine
 10
-232.814012
 20
136.725241
 30
0.0
 11
-230.884807
 21
135.514579
 31
0.0
  0
LINE
  5
275
100
AcDbEntity
  8
0
370
    -3
390
0
  6
Continuous
100
AcDbLine
 10
-232.814012
 20
136.725241
 30
0.0
 11
-234.814012
 21
138.298579
 31
0.0
  0
LINE
  5
276
100
AcDbEntity
  8
0
370
    -3
390
0
  6
Continuous
100
AcDbLine
 10
-232.814012
 20
136.725241
 30
0.0
 11
-234.743216
 21
135.514579
 31
0.0
  0
ARC
  5
277
100
AcDbEntity
  8
0
370
    -3
390
0
  6
Continuous
100
AcDbCircle
 10
-183.414012
 20
121.270739
 30
0.0
 40
3.2
100
AcDbArc
 50
0.0
 51
90.0
  0
ARC
  5
278
100
AcDbEntity
  8
0
370
    -3
390
0
  6
Continuous
100
AcDbCircle
 10
-178.614012
 20
112.670739
 30
0.0
 40
1.6
100
AcDbArc
 50
180.0
 51
270.0
  0
LINE
  5
279
100
AcDbEntity
  8
0
370
    -3
390
0
  6
Continuous
100
AcDbLine
 10
-180.214012
 20
121.270739
 30
0.0
 11
-180.214012
 21
112.670739
 31
0.0
  0
LINE
  5
27A
100
AcDbEntity
  8
0
370
    -3
390
0
  6
Continuous
100
AcDbLine
 10
-174.814012
 20
109.470739
 30
0.0
 11
-174.814012
 21
111.070739
 31
0.0
  0
LINE
  5
27B
100
AcDbEntity
  8
0
370
    -3
390
0
  6
Continuous
100
AcDbLine
 10
-174.814012
 20
111.070739
 30
0.0
 11
-205.814012
 21
111.070739
 31
0.0
  0
LINE
  5
27C
100
AcDbEntity
  8
0
370
    -3
390
0
  6
Continuous
100
AcDbLine
 10
-205.814012
 20
109.470739
 30
0.0
 11
-174.814012
 21
109.470739
 31
0.0
  0
ARC
  5
27D
100
AcDbEntity
  8
0
370
    -3
390
0
  6
Continuous
100
AcDbCircle
 10
-233.014012
 20
112.670739
 30
0.0
 40
1.6
100
AcDbArc
 50
270.0
 51
0.0
  0
LINE
  5
27E
100
AcDbEntity
  8
0
370
    -3
390
0
  6
Continuous
100
AcDbLine
 10
-231.414012
 20
122.770739
 30
0.0
 11
-231.414012
 21
112.670739
 31
0.0
  0
LINE
  5
27F
100
AcDbEntity
  8
0
370
    -3
390
0
  6
Continuous
100
AcDbLine
 10
-236.814012
 20
109.470739
 30
0.0
 11
-236.814012
 21
111.070739
 31
0.0
  0
LINE
  5
280
100
AcDbEntity
  8
0
370
    -3
390
0
  6
Continuous
100
AcDbLine
 10
-236.814012
 20
111.070739
 30
0.0
 11
-205.814012
 21
111.070739
 31
0.0
  0
LINE
  5
281
100
AcDbEntity
  8
0
370
    -3
390
0
  6
Continuous
100
AcDbLine
 10
-205.814012
 20
109.470739
 30
0.0
 11
-236.814012
 21
109.470739
 31
0.0
  0
LINE
  5
282
100
AcDbEntity
  8
0
370
    -3
390
0
  6
CENTER
100
AcDbLine
 10
-205.814012
 20
115.304452
 30
0.0
 11
-205.814012
 21
53.242039
 31
0.0
  0
LINE
  5
283
100
AcDbEntity
  8
0
370
    -3
390
0
  6
Continuous
100
AcDbLine
 10
-241.264012
 20
58.296914
 30
0.0
 11
-208.871268
 21
58.296914
 31
0.0
  0
LINE
  5
284
100
AcDbEntity
  8
0
370
    -3
390
0
  6
Continuous
100
AcDbLine
 10
-241.264012
 20
107.165303
 30
0.0
 11
-170.364012
 21
107.165303
 31
0.0
  0
LINE
  5
285
100
AcDbEntity
  8
0
370
    -3
390
0
  6
Continuous
100
AcDbLine
 10
-241.264012
 20
103.69383
 30
0.0
 11
-170.364012
 21
103.69383
 31
0.0
  0
LINE
  5
286
100
AcDbEntity
  8
0
370
    -3
390
0
  6
Continuous
100
AcDbLine
 10
-159.364012
 20
96.165303
 30
0.0
 11
-159.364012
 21
69.296914
 31
0.0
  0
LINE
  5
287
100
AcDbEntity
  8
0
370
    -3
390
0
  6
Continuous
100
AcDbLine
 10
-252.264012
 20
96.165303
 30
0.0
 11
-252.264012
 21
69.296914
 31
0.0
  0
LINE
  5
288
100
AcDbEntity
  8
0
370
    -3
390
0
  6
Continuous
100
AcDbLine
 10
-165.764012
 20
66.270739
 30
0.0
 11
-165.764012
 21
95.846674
 31
0.0
  0
LINE
  5
289
100
AcDbEntity
  8
0
370
    -3
390
0
  6
Continuous
100
AcDbLine
 10
-245.864012
 20
66.270739
 30
0.0
 11
-245.864012
 21
95.846674
 31
0.0
  0
LINE
  5
28A
100
AcDbEntity
  8
0
370
    -3
390
0
  6
Continuous
100
AcDbLine
 10
-240.864012
 20
100.846674
 30
0.0
 11
-170.764012
 21
100.846674
 31
0.0
  0
ARC
  5
28B
100
AcDbEntity
  8
0
370
    -3
390
0
  6
Continuous
100
AcDbCircle
 10
-170.764012
 20
95.846674
 30
0.0
 40
5.0
100
AcDbArc
 50
0.0
 51
90.0
  0
ARC
  5
28C
100
AcDbEntity
  8
0
370
    -3
390
0
  6
Continuous
100
AcDbCircle
 10
-240.864012
 20
95.846674
 30
0.0
 40
5.0
100
AcDbArc
 50
90.0
 51
180.0
  0
ARC
  5
28D
100
AcDbEntity
  8
0
370
    -3
390
0
  6
Continuous
100
AcDbCircle
 10
-170.364012
 20
69.296914
 30
0.0
 40
11.0
100
AcDbArc
 50
270.0
 51
0.0
  0
ARC
  5
28E
100
AcDbEntity
  8
0
370
    -3
390
0
  6
Continuous
100
AcDbCircle
 10
-241.264012
 20
69.296914
 30
0.0
 40
11.0
100
AcDbArc
 50
180.0
 51
270.0
  0
LINE
  5
28F
100
AcDbEntity
  8
0
370
    -3
390
0
  6
Continuous
100
AcDbLine
 10
-240.064012
 20
60.470739
 30
0.0
 11
-171.564012
 21
60.470739
 31
0.0
  0
ARC
  5
290
100
AcDbEntity
  8
0
370
    -3
390
0
  6
Continuous
100
AcDbCircle
 10
-171.564012
 20
66.270739
 30
0.0
 40
5.8
100
AcDbArc
 50
270.0
 51
0.0
  0
ARC
  5
291
100
AcDbEntity
  8
0
370
    -3
390
0
  6
Continuous
100
AcDbCircle
 10
-240.064012
 20
66.270739
 30
0.0
 40
5.8
100
AcDbArc
 50
180.0
 51
270.0
  0
ARC
  5
292
100
AcDbEntity
  8
0
370
    -3
390
0
  6
Continuous
100
AcDbCircle
 10
-170.364012
 20
92.69383
 30
0.0
 40
11.0
100
AcDbArc
 50
0.0
 51
90.0
  0
ARC
  5
293
100
AcDbEntity
  8
0
370
    -3
390
0
  6
Continuous
100
AcDbCircle
 10
-170.364012
 20
96.165303
 30
0.0
 40
11.0
100
AcDbArc
 50
0.0
 51
90.0
  0
ARC
  5
294
100
AcDbEntity
  8
0
370
    -3
390
0
  6
Continuous
100
AcDbCircle
 10
-241.264012
 20
92.69383
 30
0.0
 40
11.0
100
AcDbArc
 50
90.0
 51
180.0
  0
ARC
  5
295
100
AcDbEntity
  8
0
370
    -3
390
0
  6
Continuous
100
AcDbCircle
 10
-241.264012
 20
96.165303
 30
0.0
 40
11.0
100
AcDbArc
 50
90.0
 51
180.0
  0
LINE
  5
296
100
AcDbEntity
  8
0
370
    -3
390
0
  6
Continuous
100
AcDbLine
 10
-239.614012
 20
108.470739
 30
0.0
 11
-172.014012
 21
108.470739
 31
0.0
  0
ARC
  5
297
100
AcDbEntity
  8
0
370
    -3
390
0
  6
Continuous
100
AcDbCircle
 10
-172.014012
 20
103.470739
 30
0.0
 40
5.0
100
AcDbArc
 50
44.925956
 51
90.0
  0
ARC
  5
298
100
AcDbEntity
  8
0
370
    -3
390
0
  6
Continuous
100
AcDbCircle
 10
-239.614012
 20
103.470739
 30
0.0
 40
5.0
100
AcDbArc
 50
90.0
 51
135.074044
  0
LINE
  5
299
100
AcDbEntity
  8
0
370
    -3
390
0
  6
Continuous
100
AcDbLine
 10
-174.814012
 20
109.470739
 30
0.0
 11
-174.814012
 21
108.470739
 31
0.0
  0
LINE
  5
29A
100
AcDbEntity
  8
0
370
    -3
390
0
  6
Continuous
100
AcDbLine
 10
-236.814012
 20
109.470739
 30
0.0
 11
-174.814012
 21
109.470739
 31
0.0
  0
LINE
  5
29B
100
AcDbEntity
  8
0
370
    -3
390
0
  6
Continuous
100
AcDbLine
 10
-236.814012
 20
109.470739
 30
0.0
 11
-236.814012
 21
108.470739
 31
0.0
  0
LINE
  5
29C
100
AcDbEntity
  8
0
370
    -3
390
0
  6
CENTER
100
AcDbLine
 10
-228.637643
 20
84.470739
 30
0.0
 11
-184.349925
 21
84.470739
 31
0.0
  0
CIRCLE
  5
29D
100
AcDbEntity
  8
0
370
    -3
390
0
  6
DASHED
100
AcDbCircle
 10
-205.814012
 20
84.470739
 30
0.0
 40
13.5
  0
LINE
  5
29E
100
AcDbEntity
  8
0
370
    -3
390
0
  6
Continuous
100
AcDbLine
 10
-202.756755
 20
58.296914
 30
0.0
 11
-170.364012
 21
58.296914
 31
0.0
  0
LINE
  5
29F
100
AcDbEntity
  8
0
370
    -3
390
0
  6
Continuous
100
AcDbLine
 10
-215.814012
 20
126.252941
 30
0.0
 11
-215.814012
 21
196.970739
 31
0.0
  0
ARC
  5
2A0
100
AcDbEntity
  8
0
370
    -3
390
0
  6
Continuous
100
AcDbCircle
 10
-218.814012
 20
126.252941
 30
0.0
 40
3.0
100
AcDbArc
 50
270.0
 51
0.0
  0
LINE
  5
2A1
100
AcDbEntity
  8
0
370
    -3
390
0
  6
Continuous
100
AcDbLine
 10
-235.814012
 20
122.170739
 30
0.0
 11
-247.561177
 21
122.170739
 31
0.0
  0
LINE
  5
2A2
100
AcDbEntity
  8
0
370
    -3
390
0
  6
Continuous
100
AcDbLine
 10
-235.814012
 20
122.170739
 30
0.0
 11
-235.814012
 21
122.252941
 31
0.0
  0
LINE
  5
2A3
100
AcDbEntity
  8
0
370
    -3
390
0
  6
Continuous
100
AcDbLine
 10
-234.814012
 20
123.252941
 30
0.0
 11
-218.814012
 21
123.252941
 31
0.0
  0
ARC
  5
2A4
100
AcDbEntity
  8
0
370
    -3
390
0
  6
Continuous
100
AcDbCircle
 10
-234.814012
 20
122.252941
 30
0.0
 40
1.0
100
AcDbArc
 50
90.0
 51
180.0
  0
ARC
  5
2A5
100
AcDbEntity
  8
0
370
    -3
390
0
  6
Continuous
100
AcDbCircle
 10
-228.214012
 20
122.770739
 30
0.0
 40
3.2
100
AcDbArc
 50
171.333191
 51
180.0
  0
LINE
  5
2A6
100
AcDbEntity
  8
0
370
    -3
390
0
  6
Continuous
100
AcDbLine
 10
-72.814012
 20
196.970739
 30
0.0
 11
-72.814012
 21
125.470739
 31
0.0
  0
LINE
  5
2A7
100
AcDbEntity
  8
0
370
    -3
390
0
  6
Continuous
100
AcDbLine
 10
-72.814012
 20
125.470739
 30
0.0
 11
-215.814012
 21
125.470739
 31
0.0
  0
LINE
  5
2A8
100
AcDbEntity
  8
0
370
    -3
390
0
  6
Continuous
100
AcDbLine
 10
-72.814012
 20
127.470739
 30
0.0
 11
-215.814012
 21
127.470739
 31
0.0
  0
LINE
  5
2A9
100
AcDbEntity
  8
0
370
    -3
390
0
  6
Continuous
100
AcDbLine
 10
-72.814012
 20
130.470739
 30
0.0
 11
-215.814012
 21
130.470739
 31
0.0
  0
LINE
  5
2AA
100
AcDbEntity
  8
0
370
    -3
390
0
  6
Continuous
100
AcDbLine
 10
-72.814012
 20
134.970739
 30
0.0
 11
-215.814012
 21
134.970739
 31
0.0
  0
LINE
  5
2AB
100
AcDbEntity
  8
0
370
    -3
390
0
  6
Continuous
100
AcDbLine
 10
-72.814012
 20
141.38494
 30
0.0
 11
-215.814012
 21
141.38494
 31
0.0
  0
LINE
  5
2AC
100
AcDbEntity
  8
0
370
    -3
390
0
  6
Continuous
100
AcDbLine
 10
-72.814012
 20
147.748901
 30
0.0
 11
-215.814012
 21
147.748901
 31
0.0
  0
LINE
  5
2AD
100
AcDbEntity
  8
0
370
    -3
390
0
  6
Continuous
100
AcDbLine
 10
-72.814012
 20
156.12147
 30
0.0
 11
-215.814012
 21
156.12147
 31
0.0
  0
LINE
  5
2AE
100
AcDbEntity
  8
0
370
    -3
390
0
  6
Continuous
100
AcDbLine
 10
-72.814012
 20
157.770097
 30
0.0
 11
-215.814012
 21
157.770097
 31
0.0
  0
LINE
  5
2AF
100
AcDbEntity
  8
0
370
    -3
390
0
  6
Continuous
100
AcDbLine
 10
-72.814012
 20
164.127967
 30
0.0
 11
-215.814012
 21
164.127967
 31
0.0
  0
LINE
  5
2B0
100
AcDbEntity
  8
0
370
    -3
390
0
  6
Continuous
100
AcDbLine
 10
-72.814012
 20
165.760695
 30
0.0
 11
-215.814012
 21
165.760695
 31
0.0
  0
LINE
  5
2B1
100
AcDbEntity
  8
0
370
    -3
390
0
  6
Continuous
100
AcDbLine
 10
-72.814012
 20
172.156231
 30
0.0
 11
-215.814012
 21
172.156231
 31
0.0
  0
LINE
  5
2B2
100
AcDbEntity
  8
0
370
    -3
390
0
  6
Continuous
100
AcDbLine
 10
-72.814012
 20
188.222583
 30
0.0
 11
-215.814012
 21
188.222583
 31
0.0
  0
LINE
  5
2B3
100
AcDbEntity
  8
0
370
    -3
390
0
  6
Continuous
100
AcDbLine
 10
-72.814012
 20
189.707741
 30
0.0
 11
-215.814012
 21
189.707741
 31
0.0
  0
LINE
  5
2B4
100
AcDbEntity
  8
0
370
    -3
390
0
  6
Continuous
100
AcDbLine
 10
-72.814012
 20
180.190738
 30
0.0
 11
-215.814012
 21
180.190738
 31
0.0
  0
LINE
  5
2B5
100
AcDbEntity
  8
0
370
    -3
390
0
  6
Continuous
100
AcDbLine
 10
-72.814012
 20
181.727575
 30
0.0
 11
-215.814012
 21
181.727575
 31
0.0
  0
LINE
  5
2B6
100
AcDbEntity
  8
0
370
    -3
390
0
  6
Continuous
100
AcDbLine
 10
-72.814012
 20
125.970739
 30
0.0
 11
-215.814012
 21
125.970739
 31
0.0
  0
LINE
  5
2B7
100
AcDbEntity
  8
0
370
    -3
390
0
  6
Continuous
100
AcDbLine
 10
-72.814012
 20
173.748483
 30
0.0
 11
-215.814012
 21
173.748483
 31
0.0
  0
MTEXT
  5
2B9
100
AcDbEntity
  8
0
370
    -3
390
0
  6
Continuous
100
AcDbMText
 10
-562.771301
 20
202.12973
 30
0.0
 40
13.97088
 41
0.0
 71
     7
 72
     1
  1
\W0.98;三菱ギヤードモータ  
  7
ZU_SHPTB00001
 11
1.0
 21
0.0
 31
0.0
 73
     1
 44
1.0
  0
MTEXT
  5
2BA
100
AcDbEntity
  8
0
370
    -3
390
0
  6
Continuous
100
AcDbMText
 10
-562.771301
 20
179.69165
 30
0.0
 40
13.97088
 41
0.0
 71
     7
 72
     1
  1
\W0.78;GM-SPF
  7
ZU_SHPTB00001
 11
1.0
 21
0.0
 31
0.0
 73
     1
 44
1.0
  0
MTEXT
  5
2BB
100
AcDbEntity
  8
0
370
    -3
390
0
  6
Continuous
100
AcDbMText
 10
-562.771301
 20
157.253555
 30
0.0
 40
13.97088
 41
0.0
 71
     7
 72
     1
  1
\W0.78;0.75kW
  7
ZU_SHPTB00001
 11
1.0
 21
0.0
 31
0.0
 73
     1
 44
1.0
  0
MTEXT
  5
2BC
100
AcDbEntity
  8
0
370
    -3
390
0
  6
Continuous
100
AcDbMText
 10
-562.771301
 20
134.815475
 30
0.0
 40
13.97088
 41
0.0
 71
     7
 72
     1
  1
\W0.78;1/270\W0.98;～\W0.78;1/450
  7
ZU_SHPTB00001
 11
1.0
 21
0.0
 31
0.0
 73
     1
 44
1.0
  0
MTEXT
  5
2BD
100
AcDbEntity
  8
0
370
    -3
390
0
  6
Continuous
100
AcDbMText
 10
-562.771301
 20
112.377396
 30
0.0
 40
13.97088
 41
0.0
 71
     7
 72
     1
  1
\W0.78;SCALE1/1
  7
ZU_SHPTB00001
 11
1.0
 21
0.0
 31
0.0
 73
     1
 44
1.0
  0
INSERT
  5
2CD
100
AcDbEntity
  8
0
390
0
100
AcDbBlockReference
  2
ZU_SYM__USERS_HOME_SYMBOL_STD_SYM_B02_48
 10
-2.814012
 20
133.331129
 30
0.0
  0
INSERT
  5
2DD
100
AcDbEntity
  8
0
390
0
100
AcDbBlockReference
  2
ZU_SYM__USERS_HOME_SYMBOL_STD_SYM_B02_0000648
 10
-2.814012
 20
260.610349
 30
0.0
 41
-1.0
 50
180.0
  0
LINE
  5
2DE
100
AcDbEntity
  8
0
370
    -3
390
0
  6
Continuous
100
AcDbLine
 10
0.185988
 20
98.970739
 30
0.0
 11
7.185988
 21
98.970739
 31
0.0
  0
ARC
  5
2DF
100
AcDbEntity
  8
0
370
    -3
390
0
  6
Continuous
100
AcDbCircle
 10
0.185988
 20
101.970739
 30
0.0
 40
3.0
100
AcDbArc
 50
180.0
 51
270.0
  0
LINE
  5
2E0
100
AcDbEntity
  8
0
370
    -3
390
0
  6
Continuous
100
AcDbLine
 10
-2.814012
 20
196.970739
 30
0.0
 11
-2.814012
 21
101.970739
 31
0.0
  0
LINE
  5
2E1
100
AcDbEntity
  8
0
370
    -3
390
0
  6
Continuous
100
AcDbLine
 10
-2.814012
 20
187.034247
 30
0.0
 11
2.685989
 21
187.034247
 31
0.0
  0
CIRCLE
  5
2E2
100
AcDbEntity
  8
0
370
    -3
390
0
  6
Continuous
100
AcDbCircle
 10
-23.814012
 20
196.970739
 30
0.0
 40
10.5
  0
LINE
  5
2E3
100
AcDbEntity
  8
0
370
    -3
390
0
  6
Continuous
100
AcDbLine
 10
0.185988
 20
294.970739
 30
0.0
 11
7.185988
 21
294.970739
 31
0.0
  0
ARC
  5
2E4
100
AcDbEntity
  8
0
370
    -3
390
0
  6
Continuous
100
AcDbCircle
 10
0.185988
 20
291.970739
 30
0.0
 40
3.0
100
AcDbArc
 50
90.0
 51
180.0
  0
LINE
  5
2E5
100
AcDbEntity
  8
0
370
    -3
390
0
  6
Continuous
100
AcDbLine
 10
-2.814012
 20
196.970739
 30
0.0
 11
-2.814012
 21
291.970739
 31
0.0
  0
LINE
  5
2E6
100
AcDbEntity
  8
0
370
    -3
390
0
  6
Continuous
100
AcDbLine
 10
-2.814012
 20
206.907231
 30
0.0
 11
2.685989
 21
206.907231
 31
0.0
  0
LINE
  5
2E7
100
AcDbEntity
  8
0
370
    -3
390
0
  6
CENTER
100
AcDbLine
 10
287.285149
 20
196.970739
 30
0.0
 11
-297.570484
 21
196.970739
 31
0.0
  0
LINE
  5
2E8
100
AcDbEntity
  8
0
370
    -3
390
0
  6
Continuous
100
AcDbLine
 10
7.185988
 20
213.970739
 30
0.0
 11
7.185988
 21
294.970739
 31
0.0
  0
LINE
  5
2E9
100
AcDbEntity
  8
0
370
    -3
390
0
  6
Continuous
100
AcDbLine
 10
7.185988
 20
196.970739
 30
0.0
 11
7.185988
 21
200.970739
 31
0.0
  0
LINE
  5
2EA
100
AcDbEntity
  8
0
370
    -3
390
0
  6
Continuous
100
AcDbLine
 10
21.671061
 20
295.72987
 30
0.0
 11
7.185988
 21
294.970739
 31
0.0
  0
LINE
  5
2EB
100
AcDbEntity
  8
0
370
    -3
390
0
  6
Continuous
100
AcDbLine
 10
11.019953
 20
274.77782
 30
0.0
 11
26.860271
 21
305.937688
 31
0.0
  0
ARC
  5
2EC
100
AcDbEntity
  8
0
370
    -3
390
0
  6
Continuous
100
AcDbCircle
 10
8.34567
 20
276.137309
 30
0.0
 40
3.0
100
AcDbArc
 50
270.0
 51
333.053201
  0
LINE
  5
2ED
100
AcDbEntity
  8
0
370
    -3
390
0
  6
Continuous
100
AcDbLine
 10
25.325248
 20
268.486131
 30
0.0
 11
11.019953
 21
268.486131
 31
0.0
  0
LINE
  5
2EE
100
AcDbEntity
  8
0
370
    -3
390
0
  6
Continuous
100
AcDbLine
 10
11.019953
 20
270.126642
 30
0.0
 11
26.860271
 21
301.28651
 31
0.0
  0
ARC
  5
2EF
100
AcDbEntity
  8
0
370
    -3
390
0
  6
Continuous
100
AcDbCircle
 10
8.34567
 20
271.486131
 30
0.0
 40
3.0
100
AcDbArc
 50
270.0
 51
333.053201
  0
LINE
  5
2F0
100
AcDbEntity
  8
0
370
    -3
390
0
  6
Continuous
100
AcDbLine
 10
15.185988
 20
217.470739
 30
0.0
 11
10.685988
 21
217.470739
 31
0.0
  0
LINE
  5
2F1
100
AcDbEntity
  8
0
370
    -3
390
0
  6
Continuous
100
AcDbLine
 10
10.685988
 20
196.970739
 30
0.0
 11
10.685988
 21
217.470739
 31
0.0
  0
LINE
  5
2F2
100
AcDbEntity
  8
0
370
    -3
390
0
  6
Continuous
100
AcDbLine
 10
7.185988
 20
179.970739
 30
0.0
 11
7.185988
 21
98.970739
 31
0.0
  0
LINE
  5
2F3
100
AcDbEntity
  8
0
370
    -3
390
0
  6
Continuous
100
AcDbLine
 10
7.185988
 20
196.970739
 30
0.0
 11
7.185988
 21
192.970739
 31
0.0
  0
LINE
  5
2F4
100
AcDbEntity
  8
0
370
    -3
390
0
  6
Continuous
100
AcDbLine
 10
21.671061
 20
98.211608
 30
0.0
 11
7.185988
 21
98.970739
 31
0.0
  0
LINE
  5
2F5
100
AcDbEntity
  8
0
370
    -3
390
0
  6
Continuous
100
AcDbLine
 10
11.019953
 20
119.163658
 30
0.0
 11
26.860271
 21
88.00379
 31
0.0
  0
ARC
  5
2F6
100
AcDbEntity
  8
0
370
    -3
390
0
  6
Continuous
100
AcDbCircle
 10
8.34567
 20
117.804169
 30
0.0
 40
3.0
100
AcDbArc
 50
26.946799
 51
90.0
  0
LINE
  5
2F7
100
AcDbEntity
  8
0
370
    -3
390
0
  6
Continuous
100
AcDbLine
 10
25.325248
 20
125.455347
 30
0.0
 11
11.019953
 21
125.455347
 31
0.0
  0
LINE
  5
2F8
100
AcDbEntity
  8
0
370
    -3
390
0
  6
Continuous
100
AcDbLine
 10
11.019953
 20
123.814836
 30
0.0
 11
26.860271
 21
92.654968
 31
0.0
  0
ARC
  5
2F9
100
AcDbEntity
  8
0
370
    -3
390
0
  6
Continuous
100
AcDbCircle
 10
8.34567
 20
122.455347
 30
0.0
 40
3.0
100
AcDbArc
 50
26.946799
 51
90.0
  0
LINE
  5
2FA
100
AcDbEntity
  8
0
370
    -3
390
0
  6
Continuous
100
AcDbLine
 10
15.185988
 20
176.470739
 30
0.0
 11
10.685988
 21
176.470739
 31
0.0
  0
LINE
  5
2FB
100
AcDbEntity
  8
0
370
    -3
390
0
  6
Continuous
100
AcDbLine
 10
10.685988
 20
196.970739
 30
0.0
 11
10.685988
 21
176.470739
 31
0.0
  0
INSERT
  5
307
100
AcDbEntity
  8
0
390
0
100
AcDbBlockReference
  2
ZU_SYM__USERS_HOME_SYMBOL_POO_SYM_B20_0000718
 10
10.685988
 20
207.470739
 30
0.0
 41
-1.0
 50
180.0
  0
INSERT
  5
313
100
AcDbEntity
  8
0
390
0
100
AcDbBlockReference
  2
ZU_SYM__USERS_HOME_SYMBOL_POO_SYM_B20_0000818
 10
10.685988
 20
186.470739
 30
0.0
  0
LINE
  5
314
100
AcDbEntity
  8
0
370
    -3
390
0
  6
CENTER
100
AcDbLine
 10
-525.484483
 20
-192.929149
 30
0.0
 11
-450.86906
 21
-192.929149
 31
0.0
  0
ARC
  5
315
100
AcDbEntity
  8
0
370
    -3
390
0
  6
Continuous
100
AcDbCircle
 10
-487.994075
 20
-232.929149
 30
0.0
 40
40.0
100
AcDbArc
 50
245.280189
 51
294.719811
  0
LINE
  5
316
100
AcDbEntity
  8
0
370
    -3
390
0
  6
DIVIDE
100
AcDbLine
 10
-389.994075
 20
-242.783568
 30
0.0
 11
-389.994075
 21
-249.929149
 31
0.0
  0
LINE
  5
317
100
AcDbEntity
  8
0
370
    -3
390
0
  6
Continuous
100
AcDbLine
 10
-499.867059
 20
-329.929149
 30
0.0
 11
-505.994075
 21
-329.929149
 31
0.0
  0
LINE
  5
318
100
AcDbEntity
  8
0
370
    -3
390
0
  6
Continuous
100
AcDbLine
 10
-476.121092
 20
-329.929149
 30
0.0
 11
-469.994075
 21
-329.929149
 31
0.0
  0
LINE
  5
319
100
AcDbEntity
  8
0
370
    -3
390
0
  6
Continuous
100
AcDbLine
 10
-487.994075
 20
-332.929149
 30
0.0
 11
-495.994075
 21
-332.929149
 31
0.0
  0
LINE
  5
31A
100
AcDbEntity
  8
0
370
    -3
390
0
  6
Continuous
100
AcDbLine
 10
-487.994075
 20
-332.929149
 30
0.0
 11
-479.994075
 21
-332.929149
 31
0.0
  0
LINE
  5
31B
100
AcDbEntity
  8
0
370
    -3
390
0
  6
Continuous
100
AcDbLine
 10
-585.994075
 20
-232.929149
 30
0.0
 11
-585.994075
 21
-249.929149
 31
0.0
  0
LINE
  5
31C
100
AcDbEntity
  8
0
370
    -3
390
0
  6
Continuous
100
AcDbLine
 10
-585.994075
 20
-232.929149
 30
0.0
 11
-585.994075
 21
-215.929149
 31
0.0
  0
LINE
  5
31D
100
AcDbEntity
  8
0
370
    -3
390
0
  6
Continuous
100
AcDbLine
 10
-389.994075
 20
-241.429149
 30
0.0
 11
-389.994075
 21
-249.929149
 31
0.0
  0
ARC
  5
31E
100
AcDbEntity
  8
0
370
    -3
390
0
  6
Continuous
100
AcDbCircle
 10
-505.994075
 20
-249.929149
 30
0.0
 40
80.0
100
AcDbArc
 50
202.119118
 51
242.258787
  0
ARC
  5
31F
100
AcDbEntity
  8
0
370
    -3
390
0
  6
Continuous
100
AcDbCircle
 10
-505.994075
 20
-249.929149
 30
0.0
 40
80.0
100
AcDbArc
 50
242.258787
 51
270.0
  0
ARC
  5
320
100
AcDbEntity
  8
0
370
    -3
390
0
  6
Continuous
100
AcDbCircle
 10
-469.994075
 20
-249.929149
 30
0.0
 40
80.0
100
AcDbArc
 50
323.661144
 51
0.0
  0
ARC
  5
321
100
AcDbEntity
  8
0
370
    -3
390
0
  6
Continuous
100
AcDbCircle
 10
-469.994075
 20
-249.929149
 30
0.0
 40
80.0
100
AcDbArc
 50
270.0
 51
279.172055
  0
ARC
  5
322
100
AcDbEntity
  8
0
370
    -3
390
0
  6
Continuous
100
AcDbCircle
 10
-479.994075
 20
-330.929149
 30
0.0
 40
2.0
100
AcDbArc
 50
270.0
 51
345.522488
  0
ARC
  5
323
100
AcDbEntity
  8
0
370
    -3
390
0
  6
Continuous
100
AcDbCircle
 10
-476.121092
 20
-331.929149
 30
0.0
 40
2.0
100
AcDbArc
 50
90.0
 51
165.522488
  0
ARC
  5
324
100
AcDbEntity
  8
0
370
    -3
390
0
  6
Continuous
100
AcDbCircle
 10
-505.994075
 20
-249.929149
 30
0.0
 40
80.0
100
AcDbArc
 50
180.0
 51
202.119118
  0
ARC
  5
325
100
AcDbEntity
  8
0
370
    -3
390
0
  6
Continuous
100
AcDbCircle
 10
-495.994075
 20
-330.929149
 30
0.0
 40
2.0
100
AcDbArc
 50
194.477512
 51
270.0
  0
ARC
  5
326
100
AcDbEntity
  8
0
370
    -3
390
0
  6
Continuous
100
AcDbCircle
 10
-499.867059
 20
-331.929149
 30
0.0
 40
2.0
100
AcDbArc
 50
14.477512
 51
90.0
  0
ARC
  5
327
100
AcDbEntity
  8
0
370
    -3
390
0
  6
Continuous
100
AcDbCircle
 10
-469.994075
 20
-249.929149
 30
0.0
 40
80.0
100
AcDbArc
 50
279.172055
 51
323.661144
  0
ARC
  5
328
100
AcDbEntity
  8
0
370
    -3
390
0
  6
Continuous
100
AcDbCircle
 10
-505.994075
 20
-215.929149
 30
0.0
 40
80.0
100
AcDbArc
 50
129.921585
 51
180.0
  0
ARC
  5
329
100
AcDbEntity
  8
0
370
    -3
390
0
  6
Continuous
100
AcDbCircle
 10
-473.494075
 20
-273.410627
 30
0.0
 40
3.0
100
AcDbArc
 50
0.0
 51
109.706941
  0
ARC
  5
32A
100
AcDbEntity
  8
0
370
    -3
390
0
  6
Continuous
100
AcDbCircle
 10
-502.494075
 20
-273.410627
 30
0.0
 40
3.0
100
AcDbArc
 50
70.293059
 51
180.0
  0
ARC
  5
32B
100
AcDbEntity
  8
0
370
    -3
390
0
  6
Continuous
100
AcDbCircle
 10
-424.354465
 20
-296.56876
 30
0.0
 40
9.0
100
AcDbArc
 50
48.822554
 51
221.177446
  0
ARC
  5
32C
100
AcDbEntity
  8
0
370
    -3
390
0
  6
Continuous
100
AcDbCircle
 10
-416.453746
 20
-287.53667
 30
0.0
 40
3.0
100
AcDbArc
 50
228.822554
 51
322.645107
  0
ARC
  5
32D
100
AcDbEntity
  8
0
370
    -3
390
0
  6
Continuous
100
AcDbCircle
 10
-433.386555
 20
-304.469479
 30
0.0
 40
3.0
100
AcDbArc
 50
307.354893
 51
41.177446
  0
ARC
  5
32E
100
AcDbEntity
  8
0
370
    -3
390
0
  6
Continuous
100
AcDbCircle
 10
-559.534404
 20
-287.53667
 30
0.0
 40
3.0
100
AcDbArc
 50
217.354893
 51
311.177446
  0
ARC
  5
32F
100
AcDbEntity
  8
0
370
    -3
390
0
  6
Continuous
100
AcDbCircle
 10
-551.633686
 20
-296.56876
 30
0.0
 40
9.0
100
AcDbArc
 50
318.822554
 51
131.177446
  0
ARC
  5
330
100
AcDbEntity
  8
0
370
    -3
390
0
  6
Continuous
100
AcDbCircle
 10
-542.601596
 20
-304.469479
 30
0.0
 40
3.0
100
AcDbArc
 50
138.822554
 51
232.645107
  0
LINE
  5
331
100
AcDbEntity
  8
0
370
    -3
390
0
  6
Continuous
100
AcDbLine
 10
-465.494075
 20
-323.749133
 30
0.0
 11
-465.494075
 21
-268.886463
 31
0.0
  0
LINE
  5
332
100
AcDbEntity
  8
0
370
    -3
390
0
  6
Continuous
100
AcDbLine
 10
-470.494075
 20
-324.129149
 30
0.0
 11
-470.494075
 21
-273.410627
 31
0.0
  0
LINE
  5
333
100
AcDbEntity
  8
0
370
    -3
390
0
  6
Continuous
100
AcDbLine
 10
-505.494075
 20
-324.129149
 30
0.0
 11
-505.494075
 21
-273.410627
 31
0.0
  0
LINE
  5
334
100
AcDbEntity
  8
0
370
    -3
390
0
  6
Continuous
100
AcDbLine
 10
-510.494075
 20
-323.749133
 30
0.0
 11
-510.494075
 21
-268.886463
 31
0.0
  0
ARC
  5
335
100
AcDbEntity
  8
0
370
    -3
390
0
  6
Continuous
100
AcDbCircle
 10
-462.494075
 20
-323.749133
 30
0.0
 40
3.0
100
AcDbArc
 50
180.0
 51
275.80126
  0
ARC
  5
336
100
AcDbEntity
  8
0
370
    -3
390
0
  6
Continuous
100
AcDbCircle
 10
-473.494075
 20
-324.129149
 30
0.0
 40
3.0
100
AcDbArc
 50
270.0
 51
0.0
  0
ARC
  5
337
100
AcDbEntity
  8
0
370
    -3
390
0
  6
Continuous
100
AcDbCircle
 10
-502.494075
 20
-324.129149
 30
0.0
 40
3.0
100
AcDbArc
 50
180.0
 51
270.0
  0
ARC
  5
338
100
AcDbEntity
  8
0
370
    -3
390
0
  6
Continuous
100
AcDbCircle
 10
-513.494075
 20
-323.749133
 30
0.0
 40
3.0
100
AcDbArc
 50
264.19874
 51
0.0
  0
ARC
  5
339
100
AcDbEntity
  8
0
370
    -3
390
0
  6
Continuous
100
AcDbCircle
 10
-469.994075
 20
-215.929149
 30
0.0
 40
80.0
100
AcDbArc
 50
35.038738
 51
50.078415
  0
INSERT
  5
345
100
AcDbEntity
  8
0
390
0
100
AcDbBlockReference
  2
ZU_SYM__USERS_HOME_SYMBOL_STD_SYM_B02_73
 10
-424.354465
 20
-296.56876
 30
0.0
  0
INSERT
  5
351
100
AcDbEntity
  8
0
390
0
100
AcDbBlockReference
  2
ZU_SYM__USERS_HOME_SYMBOL_STD_SYM_B02_0000973
 10
-551.633686
 20
-296.56876
 30
0.0
  0
LINE
  5
352
100
AcDbEntity
  8
0
370
    -3
390
0
  6
CENTER
100
AcDbLine
 10
-666.080253
 20
-194.929149
 30
0.0
 11
-306.84511
 21
-194.929149
 31
0.0
  0
LINE
  5
353
100
AcDbEntity
  8
0
370
    -3
390
0
  6
Continuous
100
AcDbLine
 10
-491.494075
 20
-63.561652
 30
0.0
 11
-491.494075
 21
-82.296646
 31
0.0
  0
LINE
  5
354
100
AcDbEntity
  8
0
370
    -3
390
0
  6
Continuous
100
AcDbLine
 10
-484.494075
 20
-63.561652
 30
0.0
 11
-484.494075
 21
-82.296646
 31
0.0
  0
ARC
  5
355
100
AcDbEntity
  8
0
370
    -3
390
0
  6
Continuous
100
AcDbCircle
 10
-585.89889
 20
-123.00352
 30
0.0
 40
5.0
100
AcDbArc
 50
133.973976
 51
225.0
  0
ARC
  5
356
100
AcDbEntity
  8
0
370
    -3
390
0
  6
Continuous
100
AcDbCircle
 10
-597.157811
 20
-135.786229
 30
0.0
 40
5.0
100
AcDbArc
 50
45.0
 51
143.279272
  0
LINE
  5
357
100
AcDbEntity
  8
0
370
    -3
390
0
  6
Continuous
100
AcDbLine
 10
-609.994075
 20
-223.929149
 30
0.0
 11
-619.994075
 21
-223.929149
 31
0.0
  0
LINE
  5
358
100
AcDbEntity
  8
0
370
    -3
390
0
  6
Continuous
100
AcDbLine
 10
-609.994075
 20
-249.929149
 30
0.0
 11
-619.363255
 21
-249.929149
 31
0.0
  0
LINE
  5
359
100
AcDbEntity
  8
0
370
    -3
390
0
  6
Continuous
100
AcDbLine
 10
-622.994075
 20
-198.567321
 30
0.0
 11
-622.994075
 21
-248.336395
 31
0.0
  0
LINE
  5
35A
100
AcDbEntity
  8
0
370
    -3
390
0
  6
Continuous
100
AcDbLine
 10
-622.315263
 20
-253.502796
 30
0.0
 11
-606.902059
 21
-311.144751
 31
0.0
  0
ARC
  5
35B
100
AcDbEntity
  8
0
370
    -3
390
0
  6
Continuous
100
AcDbCircle
 10
-582.001122
 20
-338.957012
 30
0.0
 40
5.0
100
AcDbArc
 50
135.0
 51
228.768524
  0
ARC
  5
35C
100
AcDbEntity
  8
0
370
    -3
390
0
  6
Continuous
100
AcDbCircle
 10
-593.387566
 20
-326.301825
 30
0.0
 40
5.0
100
AcDbArc
 50
215.189774
 51
315.0
  0
ARC
  5
35D
100
AcDbEntity
  8
0
370
    -3
390
0
  6
Continuous
100
AcDbCircle
 10
-619.994075
 20
-220.929149
 30
0.0
 40
3.0
100
AcDbArc
 50
180.0
 51
270.0
  0
ARC
  5
35E
100
AcDbEntity
  8
0
370
    -3
390
0
  6
Continuous
100
AcDbCircle
 10
-609.994075
 20
-236.929149
 30
0.0
 40
13.0
100
AcDbArc
 50
270.0
 51
90.0
  0
ARC
  5
35F
100
AcDbEntity
  8
0
370
    -3
390
0
  6
Continuous
100
AcDbCircle
 10
-619.363255
 20
-252.929149
 30
0.0
 40
3.0
100
AcDbArc
 50
90.0
 51
194.970401
  0
ARC
  5
360
100
AcDbEntity
  8
0
370
    -3
390
0
  6
Continuous
100
AcDbCircle
 10
-534.545727
 20
-284.8092
 30
0.0
 40
77.0
100
AcDbArc
 50
200.0
 51
234.885533
  0
ARC
  5
361
100
AcDbEntity
  8
0
370
    -3
390
0
  6
Continuous
100
AcDbCircle
 10
-583.438731
 20
-354.339583
 30
0.0
 40
8.0
100
AcDbArc
 50
4.494157
 51
54.885533
  0
ARC
  5
362
100
AcDbEntity
  8
0
370
    -3
390
0
  6
Continuous
100
AcDbCircle
 10
-565.494075
 20
-352.929149
 30
0.0
 40
10.0
100
AcDbArc
 50
184.494157
 51
233.130102
  0
ARC
  5
363
100
AcDbEntity
  8
0
370
    -3
390
0
  6
Continuous
100
AcDbCircle
 10
-602.994075
 20
-248.336395
 30
0.0
 40
20.0
100
AcDbArc
 50
180.0
 51
194.970401
  0
LINE
  5
364
100
AcDbEntity
  8
0
370
    -3
390
0
  6
Continuous
100
AcDbLine
 10
-406.766827
 20
-319.106145
 30
0.0
 11
-390.451495
 21
-335.421478
 31
0.0
  0
LINE
  5
365
100
AcDbEntity
  8
0
370
    -3
390
0
  6
Continuous
100
AcDbLine
 10
-402.758586
 20
-313.214891
 30
0.0
 11
-386.136118
 21
-329.837359
 31
0.0
  0
LINE
  5
366
100
AcDbEntity
  8
0
370
    -3
390
0
  6
Continuous
100
AcDbLine
 10
-505.494075
 20
-112.929149
 30
0.0
 11
-487.994075
 21
-112.929149
 31
0.0
  0
LINE
  5
367
100
AcDbEntity
  8
0
370
    -3
390
0
  6
Continuous
100
AcDbLine
 10
-487.994075
 20
-112.929149
 30
0.0
 11
-470.494075
 21
-112.929149
 31
0.0
  0
LINE
  5
368
100
AcDbEntity
  8
0
370
    -3
390
0
  6
Continuous
100
AcDbLine
 10
-484.494075
 20
-117.929149
 30
0.0
 11
-484.494075
 21
-120.149512
 31
0.0
  0
LINE
  5
369
100
AcDbEntity
  8
0
370
    -3
390
0
  6
Continuous
100
AcDbLine
 10
-491.494075
 20
-117.929149
 30
0.0
 11
-491.494075
 21
-120.149512
 31
0.0
  0
LINE
  5
36A
100
AcDbEntity
  8
0
370
    -3
390
0
  6
Continuous
100
AcDbLine
 10
-408.168258
 20
-158.05308
 30
0.0
 11
-382.365873
 21
-132.250695
 31
0.0
  0
LINE
  5
36B
100
AcDbEntity
  8
0
370
    -3
390
0
  6
Continuous
100
AcDbLine
 10
-413.218513
 20
-153.20384
 30
0.0
 11
-386.553727
 21
-126.539054
 31
0.0
  0
LINE
  5
36C
100
AcDbEntity
  8
0
370
    -3
390
0
  6
Continuous
100
AcDbLine
 10
-562.769637
 20
-153.20384
 30
0.0
 11
-589.434424
 21
-126.539054
 31
0.0
  0
LINE
  5
36D
100
AcDbEntity
  8
0
370
    -3
390
0
  6
Continuous
100
AcDbLine
 10
-567.819892
 20
-158.05308
 30
0.0
 11
-593.622277
 21
-132.250695
 31
0.0
  0
LINE
  5
36E
100
AcDbEntity
  8
0
370
    -3
390
0
  6
Continuous
100
AcDbLine
 10
-562.769637
 20
-312.654459
 30
0.0
 11
-585.536656
 21
-335.421478
 31
0.0
  0
LINE
  5
36F
100
AcDbEntity
  8
0
370
    -3
390
0
  6
Continuous
100
AcDbLine
 10
-567.819892
 20
-307.805219
 30
0.0
 11
-589.852033
 21
-329.837359
 31
0.0
  0
LINE
  5
370
100
AcDbEntity
  8
0
370
    -3
390
0
  6
Continuous
100
AcDbLine
 10
-365.994075
 20
-249.929149
 30
0.0
 11
-361.122291
 21
-249.929149
 31
0.0
  0
LINE
  5
371
100
AcDbEntity
  8
0
370
    -3
390
0
  6
Continuous
100
AcDbLine
 10
-487.994075
 20
-360.929149
 30
0.0
 11
-571.494075
 21
-360.929149
 31
0.0
  0
LINE
  5
372
100
AcDbEntity
  8
0
370
    -3
390
0
  6
Continuous
100
AcDbLine
 10
-487.994075
 20
-360.929149
 30
0.0
 11
-404.494075
 21
-360.929149
 31
0.0
  0
LINE
  5
373
100
AcDbEntity
  8
0
370
    -3
390
0
  6
Continuous
100
AcDbLine
 10
-352.994075
 20
-194.929149
 30
0.0
 11
-352.994075
 21
-244.82374
 31
0.0
  0
LINE
  5
374
100
AcDbEntity
  8
0
370
    -3
390
0
  6
Continuous
100
AcDbLine
 10
-354.245644
 20
-255.644779
 30
0.0
 11
-369.086092
 21
-311.144751
 31
0.0
  0
ARC
  5
375
100
AcDbEntity
  8
0
370
    -3
390
0
  6
Continuous
100
AcDbCircle
 10
-505.494075
 20
-109.929149
 30
0.0
 40
3.0
100
AcDbArc
 50
180.0
 51
270.0
  0
ARC
  5
376
100
AcDbEntity
  8
0
370
    -3
390
0
  6
Continuous
100
AcDbCircle
 10
-470.494075
 20
-109.929149
 30
0.0
 40
3.0
100
AcDbArc
 50
270.0
 51
0.0
  0
ARC
  5
377
100
AcDbEntity
  8
0
370
    -3
390
0
  6
Continuous
100
AcDbCircle
 10
-496.494075
 20
-117.929149
 30
0.0
 40
5.0
100
AcDbArc
 50
0.0
 51
90.0
  0
ARC
  5
378
100
AcDbEntity
  8
0
370
    -3
390
0
  6
Continuous
100
AcDbCircle
 10
-479.494075
 20
-117.929149
 30
0.0
 40
5.0
100
AcDbArc
 50
90.0
 51
180.0
  0
ARC
  5
379
100
AcDbEntity
  8
0
370
    -3
390
0
  6
Continuous
100
AcDbCircle
 10
-378.830339
 20
-135.786229
 30
0.0
 40
5.0
100
AcDbArc
 50
36.720728
 51
135.0
  0
ARC
  5
37A
100
AcDbEntity
  8
0
370
    -3
390
0
  6
Continuous
100
AcDbCircle
 10
-390.089261
 20
-123.00352
 30
0.0
 40
5.0
100
AcDbArc
 50
315.0
 51
46.026024
  0
ARC
  5
37B
100
AcDbEntity
  8
0
370
    -3
390
0
  6
Continuous
100
AcDbCircle
 10
-382.600584
 20
-326.301825
 30
0.0
 40
5.0
100
AcDbArc
 50
225.0
 51
324.810226
  0
ARC
  5
37C
100
AcDbEntity
  8
0
370
    -3
390
0
  6
Continuous
100
AcDbCircle
 10
-393.987028
 20
-338.957012
 30
0.0
 40
5.0
100
AcDbArc
 50
311.231476
 51
45.0
  0
ARC
  5
37D
100
AcDbEntity
  8
0
370
    -3
390
0
  6
Continuous
100
AcDbCircle
 10
-365.994075
 20
-236.929149
 30
0.0
 40
13.0
100
AcDbArc
 50
200.252247
 51
270.0
  0
ARC
  5
37E
100
AcDbEntity
  8
0
370
    -3
390
0
  6
Continuous
100
AcDbCircle
 10
-410.494075
 20
-352.929149
 30
0.0
 40
10.0
100
AcDbArc
 50
306.869898
 51
355.505843
  0
ARC
  5
37F
100
AcDbEntity
  8
0
370
    -3
390
0
  6
Continuous
100
AcDbCircle
 10
-392.549419
 20
-354.339583
 30
0.0
 40
8.0
100
AcDbArc
 50
125.114467
 51
175.505843
  0
ARC
  5
380
100
AcDbEntity
  8
0
370
    -3
390
0
  6
Continuous
100
AcDbCircle
 10
-441.442423
 20
-284.8092
 30
0.0
 40
77.0
100
AcDbArc
 50
305.114467
 51
340.0
  0
ARC
  5
381
100
AcDbEntity
  8
0
370
    -3
390
0
  6
Continuous
100
AcDbCircle
 10
-512.994075
 20
-198.567321
 30
0.0
 40
110.0
100
AcDbArc
 50
92.924524
 51
180.0
  0
ARC
  5
382
100
AcDbEntity
  8
0
370
    -3
390
0
  6
Continuous
100
AcDbCircle
 10
-462.994075
 20
-198.567321
 30
0.0
 40
110.0
100
AcDbArc
 50
16.550508
 51
87.075476
  0
ARC
  5
383
100
AcDbEntity
  8
0
370
    -3
390
0
  6
Continuous
100
AcDbCircle
 10
-441.442423
 20
-284.8092
 30
0.0
 40
44.0
100
AcDbArc
 50
258.506802
 51
319.912288
  0
ARC
  5
384
100
AcDbEntity
  8
0
370
    -3
390
0
  6
Continuous
100
AcDbCircle
 10
-392.442496
 20
-284.725019
 30
0.0
 40
5.0
100
AcDbArc
 50
155.835164
 51
180.098434
  0
ARC
  5
385
100
AcDbEntity
  8
0
370
    -3
390
0
  6
Continuous
100
AcDbCircle
 10
-451.205752
 20
-332.82667
 30
0.0
 40
5.0
100
AcDbArc
 50
78.506802
 51
102.770071
  0
ARC
  5
386
100
AcDbEntity
  8
0
370
    -3
390
0
  6
Continuous
100
AcDbCircle
 10
-404.632724
 20
-161.588614
 30
0.0
 40
5.0
100
AcDbArc
 50
135.0
 51
219.739673
  0
ARC
  5
387
100
AcDbEntity
  8
0
370
    -3
390
0
  6
Continuous
100
AcDbCircle
 10
-416.754047
 20
-149.668306
 30
0.0
 40
5.0
100
AcDbArc
 50
245.573885
 51
315.0
  0
ARC
  5
388
100
AcDbEntity
  8
0
370
    -3
390
0
  6
Continuous
100
AcDbCircle
 10
-559.234104
 20
-149.668306
 30
0.0
 40
5.0
100
AcDbArc
 50
225.0
 51
294.426115
  0
ARC
  5
389
100
AcDbEntity
  8
0
370
    -3
390
0
  6
Continuous
100
AcDbCircle
 10
-571.355426
 20
-161.588614
 30
0.0
 40
5.0
100
AcDbArc
 50
320.260327
 51
45.0
  0
ARC
  5
38A
100
AcDbEntity
  8
0
370
    -3
390
0
  6
Continuous
100
AcDbCircle
 10
-399.223052
 20
-309.679357
 30
0.0
 40
5.0
100
AcDbArc
 50
149.498945
 51
225.0
  0
ARC
  5
38B
100
AcDbEntity
  8
0
370
    -3
390
0
  6
Continuous
100
AcDbCircle
 10
-410.302361
 20
-322.641679
 30
0.0
 40
5.0
100
AcDbArc
 50
45.0
 51
129.457931
  0
ARC
  5
38C
100
AcDbEntity
  8
0
370
    -3
390
0
  6
Continuous
100
AcDbCircle
 10
-441.442423
 20
-284.8092
 30
0.0
 40
44.0
100
AcDbArc
 50
319.912288
 51
0.098434
  0
ARC
  5
38D
100
AcDbEntity
  8
0
370
    -3
390
0
  6
Continuous
100
AcDbCircle
 10
-571.355426
 20
-304.269685
 30
0.0
 40
5.0
100
AcDbArc
 50
315.0
 51
39.739673
  0
ARC
  5
38E
100
AcDbEntity
  8
0
370
    -3
390
0
  6
Continuous
100
AcDbCircle
 10
-559.234104
 20
-316.189993
 30
0.0
 40
5.0
100
AcDbArc
 50
51.218417
 51
135.0
  0
LINE
  5
38F
100
AcDbEntity
  8
0
370
    -3
390
0
  6
Continuous
100
AcDbLine
 10
-467.494075
 20
-88.279461
 30
0.0
 11
-467.494075
 21
-109.929149
 31
0.0
  0
ARC
  5
390
100
AcDbEntity
  8
0
370
    -3
390
0
  6
Continuous
100
AcDbCircle
 10
-487.994075
 20
-687.92915
 30
0.0
 40
600.0
100
AcDbArc
 50
87.075476
 51
88.042013
  0
LINE
  5
391
100
AcDbEntity
  8
0
370
    -3
390
0
  6
Continuous
100
AcDbLine
 10
-508.494075
 20
-88.279461
 30
0.0
 11
-508.494075
 21
-109.929149
 31
0.0
  0
ARC
  5
392
100
AcDbEntity
  8
0
370
    -3
390
0
  6
Continuous
100
AcDbCircle
 10
-487.994075
 20
-687.92915
 30
0.0
 40
600.0
100
AcDbArc
 50
91.957987
 51
92.924524
  0
ARC
  5
393
100
AcDbEntity
  8
0
370
    -3
390
0
  6
Continuous
100
AcDbCircle
 10
-477.494075
 20
-62.929149
 30
0.0
 40
10.0
100
AcDbArc
 50
0.0
 51
90.0
  0
LINE
  5
394
100
AcDbEntity
  8
0
370
    -3
390
0
  6
Continuous
100
AcDbLine
 10
-467.494075
 20
-62.929149
 30
0.0
 11
-467.494075
 21
-88.27946
 31
0.0
  0
ARC
  5
395
100
AcDbEntity
  8
0
370
    -3
390
0
  6
Continuous
100
AcDbCircle
 10
-498.494075
 20
-62.929149
 30
0.0
 40
10.0
100
AcDbArc
 50
90.0
 51
180.0
  0
LINE
  5
396
100
AcDbEntity
  8
0
370
    -3
390
0
  6
Continuous
100
AcDbLine
 10
-508.494075
 20
-62.929149
 30
0.0
 11
-508.494075
 21
-88.27946
 31
0.0
  0
LINE
  5
397
100
AcDbEntity
  8
0
370
    -3
390
0
  6
Continuous
100
AcDbLine
 10
-477.494075
 20
-52.929149
 30
0.0
 11
-498.494075
 21
-52.929149
 31
0.0
  0
LINE
  5
398
100
AcDbEntity
  8
0
370
    -3
390
0
  6
CENTER
100
AcDbLine
 10
-464.826162
 20
-72.929149
 30
0.0
 11
-511.848676
 21
-72.929149
 31
0.0
  0
CIRCLE
  5
399
100
AcDbEntity
  8
0
370
    -3
390
0
  6
Continuous
100
AcDbCircle
 10
-487.994075
 20
-72.929149
 30
0.0
 40
10.0
  0
INSERT
  5
3A6
100
AcDbEntity
  8
0
390
0
100
AcDbBlockReference
  2
ZU_SYM__USERS_HOME_SYMBOL_POO_SYM_B20_05
 10
-477.494075
 20
-100.929149
 30
0.0
  0
INSERT
  5
3B3
100
AcDbEntity
  8
0
390
0
100
AcDbBlockReference
  2
ZU_SYM__USERS_HOME_SYMBOL_POO_SYM_B20_0001005
 10
-437.994075
 20
-101.92915
 30
0.0
  0
INSERT
  5
3C0
100
AcDbEntity
  8
0
390
0
100
AcDbBlockReference
  2
ZU_SYM__USERS_HOME_SYMBOL_POO_SYM_B20_0001105
 10
-365.994075
 20
-260.929149
 30
0.0
  0
INSERT
  5
3CD
100
AcDbEntity
  8
0
390
0
100
AcDbBlockReference
  2
ZU_SYM__USERS_HOME_SYMBOL_POO_SYM_B20_0001205
 10
-410.494075
 20
-352.929149
 30
0.0
  0
INSERT
  5
3DA
100
AcDbEntity
  8
0
390
0
100
AcDbBlockReference
  2
ZU_SYM__USERS_HOME_SYMBOL_POO_SYM_B20_0001305
 10
-480.494075
 20
-352.929149
 30
0.0
  0
LINE
  5
3DB
100
AcDbEntity
  8
0
370
    -3
390
0
  6
CENTER
100
AcDbLine
 10
-487.994075
 20
-14.134733
 30
0.0
 11
-487.994075
 21
-381.136749
 31
0.0
  0
INSERT
  5
3E8
100
AcDbEntity
  8
0
390
0
100
AcDbBlockReference
  2
ZU_SYM__USERS_HOME_SYMBOL_POO_SYM_B20_0001405
 10
-565.494075
 20
-352.929149
 30
0.0
 41
-1.0
  0
INSERT
  5
3F5
100
AcDbEntity
  8
0
390
0
100
AcDbBlockReference
  2
ZU_SYM__USERS_HOME_SYMBOL_POO_SYM_B20_0001505
 10
-498.494075
 20
-100.929149
 30
0.0
 41
-1.0
  0
INSERT
  5
402
100
AcDbEntity
  8
0
390
0
100
AcDbBlockReference
  2
ZU_SYM__USERS_HOME_SYMBOL_POO_SYM_B20_0001605
 10
-537.994075
 20
-101.92915
 30
0.0
 41
-1.0
  0
INSERT
  5
40F
100
AcDbEntity
  8
0
390
0
100
AcDbBlockReference
  2
ZU_SYM__USERS_HOME_SYMBOL_POO_SYM_B20_0001705
 10
-608.994075
 20
-170.92915
 30
0.0
 41
-1.0
  0
INSERT
  5
41C
100
AcDbEntity
  8
0
390
0
100
AcDbBlockReference
  2
ZU_SYM__USERS_HOME_SYMBOL_POO_SYM_B20_0001805
 10
-609.994075
 20
-260.929149
 30
0.0
 41
-1.0
  0
LINE
  5
41D
100
AcDbEntity
  8
0
370
    -3
390
0
  6
Continuous
100
AcDbLine
 10
-373.731242
 20
-83.616064
 30
0.0
 11
-395.055563
 21
-104.940384
 31
0.0
  0
LINE
  5
41E
100
AcDbEntity
  8
0
370
    -3
390
0
  6
Continuous
100
AcDbLine
 10
-380.500684
 20
-80.48601
 30
0.0
 11
-402.317959
 21
-102.303286
 31
0.0
  0
LINE
  5
41F
100
AcDbEntity
  8
0
370
    -3
390
0
  6
Continuous
100
AcDbLine
 10
-602.256908
 20
-83.616064
 30
0.0
 11
-580.932588
 21
-104.940384
 31
0.0
  0
LINE
  5
420
100
AcDbEntity
  8
0
370
    -3
390
0
  6
Continuous
100
AcDbLine
 10
-595.487467
 20
-80.48601
 30
0.0
 11
-573.670192
 21
-102.303286
 31
0.0
  0
LINE
  5
421
100
AcDbEntity
  8
0
370
    -3
390
0
  6
Continuous
100
AcDbLine
 10
-484.494075
 20
-52.911689
 30
0.0
 11
-484.494075
 21
-52.929149
 31
0.0
  0
LINE
  5
422
100
AcDbEntity
  8
0
370
    -3
390
0
  6
Continuous
100
AcDbLine
 10
-491.494075
 20
-52.911689
 30
0.0
 11
-491.494075
 21
-52.929149
 31
0.0
  0
LINE
  5
423
100
AcDbEntity
  8
0
370
    -3
390
0
  6
Continuous
100
AcDbLine
 10
-345.494075
 20
-350.429149
 30
0.0
 11
-396.001263
 21
-350.429149
 31
0.0
  0
LINE
  5
424
100
AcDbEntity
  8
0
370
    -3
390
0
  6
Continuous
100
AcDbLine
 10
-579.986887
 20
-350.429149
 30
0.0
 11
-630.494075
 21
-350.429149
 31
0.0
  0
LINE
  5
425
100
AcDbEntity
  8
0
370
    -3
390
0
  6
Continuous
100
AcDbLine
 10
-330.494075
 20
-50.429149
 30
0.0
 11
-330.494075
 21
-335.429149
 31
0.0
  0
LINE
  5
426
100
AcDbEntity
  8
0
370
    -3
390
0
  6
Continuous
100
AcDbLine
 10
-645.494075
 20
-50.429149
 30
0.0
 11
-645.494075
 21
-335.429149
 31
0.0
  0
LINE
  5
427
100
AcDbEntity
  8
0
370
    -3
390
0
  6
Continuous
100
AcDbLine
 10
-345.494075
 20
-35.429149
 30
0.0
 11
-630.494075
 21
-35.429149
 31
0.0
  0
LINE
  5
428
100
AcDbEntity
  8
0
370
    -3
390
0
  6
CENTER
100
AcDbLine
 10
-608.555781
 20
-313.490856
 30
0.0
 11
-636.132946
 21
-341.06802
 31
0.0
  0
LINE
  5
429
100
AcDbEntity
  8
0
370
    -3
390
0
  6
CENTER
100
AcDbLine
 10
-367.432369
 20
-313.490856
 30
0.0
 11
-339.855205
 21
-341.06802
 31
0.0
  0
LINE
  5
42A
100
AcDbEntity
  8
0
370
    -3
390
0
  6
CENTER
100
AcDbLine
 10
-367.432369
 20
-72.367443
 30
0.0
 11
-339.855205
 21
-44.790279
 31
0.0
  0
LINE
  5
42B
100
AcDbEntity
  8
0
370
    -3
390
0
  6
CENTER
100
AcDbLine
 10
-608.555781
 20
-72.367443
 30
0.0
 11
-636.132946
 21
-44.790279
 31
0.0
  0
ARC
  5
42C
100
AcDbEntity
  8
0
370
    -3
390
0
  6
Continuous
100
AcDbCircle
 10
-384.036217
 20
-76.950476
 30
0.0
 40
5.0
100
AcDbArc
 50
315.0
 51
57.006974
  0
ARC
  5
42D
100
AcDbEntity
  8
0
370
    -3
390
0
  6
Continuous
100
AcDbCircle
 10
-370.195709
 20
-87.151598
 30
0.0
 40
5.0
100
AcDbArc
 50
50.20902
 51
135.0
  0
ARC
  5
42E
100
AcDbEntity
  8
0
370
    -3
390
0
  6
Continuous
100
AcDbCircle
 10
-405.853493
 20
-98.767752
 30
0.0
 40
5.0
100
AcDbArc
 50
240.206558
 51
315.0
  0
ARC
  5
42F
100
AcDbEntity
  8
0
370
    -3
390
0
  6
Continuous
100
AcDbCircle
 10
-391.520029
 20
-108.475918
 30
0.0
 40
5.0
100
AcDbArc
 50
135.0
 51
231.573261
  0
ARC
  5
430
100
AcDbEntity
  8
0
370
    -3
390
0
  6
Continuous
100
AcDbCircle
 10
-605.792442
 20
-87.151598
 30
0.0
 40
5.0
100
AcDbArc
 50
45.0
 51
129.79098
  0
ARC
  5
431
100
AcDbEntity
  8
0
370
    -3
390
0
  6
Continuous
100
AcDbCircle
 10
-584.468122
 20
-108.475918
 30
0.0
 40
5.0
100
AcDbArc
 50
308.426739
 51
45.0
  0
ARC
  5
432
100
AcDbEntity
  8
0
370
    -3
390
0
  6
Continuous
100
AcDbCircle
 10
-570.134658
 20
-98.767752
 30
0.0
 40
5.0
100
AcDbArc
 50
225.0
 51
299.793442
  0
ARC
  5
433
100
AcDbEntity
  8
0
370
    -3
390
0
  6
Continuous
100
AcDbCircle
 10
-591.951933
 20
-76.950476
 30
0.0
 40
5.0
100
AcDbArc
 50
122.993026
 51
225.0
  0
ARC
  5
434
100
AcDbEntity
  8
0
370
    -3
390
0
  6
Continuous
100
AcDbCircle
 10
-479.494075
 20
-52.911689
 30
0.0
 40
5.0
100
AcDbArc
 50
90.0
 51
180.0
  0
ARC
  5
435
100
AcDbEntity
  8
0
370
    -3
390
0
  6
Continuous
100
AcDbCircle
 10
-486.494075
 20
-64.552072
 30
0.0
 40
2.0
100
AcDbArc
 50
0.0
 51
33.678871
  0
ARC
  5
436
100
AcDbEntity
  8
0
370
    -3
390
0
  6
Continuous
100
AcDbCircle
 10
-496.494075
 20
-52.911689
 30
0.0
 40
5.0
100
AcDbArc
 50
0.0
 51
90.0
  0
ARC
  5
437
100
AcDbEntity
  8
0
370
    -3
390
0
  6
Continuous
100
AcDbCircle
 10
-489.494075
 20
-64.552072
 30
0.0
 40
2.0
100
AcDbArc
 50
146.321129
 51
180.0
  0
CIRCLE
  5
438
100
AcDbEntity
  8
0
370
    -3
390
0
  6
Continuous
100
AcDbCircle
 10
-622.344364
 20
-327.279438
 30
0.0
 40
12.0
  0
ARC
  5
439
100
AcDbEntity
  8
0
370
    -3
390
0
  6
Continuous
100
AcDbCircle
 10
-630.494075
 20
-50.429149
 30
0.0
 40
15.0
100
AcDbArc
 50
90.0
 51
180.0
  0
ARC
  5
43A
100
AcDbEntity
  8
0
370
    -3
390
0
  6
Continuous
100
AcDbCircle
 10
-630.494075
 20
-335.429149
 30
0.0
 40
15.0
100
AcDbArc
 50
180.0
 51
270.0
  0
ARC
  5
43B
100
AcDbEntity
  8
0
370
    -3
390
0
  6
Continuous
100
AcDbCircle
 10
-345.494075
 20
-335.429149
 30
0.0
 40
15.0
100
AcDbArc
 50
270.0
 51
0.0
  0
ARC
  5
43C
100
AcDbEntity
  8
0
370
    -3
390
0
  6
Continuous
100
AcDbCircle
 10
-345.494075
 20
-50.429149
 30
0.0
 40
15.0
100
AcDbArc
 50
0.0
 51
90.0
  0
ARC
  5
43D
100
AcDbEntity
  8
0
370
    -3
390
0
  6
CENTER
100
AcDbCircle
 10
-487.994075
 20
-192.929149
 30
0.0
 40
190.0
100
AcDbArc
 50
219.119042
 51
230.880958
  0
ARC
  5
43E
100
AcDbEntity
  8
0
370
    -3
390
0
  6
CENTER
100
AcDbCircle
 10
-487.994075
 20
-192.929149
 30
0.0
 40
190.0
100
AcDbArc
 50
309.119042
 51
320.880958
  0
CIRCLE
  5
43F
100
AcDbEntity
  8
0
370
    -3
390
0
  6
Continuous
100
AcDbCircle
 10
-353.643787
 20
-327.279438
 30
0.0
 40
12.0
  0
ARC
  5
440
100
AcDbEntity
  8
0
370
    -3
390
0
  6
CENTER
100
AcDbCircle
 10
-487.994075
 20
-192.929149
 30
0.0
 40
190.0
100
AcDbArc
 50
39.119042
 51
50.880958
  0
CIRCLE
  5
441
100
AcDbEntity
  8
0
370
    -3
390
0
  6
Continuous
100
AcDbCircle
 10
-353.643787
 20
-58.578861
 30
0.0
 40
12.0
  0
ARC
  5
442
100
AcDbEntity
  8
0
370
    -3
390
0
  6
CENTER
100
AcDbCircle
 10
-487.994075
 20
-192.929149
 30
0.0
 40
190.0
100
AcDbArc
 50
129.119042
 51
140.880958
  0
CIRCLE
  5
443
100
AcDbEntity
  8
0
370
    -3
390
0
  6
Continuous
100
AcDbCircle
 10
-622.344364
 20
-58.578861
 30
0.0
 40
12.0
  0
ARC
  5
444
100
AcDbEntity
  8
0
370
    -3
390
0
  6
Continuous
100
AcDbCircle
 10
-7.814012
 20
120.470739
 30
0.0
 40
5.0
100
AcDbArc
 50
0.0
 51
90.0
  0
ARC
  5
445
100
AcDbEntity
  8
0
370
    -3
390
0
  6
Continuous
100
AcDbCircle
 10
-7.814012
 20
273.470739
 30
0.0
 40
5.0
100
AcDbArc
 50
270.0
 51
0.0
  0
ARC
  5
446
100
AcDbEntity
  8
0
370
    -3
390
0
  6
Continuous
100
AcDbCircle
 10
-5.814012
 20
214.970739
 30
0.0
 40
3.0
100
AcDbArc
 50
270.0
 51
0.0
  0
ARC
  5
447
100
AcDbEntity
  8
0
370
    -3
390
0
  6
Continuous
100
AcDbCircle
 10
-5.814012
 20
178.970739
 30
0.0
 40
3.0
100
AcDbArc
 50
0.0
 51
90.0
  0
CIRCLE
  5
448
100
AcDbEntity
  8
0
370
    -3
390
0
  6
Continuous
100
AcDbCircle
 10
-23.814012
 20
196.970739
 30
0.0
 40
10.5
  0
LINE
  5
449
100
AcDbEntity
  8
0
370
    -3
390
0
  6
CENTER
100
AcDbLine
 10
-23.814012
 20
179.944696
 30
0.0
 11
-23.814012
 21
215.622328
 31
0.0
  0
LINE
  5
44A
100
AcDbEntity
  8
0
370
    -3
390
0
  6
Continuous
100
AcDbLine
 10
-72.814012
 20
196.220739
 30
0.0
 11
-72.814012
 21
125.470739
 31
0.0
  0
ARC
  5
44B
100
AcDbEntity
  8
0
370
    -3
390
0
  6
Continuous
100
AcDbCircle
 10
-54.314012
 20
130.470739
 30
0.0
 40
5.0
100
AcDbArc
 50
270.0
 51
0.0
  0
LINE
  5
44C
100
AcDbEntity
  8
0
370
    -3
390
0
  6
Continuous
100
AcDbLine
 10
-4.314012
 20
125.470739
 30
0.0
 11
-72.814012
 21
125.470739
 31
0.0
  0
LINE
  5
44D
100
AcDbEntity
  8
0
370
    -3
390
0
  6
Continuous
100
AcDbLine
 10
-46.314012
 20
211.970739
 30
0.0
 11
-5.814012
 21
211.970739
 31
0.0
  0
ARC
  5
44E
100
AcDbEntity
  8
0
370
    -3
390
0
  6
Continuous
100
AcDbCircle
 10
-46.314012
 20
214.970739
 30
0.0
 40
3.0
100
AcDbArc
 50
180.0
 51
270.0
  0
LINE
  5
44F
100
AcDbEntity
  8
0
370
    -3
390
0
  6
Continuous
100
AcDbLine
 10
-46.314012
 20
181.970739
 30
0.0
 11
-5.814012
 21
181.970739
 31
0.0
  0
ARC
  5
450
100
AcDbEntity
  8
0
370
    -3
390
0
  6
Continuous
100
AcDbCircle
 10
-46.314012
 20
178.970739
 30
0.0
 40
3.0
100
AcDbArc
 50
90.0
 51
180.0
  0
LINE
  5
451
100
AcDbEntity
  8
0
370
    -3
390
0
  6
Continuous
100
AcDbLine
 10
-49.314012
 20
130.470739
 30
0.0
 11
-49.314012
 21
196.970739
 31
0.0
  0
LINE
  5
452
100
AcDbEntity
  8
0
370
    -3
390
0
  6
Continuous
100
AcDbLine
 10
-72.814012
 20
196.220739
 30
0.0
 11
-72.814012
 21
268.470739
 31
0.0
  0
LINE
  5
453
100
AcDbEntity
  8
0
370
    -3
390
0
  6
Continuous
100
AcDbLine
 10
-49.314012
 20
196.970739
 30
0.0
 11
-49.314012
 21
263.470739
 31
0.0
  0
LINE
  5
454
100
AcDbEntity
  8
0
370
    -3
390
0
  6
Continuous
100
AcDbLine
 10
-4.314012
 20
268.470739
 30
0.0
 11
-72.814012
 21
268.470739
 31
0.0
  0
ARC
  5
455
100
AcDbEntity
  8
0
370
    -3
390
0
  6
Continuous
100
AcDbCircle
 10
-54.314012
 20
263.470739
 30
0.0
 40
5.0
100
AcDbArc
 50
0.0
 51
90.0
  0
ARC
  5
456
100
AcDbEntity
  8
0
370
    -3
390
0
  6
Continuous
100
AcDbCircle
 10
-487.994075
 20
-194.929149
 30
0.0
 40
45.0
100
AcDbArc
 50
97.348661
 51
143.992931
  0
ARC
  5
457
100
AcDbEntity
  8
0
370
    -3
390
0
  6
Continuous
100
AcDbCircle
 10
-506.912142
 20
-218.212335
 30
0.0
 40
36.944
100
AcDbArc
 50
230.905432
 51
265.66015
  0
ARC
  5
458
100
AcDbEntity
  8
0
370
    -3
390
0
  6
Continuous
100
AcDbCircle
 10
-487.994075
 20
-194.929149
 30
0.0
 40
66.944
100
AcDbArc
 50
219.094568
 51
230.905432
  0
ARC
  5
459
100
AcDbEntity
  8
0
370
    -3
390
0
  6
Continuous
100
AcDbCircle
 10
-487.994075
 20
-194.929149
 30
0.0
 40
66.944
100
AcDbArc
 50
129.094568
 51
140.905432
  0
ARC
  5
45A
100
AcDbEntity
  8
0
370
    -3
390
0
  6
Continuous
100
AcDbCircle
 10
-506.912142
 20
-171.645964
 30
0.0
 40
36.944
100
AcDbArc
 50
94.33985
 51
129.094568
  0
ARC
  5
45B
100
AcDbEntity
  8
0
370
    -3
390
0
  6
Continuous
100
AcDbCircle
 10
-469.076008
 20
-171.645964
 30
0.0
 40
36.944
100
AcDbArc
 50
50.905432
 51
85.66015
  0
ARC
  5
45C
100
AcDbEntity
  8
0
370
    -3
390
0
  6
Continuous
100
AcDbCircle
 10
-487.994075
 20
-194.929149
 30
0.0
 40
66.944
100
AcDbArc
 50
39.094568
 51
50.905432
  0
ARC
  5
45D
100
AcDbEntity
  8
0
370
    -3
390
0
  6
Continuous
100
AcDbCircle
 10
-464.710889
 20
-176.011082
 30
0.0
 40
36.944
100
AcDbArc
 50
4.33985
 51
39.094568
  0
ARC
  5
45E
100
AcDbEntity
  8
0
370
    -3
390
0
  6
Continuous
100
AcDbCircle
 10
-464.710889
 20
-213.847216
 30
0.0
 40
36.944
100
AcDbArc
 50
320.905432
 51
355.66015
  0
ARC
  5
45F
100
AcDbEntity
  8
0
370
    -3
390
0
  6
Continuous
100
AcDbCircle
 10
-487.994075
 20
-194.929149
 30
0.0
 40
66.944
100
AcDbArc
 50
309.094568
 51
320.905432
  0
ARC
  5
460
100
AcDbEntity
  8
0
370
    -3
390
0
  6
Continuous
100
AcDbCircle
 10
-469.076008
 20
-218.212335
 30
0.0
 40
36.944
100
AcDbArc
 50
274.33985
 51
309.094568
  0
LINE
  5
461
100
AcDbEntity
  8
0
370
    -3
390
0
  6
Continuous
100
AcDbLine
 10
-534.977679
 20
-219.168394
 30
0.0
 11
-533.239103
 21
-218.164627
 31
0.0
  0
LINE
  5
462
100
AcDbEntity
  8
0
370
    -3
390
0
  6
Continuous
100
AcDbLine
 10
-526.278687
 20
-214.146029
 30
0.0
 11
-524.536603
 21
-213.140236
 31
0.0
  0
LINE
  5
463
100
AcDbEntity
  8
0
370
    -3
390
0
  6
Continuous
100
AcDbLine
 10
-517.555954
 20
-209.109957
 30
0.0
 11
-515.047418
 21
-207.661653
 31
0.0
  0
ARC
  5
464
100
AcDbEntity
  8
0
370
    -3
390
0
  6
Continuous
100
AcDbCircle
 10
-515.547418
 20
-206.795627
 30
0.0
 40
1.0
100
AcDbArc
 50
300.0
 51
23.300235
  0
LINE
  5
465
100
AcDbEntity
  8
0
370
    -3
390
0
  6
Continuous
100
AcDbLine
 10
-508.7777
 20
-204.041829
 30
0.0
 11
-507.008154
 21
-203.020182
 31
0.0
  0
LINE
  5
466
100
AcDbEntity
  8
0
370
    -3
390
0
  6
Continuous
100
AcDbLine
 10
-499.80639
 20
-198.862241
 30
0.0
 11
-497.936745
 21
-197.782801
 31
0.0
  0
ARC
  5
467
100
AcDbEntity
  8
0
370
    -3
390
0
  6
Continuous
100
AcDbCircle
 10
-487.994075
 20
-194.929149
 30
0.0
 40
9.0
100
AcDbArc
 50
180.0
 51
185.85226
  0
ARC
  5
468
100
AcDbEntity
  8
0
370
    -3
390
0
  6
Continuous
100
AcDbCircle
 10
-487.994075
 20
-194.929149
 30
0.0
 40
15.0
100
AcDbArc
 50
175.028999
 51
189.747753
  0
LINE
  5
469
100
AcDbEntity
  8
0
370
    -3
390
0
  6
Continuous
100
AcDbLine
 10
-499.945178
 20
-192.070629
 30
0.0
 11
-497.994075
 21
-193.197099
 31
0.0
  0
ARC
  5
46A
100
AcDbEntity
  8
0
370
    -3
390
0
  6
Continuous
100
AcDbCircle
 10
-487.994075
 20
-194.929149
 30
0.0
 40
19.0
100
AcDbArc
 50
165.183114
 51
197.626375
  0
ARC
  5
46B
100
AcDbEntity
  8
0
370
    -3
390
0
  6
Continuous
100
AcDbCircle
 10
-487.994075
 20
-194.929149
 30
0.0
 40
25.0
100
AcDbArc
 50
163.835224
 51
198.717176
  0
LINE
  5
46C
100
AcDbEntity
  8
0
370
    -3
390
0
  6
Continuous
100
AcDbLine
 10
-509.084771
 20
-186.793883
 30
0.0
 11
-507.295785
 21
-187.826754
 31
0.0
  0
ARC
  5
46D
100
AcDbEntity
  8
0
370
    -3
390
0
  6
Continuous
100
AcDbCircle
 10
-487.994075
 20
-194.929149
 30
0.0
 40
29.0
100
AcDbArc
 50
160.21948
 51
203.300235
  0
ARC
  5
46E
100
AcDbEntity
  8
0
370
    -3
390
0
  6
Continuous
100
AcDbCircle
 10
-487.994075
 20
-194.929149
 30
0.0
 40
49.0
100
AcDbArc
 50
156.190997
 51
204.937907
  0
LINE
  5
46F
100
AcDbEntity
  8
0
370
    -3
390
0
  6
Continuous
100
AcDbLine
 10
-535.395609
 20
-171.603313
 30
0.0
 11
-533.653784
 21
-172.608956
 31
0.0
  0
ARC
  5
470
100
AcDbEntity
  8
0
370
    -3
390
0
  6
Continuous
100
AcDbCircle
 10
-487.994075
 20
-194.929149
 30
0.0
 40
55.0
100
AcDbArc
 50
155.956512
 51
205.1294
  0
ARC
  5
471
100
AcDbEntity
  8
0
370
    -3
390
0
  6
Continuous
100
AcDbCircle
 10
-487.994075
 20
-194.929149
 30
0.0
 40
45.0
100
AcDbArc
 50
157.348661
 51
203.992931
  0
ARC
  5
472
100
AcDbEntity
  8
0
370
    -3
390
0
  6
Continuous
100
AcDbCircle
 10
-487.994075
 20
-194.929149
 30
0.0
 40
39.0
100
AcDbArc
 50
156.45945
 51
203.698744
  0
LINE
  5
473
100
AcDbEntity
  8
0
370
    -3
390
0
  6
Continuous
100
AcDbLine
 10
-526.677292
 20
-176.636836
 30
0.0
 11
-524.165181
 21
-178.087204
 31
0.0
  0
ARC
  5
474
100
AcDbEntity
  8
0
370
    -3
390
0
  6
Continuous
100
AcDbCircle
 10
-524.665181
 20
-178.953229
 30
0.0
 40
1.0
100
AcDbArc
 50
336.45945
 51
60.0
  0
LINE
  5
475
100
AcDbEntity
  8
0
370
    -3
390
0
  6
Continuous
100
AcDbLine
 10
-517.92319
 20
-181.691019
 30
0.0
 11
-516.164948
 21
-182.706141
 31
0.0
  0
ARC
  5
476
100
AcDbEntity
  8
0
370
    -3
390
0
  6
Continuous
100
AcDbCircle
 10
-487.994075
 20
-194.929149
 30
0.0
 40
35.0
100
AcDbArc
 50
159.594068
 51
202.16252
  0
LINE
  5
477
100
AcDbEntity
  8
0
370
    -3
390
0
  6
Continuous
100
AcDbLine
 10
-441.010472
 20
-219.168394
 30
0.0
 11
-442.749047
 21
-218.164627
 31
0.0
  0
LINE
  5
478
100
AcDbEntity
  8
0
370
    -3
390
0
  6
Continuous
100
AcDbLine
 10
-449.709463
 20
-214.146029
 30
0.0
 11
-451.451548
 21
-213.140236
 31
0.0
  0
LINE
  5
479
100
AcDbEntity
  8
0
370
    -3
390
0
  6
Continuous
100
AcDbLine
 10
-458.432196
 20
-209.109957
 30
0.0
 11
-460.181649
 21
-208.09991
 31
0.0
  0
LINE
  5
47A
100
AcDbEntity
  8
0
370
    -3
390
0
  6
Continuous
100
AcDbLine
 10
-467.21045
 20
-204.041829
 30
0.0
 11
-468.979996
 21
-203.020182
 31
0.0
  0
LINE
  5
47B
100
AcDbEntity
  8
0
370
    -3
390
0
  6
Continuous
100
AcDbLine
 10
-476.18176
 20
-198.862241
 30
0.0
 11
-478.051406
 21
-197.782801
 31
0.0
  0
ARC
  5
47C
100
AcDbEntity
  8
0
370
    -3
390
0
  6
Continuous
100
AcDbCircle
 10
-487.994075
 20
-194.929149
 30
0.0
 40
9.0
100
AcDbArc
 50
354.14774
 51
360.0
  0
ARC
  5
47D
100
AcDbEntity
  8
0
370
    -3
390
0
  6
Continuous
100
AcDbCircle
 10
-487.994075
 20
-194.929149
 30
0.0
 40
15.0
100
AcDbArc
 50
350.252247
 51
4.971001
  0
LINE
  5
47E
100
AcDbEntity
  8
0
370
    -3
390
0
  6
Continuous
100
AcDbLine
 10
-476.042972
 20
-192.070629
 30
0.0
 11
-477.994075
 21
-193.197099
 31
0.0
  0
ARC
  5
47F
100
AcDbEntity
  8
0
370
    -3
390
0
  6
Continuous
100
AcDbCircle
 10
-487.994075
 20
-194.929149
 30
0.0
 40
19.0
100
AcDbArc
 50
342.373625
 51
14.816886
  0
ARC
  5
480
100
AcDbEntity
  8
0
370
    -3
390
0
  6
Continuous
100
AcDbCircle
 10
-487.994075
 20
-194.929149
 30
0.0
 40
25.0
100
AcDbArc
 50
341.282824
 51
16.164776
  0
LINE
  5
481
100
AcDbEntity
  8
0
370
    -3
390
0
  6
Continuous
100
AcDbLine
 10
-466.90338
 20
-186.793883
 30
0.0
 11
-468.692366
 21
-187.826754
 31
0.0
  0
ARC
  5
482
100
AcDbEntity
  8
0
370
    -3
390
0
  6
Continuous
100
AcDbCircle
 10
-487.994075
 20
-194.929149
 30
0.0
 40
29.0
100
AcDbArc
 50
338.346619
 51
19.78052
  0
ARC
  5
483
100
AcDbEntity
  8
0
370
    -3
390
0
  6
Continuous
100
AcDbCircle
 10
-487.994075
 20
-194.929149
 30
0.0
 40
49.0
100
AcDbArc
 50
335.062093
 51
23.809003
  0
LINE
  5
484
100
AcDbEntity
  8
0
370
    -3
390
0
  6
Continuous
100
AcDbLine
 10
-440.592542
 20
-171.603313
 30
0.0
 11
-442.334367
 21
-172.608956
 31
0.0
  0
ARC
  5
485
100
AcDbEntity
  8
0
370
    -3
390
0
  6
Continuous
100
AcDbCircle
 10
-487.994075
 20
-194.929149
 30
0.0
 40
55.0
100
AcDbArc
 50
334.8706
 51
24.043488
  0
ARC
  5
486
100
AcDbEntity
  8
0
370
    -3
390
0
  6
Continuous
100
AcDbCircle
 10
-487.994075
 20
-194.929149
 30
0.0
 40
45.0
100
AcDbArc
 50
336.007069
 51
22.651339
  0
ARC
  5
487
100
AcDbEntity
  8
0
370
    -3
390
0
  6
Continuous
100
AcDbCircle
 10
-487.994075
 20
-194.929149
 30
0.0
 40
39.0
100
AcDbArc
 50
336.301256
 51
22.29074
  0
LINE
  5
488
100
AcDbEntity
  8
0
370
    -3
390
0
  6
Continuous
100
AcDbLine
 10
-449.310859
 20
-176.636836
 30
0.0
 11
-451.057963
 21
-177.645527
 31
0.0
  0
LINE
  5
489
100
AcDbEntity
  8
0
370
    -3
390
0
  6
Continuous
100
AcDbLine
 10
-458.064961
 20
-181.691019
 30
0.0
 11
-459.823203
 21
-182.706141
 31
0.0
  0
ARC
  5
48A
100
AcDbEntity
  8
0
370
    -3
390
0
  6
Continuous
100
AcDbCircle
 10
-487.994075
 20
-194.929149
 30
0.0
 40
35.0
100
AcDbArc
 50
337.83748
 51
20.405932
  0
LINE
  5
48B
100
AcDbEntity
  8
0
370
    -3
390
0
  6
Continuous
100
AcDbLine
 10
-497.30639
 20
-203.192368
 30
0.0
 11
-495.436745
 21
-202.112928
 31
0.0
  0
ARC
  5
48C
100
AcDbEntity
  8
0
370
    -3
390
0
  6
Continuous
100
AcDbCircle
 10
-487.994075
 20
-194.929149
 30
0.0
 40
9.0
100
AcDbArc
 50
234.14774
 51
240.0
  0
ARC
  5
48D
100
AcDbEntity
  8
0
370
    -3
390
0
  6
Continuous
100
AcDbCircle
 10
-487.994075
 20
-194.929149
 30
0.0
 40
15.0
100
AcDbArc
 50
230.252247
 51
244.971001
  0
LINE
  5
48E
100
AcDbEntity
  8
0
370
    -3
390
0
  6
Continuous
100
AcDbLine
 10
-491.494075
 20
-206.708368
 30
0.0
 11
-491.494075
 21
-204.455429
 31
0.0
  0
LINE
  5
48F
100
AcDbEntity
  8
0
370
    -3
390
0
  6
Continuous
100
AcDbLine
 10
-506.2777
 20
-208.371957
 30
0.0
 11
-504.508154
 21
-207.350309
 31
0.0
  0
ARC
  5
490
100
AcDbEntity
  8
0
370
    -3
390
0
  6
Continuous
100
AcDbCircle
 10
-487.994075
 20
-194.929149
 30
0.0
 40
19.0
100
AcDbArc
 50
222.373625
 51
254.816886
  0
ARC
  5
491
100
AcDbEntity
  8
0
370
    -3
390
0
  6
Continuous
100
AcDbCircle
 10
-487.994075
 20
-194.929149
 30
0.0
 40
25.0
100
AcDbArc
 50
221.282824
 51
256.164776
  0
LINE
  5
492
100
AcDbEntity
  8
0
370
    -3
390
0
  6
Continuous
100
AcDbLine
 10
-491.494075
 20
-217.261861
 30
0.0
 11
-491.494075
 21
-215.196118
 31
0.0
  0
LINE
  5
493
100
AcDbEntity
  8
0
370
    -3
390
0
  6
Continuous
100
AcDbLine
 10
-515.055954
 20
-213.440084
 30
0.0
 11
-513.306502
 21
-212.430037
 31
0.0
  0
ARC
  5
494
100
AcDbEntity
  8
0
370
    -3
390
0
  6
Continuous
100
AcDbCircle
 10
-487.994075
 20
-194.929149
 30
0.0
 40
29.0
100
AcDbArc
 50
218.346619
 51
259.78052
  0
LINE
  5
495
100
AcDbEntity
  8
0
370
    -3
390
0
  6
Continuous
100
AcDbLine
 10
-523.778687
 20
-218.476156
 30
0.0
 11
-522.036603
 21
-217.470363
 31
0.0
  0
LINE
  5
496
100
AcDbEntity
  8
0
370
    -3
390
0
  6
Continuous
100
AcDbLine
 10
-532.477679
 20
-223.498521
 30
0.0
 11
-530.739103
 21
-222.494754
 31
0.0
  0
ARC
  5
497
100
AcDbEntity
  8
0
370
    -3
390
0
  6
Continuous
100
AcDbCircle
 10
-487.994075
 20
-194.929149
 30
0.0
 40
49.0
100
AcDbArc
 50
215.062093
 51
263.809003
  0
LINE
  5
498
100
AcDbEntity
  8
0
370
    -3
390
0
  6
Continuous
100
AcDbLine
 10
-491.494075
 20
-247.643
 30
0.0
 11
-491.494075
 21
-245.631713
 31
0.0
  0
ARC
  5
499
100
AcDbEntity
  8
0
370
    -3
390
0
  6
Continuous
100
AcDbCircle
 10
-487.994075
 20
-194.929149
 30
0.0
 40
55.0
100
AcDbArc
 50
214.8706
 51
264.043488
  0
ARC
  5
49A
100
AcDbEntity
  8
0
370
    -3
390
0
  6
Continuous
100
AcDbCircle
 10
-487.994075
 20
-194.929149
 30
0.0
 40
45.0
100
AcDbArc
 50
216.007069
 51
262.651339
  0
ARC
  5
49B
100
AcDbEntity
  8
0
370
    -3
390
0
  6
Continuous
100
AcDbCircle
 10
-487.994075
 20
-194.929149
 30
0.0
 40
39.0
100
AcDbArc
 50
216.301256
 51
262.29074
  0
LINE
  5
49C
100
AcDbEntity
  8
0
370
    -3
390
0
  6
Continuous
100
AcDbLine
 10
-491.494075
 20
-237.575955
 30
0.0
 11
-491.494075
 21
-235.558572
 31
0.0
  0
LINE
  5
49D
100
AcDbEntity
  8
0
370
    -3
390
0
  6
Continuous
100
AcDbLine
 10
-491.494075
 20
-227.467588
 30
0.0
 11
-491.494075
 21
-225.437345
 31
0.0
  0
ARC
  5
49E
100
AcDbEntity
  8
0
370
    -3
390
0
  6
Continuous
100
AcDbCircle
 10
-487.994075
 20
-194.929149
 30
0.0
 40
35.0
100
AcDbArc
 50
217.83748
 51
260.405932
  0
LINE
  5
49F
100
AcDbEntity
  8
0
370
    -3
390
0
  6
Continuous
100
AcDbLine
 10
-478.68176
 20
-203.192368
 30
0.0
 11
-481.131585
 21
-201.777961
 31
0.0
  0
ARC
  5
4A0
100
AcDbEntity
  8
0
370
    -3
390
0
  6
Continuous
100
AcDbCircle
 10
-481.631585
 20
-202.643987
 30
0.0
 40
1.0
100
AcDbArc
 50
60.0
 51
129.512685
  0
ARC
  5
4A1
100
AcDbEntity
  8
0
370
    -3
390
0
  6
Continuous
100
AcDbCircle
 10
-487.994075
 20
-194.929149
 30
0.0
 40
9.0
100
AcDbArc
 50
300.0
 51
309.512685
  0
ARC
  5
4A2
100
AcDbEntity
  8
0
370
    -3
390
0
  6
Continuous
100
AcDbCircle
 10
-487.994075
 20
-194.929149
 30
0.0
 40
15.0
100
AcDbArc
 50
295.028999
 51
309.747753
  0
LINE
  5
4A3
100
AcDbEntity
  8
0
370
    -3
390
0
  6
Continuous
100
AcDbLine
 10
-484.494075
 20
-206.708368
 30
0.0
 11
-484.494075
 21
-204.455429
 31
0.0
  0
LINE
  5
4A4
100
AcDbEntity
  8
0
370
    -3
390
0
  6
Continuous
100
AcDbLine
 10
-469.71045
 20
-208.371957
 30
0.0
 11
-471.479996
 21
-207.350309
 31
0.0
  0
ARC
  5
4A5
100
AcDbEntity
  8
0
370
    -3
390
0
  6
Continuous
100
AcDbCircle
 10
-487.994075
 20
-194.929149
 30
0.0
 40
19.0
100
AcDbArc
 50
285.183114
 51
317.626375
  0
ARC
  5
4A6
100
AcDbEntity
  8
0
370
    -3
390
0
  6
Continuous
100
AcDbCircle
 10
-487.994075
 20
-194.929149
 30
0.0
 40
25.0
100
AcDbArc
 50
283.835224
 51
318.717176
  0
LINE
  5
4A7
100
AcDbEntity
  8
0
370
    -3
390
0
  6
Continuous
100
AcDbLine
 10
-484.494075
 20
-217.261861
 30
0.0
 11
-484.494075
 21
-215.196118
 31
0.0
  0
LINE
  5
4A8
100
AcDbEntity
  8
0
370
    -3
390
0
  6
Continuous
100
AcDbLine
 10
-460.932196
 20
-213.440084
 30
0.0
 11
-462.681649
 21
-212.430037
 31
0.0
  0
ARC
  5
4A9
100
AcDbEntity
  8
0
370
    -3
390
0
  6
Continuous
100
AcDbCircle
 10
-487.994075
 20
-194.929149
 30
0.0
 40
29.0
100
AcDbArc
 50
280.21948
 51
321.653381
  0
LINE
  5
4AA
100
AcDbEntity
  8
0
370
    -3
390
0
  6
Continuous
100
AcDbLine
 10
-452.209463
 20
-218.476156
 30
0.0
 11
-453.951548
 21
-217.470363
 31
0.0
  0
LINE
  5
4AB
100
AcDbEntity
  8
0
370
    -3
390
0
  6
Continuous
100
AcDbLine
 10
-443.510472
 20
-223.498521
 30
0.0
 11
-446.049023
 21
-222.032888
 31
0.0
  0
ARC
  5
4AC
100
AcDbEntity
  8
0
370
    -3
390
0
  6
Continuous
100
AcDbCircle
 10
-446.549023
 20
-222.898913
 30
0.0
 40
1.0
100
AcDbArc
 50
60.0
 51
145.986013
  0
ARC
  5
4AD
100
AcDbEntity
  8
0
370
    -3
390
0
  6
Continuous
100
AcDbCircle
 10
-487.994075
 20
-194.929149
 30
0.0
 40
49.0
100
AcDbArc
 50
276.190997
 51
325.986013
  0
LINE
  5
4AE
100
AcDbEntity
  8
0
370
    -3
390
0
  6
Continuous
100
AcDbLine
 10
-484.494075
 20
-247.643
 30
0.0
 11
-484.494075
 21
-245.631713
 31
0.0
  0
ARC
  5
4AF
100
AcDbEntity
  8
0
370
    -3
390
0
  6
Continuous
100
AcDbCircle
 10
-487.994075
 20
-194.929149
 30
0.0
 40
55.0
100
AcDbArc
 50
275.956512
 51
325.1294
  0
ARC
  5
4B0
100
AcDbEntity
  8
0
370
    -3
390
0
  6
Continuous
100
AcDbCircle
 10
-487.994075
 20
-194.929149
 30
0.0
 40
45.0
100
AcDbArc
 50
277.348661
 51
323.992931
  0
ARC
  5
4B1
100
AcDbEntity
  8
0
370
    -3
390
0
  6
Continuous
100
AcDbCircle
 10
-487.994075
 20
-194.929149
 30
0.0
 40
39.0
100
AcDbArc
 50
277.70926
 51
323.698744
  0
LINE
  5
4B2
100
AcDbEntity
  8
0
370
    -3
390
0
  6
Continuous
100
AcDbLine
 10
-484.494075
 20
-237.575955
 30
0.0
 11
-484.494075
 21
-235.558572
 31
0.0
  0
LINE
  5
4B3
100
AcDbEntity
  8
0
370
    -3
390
0
  6
Continuous
100
AcDbLine
 10
-484.494075
 20
-227.467588
 30
0.0
 11
-484.494075
 21
-225.437345
 31
0.0
  0
ARC
  5
4B4
100
AcDbEntity
  8
0
370
    -3
390
0
  6
Continuous
100
AcDbCircle
 10
-487.994075
 20
-194.929149
 30
0.0
 40
35.0
100
AcDbArc
 50
279.594068
 51
322.16252
  0
LINE
  5
4B5
100
AcDbEntity
  8
0
370
    -3
390
0
  6
Continuous
100
AcDbLine
 10
-478.68176
 20
-186.66593
 30
0.0
 11
-480.551406
 21
-187.745371
 31
0.0
  0
ARC
  5
4B6
100
AcDbEntity
  8
0
370
    -3
390
0
  6
Continuous
100
AcDbCircle
 10
-487.994075
 20
-194.929149
 30
0.0
 40
9.0
100
AcDbArc
 50
54.14774
 51
60.0
  0
ARC
  5
4B7
100
AcDbEntity
  8
0
370
    -3
390
0
  6
Continuous
100
AcDbCircle
 10
-487.994075
 20
-194.929149
 30
0.0
 40
15.0
100
AcDbArc
 50
50.252247
 51
64.971001
  0
LINE
  5
4B8
100
AcDbEntity
  8
0
370
    -3
390
0
  6
Continuous
100
AcDbLine
 10
-484.494075
 20
-183.14993
 30
0.0
 11
-484.494075
 21
-185.40287
 31
0.0
  0
LINE
  5
4B9
100
AcDbEntity
  8
0
370
    -3
390
0
  6
Continuous
100
AcDbLine
 10
-469.71045
 20
-181.486342
 30
0.0
 11
-471.479996
 21
-182.50799
 31
0.0
  0
ARC
  5
4BA
100
AcDbEntity
  8
0
370
    -3
390
0
  6
Continuous
100
AcDbCircle
 10
-487.994075
 20
-194.929149
 30
0.0
 40
19.0
100
AcDbArc
 50
42.373625
 51
74.816886
  0
ARC
  5
4BB
100
AcDbEntity
  8
0
370
    -3
390
0
  6
Continuous
100
AcDbCircle
 10
-487.994075
 20
-194.929149
 30
0.0
 40
25.0
100
AcDbArc
 50
41.282824
 51
76.164776
  0
LINE
  5
4BC
100
AcDbEntity
  8
0
370
    -3
390
0
  6
Continuous
100
AcDbLine
 10
-484.494075
 20
-172.596438
 30
0.0
 11
-484.494075
 21
-174.662181
 31
0.0
  0
LINE
  5
4BD
100
AcDbEntity
  8
0
370
    -3
390
0
  6
Continuous
100
AcDbLine
 10
-460.932196
 20
-176.418215
 30
0.0
 11
-462.681649
 21
-177.428262
 31
0.0
  0
ARC
  5
4BE
100
AcDbEntity
  8
0
370
    -3
390
0
  6
Continuous
100
AcDbCircle
 10
-487.994075
 20
-194.929149
 30
0.0
 40
29.0
100
AcDbArc
 50
38.346619
 51
79.78052
  0
LINE
  5
4BF
100
AcDbEntity
  8
0
370
    -3
390
0
  6
Continuous
100
AcDbLine
 10
-452.209463
 20
-171.382143
 30
0.0
 11
-453.951548
 21
-172.387936
 31
0.0
  0
LINE
  5
4C0
100
AcDbEntity
  8
0
370
    -3
390
0
  6
Continuous
100
AcDbLine
 10
-443.510472
 20
-166.359778
 30
0.0
 11
-445.249047
 21
-167.363545
 31
0.0
  0
ARC
  5
4C1
100
AcDbEntity
  8
0
370
    -3
390
0
  6
Continuous
100
AcDbCircle
 10
-487.994075
 20
-194.929149
 30
0.0
 40
49.0
100
AcDbArc
 50
35.062093
 51
83.809003
  0
LINE
  5
4C2
100
AcDbEntity
  8
0
370
    -3
390
0
  6
Continuous
100
AcDbLine
 10
-484.494075
 20
-142.215299
 30
0.0
 11
-484.494075
 21
-144.226585
 31
0.0
  0
ARC
  5
4C3
100
AcDbEntity
  8
0
370
    -3
390
0
  6
Continuous
100
AcDbCircle
 10
-487.994075
 20
-194.929149
 30
0.0
 40
55.0
100
AcDbArc
 50
34.8706
 51
84.043488
  0
ARC
  5
4C4
100
AcDbEntity
  8
0
370
    -3
390
0
  6
Continuous
100
AcDbCircle
 10
-487.994075
 20
-194.929149
 30
0.0
 40
45.0
100
AcDbArc
 50
36.007069
 51
82.651339
  0
ARC
  5
4C5
100
AcDbEntity
  8
0
370
    -3
390
0
  6
Continuous
100
AcDbCircle
 10
-487.994075
 20
-194.929149
 30
0.0
 40
39.0
100
AcDbArc
 50
36.301256
 51
82.29074
  0
LINE
  5
4C6
100
AcDbEntity
  8
0
370
    -3
390
0
  6
Continuous
100
AcDbLine
 10
-484.494075
 20
-152.282344
 30
0.0
 11
-484.494075
 21
-154.299727
 31
0.0
  0
LINE
  5
4C7
100
AcDbEntity
  8
0
370
    -3
390
0
  6
Continuous
100
AcDbLine
 10
-484.494075
 20
-162.390711
 30
0.0
 11
-484.494075
 21
-164.420954
 31
0.0
  0
ARC
  5
4C8
100
AcDbEntity
  8
0
370
    -3
390
0
  6
Continuous
100
AcDbCircle
 10
-487.994075
 20
-194.929149
 30
0.0
 40
35.0
100
AcDbArc
 50
37.83748
 51
80.405932
  0
LINE
  5
4C9
100
AcDbEntity
  8
0
370
    -3
390
0
  6
Continuous
100
AcDbLine
 10
-523.778687
 20
-171.382143
 30
0.0
 11
-522.036603
 21
-172.387936
 31
0.0
  0
LINE
  5
4CA
100
AcDbEntity
  8
0
370
    -3
390
0
  6
Continuous
100
AcDbLine
 10
-515.055954
 20
-176.418215
 30
0.0
 11
-513.306502
 21
-177.428262
 31
0.0
  0
LINE
  5
4CB
100
AcDbEntity
  8
0
370
    -3
390
0
  6
Continuous
100
AcDbLine
 10
-506.2777
 20
-181.486342
 30
0.0
 11
-504.508154
 21
-182.50799
 31
0.0
  0
LINE
  5
4CC
100
AcDbEntity
  8
0
370
    -3
390
0
  6
Continuous
100
AcDbLine
 10
-497.30639
 20
-186.66593
 30
0.0
 11
-495.436745
 21
-187.745371
 31
0.0
  0
LINE
  5
4CD
100
AcDbEntity
  8
0
370
    -3
390
0
  6
Continuous
100
AcDbLine
 10
-491.494075
 20
-183.14993
 30
0.0
 11
-491.494075
 21
-185.40287
 31
0.0
  0
LINE
  5
4CE
100
AcDbEntity
  8
0
370
    -3
390
0
  6
Continuous
100
AcDbLine
 10
-491.494075
 20
-172.596438
 30
0.0
 11
-491.494075
 21
-174.662181
 31
0.0
  0
LINE
  5
4CF
100
AcDbEntity
  8
0
370
    -3
390
0
  6
Continuous
100
AcDbLine
 10
-491.494075
 20
-162.390711
 30
0.0
 11
-491.494075
 21
-164.420954
 31
0.0
  0
LINE
  5
4D0
100
AcDbEntity
  8
0
370
    -3
390
0
  6
Continuous
100
AcDbLine
 10
-491.494075
 20
-152.282344
 30
0.0
 11
-491.494075
 21
-154.299727
 31
0.0
  0
ARC
  5
4D1
100
AcDbEntity
  8
0
370
    -3
390
0
  6
Continuous
100
AcDbCircle
 10
-487.994075
 20
-194.929149
 30
0.0
 40
9.0
100
AcDbArc
 50
120.0
 51
125.85226
  0
ARC
  5
4D2
100
AcDbEntity
  8
0
370
    -3
390
0
  6
Continuous
100
AcDbCircle
 10
-487.994075
 20
-194.929149
 30
0.0
 40
15.0
100
AcDbArc
 50
115.028999
 51
129.747753
  0
ARC
  5
4D3
100
AcDbEntity
  8
0
370
    -3
390
0
  6
Continuous
100
AcDbCircle
 10
-487.994075
 20
-194.929149
 30
0.0
 40
19.0
100
AcDbArc
 50
105.183114
 51
137.626375
  0
ARC
  5
4D4
100
AcDbEntity
  8
0
370
    -3
390
0
  6
Continuous
100
AcDbCircle
 10
-487.994075
 20
-194.929149
 30
0.0
 40
25.0
100
AcDbArc
 50
103.835224
 51
138.717176
  0
ARC
  5
4D5
100
AcDbEntity
  8
0
370
    -3
390
0
  6
Continuous
100
AcDbCircle
 10
-487.994075
 20
-194.929149
 30
0.0
 40
29.0
100
AcDbArc
 50
100.21948
 51
141.653381
  0
ARC
  5
4D6
100
AcDbEntity
  8
0
370
    -3
390
0
  6
Continuous
100
AcDbCircle
 10
-487.994075
 20
-194.929149
 30
0.0
 40
35.0
100
AcDbArc
 50
99.594068
 51
142.16252
  0
ARC
  5
4D7
100
AcDbEntity
  8
0
370
    -3
390
0
  6
Continuous
100
AcDbCircle
 10
-487.994075
 20
-194.929149
 30
0.0
 40
39.0
100
AcDbArc
 50
97.70926
 51
143.698744
  0
ARC
  5
4D8
100
AcDbEntity
  8
0
370
    -3
390
0
  6
Continuous
100
AcDbCircle
 10
-487.994075
 20
-194.929149
 30
0.0
 40
49.0
100
AcDbArc
 50
96.190997
 51
144.937907
  0
ARC
  5
4D9
100
AcDbEntity
  8
0
370
    -3
390
0
  6
Continuous
100
AcDbCircle
 10
-487.994075
 20
-194.929149
 30
0.0
 40
55.0
100
AcDbArc
 50
95.956512
 51
145.1294
  0
LINE
  5
4DA
100
AcDbEntity
  8
0
370
    -3
390
0
  6
Continuous
100
AcDbLine
 10
-532.477679
 20
-166.359778
 30
0.0
 11
-530.739103
 21
-167.363545
 31
0.0
  0
LINE
  5
4DB
100
AcDbEntity
  8
0
370
    -3
390
0
  6
Continuous
100
AcDbLine
 10
-491.494075
 20
-142.215299
 30
0.0
 11
-491.494075
 21
-144.226585
 31
0.0
  0
CIRCLE
  5
4DC
100
AcDbEntity
  8
0
370
    -3
390
0
  6
Continuous
100
AcDbCircle
 10
-487.994075
 20
-194.929149
 30
0.0
 40
5.0
  0
ARC
  5
4DD
100
AcDbEntity
  8
0
370
    -3
390
0
  6
Continuous
100
AcDbCircle
 10
-487.994075
 20
31.070851
 30
0.0
 40
286.944
100
AcDbArc
 50
265.66015
 51
274.33985
  0
ARC
  5
4DE
100
AcDbEntity
  8
0
370
    -3
390
0
  6
Continuous
100
AcDbCircle
 10
-511.277261
 20
-213.847216
 30
0.0
 40
36.944
100
AcDbArc
 50
184.33985
 51
219.094568
  0
ARC
  5
4DF
100
AcDbEntity
  8
0
370
    -3
390
0
  6
Continuous
100
AcDbCircle
 10
-261.994075
 20
-194.929149
 30
0.0
 40
286.944
100
AcDbArc
 50
175.66015
 51
184.33985
  0
ARC
  5
4E0
100
AcDbEntity
  8
0
370
    -3
390
0
  6
Continuous
100
AcDbCircle
 10
-511.277261
 20
-176.011082
 30
0.0
 40
36.944
100
AcDbArc
 50
140.905432
 51
175.66015
  0
ARC
  5
4E1
100
AcDbEntity
  8
0
370
    -3
390
0
  6
Continuous
100
AcDbCircle
 10
-487.994075
 20
-420.929149
 30
0.0
 40
286.944
100
AcDbArc
 50
85.66015
 51
94.33985
  0
ARC
  5
4E2
100
AcDbEntity
  8
0
370
    -3
390
0
  6
Continuous
100
AcDbCircle
 10
-713.994075
 20
-194.929149
 30
0.0
 40
286.944
100
AcDbArc
 50
355.66015
 51
4.33985
  0
ARC
  5
4E3
100
AcDbEntity
  8
0
370
    -3
390
0
  6
Continuous
100
AcDbCircle
 10
-487.994075
 20
31.070851
 30
0.0
 40
300.8
100
AcDbArc
 50
270.0
 51
274.33985
  0
ARC
  5
4E4
100
AcDbEntity
  8
0
370
    -3
390
0
  6
Continuous
100
AcDbCircle
 10
-713.994075
 20
-194.929149
 30
0.0
 40
300.8
100
AcDbArc
 50
355.66015
 51
360.0
  0
ARC
  5
4E5
100
AcDbEntity
  8
0
370
    -3
390
0
  6
Continuous
100
AcDbCircle
 10
-487.994075
 20
-194.929149
 30
0.0
 40
80.8
100
AcDbArc
 50
309.094568
 51
320.905432
  0
LINE
  5
4E6
100
AcDbEntity
  8
0
370
    -3
390
0
  6
Continuous
100
AcDbLine
 10
-433.476142
 20
-256.093886
 30
0.0
 11
-426.829339
 21
-249.447082
 31
0.0
  0
ARC
  5
4E7
100
AcDbEntity
  8
0
370
    -3
390
0
  6
Continuous
100
AcDbCircle
 10
-427.041471
 20
-249.23495
 30
0.0
 40
0.3
100
AcDbArc
 50
315.0
 51
45.0
  0
LINE
  5
4E8
100
AcDbEntity
  8
0
370
    -3
390
0
  6
Continuous
100
AcDbLine
 10
-426.829339
 20
-249.022818
 30
0.0
 11
-427.43381
 21
-248.418347
 31
0.0
  0
LINE
  5
4E9
100
AcDbEntity
  8
0
370
    -3
390
0
  6
Continuous
100
AcDbLine
 10
-432.769036
 20
-256.51815
 30
0.0
 11
-433.334721
 21
-255.952465
 31
0.0
  0
LINE
  5
4EA
100
AcDbEntity
  8
0
370
    -3
390
0
  6
Continuous
100
AcDbLine
 10
-431.107335
 20
-254.856449
 30
0.0
 11
-432.769036
 21
-256.51815
 31
0.0
  0
LINE
  5
4EB
100
AcDbEntity
  8
0
370
    -3
390
0
  6
Continuous
100
AcDbLine
 10
-426.405075
 20
-250.154189
 30
0.0
 11
-426.97076
 21
-249.588504
 31
0.0
  0
LINE
  5
4EC
100
AcDbEntity
  8
0
370
    -3
390
0
  6
Continuous
100
AcDbLine
 10
-428.066776
 20
-251.81589
 30
0.0
 11
-426.405075
 21
-250.154189
 31
0.0
  0
ARC
  5
4ED
100
AcDbEntity
  8
0
370
    -3
390
0
  6
Continuous
100
AcDbCircle
 10
-433.688274
 20
-255.881754
 30
0.0
 40
0.3
100
AcDbArc
 50
225.0
 51
315.0
  0
LINE
  5
4EE
100
AcDbEntity
  8
0
370
    -3
390
0
  6
Continuous
100
AcDbLine
 10
-433.900407
 20
-256.093886
 30
0.0
 11
-434.504878
 21
-255.489415
 31
0.0
  0
ARC
  5
4EF
100
AcDbEntity
  8
0
370
    -3
390
0
  6
Continuous
100
AcDbCircle
 10
-469.076008
 20
-218.212335
 30
0.0
 40
50.8
100
AcDbArc
 50
274.33985
 51
309.094568
  0
ARC
  5
4F0
100
AcDbEntity
  8
0
370
    -3
390
0
  6
Continuous
100
AcDbCircle
 10
-464.710889
 20
-213.847216
 30
0.0
 40
50.8
100
AcDbArc
 50
320.905432
 51
355.66015
  0
ARC
  5
4F1
100
AcDbEntity
  8
0
370
    -3
390
0
  6
Continuous
100
AcDbCircle
 10
-487.994075
 20
-420.929149
 30
0.0
 40
300.8
100
AcDbArc
 50
85.66015
 51
90.0
  0
ARC
  5
4F2
100
AcDbEntity
  8
0
370
    -3
390
0
  6
Continuous
100
AcDbCircle
 10
-713.994075
 20
-194.929149
 30
0.0
 40
300.8
100
AcDbArc
 50
0.0
 51
4.33985
  0
ARC
  5
4F3
100
AcDbEntity
  8
0
370
    -3
390
0
  6
Continuous
100
AcDbCircle
 10
-487.994075
 20
-194.929149
 30
0.0
 40
80.8
100
AcDbArc
 50
39.094568
 51
50.905432
  0
LINE
  5
4F4
100
AcDbEntity
  8
0
370
    -3
390
0
  6
Continuous
100
AcDbLine
 10
-433.476142
 20
-133.764413
 30
0.0
 11
-426.829339
 21
-140.411217
 31
0.0
  0
ARC
  5
4F5
100
AcDbEntity
  8
0
370
    -3
390
0
  6
Continuous
100
AcDbCircle
 10
-427.041471
 20
-140.623349
 30
0.0
 40
0.3
100
AcDbArc
 50
315.0
 51
45.0
  0
LINE
  5
4F6
100
AcDbEntity
  8
0
370
    -3
390
0
  6
Continuous
100
AcDbLine
 10
-426.829339
 20
-140.835481
 30
0.0
 11
-427.43381
 21
-141.439952
 31
0.0
  0
LINE
  5
4F7
100
AcDbEntity
  8
0
370
    -3
390
0
  6
Continuous
100
AcDbLine
 10
-432.769036
 20
-133.340149
 30
0.0
 11
-433.334721
 21
-133.905834
 31
0.0
  0
LINE
  5
4F8
100
AcDbEntity
  8
0
370
    -3
390
0
  6
Continuous
100
AcDbLine
 10
-431.107335
 20
-135.00185
 30
0.0
 11
-432.769036
 21
-133.340149
 31
0.0
  0
LINE
  5
4F9
100
AcDbEntity
  8
0
370
    -3
390
0
  6
Continuous
100
AcDbLine
 10
-426.405075
 20
-139.70411
 30
0.0
 11
-426.97076
 21
-140.269795
 31
0.0
  0
LINE
  5
4FA
100
AcDbEntity
  8
0
370
    -3
390
0
  6
Continuous
100
AcDbLine
 10
-428.066776
 20
-138.042409
 30
0.0
 11
-426.405075
 21
-139.70411
 31
0.0
  0
ARC
  5
4FB
100
AcDbEntity
  8
0
370
    -3
390
0
  6
Continuous
100
AcDbCircle
 10
-433.688274
 20
-133.976545
 30
0.0
 40
0.3
100
AcDbArc
 50
45.0
 51
135.0
  0
LINE
  5
4FC
100
AcDbEntity
  8
0
370
    -3
390
0
  6
Continuous
100
AcDbLine
 10
-433.900407
 20
-133.764413
 30
0.0
 11
-434.504878
 21
-134.368884
 31
0.0
  0
ARC
  5
4FD
100
AcDbEntity
  8
0
370
    -3
390
0
  6
Continuous
100
AcDbCircle
 10
-469.076008
 20
-171.645964
 30
0.0
 40
50.8
100
AcDbArc
 50
50.905432
 51
85.66015
  0
ARC
  5
4FE
100
AcDbEntity
  8
0
370
    -3
390
0
  6
Continuous
100
AcDbCircle
 10
-464.710889
 20
-176.011082
 30
0.0
 40
50.8
100
AcDbArc
 50
4.33985
 51
39.094568
  0
ARC
  5
4FF
100
AcDbEntity
  8
0
370
    -3
390
0
  6
Continuous
100
AcDbCircle
 10
-487.994075
 20
-420.929149
 30
0.0
 40
300.8
100
AcDbArc
 50
90.0
 51
94.33985
  0
ARC
  5
500
100
AcDbEntity
  8
0
370
    -3
390
0
  6
Continuous
100
AcDbCircle
 10
-261.994075
 20
-194.929149
 30
0.0
 40
300.8
100
AcDbArc
 50
175.66015
 51
180.0
  0
ARC
  5
501
100
AcDbEntity
  8
0
370
    -3
390
0
  6
Continuous
100
AcDbCircle
 10
-487.994075
 20
-194.929149
 30
0.0
 40
80.8
100
AcDbArc
 50
129.094568
 51
140.905432
  0
LINE
  5
502
100
AcDbEntity
  8
0
370
    -3
390
0
  6
Continuous
100
AcDbLine
 10
-542.512008
 20
-133.764413
 30
0.0
 11
-549.158812
 21
-140.411217
 31
0.0
  0
ARC
  5
503
100
AcDbEntity
  8
0
370
    -3
390
0
  6
Continuous
100
AcDbCircle
 10
-548.94668
 20
-140.623349
 30
0.0
 40
0.3
100
AcDbArc
 50
135.0
 51
225.0
  0
LINE
  5
504
100
AcDbEntity
  8
0
370
    -3
390
0
  6
Continuous
100
AcDbLine
 10
-549.158812
 20
-140.835481
 30
0.0
 11
-548.554341
 21
-141.439952
 31
0.0
  0
LINE
  5
505
100
AcDbEntity
  8
0
370
    -3
390
0
  6
Continuous
100
AcDbLine
 10
-543.219115
 20
-133.340149
 30
0.0
 11
-542.653429
 21
-133.905834
 31
0.0
  0
LINE
  5
506
100
AcDbEntity
  8
0
370
    -3
390
0
  6
Continuous
100
AcDbLine
 10
-544.880816
 20
-135.00185
 30
0.0
 11
-543.219115
 21
-133.340149
 31
0.0
  0
LINE
  5
507
100
AcDbEntity
  8
0
370
    -3
390
0
  6
Continuous
100
AcDbLine
 10
-549.583076
 20
-139.70411
 30
0.0
 11
-549.017391
 21
-140.269795
 31
0.0
  0
LINE
  5
508
100
AcDbEntity
  8
0
370
    -3
390
0
  6
Continuous
100
AcDbLine
 10
-547.921375
 20
-138.042409
 30
0.0
 11
-549.583076
 21
-139.70411
 31
0.0
  0
ARC
  5
509
100
AcDbEntity
  8
0
370
    -3
390
0
  6
Continuous
100
AcDbCircle
 10
-542.299876
 20
-133.976545
 30
0.0
 40
0.3
100
AcDbArc
 50
45.0
 51
135.0
  0
LINE
  5
50A
100
AcDbEntity
  8
0
370
    -3
390
0
  6
Continuous
100
AcDbLine
 10
-542.087744
 20
-133.764413
 30
0.0
 11
-541.483273
 21
-134.368884
 31
0.0
  0
ARC
  5
50B
100
AcDbEntity
  8
0
370
    -3
390
0
  6
Continuous
100
AcDbCircle
 10
-506.912142
 20
-171.645964
 30
0.0
 40
50.8
100
AcDbArc
 50
94.33985
 51
129.094568
  0
ARC
  5
50C
100
AcDbEntity
  8
0
370
    -3
390
0
  6
Continuous
100
AcDbCircle
 10
-511.277261
 20
-176.011082
 30
0.0
 40
50.8
100
AcDbArc
 50
140.905432
 51
175.66015
  0
ARC
  5
50D
100
AcDbEntity
  8
0
370
    -3
390
0
  6
Continuous
100
AcDbCircle
 10
-413.794075
 20
-216.329149
 30
0.0
 40
3.2
100
AcDbArc
 50
262.236305
 51
270.0
  0
ARC
  5
50E
100
AcDbEntity
  8
0
370
    -3
390
0
  6
Continuous
100
AcDbCircle
 10
-487.994075
 20
31.070851
 30
0.0
 40
300.8
100
AcDbArc
 50
265.66015
 51
270.0
  0
ARC
  5
50F
100
AcDbEntity
  8
0
370
    -3
390
0
  6
Continuous
100
AcDbCircle
 10
-261.994075
 20
-194.929149
 30
0.0
 40
300.8
100
AcDbArc
 50
180.0
 51
184.33985
  0
ARC
  5
510
100
AcDbEntity
  8
0
370
    -3
390
0
  6
Continuous
100
AcDbCircle
 10
-487.994075
 20
-194.929149
 30
0.0
 40
80.8
100
AcDbArc
 50
219.094568
 51
230.905432
  0
LINE
  5
511
100
AcDbEntity
  8
0
370
    -3
390
0
  6
Continuous
100
AcDbLine
 10
-542.512008
 20
-256.093886
 30
0.0
 11
-549.158812
 21
-249.447082
 31
0.0
  0
ARC
  5
512
100
AcDbEntity
  8
0
370
    -3
390
0
  6
Continuous
100
AcDbCircle
 10
-413.794075
 20
-173.529149
 30
0.0
 40
3.2
100
AcDbArc
 50
90.0
 51
97.763695
  0
ARC
  5
513
100
AcDbEntity
  8
0
370
    -3
390
0
  6
Continuous
100
AcDbCircle
 10
-359.112468
 20
-251.106056
 30
0.0
 40
9.0
100
AcDbArc
 50
7.398452
 51
40.601531
  0
ARC
  5
514
100
AcDbEntity
  8
0
370
    -3
390
0
  6
Continuous
100
AcDbCircle
 10
-351.476572
 20
-250.114537
 30
0.0
 40
1.299999
100
AcDbArc
 50
293.999982
 51
7.398452
  0
LINE
  5
515
100
AcDbEntity
  8
0
370
    -3
390
0
  6
CENTER
100
AcDbLine
 10
-376.994075
 20
-227.046626
 30
0.0
 11
-376.994075
 21
-249.915135
 31
0.0
  0
LINE
  5
516
100
AcDbEntity
  8
0
370
    -3
390
0
  6
Continuous
100
AcDbLine
 10
-399.688639
 20
-153.578141
 30
0.0
 11
-353.971441
 21
-256.26065
 31
0.0
  0
LINE
  5
517
100
AcDbEntity
  8
0
370
    -3
390
0
  6
Continuous
100
AcDbLine
 10
-401.994075
 20
-163.929149
 30
0.0
 11
-401.994075
 21
-225.929149
 31
0.0
  0
LINE
  5
518
100
AcDbEntity
  8
0
370
    -3
390
0
  6
Continuous
100
AcDbLine
 10
-400.994075
 20
-162.237545
 30
0.0
 11
-400.994075
 21
-236.429149
 31
0.0
  0
LINE
  5
519
100
AcDbEntity
  8
0
370
    -3
390
0
  6
Continuous
100
AcDbLine
 10
-401.994075
 20
-225.929149
 30
0.0
 11
-400.994075
 21
-225.929149
 31
0.0
  0
LINE
  5
51A
100
AcDbEntity
  8
0
370
    -3
390
0
  6
Continuous
100
AcDbLine
 10
-355.923776
 20
-251.875632
 30
0.0
 11
-359.440926
 21
-253.441568
 31
0.0
  0
LINE
  5
51B
100
AcDbEntity
  8
0
370
    -3
390
0
  6
Continuous
100
AcDbLine
 10
-357.550723
 20
-248.22145
 30
0.0
 11
-361.067873
 21
-249.787387
 31
0.0
  0
ARC
  5
51C
100
AcDbEntity
  8
0
370
    -3
390
0
  6
Continuous
100
AcDbCircle
 10
-356.624062
 20
-239.051784
 30
0.0
 40
2.0
100
AcDbArc
 50
294.0
 51
355.768662
  0
ARC
  5
51D
100
AcDbEntity
  8
0
370
    -3
390
0
  6
Continuous
100
AcDbCircle
 10
-355.199388
 20
-241.701387
 30
0.0
 40
1.0
100
AcDbArc
 50
114.0
 51
204.0
  0
LINE
  5
51E
100
AcDbEntity
  8
0
370
    -3
390
0
  6
Continuous
100
AcDbLine
 10
-377.118366
 20
-194.929149
 30
0.0
 11
-350.906704
 21
-253.801506
 31
0.0
  0
ARC
  5
51F
100
AcDbEntity
  8
0
370
    -3
390
0
  6
Continuous
100
AcDbCircle
 10
-351.82025
 20
-254.208242
 30
0.0
 40
1.0
100
AcDbArc
 50
294.0
 51
24.0
  0
LINE
  5
520
100
AcDbEntity
  8
0
370
    -3
390
0
  6
Continuous
100
AcDbLine
 10
-351.413513
 20
-255.121788
 30
0.0
 11
-353.971441
 21
-256.26065
 31
0.0
  0
LINE
  5
521
100
AcDbEntity
  8
0
370
    -3
390
0
  6
Continuous
100
AcDbLine
 10
-395.994075
 20
-241.429149
 30
0.0
 11
-360.57485
 21
-241.429149
 31
0.0
  0
ARC
  5
522
100
AcDbEntity
  8
0
370
    -3
390
0
  6
Continuous
100
AcDbCircle
 10
-395.994075
 20
-236.429149
 30
0.0
 40
5.0
100
AcDbArc
 50
180.0
 51
270.0
  0
LINE
  5
523
100
AcDbEntity
  8
0
370
    -3
390
0
  6
Continuous
100
AcDbLine
 10
-401.994075
 20
-163.929149
 30
0.0
 11
-400.994075
 21
-163.929149
 31
0.0
  0
ARC
  5
524
100
AcDbEntity
  8
0
370
    -3
390
0
  6
Continuous
100
AcDbCircle
 10
-397.994075
 20
-162.237545
 30
0.0
 40
3.0
100
AcDbArc
 50
114.0
 51
180.0
  0
LINE
  5
525
100
AcDbEntity
  8
0
370
    -3
390
0
  6
Continuous
100
AcDbLine
 10
-397.410914
 20
-158.693996
 30
0.0
 11
-399.214285
 21
-159.496908
 31
0.0
  0
LINE
  5
526
100
AcDbEntity
  8
0
370
    -3
390
0
  6
Continuous
100
AcDbLine
 10
-397.130712
 20
-152.439278
 30
0.0
 11
-399.688639
 21
-153.578141
 31
0.0
  0
ARC
  5
527
100
AcDbEntity
  8
0
370
    -3
390
0
  6
Continuous
100
AcDbCircle
 10
-354.028026
 20
-244.332309
 30
0.0
 40
1.0
100
AcDbArc
 50
175.284875
 51
204.0
  0
ARC
  5
528
100
AcDbEntity
  8
0
370
    -3
390
0
  6
Continuous
100
AcDbCircle
 10
-952.994075
 20
-194.929149
 30
0.0
 40
600.0
100
AcDbArc
 50
355.284875
 51
1.682769
  0
ARC
  5
529
100
AcDbEntity
  8
0
370
    -3
390
0
  6
Continuous
100
AcDbCircle
 10
-368.246364
 20
-177.750254
 30
0.0
 40
15.0
100
AcDbArc
 50
1.682769
 51
80.681877
  0
LINE
  5
52A
100
AcDbEntity
  8
0
370
    -3
390
0
  6
Continuous
100
AcDbLine
 10
-391.773262
 20
-158.689356
 30
0.0
 11
-365.817625
 21
-162.948185
 31
0.0
  0
ARC
  5
52B
100
AcDbEntity
  8
0
370
    -3
390
0
  6
Continuous
100
AcDbCircle
 10
-391.287514
 20
-155.728943
 30
0.0
 40
3.0
100
AcDbArc
 50
204.0
 51
260.681877
  0
LINE
  5
52C
100
AcDbEntity
  8
0
370
    -3
390
0
  6
Continuous
100
AcDbLine
 10
-395.81043
 20
-152.946087
 30
0.0
 11
-377.118366
 21
-194.929149
 31
0.0
  0
LINE
  5
52D
100
AcDbEntity
  8
0
370
    -3
390
0
  6
Continuous
100
AcDbLine
 10
-399.359478
 20
-156.272479
 30
0.0
 11
-398.623075
 21
-156.585064
 31
0.0
  0
LINE
  5
52E
100
AcDbEntity
  8
0
370
    -3
390
0
  6
Continuous
100
AcDbLine
 10
-398.489733
 20
-156.27093
 30
0.0
 11
-398.623075
 21
-156.585064
 31
0.0
  0
LINE
  5
52F
100
AcDbEntity
  8
0
370
    -3
390
0
  6
Continuous
100
AcDbLine
 10
-398.934646
 20
-155.271637
 30
0.0
 11
-399.359478
 21
-156.272479
 31
0.0
  0
ARC
  5
530
100
AcDbEntity
  8
0
370
    -3
390
0
  6
Continuous
100
AcDbCircle
 10
-353.266214
 20
-246.094936
 30
0.0
 40
1.299999
100
AcDbArc
 50
40.601531
 51
114.000001
  0
LINE
  5
531
100
AcDbEntity
  8
0
370
    -3
390
0
  6
Continuous
100
AcDbLine
 10
-354.689355
 20
-245.305533
 30
0.0
 11
-353.794971
 21
-244.907328
 31
0.0
  0
LINE
  5
532
100
AcDbEntity
  8
0
370
    -3
390
0
  6
Continuous
100
AcDbLine
 10
-351.842199
 20
-251.700351
 30
0.0
 11
-350.947815
 21
-251.302146
 31
0.0
  0
LINE
  5
533
100
AcDbEntity
  8
0
370
    -3
390
0
  6
Continuous
100
AcDbLine
 10
-354.689355
 20
-245.305533
 30
0.0
 11
-351.842199
 21
-251.700351
 31
0.0
  0
LINE
  5
534
100
AcDbEntity
  8
0
370
    -3
390
0
  6
Continuous
100
AcDbLine
 10
-354.689355
 20
-245.305533
 30
0.0
 11
-351.842199
 21
-251.700351
 31
0.0
  0
POINT
  5
535
100
AcDbEntity
  8
0
370
    -3
390
0
  6
Continuous
100
AcDbPoint
 10
-353.265777
 20
-248.502942
 30
0.0
  0
LINE
  5
536
100
AcDbEntity
  8
0
370
    -3
390
0
  6
Continuous
100
AcDbLine
 10
-361.245256
 20
-250.249485
 30
0.0
 11
-359.903025
 21
-253.264185
 31
0.0
  0
LINE
  5
537
100
AcDbEntity
  8
0
370
    -3
390
0
  6
Continuous
100
AcDbLine
 10
-359.440926
 20
-253.441568
 30
0.0
 11
-359.903025
 21
-253.264185
 31
0.0
  0
LINE
  5
538
100
AcDbEntity
  8
0
370
    -3
390
0
  6
Continuous
100
AcDbLine
 10
-361.067873
 20
-249.787387
 30
0.0
 11
-361.245256
 21
-250.249485
 31
0.0
  0
LINE
  5
539
100
AcDbEntity
  8
0
370
    -3
390
0
  6
Continuous
100
AcDbLine
 10
-357.408365
 20
-248.541191
 30
0.0
 11
-361.245256
 21
-250.249485
 31
0.0
  0
LINE
  5
53A
100
AcDbEntity
  8
0
370
    -3
390
0
  6
Continuous
100
AcDbLine
 10
-356.066134
 20
-251.555891
 30
0.0
 11
-359.903025
 21
-253.264185
 31
0.0
  0
ARC
  5
53B
100
AcDbEntity
  8
0
370
    -3
390
0
  6
Continuous
100
AcDbCircle
 10
-396.723975
 20
-153.352824
 30
0.0
 40
1.0
100
AcDbArc
 50
24.0
 51
114.0
  0
LINE
  5
53C
100
AcDbEntity
  8
0
370
    -3
390
0
  6
Continuous
100
AcDbLine
 10
-401.994075
 20
-225.929149
 30
0.0
 11
-403.594075
 21
-225.929149
 31
0.0
  0
LINE
  5
53D
100
AcDbEntity
  8
0
370
    -3
390
0
  6
Continuous
100
AcDbLine
 10
-401.994075
 20
-194.929149
 30
0.0
 11
-401.994075
 21
-225.929149
 31
0.0
  0
LINE
  5
53E
100
AcDbEntity
  8
0
370
    -3
390
0
  6
Continuous
100
AcDbLine
 10
-401.994075
 20
-194.929149
 30
0.0
 11
-401.994075
 21
-163.929149
 31
0.0
  0
LINE
  5
53F
100
AcDbEntity
  8
0
370
    -3
390
0
  6
Continuous
100
AcDbLine
 10
-401.994075
 20
-163.929149
 30
0.0
 11
-403.594075
 21
-163.929149
 31
0.0
  0
LINE
  5
540
100
AcDbEntity
  8
0
370
    -3
390
0
  6
Continuous
100
AcDbLine
 10
-403.594075
 20
-225.929149
 30
0.0
 11
-403.594075
 21
-163.929149
 31
0.0
  0
LINE
  5
541
100
AcDbEntity
  8
0
370
    -3
390
0
  6
Continuous
100
AcDbLine
 10
-405.594075
 20
-170.329149
 30
0.0
 11
-413.794075
 21
-170.329149
 31
0.0
  0
ARC
  5
542
100
AcDbEntity
  8
0
370
    -3
390
0
  6
Continuous
100
AcDbCircle
 10
-405.594075
 20
-168.329149
 30
0.0
 40
2.0
100
AcDbArc
 50
270.0
 51
0.0
  0
LINE
  5
543
100
AcDbEntity
  8
0
370
    -3
390
0
  6
Continuous
100
AcDbLine
 10
-405.594075
 20
-219.529149
 30
0.0
 11
-413.794075
 21
-219.529149
 31
0.0
  0
ARC
  5
544
100
AcDbEntity
  8
0
370
    -3
390
0
  6
Continuous
100
AcDbCircle
 10
-405.594075
 20
-221.529149
 30
0.0
 40
2.0
100
AcDbArc
 50
0.0
 51
90.0
  0
ARC
  5
545
100
AcDbEntity
  8
0
370
    -3
390
0
  6
Continuous
100
AcDbCircle
 10
-548.94668
 20
-249.23495
 30
0.0
 40
0.3
100
AcDbArc
 50
135.0
 51
225.0
  0
LINE
  5
546
100
AcDbEntity
  8
0
370
    -3
390
0
  6
Continuous
100
AcDbLine
 10
-549.158812
 20
-249.022818
 30
0.0
 11
-548.554341
 21
-248.418347
 31
0.0
  0
LINE
  5
547
100
AcDbEntity
  8
0
370
    -3
390
0
  6
Continuous
100
AcDbLine
 10
-543.219115
 20
-256.51815
 30
0.0
 11
-542.653429
 21
-255.952465
 31
0.0
  0
LINE
  5
548
100
AcDbEntity
  8
0
370
    -3
390
0
  6
Continuous
100
AcDbLine
 10
-544.880816
 20
-254.856449
 30
0.0
 11
-543.219115
 21
-256.51815
 31
0.0
  0
LINE
  5
549
100
AcDbEntity
  8
0
370
    -3
390
0
  6
Continuous
100
AcDbLine
 10
-549.583076
 20
-250.154189
 30
0.0
 11
-549.017391
 21
-249.588504
 31
0.0
  0
LINE
  5
54A
100
AcDbEntity
  8
0
370
    -3
390
0
  6
Continuous
100
AcDbLine
 10
-547.921375
 20
-251.81589
 30
0.0
 11
-549.583076
 21
-250.154189
 31
0.0
  0
ARC
  5
54B
100
AcDbEntity
  8
0
370
    -3
390
0
  6
Continuous
100
AcDbCircle
 10
-542.299876
 20
-255.881754
 30
0.0
 40
0.3
100
AcDbArc
 50
225.0
 51
315.0
  0
LINE
  5
54C
100
AcDbEntity
  8
0
370
    -3
390
0
  6
Continuous
100
AcDbLine
 10
-542.087744
 20
-256.093886
 30
0.0
 11
-541.483273
 21
-255.489415
 31
0.0
  0
ARC
  5
54D
100
AcDbEntity
  8
0
370
    -3
390
0
  6
Continuous
100
AcDbCircle
 10
-506.912142
 20
-218.212335
 30
0.0
 40
50.8
100
AcDbArc
 50
230.905432
 51
265.66015
  0
ARC
  5
54E
100
AcDbEntity
  8
0
370
    -3
390
0
  6
Continuous
100
AcDbCircle
 10
-511.277261
 20
-213.847216
 30
0.0
 40
50.8
100
AcDbArc
 50
184.33985
 51
219.094568
  0
ARC
  5
54F
100
AcDbEntity
  8
0
370
    -3
390
0
  6
Continuous
100
AcDbCircle
 10
-531.477679
 20
-164.627727
 30
0.0
 40
2.0
100
AcDbArc
 50
145.1294
 51
240.0
  0
ARC
  5
550
100
AcDbEntity
  8
0
370
    -3
390
0
  6
Continuous
100
AcDbCircle
 10
-529.739103
 20
-165.631494
 30
0.0
 40
2.0
100
AcDbArc
 50
240.0
 51
324.937907
  0
ARC
  5
551
100
AcDbEntity
  8
0
370
    -3
390
0
  6
Continuous
100
AcDbCircle
 10
-536.395609
 20
-173.335364
 30
0.0
 40
2.0
100
AcDbArc
 50
60.0
 51
155.956512
  0
ARC
  5
552
100
AcDbEntity
  8
0
370
    -3
390
0
  6
Continuous
100
AcDbCircle
 10
-534.653784
 20
-174.341007
 30
0.0
 40
2.0
100
AcDbArc
 50
336.190997
 51
60.0
  0
ARC
  5
553
100
AcDbEntity
  8
0
370
    -3
390
0
  6
Continuous
100
AcDbCircle
 10
-534.239103
 20
-216.432576
 30
0.0
 40
2.0
100
AcDbArc
 50
300.0
 51
24.937907
  0
ARC
  5
554
100
AcDbEntity
  8
0
370
    -3
390
0
  6
Continuous
100
AcDbCircle
 10
-535.977679
 20
-217.436343
 30
0.0
 40
2.0
100
AcDbArc
 50
205.1294
 51
300.0
  0
ARC
  5
555
100
AcDbEntity
  8
0
370
    -3
390
0
  6
Continuous
100
AcDbCircle
 10
-531.477679
 20
-225.230572
 30
0.0
 40
2.0
100
AcDbArc
 50
120.0
 51
214.8706
  0
ARC
  5
556
100
AcDbEntity
  8
0
370
    -3
390
0
  6
Continuous
100
AcDbCircle
 10
-529.739103
 20
-224.226805
 30
0.0
 40
2.0
100
AcDbArc
 50
35.062093
 51
120.0
  0
ARC
  5
557
100
AcDbEntity
  8
0
370
    -3
390
0
  6
Continuous
100
AcDbCircle
 10
-493.494075
 20
-245.631713
 30
0.0
 40
2.0
100
AcDbArc
 50
0.0
 51
83.809003
  0
ARC
  5
558
100
AcDbEntity
  8
0
370
    -3
390
0
  6
Continuous
100
AcDbCircle
 10
-493.494075
 20
-247.643
 30
0.0
 40
2.0
100
AcDbArc
 50
264.043488
 51
0.0
  0
ARC
  5
559
100
AcDbEntity
  8
0
370
    -3
390
0
  6
Continuous
100
AcDbCircle
 10
-482.494075
 20
-247.643
 30
0.0
 40
2.0
100
AcDbArc
 50
180.0
 51
275.956512
  0
ARC
  5
55A
100
AcDbEntity
  8
0
370
    -3
390
0
  6
Continuous
100
AcDbCircle
 10
-482.494075
 20
-245.631713
 30
0.0
 40
2.0
100
AcDbArc
 50
96.190997
 51
180.0
  0
ARC
  5
55B
100
AcDbEntity
  8
0
370
    -3
390
0
  6
Continuous
100
AcDbCircle
 10
-482.494075
 20
-237.575955
 30
0.0
 40
2.0
100
AcDbArc
 50
180.0
 51
277.348661
  0
ARC
  5
55C
100
AcDbEntity
  8
0
370
    -3
390
0
  6
Continuous
100
AcDbCircle
 10
-493.494075
 20
-237.575955
 30
0.0
 40
2.0
100
AcDbArc
 50
262.651339
 51
0.0
  0
ARC
  5
55D
100
AcDbEntity
  8
0
370
    -3
390
0
  6
Continuous
100
AcDbCircle
 10
-493.494075
 20
-227.467588
 30
0.0
 40
2.0
100
AcDbArc
 50
260.405932
 51
0.0
  0
ARC
  5
55E
100
AcDbEntity
  8
0
370
    -3
390
0
  6
Continuous
100
AcDbCircle
 10
-482.494075
 20
-227.467588
 30
0.0
 40
2.0
100
AcDbArc
 50
180.0
 51
279.594068
  0
ARC
  5
55F
100
AcDbEntity
  8
0
370
    -3
390
0
  6
Continuous
100
AcDbCircle
 10
-482.494075
 20
-217.261861
 30
0.0
 40
2.0
100
AcDbArc
 50
180.0
 51
283.835224
  0
ARC
  5
560
100
AcDbEntity
  8
0
370
    -3
390
0
  6
Continuous
100
AcDbCircle
 10
-493.494075
 20
-217.261861
 30
0.0
 40
2.0
100
AcDbArc
 50
256.164776
 51
0.0
  0
ARC
  5
561
100
AcDbEntity
  8
0
370
    -3
390
0
  6
Continuous
100
AcDbCircle
 10
-493.494075
 20
-204.455429
 30
0.0
 40
2.0
100
AcDbArc
 50
0.0
 51
60.0
  0
ARC
  5
562
100
AcDbEntity
  8
0
370
    -3
390
0
  6
Continuous
100
AcDbCircle
 10
-494.436745
 20
-203.844979
 30
0.0
 40
2.0
100
AcDbArc
 50
54.14774
 51
120.0
  0
ARC
  5
563
100
AcDbEntity
  8
0
370
    -3
390
0
  6
Continuous
100
AcDbCircle
 10
-496.30639
 20
-204.924419
 30
0.0
 40
2.0
100
AcDbArc
 50
120.0
 51
230.252247
  0
ARC
  5
564
100
AcDbEntity
  8
0
370
    -3
390
0
  6
Continuous
100
AcDbCircle
 10
-493.494075
 20
-206.708368
 30
0.0
 40
2.0
100
AcDbArc
 50
244.971001
 51
0.0
  0
ARC
  5
565
100
AcDbEntity
  8
0
370
    -3
390
0
  6
Continuous
100
AcDbCircle
 10
-503.508154
 20
-209.082359
 30
0.0
 40
2.0
100
AcDbArc
 50
42.373625
 51
120.0
  0
ARC
  5
566
100
AcDbEntity
  8
0
370
    -3
390
0
  6
Continuous
100
AcDbCircle
 10
-505.2777
 20
-210.104007
 30
0.0
 40
2.0
100
AcDbArc
 50
120.0
 51
221.282824
  0
ARC
  5
567
100
AcDbEntity
  8
0
370
    -3
390
0
  6
Continuous
100
AcDbCircle
 10
-512.306502
 20
-214.162088
 30
0.0
 40
2.0
100
AcDbArc
 50
38.346619
 51
120.0
  0
ARC
  5
568
100
AcDbEntity
  8
0
370
    -3
390
0
  6
Continuous
100
AcDbCircle
 10
-514.055954
 20
-215.172135
 30
0.0
 40
2.0
100
AcDbArc
 50
120.0
 51
217.83748
  0
ARC
  5
569
100
AcDbEntity
  8
0
370
    -3
390
0
  6
Continuous
100
AcDbCircle
 10
-521.036603
 20
-219.202414
 30
0.0
 40
2.0
100
AcDbArc
 50
36.301256
 51
120.0
  0
ARC
  5
56A
100
AcDbEntity
  8
0
370
    -3
390
0
  6
Continuous
100
AcDbCircle
 10
-522.778687
 20
-220.208207
 30
0.0
 40
2.0
100
AcDbArc
 50
120.0
 51
216.007069
  0
ARC
  5
56B
100
AcDbEntity
  8
0
370
    -3
390
0
  6
Continuous
100
AcDbCircle
 10
-527.278687
 20
-212.413978
 30
0.0
 40
2.0
100
AcDbArc
 50
203.992931
 51
300.0
  0
ARC
  5
56C
100
AcDbEntity
  8
0
370
    -3
390
0
  6
Continuous
100
AcDbCircle
 10
-525.536603
 20
-211.408185
 30
0.0
 40
2.0
100
AcDbArc
 50
300.0
 51
23.698744
  0
ARC
  5
56D
100
AcDbEntity
  8
0
370
    -3
390
0
  6
Continuous
100
AcDbCircle
 10
-527.677292
 20
-178.368887
 30
0.0
 40
2.0
100
AcDbArc
 50
60.0
 51
157.348661
  0
ARC
  5
56E
100
AcDbEntity
  8
0
370
    -3
390
0
  6
Continuous
100
AcDbCircle
 10
-522.778687
 20
-169.650092
 30
0.0
 40
2.0
100
AcDbArc
 50
143.992931
 51
240.0
  0
ARC
  5
56F
100
AcDbEntity
  8
0
370
    -3
390
0
  6
Continuous
100
AcDbCircle
 10
-521.036603
 20
-170.655885
 30
0.0
 40
2.0
100
AcDbArc
 50
240.0
 51
323.698744
  0
ARC
  5
570
100
AcDbEntity
  8
0
370
    -3
390
0
  6
Continuous
100
AcDbCircle
 10
-493.494075
 20
-142.215299
 30
0.0
 40
2.0
100
AcDbArc
 50
0.0
 51
95.956512
  0
ARC
  5
571
100
AcDbEntity
  8
0
370
    -3
390
0
  6
Continuous
100
AcDbCircle
 10
-493.494075
 20
-144.226585
 30
0.0
 40
2.0
100
AcDbArc
 50
276.190997
 51
0.0
  0
ARC
  5
572
100
AcDbEntity
  8
0
370
    -3
390
0
  6
Continuous
100
AcDbCircle
 10
-493.494075
 20
-152.282344
 30
0.0
 40
2.0
100
AcDbArc
 50
0.0
 51
97.348661
  0
ARC
  5
573
100
AcDbEntity
  8
0
370
    -3
390
0
  6
Continuous
100
AcDbCircle
 10
-493.494075
 20
-162.390711
 30
0.0
 40
2.0
100
AcDbArc
 50
0.0
 51
99.594068
  0
ARC
  5
574
100
AcDbEntity
  8
0
370
    -3
390
0
  6
Continuous
100
AcDbCircle
 10
-493.494075
 20
-172.596438
 30
0.0
 40
2.0
100
AcDbArc
 50
0.0
 51
103.835224
  0
ARC
  5
575
100
AcDbEntity
  8
0
370
    -3
390
0
  6
Continuous
100
AcDbCircle
 10
-493.494075
 20
-174.662181
 30
0.0
 40
2.0
100
AcDbArc
 50
285.183114
 51
0.0
  0
ARC
  5
576
100
AcDbEntity
  8
0
370
    -3
390
0
  6
Continuous
100
AcDbCircle
 10
-493.494075
 20
-183.14993
 30
0.0
 40
2.0
100
AcDbArc
 50
0.0
 51
115.028999
  0
ARC
  5
577
100
AcDbEntity
  8
0
370
    -3
390
0
  6
Continuous
100
AcDbCircle
 10
-496.30639
 20
-184.93388
 30
0.0
 40
2.0
100
AcDbArc
 50
129.747753
 51
240.0
  0
ARC
  5
578
100
AcDbEntity
  8
0
370
    -3
390
0
  6
Continuous
100
AcDbCircle
 10
-503.508154
 20
-180.775939
 30
0.0
 40
2.0
100
AcDbArc
 50
240.0
 51
317.626375
  0
ARC
  5
579
100
AcDbEntity
  8
0
370
    -3
390
0
  6
Continuous
100
AcDbCircle
 10
-505.2777
 20
-179.754292
 30
0.0
 40
2.0
100
AcDbArc
 50
138.717176
 51
240.0
  0
ARC
  5
57A
100
AcDbEntity
  8
0
370
    -3
390
0
  6
Continuous
100
AcDbCircle
 10
-512.306502
 20
-175.696211
 30
0.0
 40
2.0
100
AcDbArc
 50
240.0
 51
321.653381
  0
ARC
  5
57B
100
AcDbEntity
  8
0
370
    -3
390
0
  6
Continuous
100
AcDbCircle
 10
-514.055954
 20
-174.686164
 30
0.0
 40
2.0
100
AcDbArc
 50
142.16252
 51
240.0
  0
ARC
  5
57C
100
AcDbEntity
  8
0
370
    -3
390
0
  6
Continuous
100
AcDbCircle
 10
-518.92319
 20
-183.42307
 30
0.0
 40
2.0
100
AcDbArc
 50
60.0
 51
159.594068
  0
ARC
  5
57D
100
AcDbEntity
  8
0
370
    -3
390
0
  6
Continuous
100
AcDbCircle
 10
-510.084771
 20
-188.525933
 30
0.0
 40
2.0
100
AcDbArc
 50
60.0
 51
163.835224
  0
ARC
  5
57E
100
AcDbEntity
  8
0
370
    -3
390
0
  6
Continuous
100
AcDbCircle
 10
-508.295785
 20
-189.558805
 30
0.0
 40
2.0
100
AcDbArc
 50
345.183114
 51
60.0
  0
ARC
  5
57F
100
AcDbEntity
  8
0
370
    -3
390
0
  6
Continuous
100
AcDbCircle
 10
-500.945178
 20
-193.80268
 30
0.0
 40
2.0
100
AcDbArc
 50
60.0
 51
175.028999
  0
ARC
  5
580
100
AcDbEntity
  8
0
370
    -3
390
0
  6
Continuous
100
AcDbCircle
 10
-500.80639
 20
-197.130191
 30
0.0
 40
2.0
100
AcDbArc
 50
189.747753
 51
300.0
  0
ARC
  5
581
100
AcDbEntity
  8
0
370
    -3
390
0
  6
Continuous
100
AcDbCircle
 10
-508.008154
 20
-201.288131
 30
0.0
 40
2.0
100
AcDbArc
 50
300.0
 51
17.626375
  0
ARC
  5
582
100
AcDbEntity
  8
0
370
    -3
390
0
  6
Continuous
100
AcDbCircle
 10
-509.7777
 20
-202.309779
 30
0.0
 40
2.0
100
AcDbArc
 50
198.717176
 51
300.0
  0
ARC
  5
583
100
AcDbEntity
  8
0
370
    -3
390
0
  6
Continuous
100
AcDbCircle
 10
-518.555954
 20
-207.377906
 30
0.0
 40
2.0
100
AcDbArc
 50
202.16252
 51
300.0
  0
ARC
  5
584
100
AcDbEntity
  8
0
370
    -3
390
0
  6
Continuous
100
AcDbCircle
 10
-498.936745
 20
-196.05075
 30
0.0
 40
2.0
100
AcDbArc
 50
300.0
 51
5.85226
  0
ARC
  5
585
100
AcDbEntity
  8
0
370
    -3
390
0
  6
Continuous
100
AcDbCircle
 10
-498.994075
 20
-194.929149
 30
0.0
 40
2.0
100
AcDbArc
 50
0.0
 51
60.0
  0
ARC
  5
586
100
AcDbEntity
  8
0
370
    -3
390
0
  6
Continuous
100
AcDbCircle
 10
-494.436745
 20
-186.01332
 30
0.0
 40
2.0
100
AcDbArc
 50
240.0
 51
305.85226
  0
ARC
  5
587
100
AcDbEntity
  8
0
370
    -3
390
0
  6
Continuous
100
AcDbCircle
 10
-493.494075
 20
-185.40287
 30
0.0
 40
2.0
100
AcDbArc
 50
300.0
 51
0.0
  0
ARC
  5
588
100
AcDbEntity
  8
0
370
    -3
390
0
  6
Continuous
100
AcDbCircle
 10
-482.494075
 20
-185.40287
 30
0.0
 40
2.0
100
AcDbArc
 50
180.0
 51
240.0
  0
ARC
  5
589
100
AcDbEntity
  8
0
370
    -3
390
0
  6
Continuous
100
AcDbCircle
 10
-481.551406
 20
-186.01332
 30
0.0
 40
2.0
100
AcDbArc
 50
234.14774
 51
300.0
  0
ARC
  5
58A
100
AcDbEntity
  8
0
370
    -3
390
0
  6
Continuous
100
AcDbCircle
 10
-479.68176
 20
-184.93388
 30
0.0
 40
2.0
100
AcDbArc
 50
300.0
 51
50.252247
  0
ARC
  5
58B
100
AcDbEntity
  8
0
370
    -3
390
0
  6
Continuous
100
AcDbCircle
 10
-482.494075
 20
-183.14993
 30
0.0
 40
2.0
100
AcDbArc
 50
64.971001
 51
180.0
  0
ARC
  5
58C
100
AcDbEntity
  8
0
370
    -3
390
0
  6
Continuous
100
AcDbCircle
 10
-482.494075
 20
-174.662181
 30
0.0
 40
2.0
100
AcDbArc
 50
180.0
 51
254.816886
  0
ARC
  5
58D
100
AcDbEntity
  8
0
370
    -3
390
0
  6
Continuous
100
AcDbCircle
 10
-472.479996
 20
-180.775939
 30
0.0
 40
2.0
100
AcDbArc
 50
222.373625
 51
300.0
  0
ARC
  5
58E
100
AcDbEntity
  8
0
370
    -3
390
0
  6
Continuous
100
AcDbCircle
 10
-470.71045
 20
-179.754292
 30
0.0
 40
2.0
100
AcDbArc
 50
300.0
 51
41.282824
  0
ARC
  5
58F
100
AcDbEntity
  8
0
370
    -3
390
0
  6
Continuous
100
AcDbCircle
 10
-482.494075
 20
-172.596438
 30
0.0
 40
2.0
100
AcDbArc
 50
76.164776
 51
180.0
  0
ARC
  5
590
100
AcDbEntity
  8
0
370
    -3
390
0
  6
Continuous
100
AcDbCircle
 10
-493.494075
 20
-164.420954
 30
0.0
 40
2.0
100
AcDbArc
 50
280.21948
 51
0.0
  0
ARC
  5
591
100
AcDbEntity
  8
0
370
    -3
390
0
  6
Continuous
100
AcDbCircle
 10
-493.494075
 20
-154.299727
 30
0.0
 40
2.0
100
AcDbArc
 50
277.70926
 51
0.0
  0
ARC
  5
592
100
AcDbEntity
  8
0
370
    -3
390
0
  6
Continuous
100
AcDbCircle
 10
-482.494075
 20
-154.299727
 30
0.0
 40
2.0
100
AcDbArc
 50
180.0
 51
262.29074
  0
ARC
  5
593
100
AcDbEntity
  8
0
370
    -3
390
0
  6
Continuous
100
AcDbCircle
 10
-482.494075
 20
-152.282344
 30
0.0
 40
2.0
100
AcDbArc
 50
82.651339
 51
180.0
  0
ARC
  5
594
100
AcDbEntity
  8
0
370
    -3
390
0
  6
Continuous
100
AcDbCircle
 10
-482.494075
 20
-142.215299
 30
0.0
 40
2.0
100
AcDbArc
 50
84.043488
 51
180.0
  0
ARC
  5
595
100
AcDbEntity
  8
0
370
    -3
390
0
  6
Continuous
100
AcDbCircle
 10
-482.494075
 20
-144.226585
 30
0.0
 40
2.0
100
AcDbArc
 50
180.0
 51
263.809003
  0
ARC
  5
596
100
AcDbEntity
  8
0
370
    -3
390
0
  6
Continuous
100
AcDbCircle
 10
-453.209463
 20
-169.650092
 30
0.0
 40
2.0
100
AcDbArc
 50
300.0
 51
36.007069
  0
ARC
  5
597
100
AcDbEntity
  8
0
370
    -3
390
0
  6
Continuous
100
AcDbCircle
 10
-454.951548
 20
-170.655885
 30
0.0
 40
2.0
100
AcDbArc
 50
216.301256
 51
300.0
  0
ARC
  5
598
100
AcDbEntity
  8
0
370
    -3
390
0
  6
Continuous
100
AcDbCircle
 10
-461.932196
 20
-174.686164
 30
0.0
 40
2.0
100
AcDbArc
 50
300.0
 51
37.83748
  0
ARC
  5
599
100
AcDbEntity
  8
0
370
    -3
390
0
  6
Continuous
100
AcDbCircle
 10
-463.681649
 20
-175.696211
 30
0.0
 40
2.0
100
AcDbArc
 50
218.346619
 51
300.0
  0
ARC
  5
59A
100
AcDbEntity
  8
0
370
    -3
390
0
  6
Continuous
100
AcDbCircle
 10
-482.494075
 20
-164.420954
 30
0.0
 40
2.0
100
AcDbArc
 50
180.0
 51
259.78052
  0
ARC
  5
59B
100
AcDbEntity
  8
0
370
    -3
390
0
  6
Continuous
100
AcDbCircle
 10
-482.494075
 20
-162.390711
 30
0.0
 40
2.0
100
AcDbArc
 50
80.405932
 51
180.0
  0
ARC
  5
59C
100
AcDbEntity
  8
0
370
    -3
390
0
  6
Continuous
100
AcDbCircle
 10
-444.510472
 20
-164.627727
 30
0.0
 40
2.0
100
AcDbArc
 50
300.0
 51
34.8706
  0
ARC
  5
59D
100
AcDbEntity
  8
0
370
    -3
390
0
  6
Continuous
100
AcDbCircle
 10
-446.249047
 20
-165.631494
 30
0.0
 40
2.0
100
AcDbArc
 50
215.062093
 51
300.0
  0
ARC
  5
59E
100
AcDbEntity
  8
0
370
    -3
390
0
  6
Continuous
100
AcDbCircle
 10
-439.592542
 20
-173.335364
 30
0.0
 40
2.0
100
AcDbArc
 50
24.043488
 51
120.0
  0
ARC
  5
59F
100
AcDbEntity
  8
0
370
    -3
390
0
  6
Continuous
100
AcDbCircle
 10
-441.334367
 20
-174.341007
 30
0.0
 40
2.0
100
AcDbArc
 50
120.0
 51
203.809003
  0
ARC
  5
5A0
100
AcDbEntity
  8
0
370
    -3
390
0
  6
Continuous
100
AcDbCircle
 10
-448.310859
 20
-178.368887
 30
0.0
 40
2.0
100
AcDbArc
 50
22.651339
 51
120.0
  0
ARC
  5
5A1
100
AcDbEntity
  8
0
370
    -3
390
0
  6
Continuous
100
AcDbCircle
 10
-450.057963
 20
-179.377578
 30
0.0
 40
2.0
100
AcDbArc
 50
120.0
 51
202.29074
  0
ARC
  5
5A2
100
AcDbEntity
  8
0
370
    -3
390
0
  6
Continuous
100
AcDbCircle
 10
-457.064961
 20
-183.42307
 30
0.0
 40
2.0
100
AcDbArc
 50
20.405932
 51
120.0
  0
ARC
  5
5A3
100
AcDbEntity
  8
0
370
    -3
390
0
  6
Continuous
100
AcDbCircle
 10
-458.823203
 20
-184.438191
 30
0.0
 40
2.0
100
AcDbArc
 50
120.0
 51
199.78052
  0
ARC
  5
5A4
100
AcDbEntity
  8
0
370
    -3
390
0
  6
Continuous
100
AcDbCircle
 10
-465.90338
 20
-188.525933
 30
0.0
 40
2.0
100
AcDbArc
 50
16.164776
 51
120.0
  0
ARC
  5
5A5
100
AcDbEntity
  8
0
370
    -3
390
0
  6
Continuous
100
AcDbCircle
 10
-467.692366
 20
-189.558805
 30
0.0
 40
2.0
100
AcDbArc
 50
120.0
 51
194.816886
  0
ARC
  5
5A6
100
AcDbEntity
  8
0
370
    -3
390
0
  6
Continuous
100
AcDbCircle
 10
-475.042972
 20
-193.80268
 30
0.0
 40
2.0
100
AcDbArc
 50
4.971001
 51
120.0
  0
ARC
  5
5A7
100
AcDbEntity
  8
0
370
    -3
390
0
  6
Continuous
100
AcDbCircle
 10
-476.994075
 20
-194.929149
 30
0.0
 40
2.0
100
AcDbArc
 50
120.0
 51
180.0
  0
ARC
  5
5A8
100
AcDbEntity
  8
0
370
    -3
390
0
  6
Continuous
100
AcDbCircle
 10
-477.051406
 20
-196.05075
 30
0.0
 40
2.0
100
AcDbArc
 50
174.14774
 51
240.0
  0
ARC
  5
5A9
100
AcDbEntity
  8
0
370
    -3
390
0
  6
Continuous
100
AcDbCircle
 10
-475.18176
 20
-197.130191
 30
0.0
 40
2.0
100
AcDbArc
 50
240.0
 51
350.252247
  0
ARC
  5
5AA
100
AcDbEntity
  8
0
370
    -3
390
0
  6
Continuous
100
AcDbCircle
 10
-482.494075
 20
-204.455429
 30
0.0
 40
2.0
100
AcDbArc
 50
120.0
 51
180.0
  0
ARC
  5
5AB
100
AcDbEntity
  8
0
370
    -3
390
0
  6
Continuous
100
AcDbCircle
 10
-482.494075
 20
-206.708368
 30
0.0
 40
2.0
100
AcDbArc
 50
180.0
 51
295.028999
  0
ARC
  5
5AC
100
AcDbEntity
  8
0
370
    -3
390
0
  6
Continuous
100
AcDbCircle
 10
-479.68176
 20
-204.924419
 30
0.0
 40
2.0
100
AcDbArc
 50
309.747753
 51
60.0
  0
ARC
  5
5AD
100
AcDbEntity
  8
0
370
    -3
390
0
  6
Continuous
100
AcDbCircle
 10
-482.494075
 20
-215.196118
 30
0.0
 40
2.0
100
AcDbArc
 50
105.183114
 51
180.0
  0
ARC
  5
5AE
100
AcDbEntity
  8
0
370
    -3
390
0
  6
Continuous
100
AcDbCircle
 10
-493.494075
 20
-215.196118
 30
0.0
 40
2.0
100
AcDbArc
 50
0.0
 51
74.816886
  0
ARC
  5
5AF
100
AcDbEntity
  8
0
370
    -3
390
0
  6
Continuous
100
AcDbCircle
 10
-472.479996
 20
-209.082359
 30
0.0
 40
2.0
100
AcDbArc
 50
60.0
 51
137.626375
  0
ARC
  5
5B0
100
AcDbEntity
  8
0
370
    -3
390
0
  6
Continuous
100
AcDbCircle
 10
-470.71045
 20
-210.104007
 30
0.0
 40
2.0
100
AcDbArc
 50
318.717176
 51
60.0
  0
ARC
  5
5B1
100
AcDbEntity
  8
0
370
    -3
390
0
  6
Continuous
100
AcDbCircle
 10
-467.979996
 20
-201.288131
 30
0.0
 40
2.0
100
AcDbArc
 50
162.373625
 51
240.0
  0
ARC
  5
5B2
100
AcDbEntity
  8
0
370
    -3
390
0
  6
Continuous
100
AcDbCircle
 10
-466.21045
 20
-202.309779
 30
0.0
 40
2.0
100
AcDbArc
 50
240.0
 51
341.282824
  0
ARC
  5
5B3
100
AcDbEntity
  8
0
370
    -3
390
0
  6
Continuous
100
AcDbCircle
 10
-459.181649
 20
-206.367859
 30
0.0
 40
2.0
100
AcDbArc
 50
158.346619
 51
240.0
  0
ARC
  5
5B4
100
AcDbEntity
  8
0
370
    -3
390
0
  6
Continuous
100
AcDbCircle
 10
-463.681649
 20
-214.162088
 30
0.0
 40
2.0
100
AcDbArc
 50
60.0
 51
141.653381
  0
ARC
  5
5B5
100
AcDbEntity
  8
0
370
    -3
390
0
  6
Continuous
100
AcDbCircle
 10
-461.932196
 20
-215.172135
 30
0.0
 40
2.0
100
AcDbArc
 50
322.16252
 51
60.0
  0
ARC
  5
5B6
100
AcDbEntity
  8
0
370
    -3
390
0
  6
Continuous
100
AcDbCircle
 10
-457.432196
 20
-207.377906
 30
0.0
 40
2.0
100
AcDbArc
 50
240.0
 51
337.83748
  0
ARC
  5
5B7
100
AcDbEntity
  8
0
370
    -3
390
0
  6
Continuous
100
AcDbCircle
 10
-450.451548
 20
-211.408185
 30
0.0
 40
2.0
100
AcDbArc
 50
156.301256
 51
240.0
  0
ARC
  5
5B8
100
AcDbEntity
  8
0
370
    -3
390
0
  6
Continuous
100
AcDbCircle
 10
-448.709463
 20
-212.413978
 30
0.0
 40
2.0
100
AcDbArc
 50
240.0
 51
336.007069
  0
ARC
  5
5B9
100
AcDbEntity
  8
0
370
    -3
390
0
  6
Continuous
100
AcDbCircle
 10
-441.749047
 20
-216.432576
 30
0.0
 40
2.0
100
AcDbArc
 50
155.062093
 51
240.0
  0
ARC
  5
5BA
100
AcDbEntity
  8
0
370
    -3
390
0
  6
Continuous
100
AcDbCircle
 10
-440.010472
 20
-217.436343
 30
0.0
 40
2.0
100
AcDbArc
 50
240.0
 51
334.8706
  0
ARC
  5
5BB
100
AcDbEntity
  8
0
370
    -3
390
0
  6
Continuous
100
AcDbCircle
 10
-454.951548
 20
-219.202414
 30
0.0
 40
2.0
100
AcDbArc
 50
60.0
 51
143.698744
  0
ARC
  5
5BC
100
AcDbEntity
  8
0
370
    -3
390
0
  6
Continuous
100
AcDbCircle
 10
-444.510472
 20
-225.230572
 30
0.0
 40
2.0
100
AcDbArc
 50
325.1294
 51
60.0
  0
ARC
  5
5BD
100
AcDbEntity
  8
0
370
    -3
390
0
  6
Continuous
100
AcDbCircle
 10
-453.209463
 20
-220.208207
 30
0.0
 40
2.0
100
AcDbArc
 50
323.992931
 51
60.0
  0
ARC
  5
5BE
100
AcDbEntity
  8
0
370
    -3
390
0
  6
Continuous
100
AcDbCircle
 10
-493.494075
 20
-235.558572
 30
0.0
 40
2.0
100
AcDbArc
 50
0.0
 51
82.29074
  0
ARC
  5
5BF
100
AcDbEntity
  8
0
370
    -3
390
0
  6
Continuous
100
AcDbCircle
 10
-493.494075
 20
-225.437345
 30
0.0
 40
2.0
100
AcDbArc
 50
0.0
 51
79.78052
  0
ARC
  5
5C0
100
AcDbEntity
  8
0
370
    -3
390
0
  6
Continuous
100
AcDbCircle
 10
-482.494075
 20
-225.437345
 30
0.0
 40
2.0
100
AcDbArc
 50
100.21948
 51
180.0
  0
ARC
  5
5C1
100
AcDbEntity
  8
0
370
    -3
390
0
  6
Continuous
100
AcDbCircle
 10
-482.494075
 20
-235.558572
 30
0.0
 40
2.0
100
AcDbArc
 50
97.70926
 51
180.0
  0
ARC
  5
5C2
100
AcDbEntity
  8
0
370
    -3
390
0
  6
Continuous
100
AcDbCircle
 10
-517.164948
 20
-184.438191
 30
0.0
 40
2.0
100
AcDbArc
 50
340.21948
 51
60.0
  0
ARC
  5
5C3
100
AcDbEntity
  8
0
370
    -3
390
0
  6
Continuous
100
AcDbCircle
 10
-477.494075
 20
-100.929149
 30
0.0
 40
10.0
100
AcDbArc
 50
270.0
 51
0.0
  0
LINE
  5
5C4
100
AcDbEntity
  8
0
370
    -3
390
0
  6
Continuous
100
AcDbLine
 10
-498.494075
 20
-110.929149
 30
0.0
 11
-477.494075
 21
-110.929149
 31
0.0
  0
ARC
  5
5C5
100
AcDbEntity
  8
0
370
    -3
390
0
  6
Continuous
100
AcDbCircle
 10
-498.494075
 20
-100.929149
 30
0.0
 40
10.0
100
AcDbArc
 50
180.0
 51
270.0
  0
INSERT
  5
5D1
100
AcDbEntity
  8
0
390
0
100
AcDbBlockReference
  2
ZU_SYM__USERS_HOME_SYMBOL_POO_SYM_B20_0001918
 10
27.185988
 20
75.970739
 30
0.0
  0
INSERT
  5
5DD
100
AcDbEntity
  8
0
390
0
100
AcDbBlockReference
  2
ZU_SYM__USERS_HOME_SYMBOL_POO_SYM_B20_0002018
 10
27.185988
 20
146.970739
 30
0.0
  0
INSERT
  5
5E9
100
AcDbEntity
  8
0
390
0
100
AcDbBlockReference
  2
ZU_SYM__USERS_HOME_SYMBOL_POO_SYM_B20_0002118
 10
27.185988
 20
317.970739
 30
0.0
 41
-1.0
 50
180.0
  0
INSERT
  5
5F5
100
AcDbEntity
  8
0
390
0
100
AcDbBlockReference
  2
ZU_SYM__USERS_HOME_SYMBOL_POO_SYM_B20_0002218
 10
27.185988
 20
246.970739
 30
0.0
 41
-1.0
 50
180.0
  0
ARC
  5
5F6
100
AcDbEntity
  8
0
370
    -3
390
0
  6
Continuous
100
AcDbCircle
 10
29.185988
 20
63.970739
 30
0.0
 40
2.0
100
AcDbArc
 50
180.0
 51
270.0
  0
LINE
  5
5F7
100
AcDbEntity
  8
0
370
    -3
390
0
  6
Continuous
100
AcDbLine
 10
24.185988
 20
61.970739
 30
0.0
 11
38.685988
 21
61.970739
 31
0.0
  0
LINE
  5
5F8
100
AcDbEntity
  8
0
370
    -3
390
0
  6
Continuous
100
AcDbLine
 10
38.185988
 20
196.970739
 30
0.0
 11
38.185988
 21
61.970739
 31
0.0
  0
LINE
  5
5F9
100
AcDbEntity
  8
0
370
    -3
390
0
  6
Continuous
100
AcDbLine
 10
22.185988
 20
63.970739
 30
0.0
 11
22.185988
 21
69.470739
 31
0.0
  0
ARC
  5
5FA
100
AcDbEntity
  8
0
370
    -3
390
0
  6
Continuous
100
AcDbCircle
 10
25.185988
 20
85.012699
 30
0.0
 40
3.0
100
AcDbArc
 50
99.594068
 51
180.0
  0
LINE
  5
5FB
100
AcDbEntity
  8
0
370
    -3
390
0
  6
Continuous
100
AcDbLine
 10
27.185988
 20
196.970739
 30
0.0
 11
27.185988
 21
63.970739
 31
0.0
  0
ARC
  5
5FC
100
AcDbEntity
  8
0
370
    -3
390
0
  6
Continuous
100
AcDbCircle
 10
24.185988
 20
63.970739
 30
0.0
 40
2.0
100
AcDbArc
 50
180.0
 51
270.0
  0
LINE
  5
5FD
100
AcDbEntity
  8
0
370
    -3
390
0
  6
Continuous
100
AcDbLine
 10
22.185988
 20
82.470739
 30
0.0
 11
22.185988
 21
85.012699
 31
0.0
  0
LINE
  5
5FE
100
AcDbEntity
  8
0
370
    -3
390
0
  6
Continuous
100
AcDbLine
 10
22.360486
 20
176.115438
 30
0.0
 11
18.08129
 21
176.264871
 31
0.0
  0
LINE
  5
5FF
100
AcDbEntity
  8
0
370
    -3
390
0
  6
Continuous
100
AcDbLine
 10
15.185988
 20
196.970739
 30
0.0
 11
15.185988
 21
176.470739
 31
0.0
  0
ARC
  5
600
100
AcDbEntity
  8
0
370
    -3
390
0
  6
Continuous
100
AcDbCircle
 10
22.185988
 20
171.118484
 30
0.0
 40
5.0
100
AcDbArc
 50
0.0
 51
88.0
  0
ARC
  5
601
100
AcDbEntity
  8
0
370
    -3
390
0
  6
Continuous
100
AcDbCircle
 10
18.185988
 20
179.263043
 30
0.0
 40
3.0
100
AcDbArc
 50
180.0
 51
268.0
  0
ARC
  5
602
100
AcDbEntity
  8
0
370
    -3
390
0
  6
Continuous
100
AcDbCircle
 10
24.185988
 20
91.295479
 30
0.0
 40
3.0
100
AcDbArc
 50
0.0
 51
26.946799
  0
ARC
  5
603
100
AcDbEntity
  8
0
370
    -3
390
0
  6
Continuous
100
AcDbCircle
 10
24.185988
 20
86.644301
 30
0.0
 40
3.0
100
AcDbArc
 50
0.0
 51
26.946799
  0
ARC
  5
604
100
AcDbEntity
  8
0
370
    -3
390
0
  6
Continuous
100
AcDbCircle
 10
24.185988
 20
90.928779
 30
0.0
 40
3.0
100
AcDbArc
 50
279.594068
 51
317.606152
  0
ARC
  5
605
100
AcDbEntity
  8
0
370
    -3
390
0
  6
Continuous
100
AcDbCircle
 10
29.185988
 20
329.970739
 30
0.0
 40
2.0
100
AcDbArc
 50
90.0
 51
180.0
  0
LINE
  5
606
100
AcDbEntity
  8
0
370
    -3
390
0
  6
Continuous
100
AcDbLine
 10
24.185988
 20
331.970739
 30
0.0
 11
38.685988
 21
331.970739
 31
0.0
  0
LINE
  5
607
100
AcDbEntity
  8
0
370
    -3
390
0
  6
Continuous
100
AcDbLine
 10
38.185988
 20
196.970739
 30
0.0
 11
38.185988
 21
331.970739
 31
0.0
  0
LINE
  5
608
100
AcDbEntity
  8
0
370
    -3
390
0
  6
Continuous
100
AcDbLine
 10
22.185988
 20
329.970739
 30
0.0
 11
22.185988
 21
324.470739
 31
0.0
  0
ARC
  5
609
100
AcDbEntity
  8
0
370
    -3
390
0
  6
Continuous
100
AcDbCircle
 10
25.185988
 20
308.928779
 30
0.0
 40
3.0
100
AcDbArc
 50
180.0
 51
260.405932
  0
LINE
  5
60A
100
AcDbEntity
  8
0
370
    -3
390
0
  6
Continuous
100
AcDbLine
 10
27.185988
 20
196.970739
 30
0.0
 11
27.185988
 21
329.970739
 31
0.0
  0
ARC
  5
60B
100
AcDbEntity
  8
0
370
    -3
390
0
  6
Continuous
100
AcDbCircle
 10
24.185988
 20
329.970739
 30
0.0
 40
2.0
100
AcDbArc
 50
90.0
 51
180.0
  0
LINE
  5
60C
100
AcDbEntity
  8
0
370
    -3
390
0
  6
Continuous
100
AcDbLine
 10
22.185988
 20
311.470739
 30
0.0
 11
22.185988
 21
308.928779
 31
0.0
  0
LINE
  5
60D
100
AcDbEntity
  8
0
370
    -3
390
0
  6
Continuous
100
AcDbLine
 10
22.360486
 20
217.82604
 30
0.0
 11
18.08129
 21
217.676607
 31
0.0
  0
LINE
  5
60E
100
AcDbEntity
  8
0
370
    -3
390
0
  6
Continuous
100
AcDbLine
 10
15.185988
 20
196.970739
 30
0.0
 11
15.185988
 21
217.470739
 31
0.0
  0
ARC
  5
60F
100
AcDbEntity
  8
0
370
    -3
390
0
  6
Continuous
100
AcDbCircle
 10
22.185988
 20
222.822994
 30
0.0
 40
5.0
100
AcDbArc
 50
272.0
 51
0.0
  0
ARC
  5
610
100
AcDbEntity
  8
0
370
    -3
390
0
  6
Continuous
100
AcDbCircle
 10
18.185988
 20
214.678435
 30
0.0
 40
3.0
100
AcDbArc
 50
92.0
 51
180.0
  0
ARC
  5
611
100
AcDbEntity
  8
0
370
    -3
390
0
  6
Continuous
100
AcDbCircle
 10
24.185988
 20
302.645999
 30
0.0
 40
3.0
100
AcDbArc
 50
333.053201
 51
0.0
  0
ARC
  5
612
100
AcDbEntity
  8
0
370
    -3
390
0
  6
Continuous
100
AcDbCircle
 10
24.185988
 20
307.297177
 30
0.0
 40
3.0
100
AcDbArc
 50
333.053201
 51
0.0
  0
ARC
  5
613
100
AcDbEntity
  8
0
370
    -3
390
0
  6
Continuous
100
AcDbCircle
 10
24.185988
 20
303.012699
 30
0.0
 40
3.0
100
AcDbArc
 50
42.393848
 51
80.405932
  0
ARC
  5
614
100
AcDbEntity
  8
0
370
    -3
390
0
  6
Continuous
100
AcDbCircle
 10
115.823408
 20
109.830157
 30
0.0
 40
5.0
100
AcDbArc
 50
54.248857
 51
90.0
  0
LINE
  5
615
100
AcDbEntity
  8
0
370
    -3
390
0
  6
Continuous
100
AcDbLine
 10
118.744737
 20
113.887968
 30
0.0
 11
152.607318
 21
89.509373
 31
0.0
  0
ARC
  5
616
100
AcDbEntity
  8
0
370
    -3
390
0
  6
Continuous
100
AcDbCircle
 10
149.685988
 20
85.451561
 30
0.0
 40
5.0
100
AcDbArc
 50
0.0
 51
54.248857
  0
ARC
  5
617
100
AcDbEntity
  8
0
370
    -3
390
0
  6
Continuous
100
AcDbCircle
 10
115.823408
 20
100.989648
 30
0.0
 40
5.0
100
AcDbArc
 50
54.248857
 51
90.0
  0
ARC
  5
618
100
AcDbEntity
  8
0
370
    -3
390
0
  6
Continuous
100
AcDbCircle
 10
149.685988
 20
76.611052
 30
0.0
 40
5.0
100
AcDbArc
 50
0.0
 51
54.248857
  0
LINE
  5
619
100
AcDbEntity
  8
0
370
    -3
390
0
  6
Continuous
100
AcDbLine
 10
118.744737
 20
105.047459
 30
0.0
 11
152.607318
 21
80.668864
 31
0.0
  0
LINE
  5
61A
100
AcDbEntity
  8
0
370
    -3
390
0
  6
Continuous
100
AcDbLine
 10
149.936384
 20
114.830157
 30
0.0
 11
122.464006
 21
114.830157
 31
0.0
  0
ARC
  5
61B
100
AcDbEntity
  8
0
370
    -3
390
0
  6
Continuous
100
AcDbCircle
 10
122.43601
 20
188.470739
 30
0.0
 40
5.0
100
AcDbArc
 50
90.0
 51
180.0
  0
ARC
  5
61C
100
AcDbEntity
  8
0
370
    -3
390
0
  6
Continuous
100
AcDbCircle
 10
122.43601
 20
205.470739
 30
0.0
 40
5.0
100
AcDbArc
 50
180.0
 51
270.0
  0
LINE
  5
61D
100
AcDbEntity
  8
0
370
    -3
390
0
  6
Continuous
100
AcDbLine
 10
149.685988
 20
200.470739
 30
0.0
 11
122.43601
 21
200.470739
 31
0.0
  0
ARC
  5
61E
100
AcDbEntity
  8
0
370
    -3
390
0
  6
Continuous
100
AcDbCircle
 10
149.685988
 20
205.470739
 30
0.0
 40
5.0
100
AcDbArc
 50
270.0
 51
0.0
  0
LINE
  5
61F
100
AcDbEntity
  8
0
370
    -3
390
0
  6
Continuous
100
AcDbLine
 10
149.685988
 20
193.470739
 30
0.0
 11
122.43601
 21
193.470739
 31
0.0
  0
ARC
  5
620
100
AcDbEntity
  8
0
370
    -3
390
0
  6
Continuous
100
AcDbCircle
 10
149.685988
 20
188.470739
 30
0.0
 40
5.0
100
AcDbArc
 50
0.0
 51
90.0
  0
ARC
  5
621
100
AcDbEntity
  8
0
370
    -3
390
0
  6
Continuous
100
AcDbCircle
 10
115.823408
 20
284.111321
 30
0.0
 40
5.0
100
AcDbArc
 50
270.0
 51
305.751143
  0
LINE
  5
622
100
AcDbEntity
  8
0
370
    -3
390
0
  6
Continuous
100
AcDbLine
 10
118.744737
 20
280.05351
 30
0.0
 11
152.607318
 21
304.432105
 31
0.0
  0
ARC
  5
623
100
AcDbEntity
  8
0
370
    -3
390
0
  6
Continuous
100
AcDbCircle
 10
149.685988
 20
308.489917
 30
0.0
 40
5.0
100
AcDbArc
 50
305.751143
 51
0.0
  0
ARC
  5
624
100
AcDbEntity
  8
0
370
    -3
390
0
  6
Continuous
100
AcDbCircle
 10
115.823408
 20
292.95183
 30
0.0
 40
5.0
100
AcDbArc
 50
270.0
 51
305.751143
  0
ARC
  5
625
100
AcDbEntity
  8
0
370
    -3
390
0
  6
Continuous
100
AcDbCircle
 10
149.685988
 20
317.330426
 30
0.0
 40
5.0
100
AcDbArc
 50
305.751143
 51
0.0
  0
LINE
  5
626
100
AcDbEntity
  8
0
370
    -3
390
0
  6
Continuous
100
AcDbLine
 10
118.744737
 20
288.894019
 30
0.0
 11
152.607318
 21
313.272614
 31
0.0
  0
LINE
  5
627
100
AcDbEntity
  8
0
370
    -3
390
0
  6
Continuous
100
AcDbLine
 10
149.936384
 20
279.111321
 30
0.0
 11
122.464006
 21
279.111321
 31
0.0
  0
LINE
  5
628
100
AcDbEntity
  8
0
370
    -3
390
0
  6
Continuous
100
AcDbLine
 10
183.185988
 20
152.970739
 30
0.0
 11
184.185988
 21
152.970739
 31
0.0
  0
LINE
  5
629
100
AcDbEntity
  8
0
370
    -3
390
0
  6
Continuous
100
AcDbLine
 10
183.185988
 20
240.970739
 30
0.0
 11
184.185988
 21
240.970739
 31
0.0
  0
LINE
  5
62A
100
AcDbEntity
  8
0
370
    -3
390
0
  6
Continuous
100
AcDbLine
 10
178.685988
 20
340.970739
 30
0.0
 11
177.685988
 21
341.970739
 31
0.0
  0
LINE
  5
62B
100
AcDbEntity
  8
0
370
    -3
390
0
  6
Continuous
100
AcDbLine
 10
178.685988
 20
52.970739
 30
0.0
 11
177.685988
 21
51.970739
 31
0.0
  0
LINE
  5
62C
100
AcDbEntity
  8
0
370
    -3
390
0
  6
Continuous
100
AcDbLine
 10
184.185988
 20
152.970739
 30
0.0
 11
184.185988
 21
240.970739
 31
0.0
  0
LINE
  5
62D
100
AcDbEntity
  8
0
370
    -3
390
0
  6
Continuous
100
AcDbLine
 10
177.685988
 20
341.970739
 30
0.0
 11
174.685988
 21
341.970739
 31
0.0
  0
LINE
  5
62E
100
AcDbEntity
  8
0
370
    -3
390
0
  6
Continuous
100
AcDbLine
 10
174.685988
 20
354.470739
 30
0.0
 11
157.685988
 21
354.470739
 31
0.0
  0
LINE
  5
62F
100
AcDbEntity
  8
0
370
    -3
390
0
  6
Continuous
100
AcDbLine
 10
177.685988
 20
51.970739
 30
0.0
 11
174.685988
 21
51.970739
 31
0.0
  0
ARC
  5
630
100
AcDbEntity
  8
0
370
    -3
390
0
  6
Continuous
100
AcDbCircle
 10
177.185988
 20
131.970739
 30
0.0
 40
5.0
100
AcDbArc
 50
303.367013
 51
0.0
  0
ARC
  5
631
100
AcDbEntity
  8
0
370
    -3
390
0
  6
Continuous
100
AcDbCircle
 10
157.685988
 20
351.470739
 30
0.0
 40
3.0
100
AcDbArc
 50
90.0
 51
180.0
  0
ARC
  5
632
100
AcDbEntity
  8
0
370
    -3
390
0
  6
Continuous
100
AcDbCircle
 10
183.185988
 20
241.970739
 30
0.0
 40
1.0
100
AcDbArc
 50
180.0
 51
270.0
  0
ARC
  5
633
100
AcDbEntity
  8
0
370
    -3
390
0
  6
Continuous
100
AcDbCircle
 10
183.185988
 20
151.970739
 30
0.0
 40
1.0
100
AcDbArc
 50
90.0
 51
180.0
  0
LINE
  5
634
100
AcDbEntity
  8
0
370
    -3
390
0
  6
Continuous
100
AcDbLine
 10
174.685988
 20
196.970739
 30
0.0
 11
174.685988
 21
354.470739
 31
0.0
  0
LINE
  5
635
100
AcDbEntity
  8
0
370
    -3
390
0
  6
Continuous
100
AcDbLine
 10
182.185988
 20
196.970739
 30
0.0
 11
182.185988
 21
262.225916
 31
0.0
  0
LINE
  5
636
100
AcDbEntity
  8
0
370
    -3
390
0
  6
Continuous
100
AcDbLine
 10
178.685988
 20
196.970739
 30
0.0
 11
178.685988
 21
340.970739
 31
0.0
  0
ARC
  5
637
100
AcDbEntity
  8
0
370
    -3
390
0
  6
Continuous
100
AcDbCircle
 10
177.185988
 20
262.225916
 30
0.0
 40
5.0
100
AcDbArc
 50
0.0
 51
72.542397
  0
ARC
  5
638
100
AcDbEntity
  8
0
370
    -3
390
0
  6
Continuous
100
AcDbCircle
 10
157.685988
 20
42.470739
 30
0.0
 40
3.0
100
AcDbArc
 50
180.0
 51
270.0
  0
LINE
  5
639
100
AcDbEntity
  8
0
370
    -3
390
0
  6
Continuous
100
AcDbLine
 10
174.685988
 20
39.470739
 30
0.0
 11
157.685988
 21
39.470739
 31
0.0
  0
LINE
  5
63A
100
AcDbEntity
  8
0
370
    -3
390
0
  6
Continuous
100
AcDbLine
 10
182.185988
 20
196.970739
 30
0.0
 11
182.185988
 21
131.970739
 31
0.0
  0
LINE
  5
63B
100
AcDbEntity
  8
0
370
    -3
390
0
  6
Continuous
100
AcDbLine
 10
178.685988
 20
196.970739
 30
0.0
 11
178.685988
 21
52.970739
 31
0.0
  0
LINE
  5
63C
100
AcDbEntity
  8
0
370
    -3
390
0
  6
Continuous
100
AcDbLine
 10
174.685988
 20
196.970739
 30
0.0
 11
174.685988
 21
39.470739
 31
0.0
  0
ARC
  5
63D
100
AcDbEntity
  8
0
370
    -3
390
0
  6
Continuous
100
AcDbCircle
 10
182.685988
 20
123.619092
 30
0.0
 40
5.0
100
AcDbArc
 50
123.367013
 51
143.130102
  0
LINE
  5
63E
100
AcDbEntity
  8
0
370
    -3
390
0
  6
Continuous
100
AcDbLine
 10
154.685988
 20
42.470739
 30
0.0
 11
154.685988
 21
351.470739
 31
0.0
  0
LINE
  5
63F
100
AcDbEntity
  8
0
370
    -3
390
0
  6
CENTER
100
AcDbLine
 10
192.823858
 20
331.321027
 30
0.0
 11
140.668813
 21
331.321027
 31
0.0
  0
LINE
  5
640
100
AcDbEntity
  8
0
370
    -3
390
0
  6
CENTER
100
AcDbLine
 10
192.823858
 20
62.620451
 30
0.0
 11
140.668813
 21
62.620451
 31
0.0
  0
ARC
  5
641
100
AcDbEntity
  8
0
370
    -3
390
0
  6
Continuous
100
AcDbCircle
 10
149.685988
 20
340.849992
 30
0.0
 40
5.0
100
AcDbArc
 50
272.0
 51
0.0
  0
LINE
  5
642
100
AcDbEntity
  8
0
370
    -3
390
0
  6
Continuous
100
AcDbLine
 10
149.860486
 20
335.853038
 30
0.0
 11
38.685684
 21
331.970728
 31
0.0
  0
ARC
  5
643
100
AcDbEntity
  8
0
370
    -3
390
0
  6
Continuous
100
AcDbCircle
 10
149.685988
 20
53.091486
 30
0.0
 40
5.0
100
AcDbArc
 50
0.0
 51
88.0
  0
LINE
  5
644
100
AcDbEntity
  8
0
370
    -3
390
0
  6
Continuous
100
AcDbLine
 10
149.860486
 20
58.08844
 30
0.0
 11
38.685684
 21
61.97075
 31
0.0
  0
LINE
  5
645
100
AcDbEntity
  8
0
370
    -3
390
0
  6
Continuous
100
AcDbLine
 10
38.685988
 20
61.970739
 30
0.0
 11
38.685988
 21
301.988199
 31
0.0
  0
LINE
  5
646
100
AcDbEntity
  8
0
370
    -3
390
0
  6
Continuous
100
AcDbLine
 10
38.685988
 20
61.970739
 30
0.0
 11
38.685988
 21
331.970739
 31
0.0
  0
ARC
  5
647
100
AcDbEntity
  8
0
370
    -3
390
0
  6
Continuous
100
AcDbCircle
 10
169.685988
 20
112.065905
 30
0.0
 40
2.0
100
AcDbArc
 50
180.0
 51
270.0
  0
ARC
  5
648
100
AcDbEntity
  8
0
370
    -3
390
0
  6
Continuous
100
AcDbCircle
 10
169.685988
 20
76.826078
 30
0.0
 40
2.0
100
AcDbArc
 50
180.0
 51
270.0
  0
LINE
  5
649
100
AcDbEntity
  8
0
370
    -3
390
0
  6
Continuous
100
AcDbLine
 10
174.685988
 20
74.826078
 30
0.0
 11
169.685988
 21
74.826078
 31
0.0
  0
LINE
  5
64A
100
AcDbEntity
  8
0
370
    -3
390
0
  6
Continuous
100
AcDbLine
 10
174.685988
 20
110.065905
 30
0.0
 11
169.685988
 21
110.065905
 31
0.0
  0
ARC
  5
64B
100
AcDbEntity
  8
0
370
    -3
390
0
  6
Continuous
100
AcDbCircle
 10
169.685988
 20
281.875573
 30
0.0
 40
2.0
100
AcDbArc
 50
90.0
 51
180.0
  0
ARC
  5
64C
100
AcDbEntity
  8
0
370
    -3
390
0
  6
Continuous
100
AcDbCircle
 10
169.685988
 20
317.1154
 30
0.0
 40
2.0
100
AcDbArc
 50
90.0
 51
180.0
  0
LINE
  5
64D
100
AcDbEntity
  8
0
370
    -3
390
0
  6
Continuous
100
AcDbLine
 10
174.685988
 20
319.1154
 30
0.0
 11
169.685988
 21
319.1154
 31
0.0
  0
LINE
  5
64E
100
AcDbEntity
  8
0
370
    -3
390
0
  6
Continuous
100
AcDbLine
 10
174.685988
 20
283.875573
 30
0.0
 11
169.685988
 21
283.875573
 31
0.0
  0
LINE
  5
64F
100
AcDbEntity
  8
0
370
    -3
390
0
  6
Continuous
100
AcDbLine
 10
167.685988
 20
196.970739
 30
0.0
 11
167.685988
 21
317.1154
 31
0.0
  0
LINE
  5
650
100
AcDbEntity
  8
0
370
    -3
390
0
  6
Continuous
100
AcDbLine
 10
167.685988
 20
196.970739
 30
0.0
 11
167.685988
 21
76.826078
 31
0.0
  0
LINE
  5
651
100
AcDbEntity
  8
0
370
    -3
390
0
  6
Continuous
100
AcDbLine
 10
191.185988
 20
169.470739
 30
0.0
 11
191.185988
 21
172.970739
 31
0.0
  0
LINE
  5
652
100
AcDbEntity
  8
0
370
    -3
390
0
  6
Continuous
100
AcDbLine
 10
186.185988
 20
196.970739
 30
0.0
 11
186.185988
 21
221.620739
 31
0.0
  0
LINE
  5
653
100
AcDbEntity
  8
0
370
    -3
390
0
  6
Continuous
100
AcDbLine
 10
185.985988
 20
221.970739
 30
0.0
 11
184.185988
 21
221.970739
 31
0.0
  0
LINE
  5
654
100
AcDbEntity
  8
0
370
    -3
390
0
  6
Continuous
100
AcDbLine
 10
188.185988
 20
220.820739
 30
0.0
 11
188.745796
 21
220.970739
 31
0.0
  0
LINE
  5
655
100
AcDbEntity
  8
0
370
    -3
390
0
  6
Continuous
100
AcDbLine
 10
188.185988
 20
220.820739
 30
0.0
 11
186.985988
 21
220.820739
 31
0.0
  0
LINE
  5
656
100
AcDbEntity
  8
0
370
    -3
390
0
  6
Continuous
100
AcDbLine
 10
186.185988
 20
221.620739
 30
0.0
 11
186.185988
 21
221.770739
 31
0.0
  0
ARC
  5
657
100
AcDbEntity
  8
0
370
    -3
390
0
  6
Continuous
100
AcDbCircle
 10
186.985988
 20
221.620739
 30
0.0
 40
0.8
100
AcDbArc
 50
180.0
 51
270.0
  0
LINE
  5
658
100
AcDbEntity
  8
0
370
    -3
390
0
  6
Continuous
100
AcDbLine
 10
186.185988
 20
221.770739
 30
0.0
 11
185.985988
 21
221.970739
 31
0.0
  0
LINE
  5
659
100
AcDbEntity
  8
0
370
    -3
390
0
  6
Continuous
100
AcDbLine
 10
186.185988
 20
196.970739
 30
0.0
 11
186.185988
 21
172.320739
 31
0.0
  0
LINE
  5
65A
100
AcDbEntity
  8
0
370
    -3
390
0
  6
Continuous
100
AcDbLine
 10
185.985988
 20
171.970739
 30
0.0
 11
184.185988
 21
171.970739
 31
0.0
  0
LINE
  5
65B
100
AcDbEntity
  8
0
370
    -3
390
0
  6
Continuous
100
AcDbLine
 10
188.185988
 20
173.120739
 30
0.0
 11
188.745796
 21
172.970739
 31
0.0
  0
LINE
  5
65C
100
AcDbEntity
  8
0
370
    -3
390
0
  6
Continuous
100
AcDbLine
 10
188.185988
 20
173.120739
 30
0.0
 11
186.985988
 21
173.120739
 31
0.0
  0
LINE
  5
65D
100
AcDbEntity
  8
0
370
    -3
390
0
  6
Continuous
100
AcDbLine
 10
186.185988
 20
172.320739
 30
0.0
 11
186.185988
 21
172.170739
 31
0.0
  0
ARC
  5
65E
100
AcDbEntity
  8
0
370
    -3
390
0
  6
Continuous
100
AcDbCircle
 10
186.985988
 20
172.320739
 30
0.0
 40
0.8
100
AcDbArc
 50
90.0
 51
180.0
  0
LINE
  5
65F
100
AcDbEntity
  8
0
370
    -3
390
0
  6
Continuous
100
AcDbLine
 10
186.185988
 20
172.170739
 30
0.0
 11
185.985988
 21
171.970739
 31
0.0
  0
LINE
  5
660
100
AcDbEntity
  8
0
370
    -3
390
0
  6
Continuous
100
AcDbLine
 10
260.785988
 20
220.970739
 30
0.0
 11
188.745796
 21
220.970739
 31
0.0
  0
LINE
  5
661
100
AcDbEntity
  8
0
370
    -3
390
0
  6
Continuous
100
AcDbLine
 10
261.185988
 20
196.970739
 30
0.0
 11
261.185988
 21
220.570739
 31
0.0
  0
ARC
  5
662
100
AcDbEntity
  8
0
370
    -3
390
0
  6
Continuous
100
AcDbCircle
 10
260.785988
 20
220.570739
 30
0.0
 40
0.4
100
AcDbArc
 50
0.0
 51
90.0
  0
LINE
  5
663
100
AcDbEntity
  8
0
370
    -3
390
0
  6
Continuous
100
AcDbLine
 10
261.185988
 20
169.470739
 30
0.0
 11
191.185988
 21
169.470739
 31
0.0
  0
LINE
  5
664
100
AcDbEntity
  8
0
370
    -3
390
0
  6
Continuous
100
AcDbLine
 10
261.185988
 20
196.970739
 30
0.0
 11
261.185988
 21
169.470739
 31
0.0
  0
LINE
  5
665
100
AcDbEntity
  8
0
370
    -3
390
0
  6
Continuous
100
AcDbLine
 10
260.785988
 20
172.970739
 30
0.0
 11
188.745796
 21
172.970739
 31
0.0
  0
ARC
  5
666
100
AcDbEntity
  8
0
370
    -3
390
0
  6
Continuous
100
AcDbCircle
 10
260.785988
 20
173.370739
 30
0.0
 40
0.4
100
AcDbArc
 50
270.0
 51
0.0
  0
ENDSEC
  0
SECTION
  2
OBJECTS
  0
DICTIONARY
  5
19
100
AcDbDictionary
280
     0
281
     1
  3
ACAD_GROUP
350
1A
  3
ACAD_MLINESTYLE
350
1B
  3
ACAD_LAYOUT
350
1E
  3
ACAD_PLOTSETTINGS
350
22
  3
ACAD_PLOTSTYLENAME
350
1F
  3
ACAD_WIPEOUT_VARS
350
23
  3
DWGPROPS
350
667
  0
DICTIONARY
  5
1A
102
{ACAD_REACTORS
330
19
102
}
100
AcDbDictionary
280
     0
281
     1
  0
DICTIONARY
  5
1B
102
{ACAD_REACTORS
330
19
102
}
100
AcDbDictionary
280
     0
281
     1
  3
Standard
350
1C
  0
MLINESTYLE
  5
1C
102
{ACAD_REACTORS
330
1B
102
}
100
AcDbMlineStyle
  2
Standard
 70
     0
  3

 62
     0
 51
90.0
 52
90.0
 71
     2
 49
0.5
 62
   256
  6
ByLayer
 49
-0.5
 62
   256
  6
ByLayer
  0
ACDBDICTIONARYWDFLT
  5
1F
102
{ACAD_REACTORS
330
19
102
}
100
AcDbDictionary
281
     1
  3
Normal
350
1D
100
AcDbDictionaryWithDefault
340
1D
  0
ACDBPLACEHOLDER
  5
1D
102
{ACAD_REACTORS
330
1F
102
}
  0
LAYOUT
  5
20
102
{ACAD_REACTORS
330
1E
102
}
100
AcDbPlotSettings
  1

  2

  4

  6

 40
0.0
 41
0.0
 42
0.0
 43
0.0
 44
0.0
 45
0.0
 46
0.0
 47
0.0
 48
0.0
 49
0.0
140
0.0
141
0.0
142
1.0
143
1.0
 70
  1024
 72
     0
 73
     0
 74
     0
  7

 75
     0
147
1.0
148
0.0
149
0.0
100
AcDbLayout
  1
Model
 70
     0
 71
     0
 10
0.0
 20
0.0
 11
0.0
 21
0.0
 12
0.0
 22
0.0
 32
0.0
 14
0.0
 24
0.0
 34
0.0
 15
0.0
 25
0.0
 35
0.0
146
0.0
 13
0.0
 23
0.0
 33
0.0
 16
0.0
 26
0.0
 36
0.0
 17
0.0
 27
0.0
 37
0.0
 76
     0
330
A
331
0
345
0
346
0
  0
LAYOUT
  5
21
102
{ACAD_REACTORS
330
1E
102
}
100
AcDbPlotSettings
  1

  2

  4

  6

 40
0.0
 41
0.0
 42
0.0
 43
0.0
 44
0.0
 45
0.0
 46
0.0
 47
0.0
 48
0.0
 49
0.0
140
0.0
141
0.0
142
1.0
143
1.0
 70
     0
 72
     0
 73
     0
 74
     0
  7

 75
     0
147
1.0
148
0.0
149
0.0
100
AcDbLayout
  1
Layout1
 70
     0
 71
     0
 10
0.0
 20
0.0
 11
0.0
 21
0.0
 12
0.0
 22
0.0
 32
0.0
 14
0.0
 24
0.0
 34
0.0
 15
0.0
 25
0.0
 35
0.0
146
0.0
 13
0.0
 23
0.0
 33
0.0
 16
0.0
 26
0.0
 36
0.0
 17
0.0
 27
0.0
 37
0.0
 76
     0
330
B
331
0
345
0
346
0
  0
DICTIONARY
  5
1E
102
{ACAD_REACTORS
330
19
102
}
100
AcDbDictionary
280
     0
281
     1
  3
Layout1
350
21
  3
Model
350
20
  0
DICTIONARY
  5
22
102
{ACAD_REACTORS
330
19
102
}
100
AcDbDictionary
280
     0
281
     1
  0
WIPEOUTVARIABLES
  5
23
100
AcDbWipeoutVariables
 70
     1
  0
XRECORD
  5
667
100
AcDbXrecord
280
     1
  1
DWGPROPS COOKIE
  2

  3

  4

  6

  7

  8
YP81315
  9

300
=
301
=
302
=
303
=
304
=
305
=
306
=
307
=
308
=
309
=
 40
0.0
 41
2456785.704132
 42
2456785.704132
  1

 90
        0
  0
ENDSEC
  0
EOF
