  0
SECTION
  2
HEADER
  9
$ACADVER
  1
AC1015
  9
$ACADMAINTVER
 70
     6
  9
$DWGCODEPAGE
  3
ANSI_932
  9
$INSBASE
 10
0.0
 20
0.0
 30
0.0
  9
$EXTMIN
 10
1.000000E+20
 20
1.000000E+20
 30
1.000000E+20
  9
$EXTMAX
 10
-1.000000E+20
 20
-1.000000E+20
 30
-1.000000E+20
  9
$LIMMIN
 10
0.0
 20
0.0
  9
$LIMMAX
 10
0.0
 20
0.0
  9
$ORTHOMODE
 70
     0
  9
$REGENMODE
 70
     1
  9
$FILLMODE
 70
     1
  9
$QTEXTMODE
 70
     0
  9
$MIRRTEXT
 70
     1
  9
$LTSCALE
 40
1.0
  9
$ATTMODE
 70
     1
  9
$TEXTSIZE
 40
3.3
  9
$TRACEWID
 40
0.05
  9
$TEXTSTYLE
  7
Standard
  9
$CLAYER
  8
0
  9
$CELTYPE
  6
Continuous
  9
$CECOLOR
 62
   256
  9
$CELTSCALE
 40
1.0
  9
$DISPSILH
 70
     0
  9
$DIMSCALE
 40
1.0
  9
$DIMASZ
 40
1.931852
  9
$DIMEXO
 40
1.0
  9
$DIMDLI
 40
0.38
  9
$DIMRND
 40
0.0
  9
$DIMDLE
 40
0.0
  9
$DIMEXE
 40
2.0
  9
$DIMTP
 40
0.0
  9
$DIMTM
 40
0.0
  9
$DIMTXT
 40
2.8
  9
$DIMCEN
 40
0.09
  9
$DIMTSZ
 40
0.0
  9
$DIMTOL
 70
     0
  9
$DIMLIM
 70
     0
  9
$DIMTIH
 70
     1
  9
$DIMTOH
 70
     1
  9
$DIMSE1
 70
     0
  9
$DIMSE2
 70
     0
  9
$DIMTAD
 70
     1
  9
$DIMZIN
 70
     0
  9
$DIMBLK
  1

  9
$DIMASO
 70
     1
  9
$DIMSHO
 70
     1
  9
$DIMPOST
  1

  9
$DIMAPOST
  1

  9
$DIMALT
 70
     0
  9
$DIMALTD
 70
     2
  9
$DIMALTF
 40
25.4
  9
$DIMLFAC
 40
1.0
  9
$DIMTOFL
 70
     0
  9
$DIMTVP
 40
0.0
  9
$DIMTIX
 70
     0
  9
$DIMSOXD
 70
     0
  9
$DIMSAH
 70
     0
  9
$DIMBLK1
  1

  9
$DIMBLK2
  1

  9
$DIMSTYLE
  2
Standard
  9
$DIMCLRD
 70
     0
  9
$DIMCLRE
 70
     0
  9
$DIMCLRT
 70
     0
  9
$DIMTFAC
 40
0.714286
  9
$DIMGAP
 40
0.09
  9
$DIMJUST
 70
     0
  9
$DIMSD1
 70
     0
  9
$DIMSD2
 70
     0
  9
$DIMTOLJ
 70
     1
  9
$DIMTZIN
 70
     0
  9
$DIMALTZ
 70
     0
  9
$DIMALTTZ
 70
     0
  9
$DIMUPT
 70
     0
  9
$DIMDEC
 70
     4
  9
$DIMTDEC
 70
     4
  9
$DIMALTU
 70
     2
  9
$DIMALTTD
 70
     2
  9
$DIMTXSTY
  7
Standard
  9
$DIMAUNIT
 70
     0
  9
$DIMADEC
 70
     0
  9
$DIMALTRND
 40
0.0
  9
$DIMAZIN
 70
     0
  9
$DIMDSEP
 70
     0
  9
$DIMATFIT
 70
     3
  9
$DIMFRAC
 70
     0
  9
$DIMLDRBLK
  1

  9
$DIMLUNIT
 70
     2
  9
$DIMLWD
 70
     0
  9
$DIMLWE
 70
     0
  9
$DIMTMOVE
 70
     0
  9
$LUNITS
 70
     2
  9
$LUPREC
 70
     3
  9
$SKETCHINC
 40
0.1
  9
$FILLETRAD
 40
0.0
  9
$AUNITS
 70
     0
  9
$AUPREC
 70
     0
  9
$MENU
  1
acad
  9
$ELEVATION
 40
0.0
  9
$PELEVATION
 40
0.0
  9
$THICKNESS
 40
0.0
  9
$LIMCHECK
 70
     0
  9
$CHAMFERA
 40
0.0
  9
$CHAMFERB
 40
0.0
  9
$CHAMFERC
 40
0.0
  9
$CHAMFERD
 40
0.0
  9
$SKPOLY
 70
     0
  9
$TDCREATE
 40
0.000000000
  9
$TDUCREATE
 40
0.000000000
  9
$TDUPDATE
 40
0.000000000
  9
$TDUUPDATE
 40
0.000000000
  9
$TDINDWG
 40
0.0000000000
  9
$TDUSRTIMER
 40
0.0000000000
  9
$USRTIMER
 70
     1
  9
$ANGBASE
 50
0.0
  9
$ANGDIR
 70
     0
  9
$PDMODE
 70
     0
  9
$PDSIZE
 40
0.0
  9
$PLINEWID
 40
0.0
  9
$SPLFRAME
 70
     0
  9
$SPLINETYPE
 70
     6
  9
$SPLINESEGS
 70
     8
  9
$HANDSEED
  5
588
  9
$SURFTAB1
 70
     6
  9
$SURFTAB2
 70
     6
  9
$SURFTYPE
 70
     6
  9
$SURFU
 70
     6
  9
$SURFV
 70
     6
  9
$UCSBASE
  2

  9
$UCSNAME
  2

  9
$UCSORG
 10
0.0
 20
0.0
 30
0.0
  9
$UCSXDIR
 10
1.0
 20
0.0
 30
0.0
  9
$UCSYDIR
 10
0.0
 20
1.0
 30
0.0
  9
$UCSORTHOREF
  2

  9
$UCSORTHOVIEW
 70
     0
  9
$UCSORGTOP
 10
0.0
 20
0.0
 30
0.0
  9
$UCSORGBOTTOM
 10
0.0
 20
0.0
 30
0.0
  9
$UCSORGLEFT
 10
0.0
 20
0.0
 30
0.0
  9
$UCSORGRIGHT
 10
0.0
 20
0.0
 30
0.0
  9
$UCSORGFRONT
 10
0.0
 20
0.0
 30
0.0
  9
$UCSORGBACK
 10
0.0
 20
0.0
 30
0.0
  9
$PUCSBASE
  2

  9
$PUCSNAME
  2

  9
$PUCSORG
 10
0.0
 20
0.0
 30
0.0
  9
$PUCSXDIR
 10
1.0
 20
0.0
 30
0.0
  9
$PUCSYDIR
 10
0.0
 20
1.0
 30
0.0
  9
$PUCSORTHOREF
  2

  9
$PUCSORTHOVIEW
 70
     0
  9
$PUCSORGTOP
 10
0.0
 20
0.0
 30
0.0
  9
$PUCSORGBOTTOM
 10
0.0
 20
0.0
 30
0.0
  9
$PUCSORGLEFT
 10
0.0
 20
0.0
 30
0.0
  9
$PUCSORGRIGHT
 10
0.0
 20
0.0
 30
0.0
  9
$PUCSORGFRONT
 10
0.0
 20
0.0
 30
0.0
  9
$PUCSORGBACK
 10
0.0
 20
0.0
 30
0.0
  9
$USERI1
 70
     0
  9
$USERI2
 70
     0
  9
$USERI3
 70
     0
  9
$USERI4
 70
     0
  9
$USERI5
 70
     0
  9
$USERR1
 40
0.0
  9
$USERR2
 40
0.0
  9
$USERR3
 40
0.0
  9
$USERR4
 40
0.0
  9
$USERR5
 40
0.0
  9
$WORLDVIEW
 70
     1
  9
$SHADEDGE
 70
     3
  9
$SHADEDIF
 70
    70
  9
$TILEMODE
 70
     1
  9
$MAXACTVP
 70
    16
  9
$PINSBASE
 10
0.0
 20
0.0
 30
0.0
  9
$PLIMCHECK
 70
     0
  9
$PEXTMIN
 10
1.000000E+20
 20
1.000000E+20
 30
1.000000E+20
  9
$PEXTMAX
 10
-1.000000E+20
 20
-1.000000E+20
 30
-1.000000E+20
  9
$PLIMMIN
 10
0.0
 20
0.0
  9
$PLIMMAX
 10
12.0
 20
9.0
  9
$UNITMODE
 70
     0
  9
$VISRETAIN
 70
     0
  9
$PLINEGEN
 70
     1
  9
$PSLTSCALE
 70
     0
  9
$TREEDEPTH
 70
  3020
  9
$CMLSTYLE
  2
Standard
  9
$CMLJUST
 70
     0
  9
$CMLSCALE
 40
1.0
  9
$PROXYGRAPHICS
 70
     0
  9
$MEASUREMENT
 70
     0
  9
$CELWEIGHT
370
     0
  9
$ENDCAPS
280
     0
  9
$JOINSTYLE
280
     0
  9
$LWDISPLAY
290
     0
  9
$INSUNITS
 70
     0
  9
$HYPERLINKBASE
  1

  9
$STYLESHEET
  1

  9
$XEDIT
290
     1
  9
$CEPSNTYPE
380
     0
  9
$PSTYLEMODE
290
     1
  9
$FINGERPRINTGUID
  2

  9
$VERSIONGUID
  2

  9
$EXTNAMES
290
     1
  9
$PSVPSCALE
 40
0.0
  0
ENDSEC
  0
SECTION
  2
CLASSES
  0
CLASS
  1
LWPOLYLINE
  2
AcDbPolyline
  3
AutoCAD 2000
 90
        0
280
     0
281
     1
  0
CLASS
  1
IMAGE
  2
AcDbRasterImage
  3
ISM
 90
      127
280
     0
281
     1
  0
CLASS
  1
OLE2FRAME
  2
AcDbOle2Frame
  3
AutoCAD 2000
 90
        0
280
     0
281
     1
  0
CLASS
  1
HATCH
  2
AcDbHatch
  3
AutoCAD 2000
 90
        0
280
     0
281
     1
  0
CLASS
  1
DICTIONARYVAR
  2
AcDbDictionaryVar
  3
AutoCAD 2000
 90
        0
280
     0
281
     0
  0
CLASS
  1
RASTERVARIABLES
  2
AcDbRasterVariables
  3
ISM
 90
        0
280
     0
281
     0
  0
CLASS
  1
IMAGEDEF
  2
AcDbRasterImageDef
  3
ISM
 90
        0
280
     0
281
     0
  0
CLASS
  1
IMAGEDEF_REACTOR
  2
AcDbRasterImageDefReactor
  3
ISM
 90
        1
280
     0
281
     0
  0
CLASS
  1
IDBUFFER
  2
AcDbIdBuffer
  3
AutoCAD 2000
 90
        0
280
     0
281
     0
  0
CLASS
  1
SPATIAL_FILTER
  2
AcDbSpatialFilter
  3
AutoCAD 2000
 90
        0
280
     0
281
     0
  0
CLASS
  1
XRECORD
  2
AcDbXrecord
  3
AutoCAD 2000
 90
        0
280
     0
281
     0
  0
CLASS
  1
SORTENTSTABLE
  2
AcDbSortentsTable
  3
AutoCAD 2000
 90
        0
280
     0
281
     0
  0
CLASS
  1
LAYER_INDEX
  2
AcDbLayerIndex
  3
AutoCAD 2000
 90
        0
280
     0
281
     0
  0
CLASS
  1
SPATIAL_INDEX
  2
AcDbSpatialIndex
  3
AutoCAD 2000
 90
        0
280
     0
281
     0
  0
CLASS
  1
OBJECT_PTR
  2
CAseDLPNTableRecord
  3
"ASE-LPNTableRecord"
 90
        1
280
     0
281
     0
  0
CLASS
  1
LAYOUT
  2
AcDbLayout
  3
AutoCAD 2000
 90
        0
280
     0
281
     0
  0
CLASS
  1
PLOTSETTINGS
  2
AcDbPlotSettings
  3
AutoCAD 2000
 90
        0
280
     0
281
     0
  0
CLASS
  1
ACDBDICTIONARYWDFLT
  2
AcDbDictionaryWithDefault
  3
AutoCAD 2000
 90
        0
280
     0
281
     0
  0
CLASS
  1
ACDBPLACEHOLDER
  2
AcDbPlaceHolder
  3
AutoCAD 2000
 90
        0
280
     0
281
     0
  0
CLASS
  1
VBA_PROJECT
  2
AcDbVbaProject
  3
acadvba
 90
        0
280
     0
281
     0
  0
CLASS
  1
WIPEOUT
  2
AcDbWipeout
  3
WipeOut|AutoCAD Express Tool|expresstools@autodesk.com
 90
      127
280
     0
281
     1
  0
CLASS
  1
WIPEOUTVARIABLES
  2
AcDbWipeoutVariables
  3
WipeOut|AutoCAD Express Tool|expresstools@autodesk.com
 90
        0
280
     0
281
     0
  0
CLASS
  1
RTEXT
  2
RText
  3
RText|AutoCAD Express Tool|expresstools@autodesk.com
 90
        0
280
     0
281
     1
  0
CLASS
  1
ARCALIGNEDTEXT
  2
AcDbArcAlignedText
  3
ATEXT|AutoCAD Express Tool|expresstools@autodesk.com
 90
        0
280
     0
281
     1
  0
ENDSEC
  0
SECTION
  2
TABLES
  0
TABLE
  2
VPORT
  5
7
100
AcDbSymbolTable
 70
     1
  0
VPORT
  5
15
100
AcDbSymbolTableRecord
100
AcDbViewportTableRecord
  2
*ACTIVE
 70
     0
 10
0.0
 20
0.0
 11
1.0
 21
1.0
 12
0.0
 22
0.0
 13
0.0
 23
0.0
 14
1.0
 24
1.0
 15
0.0
 25
0.0
 16
0.0
 26
0.0
 36
1.0
 17
0.0
 27
0.0
 37
0.0
 40
100.0
 41
1.0
 42
50.0
 43
0.0
 44
0.0
 50
0.0
 51
0.0
 71
     0
 72
   100
 73
     1
 74
     1
 75
     0
 76
     0
 77
     0
 78
     0
281
     0
 65
     0
110
0.0
120
0.0
130
0.0
111
1.0
121
0.0
131
0.0
112
0.0
122
1.0
132
0.0
345
0
346
0
 79
     0
146
0.0
  0
ENDTAB
  0
TABLE
  2
LTYPE
  5
4
100
AcDbSymbolTable
 70
     7
  0
LTYPE
  5
11
100
AcDbSymbolTableRecord
100
AcDbLinetypeTableRecord
  2
ByBlock
 70
    64
  3

 72
    65
 73
     0
 40
0.0
  0
LTYPE
  5
12
100
AcDbSymbolTableRecord
100
AcDbLinetypeTableRecord
  2
ByLayer
 70
    64
  3

 72
    65
 73
     0
 40
0.0
  0
LTYPE
  5
13
100
AcDbSymbolTableRecord
100
AcDbLinetypeTableRecord
  2
Continuous
 70
    64
  3
Solid line
 72
    65
 73
     0
 40
0.0
  0
LTYPE
  5
24
100
AcDbSymbolTableRecord
100
AcDbLinetypeTableRecord
  2
DASHED
 70
    64
  3
Dashed __ __ __ __ __ __ __ __ __ __ __ __ __ _
 72
    65
 73
     2
 40
0.75
 49
0.5
 74
     0
 49
-0.25
 74
     0
  0
LTYPE
  5
25
100
AcDbSymbolTableRecord
100
AcDbLinetypeTableRecord
  2
CENTER
 70
    64
  3
Center ____ _ ____ _ ____ _ ____ _ ____ _ ____
 72
    65
 73
     4
 40
1.0
 49
0.5
 74
     0
 49
-0.25
 74
     0
 49
0.0
 74
     0
 49
-0.25
 74
     0
  0
LTYPE
  5
26
100
AcDbSymbolTableRecord
100
AcDbLinetypeTableRecord
  2
DIVIDE
 70
    64
  3
Divide ____ . . ____ . . ____ . . ____ . . ____
 72
    65
 73
     6
 40
1.25
 49
0.5
 74
     0
 49
-0.25
 74
     0
 49
0.0
 74
     0
 49
-0.25
 74
     0
 49
0.0
 74
     0
 49
-0.25
 74
     0
  0
LTYPE
  5
27
100
AcDbSymbolTableRecord
100
AcDbLinetypeTableRecord
  2
PHANTOM
 70
    64
  3
Phantom ______  __  __  ______  __  __  ______
 72
    65
 73
     6
 40
9.0
 49
4.3
 74
     0
 49
-0.7
 74
     0
 49
1.3
 74
     0
 49
-0.7
 74
     0
 49
1.3
 74
     0
 49
-0.7
 74
     0
  0
ENDTAB
  0
TABLE
  2
LAYER
  5
2
100
AcDbSymbolTable
 70
     2
  0
LAYER
  5
14
100
AcDbSymbolTableRecord
100
AcDbLayerTableRecord
  2
0
 70
    64
 62
   102
  6
Continuous
290
     1
370
    -3
390
1D
  0
LAYER
  5
28
100
AcDbSymbolTableRecord
100
AcDbLayerTableRecord
  2
1
 70
    64
 62
    42
  6
Continuous
290
     1
370
    -3
390
1D
  0
ENDTAB
  0
TABLE
  2
STYLE
  5
3
100
AcDbSymbolTable
 70
     2
  0
STYLE
  5
17
100
AcDbSymbolTableRecord
100
AcDbTextStyleTableRecord
  2
Standard
 70
     0
 40
0.0
 41
1.0
 50
0.0
 71
     0
 42
0.0
  3
txt
  4

  0
STYLE
  5
202
100
AcDbSymbolTableRecord
100
AcDbTextStyleTableRecord
  2
ZU_SHPTB00001
 70
     0
 40
0.0
 41
1.0
 50
0.0
 71
     0
 42
0.0
  3
monotxt
  4
bigfont
  0
ENDTAB
  0
TABLE
  2
VIEW
  5
5
100
AcDbSymbolTable
 70
     0
  0
ENDTAB
  0
TABLE
  2
UCS
  5
6
100
AcDbSymbolTable
 70
     0
  0
ENDTAB
  0
TABLE
  2
APPID
  5
8
100
AcDbSymbolTable
 70
     1
  0
APPID
  5
16
100
AcDbSymbolTableRecord
100
AcDbRegAppTableRecord
  2
ACAD
 70
     0
  0
ENDTAB
  0
TABLE
  2
DIMSTYLE
  5
9
100
AcDbSymbolTable
 70
     1
100
AcDbDimStyleTable
 71
     0
  0
DIMSTYLE
105
18
100
AcDbSymbolTableRecord
100
AcDbDimStyleTableRecord
  2
Standard
 70
     0
  3

  4

 40
1.0
 41
0.18
 42
0.0625
 43
0.38
 44
0.18
 45
0.0
 46
0.0
 47
0.0
 48
0.0
 71
     0
 72
     0
 73
     1
 74
     1
 75
     0
 76
     0
 77
     0
 78
     0
 79
     0
140
0.18
141
0.09
142
0.0
143
25.4
144
1.0
145
0.0
146
1.0
147
0.09
148
0.0
170
     0
171
     2
172
     0
173
     0
174
     0
175
     0
176
     0
177
     0
178
     0
179
     0
271
     4
272
     4
273
     2
274
     2
275
     0
276
     0
277
     2
278
    46
279
     0
280
     0
281
     0
282
     0
283
     1
284
     0
285
     0
286
     0
288
     0
289
     3
340
17
341
0
342
0
343
0
344
0
371
    -2
372
    -2
  0
ENDTAB
  0
TABLE
  2
BLOCK_RECORD
  5
1
100
AcDbSymbolTable
 70
     5
  0
BLOCK_RECORD
  5
A
100
AcDbSymbolTableRecord
100
AcDbBlockTableRecord
  2
*MODEL_SPACE
340
20
  0
BLOCK_RECORD
  5
B
100
AcDbSymbolTableRecord
100
AcDbBlockTableRecord
  2
*PAPER_SPACE
340
21
  0
BLOCK_RECORD
  5
49
100
AcDbSymbolTableRecord
100
AcDbBlockTableRecord
  2
ZU_SYM__USERS_HOME_SYMBOL_POO_SYM_B20_18
340
0
102
{BLKREFS
331
54
102
}
  0
BLOCK_RECORD
  5
59
100
AcDbSymbolTableRecord
100
AcDbBlockTableRecord
  2
ZU_SYM__USERS_HOME_SYMBOL_POO_SYM_B20_0000118
340
0
102
{BLKREFS
331
64
102
}
  0
BLOCK_RECORD
  5
71
100
AcDbSymbolTableRecord
100
AcDbBlockTableRecord
  2
ZU_SYM__USERS_HOME_SYMBOL_POO_SYM_B20_0000218
340
0
102
{BLKREFS
331
7C
102
}
  0
BLOCK_RECORD
  5
D1
100
AcDbSymbolTableRecord
100
AcDbBlockTableRecord
  2
ZU_SYM__USERS_HOME_SYMBOL_POO_SYM_B20_0000318
340
0
102
{BLKREFS
331
DC
102
}
  0
BLOCK_RECORD
  5
E1
100
AcDbSymbolTableRecord
100
AcDbBlockTableRecord
  2
ZU_SYM__USERS_HOME_SYMBOL_POO_SYM_B20_0000418
340
0
102
{BLKREFS
331
EC
102
}
  0
ENDTAB
  0
ENDSEC
  0
SECTION
  2
BLOCKS
  0
BLOCK
  5
D
100
AcDbEntity
  8
0
390
0
100
AcDbBlockBegin
  2
*MODEL_SPACE
 70
     0
 10
0.0
 20
0.0
 30
0.0
  3
*MODEL_SPACE
  1

  0
ENDBLK
  5
E
100
AcDbEntity
  8
0
390
0
100
AcDbBlockEnd
  0
BLOCK
  5
F
100
AcDbEntity
 67
     1
  8
0
390
0
100
AcDbBlockBegin
  2
*PAPER_SPACE
 70
     0
 10
0.0
 20
0.0
 30
0.0
  3
*PAPER_SPACE
  1

  0
ENDBLK
  5
10
100
AcDbEntity
 67
     1
  8
0
390
0
100
AcDbBlockEnd
  0
BLOCK
  5
4A
100
AcDbEntity
  8
0
390
0
100
AcDbBlockBegin
  2
ZU_SYM__USERS_HOME_SYMBOL_POO_SYM_B20_18
 70
    64
 10
0.0
 20
0.0
 30
0.0
  3
ZU_SYM__USERS_HOME_SYMBOL_POO_SYM_B20_18
  1

  0
LINE
  5
4B
100
AcDbEntity
  8
0
370
    -3
390
0
  6
Continuous
100
AcDbLine
 10
-7.499999
 20
6.5
 30
0.0
 11
-7.499999
 21
-6.5
 31
0.0
  0
LINE
  5
4C
100
AcDbEntity
  8
0
370
    -3
390
0
  6
Continuous
100
AcDbLine
 10
-7.499998
 20
-6.499999
 30
0.0
 11
-7.999999
 21
-5.63407
 31
0.0
  0
LINE
  5
4D
100
AcDbEntity
  8
0
370
    -3
390
0
  6
Continuous
100
AcDbLine
 10
-7.499999
 20
6.5
 30
0.0
 11
-7.999999
 21
5.633876
 31
0.0
  0
LINE
  5
4E
100
AcDbEntity
  8
0
370
    -3
390
0
  6
Continuous
100
AcDbLine
 10
0.0
 20
-6.5
 30
0.0
 11
-7.499998
 21
-6.5
 31
0.0
  0
LINE
  5
4F
100
AcDbEntity
  8
0
370
    -3
390
0
  6
Continuous
100
AcDbLine
 10
0.0
 20
6.5
 30
0.0
 11
-7.499999
 21
6.5
 31
0.0
  0
LINE
  5
50
100
AcDbEntity
  8
0
370
    -3
390
0
  6
Continuous
100
AcDbLine
 10
-7.999999
 20
5.633876
 30
0.0
 11
-7.999999
 21
-5.63407
 31
0.0
  0
LINE
  5
51
100
AcDbEntity
  8
0
370
    -3
390
0
  6
Continuous
100
AcDbLine
 10
0.0
 20
-6.5
 30
0.0
 11
0.0
 21
6.5
 31
0.0
  0
POINT
  5
52
100
AcDbEntity
  8
0
370
    -3
390
0
  6
Continuous
100
AcDbPoint
 10
0.0
 20
0.0
 30
0.0
  0
ENDBLK
  5
53
100
AcDbEntity
  8
0
390
0
100
AcDbBlockEnd
  0
BLOCK
  5
5A
100
AcDbEntity
  8
0
390
0
100
AcDbBlockBegin
  2
ZU_SYM__USERS_HOME_SYMBOL_POO_SYM_B20_0000118
 70
    64
 10
0.0
 20
0.0
 30
0.0
  3
ZU_SYM__USERS_HOME_SYMBOL_POO_SYM_B20_0000118
  1

  0
LINE
  5
5B
100
AcDbEntity
  8
0
370
    -3
390
0
  6
Continuous
100
AcDbLine
 10
-7.499999
 20
6.5
 30
0.0
 11
-7.499999
 21
-6.5
 31
0.0
  0
LINE
  5
5C
100
AcDbEntity
  8
0
370
    -3
390
0
  6
Continuous
100
AcDbLine
 10
-7.499998
 20
-6.499999
 30
0.0
 11
-7.999999
 21
-5.63407
 31
0.0
  0
LINE
  5
5D
100
AcDbEntity
  8
0
370
    -3
390
0
  6
Continuous
100
AcDbLine
 10
-7.499999
 20
6.5
 30
0.0
 11
-7.999999
 21
5.633876
 31
0.0
  0
LINE
  5
5E
100
AcDbEntity
  8
0
370
    -3
390
0
  6
Continuous
100
AcDbLine
 10
0.0
 20
-6.5
 30
0.0
 11
-7.499998
 21
-6.5
 31
0.0
  0
LINE
  5
5F
100
AcDbEntity
  8
0
370
    -3
390
0
  6
Continuous
100
AcDbLine
 10
0.0
 20
6.5
 30
0.0
 11
-7.499999
 21
6.5
 31
0.0
  0
LINE
  5
60
100
AcDbEntity
  8
0
370
    -3
390
0
  6
Continuous
100
AcDbLine
 10
-7.999999
 20
5.633876
 30
0.0
 11
-7.999999
 21
-5.63407
 31
0.0
  0
LINE
  5
61
100
AcDbEntity
  8
0
370
    -3
390
0
  6
Continuous
100
AcDbLine
 10
0.0
 20
-6.5
 30
0.0
 11
0.0
 21
6.5
 31
0.0
  0
POINT
  5
62
100
AcDbEntity
  8
0
370
    -3
390
0
  6
Continuous
100
AcDbPoint
 10
0.0
 20
0.0
 30
0.0
  0
ENDBLK
  5
63
100
AcDbEntity
  8
0
390
0
100
AcDbBlockEnd
  0
BLOCK
  5
72
100
AcDbEntity
  8
0
390
0
100
AcDbBlockBegin
  2
ZU_SYM__USERS_HOME_SYMBOL_POO_SYM_B20_0000218
 70
    64
 10
0.0
 20
0.0
 30
0.0
  3
ZU_SYM__USERS_HOME_SYMBOL_POO_SYM_B20_0000218
  1

  0
LINE
  5
73
100
AcDbEntity
  8
0
370
    -3
390
0
  6
Continuous
100
AcDbLine
 10
-7.499999
 20
6.5
 30
0.0
 11
-7.499999
 21
-6.5
 31
0.0
  0
LINE
  5
74
100
AcDbEntity
  8
0
370
    -3
390
0
  6
Continuous
100
AcDbLine
 10
-7.499998
 20
-6.499999
 30
0.0
 11
-7.999999
 21
-5.63407
 31
0.0
  0
LINE
  5
75
100
AcDbEntity
  8
0
370
    -3
390
0
  6
Continuous
100
AcDbLine
 10
-7.499999
 20
6.5
 30
0.0
 11
-7.999999
 21
5.633876
 31
0.0
  0
LINE
  5
76
100
AcDbEntity
  8
0
370
    -3
390
0
  6
Continuous
100
AcDbLine
 10
0.0
 20
-6.5
 30
0.0
 11
-7.499998
 21
-6.5
 31
0.0
  0
LINE
  5
77
100
AcDbEntity
  8
0
370
    -3
390
0
  6
Continuous
100
AcDbLine
 10
0.0
 20
6.5
 30
0.0
 11
-7.499999
 21
6.5
 31
0.0
  0
LINE
  5
78
100
AcDbEntity
  8
0
370
    -3
390
0
  6
Continuous
100
AcDbLine
 10
-7.999999
 20
5.633876
 30
0.0
 11
-7.999999
 21
-5.63407
 31
0.0
  0
LINE
  5
79
100
AcDbEntity
  8
0
370
    -3
390
0
  6
Continuous
100
AcDbLine
 10
0.0
 20
-6.5
 30
0.0
 11
0.0
 21
6.5
 31
0.0
  0
POINT
  5
7A
100
AcDbEntity
  8
0
370
    -3
390
0
  6
Continuous
100
AcDbPoint
 10
0.0
 20
0.0
 30
0.0
  0
ENDBLK
  5
7B
100
AcDbEntity
  8
0
390
0
100
AcDbBlockEnd
  0
BLOCK
  5
D2
100
AcDbEntity
  8
0
390
0
100
AcDbBlockBegin
  2
ZU_SYM__USERS_HOME_SYMBOL_POO_SYM_B20_0000318
 70
    64
 10
0.0
 20
0.0
 30
0.0
  3
ZU_SYM__USERS_HOME_SYMBOL_POO_SYM_B20_0000318
  1

  0
LINE
  5
D3
100
AcDbEntity
  8
0
370
    -3
390
0
  6
Continuous
100
AcDbLine
 10
-7.499999
 20
6.5
 30
0.0
 11
-7.499999
 21
-6.5
 31
0.0
  0
LINE
  5
D4
100
AcDbEntity
  8
0
370
    -3
390
0
  6
Continuous
100
AcDbLine
 10
-7.499998
 20
-6.499999
 30
0.0
 11
-7.999999
 21
-5.63407
 31
0.0
  0
LINE
  5
D5
100
AcDbEntity
  8
0
370
    -3
390
0
  6
Continuous
100
AcDbLine
 10
-7.499999
 20
6.5
 30
0.0
 11
-7.999999
 21
5.633876
 31
0.0
  0
LINE
  5
D6
100
AcDbEntity
  8
0
370
    -3
390
0
  6
Continuous
100
AcDbLine
 10
0.0
 20
-6.5
 30
0.0
 11
-7.499998
 21
-6.5
 31
0.0
  0
LINE
  5
D7
100
AcDbEntity
  8
0
370
    -3
390
0
  6
Continuous
100
AcDbLine
 10
0.0
 20
6.5
 30
0.0
 11
-7.499999
 21
6.5
 31
0.0
  0
LINE
  5
D8
100
AcDbEntity
  8
0
370
    -3
390
0
  6
Continuous
100
AcDbLine
 10
-7.999999
 20
5.633876
 30
0.0
 11
-7.999999
 21
-5.63407
 31
0.0
  0
LINE
  5
D9
100
AcDbEntity
  8
0
370
    -3
390
0
  6
Continuous
100
AcDbLine
 10
0.0
 20
-6.5
 30
0.0
 11
0.0
 21
6.5
 31
0.0
  0
POINT
  5
DA
100
AcDbEntity
  8
0
370
    -3
390
0
  6
Continuous
100
AcDbPoint
 10
0.0
 20
0.0
 30
0.0
  0
ENDBLK
  5
DB
100
AcDbEntity
  8
0
390
0
100
AcDbBlockEnd
  0
BLOCK
  5
E2
100
AcDbEntity
  8
0
390
0
100
AcDbBlockBegin
  2
ZU_SYM__USERS_HOME_SYMBOL_POO_SYM_B20_0000418
 70
    64
 10
0.0
 20
0.0
 30
0.0
  3
ZU_SYM__USERS_HOME_SYMBOL_POO_SYM_B20_0000418
  1

  0
LINE
  5
E3
100
AcDbEntity
  8
0
370
    -3
390
0
  6
Continuous
100
AcDbLine
 10
-7.499999
 20
6.5
 30
0.0
 11
-7.499999
 21
-6.5
 31
0.0
  0
LINE
  5
E4
100
AcDbEntity
  8
0
370
    -3
390
0
  6
Continuous
100
AcDbLine
 10
-7.499998
 20
-6.499999
 30
0.0
 11
-7.999999
 21
-5.63407
 31
0.0
  0
LINE
  5
E5
100
AcDbEntity
  8
0
370
    -3
390
0
  6
Continuous
100
AcDbLine
 10
-7.499999
 20
6.5
 30
0.0
 11
-7.999999
 21
5.633876
 31
0.0
  0
LINE
  5
E6
100
AcDbEntity
  8
0
370
    -3
390
0
  6
Continuous
100
AcDbLine
 10
0.0
 20
-6.5
 30
0.0
 11
-7.499998
 21
-6.5
 31
0.0
  0
LINE
  5
E7
100
AcDbEntity
  8
0
370
    -3
390
0
  6
Continuous
100
AcDbLine
 10
0.0
 20
6.5
 30
0.0
 11
-7.499999
 21
6.5
 31
0.0
  0
LINE
  5
E8
100
AcDbEntity
  8
0
370
    -3
390
0
  6
Continuous
100
AcDbLine
 10
-7.999999
 20
5.633876
 30
0.0
 11
-7.999999
 21
-5.63407
 31
0.0
  0
LINE
  5
E9
100
AcDbEntity
  8
0
370
    -3
390
0
  6
Continuous
100
AcDbLine
 10
0.0
 20
-6.5
 30
0.0
 11
0.0
 21
6.5
 31
0.0
  0
POINT
  5
EA
100
AcDbEntity
  8
0
370
    -3
390
0
  6
Continuous
100
AcDbPoint
 10
0.0
 20
0.0
 30
0.0
  0
ENDBLK
  5
EB
100
AcDbEntity
  8
0
390
0
100
AcDbBlockEnd
  0
ENDSEC
  0
SECTION
  2
ENTITIES
  0
ARC
  5
29
100
AcDbEntity
  8
0
370
    -3
390
0
  6
Continuous
100
AcDbCircle
 10
-104.190647
 20
71.511981
 30
0.0
 40
9.0
100
AcDbArc
 50
253.398469
 51
286.601548
  0
LINE
  5
2A
100
AcDbEntity
  8
0
370
    -3
390
0
  6
Continuous
100
AcDbLine
 10
-100.690647
 20
64.132956
 30
0.0
 11
-100.690647
 21
64.529483
 31
0.0
  0
ARC
  5
2B
100
AcDbEntity
  8
0
370
    -3
390
0
  6
Continuous
100
AcDbCircle
 10
-101.990646
 20
64.132956
 30
0.0
 40
1.299999
100
AcDbArc
 50
286.601531
 51
0.0
  0
ARC
  5
2C
100
AcDbEntity
  8
0
370
    -3
390
0
  6
Continuous
100
AcDbCircle
 10
-102.190647
 20
64.529483
 30
0.0
 40
1.5
100
AcDbArc
 50
0.0
 51
32.230953
  0
ARC
  5
2D
100
AcDbEntity
  8
0
370
    -3
390
0
  6
Continuous
100
AcDbCircle
 10
-106.190647
 20
64.529483
 30
0.0
 40
1.5
100
AcDbArc
 50
147.769047
 51
180.0
  0
LINE
  5
2E
100
AcDbEntity
  8
0
370
    -3
390
0
  6
Continuous
100
AcDbLine
 10
-107.690647
 20
64.132956
 30
0.0
 11
-107.690647
 21
64.529483
 31
0.0
  0
ARC
  5
2F
100
AcDbEntity
  8
0
370
    -3
390
0
  6
Continuous
100
AcDbCircle
 10
-106.390647
 20
64.132956
 30
0.0
 40
1.299999
100
AcDbArc
 50
180.0
 51
253.398469
  0
LINE
  5
30
100
AcDbEntity
  8
0
370
    -3
390
0
  6
Continuous
100
AcDbLine
 10
-574.366986
 20
-370.974112
 30
0.0
 11
-494.866986
 21
-370.974112
 31
0.0
  0
ARC
  5
31
100
AcDbEntity
  8
0
370
    -3
390
0
  6
Continuous
100
AcDbCircle
 10
-574.366986
 20
-358.974112
 30
0.0
 40
12.0
100
AcDbArc
 50
177.134016
 51
270.0
  0
ARC
  5
32
100
AcDbEntity
  8
0
370
    -3
390
0
  6
Continuous
100
AcDbCircle
 10
-592.34258
 20
-358.91114
 30
0.0
 40
6.0
100
AcDbArc
 50
2.984
 51
23.964546
  0
ARC
  5
33
100
AcDbEntity
  8
0
370
    -3
390
0
  6
Continuous
100
AcDbCircle
 10
-415.366986
 20
-358.974112
 30
0.0
 40
12.0
100
AcDbArc
 50
270.0
 51
2.865984
  0
ARC
  5
34
100
AcDbEntity
  8
0
370
    -3
390
0
  6
Continuous
100
AcDbCircle
 10
-397.391392
 20
-358.91114
 30
0.0
 40
6.0
100
AcDbArc
 50
156.035454
 51
177.016
  0
LINE
  5
35
100
AcDbEntity
  8
0
370
    -3
390
0
  6
Continuous
100
AcDbLine
 10
-415.366986
 20
-370.974112
 30
0.0
 11
-494.866986
 21
-370.974112
 31
0.0
  0
ARC
  5
36
100
AcDbEntity
  8
0
370
    -3
390
0
  6
Continuous
100
AcDbCircle
 10
536.709079
 20
-198.974112
 30
0.0
 40
70.0
100
AcDbArc
 50
90.0
 51
0.0
  0
LINE
  5
37
100
AcDbEntity
  8
0
370
    -3
390
0
  6
Continuous
100
AcDbLine
 10
55.809353
 20
-155.474112
 30
0.0
 11
55.809353
 21
-322.474112
 31
0.0
  0
LINE
  5
38
100
AcDbEntity
  8
0
370
    -3
390
0
  6
CENTER
100
AcDbLine
 10
-264.449851
 20
-238.974112
 30
0.0
 11
92.34493
 21
-238.974112
 31
0.0
  0
LINE
  5
39
100
AcDbEntity
  8
0
370
    -3
390
0
  6
CENTER
100
AcDbLine
 10
567.861098
 20
-238.974112
 30
0.0
 11
509.662874
 21
-238.974112
 31
0.0
  0
LINE
  5
3A
100
AcDbEntity
  8
0
370
    -3
390
0
  6
CENTER
100
AcDbLine
 10
536.709079
 20
-27.852146
 30
0.0
 11
536.709079
 21
-376.314271
 31
0.0
  0
LINE
  5
3B
100
AcDbEntity
  8
0
370
    -3
390
0
  6
Continuous
100
AcDbLine
 10
57.809353
 20
-238.974112
 30
0.0
 11
57.809353
 21
-157.372042
 31
0.0
  0
LINE
  5
3C
100
AcDbEntity
  8
0
370
    -3
390
0
  6
Continuous
100
AcDbLine
 10
57.809353
 20
-238.974112
 30
0.0
 11
57.809353
 21
-320.576183
 31
0.0
  0
LINE
  5
3D
100
AcDbEntity
  8
0
370
    -3
390
0
  6
Continuous
100
AcDbLine
 10
55.809353
 20
-238.974112
 30
0.0
 11
55.809353
 21
-312.974112
 31
0.0
  0
LINE
  5
3E
100
AcDbEntity
  8
0
370
    -3
390
0
  6
Continuous
100
AcDbLine
 10
55.809353
 20
-238.974112
 30
0.0
 11
55.809353
 21
-164.974112
 31
0.0
  0
ARC
  5
3F
100
AcDbEntity
  8
0
370
    -3
390
0
  6
Continuous
100
AcDbCircle
 10
55.809353
 20
-162.974112
 30
0.0
 40
2.0
100
AcDbArc
 50
270.0
 51
0.0
  0
ARC
  5
40
100
AcDbEntity
  8
0
370
    -3
390
0
  6
Continuous
100
AcDbCircle
 10
55.809353
 20
-314.974112
 30
0.0
 40
2.0
100
AcDbArc
 50
0.0
 51
90.0
  0
LINE
  5
41
100
AcDbEntity
  8
0
370
    -3
390
0
  6
CENTER
100
AcDbLine
 10
448.848455
 20
-238.974112
 30
0.0
 11
388.794617
 21
-238.974112
 31
0.0
  0
LINE
  5
42
100
AcDbEntity
  8
0
370
    -3
390
0
  6
Continuous
100
AcDbLine
 10
69.309353
 20
-150.1266
 30
0.0
 11
69.309353
 21
-121.630967
 31
0.0
  0
LINE
  5
43
100
AcDbEntity
  8
0
370
    -3
390
0
  6
Continuous
100
AcDbLine
 10
68.309353
 20
-118.974112
 30
0.0
 11
72.309353
 21
-118.974112
 31
0.0
  0
ARC
  5
44
100
AcDbEntity
  8
0
370
    -3
390
0
  6
Continuous
100
AcDbCircle
 10
68.309353
 20
-115.974112
 30
0.0
 40
3.0
100
AcDbArc
 50
180.0
 51
270.0
  0
ARC
  5
45
100
AcDbEntity
  8
0
370
    -3
390
0
  6
Continuous
100
AcDbCircle
 10
66.309353
 20
-121.630967
 30
0.0
 40
3.0
100
AcDbArc
 50
0.0
 51
70.528779
  0
ARC
  5
46
100
AcDbEntity
  8
0
370
    -3
390
0
  6
Continuous
100
AcDbCircle
 10
72.309353
 20
-123.974112
 30
0.0
 40
5.0
100
AcDbArc
 50
0.0
 51
90.0
  0
LINE
  5
47
100
AcDbEntity
  8
0
370
    -3
390
0
  6
Continuous
100
AcDbLine
 10
65.309353
 20
-115.974112
 30
0.0
 11
65.309353
 21
-95.974112
 31
0.0
  0
ARC
  5
48
100
AcDbEntity
  8
0
370
    -3
390
0
  6
Continuous
100
AcDbCircle
 10
67.309353
 20
-95.974112
 30
0.0
 40
2.0
100
AcDbArc
 50
90.0
 51
180.0
  0
INSERT
  5
54
100
AcDbEntity
  8
0
390
0
100
AcDbBlockReference
  2
ZU_SYM__USERS_HOME_SYMBOL_POO_SYM_B20_18
 10
77.309353
 20
-107.974113
 30
0.0
  0
LINE
  5
55
100
AcDbEntity
  8
0
370
    -3
390
0
  6
Continuous
100
AcDbLine
 10
77.309353
 20
-238.974112
 30
0.0
 11
77.309353
 21
-95.974112
 31
0.0
  0
LINE
  5
56
100
AcDbEntity
  8
0
370
    -3
390
0
  6
Continuous
100
AcDbLine
 10
67.309353
 20
-93.974112
 30
0.0
 11
88.309353
 21
-93.974112
 31
0.0
  0
LINE
  5
57
100
AcDbEntity
  8
0
370
    -3
390
0
  6
Continuous
100
AcDbLine
 10
88.309353
 20
-238.974112
 30
0.0
 11
88.309353
 21
-93.974112
 31
0.0
  0
ARC
  5
58
100
AcDbEntity
  8
0
370
    -3
390
0
  6
Continuous
100
AcDbCircle
 10
79.309353
 20
-95.974112
 30
0.0
 40
2.0
100
AcDbArc
 50
90.0
 51
180.0
  0
INSERT
  5
64
100
AcDbEntity
  8
0
390
0
100
AcDbBlockReference
  2
ZU_SYM__USERS_HOME_SYMBOL_POO_SYM_B20_0000118
 10
60.809353
 20
-106.974112
 30
0.0
  0
LINE
  5
65
100
AcDbEntity
  8
0
370
    -3
390
0
  6
Continuous
100
AcDbLine
 10
60.809353
 20
-116.974112
 30
0.0
 11
65.309353
 21
-116.974112
 31
0.0
  0
LINE
  5
66
100
AcDbEntity
  8
0
370
    -3
390
0
  6
CENTER
100
AcDbLine
 10
55.079106
 20
-78.974112
 30
0.0
 11
73.178372
 21
-78.974112
 31
0.0
  0
LINE
  5
67
100
AcDbEntity
  8
0
370
    -3
390
0
  6
Continuous
100
AcDbLine
 10
65.309353
 20
-58.974112
 30
0.0
 11
65.309353
 21
-116.974112
 31
0.0
  0
LINE
  5
68
100
AcDbEntity
  8
0
370
    -3
390
0
  6
Continuous
100
AcDbLine
 10
60.809353
 20
-58.974112
 30
0.0
 11
65.309353
 21
-58.974112
 31
0.0
  0
LINE
  5
69
100
AcDbEntity
  8
0
370
    -3
390
0
  6
Continuous
100
AcDbLine
 10
60.809353
 20
-116.974112
 30
0.0
 11
60.809353
 21
-58.974112
 31
0.0
  0
LINE
  5
6A
100
AcDbEntity
  8
0
370
    -3
390
0
  6
CENTER
100
AcDbLine
 10
45.317709
 20
-106.974112
 30
0.0
 11
71.632369
 21
-106.974112
 31
0.0
  0
LINE
  5
6B
100
AcDbEntity
  8
0
370
    -3
390
0
  6
Continuous
100
AcDbLine
 10
194.522537
 20
-90.265066
 30
0.0
 11
88.809049
 21
-93.956663
 31
0.0
  0
LINE
  5
6C
100
AcDbEntity
  8
0
370
    -3
390
0
  6
Continuous
100
AcDbLine
 10
88.809353
 20
-366.974112
 30
0.0
 11
88.809353
 21
-93.956652
 31
0.0
  0
LINE
  5
6D
100
AcDbEntity
  8
0
370
    -3
390
0
  6
Continuous
100
AcDbLine
 10
72.571033
 20
-154.700486
 30
0.0
 11
59.704681
 21
-155.374783
 31
0.0
  0
ARC
  5
6E
100
AcDbEntity
  8
0
370
    -3
390
0
  6
Continuous
100
AcDbCircle
 10
64.309353
 20
-150.1266
 30
0.0
 40
5.0
100
AcDbArc
 50
273.0
 51
0.0
  0
ARC
  5
6F
100
AcDbEntity
  8
0
370
    -3
390
0
  6
Continuous
100
AcDbCircle
 10
59.809353
 20
-157.372042
 30
0.0
 40
2.0
100
AcDbArc
 50
93.0
 51
180.0
  0
ARC
  5
70
100
AcDbEntity
  8
0
370
    -3
390
0
  6
Continuous
100
AcDbCircle
 10
72.309353
 20
-149.707338
 30
0.0
 40
5.0
100
AcDbArc
 50
273.0
 51
0.0
  0
INSERT
  5
7C
100
AcDbEntity
  8
0
390
0
100
AcDbBlockReference
  2
ZU_SYM__USERS_HOME_SYMBOL_POO_SYM_B20_0000218
 10
77.309353
 20
-176.974113
 30
0.0
  0
LINE
  5
7D
100
AcDbEntity
  8
0
370
    -3
390
0
  6
Continuous
100
AcDbLine
 10
224.809353
 20
-112.069279
 30
0.0
 11
219.809353
 21
-112.069279
 31
0.0
  0
LINE
  5
7E
100
AcDbEntity
  8
0
370
    -3
390
0
  6
Continuous
100
AcDbLine
 10
224.809353
 20
-76.829451
 30
0.0
 11
219.809353
 21
-76.829451
 31
0.0
  0
ARC
  5
7F
100
AcDbEntity
  8
0
370
    -3
390
0
  6
Continuous
100
AcDbCircle
 10
219.809353
 20
-78.829451
 30
0.0
 40
2.0
100
AcDbArc
 50
90.0
 51
180.0
  0
LINE
  5
80
100
AcDbEntity
  8
0
370
    -3
390
0
  6
Continuous
100
AcDbLine
 10
217.809353
 20
-191.974112
 30
0.0
 11
217.809353
 21
-78.829451
 31
0.0
  0
ARC
  5
81
100
AcDbEntity
  8
0
370
    -3
390
0
  6
Continuous
100
AcDbCircle
 10
219.809353
 20
-114.069279
 30
0.0
 40
2.0
100
AcDbArc
 50
90.0
 51
180.0
  0
LINE
  5
82
100
AcDbEntity
  8
0
370
    -3
390
0
  6
CENTER
100
AcDbLine
 10
232.370186
 20
-64.623824
 30
0.0
 11
198.404106
 21
-64.623824
 31
0.0
  0
LINE
  5
83
100
AcDbEntity
  8
0
370
    -3
390
0
  6
Continuous
100
AcDbLine
 10
204.809353
 20
-353.474112
 30
0.0
 11
204.809353
 21
-44.474112
 31
0.0
  0
ARC
  5
84
100
AcDbEntity
  8
0
370
    -3
390
0
  6
Continuous
100
AcDbCircle
 10
227.309353
 20
-133.718935
 30
0.0
 40
5.0
100
AcDbArc
 50
0.0
 51
72.542397
  0
LINE
  5
85
100
AcDbEntity
  8
0
370
    -3
390
0
  6
Continuous
100
AcDbLine
 10
228.809353
 20
-198.974112
 30
0.0
 11
228.809353
 21
-54.974112
 31
0.0
  0
LINE
  5
86
100
AcDbEntity
  8
0
370
    -3
390
0
  6
Continuous
100
AcDbLine
 10
232.309353
 20
-198.974112
 30
0.0
 11
232.309353
 21
-133.718935
 31
0.0
  0
LINE
  5
87
100
AcDbEntity
  8
0
370
    -3
390
0
  6
Continuous
100
AcDbLine
 10
224.809353
 20
-198.974112
 30
0.0
 11
224.809353
 21
-41.474112
 31
0.0
  0
ARC
  5
88
100
AcDbEntity
  8
0
370
    -3
390
0
  6
Continuous
100
AcDbCircle
 10
233.309353
 20
-153.974112
 30
0.0
 40
1.0
100
AcDbArc
 50
180.0
 51
270.0
  0
ARC
  5
89
100
AcDbEntity
  8
0
370
    -3
390
0
  6
Continuous
100
AcDbCircle
 10
207.809353
 20
-44.474112
 30
0.0
 40
3.0
100
AcDbArc
 50
90.0
 51
180.0
  0
ARC
  5
8A
100
AcDbEntity
  8
0
370
    -3
390
0
  6
Continuous
100
AcDbCircle
 10
199.809353
 20
-51.885595
 30
0.0
 40
5.0
100
AcDbArc
 50
315.0
 51
0.0
  0
ARC
  5
8B
100
AcDbEntity
  8
0
370
    -3
390
0
  6
Continuous
100
AcDbCircle
 10
165.416525
 20
-86.278423
 30
0.0
 40
5.0
100
AcDbArc
 50
272.0
 51
315.0
  0
LINE
  5
8C
100
AcDbEntity
  8
0
370
    -3
390
0
  6
Continuous
100
AcDbLine
 10
224.809353
 20
-41.474112
 30
0.0
 11
207.809353
 21
-41.474112
 31
0.0
  0
LINE
  5
8D
100
AcDbEntity
  8
0
370
    -3
390
0
  6
Continuous
100
AcDbLine
 10
227.809353
 20
-53.974112
 30
0.0
 11
224.809353
 21
-53.974112
 31
0.0
  0
LINE
  5
8E
100
AcDbEntity
  8
0
370
    -3
390
0
  6
Continuous
100
AcDbLine
 10
234.309353
 20
-242.974112
 30
0.0
 11
234.309353
 21
-154.974112
 31
0.0
  0
LINE
  5
8F
100
AcDbEntity
  8
0
370
    -3
390
0
  6
Continuous
100
AcDbLine
 10
228.809353
 20
-54.974112
 30
0.0
 11
227.809353
 21
-53.974112
 31
0.0
  0
LINE
  5
90
100
AcDbEntity
  8
0
370
    -3
390
0
  6
Continuous
100
AcDbLine
 10
233.309353
 20
-154.974112
 30
0.0
 11
234.309353
 21
-154.974112
 31
0.0
  0
LINE
  5
91
100
AcDbEntity
  8
0
370
    -3
390
0
  6
Continuous
100
AcDbLine
 10
203.344887
 20
-55.421129
 30
0.0
 11
168.952059
 21
-89.813957
 31
0.0
  0
LINE
  5
92
100
AcDbEntity
  8
0
370
    -3
390
0
  6
Continuous
100
AcDbLine
 10
200.114674
 20
-114.520881
 30
0.0
 11
172.271163
 21
-114.520881
 31
0.0
  0
ARC
  5
93
100
AcDbEntity
  8
0
370
    -3
390
0
  6
Continuous
100
AcDbCircle
 10
165.970948
 20
-104.31976
 30
0.0
 40
5.0
100
AcDbArc
 50
270.0
 51
305.248603
  0
LINE
  5
94
100
AcDbEntity
  8
0
370
    -3
390
0
  6
Continuous
100
AcDbLine
 10
202.69498
 20
-84.489654
 30
0.0
 11
168.856574
 21
-108.403038
 31
0.0
  0
ARC
  5
95
100
AcDbEntity
  8
0
370
    -3
390
0
  6
Continuous
100
AcDbCircle
 10
165.970948
 20
-109.520881
 30
0.0
 40
5.0
100
AcDbArc
 50
270.0
 51
305.248603
  0
LINE
  5
96
100
AcDbEntity
  8
0
370
    -3
390
0
  6
Continuous
100
AcDbLine
 10
202.69498
 20
-89.690775
 30
0.0
 11
168.856574
 21
-113.604159
 31
0.0
  0
ARC
  5
97
100
AcDbEntity
  8
0
370
    -3
390
0
  6
Continuous
100
AcDbCircle
 10
199.809353
 20
-80.406375
 30
0.0
 40
5.0
100
AcDbArc
 50
305.248603
 51
0.0
  0
ARC
  5
98
100
AcDbEntity
  8
0
370
    -3
390
0
  6
Continuous
100
AcDbCircle
 10
199.809353
 20
-85.607497
 30
0.0
 40
5.0
100
AcDbArc
 50
305.248603
 51
0.0
  0
ARC
  5
99
100
AcDbEntity
  8
0
370
    -3
390
0
  6
Continuous
100
AcDbCircle
 10
248.308946
 20
-199.005345
 30
0.0
 40
7.0
100
AcDbArc
 50
90.0
 51
270.0
  0
LINE
  5
9A
100
AcDbEntity
  8
0
370
    -3
390
0
  6
Continuous
100
AcDbLine
 10
311.309353
 20
-192.005345
 30
0.0
 11
248.308946
 21
-192.005345
 31
0.0
  0
LINE
  5
9B
100
AcDbEntity
  8
0
370
    -3
390
0
  6
Continuous
100
AcDbLine
 10
311.309353
 20
-206.005345
 30
0.0
 11
248.308946
 21
-206.005345
 31
0.0
  0
LINE
  5
9C
100
AcDbEntity
  8
0
370
    -3
390
0
  6
Continuous
100
AcDbLine
 10
311.309353
 20
-198.974112
 30
0.0
 11
311.309353
 21
-175.374112
 31
0.0
  0
ARC
  5
9D
100
AcDbEntity
  8
0
370
    -3
390
0
  6
Continuous
100
AcDbCircle
 10
310.909353
 20
-175.374112
 30
0.0
 40
0.4
100
AcDbArc
 50
0.0
 51
90.0
  0
LINE
  5
9E
100
AcDbEntity
  8
0
370
    -3
390
0
  6
Continuous
100
AcDbLine
 10
310.909353
 20
-174.974112
 30
0.0
 11
238.869161
 21
-174.974112
 31
0.0
  0
ARC
  5
9F
100
AcDbEntity
  8
0
370
    -3
390
0
  6
Continuous
100
AcDbCircle
 10
310.909353
 20
-222.574112
 30
0.0
 40
0.4
100
AcDbArc
 50
270.0
 51
0.0
  0
LINE
  5
A0
100
AcDbEntity
  8
0
370
    -3
390
0
  6
Continuous
100
AcDbLine
 10
311.309353
 20
-198.974112
 30
0.0
 11
311.309353
 21
-222.574112
 31
0.0
  0
LINE
  5
A1
100
AcDbEntity
  8
0
370
    -3
390
0
  6
Continuous
100
AcDbLine
 10
310.909353
 20
-222.974112
 30
0.0
 11
238.869161
 21
-222.974112
 31
0.0
  0
LINE
  5
A2
100
AcDbEntity
  8
0
370
    -3
390
0
  6
Continuous
100
AcDbLine
 10
236.109353
 20
-173.974112
 30
0.0
 11
234.309353
 21
-173.974112
 31
0.0
  0
LINE
  5
A3
100
AcDbEntity
  8
0
370
    -3
390
0
  6
Continuous
100
AcDbLine
 10
236.109353
 20
-223.974112
 30
0.0
 11
234.309353
 21
-223.974112
 31
0.0
  0
LINE
  5
A4
100
AcDbEntity
  8
0
370
    -3
390
0
  6
Continuous
100
AcDbLine
 10
236.309353
 20
-223.774112
 30
0.0
 11
236.109353
 21
-223.974112
 31
0.0
  0
ARC
  5
A5
100
AcDbEntity
  8
0
370
    -3
390
0
  6
Continuous
100
AcDbCircle
 10
237.109353
 20
-223.624112
 30
0.0
 40
0.8
100
AcDbArc
 50
90.0
 51
180.0
  0
LINE
  5
A6
100
AcDbEntity
  8
0
370
    -3
390
0
  6
Continuous
100
AcDbLine
 10
236.309353
 20
-223.624112
 30
0.0
 11
236.309353
 21
-223.774112
 31
0.0
  0
LINE
  5
A7
100
AcDbEntity
  8
0
370
    -3
390
0
  6
Continuous
100
AcDbLine
 10
238.309353
 20
-222.824112
 30
0.0
 11
237.109353
 21
-222.824112
 31
0.0
  0
LINE
  5
A8
100
AcDbEntity
  8
0
370
    -3
390
0
  6
Continuous
100
AcDbLine
 10
238.309353
 20
-222.824112
 30
0.0
 11
238.869161
 21
-222.974112
 31
0.0
  0
LINE
  5
A9
100
AcDbEntity
  8
0
370
    -3
390
0
  6
Continuous
100
AcDbLine
 10
236.309353
 20
-198.974112
 30
0.0
 11
236.309353
 21
-223.624112
 31
0.0
  0
LINE
  5
AA
100
AcDbEntity
  8
0
370
    -3
390
0
  6
Continuous
100
AcDbLine
 10
236.309353
 20
-174.174112
 30
0.0
 11
236.109353
 21
-173.974112
 31
0.0
  0
ARC
  5
AB
100
AcDbEntity
  8
0
370
    -3
390
0
  6
Continuous
100
AcDbCircle
 10
237.109353
 20
-174.324112
 30
0.0
 40
0.8
100
AcDbArc
 50
180.0
 51
270.0
  0
LINE
  5
AC
100
AcDbEntity
  8
0
370
    -3
390
0
  6
Continuous
100
AcDbLine
 10
236.309353
 20
-174.324112
 30
0.0
 11
236.309353
 21
-174.174112
 31
0.0
  0
LINE
  5
AD
100
AcDbEntity
  8
0
370
    -3
390
0
  6
Continuous
100
AcDbLine
 10
238.309353
 20
-175.124112
 30
0.0
 11
237.109353
 21
-175.124112
 31
0.0
  0
LINE
  5
AE
100
AcDbEntity
  8
0
370
    -3
390
0
  6
Continuous
100
AcDbLine
 10
238.309353
 20
-175.124112
 30
0.0
 11
238.869161
 21
-174.974112
 31
0.0
  0
LINE
  5
AF
100
AcDbEntity
  8
0
370
    -3
390
0
  6
Continuous
100
AcDbLine
 10
236.309353
 20
-198.974112
 30
0.0
 11
236.309353
 21
-174.324112
 31
0.0
  0
LINE
  5
B0
100
AcDbEntity
  8
0
370
    -3
390
0
  6
Continuous
100
AcDbLine
 10
224.809353
 20
-203.974112
 30
0.0
 11
219.809353
 21
-203.974112
 31
0.0
  0
LINE
  5
B1
100
AcDbEntity
  8
0
370
    -3
390
0
  6
Continuous
100
AcDbLine
 10
217.809353
 20
-205.974112
 30
0.0
 11
217.809353
 21
-319.118773
 31
0.0
  0
ARC
  5
B2
100
AcDbEntity
  8
0
370
    -3
390
0
  6
Continuous
100
AcDbCircle
 10
219.809353
 20
-283.878946
 30
0.0
 40
2.0
100
AcDbArc
 50
180.0
 51
270.0
  0
ARC
  5
B3
100
AcDbEntity
  8
0
370
    -3
390
0
  6
Continuous
100
AcDbCircle
 10
219.809353
 20
-205.974112
 30
0.0
 40
2.0
100
AcDbArc
 50
90.0
 51
180.0
  0
LINE
  5
B4
100
AcDbEntity
  8
0
370
    -3
390
0
  6
Continuous
100
AcDbLine
 10
224.809353
 20
-193.974112
 30
0.0
 11
219.809353
 21
-193.974112
 31
0.0
  0
ARC
  5
B5
100
AcDbEntity
  8
0
370
    -3
390
0
  6
Continuous
100
AcDbCircle
 10
219.809353
 20
-191.974112
 30
0.0
 40
2.0
100
AcDbArc
 50
180.0
 51
270.0
  0
LINE
  5
B6
100
AcDbEntity
  8
0
370
    -3
390
0
  6
CENTER
100
AcDbLine
 10
315.70343
 20
-198.974112
 30
0.0
 11
175.852525
 21
-198.974112
 31
0.0
  0
ARC
  5
B7
100
AcDbEntity
  8
0
370
    -3
390
0
  6
Continuous
100
AcDbCircle
 10
232.809353
 20
-272.325759
 30
0.0
 40
5.0
100
AcDbArc
 50
123.367013
 51
143.130102
  0
LINE
  5
B8
100
AcDbEntity
  8
0
370
    -3
390
0
  6
Continuous
100
AcDbLine
 10
224.809353
 20
-198.974112
 30
0.0
 11
224.809353
 21
-356.474112
 31
0.0
  0
LINE
  5
B9
100
AcDbEntity
  8
0
370
    -3
390
0
  6
Continuous
100
AcDbLine
 10
228.809353
 20
-198.974112
 30
0.0
 11
228.809353
 21
-342.974112
 31
0.0
  0
LINE
  5
BA
100
AcDbEntity
  8
0
370
    -3
390
0
  6
Continuous
100
AcDbLine
 10
232.309353
 20
-198.974112
 30
0.0
 11
232.309353
 21
-263.974112
 31
0.0
  0
ARC
  5
BB
100
AcDbEntity
  8
0
370
    -3
390
0
  6
Continuous
100
AcDbCircle
 10
233.309353
 20
-243.974112
 30
0.0
 40
1.0
100
AcDbArc
 50
90.0
 51
180.0
  0
ARC
  5
BC
100
AcDbEntity
  8
0
370
    -3
390
0
  6
Continuous
100
AcDbCircle
 10
227.309353
 20
-263.974112
 30
0.0
 40
5.0
100
AcDbArc
 50
303.367013
 51
0.0
  0
LINE
  5
BD
100
AcDbEntity
  8
0
370
    -3
390
0
  6
Continuous
100
AcDbLine
 10
233.309353
 20
-242.974112
 30
0.0
 11
234.309353
 21
-242.974112
 31
0.0
  0
LINE
  5
BE
100
AcDbEntity
  8
0
370
    -3
390
0
  6
Continuous
100
AcDbLine
 10
224.809353
 20
-285.878946
 30
0.0
 11
219.809353
 21
-285.878946
 31
0.0
  0
LINE
  5
BF
100
AcDbEntity
  8
0
370
    -3
390
0
  6
Continuous
100
AcDbLine
 10
224.809353
 20
-321.118773
 30
0.0
 11
219.809353
 21
-321.118773
 31
0.0
  0
ARC
  5
C0
100
AcDbEntity
  8
0
370
    -3
390
0
  6
Continuous
100
AcDbCircle
 10
219.809353
 20
-319.118773
 30
0.0
 40
2.0
100
AcDbArc
 50
180.0
 51
270.0
  0
LINE
  5
C1
100
AcDbEntity
  8
0
370
    -3
390
0
  6
CENTER
100
AcDbLine
 10
232.321
 20
-333.324401
 30
0.0
 11
199.312999
 21
-333.324401
 31
0.0
  0
LINE
  5
C2
100
AcDbEntity
  8
0
370
    -3
390
0
  6
Continuous
100
AcDbLine
 10
224.809353
 20
-356.474112
 30
0.0
 11
207.809353
 21
-356.474112
 31
0.0
  0
ARC
  5
C3
100
AcDbEntity
  8
0
370
    -3
390
0
  6
Continuous
100
AcDbCircle
 10
207.809353
 20
-353.474112
 30
0.0
 40
3.0
100
AcDbArc
 50
180.0
 51
270.0
  0
ARC
  5
C4
100
AcDbEntity
  8
0
370
    -3
390
0
  6
Continuous
100
AcDbCircle
 10
213.809353
 20
-359.474112
 30
0.0
 40
3.0
100
AcDbArc
 50
90.0
 51
180.0
  0
ARC
  5
C5
100
AcDbEntity
  8
0
370
    -3
390
0
  6
Continuous
100
AcDbCircle
 10
207.809353
 20
-367.87414
 30
0.0
 40
3.0
100
AcDbArc
 50
268.122123
 51
0.0
  0
LINE
  5
C6
100
AcDbEntity
  8
0
370
    -3
390
0
  6
Continuous
100
AcDbLine
 10
227.809353
 20
-343.974112
 30
0.0
 11
224.809353
 21
-343.974112
 31
0.0
  0
LINE
  5
C7
100
AcDbEntity
  8
0
370
    -3
390
0
  6
Continuous
100
AcDbLine
 10
210.809353
 20
-367.87414
 30
0.0
 11
210.809353
 21
-359.474112
 31
0.0
  0
LINE
  5
C8
100
AcDbEntity
  8
0
370
    -3
390
0
  6
Continuous
100
AcDbLine
 10
88.809353
 20
-366.974112
 30
0.0
 11
207.711046
 21
-370.872529
 31
0.0
  0
LINE
  5
C9
100
AcDbEntity
  8
0
370
    -3
390
0
  6
Continuous
100
AcDbLine
 10
228.809353
 20
-342.974112
 30
0.0
 11
227.809353
 21
-343.974112
 31
0.0
  0
ARC
  5
CA
100
AcDbEntity
  8
0
370
    -3
390
0
  6
Continuous
100
AcDbCircle
 10
62.309353
 20
-325.714064
 30
0.0
 40
3.0
100
AcDbArc
 50
0.0
 51
87.0
  0
LINE
  5
CB
100
AcDbEntity
  8
0
370
    -3
390
0
  6
Continuous
100
AcDbLine
 10
70.047674
 20
-335.102488
 30
0.0
 11
72.571033
 21
-335.234732
 31
0.0
  0
ARC
  5
CC
100
AcDbEntity
  8
0
370
    -3
390
0
  6
Continuous
100
AcDbCircle
 10
70.309353
 20
-330.10934
 30
0.0
 40
5.0
100
AcDbArc
 50
180.0
 51
267.0
  0
ARC
  5
CD
100
AcDbEntity
  8
0
370
    -3
390
0
  6
Continuous
100
AcDbCircle
 10
72.309353
 20
-340.227879
 30
0.0
 40
5.0
100
AcDbArc
 50
0.0
 51
87.0
  0
LINE
  5
CE
100
AcDbEntity
  8
0
370
    -3
390
0
  6
Continuous
100
AcDbLine
 10
65.309353
 20
-325.714064
 30
0.0
 11
65.309353
 21
-330.10934
 31
0.0
  0
ARC
  5
CF
100
AcDbEntity
  8
0
370
    -3
390
0
  6
Continuous
100
AcDbCircle
 10
72.309353
 20
-328.240887
 30
0.0
 40
5.0
100
AcDbArc
 50
0.0
 51
87.0
  0
LINE
  5
D0
100
AcDbEntity
  8
0
370
    -3
390
0
  6
Continuous
100
AcDbLine
 10
72.571033
 20
-323.247739
 30
0.0
 11
59.704681
 21
-322.573442
 31
0.0
  0
INSERT
  5
DC
100
AcDbEntity
  8
0
390
0
100
AcDbBlockReference
  2
ZU_SYM__USERS_HOME_SYMBOL_POO_SYM_B20_0000318
 10
77.309353
 20
-357.974112
 30
0.0
  0
LINE
  5
DD
100
AcDbEntity
  8
0
370
    -3
390
0
  6
Continuous
100
AcDbLine
 10
77.309353
 20
-238.974112
 30
0.0
 11
77.309353
 21
-364.974112
 31
0.0
  0
LINE
  5
DE
100
AcDbEntity
  8
0
370
    -3
390
0
  6
Continuous
100
AcDbLine
 10
88.309353
 20
-238.974112
 30
0.0
 11
88.309353
 21
-366.974112
 31
0.0
  0
LINE
  5
DF
100
AcDbEntity
  8
0
370
    -3
390
0
  6
Continuous
100
AcDbLine
 10
79.309353
 20
-366.974112
 30
0.0
 11
88.309353
 21
-366.974112
 31
0.0
  0
ARC
  5
E0
100
AcDbEntity
  8
0
370
    -3
390
0
  6
Continuous
100
AcDbCircle
 10
79.309353
 20
-364.974112
 30
0.0
 40
2.0
100
AcDbArc
 50
180.0
 51
270.0
  0
INSERT
  5
EC
100
AcDbEntity
  8
0
390
0
100
AcDbBlockReference
  2
ZU_SYM__USERS_HOME_SYMBOL_POO_SYM_B20_0000418
 10
77.309353
 20
-266.974112
 30
0.0
  0
ARC
  5
ED
100
AcDbEntity
  8
0
370
    -3
390
0
  6
Continuous
100
AcDbCircle
 10
75.309353
 20
-249.974112
 30
0.0
 40
3.0
100
AcDbArc
 50
180.0
 51
260.405932
  0
ARC
  5
EE
100
AcDbEntity
  8
0
370
    -3
390
0
  6
Continuous
100
AcDbCircle
 10
74.309353
 20
-255.890192
 30
0.0
 40
3.0
100
AcDbArc
 50
0.0
 51
80.405932
  0
LINE
  5
EF
100
AcDbEntity
  8
0
370
    -3
390
0
  6
Continuous
100
AcDbLine
 10
72.309353
 20
-249.974112
 30
0.0
 11
72.309353
 21
-242.974112
 31
0.0
  0
ARC
  5
F0
100
AcDbEntity
  8
0
370
    -3
390
0
  6
Continuous
100
AcDbCircle
 10
75.309353
 20
-235.974112
 30
0.0
 40
3.0
100
AcDbArc
 50
99.594068
 51
180.0
  0
ARC
  5
F1
100
AcDbEntity
  8
0
370
    -3
390
0
  6
Continuous
100
AcDbCircle
 10
74.309353
 20
-230.058033
 30
0.0
 40
3.0
100
AcDbArc
 50
279.594068
 51
0.0
  0
LINE
  5
F2
100
AcDbEntity
  8
0
370
    -3
390
0
  6
Continuous
100
AcDbLine
 10
72.309353
 20
-235.974112
 30
0.0
 11
72.309353
 21
-242.974112
 31
0.0
  0
ARC
  5
F3
100
AcDbEntity
  8
0
370
    -3
390
0
  6
Continuous
100
AcDbCircle
 10
59.809353
 20
-320.576183
 30
0.0
 40
2.0
100
AcDbArc
 50
180.0
 51
267.0
  0
CIRCLE
  5
F4
100
AcDbEntity
  8
0
370
    -3
390
0
  6
Continuous
100
AcDbCircle
 10
536.709079
 20
-198.974112
 30
0.0
 40
138.0
  0
CIRCLE
  5
F5
100
AcDbEntity
  8
0
370
    -3
390
0
  6
Continuous
100
AcDbCircle
 10
536.709079
 20
-198.974112
 30
0.0
 40
145.0
  0
ARC
  5
F6
100
AcDbEntity
  8
0
370
    -3
390
0
  6
Continuous
100
AcDbCircle
 10
384.209079
 20
-74.758384
 30
0.0
 40
5.0
100
AcDbArc
 50
180.0
 51
225.0
  0
CIRCLE
  5
F7
100
AcDbEntity
  8
0
370
    -3
390
0
  6
Continuous
100
AcDbCircle
 10
402.358791
 20
-64.623824
 30
0.0
 40
12.0
  0
ARC
  5
F8
100
AcDbEntity
  8
0
370
    -3
390
0
  6
CENTER
100
AcDbCircle
 10
536.709079
 20
-198.974112
 30
0.0
 40
190.0
100
AcDbArc
 50
129.119042
 51
140.880958
  0
ARC
  5
F9
100
AcDbEntity
  8
0
370
    -3
390
0
  6
Continuous
100
AcDbCircle
 10
412.493351
 20
-46.474112
 30
0.0
 40
5.0
100
AcDbArc
 50
45.0
 51
90.0
  0
ARC
  5
FA
100
AcDbEntity
  8
0
370
    -3
390
0
  6
Continuous
100
AcDbCircle
 10
401.563331
 20
-113.325839
 30
0.0
 40
10.0
100
AcDbArc
 50
327.635625
 51
45.0
  0
ARC
  5
FB
100
AcDbEntity
  8
0
370
    -3
390
0
  6
Continuous
100
AcDbCircle
 10
536.709079
 20
-198.974112
 30
0.0
 40
150.0
100
AcDbArc
 50
147.635625
 51
177.002775
  0
ARC
  5
FC
100
AcDbEntity
  8
0
370
    -3
390
0
  6
Continuous
100
AcDbCircle
 10
451.060806
 20
-63.828364
 30
0.0
 40
10.0
100
AcDbArc
 50
225.0
 51
302.364375
  0
ARC
  5
FD
100
AcDbEntity
  8
0
370
    -3
390
0
  6
Continuous
100
AcDbCircle
 10
536.709079
 20
-198.974112
 30
0.0
 40
150.0
100
AcDbArc
 50
57.635625
 51
122.364375
  0
ARC
  5
FE
100
AcDbEntity
  8
0
370
    -3
390
0
  6
Continuous
100
AcDbCircle
 10
394.209079
 20
-56.474112
 30
0.0
 40
15.0
100
AcDbArc
 50
90.0
 51
180.0
  0
ARC
  5
FF
100
AcDbEntity
  8
0
370
    -3
390
0
  6
Continuous
100
AcDbCircle
 10
511.677847
 20
-204.612283
 30
0.0
 40
107.308449
100
AcDbArc
 50
92.924524
 51
172.056783
  0
LINE
  5
100
100
AcDbEntity
  8
0
370
    -3
390
0
  6
CENTER
100
AcDbLine
 10
416.147373
 20
-78.412406
 30
0.0
 11
388.570209
 21
-50.835242
 31
0.0
  0
LINE
  5
101
100
AcDbEntity
  8
0
370
    -3
390
0
  6
Continuous
100
AcDbLine
 10
443.989738
 20
-70.899432
 30
0.0
 11
416.028885
 21
-42.938579
 31
0.0
  0
LINE
  5
102
100
AcDbEntity
  8
0
370
    -3
390
0
  6
Continuous
100
AcDbLine
 10
408.634399
 20
-106.254771
 30
0.0
 11
380.673546
 21
-78.293918
 31
0.0
  0
LINE
  5
103
100
AcDbEntity
  8
0
370
    -3
390
0
  6
Continuous
100
AcDbLine
 10
679.209079
 20
-41.474112
 30
0.0
 11
394.209079
 21
-41.474112
 31
0.0
  0
LINE
  5
104
100
AcDbEntity
  8
0
370
    -3
390
0
  6
Continuous
100
AcDbLine
 10
379.209079
 20
-56.474112
 30
0.0
 11
379.209079
 21
-341.474112
 31
0.0
  0
ARC
  5
105
100
AcDbEntity
  8
0
370
    -3
390
0
  6
Continuous
100
AcDbCircle
 10
536.709079
 20
-198.974112
 30
0.0
 40
70.0
100
AcDbArc
 50
0.0
 51
90.0
  0
ARC
  5
106
100
AcDbEntity
  8
0
370
    -3
390
0
  6
Continuous
100
AcDbCircle
 10
660.924808
 20
-46.474112
 30
0.0
 40
5.0
100
AcDbArc
 50
90.0
 51
135.0
  0
CIRCLE
  5
107
100
AcDbEntity
  8
0
370
    -3
390
0
  6
Continuous
100
AcDbCircle
 10
671.059368
 20
-64.623824
 30
0.0
 40
12.0
  0
ARC
  5
108
100
AcDbEntity
  8
0
370
    -3
390
0
  6
CENTER
100
AcDbCircle
 10
536.709079
 20
-198.974112
 30
0.0
 40
190.0
100
AcDbArc
 50
38.388033
 51
51.697379
  0
ARC
  5
109
100
AcDbEntity
  8
0
370
    -3
390
0
  6
Continuous
100
AcDbCircle
 10
689.209079
 20
-74.758384
 30
0.0
 40
5.0
100
AcDbArc
 50
315.0
 51
0.0
  0
ARC
  5
10A
100
AcDbEntity
  8
0
370
    -3
390
0
  6
Continuous
100
AcDbCircle
 10
622.357353
 20
-63.828364
 30
0.0
 40
10.0
100
AcDbArc
 50
237.635625
 51
315.0
  0
ARC
  5
10B
100
AcDbEntity
  8
0
370
    -3
390
0
  6
Continuous
100
AcDbCircle
 10
671.854828
 20
-113.325839
 30
0.0
 40
10.0
100
AcDbArc
 50
135.0
 51
212.364375
  0
ARC
  5
10C
100
AcDbEntity
  8
0
370
    -3
390
0
  6
Continuous
100
AcDbCircle
 10
679.209079
 20
-56.474112
 30
0.0
 40
15.0
100
AcDbArc
 50
0.0
 51
90.0
  0
CIRCLE
  5
10D
100
AcDbEntity
  8
0
370
    -3
390
0
  6
Continuous
100
AcDbCircle
 10
536.709079
 20
-198.974112
 30
0.0
 40
34.0
  0
ARC
  5
10E
100
AcDbEntity
  8
0
370
    -3
390
0
  6
Continuous
100
AcDbCircle
 10
536.709079
 20
-198.974112
 30
0.0
 40
150.0
100
AcDbArc
 50
2.997225
 51
32.364375
  0
CIRCLE
  5
10F
100
AcDbEntity
  8
0
370
    -3
390
0
  6
Continuous
100
AcDbCircle
 10
536.709079
 20
-198.974112
 30
0.0
 40
44.0
  0
ARC
  5
110
100
AcDbEntity
  8
0
370
    -3
390
0
  6
Continuous
100
AcDbCircle
 10
561.740312
 20
-204.612283
 30
0.0
 40
107.308449
100
AcDbArc
 50
7.943217
 51
87.075476
  0
ARC
  5
111
100
AcDbEntity
  8
0
370
    -3
390
0
  6
Continuous
100
AcDbCircle
 10
543.209079
 20
-64.130685
 30
0.0
 40
3.0
100
AcDbArc
 50
87.240247
 51
180.0
  0
ARC
  5
112
100
AcDbEntity
  8
0
370
    -3
390
0
  6
Continuous
100
AcDbCircle
 10
530.209079
 20
-64.130685
 30
0.0
 40
3.0
100
AcDbArc
 50
0.0
 51
92.759753
  0
ARC
  5
113
100
AcDbEntity
  8
0
370
    -3
390
0
  6
Continuous
100
AcDbCircle
 10
530.209079
 20
-126.264072
 30
0.0
 40
3.0
100
AcDbArc
 50
275.108444
 51
0.0
  0
ARC
  5
114
100
AcDbEntity
  8
0
370
    -3
390
0
  6
Continuous
100
AcDbCircle
 10
543.209079
 20
-126.264072
 30
0.0
 40
3.0
100
AcDbArc
 50
180.0
 51
264.891556
  0
ARC
  5
115
100
AcDbEntity
  8
0
370
    -3
390
0
  6
Continuous
100
AcDbCircle
 10
536.740312
 20
-693.974112
 30
0.0
 40
597.308449
100
AcDbArc
 50
87.075476
 51
89.180763
  0
ARC
  5
116
100
AcDbEntity
  8
0
370
    -3
390
0
  6
Continuous
100
AcDbCircle
 10
545.209079
 20
-101.726209
 30
0.0
 40
5.0
100
AcDbArc
 50
89.180763
 51
180.0
  0
ARC
  5
117
100
AcDbEntity
  8
0
370
    -3
390
0
  6
Continuous
100
AcDbCircle
 10
536.677847
 20
-693.974112
 30
0.0
 40
597.308449
100
AcDbArc
 50
90.819237
 51
92.924524
  0
ARC
  5
118
100
AcDbEntity
  8
0
370
    -3
390
0
  6
Continuous
100
AcDbCircle
 10
528.209079
 20
-101.726209
 30
0.0
 40
5.0
100
AcDbArc
 50
0.0
 51
90.819237
  0
LINE
  5
119
100
AcDbEntity
  8
0
370
    -3
390
0
  6
CENTER
100
AcDbLine
 10
657.270786
 20
-78.412406
 30
0.0
 11
684.84795
 21
-50.835242
 31
0.0
  0
LINE
  5
11A
100
AcDbEntity
  8
0
370
    -3
390
0
  6
Continuous
100
AcDbLine
 10
664.78376
 20
-106.254771
 30
0.0
 11
692.744613
 21
-78.293918
 31
0.0
  0
LINE
  5
11B
100
AcDbEntity
  8
0
370
    -3
390
0
  6
Continuous
100
AcDbLine
 10
629.428421
 20
-70.899432
 30
0.0
 11
657.389274
 21
-42.938579
 31
0.0
  0
LINE
  5
11C
100
AcDbEntity
  8
0
370
    -3
390
0
  6
Continuous
100
AcDbLine
 10
694.209079
 20
-56.474112
 30
0.0
 11
694.209079
 21
-341.474112
 31
0.0
  0
LINE
  5
11D
100
AcDbEntity
  8
0
370
    -3
390
0
  6
Continuous
100
AcDbLine
 10
533.209079
 20
-64.130685
 30
0.0
 11
533.209079
 21
-126.264072
 31
0.0
  0
LINE
  5
11E
100
AcDbEntity
  8
0
370
    -3
390
0
  6
Continuous
100
AcDbLine
 10
540.209079
 20
-64.130685
 30
0.0
 11
540.209079
 21
-126.264072
 31
0.0
  0
LINE
  5
11F
100
AcDbEntity
  8
0
370
    -3
390
0
  6
Continuous
100
AcDbLine
 10
509.209079
 20
-192.005345
 30
0.0
 11
509.209079
 21
-206.005345
 31
0.0
  0
LINE
  5
120
100
AcDbEntity
  8
0
370
    -3
390
0
  6
Continuous
100
AcDbLine
 10
518.209079
 20
-192.005345
 30
0.0
 11
518.209079
 21
-206.005345
 31
0.0
  0
ARC
  5
121
100
AcDbEntity
  8
0
370
    -3
390
0
  6
Continuous
100
AcDbCircle
 10
536.709079
 20
-199.005345
 30
0.0
 40
24.0
100
AcDbArc
 50
196.957763
 51
163.042237
  0
LINE
  5
122
100
AcDbEntity
  8
0
370
    -3
390
0
  6
Continuous
100
AcDbLine
 10
509.209079
 20
-192.005345
 30
0.0
 11
518.209079
 21
-192.005345
 31
0.0
  0
LINE
  5
123
100
AcDbEntity
  8
0
370
    -3
390
0
  6
Continuous
100
AcDbLine
 10
509.209079
 20
-206.005345
 30
0.0
 11
518.209079
 21
-206.005345
 31
0.0
  0
CIRCLE
  5
124
100
AcDbEntity
  8
0
370
    -3
390
0
  6
Continuous
100
AcDbCircle
 10
536.709079
 20
-198.974112
 30
0.0
 40
4.0
  0
CIRCLE
  5
125
100
AcDbEntity
  8
0
370
    -3
390
0
  6
Continuous
100
AcDbCircle
 10
536.709079
 20
-198.974112
 30
0.0
 40
3.325
  0
ARC
  5
126
100
AcDbEntity
  8
0
370
    -3
390
0
  6
Continuous
100
AcDbCircle
 10
594.914451
 20
-253.85703
 30
0.0
 40
10.0
100
AcDbArc
 50
136.682825
 51
238.061808
  0
ARC
  5
127
100
AcDbEntity
  8
0
370
    -3
390
0
  6
Continuous
100
AcDbCircle
 10
618.935198
 20
-297.070317
 30
0.0
 40
10.0
100
AcDbArc
 50
180.074479
 51
309.970383
  0
ARC
  5
128
100
AcDbEntity
  8
0
370
    -3
390
0
  6
Continuous
100
AcDbCircle
 10
567.935241
 20
-297.136612
 30
0.0
 40
41.0
100
AcDbArc
 50
0.074479
 51
58.061808
  0
ARC
  5
129
100
AcDbEntity
  8
0
370
    -3
390
0
  6
Continuous
100
AcDbCircle
 10
671.854828
 20
-284.622386
 30
0.0
 40
10.0
100
AcDbArc
 50
147.635625
 51
225.0
  0
ARC
  5
12A
100
AcDbEntity
  8
0
370
    -3
390
0
  6
Continuous
100
AcDbCircle
 10
536.709079
 20
-198.974112
 30
0.0
 40
150.0
100
AcDbArc
 50
327.635625
 51
357.002775
  0
ARC
  5
12B
100
AcDbEntity
  8
0
370
    -3
390
0
  6
Continuous
100
AcDbCircle
 10
689.499786
 20
-190.974112
 30
0.0
 40
3.0
100
AcDbArc
 50
182.997225
 51
270.0
  0
ARC
  5
12C
100
AcDbEntity
  8
0
370
    -3
390
0
  6
Continuous
100
AcDbCircle
 10
689.499786
 20
-206.974112
 30
0.0
 40
3.0
100
AcDbArc
 50
90.0
 51
177.002775
  0
ARC
  5
12D
100
AcDbEntity
  8
0
370
    -3
390
0
  6
Continuous
100
AcDbCircle
 10
664.048761
 20
-237.361682
 30
0.0
 40
5.0
100
AcDbArc
 50
343.224145
 51
0.0
  0
ARC
  5
12E
100
AcDbEntity
  8
0
370
    -3
390
0
  6
Continuous
100
AcDbCircle
 10
692.209079
 20
-195.974112
 30
0.0
 40
2.0
100
AcDbArc
 50
0.0
 51
90.0
  0
ARC
  5
12F
100
AcDbEntity
  8
0
370
    -3
390
0
  6
Continuous
100
AcDbCircle
 10
692.209079
 20
-201.974112
 30
0.0
 40
2.0
100
AcDbArc
 50
270.0
 51
0.0
  0
ARC
  5
130
100
AcDbEntity
  8
0
370
    -3
390
0
  6
Continuous
100
AcDbCircle
 10
671.552507
 20
-192.474112
 30
0.0
 40
3.0
100
AcDbArc
 50
270.0
 51
2.759753
  0
ARC
  5
131
100
AcDbEntity
  8
0
370
    -3
390
0
  6
Continuous
100
AcDbCircle
 10
671.552507
 20
-205.474112
 30
0.0
 40
3.0
100
AcDbArc
 50
357.240247
 51
90.0
  0
ARC
  5
132
100
AcDbEntity
  8
0
370
    -3
390
0
  6
Continuous
100
AcDbCircle
 10
609.41912
 20
-192.474112
 30
0.0
 40
3.0
100
AcDbArc
 50
185.108444
 51
270.0
  0
ARC
  5
133
100
AcDbEntity
  8
0
370
    -3
390
0
  6
Continuous
100
AcDbCircle
 10
609.41912
 20
-205.474112
 30
0.0
 40
3.0
100
AcDbArc
 50
90.0
 51
174.891556
  0
ARC
  5
134
100
AcDbEntity
  8
0
370
    -3
390
0
  6
Continuous
100
AcDbCircle
 10
663.067164
 20
-190.474112
 30
0.0
 40
5.0
100
AcDbArc
 50
270.0
 51
7.943217
  0
ARC
  5
135
100
AcDbEntity
  8
0
370
    -3
390
0
  6
Continuous
100
AcDbCircle
 10
664.048761
 20
-207.474112
 30
0.0
 40
5.0
100
AcDbArc
 50
0.0
 51
90.0
  0
ARC
  5
136
100
AcDbEntity
  8
0
370
    -3
390
0
  6
Continuous
100
AcDbCircle
 10
599.535127
 20
-248.500749
 30
0.0
 40
10.0
100
AcDbArc
 50
141.750802
 51
236.987252
  0
ARC
  5
137
100
AcDbEntity
  8
0
370
    -3
390
0
  6
Continuous
100
AcDbCircle
 10
567.935241
 20
-297.136612
 30
0.0
 40
48.0
100
AcDbArc
 50
6.015134
 51
56.987252
  0
ARC
  5
138
100
AcDbEntity
  8
0
370
    -3
390
0
  6
Continuous
100
AcDbCircle
 10
625.615907
 20
-291.058725
 30
0.0
 40
10.0
100
AcDbArc
 50
186.015134
 51
313.994124
  0
LINE
  5
139
100
AcDbEntity
  8
0
370
    -3
390
0
  6
Continuous
100
AcDbLine
 10
664.78376
 20
-291.693454
 30
0.0
 11
692.744613
 21
-319.654307
 31
0.0
  0
LINE
  5
13A
100
AcDbEntity
  8
0
370
    -3
390
0
  6
Continuous
100
AcDbLine
 10
689.499786
 20
-193.974112
 30
0.0
 11
692.209079
 21
-193.974112
 31
0.0
  0
LINE
  5
13B
100
AcDbEntity
  8
0
370
    -3
390
0
  6
Continuous
100
AcDbLine
 10
689.499786
 20
-203.974112
 30
0.0
 11
692.209079
 21
-203.974112
 31
0.0
  0
LINE
  5
13C
100
AcDbEntity
  8
0
370
    -3
390
0
  6
CENTER
100
AcDbLine
 10
702.53211
 20
-198.974112
 30
0.0
 11
361.078844
 21
-198.974112
 31
0.0
  0
LINE
  5
13D
100
AcDbEntity
  8
0
370
    -3
390
0
  6
Continuous
100
AcDbLine
 10
671.552507
 20
-195.474112
 30
0.0
 11
609.41912
 21
-195.474112
 31
0.0
  0
LINE
  5
13E
100
AcDbEntity
  8
0
370
    -3
390
0
  6
Continuous
100
AcDbLine
 10
671.552507
 20
-202.474112
 30
0.0
 11
609.41912
 21
-202.474112
 31
0.0
  0
LINE
  5
13F
100
AcDbEntity
  8
0
370
    -3
390
0
  6
Continuous
100
AcDbLine
 10
669.048761
 20
-207.474112
 30
0.0
 11
669.048761
 21
-237.361682
 31
0.0
  0
ARC
  5
140
100
AcDbEntity
  8
0
370
    -3
390
0
  6
Continuous
100
AcDbCircle
 10
689.209079
 20
-323.189841
 30
0.0
 40
5.0
100
AcDbArc
 50
0.0
 51
45.0
  0
CIRCLE
  5
141
100
AcDbEntity
  8
0
370
    -3
390
0
  6
Continuous
100
AcDbCircle
 10
671.059368
 20
-333.324401
 30
0.0
 40
12.0
  0
ARC
  5
142
100
AcDbEntity
  8
0
370
    -3
390
0
  6
CENTER
100
AcDbCircle
 10
536.709079
 20
-198.974112
 30
0.0
 40
190.0
100
AcDbArc
 50
309.119042
 51
320.880958
  0
ARC
  5
143
100
AcDbEntity
  8
0
370
    -3
390
0
  6
Continuous
100
AcDbCircle
 10
660.924808
 20
-351.474112
 30
0.0
 40
5.0
100
AcDbArc
 50
225.0
 51
270.0
  0
ARC
  5
144
100
AcDbEntity
  8
0
370
    -3
390
0
  6
Continuous
100
AcDbCircle
 10
622.357353
 20
-334.119861
 30
0.0
 40
10.0
100
AcDbArc
 50
45.0
 51
122.364375
  0
ARC
  5
145
100
AcDbEntity
  8
0
370
    -3
390
0
  6
Continuous
100
AcDbCircle
 10
536.709079
 20
-198.974112
 30
0.0
 40
150.0
100
AcDbArc
 50
237.635625
 51
302.364375
  0
ARC
  5
146
100
AcDbEntity
  8
0
370
    -3
390
0
  6
Continuous
100
AcDbCircle
 10
679.209079
 20
-341.474112
 30
0.0
 40
15.0
100
AcDbArc
 50
270.0
 51
0.0
  0
ARC
  5
147
100
AcDbEntity
  8
0
370
    -3
390
0
  6
Continuous
100
AcDbCircle
 10
616.209079
 20
-358.974112
 30
0.0
 40
12.0
100
AcDbArc
 50
270.0
 51
2.865984
  0
ARC
  5
148
100
AcDbEntity
  8
0
370
    -3
390
0
  6
Continuous
100
AcDbCircle
 10
634.184673
 20
-358.91114
 30
0.0
 40
6.0
100
AcDbArc
 50
156.035454
 51
177.016
  0
LINE
  5
149
100
AcDbEntity
  8
0
370
    -3
390
0
  6
CENTER
100
AcDbLine
 10
657.270786
 20
-319.535819
 30
0.0
 11
684.84795
 21
-347.112983
 31
0.0
  0
LINE
  5
14A
100
AcDbEntity
  8
0
370
    -3
390
0
  6
Continuous
100
AcDbLine
 10
629.428421
 20
-327.048793
 30
0.0
 11
657.389274
 21
-355.009646
 31
0.0
  0
LINE
  5
14B
100
AcDbEntity
  8
0
370
    -3
390
0
  6
Continuous
100
AcDbLine
 10
679.209079
 20
-356.474112
 30
0.0
 11
394.209079
 21
-356.474112
 31
0.0
  0
LINE
  5
14C
100
AcDbEntity
  8
0
370
    -3
390
0
  6
Continuous
100
AcDbLine
 10
457.209079
 20
-370.974112
 30
0.0
 11
536.709079
 21
-370.974112
 31
0.0
  0
LINE
  5
14D
100
AcDbEntity
  8
0
370
    -3
390
0
  6
Continuous
100
AcDbLine
 10
616.209079
 20
-370.974112
 30
0.0
 11
536.709079
 21
-370.974112
 31
0.0
  0
ARC
  5
14E
100
AcDbEntity
  8
0
370
    -3
390
0
  6
Continuous
100
AcDbCircle
 10
451.060806
 20
-334.119861
 30
0.0
 40
10.0
100
AcDbArc
 50
57.635625
 51
135.0
  0
ARC
  5
14F
100
AcDbEntity
  8
0
370
    -3
390
0
  6
Continuous
100
AcDbCircle
 10
412.493351
 20
-351.474112
 30
0.0
 40
5.0
100
AcDbArc
 50
270.0
 51
315.0
  0
ARC
  5
150
100
AcDbEntity
  8
0
370
    -3
390
0
  6
Continuous
100
AcDbCircle
 10
384.209079
 20
-323.189841
 30
0.0
 40
5.0
100
AcDbArc
 50
135.0
 51
180.0
  0
ARC
  5
151
100
AcDbEntity
  8
0
370
    -3
390
0
  6
CENTER
100
AcDbCircle
 10
536.709079
 20
-198.974112
 30
0.0
 40
190.0
100
AcDbArc
 50
218.642616
 51
231.759041
  0
ARC
  5
152
100
AcDbEntity
  8
0
370
    -3
390
0
  6
Continuous
100
AcDbCircle
 10
394.209079
 20
-341.474112
 30
0.0
 40
15.0
100
AcDbArc
 50
180.0
 51
270.0
  0
CIRCLE
  5
153
100
AcDbEntity
  8
0
370
    -3
390
0
  6
Continuous
100
AcDbCircle
 10
402.358791
 20
-333.324401
 30
0.0
 40
12.0
  0
ARC
  5
154
100
AcDbEntity
  8
0
370
    -3
390
0
  6
Continuous
100
AcDbCircle
 10
457.209079
 20
-358.974112
 30
0.0
 40
12.0
100
AcDbArc
 50
177.134016
 51
270.0
  0
ARC
  5
155
100
AcDbEntity
  8
0
370
    -3
390
0
  6
Continuous
100
AcDbCircle
 10
439.233485
 20
-358.91114
 30
0.0
 40
6.0
100
AcDbArc
 50
2.984
 51
23.964546
  0
LINE
  5
156
100
AcDbEntity
  8
0
370
    -3
390
0
  6
Continuous
100
AcDbLine
 10
443.989738
 20
-327.048793
 30
0.0
 11
416.028885
 21
-355.009646
 31
0.0
  0
LINE
  5
157
100
AcDbEntity
  8
0
370
    -3
390
0
  6
Continuous
100
AcDbLine
 10
408.634399
 20
-291.693454
 30
0.0
 11
380.673546
 21
-319.654307
 31
0.0
  0
LINE
  5
158
100
AcDbEntity
  8
0
370
    -3
390
0
  6
CENTER
100
AcDbLine
 10
416.147373
 20
-319.535819
 30
0.0
 11
388.570209
 21
-347.112983
 31
0.0
  0
ARC
  5
159
100
AcDbEntity
  8
0
370
    -3
390
0
  6
Continuous
100
AcDbCircle
 10
466.76037
 20
-237.796504
 30
0.0
 40
10.0
100
AcDbArc
 50
293.824471
 51
29.030812
  0
ARC
  5
15A
100
AcDbEntity
  8
0
370
    -3
390
0
  6
Continuous
100
AcDbCircle
 10
490.18866
 20
-290.854163
 30
0.0
 40
48.0
100
AcDbArc
 50
113.824471
 51
164.803707
  0
ARC
  5
15B
100
AcDbEntity
  8
0
370
    -3
390
0
  6
Continuous
100
AcDbCircle
 10
490.18866
 20
-290.854163
 30
0.0
 40
55.0
100
AcDbArc
 50
114.11503
 51
159.806926
  0
ARC
  5
15C
100
AcDbEntity
  8
0
370
    -3
390
0
  6
Continuous
100
AcDbCircle
 10
463.631616
 20
-231.526906
 30
0.0
 40
10.0
100
AcDbArc
 50
294.11503
 51
24.010868
  0
ARC
  5
15D
100
AcDbEntity
  8
0
370
    -3
390
0
  6
Continuous
100
AcDbCircle
 10
536.709079
 20
-198.974112
 30
0.0
 40
150.0
100
AcDbArc
 50
182.997225
 51
212.364375
  0
ARC
  5
15E
100
AcDbEntity
  8
0
370
    -3
390
0
  6
Continuous
100
AcDbCircle
 10
383.918373
 20
-206.974112
 30
0.0
 40
3.0
100
AcDbArc
 50
2.997225
 51
90.0
  0
ARC
  5
15F
100
AcDbEntity
  8
0
370
    -3
390
0
  6
Continuous
100
AcDbCircle
 10
383.918373
 20
-190.974112
 30
0.0
 40
3.0
100
AcDbArc
 50
270.0
 51
357.002775
  0
ARC
  5
160
100
AcDbEntity
  8
0
370
    -3
390
0
  6
Continuous
100
AcDbCircle
 10
381.209079
 20
-195.974112
 30
0.0
 40
2.0
100
AcDbArc
 50
90.0
 51
180.0
  0
ARC
  5
161
100
AcDbEntity
  8
0
370
    -3
390
0
  6
Continuous
100
AcDbCircle
 10
381.209079
 20
-201.974112
 30
0.0
 40
2.0
100
AcDbArc
 50
180.0
 51
270.0
  0
LINE
  5
162
100
AcDbEntity
  8
0
370
    -3
390
0
  6
Continuous
100
AcDbLine
 10
383.918373
 20
-193.974112
 30
0.0
 11
381.209079
 21
-193.974112
 31
0.0
  0
LINE
  5
163
100
AcDbEntity
  8
0
370
    -3
390
0
  6
Continuous
100
AcDbLine
 10
383.918373
 20
-203.974112
 30
0.0
 11
381.209079
 21
-203.974112
 31
0.0
  0
ARC
  5
164
100
AcDbEntity
  8
0
370
    -3
390
0
  6
Continuous
100
AcDbCircle
 10
401.865652
 20
-192.474112
 30
0.0
 40
3.0
100
AcDbArc
 50
177.240247
 51
270.0
  0
ARC
  5
165
100
AcDbEntity
  8
0
370
    -3
390
0
  6
Continuous
100
AcDbCircle
 10
410.350995
 20
-190.474112
 30
0.0
 40
5.0
100
AcDbArc
 50
172.056783
 51
270.0
  0
LINE
  5
166
100
AcDbEntity
  8
0
370
    -3
390
0
  6
Continuous
100
AcDbLine
 10
401.865652
 20
-195.474112
 30
0.0
 11
463.999039
 21
-195.474112
 31
0.0
  0
ARC
  5
167
100
AcDbEntity
  8
0
370
    -3
390
0
  6
Continuous
100
AcDbCircle
 10
401.865652
 20
-205.474112
 30
0.0
 40
3.0
100
AcDbArc
 50
90.0
 51
182.759753
  0
ARC
  5
168
100
AcDbEntity
  8
0
370
    -3
390
0
  6
Continuous
100
AcDbCircle
 10
409.369398
 20
-207.474112
 30
0.0
 40
5.0
100
AcDbArc
 50
90.0
 51
180.0
  0
LINE
  5
169
100
AcDbEntity
  8
0
370
    -3
390
0
  6
Continuous
100
AcDbLine
 10
401.865652
 20
-202.474112
 30
0.0
 11
463.999039
 21
-202.474112
 31
0.0
  0
LINE
  5
16A
100
AcDbEntity
  8
0
370
    -3
390
0
  6
Continuous
100
AcDbLine
 10
404.369398
 20
-207.474112
 30
0.0
 11
404.369398
 21
-237.361682
 31
0.0
  0
ARC
  5
16B
100
AcDbEntity
  8
0
370
    -3
390
0
  6
Continuous
100
AcDbCircle
 10
463.999039
 20
-205.474112
 30
0.0
 40
3.0
100
AcDbArc
 50
5.108444
 51
90.0
  0
ARC
  5
16C
100
AcDbEntity
  8
0
370
    -3
390
0
  6
Continuous
100
AcDbCircle
 10
463.999039
 20
-192.474112
 30
0.0
 40
3.0
100
AcDbArc
 50
270.0
 51
354.891556
  0
ARC
  5
16D
100
AcDbEntity
  8
0
370
    -3
390
0
  6
Continuous
100
AcDbCircle
 10
429.183901
 20
-268.417154
 30
0.0
 40
10.0
100
AcDbArc
 50
212.855608
 51
339.806926
  0
ARC
  5
16E
100
AcDbEntity
  8
0
370
    -3
390
0
  6
Continuous
100
AcDbCircle
 10
434.21672
 20
-275.650812
 30
0.0
 40
10.0
100
AcDbArc
 50
216.800938
 51
344.803707
  0
ARC
  5
16F
100
AcDbEntity
  8
0
370
    -3
390
0
  6
Continuous
100
AcDbCircle
 10
401.563331
 20
-284.622386
 30
0.0
 40
10.0
100
AcDbArc
 50
315.0
 51
32.364375
  0
LINE
  5
170
100
AcDbEntity
  8
0
370
    -3
390
0
  6
Continuous
100
AcDbLine
 10
-259.190648
 20
-307.914581
 30
0.0
 11
-259.190648
 21
-238.974112
 31
0.0
  0
LINE
  5
171
100
AcDbEntity
  8
0
370
    -3
390
0
  6
Continuous
100
AcDbLine
 10
-257.290648
 20
-311.205478
 30
0.0
 11
-240.65868
 21
-320.807949
 31
0.0
  0
ARC
  5
172
100
AcDbEntity
  8
0
370
    -3
390
0
  6
Continuous
100
AcDbCircle
 10
-220.25868
 20
-285.474112
 30
0.0
 40
40.8
100
AcDbArc
 50
240.0
 51
270.0
  0
ARC
  5
173
100
AcDbEntity
  8
0
370
    -3
390
0
  6
Continuous
100
AcDbCircle
 10
-255.390648
 20
-307.914581
 30
0.0
 40
3.8
100
AcDbArc
 50
180.0
 51
240.0
  0
ELLIPSE
  5
174
100
AcDbEntity
  8
0
370
    -3
390
0
  6
Continuous
100
AcDbEllipse
 10
-139.690647
 20
-173.322678
 30
0.0
 11
5.0
 21
0.0
 31
0.0
210
0.0
220
0.0
230
1.0
 40
0.707107
 41
3.1415926535897931
 42
0.0
  0
LINE
  5
175
100
AcDbEntity
  8
0
370
    -3
390
0
  6
Continuous
100
AcDbLine
 10
-144.690647
 20
-172.506075
 30
0.0
 11
-144.690647
 21
-173.322678
 31
0.0
  0
LINE
  5
176
100
AcDbEntity
  8
0
370
    -3
390
0
  6
Continuous
100
AcDbLine
 10
-134.690647
 20
-172.506075
 30
0.0
 11
-134.690647
 21
-173.322678
 31
0.0
  0
ELLIPSE
  5
177
100
AcDbEntity
  8
0
370
    -3
390
0
  6
Continuous
100
AcDbEllipse
 10
-139.690647
 20
-172.506075
 30
0.0
 11
4.5
 21
0.0
 31
0.0
210
0.0
220
0.0
230
1.0
 40
0.707107
 41
3.1415926535897931
 42
0.0
  0
LINE
  5
178
100
AcDbEntity
  8
0
370
    -3
390
0
  6
Continuous
100
AcDbLine
 10
-144.190647
 20
-171.94039
 30
0.0
 11
-144.190647
 21
-172.506075
 31
0.0
  0
LINE
  5
179
100
AcDbEntity
  8
0
370
    -3
390
0
  6
Continuous
100
AcDbLine
 10
-135.190647
 20
-171.94039
 30
0.0
 11
-135.190647
 21
-172.506075
 31
0.0
  0
ELLIPSE
  5
17A
100
AcDbEntity
  8
0
370
    -3
390
0
  6
Continuous
100
AcDbEllipse
 10
-139.690647
 20
-172.506075
 30
0.0
 11
5.0
 21
0.0
 31
0.0
210
0.0
220
0.0
230
1.0
 40
0.707107
 41
0.0
 42
0.7392718269406207
  0
ELLIPSE
  5
17B
100
AcDbEntity
  8
0
370
    -3
390
0
  6
Continuous
100
AcDbEllipse
 10
-139.690647
 20
-172.506075
 30
0.0
 11
5.0
 21
0.0
 31
0.0
210
0.0
220
0.0
230
1.0
 40
0.707107
 41
2.4023208266491727
 42
3.1415926535897931
  0
ELLIPSE
  5
17C
100
AcDbEntity
  8
0
370
    -3
390
0
  6
Continuous
100
AcDbEllipse
 10
-139.690647
 20
-171.403871
 30
0.0
 11
3.5
 21
0.0
 31
0.0
210
0.0
220
0.0
230
1.0
 40
0.860398
 41
0.0
 42
6.2831853071795862
  0
ELLIPSE
  5
17D
100
AcDbEntity
  8
0
370
    -3
390
0
  6
Continuous
100
AcDbEllipse
 10
-139.690647
 20
-171.94039
 30
0.0
 11
4.5
 21
0.0
 31
0.0
210
0.0
220
0.0
230
1.0
 40
0.707107
 41
2.158706662346169
 42
0.9828859912436241
  0
LINE
  5
17E
100
AcDbEntity
  8
0
370
    -3
390
0
  6
Continuous
100
AcDbLine
 10
-139.690647
 20
-170.101912
 30
0.0
 11
-137.690647
 21
-171.675249
 31
0.0
  0
LINE
  5
17F
100
AcDbEntity
  8
0
370
    -3
390
0
  6
Continuous
100
AcDbLine
 10
-139.690647
 20
-170.101912
 30
0.0
 11
-137.761442
 21
-168.89125
 31
0.0
  0
LINE
  5
180
100
AcDbEntity
  8
0
370
    -3
390
0
  6
Continuous
100
AcDbLine
 10
-139.690647
 20
-170.101912
 30
0.0
 11
-141.690647
 21
-171.675249
 31
0.0
  0
LINE
  5
181
100
AcDbEntity
  8
0
370
    -3
390
0
  6
Continuous
100
AcDbLine
 10
-139.690647
 20
-170.101912
 30
0.0
 11
-141.619851
 21
-168.89125
 31
0.0
  0
ELLIPSE
  5
182
100
AcDbEntity
  8
0
370
    -3
390
0
  6
Continuous
100
AcDbEllipse
 10
-139.690647
 20
-304.625547
 30
0.0
 11
5.0
 21
0.0
 31
0.0
210
0.0
220
0.0
230
1.0
 40
0.707107
 41
0.0
 42
3.1415926535897931
  0
LINE
  5
183
100
AcDbEntity
  8
0
370
    -3
390
0
  6
Continuous
100
AcDbLine
 10
-144.690647
 20
-305.44215
 30
0.0
 11
-144.690647
 21
-304.625547
 31
0.0
  0
LINE
  5
184
100
AcDbEntity
  8
0
370
    -3
390
0
  6
Continuous
100
AcDbLine
 10
-134.690647
 20
-305.44215
 30
0.0
 11
-134.690647
 21
-304.625547
 31
0.0
  0
ELLIPSE
  5
185
100
AcDbEntity
  8
0
370
    -3
390
0
  6
Continuous
100
AcDbEllipse
 10
-139.690647
 20
-305.44215
 30
0.0
 11
4.5
 21
0.0
 31
0.0
210
0.0
220
0.0
230
1.0
 40
0.707107
 41
0.0
 42
3.1415926535897931
  0
LINE
  5
186
100
AcDbEntity
  8
0
370
    -3
390
0
  6
Continuous
100
AcDbLine
 10
-144.190647
 20
-306.007835
 30
0.0
 11
-144.190647
 21
-305.44215
 31
0.0
  0
LINE
  5
187
100
AcDbEntity
  8
0
370
    -3
390
0
  6
Continuous
100
AcDbLine
 10
-135.190647
 20
-306.007835
 30
0.0
 11
-135.190647
 21
-305.44215
 31
0.0
  0
ELLIPSE
  5
188
100
AcDbEntity
  8
0
370
    -3
390
0
  6
Continuous
100
AcDbEllipse
 10
-139.690647
 20
-305.44215
 30
0.0
 11
5.0
 21
0.0
 31
0.0
210
0.0
220
0.0
230
1.0
 40
0.707107
 41
5.5439134802389658
 42
0.0
  0
ELLIPSE
  5
189
100
AcDbEntity
  8
0
370
    -3
390
0
  6
Continuous
100
AcDbEllipse
 10
-139.690647
 20
-305.44215
 30
0.0
 11
5.0
 21
0.0
 31
0.0
210
0.0
220
0.0
230
1.0
 40
0.707107
 41
3.1415926535897931
 42
3.8808644805304136
  0
ELLIPSE
  5
18A
100
AcDbEntity
  8
0
370
    -3
390
0
  6
Continuous
100
AcDbEllipse
 10
-139.690647
 20
-306.544353
 30
0.0
 11
3.5
 21
0.0
 31
0.0
210
0.0
220
0.0
230
1.0
 40
0.860398
 41
0.0
 42
6.2831853071795862
  0
ELLIPSE
  5
18B
100
AcDbEntity
  8
0
370
    -3
390
0
  6
Continuous
100
AcDbEllipse
 10
-139.690647
 20
-306.007835
 30
0.0
 11
4.5
 21
0.0
 31
0.0
210
0.0
220
0.0
230
1.0
 40
0.707107
 41
5.3002993159359626
 42
4.1244786448334168
  0
LINE
  5
18C
100
AcDbEntity
  8
0
370
    -3
390
0
  6
Continuous
100
AcDbLine
 10
-139.690647
 20
-307.846313
 30
0.0
 11
-137.690647
 21
-306.272975
 31
0.0
  0
LINE
  5
18D
100
AcDbEntity
  8
0
370
    -3
390
0
  6
Continuous
100
AcDbLine
 10
-139.690647
 20
-307.846313
 30
0.0
 11
-137.761442
 21
-309.056975
 31
0.0
  0
LINE
  5
18E
100
AcDbEntity
  8
0
370
    -3
390
0
  6
Continuous
100
AcDbLine
 10
-139.690647
 20
-307.846313
 30
0.0
 11
-141.690647
 21
-306.272975
 31
0.0
  0
LINE
  5
18F
100
AcDbEntity
  8
0
370
    -3
390
0
  6
Continuous
100
AcDbLine
 10
-139.690647
 20
-307.846313
 30
0.0
 11
-141.619851
 21
-309.056975
 31
0.0
  0
ARC
  5
190
100
AcDbEntity
  8
0
370
    -3
390
0
  6
Continuous
100
AcDbCircle
 10
-220.25868
 20
-192.474112
 30
0.0
 40
40.8
100
AcDbArc
 50
90.0
 51
120.0
  0
LINE
  5
191
100
AcDbEntity
  8
0
370
    -3
390
0
  6
Continuous
100
AcDbLine
 10
-259.190648
 20
-170.033644
 30
0.0
 11
-259.190648
 21
-238.974112
 31
0.0
  0
LINE
  5
192
100
AcDbEntity
  8
0
370
    -3
390
0
  6
Continuous
100
AcDbLine
 10
-257.290648
 20
-166.742747
 30
0.0
 11
-240.65868
 21
-157.140276
 31
0.0
  0
ARC
  5
193
100
AcDbEntity
  8
0
370
    -3
390
0
  6
Continuous
100
AcDbCircle
 10
-255.390648
 20
-170.033644
 30
0.0
 40
3.8
100
AcDbArc
 50
120.0
 51
180.0
  0
LINE
  5
194
100
AcDbEntity
  8
0
370
    -3
390
0
  6
Continuous
100
AcDbLine
 10
-220.25868
 20
-326.274112
 30
0.0
 11
-114.190648
 21
-326.274112
 31
0.0
  0
LINE
  5
195
100
AcDbEntity
  8
0
370
    -3
390
0
  6
Continuous
100
AcDbLine
 10
-114.190648
 20
-326.274112
 30
0.0
 11
-114.190648
 21
-299.980224
 31
0.0
  0
LINE
  5
196
100
AcDbEntity
  8
0
370
    -3
390
0
  6
Continuous
100
AcDbLine
 10
-220.25868
 20
-151.674112
 30
0.0
 11
-114.190648
 21
-151.674112
 31
0.0
  0
LINE
  5
197
100
AcDbEntity
  8
0
370
    -3
390
0
  6
Continuous
100
AcDbLine
 10
-114.190648
 20
-151.674112
 30
0.0
 11
-114.190648
 21
-196.377505
 31
0.0
  0
LINE
  5
198
100
AcDbEntity
  8
0
370
    -3
390
0
  6
Continuous
100
AcDbLine
 10
55.809353
 20
-155.474112
 30
0.0
 11
-114.190648
 21
-155.474112
 31
0.0
  0
LINE
  5
199
100
AcDbEntity
  8
0
370
    -3
390
0
  6
Continuous
100
AcDbLine
 10
55.809353
 20
-155.974112
 30
0.0
 11
-114.190648
 21
-155.974112
 31
0.0
  0
LINE
  5
19A
100
AcDbEntity
  8
0
370
    -3
390
0
  6
Continuous
100
AcDbLine
 10
55.809353
 20
-156.474112
 30
0.0
 11
-114.190648
 21
-156.474112
 31
0.0
  0
LINE
  5
19B
100
AcDbEntity
  8
0
370
    -3
390
0
  6
Continuous
100
AcDbLine
 10
55.809353
 20
-158.974112
 30
0.0
 11
-114.190648
 21
-158.974112
 31
0.0
  0
LINE
  5
19C
100
AcDbEntity
  8
0
370
    -3
390
0
  6
Continuous
100
AcDbLine
 10
55.809353
 20
-163.974112
 30
0.0
 11
-114.190648
 21
-163.974112
 31
0.0
  0
LINE
  5
19D
100
AcDbEntity
  8
0
370
    -3
390
0
  6
Continuous
100
AcDbLine
 10
55.809353
 20
-173.0949
 30
0.0
 11
-114.190648
 21
-173.0949
 31
0.0
  0
LINE
  5
19E
100
AcDbEntity
  8
0
370
    -3
390
0
  6
Continuous
100
AcDbLine
 10
55.809353
 20
-205.035885
 30
0.0
 11
-57.992772
 21
-205.035885
 31
0.0
  0
LINE
  5
19F
100
AcDbEntity
  8
0
370
    -3
390
0
  6
Continuous
100
AcDbLine
 10
55.809353
 20
-202.869174
 30
0.0
 11
-58.706956
 21
-202.869174
 31
0.0
  0
LINE
  5
1A0
100
AcDbEntity
  8
0
370
    -3
390
0
  6
Continuous
100
AcDbLine
 10
55.809353
 20
-192.836388
 30
0.0
 11
-114.190648
 21
-192.836388
 31
0.0
  0
LINE
  5
1A1
100
AcDbEntity
  8
0
370
    -3
390
0
  6
Continuous
100
AcDbLine
 10
55.809353
 20
-195.058715
 30
0.0
 11
-114.190648
 21
-195.058715
 31
0.0
  0
LINE
  5
1A2
100
AcDbEntity
  8
0
370
    -3
390
0
  6
Continuous
100
AcDbLine
 10
55.809353
 20
-180.165968
 30
0.0
 11
-114.190648
 21
-180.165968
 31
0.0
  0
LINE
  5
1A3
100
AcDbEntity
  8
0
370
    -3
390
0
  6
Continuous
100
AcDbLine
 10
55.809353
 20
-214.974112
 30
0.0
 11
-57.740647
 21
-214.974112
 31
0.0
  0
LINE
  5
1A4
100
AcDbEntity
  8
0
370
    -3
390
0
  6
Continuous
100
AcDbLine
 10
55.809353
 20
-321.974112
 30
0.0
 11
-114.190648
 21
-321.974112
 31
0.0
  0
LINE
  5
1A5
100
AcDbEntity
  8
0
370
    -3
390
0
  6
Continuous
100
AcDbLine
 10
55.809353
 20
-321.474112
 30
0.0
 11
-114.190648
 21
-321.474112
 31
0.0
  0
LINE
  5
1A6
100
AcDbEntity
  8
0
370
    -3
390
0
  6
Continuous
100
AcDbLine
 10
55.809353
 20
-318.974112
 30
0.0
 11
-114.190648
 21
-318.974112
 31
0.0
  0
LINE
  5
1A7
100
AcDbEntity
  8
0
370
    -3
390
0
  6
Continuous
100
AcDbLine
 10
55.809353
 20
-313.974112
 30
0.0
 11
-114.190648
 21
-313.974112
 31
0.0
  0
LINE
  5
1A8
100
AcDbEntity
  8
0
370
    -3
390
0
  6
Continuous
100
AcDbLine
 10
55.809353
 20
-304.853325
 30
0.0
 11
-114.190648
 21
-304.853325
 31
0.0
  0
LINE
  5
1A9
100
AcDbEntity
  8
0
370
    -3
390
0
  6
Continuous
100
AcDbLine
 10
55.809353
 20
-272.91234
 30
0.0
 11
-57.992772
 21
-272.91234
 31
0.0
  0
LINE
  5
1AA
100
AcDbEntity
  8
0
370
    -3
390
0
  6
Continuous
100
AcDbLine
 10
55.809353
 20
-262.974112
 30
0.0
 11
-57.740647
 21
-262.974112
 31
0.0
  0
LINE
  5
1AB
100
AcDbEntity
  8
0
370
    -3
390
0
  6
Continuous
100
AcDbLine
 10
55.809353
 20
-322.474112
 30
0.0
 11
-114.190648
 21
-322.474112
 31
0.0
  0
LINE
  5
1AC
100
AcDbEntity
  8
0
370
    -3
390
0
  6
Continuous
100
AcDbLine
 10
55.809353
 20
-275.079051
 30
0.0
 11
-57.740647
 21
-275.079051
 31
0.0
  0
LINE
  5
1AD
100
AcDbEntity
  8
0
370
    -3
390
0
  6
Continuous
100
AcDbLine
 10
55.809353
 20
-282.88951
 30
0.0
 11
-57.740647
 21
-282.88951
 31
0.0
  0
LINE
  5
1AE
100
AcDbEntity
  8
0
370
    -3
390
0
  6
Continuous
100
AcDbLine
 10
55.809353
 20
-285.111837
 30
0.0
 11
-57.740647
 21
-285.111837
 31
0.0
  0
LINE
  5
1AF
100
AcDbEntity
  8
0
370
    -3
390
0
  6
Continuous
100
AcDbLine
 10
55.809353
 20
-297.782257
 30
0.0
 11
-62.143358
 21
-297.782257
 31
0.0
  0
ARC
  5
1B0
100
AcDbEntity
  8
0
370
    -3
390
0
  6
DASHED
100
AcDbCircle
 10
397.827472
 20
-295.151019
 30
0.0
 40
9.0
100
AcDbArc
 50
139.398469
 51
172.601548
  0
ARC
  5
1B1
100
AcDbEntity
  8
0
370
    -3
390
0
  6
DASHED
100
AcDbCircle
 10
390.191576
 20
-294.1595
 30
0.0
 40
1.299999
100
AcDbArc
 50
172.601548
 51
246.000018
  0
LINE
  5
1B2
100
AcDbEntity
  8
0
370
    -3
390
0
  6
DASHED
100
AcDbLine
 10
394.638781
 20
-295.920595
 30
0.0
 11
398.155931
 21
-297.486531
 31
0.0
  0
LINE
  5
1B3
100
AcDbEntity
  8
0
370
    -3
390
0
  6
DASHED
100
AcDbLine
 10
396.265727
 20
-292.266413
 30
0.0
 11
399.782877
 21
-293.83235
 31
0.0
  0
ARC
  5
1B4
100
AcDbEntity
  8
0
370
    -3
390
0
  6
DASHED
100
AcDbCircle
 10
395.339066
 20
-283.096747
 30
0.0
 40
2.0
100
AcDbArc
 50
184.231338
 51
246.0
  0
ARC
  5
1B5
100
AcDbEntity
  8
0
370
    -3
390
0
  6
DASHED
100
AcDbCircle
 10
393.914392
 20
-285.74635
 30
0.0
 40
1.0
100
AcDbArc
 50
336.0
 51
66.0
  0
ARC
  5
1B6
100
AcDbEntity
  8
0
370
    -3
390
0
  6
DASHED
100
AcDbCircle
 10
390.535254
 20
-298.253205
 30
0.0
 40
1.0
100
AcDbArc
 50
156.0
 51
246.0
  0
LINE
  5
1B7
100
AcDbEntity
  8
0
370
    -3
390
0
  6
DASHED
100
AcDbLine
 10
390.128517
 20
-299.166751
 30
0.0
 11
392.686445
 21
-300.305613
 31
0.0
  0
ARC
  5
1B8
100
AcDbEntity
  8
0
370
    -3
390
0
  6
DASHED
100
AcDbCircle
 10
392.74303
 20
-288.377272
 30
0.0
 40
1.0
100
AcDbArc
 50
336.0
 51
4.715125
  0
ARC
  5
1B9
100
AcDbEntity
  8
0
370
    -3
390
0
  6
DASHED
100
AcDbCircle
 10
991.709079
 20
-238.974112
 30
0.0
 40
600.0
100
AcDbArc
 50
178.317231
 51
184.715125
  0
ARC
  5
1BA
100
AcDbEntity
  8
0
370
    -3
390
0
  6
DASHED
100
AcDbCircle
 10
391.981218
 20
-290.139899
 30
0.0
 40
1.299999
100
AcDbArc
 50
65.999999
 51
139.398469
  0
LINE
  5
1BB
100
AcDbEntity
  8
0
370
    -3
390
0
  6
DASHED
100
AcDbLine
 10
393.404359
 20
-289.350496
 30
0.0
 11
392.509975
 21
-288.952291
 31
0.0
  0
LINE
  5
1BC
100
AcDbEntity
  8
0
370
    -3
390
0
  6
DASHED
100
AcDbLine
 10
390.557203
 20
-295.745314
 30
0.0
 11
389.662819
 21
-295.347109
 31
0.0
  0
LINE
  5
1BD
100
AcDbEntity
  8
0
370
    -3
390
0
  6
DASHED
100
AcDbLine
 10
415.83337
 20
-238.974112
 30
0.0
 11
389.621709
 21
-297.846469
 31
0.0
  0
POINT
  5
1BE
100
AcDbEntity
  8
0
370
    -3
390
0
  6
Continuous
100
AcDbPoint
 10
391.980781
 20
-292.547905
 30
0.0
  0
LINE
  5
1BF
100
AcDbEntity
  8
0
370
    -3
390
0
  6
DASHED
100
AcDbLine
 10
399.96026
 20
-294.294448
 30
0.0
 11
398.618029
 21
-297.309148
 31
0.0
  0
LINE
  5
1C0
100
AcDbEntity
  8
0
370
    -3
390
0
  6
DASHED
100
AcDbLine
 10
398.155931
 20
-297.486531
 30
0.0
 11
398.618029
 21
-297.309148
 31
0.0
  0
LINE
  5
1C1
100
AcDbEntity
  8
0
370
    -3
390
0
  6
Continuous
100
AcDbLine
 10
399.782877
 20
-293.83235
 30
0.0
 11
399.96026
 21
-294.294448
 31
0.0
  0
LINE
  5
1C2
100
AcDbEntity
  8
0
370
    -3
390
0
  6
DASHED
100
AcDbLine
 10
396.123369
 20
-292.586154
 30
0.0
 11
399.96026
 21
-294.294448
 31
0.0
  0
LINE
  5
1C3
100
AcDbEntity
  8
0
370
    -3
390
0
  6
DASHED
100
AcDbLine
 10
394.781138
 20
-295.600854
 30
0.0
 11
398.618029
 21
-297.309148
 31
0.0
  0
ARC
  5
1C4
100
AcDbEntity
  8
0
370
    -3
390
0
  6
DASHED
100
AcDbCircle
 10
406.961368
 20
-221.795217
 30
0.0
 40
15.0
100
AcDbArc
 50
110.496649
 51
178.317231
  0
LINE
  5
1C5
100
AcDbEntity
  8
0
370
    -3
390
0
  6
DASHED
100
AcDbLine
 10
419.992988
 20
-238.974112
 30
0.0
 11
392.686445
 21
-300.305613
 31
0.0
  0
LINE
  5
1C6
100
AcDbEntity
  8
0
370
    -3
390
0
  6
DASHED
100
AcDbLine
 10
434.709079
 20
-285.474112
 30
0.0
 11
399.289854
 21
-285.474112
 31
0.0
  0
ARC
  5
1C7
100
AcDbEntity
  8
0
370
    -3
390
0
  6
DASHED
100
AcDbCircle
 10
434.709079
 20
-280.474112
 30
0.0
 40
5.0
100
AcDbArc
 50
270.0
 51
0.0
  0
LINE
  5
1C8
100
AcDbEntity
  8
0
370
    -3
390
0
  6
DASHED
100
AcDbLine
 10
434.525434
 20
-196.99105
 30
0.0
 11
415.83337
 21
-238.974112
 31
0.0
  0
LINE
  5
1C9
100
AcDbEntity
  8
0
370
    -3
390
0
  6
DASHED
100
AcDbLine
 10
435.845716
 20
-196.484241
 30
0.0
 11
438.403643
 21
-197.623104
 31
0.0
  0
ARC
  5
1CA
100
AcDbEntity
  8
0
370
    -3
390
0
  6
DASHED
100
AcDbCircle
 10
435.438979
 20
-197.397787
 30
0.0
 40
1.0
100
AcDbArc
 50
66.0
 51
156.0
  0
LINE
  5
1CB
100
AcDbEntity
  8
0
370
    -3
390
0
  6
DASHED
100
AcDbLine
 10
438.403643
 20
-197.623104
 30
0.0
 11
419.992988
 21
-238.974112
 31
0.0
  0
ARC
  5
1CC
100
AcDbEntity
  8
0
370
    -3
390
0
  6
DASHED
100
AcDbCircle
 10
436.709079
 20
-206.282508
 30
0.0
 40
3.0
100
AcDbArc
 50
0.0
 51
66.0
  0
LINE
  5
1CD
100
AcDbEntity
  8
0
370
    -3
390
0
  6
DASHED
100
AcDbLine
 10
436.125918
 20
-202.738959
 30
0.0
 11
437.929289
 21
-203.541871
 31
0.0
  0
LINE
  5
1CE
100
AcDbEntity
  8
0
370
    -3
390
0
  6
DASHED
100
AcDbLine
 10
438.074483
 20
-200.317442
 30
0.0
 11
437.338079
 21
-200.630027
 31
0.0
  0
LINE
  5
1CF
100
AcDbEntity
  8
0
370
    -3
390
0
  6
DASHED
100
AcDbLine
 10
437.204737
 20
-200.315893
 30
0.0
 11
437.338079
 21
-200.630027
 31
0.0
  0
LINE
  5
1D0
100
AcDbEntity
  8
0
370
    -3
390
0
  6
DASHED
100
AcDbLine
 10
437.64965
 20
-199.3166
 30
0.0
 11
438.074483
 21
-200.317442
 31
0.0
  0
LINE
  5
1D1
100
AcDbEntity
  8
0
370
    -3
390
0
  6
DASHED
100
AcDbLine
 10
439.709079
 20
-206.282508
 30
0.0
 11
439.709079
 21
-280.474112
 31
0.0
  0
LINE
  5
1D2
100
AcDbEntity
  8
0
370
    -3
390
0
  6
DASHED
100
AcDbLine
 10
430.488266
 20
-202.734319
 30
0.0
 11
404.532629
 21
-206.993148
 31
0.0
  0
ARC
  5
1D3
100
AcDbEntity
  8
0
370
    -3
390
0
  6
DASHED
100
AcDbCircle
 10
430.002518
 20
-199.773906
 30
0.0
 40
3.0
100
AcDbArc
 50
279.318123
 51
336.0
  0
ARC
  5
1D4
100
AcDbEntity
  8
0
370
    -3
390
0
  6
DASHED
100
AcDbCircle
 10
406.961368
 20
-221.795217
 30
0.0
 40
15.0
100
AcDbArc
 50
99.318123
 51
110.496649
  0
LINE
  5
1D5
100
AcDbEntity
  8
0
370
    -3
390
0
  6
CENTER
100
AcDbLine
 10
415.689854
 20
-277.97651
 30
0.0
 11
415.689854
 21
-288.294599
 31
0.0
  0
LINE
  5
1D6
100
AcDbEntity
  8
0
370
    -3
390
0
  6
CENTER
100
AcDbLine
 10
388.927097
 20
-291.188317
 30
0.0
 11
400.319514
 21
-296.260548
 31
0.0
  0
LINE
  5
1D7
100
AcDbEntity
  8
0
370
    -3
390
0
  6
CENTER
100
AcDbLine
 10
-104.190647
 20
-193.474513
 30
0.0
 11
-104.190647
 21
-306.128232
 31
0.0
  0
LINE
  5
1D8
100
AcDbEntity
  8
0
370
    -3
390
0
  6
Continuous
100
AcDbLine
 10
-68.740647
 20
-196.377505
 30
0.0
 11
-104.190647
 21
-196.377505
 31
0.0
  0
ARC
  5
1D9
100
AcDbEntity
  8
0
370
    -3
390
0
  6
Continuous
100
AcDbCircle
 10
-69.140647
 20
-213.974112
 30
0.0
 40
5.0
100
AcDbArc
 50
0.0
 51
90.0
  0
LINE
  5
1DA
100
AcDbEntity
  8
0
370
    -3
390
0
  6
Continuous
100
AcDbLine
 10
-104.190647
 20
-202.472323
 30
0.0
 11
-69.140647
 21
-202.472323
 31
0.0
  0
ARC
  5
1DB
100
AcDbEntity
  8
0
370
    -3
390
0
  6
Continuous
100
AcDbCircle
 10
-69.140647
 20
-207.472323
 30
0.0
 40
5.0
100
AcDbArc
 50
0.0
 51
90.0
  0
ARC
  5
1DC
100
AcDbEntity
  8
0
370
    -3
390
0
  6
Continuous
100
AcDbCircle
 10
-68.740647
 20
-207.377505
 30
0.0
 40
11.0
100
AcDbArc
 50
0.0
 51
90.0
  0
LINE
  5
1DD
100
AcDbEntity
  8
0
370
    -3
390
0
  6
Continuous
100
AcDbLine
 10
-104.190647
 20
-208.974112
 30
0.0
 11
-69.140647
 21
-208.974112
 31
0.0
  0
LINE
  5
1DE
100
AcDbEntity
  8
0
370
    -3
390
0
  6
Continuous
100
AcDbLine
 10
-57.740647
 20
-207.377505
 30
0.0
 11
-57.740647
 21
-288.980224
 31
0.0
  0
LINE
  5
1DF
100
AcDbEntity
  8
0
370
    -3
390
0
  6
Continuous
100
AcDbLine
 10
-64.140647
 20
-207.472323
 30
0.0
 11
-64.140647
 21
-283.550067
 31
0.0
  0
ARC
  5
1E0
100
AcDbEntity
  8
0
370
    -3
390
0
  6
Continuous
100
AcDbCircle
 10
-69.140647
 20
-283.550067
 30
0.0
 40
5.0
100
AcDbArc
 50
270.0
 51
0.0
  0
POINT
  5
1E1
100
AcDbEntity
  8
0
370
    -3
390
0
  6
CENTER
100
AcDbPoint
 10
-117.690647
 20
-298.760014
 30
0.0
  0
POINT
  5
1E2
100
AcDbEntity
  8
0
370
    -3
390
0
  6
CENTER
100
AcDbPoint
 10
-90.690647
 20
-298.760014
 30
0.0
  0
ARC
  5
1E3
100
AcDbEntity
  8
0
370
    -3
390
0
  6
Continuous
100
AcDbCircle
 10
-68.740647
 20
-287.760014
 30
0.0
 40
11.0
100
AcDbArc
 50
270.0
 51
0.0
  0
ARC
  5
1E4
100
AcDbEntity
  8
0
370
    -3
390
0
  6
Continuous
100
AcDbCircle
 10
-68.740647
 20
-288.980224
 30
0.0
 40
11.0
100
AcDbArc
 50
270.0
 51
0.0
  0
ARC
  5
1E5
100
AcDbEntity
  8
0
370
    -3
390
0
  6
Continuous
100
AcDbCircle
 10
-112.678121
 20
-284.550067
 30
0.0
 40
4.0
100
AcDbArc
 50
270.0
 51
313.301579
  0
ARC
  5
1E6
100
AcDbEntity
  8
0
370
    -3
390
0
  6
Continuous
100
AcDbCircle
 10
-113.450865
 20
-284.550067
 30
0.0
 40
4.0
100
AcDbArc
 50
270.0
 51
318.821566
  0
LINE
  5
1E7
100
AcDbEntity
  8
0
370
    -3
390
0
  6
Continuous
100
AcDbLine
 10
-95.703172
 20
-288.550067
 30
0.0
 11
-69.140647
 21
-288.550067
 31
0.0
  0
ARC
  5
1E8
100
AcDbEntity
  8
0
370
    -3
390
0
  6
Continuous
100
AcDbCircle
 10
-139.640647
 20
-287.760014
 30
0.0
 40
11.0
100
AcDbArc
 50
180.0
 51
270.0
  0
ARC
  5
1E9
100
AcDbEntity
  8
0
370
    -3
390
0
  6
Continuous
100
AcDbCircle
 10
-139.640647
 20
-288.980224
 30
0.0
 40
11.0
100
AcDbArc
 50
180.0
 51
270.0
  0
LINE
  5
1EA
100
AcDbEntity
  8
0
370
    -3
390
0
  6
Continuous
100
AcDbLine
 10
-112.678121
 20
-288.550067
 30
0.0
 11
-139.240647
 21
-288.550067
 31
0.0
  0
ARC
  5
1EB
100
AcDbEntity
  8
0
370
    -3
390
0
  6
Continuous
100
AcDbCircle
 10
-139.240647
 20
-283.550067
 30
0.0
 40
5.0
100
AcDbArc
 50
180.0
 51
270.0
  0
LINE
  5
1EC
100
AcDbEntity
  8
0
370
    -3
390
0
  6
Continuous
100
AcDbLine
 10
-144.240647
 20
-207.472323
 30
0.0
 11
-144.240647
 21
-283.550067
 31
0.0
  0
LINE
  5
1ED
100
AcDbEntity
  8
0
370
    -3
390
0
  6
Continuous
100
AcDbLine
 10
-150.640647
 20
-207.377505
 30
0.0
 11
-150.640647
 21
-288.980224
 31
0.0
  0
POINT
  5
1EE
100
AcDbEntity
  8
0
370
    -3
390
0
  6
CENTER
100
AcDbPoint
 10
-104.190647
 20
-299.980224
 30
0.0
  0
LINE
  5
1EF
100
AcDbEntity
  8
0
370
    -3
390
0
  6
Continuous
100
AcDbLine
 10
-139.640647
 20
-299.980224
 30
0.0
 11
-104.190647
 21
-299.980224
 31
0.0
  0
LINE
  5
1F0
100
AcDbEntity
  8
0
370
    -3
390
0
  6
Continuous
100
AcDbLine
 10
-139.640647
 20
-298.760014
 30
0.0
 11
-104.190647
 21
-298.760014
 31
0.0
  0
ARC
  5
1F1
100
AcDbEntity
  8
0
370
    -3
390
0
  6
Continuous
100
AcDbCircle
 10
-94.930428
 20
-284.550067
 30
0.0
 40
4.0
100
AcDbArc
 50
221.178434
 51
270.0
  0
ELLIPSE
  5
1F2
100
AcDbEntity
  8
0
370
    -3
390
0
  6
Continuous
100
AcDbEllipse
 10
-104.190647
 20
-291.746201
 30
0.0
 11
8.0
 21
0.0
 31
0.0
210
0.0
220
0.0
230
1.0
 40
0.913545
 41
0.6742171987028479
 42
1.5707963267948966
  0
ARC
  5
1F3
100
AcDbEntity
  8
0
370
    -3
390
0
  6
Continuous
100
AcDbCircle
 10
-95.703172
 20
-284.550067
 30
0.0
 40
4.0
100
AcDbArc
 50
226.698421
 51
270.0
  0
ELLIPSE
  5
1F4
100
AcDbEntity
  8
0
370
    -3
390
0
  6
Continuous
100
AcDbEllipse
 10
-104.190647
 20
-292.547905
 30
0.0
 11
8.0
 21
0.0
 31
0.0
210
0.0
220
0.0
230
1.0
 40
0.913545
 41
0.7698500149201927
 42
1.5707963267948966
  0
ELLIPSE
  5
1F5
100
AcDbEntity
  8
0
370
    -3
390
0
  6
Continuous
100
AcDbEllipse
 10
-104.190647
 20
-292.292607
 30
0.0
 11
3.5
 21
0.0
 31
0.0
210
0.0
220
0.0
230
1.0
 40
0.986488
 41
0.0
 42
6.2831853071795862
  0
LINE
  5
1F6
100
AcDbEntity
  8
0
370
    -3
390
0
  6
Continuous
100
AcDbLine
 10
-106.190647
 20
-293.409011
 30
0.0
 11
-102.190647
 21
-289.754829
 31
0.0
  0
LINE
  5
1F7
100
AcDbEntity
  8
0
370
    -3
390
0
  6
Continuous
100
AcDbLine
 10
-102.190647
 20
-293.409011
 30
0.0
 11
-106.190647
 21
-289.754829
 31
0.0
  0
ELLIPSE
  5
1F8
100
AcDbEntity
  8
0
370
    -3
390
0
  6
Continuous
100
AcDbEllipse
 10
-104.190647
 20
-292.547905
 30
0.0
 11
8.0
 21
0.0
 31
0.0
210
0.0
220
0.0
230
1.0
 40
0.913545
 41
1.5707963267948966
 42
2.3717426386694425
  0
ELLIPSE
  5
1F9
100
AcDbEntity
  8
0
370
    -3
390
0
  6
Continuous
100
AcDbEllipse
 10
-104.190647
 20
-291.746201
 30
0.0
 11
8.0
 21
0.0
 31
0.0
210
0.0
220
0.0
230
1.0
 40
0.913545
 41
1.5707963267948966
 42
2.4673754548869451
  0
LINE
  5
1FA
100
AcDbEntity
  8
0
370
    -3
390
0
  6
Continuous
100
AcDbLine
 10
-68.740647
 20
-299.980224
 30
0.0
 11
-104.190647
 21
-299.980224
 31
0.0
  0
LINE
  5
1FB
100
AcDbEntity
  8
0
370
    -3
390
0
  6
Continuous
100
AcDbLine
 10
-68.740647
 20
-298.760014
 30
0.0
 11
-104.190647
 21
-298.760014
 31
0.0
  0
LINE
  5
1FC
100
AcDbEntity
  8
0
370
    -3
390
0
  6
Continuous
100
AcDbLine
 10
-104.190647
 20
-208.974112
 30
0.0
 11
-139.240647
 21
-208.974112
 31
0.0
  0
ARC
  5
1FD
100
AcDbEntity
  8
0
370
    -3
390
0
  6
Continuous
100
AcDbCircle
 10
-139.240647
 20
-213.974112
 30
0.0
 40
5.0
100
AcDbArc
 50
90.0
 51
180.0
  0
LINE
  5
1FE
100
AcDbEntity
  8
0
370
    -3
390
0
  6
Continuous
100
AcDbLine
 10
-139.640647
 20
-196.377505
 30
0.0
 11
-104.190647
 21
-196.377505
 31
0.0
  0
ARC
  5
1FF
100
AcDbEntity
  8
0
370
    -3
390
0
  6
Continuous
100
AcDbCircle
 10
-139.640647
 20
-207.377505
 30
0.0
 40
11.0
100
AcDbArc
 50
90.0
 51
180.0
  0
LINE
  5
200
100
AcDbEntity
  8
0
370
    -3
390
0
  6
Continuous
100
AcDbLine
 10
-104.190647
 20
-202.472323
 30
0.0
 11
-139.240647
 21
-202.472323
 31
0.0
  0
ARC
  5
201
100
AcDbEntity
  8
0
370
    -3
390
0
  6
Continuous
100
AcDbCircle
 10
-139.240647
 20
-207.472323
 30
0.0
 40
5.0
100
AcDbArc
 50
90.0
 51
180.0
  0
MTEXT
  5
203
100
AcDbEntity
  8
0
370
    -3
390
0
  6
Continuous
100
AcDbMText
 10
-558.188477
 20
206.087418
 30
0.0
 40
13.375307
 41
0.0
 71
     7
 72
     1
  1
\W0.98;三菱ギヤードモータ  
  7
ZU_SHPTB00001
 11
1.0
 21
0.0
 31
0.0
 73
     1
 44
1.0
  0
MTEXT
  5
204
100
AcDbEntity
  8
0
370
    -3
390
0
  6
Continuous
100
AcDbMText
 10
-558.188477
 20
184.605865
 30
0.0
 40
13.375307
 41
0.0
 71
     7
 72
     1
  1
\W0.78;GM-SPFB
  7
ZU_SHPTB00001
 11
1.0
 21
0.0
 31
0.0
 73
     1
 44
1.0
  0
MTEXT
  5
205
100
AcDbEntity
  8
0
370
    -3
390
0
  6
Continuous
100
AcDbMText
 10
-558.188477
 20
163.124313
 30
0.0
 40
13.375307
 41
0.0
 71
     7
 72
     1
  1
\W0.78;1.5kW
  7
ZU_SHPTB00001
 11
1.0
 21
0.0
 31
0.0
 73
     1
 44
1.0
  0
MTEXT
  5
206
100
AcDbEntity
  8
0
370
    -3
390
0
  6
Continuous
100
AcDbMText
 10
-558.188477
 20
141.642761
 30
0.0
 40
13.375307
 41
0.0
 71
     7
 72
     1
  1
\W0.78;1/120\W0.98;～\W0.78;1/200
  7
ZU_SHPTB00001
 11
1.0
 21
0.0
 31
0.0
 73
     1
 44
1.0
  0
MTEXT
  5
207
100
AcDbEntity
  8
0
370
    -3
390
0
  6
Continuous
100
AcDbMText
 10
-558.188477
 20
120.161201
 30
0.0
 40
13.375307
 41
0.0
 71
     7
 72
     1
  1
\W0.78;SCALE1/1
  7
ZU_SHPTB00001
 11
1.0
 21
0.0
 31
0.0
 73
     1
 44
1.0
  0
LINE
  5
208
100
AcDbEntity
  8
0
370
    -3
390
0
  6
Continuous
100
AcDbLine
 10
55.809353
 20
135.329483
 30
0.0
 11
-114.190648
 21
135.329483
 31
0.0
  0
LINE
  5
209
100
AcDbEntity
  8
0
370
    -3
390
0
  6
Continuous
100
AcDbLine
 10
55.809353
 20
130.329483
 30
0.0
 11
-114.190648
 21
130.329483
 31
0.0
  0
LINE
  5
20A
100
AcDbEntity
  8
0
370
    -3
390
0
  6
Continuous
100
AcDbLine
 10
55.809353
 20
127.829483
 30
0.0
 11
-80.079558
 21
127.829483
 31
0.0
  0
LINE
  5
20B
100
AcDbEntity
  8
0
370
    -3
390
0
  6
Continuous
100
AcDbLine
 10
-79.668148
 20
126.829483
 30
0.0
 11
55.809353
 21
126.829483
 31
0.0
  0
LINE
  5
20C
100
AcDbEntity
  8
0
370
    -3
390
0
  6
Continuous
100
AcDbLine
 10
69.809354
 20
95.829483
 30
0.0
 11
69.809354
 21
82.829483
 31
0.0
  0
LINE
  5
20D
100
AcDbEntity
  8
0
370
    -3
390
0
  6
Continuous
100
AcDbLine
 10
69.809356
 20
82.829483
 30
0.0
 11
69.309355
 21
83.695413
 31
0.0
  0
LINE
  5
20E
100
AcDbEntity
  8
0
370
    -3
390
0
  6
Continuous
100
AcDbLine
 10
69.809355
 20
95.829483
 30
0.0
 11
69.309355
 21
94.963359
 31
0.0
  0
LINE
  5
20F
100
AcDbEntity
  8
0
370
    -3
390
0
  6
Continuous
100
AcDbLine
 10
77.309353
 20
82.829483
 30
0.0
 11
69.809355
 21
82.829483
 31
0.0
  0
LINE
  5
210
100
AcDbEntity
  8
0
370
    -3
390
0
  6
Continuous
100
AcDbLine
 10
77.309353
 20
95.829483
 30
0.0
 11
69.809354
 21
95.829483
 31
0.0
  0
LINE
  5
211
100
AcDbEntity
  8
0
370
    -3
390
0
  6
Continuous
100
AcDbLine
 10
69.309354
 20
94.963359
 30
0.0
 11
69.309354
 21
83.695413
 31
0.0
  0
LINE
  5
212
100
AcDbEntity
  8
0
370
    -3
390
0
  6
Continuous
100
AcDbLine
 10
69.809354
 20
166.829483
 30
0.0
 11
69.809354
 21
153.829483
 31
0.0
  0
LINE
  5
213
100
AcDbEntity
  8
0
370
    -3
390
0
  6
Continuous
100
AcDbLine
 10
69.809356
 20
153.829483
 30
0.0
 11
69.309355
 21
154.695413
 31
0.0
  0
LINE
  5
214
100
AcDbEntity
  8
0
370
    -3
390
0
  6
Continuous
100
AcDbLine
 10
69.809355
 20
166.829483
 30
0.0
 11
69.309355
 21
165.963359
 31
0.0
  0
LINE
  5
215
100
AcDbEntity
  8
0
370
    -3
390
0
  6
Continuous
100
AcDbLine
 10
77.309353
 20
153.829483
 30
0.0
 11
69.809355
 21
153.829483
 31
0.0
  0
LINE
  5
216
100
AcDbEntity
  8
0
370
    -3
390
0
  6
Continuous
100
AcDbLine
 10
77.309353
 20
166.829483
 30
0.0
 11
69.809354
 21
166.829483
 31
0.0
  0
LINE
  5
217
100
AcDbEntity
  8
0
370
    -3
390
0
  6
Continuous
100
AcDbLine
 10
69.309354
 20
165.963359
 30
0.0
 11
69.309354
 21
154.695413
 31
0.0
  0
LINE
  5
218
100
AcDbEntity
  8
0
370
    -3
390
0
  6
Continuous
100
AcDbLine
 10
53.309354
 20
206.329483
 30
0.0
 11
53.309354
 21
193.329483
 31
0.0
  0
LINE
  5
219
100
AcDbEntity
  8
0
370
    -3
390
0
  6
Continuous
100
AcDbLine
 10
53.309356
 20
193.329483
 30
0.0
 11
52.809355
 21
194.195413
 31
0.0
  0
LINE
  5
21A
100
AcDbEntity
  8
0
370
    -3
390
0
  6
Continuous
100
AcDbLine
 10
53.309355
 20
206.329483
 30
0.0
 11
52.809355
 21
205.463359
 31
0.0
  0
LINE
  5
21B
100
AcDbEntity
  8
0
370
    -3
390
0
  6
Continuous
100
AcDbLine
 10
60.809353
 20
193.329483
 30
0.0
 11
53.309355
 21
193.329483
 31
0.0
  0
LINE
  5
21C
100
AcDbEntity
  8
0
370
    -3
390
0
  6
Continuous
100
AcDbLine
 10
60.809353
 20
206.329483
 30
0.0
 11
53.309354
 21
206.329483
 31
0.0
  0
LINE
  5
21D
100
AcDbEntity
  8
0
370
    -3
390
0
  6
Continuous
100
AcDbLine
 10
52.809354
 20
205.463359
 30
0.0
 11
52.809354
 21
194.195413
 31
0.0
  0
LINE
  5
21E
100
AcDbEntity
  8
0
370
    -3
390
0
  6
Continuous
100
AcDbLine
 10
53.309354
 20
214.329483
 30
0.0
 11
53.309354
 21
227.329483
 31
0.0
  0
LINE
  5
21F
100
AcDbEntity
  8
0
370
    -3
390
0
  6
Continuous
100
AcDbLine
 10
53.309356
 20
227.329483
 30
0.0
 11
52.809355
 21
226.463554
 31
0.0
  0
LINE
  5
220
100
AcDbEntity
  8
0
370
    -3
390
0
  6
Continuous
100
AcDbLine
 10
53.309355
 20
214.329483
 30
0.0
 11
52.809355
 21
215.195607
 31
0.0
  0
LINE
  5
221
100
AcDbEntity
  8
0
370
    -3
390
0
  6
Continuous
100
AcDbLine
 10
60.809353
 20
227.329483
 30
0.0
 11
53.309355
 21
227.329483
 31
0.0
  0
LINE
  5
222
100
AcDbEntity
  8
0
370
    -3
390
0
  6
Continuous
100
AcDbLine
 10
60.809353
 20
214.329483
 30
0.0
 11
53.309354
 21
214.329483
 31
0.0
  0
LINE
  5
223
100
AcDbEntity
  8
0
370
    -3
390
0
  6
Continuous
100
AcDbLine
 10
52.809354
 20
215.195607
 30
0.0
 11
52.809354
 21
226.463554
 31
0.0
  0
LINE
  5
224
100
AcDbEntity
  8
0
370
    -3
390
0
  6
Continuous
100
AcDbLine
 10
69.809354
 20
253.829483
 30
0.0
 11
69.809354
 21
266.829483
 31
0.0
  0
LINE
  5
225
100
AcDbEntity
  8
0
370
    -3
390
0
  6
Continuous
100
AcDbLine
 10
69.809356
 20
266.829483
 30
0.0
 11
69.309355
 21
265.963554
 31
0.0
  0
LINE
  5
226
100
AcDbEntity
  8
0
370
    -3
390
0
  6
Continuous
100
AcDbLine
 10
69.809355
 20
253.829483
 30
0.0
 11
69.309355
 21
254.695607
 31
0.0
  0
LINE
  5
227
100
AcDbEntity
  8
0
370
    -3
390
0
  6
Continuous
100
AcDbLine
 10
77.309353
 20
266.829483
 30
0.0
 11
69.809355
 21
266.829483
 31
0.0
  0
LINE
  5
228
100
AcDbEntity
  8
0
370
    -3
390
0
  6
Continuous
100
AcDbLine
 10
77.309353
 20
253.829483
 30
0.0
 11
69.809354
 21
253.829483
 31
0.0
  0
LINE
  5
229
100
AcDbEntity
  8
0
370
    -3
390
0
  6
Continuous
100
AcDbLine
 10
69.309354
 20
254.695607
 30
0.0
 11
69.309354
 21
265.963554
 31
0.0
  0
LINE
  5
22A
100
AcDbEntity
  8
0
370
    -3
390
0
  6
Continuous
100
AcDbLine
 10
69.809354
 20
324.829483
 30
0.0
 11
69.809354
 21
337.829483
 31
0.0
  0
LINE
  5
22B
100
AcDbEntity
  8
0
370
    -3
390
0
  6
Continuous
100
AcDbLine
 10
69.809356
 20
337.829483
 30
0.0
 11
69.309355
 21
336.963554
 31
0.0
  0
LINE
  5
22C
100
AcDbEntity
  8
0
370
    -3
390
0
  6
Continuous
100
AcDbLine
 10
69.809355
 20
324.829483
 30
0.0
 11
69.309355
 21
325.695607
 31
0.0
  0
LINE
  5
22D
100
AcDbEntity
  8
0
370
    -3
390
0
  6
Continuous
100
AcDbLine
 10
77.309353
 20
337.829483
 30
0.0
 11
69.809355
 21
337.829483
 31
0.0
  0
LINE
  5
22E
100
AcDbEntity
  8
0
370
    -3
390
0
  6
Continuous
100
AcDbLine
 10
77.309353
 20
324.829483
 30
0.0
 11
69.809354
 21
324.829483
 31
0.0
  0
LINE
  5
22F
100
AcDbEntity
  8
0
370
    -3
390
0
  6
Continuous
100
AcDbLine
 10
69.309354
 20
325.695607
 30
0.0
 11
69.309354
 21
336.963554
 31
0.0
  0
ARC
  5
230
100
AcDbEntity
  8
0
370
    -3
390
0
  6
Continuous
100
AcDbCircle
 10
-588.874033
 20
-345.001975
 30
0.0
 40
5.0
100
AcDbArc
 50
135.0
 51
228.768524
  0
LINE
  5
231
100
AcDbEntity
  8
0
370
    -3
390
0
  6
Continuous
100
AcDbLine
 10
-498.366986
 20
-69.606615
 30
0.0
 11
-498.366986
 21
-88.341609
 31
0.0
  0
LINE
  5
232
100
AcDbEntity
  8
0
370
    -3
390
0
  6
Continuous
100
AcDbLine
 10
-491.366986
 20
-69.606615
 30
0.0
 11
-491.366986
 21
-88.341609
 31
0.0
  0
LINE
  5
233
100
AcDbEntity
  8
0
370
    -3
390
0
  6
Continuous
100
AcDbLine
 10
-474.366986
 20
-68.974112
 30
0.0
 11
-474.366986
 21
-94.324423
 31
0.0
  0
ARC
  5
234
100
AcDbEntity
  8
0
370
    -3
390
0
  6
Continuous
100
AcDbCircle
 10
-484.366986
 20
-68.974112
 30
0.0
 40
10.0
100
AcDbArc
 50
0.0
 51
90.0
  0
ARC
  5
235
100
AcDbEntity
  8
0
370
    -3
390
0
  6
Continuous
100
AcDbCircle
 10
-505.366986
 20
-68.974112
 30
0.0
 40
10.0
100
AcDbArc
 50
90.0
 51
180.0
  0
LINE
  5
236
100
AcDbEntity
  8
0
370
    -3
390
0
  6
Continuous
100
AcDbLine
 10
-515.366986
 20
-68.974112
 30
0.0
 11
-515.366986
 21
-94.324423
 31
0.0
  0
LINE
  5
237
100
AcDbEntity
  8
0
370
    -3
390
0
  6
Continuous
100
AcDbLine
 10
-484.366986
 20
-58.974112
 30
0.0
 11
-505.366986
 21
-58.974112
 31
0.0
  0
LINE
  5
238
100
AcDbEntity
  8
0
370
    -3
390
0
  6
CENTER
100
AcDbLine
 10
-471.699073
 20
-78.974112
 30
0.0
 11
-518.721587
 21
-78.974112
 31
0.0
  0
CIRCLE
  5
239
100
AcDbEntity
  8
0
370
    -3
390
0
  6
Continuous
100
AcDbCircle
 10
-494.866986
 20
-78.974112
 30
0.0
 40
10.0
  0
LINE
  5
23A
100
AcDbEntity
  8
0
370
    -3
390
0
  6
Continuous
100
AcDbLine
 10
-380.604153
 20
-89.661027
 30
0.0
 11
-401.928473
 21
-110.985347
 31
0.0
  0
LINE
  5
23B
100
AcDbEntity
  8
0
370
    -3
390
0
  6
Continuous
100
AcDbLine
 10
-387.373594
 20
-86.530973
 30
0.0
 11
-409.19087
 21
-108.348249
 31
0.0
  0
LINE
  5
23C
100
AcDbEntity
  8
0
370
    -3
390
0
  6
Continuous
100
AcDbLine
 10
-609.129819
 20
-89.661027
 30
0.0
 11
-587.805498
 21
-110.985347
 31
0.0
  0
LINE
  5
23D
100
AcDbEntity
  8
0
370
    -3
390
0
  6
Continuous
100
AcDbLine
 10
-602.360378
 20
-86.530973
 30
0.0
 11
-580.543102
 21
-108.348249
 31
0.0
  0
LINE
  5
23E
100
AcDbEntity
  8
0
370
    -3
390
0
  6
Continuous
100
AcDbLine
 10
-491.366986
 20
-58.956652
 30
0.0
 11
-491.366986
 21
-58.974112
 31
0.0
  0
LINE
  5
23F
100
AcDbEntity
  8
0
370
    -3
390
0
  6
Continuous
100
AcDbLine
 10
-498.366986
 20
-58.956652
 30
0.0
 11
-498.366986
 21
-58.974112
 31
0.0
  0
LINE
  5
240
100
AcDbEntity
  8
0
370
    -3
390
0
  6
Continuous
100
AcDbLine
 10
-352.366986
 20
-356.474112
 30
0.0
 11
-402.874174
 21
-356.474112
 31
0.0
  0
LINE
  5
241
100
AcDbEntity
  8
0
370
    -3
390
0
  6
Continuous
100
AcDbLine
 10
-586.859798
 20
-356.474112
 30
0.0
 11
-637.366986
 21
-356.474112
 31
0.0
  0
LINE
  5
242
100
AcDbEntity
  8
0
370
    -3
390
0
  6
Continuous
100
AcDbLine
 10
-337.366986
 20
-56.474112
 30
0.0
 11
-337.366986
 21
-341.474112
 31
0.0
  0
LINE
  5
243
100
AcDbEntity
  8
0
370
    -3
390
0
  6
Continuous
100
AcDbLine
 10
-652.366986
 20
-56.474112
 30
0.0
 11
-652.366986
 21
-341.474112
 31
0.0
  0
LINE
  5
244
100
AcDbEntity
  8
0
370
    -3
390
0
  6
Continuous
100
AcDbLine
 10
-352.366986
 20
-41.474112
 30
0.0
 11
-637.366986
 21
-41.474112
 31
0.0
  0
LINE
  5
245
100
AcDbEntity
  8
0
370
    -3
390
0
  6
Continuous
100
AcDbLine
 10
-494.866986
 20
-366.974112
 30
0.0
 11
-411.366986
 21
-366.974112
 31
0.0
  0
LINE
  5
246
100
AcDbEntity
  8
0
370
    -3
390
0
  6
Continuous
100
AcDbLine
 10
-494.866986
 20
-366.974112
 30
0.0
 11
-578.366986
 21
-366.974112
 31
0.0
  0
ARC
  5
247
100
AcDbEntity
  8
0
370
    -3
390
0
  6
Continuous
100
AcDbCircle
 10
-390.909128
 20
-82.995439
 30
0.0
 40
5.0
100
AcDbArc
 50
315.0
 51
57.006974
  0
ARC
  5
248
100
AcDbEntity
  8
0
370
    -3
390
0
  6
Continuous
100
AcDbCircle
 10
-377.068619
 20
-93.196561
 30
0.0
 40
5.0
100
AcDbArc
 50
50.20902
 51
135.0
  0
ARC
  5
249
100
AcDbEntity
  8
0
370
    -3
390
0
  6
Continuous
100
AcDbCircle
 10
-412.726403
 20
-104.812715
 30
0.0
 40
5.0
100
AcDbArc
 50
240.206558
 51
315.0
  0
ARC
  5
24A
100
AcDbEntity
  8
0
370
    -3
390
0
  6
Continuous
100
AcDbCircle
 10
-398.392939
 20
-114.520881
 30
0.0
 40
5.0
100
AcDbArc
 50
135.0
 51
231.573261
  0
ARC
  5
24B
100
AcDbEntity
  8
0
370
    -3
390
0
  6
Continuous
100
AcDbCircle
 10
-612.665353
 20
-93.196561
 30
0.0
 40
5.0
100
AcDbArc
 50
45.0
 51
129.79098
  0
ARC
  5
24C
100
AcDbEntity
  8
0
370
    -3
390
0
  6
Continuous
100
AcDbCircle
 10
-591.341032
 20
-114.520881
 30
0.0
 40
5.0
100
AcDbArc
 50
308.426739
 51
45.0
  0
ARC
  5
24D
100
AcDbEntity
  8
0
370
    -3
390
0
  6
Continuous
100
AcDbCircle
 10
-577.007568
 20
-104.812715
 30
0.0
 40
5.0
100
AcDbArc
 50
225.0
 51
299.793442
  0
ARC
  5
24E
100
AcDbEntity
  8
0
370
    -3
390
0
  6
Continuous
100
AcDbCircle
 10
-598.824844
 20
-82.995439
 30
0.0
 40
5.0
100
AcDbArc
 50
122.993026
 51
225.0
  0
ARC
  5
24F
100
AcDbEntity
  8
0
370
    -3
390
0
  6
Continuous
100
AcDbCircle
 10
-486.366986
 20
-58.956652
 30
0.0
 40
5.0
100
AcDbArc
 50
90.0
 51
180.0
  0
ARC
  5
250
100
AcDbEntity
  8
0
370
    -3
390
0
  6
Continuous
100
AcDbCircle
 10
-493.366986
 20
-70.597035
 30
0.0
 40
2.0
100
AcDbArc
 50
0.0
 51
33.678871
  0
ARC
  5
251
100
AcDbEntity
  8
0
370
    -3
390
0
  6
Continuous
100
AcDbCircle
 10
-503.366986
 20
-58.956652
 30
0.0
 40
5.0
100
AcDbArc
 50
0.0
 51
90.0
  0
ARC
  5
252
100
AcDbEntity
  8
0
370
    -3
390
0
  6
Continuous
100
AcDbCircle
 10
-496.366986
 20
-70.597035
 30
0.0
 40
2.0
100
AcDbArc
 50
146.321129
 51
180.0
  0
ARC
  5
253
100
AcDbEntity
  8
0
370
    -3
390
0
  6
Continuous
100
AcDbCircle
 10
-399.42233
 20
-360.384546
 30
0.0
 40
8.0
100
AcDbArc
 50
125.114467
 51
175.505843
  0
ARC
  5
254
100
AcDbEntity
  8
0
370
    -3
390
0
  6
Continuous
100
AcDbCircle
 10
-590.311642
 20
-360.384546
 30
0.0
 40
8.0
100
AcDbArc
 50
4.494157
 51
54.885533
  0
CIRCLE
  5
255
100
AcDbEntity
  8
0
370
    -3
390
0
  6
Continuous
100
AcDbCircle
 10
-629.217274
 20
-333.324401
 30
0.0
 40
12.0
  0
ARC
  5
256
100
AcDbEntity
  8
0
370
    -3
390
0
  6
Continuous
100
AcDbCircle
 10
-637.366986
 20
-56.474112
 30
0.0
 40
15.0
100
AcDbArc
 50
90.0
 51
180.0
  0
ARC
  5
257
100
AcDbEntity
  8
0
370
    -3
390
0
  6
Continuous
100
AcDbCircle
 10
-637.366986
 20
-341.474112
 30
0.0
 40
15.0
100
AcDbArc
 50
180.0
 51
270.0
  0
ARC
  5
258
100
AcDbEntity
  8
0
370
    -3
390
0
  6
Continuous
100
AcDbCircle
 10
-352.366986
 20
-341.474112
 30
0.0
 40
15.0
100
AcDbArc
 50
270.0
 51
0.0
  0
ARC
  5
259
100
AcDbEntity
  8
0
370
    -3
390
0
  6
Continuous
100
AcDbCircle
 10
-352.366986
 20
-56.474112
 30
0.0
 40
15.0
100
AcDbArc
 50
0.0
 51
90.0
  0
CIRCLE
  5
25A
100
AcDbEntity
  8
0
370
    -3
390
0
  6
Continuous
100
AcDbCircle
 10
-360.516697
 20
-333.324401
 30
0.0
 40
12.0
  0
CIRCLE
  5
25B
100
AcDbEntity
  8
0
370
    -3
390
0
  6
Continuous
100
AcDbCircle
 10
-360.516697
 20
-64.623824
 30
0.0
 40
12.0
  0
CIRCLE
  5
25C
100
AcDbEntity
  8
0
370
    -3
390
0
  6
Continuous
100
AcDbCircle
 10
-629.217274
 20
-64.623824
 30
0.0
 40
12.0
  0
ARC
  5
25D
100
AcDbEntity
  8
0
370
    -3
390
0
  6
Continuous
100
AcDbCircle
 10
-417.366986
 20
-358.974112
 30
0.0
 40
10.0
100
AcDbArc
 50
306.869898
 51
355.505843
  0
ARC
  5
25E
100
AcDbEntity
  8
0
370
    -3
390
0
  6
Continuous
100
AcDbCircle
 10
-572.366986
 20
-358.974112
 30
0.0
 40
10.0
100
AcDbArc
 50
184.494157
 51
233.130102
  0
ARC
  5
25F
100
AcDbEntity
  8
0
370
    -3
390
0
  6
Continuous
100
AcDbCircle
 10
-604.030722
 20
-141.831192
 30
0.0
 40
5.0
100
AcDbArc
 50
45.0
 51
143.279272
  0
ARC
  5
260
100
AcDbEntity
  8
0
370
    -3
390
0
  6
Continuous
100
AcDbCircle
 10
-592.7718
 20
-129.048483
 30
0.0
 40
5.0
100
AcDbArc
 50
133.973976
 51
225.0
  0
LINE
  5
261
100
AcDbEntity
  8
0
370
    -3
390
0
  6
Continuous
100
AcDbLine
 10
-494.866986
 20
-116.974112
 30
0.0
 11
-477.366986
 21
-116.974112
 31
0.0
  0
LINE
  5
262
100
AcDbEntity
  8
0
370
    -3
390
0
  6
Continuous
100
AcDbLine
 10
-512.366986
 20
-116.974112
 30
0.0
 11
-494.866986
 21
-116.974112
 31
0.0
  0
LINE
  5
263
100
AcDbEntity
  8
0
370
    -3
390
0
  6
Continuous
100
AcDbLine
 10
-474.366986
 20
-94.324424
 30
0.0
 11
-474.366986
 21
-113.974112
 31
0.0
  0
LINE
  5
264
100
AcDbEntity
  8
0
370
    -3
390
0
  6
Continuous
100
AcDbLine
 10
-515.366986
 20
-94.324424
 30
0.0
 11
-515.366986
 21
-113.974112
 31
0.0
  0
ARC
  5
265
100
AcDbEntity
  8
0
370
    -3
390
0
  6
Continuous
100
AcDbCircle
 10
-503.366986
 20
-121.974112
 30
0.0
 40
5.0
100
AcDbArc
 50
0.0
 51
90.0
  0
ARC
  5
266
100
AcDbEntity
  8
0
370
    -3
390
0
  6
Continuous
100
AcDbCircle
 10
-486.366986
 20
-121.974112
 30
0.0
 40
5.0
100
AcDbArc
 50
90.0
 51
180.0
  0
ARC
  5
267
100
AcDbEntity
  8
0
370
    -3
390
0
  6
Continuous
100
AcDbCircle
 10
-494.866986
 20
-693.974113
 30
0.0
 40
600.0
100
AcDbArc
 50
91.957987
 51
92.924524
  0
ARC
  5
268
100
AcDbEntity
  8
0
370
    -3
390
0
  6
Continuous
100
AcDbCircle
 10
-494.866986
 20
-693.974113
 30
0.0
 40
600.0
100
AcDbArc
 50
87.075476
 51
88.042013
  0
ARC
  5
269
100
AcDbEntity
  8
0
370
    -3
390
0
  6
Continuous
100
AcDbCircle
 10
-477.366986
 20
-113.974112
 30
0.0
 40
3.0
100
AcDbArc
 50
270.0
 51
0.0
  0
ARC
  5
26A
100
AcDbEntity
  8
0
370
    -3
390
0
  6
Continuous
100
AcDbCircle
 10
-512.366986
 20
-113.974112
 30
0.0
 40
3.0
100
AcDbArc
 50
180.0
 51
270.0
  0
ARC
  5
26B
100
AcDbEntity
  8
0
370
    -3
390
0
  6
Continuous
100
AcDbCircle
 10
-385.70325
 20
-141.831192
 30
0.0
 40
5.0
100
AcDbArc
 50
36.720728
 51
135.0
  0
ARC
  5
26C
100
AcDbEntity
  8
0
370
    -3
390
0
  6
Continuous
100
AcDbCircle
 10
-396.962172
 20
-129.048483
 30
0.0
 40
5.0
100
AcDbArc
 50
315.0
 51
46.026024
  0
LINE
  5
26D
100
AcDbEntity
  8
0
370
    -3
390
0
  6
Continuous
100
AcDbLine
 10
-629.866986
 20
-204.612284
 30
0.0
 11
-629.866986
 21
-254.381358
 31
0.0
  0
LINE
  5
26E
100
AcDbEntity
  8
0
370
    -3
390
0
  6
Continuous
100
AcDbLine
 10
-498.366986
 20
-121.974112
 30
0.0
 11
-498.366986
 21
-150.474112
 31
0.0
  0
LINE
  5
26F
100
AcDbEntity
  8
0
370
    -3
390
0
  6
Continuous
100
AcDbLine
 10
-491.366986
 20
-121.974112
 30
0.0
 11
-491.366986
 21
-150.474112
 31
0.0
  0
LINE
  5
270
100
AcDbEntity
  8
0
370
    -3
390
0
  6
CENTER
100
AcDbLine
 10
-494.866986
 20
-238.974112
 30
0.0
 11
-494.866986
 21
-385.108828
 31
0.0
  0
LINE
  5
271
100
AcDbEntity
  8
0
370
    -3
390
0
  6
Continuous
100
AcDbLine
 10
-409.631497
 20
-319.259854
 30
0.0
 11
-393.009029
 21
-335.882322
 31
0.0
  0
LINE
  5
272
100
AcDbEntity
  8
0
370
    -3
390
0
  6
Continuous
100
AcDbLine
 10
-413.639737
 20
-325.151108
 30
0.0
 11
-397.324405
 21
-341.466441
 31
0.0
  0
LINE
  5
273
100
AcDbEntity
  8
0
370
    -3
390
0
  6
Continuous
100
AcDbLine
 10
-562.143693
 20
-311.200567
 30
0.0
 11
-592.409567
 21
-341.466441
 31
0.0
  0
ARC
  5
274
100
AcDbEntity
  8
0
370
    -3
390
0
  6
Continuous
100
AcDbCircle
 10
-469.866986
 20
-204.612284
 30
0.0
 40
110.0
100
AcDbArc
 50
0.0
 51
87.075476
  0
ARC
  5
275
100
AcDbEntity
  8
0
370
    -3
390
0
  6
Continuous
100
AcDbCircle
 10
-406.095963
 20
-315.72432
 30
0.0
 40
5.0
100
AcDbArc
 50
149.498945
 51
225.0
  0
ARC
  5
276
100
AcDbEntity
  8
0
370
    -3
390
0
  6
Continuous
100
AcDbCircle
 10
-417.175271
 20
-328.686642
 30
0.0
 40
5.0
100
AcDbArc
 50
45.0
 51
129.457931
  0
ARC
  5
277
100
AcDbEntity
  8
0
370
    -3
390
0
  6
Continuous
100
AcDbCircle
 10
-558.608159
 20
-314.736101
 30
0.0
 40
5.0
100
AcDbArc
 50
28.402452
 51
135.0
  0
ARC
  5
278
100
AcDbEntity
  8
0
370
    -3
390
0
  6
Continuous
100
AcDbCircle
 10
-590.311642
 20
-360.384546
 30
0.0
 40
8.0
100
AcDbArc
 50
4.494157
 51
54.885533
  0
ARC
  5
279
100
AcDbEntity
  8
0
370
    -3
390
0
  6
Continuous
100
AcDbCircle
 10
-572.366986
 20
-358.974112
 30
0.0
 40
10.0
100
AcDbArc
 50
184.494157
 51
233.130102
  0
LINE
  5
27A
100
AcDbEntity
  8
0
370
    -3
390
0
  6
Continuous
100
AcDbLine
 10
-494.866986
 20
-366.974112
 30
0.0
 11
-578.366986
 21
-366.974112
 31
0.0
  0
LINE
  5
27B
100
AcDbEntity
  8
0
370
    -3
390
0
  6
Continuous
100
AcDbLine
 10
-494.866986
 20
-366.974112
 30
0.0
 11
-411.366986
 21
-366.974112
 31
0.0
  0
ARC
  5
27C
100
AcDbEntity
  8
0
370
    -3
390
0
  6
Continuous
100
AcDbCircle
 10
-417.366986
 20
-358.974112
 30
0.0
 40
10.0
100
AcDbArc
 50
306.869898
 51
355.505843
  0
ARC
  5
27D
100
AcDbEntity
  8
0
370
    -3
390
0
  6
Continuous
100
AcDbCircle
 10
-399.42233
 20
-360.384546
 30
0.0
 40
8.0
100
AcDbArc
 50
125.114467
 51
175.505843
  0
ARC
  5
27E
100
AcDbEntity
  8
0
370
    -3
390
0
  6
Continuous
100
AcDbCircle
 10
-448.315334
 20
-290.854163
 30
0.0
 40
77.0
100
AcDbArc
 50
305.114467
 51
340.0
  0
ARC
  5
27F
100
AcDbEntity
  8
0
370
    -3
390
0
  6
Continuous
100
AcDbCircle
 10
-400.859939
 20
-345.001975
 30
0.0
 40
5.0
100
AcDbArc
 50
311.231476
 51
45.0
  0
ARC
  5
280
100
AcDbEntity
  8
0
370
    -3
390
0
  6
Continuous
100
AcDbCircle
 10
-389.473495
 20
-332.346788
 30
0.0
 40
5.0
100
AcDbArc
 50
225.0
 51
324.810226
  0
LINE
  5
281
100
AcDbEntity
  8
0
370
    -3
390
0
  6
Continuous
100
AcDbLine
 10
-629.188174
 20
-259.547759
 30
0.0
 11
-613.77497
 21
-317.189714
 31
0.0
  0
ARC
  5
282
100
AcDbEntity
  8
0
370
    -3
390
0
  6
Continuous
100
AcDbCircle
 10
-609.866986
 20
-254.381358
 30
0.0
 40
20.0
100
AcDbArc
 50
180.0
 51
194.970401
  0
ARC
  5
283
100
AcDbEntity
  8
0
370
    -3
390
0
  6
Continuous
100
AcDbCircle
 10
-541.418638
 20
-290.854163
 30
0.0
 40
77.0
100
AcDbArc
 50
200.0
 51
234.885533
  0
ARC
  5
284
100
AcDbEntity
  8
0
370
    -3
390
0
  6
Continuous
100
AcDbCircle
 10
-600.260477
 20
-332.346788
 30
0.0
 40
5.0
100
AcDbArc
 50
215.189774
 51
315.0
  0
LINE
  5
285
100
AcDbEntity
  8
0
370
    -3
390
0
  6
Continuous
100
AcDbLine
 10
-616.866986
 20
-255.974112
 30
0.0
 11
-626.236165
 21
-255.974112
 31
0.0
  0
LINE
  5
286
100
AcDbEntity
  8
0
370
    -3
390
0
  6
Continuous
100
AcDbLine
 10
-616.866986
 20
-229.974112
 30
0.0
 11
-626.866986
 21
-229.974112
 31
0.0
  0
ARC
  5
287
100
AcDbEntity
  8
0
370
    -3
390
0
  6
Continuous
100
AcDbCircle
 10
-616.866986
 20
-242.974112
 30
0.0
 40
13.0
100
AcDbArc
 50
270.0
 51
90.0
  0
ARC
  5
288
100
AcDbEntity
  8
0
370
    -3
390
0
  6
Continuous
100
AcDbCircle
 10
-626.866986
 20
-226.974112
 30
0.0
 40
3.0
100
AcDbArc
 50
180.0
 51
270.0
  0
ARC
  5
289
100
AcDbEntity
  8
0
370
    -3
390
0
  6
Continuous
100
AcDbCircle
 10
-626.236165
 20
-258.974112
 30
0.0
 40
3.0
100
AcDbArc
 50
90.0
 51
194.970401
  0
ARC
  5
28A
100
AcDbEntity
  8
0
370
    -3
390
0
  6
Continuous
100
AcDbCircle
 10
-519.866986
 20
-204.612284
 30
0.0
 40
110.0
100
AcDbArc
 50
92.924524
 51
180.0
  0
LINE
  5
28B
100
AcDbEntity
  8
0
370
    -3
390
0
  6
CENTER
100
AcDbLine
 10
-374.30528
 20
-319.535819
 30
0.0
 11
-346.728115
 21
-347.112983
 31
0.0
  0
ARC
  5
28C
100
AcDbEntity
  8
0
370
    -3
390
0
  6
CENTER
100
AcDbCircle
 10
-494.866986
 20
-198.974112
 30
0.0
 40
190.0
100
AcDbArc
 50
309.119042
 51
320.880958
  0
LINE
  5
28D
100
AcDbEntity
  8
0
370
    -3
390
0
  6
CENTER
100
AcDbLine
 10
-615.428692
 20
-319.535819
 30
0.0
 11
-643.005857
 21
-347.112983
 31
0.0
  0
ARC
  5
28E
100
AcDbEntity
  8
0
370
    -3
390
0
  6
CENTER
100
AcDbCircle
 10
-494.866986
 20
-198.974112
 30
0.0
 40
190.0
100
AcDbArc
 50
218.589286
 51
231.759041
  0
LINE
  5
28F
100
AcDbEntity
  8
0
370
    -3
390
0
  6
CENTER
100
AcDbLine
 10
-615.428692
 20
-78.412406
 30
0.0
 11
-643.005857
 21
-50.835242
 31
0.0
  0
ARC
  5
290
100
AcDbEntity
  8
0
370
    -3
390
0
  6
CENTER
100
AcDbCircle
 10
-494.866986
 20
-198.974112
 30
0.0
 40
190.0
100
AcDbArc
 50
129.119042
 51
140.880958
  0
LINE
  5
291
100
AcDbEntity
  8
0
370
    -3
390
0
  6
CENTER
100
AcDbLine
 10
-374.30528
 20
-78.412406
 30
0.0
 11
-346.728115
 21
-50.835242
 31
0.0
  0
ARC
  5
292
100
AcDbEntity
  8
0
370
    -3
390
0
  6
CENTER
100
AcDbCircle
 10
-494.866986
 20
-198.974112
 30
0.0
 40
190.0
100
AcDbArc
 50
38.745637
 51
51.697379
  0
ARC
  5
293
100
AcDbEntity
  8
0
370
    -3
390
0
  6
Continuous
100
AcDbCircle
 10
-494.866986
 20
-238.974112
 30
0.0
 40
76.8
100
AcDbArc
 50
38.737581
 51
51.262419
  0
ARC
  5
294
100
AcDbEntity
  8
0
370
    -3
390
0
  6
Continuous
100
AcDbCircle
 10
-494.866986
 20
64.525888
 30
0.0
 40
374.8
100
AcDbArc
 50
270.0
 51
272.979907
  0
ARC
  5
295
100
AcDbEntity
  8
0
370
    -3
390
0
  6
Continuous
100
AcDbCircle
 10
-798.366986
 20
-238.974112
 30
0.0
 40
374.8
100
AcDbArc
 50
360.0
 51
2.979907
  0
ARC
  5
296
100
AcDbEntity
  8
0
370
    -3
390
0
  6
Continuous
100
AcDbCircle
 10
-798.366986
 20
-238.974112
 30
0.0
 40
374.8
100
AcDbArc
 50
357.020093
 51
0.0
  0
ARC
  5
297
100
AcDbEntity
  8
0
370
    -3
390
0
  6
Continuous
100
AcDbCircle
 10
-473.806442
 20
-255.869482
 30
0.0
 40
49.8
100
AcDbArc
 50
321.262419
 51
357.020093
  0
ARC
  5
298
100
AcDbEntity
  8
0
370
    -3
390
0
  6
Continuous
100
AcDbCircle
 10
-494.866986
 20
-238.974112
 30
0.0
 40
76.8
100
AcDbArc
 50
308.737581
 51
321.262419
  0
ARC
  5
299
100
AcDbEntity
  8
0
370
    -3
390
0
  6
Continuous
100
AcDbCircle
 10
-477.971617
 20
-260.034656
 30
0.0
 40
49.8
100
AcDbArc
 50
272.979907
 51
308.737581
  0
ARC
  5
29A
100
AcDbEntity
  8
0
370
    -3
390
0
  6
Continuous
100
AcDbCircle
 10
-494.866986
 20
64.525888
 30
0.0
 40
374.8
100
AcDbArc
 50
267.020093
 51
270.0
  0
ARC
  5
29B
100
AcDbEntity
  8
0
370
    -3
390
0
  6
Continuous
100
AcDbCircle
 10
-494.866986
 20
-238.974112
 30
0.0
 40
76.8
100
AcDbArc
 50
218.737581
 51
231.262419
  0
ARC
  5
29C
100
AcDbEntity
  8
0
370
    -3
390
0
  6
Continuous
100
AcDbCircle
 10
-511.762355
 20
-260.034656
 30
0.0
 40
49.8
100
AcDbArc
 50
231.262419
 51
267.020093
  0
ARC
  5
29D
100
AcDbEntity
  8
0
370
    -3
390
0
  6
Continuous
100
AcDbCircle
 10
-515.92753
 20
-255.869482
 30
0.0
 40
49.8
100
AcDbArc
 50
182.979907
 51
218.737581
  0
ARC
  5
29E
100
AcDbEntity
  8
0
370
    -3
390
0
  6
Continuous
100
AcDbCircle
 10
-191.366986
 20
-238.974112
 30
0.0
 40
374.8
100
AcDbArc
 50
180.0
 51
182.979907
  0
ARC
  5
29F
100
AcDbEntity
  8
0
370
    -3
390
0
  6
Continuous
100
AcDbCircle
 10
-515.92753
 20
-222.078743
 30
0.0
 40
49.8
100
AcDbArc
 50
141.262419
 51
177.020093
  0
ARC
  5
2A0
100
AcDbEntity
  8
0
370
    -3
390
0
  6
Continuous
100
AcDbCircle
 10
-494.866986
 20
-238.974112
 30
0.0
 40
76.8
100
AcDbArc
 50
128.737581
 51
141.262419
  0
ARC
  5
2A1
100
AcDbEntity
  8
0
370
    -3
390
0
  6
Continuous
100
AcDbCircle
 10
-511.762355
 20
-217.913569
 30
0.0
 40
49.8
100
AcDbArc
 50
92.979907
 51
128.737581
  0
ARC
  5
2A2
100
AcDbEntity
  8
0
370
    -3
390
0
  6
Continuous
100
AcDbCircle
 10
-494.866986
 20
-542.474112
 30
0.0
 40
374.8
100
AcDbArc
 50
90.0
 51
92.979907
  0
ARC
  5
2A3
100
AcDbEntity
  8
0
370
    -3
390
0
  6
Continuous
100
AcDbCircle
 10
-494.866986
 20
-542.474112
 30
0.0
 40
374.8
100
AcDbArc
 50
87.020093
 51
90.0
  0
ARC
  5
2A4
100
AcDbEntity
  8
0
370
    -3
390
0
  6
Continuous
100
AcDbCircle
 10
-477.971617
 20
-217.913569
 30
0.0
 40
49.8
100
AcDbArc
 50
51.262419
 51
87.020093
  0
ARC
  5
2A5
100
AcDbEntity
  8
0
370
    -3
390
0
  6
Continuous
100
AcDbCircle
 10
-473.806442
 20
-222.078743
 30
0.0
 40
49.8
100
AcDbArc
 50
2.979907
 51
38.737581
  0
ARC
  5
2A6
100
AcDbEntity
  8
0
370
    -3
390
0
  6
Continuous
100
AcDbCircle
 10
-494.866986
 20
-238.974112
 30
0.0
 40
92.8
100
AcDbArc
 50
308.737581
 51
321.262419
  0
ARC
  5
2A7
100
AcDbEntity
  8
0
370
    -3
390
0
  6
Continuous
100
AcDbCircle
 10
-477.971617
 20
-260.034656
 30
0.0
 40
65.8
100
AcDbArc
 50
272.979907
 51
308.737581
  0
ARC
  5
2A8
100
AcDbEntity
  8
0
370
    -3
390
0
  6
Continuous
100
AcDbCircle
 10
-494.866986
 20
-238.974112
 30
0.0
 40
92.8
100
AcDbArc
 50
218.737581
 51
231.262419
  0
ARC
  5
2A9
100
AcDbEntity
  8
0
370
    -3
390
0
  6
Continuous
100
AcDbCircle
 10
-511.762355
 20
-260.034656
 30
0.0
 40
65.8
100
AcDbArc
 50
231.262419
 51
267.020093
  0
ARC
  5
2AA
100
AcDbEntity
  8
0
370
    -3
390
0
  6
Continuous
100
AcDbCircle
 10
-515.92753
 20
-255.869482
 30
0.0
 40
65.8
100
AcDbArc
 50
182.979907
 51
218.737581
  0
ARC
  5
2AB
100
AcDbEntity
  8
0
370
    -3
390
0
  6
Continuous
100
AcDbCircle
 10
-494.866986
 20
-238.974112
 30
0.0
 40
92.8
100
AcDbArc
 50
128.737581
 51
141.262419
  0
ARC
  5
2AC
100
AcDbEntity
  8
0
370
    -3
390
0
  6
Continuous
100
AcDbCircle
 10
-515.92753
 20
-222.078743
 30
0.0
 40
65.8
100
AcDbArc
 50
141.262419
 51
177.020093
  0
ARC
  5
2AD
100
AcDbEntity
  8
0
370
    -3
390
0
  6
Continuous
100
AcDbCircle
 10
-511.762355
 20
-217.913569
 30
0.0
 40
65.8
100
AcDbArc
 50
92.979907
 51
128.737581
  0
ARC
  5
2AE
100
AcDbEntity
  8
0
370
    -3
390
0
  6
Continuous
100
AcDbCircle
 10
-494.866986
 20
-238.974112
 30
0.0
 40
92.8
100
AcDbArc
 50
38.737581
 51
51.262419
  0
ARC
  5
2AF
100
AcDbEntity
  8
0
370
    -3
390
0
  6
Continuous
100
AcDbCircle
 10
-477.971617
 20
-217.913569
 30
0.0
 40
65.8
100
AcDbArc
 50
51.262419
 51
87.020093
  0
ARC
  5
2B0
100
AcDbEntity
  8
0
370
    -3
390
0
  6
Continuous
100
AcDbCircle
 10
-473.806442
 20
-222.078743
 30
0.0
 40
65.8
100
AcDbArc
 50
2.979907
 51
38.737581
  0
ARC
  5
2B1
100
AcDbEntity
  8
0
370
    -3
390
0
  6
Continuous
100
AcDbCircle
 10
-798.366986
 20
-238.974112
 30
0.0
 40
390.8
100
AcDbArc
 50
357.020093
 51
2.979907
  0
ARC
  5
2B2
100
AcDbEntity
  8
0
370
    -3
390
0
  6
Continuous
100
AcDbCircle
 10
-473.806442
 20
-255.869482
 30
0.0
 40
65.8
100
AcDbArc
 50
321.262419
 51
357.020093
  0
CIRCLE
  5
2B3
100
AcDbEntity
  8
0
370
    -3
390
0
  6
Continuous
100
AcDbCircle
 10
-494.866986
 20
-238.974112
 30
0.0
 40
5.0
  0
LINE
  5
2B4
100
AcDbEntity
  8
0
370
    -3
390
0
  6
Continuous
100
AcDbLine
 10
-486.919764
 20
-230.92168
 30
0.0
 11
-483.66118
 21
-229.040336
 31
0.0
  0
LINE
  5
2B5
100
AcDbEntity
  8
0
370
    -3
390
0
  6
Continuous
100
AcDbLine
 10
-490.866986
 20
-228.581808
 30
0.0
 11
-490.866986
 21
-224.682507
 31
0.0
  0
LINE
  5
2B6
100
AcDbEntity
  8
0
370
    -3
390
0
  6
Continuous
100
AcDbLine
 10
-498.866986
 20
-228.581808
 30
0.0
 11
-498.866986
 21
-224.682507
 31
0.0
  0
LINE
  5
2B7
100
AcDbEntity
  8
0
370
    -3
390
0
  6
Continuous
100
AcDbLine
 10
-483.919764
 20
-236.117833
 30
0.0
 11
-480.66118
 21
-234.236488
 31
0.0
  0
ARC
  5
2B8
100
AcDbEntity
  8
0
370
    -3
390
0
  6
Continuous
100
AcDbCircle
 10
-494.866986
 20
-238.974112
 30
0.0
 40
65.0
100
AcDbArc
 50
335.465024
 51
25.447929
  0
ARC
  5
2B9
100
AcDbEntity
  8
0
370
    -3
390
0
  6
Continuous
100
AcDbCircle
 10
-442.979487
 20
-203.243348
 30
0.0
 40
2.0
100
AcDbArc
 50
300.0
 51
34.552071
  0
ARC
  5
2BA
100
AcDbEntity
  8
0
370
    -3
390
0
  6
Continuous
100
AcDbCircle
 10
-488.866986
 20
-176.260478
 30
0.0
 40
2.0
100
AcDbArc
 50
84.534976
 51
180.0
  0
ARC
  5
2BB
100
AcDbEntity
  8
0
370
    -3
390
0
  6
Continuous
100
AcDbCircle
 10
-500.866986
 20
-176.260478
 30
0.0
 40
2.0
100
AcDbArc
 50
0.0
 51
95.465024
  0
ARC
  5
2BC
100
AcDbEntity
  8
0
370
    -3
390
0
  6
Continuous
100
AcDbCircle
 10
-437.979487
 20
-211.903603
 30
0.0
 40
2.0
100
AcDbArc
 50
25.447929
 51
120.0
  0
LINE
  5
2BD
100
AcDbEntity
  8
0
370
    -3
390
0
  6
Continuous
100
AcDbLine
 10
-502.814208
 20
-230.92168
 30
0.0
 11
-506.072792
 21
-229.040336
 31
0.0
  0
ARC
  5
2BE
100
AcDbEntity
  8
0
370
    -3
390
0
  6
Continuous
100
AcDbCircle
 10
-546.754484
 20
-203.243348
 30
0.0
 40
2.0
100
AcDbArc
 50
145.447929
 51
240.0
  0
ARC
  5
2BF
100
AcDbEntity
  8
0
370
    -3
390
0
  6
Continuous
100
AcDbCircle
 10
-494.866986
 20
-238.974112
 30
0.0
 40
65.0
100
AcDbArc
 50
95.465024
 51
145.447929
  0
LINE
  5
2C0
100
AcDbEntity
  8
0
370
    -3
390
0
  6
Continuous
100
AcDbLine
 10
-498.866986
 20
-177.265118
 30
0.0
 11
-498.866986
 21
-176.260478
 31
0.0
  0
LINE
  5
2C1
100
AcDbEntity
  8
0
370
    -3
390
0
  6
Continuous
100
AcDbLine
 10
-498.866986
 20
-189.839094
 30
0.0
 11
-498.866986
 21
-186.31483
 31
0.0
  0
LINE
  5
2C2
100
AcDbEntity
  8
0
370
    -3
390
0
  6
Continuous
100
AcDbLine
 10
-498.866986
 20
-202.46384
 30
0.0
 11
-498.866986
 21
-198.921023
 31
0.0
  0
LINE
  5
2C3
100
AcDbEntity
  8
0
370
    -3
390
0
  6
Continuous
100
AcDbLine
 10
-498.866986
 20
-215.220165
 30
0.0
 11
-498.866986
 21
-211.624524
 31
0.0
  0
LINE
  5
2C4
100
AcDbEntity
  8
0
370
    -3
390
0
  6
Continuous
100
AcDbLine
 10
-490.866986
 20
-177.265118
 30
0.0
 11
-490.866986
 21
-176.260478
 31
0.0
  0
LINE
  5
2C5
100
AcDbEntity
  8
0
370
    -3
390
0
  6
Continuous
100
AcDbLine
 10
-490.866986
 20
-189.839094
 30
0.0
 11
-490.866986
 21
-186.31483
 31
0.0
  0
LINE
  5
2C6
100
AcDbEntity
  8
0
370
    -3
390
0
  6
Continuous
100
AcDbLine
 10
-490.866986
 20
-202.46384
 30
0.0
 11
-490.866986
 21
-198.921023
 31
0.0
  0
LINE
  5
2C7
100
AcDbEntity
  8
0
370
    -3
390
0
  6
Continuous
100
AcDbLine
 10
-490.866986
 20
-215.220165
 30
0.0
 11
-490.866986
 21
-211.624524
 31
0.0
  0
LINE
  5
2C8
100
AcDbEntity
  8
0
370
    -3
390
0
  6
Continuous
100
AcDbLine
 10
-546.885674
 20
-205.477007
 30
0.0
 11
-547.754484
 21
-204.975399
 31
0.0
  0
LINE
  5
2C9
100
AcDbEntity
  8
0
370
    -3
390
0
  6
Continuous
100
AcDbLine
 10
-536.015989
 20
-211.752623
 30
0.0
 11
-539.061625
 21
-209.994224
 31
0.0
  0
LINE
  5
2CA
100
AcDbEntity
  8
0
370
    -3
390
0
  6
Continuous
100
AcDbLine
 10
-525.116002
 20
-218.045733
 30
0.0
 11
-528.172697
 21
-216.28095
 31
0.0
  0
LINE
  5
2CB
100
AcDbEntity
  8
0
370
    -3
390
0
  6
Continuous
100
AcDbLine
 10
-514.13806
 20
-224.383851
 30
0.0
 11
-517.225946
 21
-222.601059
 31
0.0
  0
LINE
  5
2CC
100
AcDbEntity
  8
0
370
    -3
390
0
  6
Continuous
100
AcDbLine
 10
-442.848298
 20
-205.477007
 30
0.0
 11
-441.979487
 21
-204.975399
 31
0.0
  0
LINE
  5
2CD
100
AcDbEntity
  8
0
370
    -3
390
0
  6
Continuous
100
AcDbLine
 10
-453.717982
 20
-211.752623
 30
0.0
 11
-450.672347
 21
-209.994224
 31
0.0
  0
LINE
  5
2CE
100
AcDbEntity
  8
0
370
    -3
390
0
  6
Continuous
100
AcDbLine
 10
-464.61797
 20
-218.045733
 30
0.0
 11
-461.561275
 21
-216.28095
 31
0.0
  0
LINE
  5
2CF
100
AcDbEntity
  8
0
370
    -3
390
0
  6
Continuous
100
AcDbLine
 10
-475.595912
 20
-224.383851
 30
0.0
 11
-472.508025
 21
-222.601059
 31
0.0
  0
LINE
  5
2D0
100
AcDbEntity
  8
0
370
    -3
390
0
  6
Continuous
100
AcDbLine
 10
-439.848298
 20
-210.67316
 30
0.0
 11
-438.979487
 21
-210.171552
 31
0.0
  0
LINE
  5
2D1
100
AcDbEntity
  8
0
370
    -3
390
0
  6
Continuous
100
AcDbLine
 10
-450.717982
 20
-216.948775
 30
0.0
 11
-447.672347
 21
-215.190377
 31
0.0
  0
LINE
  5
2D2
100
AcDbEntity
  8
0
370
    -3
390
0
  6
Continuous
100
AcDbLine
 10
-461.61797
 20
-223.241886
 30
0.0
 11
-458.561275
 21
-221.477102
 31
0.0
  0
LINE
  5
2D3
100
AcDbEntity
  8
0
370
    -3
390
0
  6
Continuous
100
AcDbLine
 10
-472.595912
 20
-229.580004
 30
0.0
 11
-469.508025
 21
-227.797211
 31
0.0
  0
ARC
  5
2D4
100
AcDbEntity
  8
0
370
    -3
390
0
  6
Continuous
100
AcDbCircle
 10
-494.866986
 20
-238.974112
 30
0.0
 40
65.0
100
AcDbArc
 50
34.552071
 51
84.534976
  0
ARC
  5
2D5
100
AcDbEntity
  8
0
370
    -3
390
0
  6
Continuous
100
AcDbCircle
 10
-494.866986
 20
-238.974112
 30
0.0
 40
65.0
100
AcDbArc
 50
154.552071
 51
204.534976
  0
LINE
  5
2D6
100
AcDbEntity
  8
0
370
    -3
390
0
  6
Continuous
100
AcDbLine
 10
-549.885674
 20
-210.67316
 30
0.0
 11
-550.754484
 21
-210.171552
 31
0.0
  0
ARC
  5
2D7
100
AcDbEntity
  8
0
370
    -3
390
0
  6
Continuous
100
AcDbCircle
 10
-551.754484
 20
-211.903603
 30
0.0
 40
2.0
100
AcDbArc
 50
60.0
 51
154.552071
  0
LINE
  5
2D8
100
AcDbEntity
  8
0
370
    -3
390
0
  6
Continuous
100
AcDbLine
 10
-550.308543
 20
-266.364508
 30
0.0
 11
-551.178587
 21
-266.866828
 31
0.0
  0
ARC
  5
2D9
100
AcDbEntity
  8
0
370
    -3
390
0
  6
Continuous
100
AcDbCircle
 10
-552.178587
 20
-265.134777
 30
0.0
 40
2.0
100
AcDbArc
 50
204.534976
 51
300.0
  0
LINE
  5
2DA
100
AcDbEntity
  8
0
370
    -3
390
0
  6
Continuous
100
AcDbLine
 10
-539.41916
 20
-260.07752
 30
0.0
 11
-542.471262
 21
-261.839652
 31
0.0
  0
LINE
  5
2DB
100
AcDbEntity
  8
0
370
    -3
390
0
  6
Continuous
100
AcDbLine
 10
-539.015989
 20
-216.948775
 30
0.0
 11
-542.061625
 21
-215.190377
 31
0.0
  0
LINE
  5
2DC
100
AcDbEntity
  8
0
370
    -3
390
0
  6
Continuous
100
AcDbLine
 10
-528.116002
 20
-223.241886
 30
0.0
 11
-531.172697
 21
-221.477102
 31
0.0
  0
LINE
  5
2DD
100
AcDbEntity
  8
0
370
    -3
390
0
  6
Continuous
100
AcDbLine
 10
-505.814208
 20
-236.117833
 30
0.0
 11
-509.072792
 21
-234.236488
 31
0.0
  0
LINE
  5
2DE
100
AcDbEntity
  8
0
370
    -3
390
0
  6
Continuous
100
AcDbLine
 10
-505.866986
 20
-240.706163
 30
0.0
 11
-509.24388
 21
-242.655814
 31
0.0
  0
LINE
  5
2DF
100
AcDbEntity
  8
0
370
    -3
390
0
  6
Continuous
100
AcDbLine
 10
-517.438507
 20
-247.386984
 30
0.0
 11
-520.552424
 21
-249.184805
 31
0.0
  0
LINE
  5
2E0
100
AcDbEntity
  8
0
370
    -3
390
0
  6
Continuous
100
AcDbLine
 10
-528.485809
 20
-253.765147
 30
0.0
 11
-531.553979
 21
-255.536556
 31
0.0
  0
LINE
  5
2E1
100
AcDbEntity
  8
0
370
    -3
390
0
  6
Continuous
100
AcDbLine
 10
-517.13806
 20
-229.580004
 30
0.0
 11
-520.225946
 21
-227.797211
 31
0.0
  0
ARC
  5
2E2
100
AcDbEntity
  8
0
370
    -3
390
0
  6
Continuous
100
AcDbCircle
 10
-494.866986
 20
-238.974112
 30
0.0
 40
65.0
100
AcDbArc
 50
215.465024
 51
265.447929
  0
LINE
  5
2E3
100
AcDbEntity
  8
0
370
    -3
390
0
  6
Continuous
100
AcDbLine
 10
-497.866986
 20
-249.882825
 30
0.0
 11
-497.866986
 21
-253.645513
 31
0.0
  0
LINE
  5
2E4
100
AcDbEntity
  8
0
370
    -3
390
0
  6
Continuous
100
AcDbLine
 10
-501.866986
 20
-247.634366
 30
0.0
 11
-505.24388
 21
-249.584017
 31
0.0
  0
LINE
  5
2E5
100
AcDbEntity
  8
0
370
    -3
390
0
  6
Continuous
100
AcDbLine
 10
-524.485809
 20
-260.69335
 30
0.0
 11
-527.553979
 21
-262.464759
 31
0.0
  0
LINE
  5
2E6
100
AcDbEntity
  8
0
370
    -3
390
0
  6
Continuous
100
AcDbLine
 10
-535.41916
 20
-267.005723
 30
0.0
 11
-538.471262
 21
-268.767855
 31
0.0
  0
LINE
  5
2E7
100
AcDbEntity
  8
0
370
    -3
390
0
  6
Continuous
100
AcDbLine
 10
-546.308543
 20
-273.292711
 30
0.0
 11
-547.178587
 21
-273.795031
 31
0.0
  0
LINE
  5
2E8
100
AcDbEntity
  8
0
370
    -3
390
0
  6
Continuous
100
AcDbLine
 10
-497.866986
 20
-300.772171
 30
0.0
 11
-497.866986
 21
-301.775386
 31
0.0
  0
ARC
  5
2E9
100
AcDbEntity
  8
0
370
    -3
390
0
  6
Continuous
100
AcDbCircle
 10
-499.866986
 20
-301.775386
 30
0.0
 40
2.0
100
AcDbArc
 50
265.447929
 51
0.0
  0
LINE
  5
2EA
100
AcDbEntity
  8
0
370
    -3
390
0
  6
Continuous
100
AcDbLine
 10
-497.866986
 20
-288.22094
 30
0.0
 11
-497.866986
 21
-291.737736
 31
0.0
  0
LINE
  5
2EB
100
AcDbEntity
  8
0
370
    -3
390
0
  6
Continuous
100
AcDbLine
 10
-497.866986
 20
-275.634718
 30
0.0
 11
-497.866986
 21
-279.164285
 31
0.0
  0
LINE
  5
2EC
100
AcDbEntity
  8
0
370
    -3
390
0
  6
Continuous
100
AcDbLine
 10
-497.866986
 20
-262.958482
 30
0.0
 11
-497.866986
 21
-266.524067
 31
0.0
  0
ARC
  5
2ED
100
AcDbEntity
  8
0
370
    -3
390
0
  6
Continuous
100
AcDbCircle
 10
-494.866986
 20
-238.974112
 30
0.0
 40
65.0
100
AcDbArc
 50
274.552071
 51
324.534976
  0
LINE
  5
2EE
100
AcDbEntity
  8
0
370
    -3
390
0
  6
Continuous
100
AcDbLine
 10
-491.866986
 20
-300.772171
 30
0.0
 11
-491.866986
 21
-301.775386
 31
0.0
  0
ARC
  5
2EF
100
AcDbEntity
  8
0
370
    -3
390
0
  6
Continuous
100
AcDbCircle
 10
-489.866986
 20
-301.775386
 30
0.0
 40
2.0
100
AcDbArc
 50
180.0
 51
274.552071
  0
LINE
  5
2F0
100
AcDbEntity
  8
0
370
    -3
390
0
  6
Continuous
100
AcDbLine
 10
-491.866986
 20
-288.22094
 30
0.0
 11
-491.866986
 21
-291.737736
 31
0.0
  0
LINE
  5
2F1
100
AcDbEntity
  8
0
370
    -3
390
0
  6
Continuous
100
AcDbLine
 10
-491.866986
 20
-275.634718
 30
0.0
 11
-491.866986
 21
-279.164285
 31
0.0
  0
LINE
  5
2F2
100
AcDbEntity
  8
0
370
    -3
390
0
  6
Continuous
100
AcDbLine
 10
-491.866986
 20
-262.958482
 30
0.0
 11
-491.866986
 21
-266.524067
 31
0.0
  0
LINE
  5
2F3
100
AcDbEntity
  8
0
370
    -3
390
0
  6
Continuous
100
AcDbLine
 10
-491.866986
 20
-249.882825
 30
0.0
 11
-491.866986
 21
-253.645513
 31
0.0
  0
ARC
  5
2F4
100
AcDbEntity
  8
0
370
    -3
390
0
  6
Continuous
100
AcDbCircle
 10
-191.366986
 20
-238.974112
 30
0.0
 40
374.8
100
AcDbArc
 50
177.020093
 51
180.0
  0
ARC
  5
2F5
100
AcDbEntity
  8
0
370
    -3
390
0
  6
Continuous
100
AcDbCircle
 10
-494.866986
 20
-542.474112
 30
0.0
 40
390.8
100
AcDbArc
 50
87.020093
 51
92.979907
  0
ARC
  5
2F6
100
AcDbEntity
  8
0
370
    -3
390
0
  6
Continuous
100
AcDbCircle
 10
-191.366986
 20
-238.974112
 30
0.0
 40
390.8
100
AcDbArc
 50
177.020093
 51
182.979907
  0
ARC
  5
2F7
100
AcDbEntity
  8
0
370
    -3
390
0
  6
Continuous
100
AcDbCircle
 10
-494.866986
 20
64.525888
 30
0.0
 40
390.8
100
AcDbArc
 50
267.020093
 51
272.979907
  0
ARC
  5
2F8
100
AcDbEntity
  8
0
370
    -3
390
0
  6
Continuous
100
AcDbCircle
 10
-494.866986
 20
-238.974112
 30
0.0
 40
60.0
100
AcDbArc
 50
95.553444
 51
145.374349
  0
ARC
  5
2F9
100
AcDbEntity
  8
0
370
    -3
390
0
  6
Continuous
100
AcDbCircle
 10
-494.866986
 20
-238.974112
 30
0.0
 40
60.0
100
AcDbArc
 50
154.625651
 51
204.446556
  0
ARC
  5
2FA
100
AcDbEntity
  8
0
370
    -3
390
0
  6
Continuous
100
AcDbCircle
 10
-494.866986
 20
-238.974112
 30
0.0
 40
60.0
100
AcDbArc
 50
215.553444
 51
265.374349
  0
ARC
  5
2FB
100
AcDbEntity
  8
0
370
    -3
390
0
  6
Continuous
100
AcDbCircle
 10
-494.866986
 20
-238.974112
 30
0.0
 40
60.0
100
AcDbArc
 50
274.625651
 51
324.446556
  0
ARC
  5
2FC
100
AcDbEntity
  8
0
370
    -3
390
0
  6
Continuous
100
AcDbCircle
 10
-494.866986
 20
-238.974112
 30
0.0
 40
60.0
100
AcDbArc
 50
335.553444
 51
25.374349
  0
ARC
  5
2FD
100
AcDbEntity
  8
0
370
    -3
390
0
  6
Continuous
100
AcDbCircle
 10
-494.866986
 20
-238.974112
 30
0.0
 40
60.0
100
AcDbArc
 50
34.625651
 51
84.446556
  0
ARC
  5
2FE
100
AcDbEntity
  8
0
370
    -3
390
0
  6
Continuous
100
AcDbCircle
 10
-488.866986
 20
-177.265118
 30
0.0
 40
2.0
100
AcDbArc
 50
180.0
 51
264.446556
  0
ARC
  5
2FF
100
AcDbEntity
  8
0
370
    -3
390
0
  6
Continuous
100
AcDbCircle
 10
-443.848298
 20
-203.744956
 30
0.0
 40
2.0
100
AcDbArc
 50
214.625651
 51
300.0
  0
ARC
  5
300
100
AcDbEntity
  8
0
370
    -3
390
0
  6
Continuous
100
AcDbCircle
 10
-438.848298
 20
-212.40521
 30
0.0
 40
2.0
100
AcDbArc
 50
120.0
 51
205.374349
  0
ARC
  5
301
100
AcDbEntity
  8
0
370
    -3
390
0
  6
Continuous
100
AcDbCircle
 10
-489.866986
 20
-300.772171
 30
0.0
 40
2.0
100
AcDbArc
 50
94.625651
 51
180.0
  0
ARC
  5
302
100
AcDbEntity
  8
0
370
    -3
390
0
  6
Continuous
100
AcDbCircle
 10
-499.866986
 20
-300.772171
 30
0.0
 40
2.0
100
AcDbArc
 50
0.0
 51
85.374349
  0
ARC
  5
303
100
AcDbEntity
  8
0
370
    -3
390
0
  6
Continuous
100
AcDbCircle
 10
-545.308543
 20
-275.024762
 30
0.0
 40
2.0
100
AcDbArc
 50
35.553444
 51
120.0
  0
ARC
  5
304
100
AcDbEntity
  8
0
370
    -3
390
0
  6
Continuous
100
AcDbCircle
 10
-551.308543
 20
-264.632457
 30
0.0
 40
2.0
100
AcDbArc
 50
300.0
 51
24.446556
  0
ARC
  5
305
100
AcDbEntity
  8
0
370
    -3
390
0
  6
Continuous
100
AcDbCircle
 10
-550.885674
 20
-212.40521
 30
0.0
 40
2.0
100
AcDbArc
 50
334.625651
 51
60.0
  0
ARC
  5
306
100
AcDbEntity
  8
0
370
    -3
390
0
  6
Continuous
100
AcDbCircle
 10
-545.885674
 20
-203.744956
 30
0.0
 40
2.0
100
AcDbArc
 50
240.0
 51
325.374349
  0
ARC
  5
307
100
AcDbEntity
  8
0
370
    -3
390
0
  6
Continuous
100
AcDbCircle
 10
-500.866986
 20
-177.265118
 30
0.0
 40
2.0
100
AcDbArc
 50
275.553444
 51
0.0
  0
ARC
  5
308
100
AcDbEntity
  8
0
370
    -3
390
0
  6
Continuous
100
AcDbCircle
 10
-494.866986
 20
-238.974112
 30
0.0
 40
55.0
100
AcDbArc
 50
96.50025
 51
144.586688
  0
ARC
  5
309
100
AcDbEntity
  8
0
370
    -3
390
0
  6
Continuous
100
AcDbCircle
 10
-494.866986
 20
-238.974112
 30
0.0
 40
47.5
100
AcDbArc
 50
96.962063
 51
144.20266
  0
ARC
  5
30A
100
AcDbEntity
  8
0
370
    -3
390
0
  6
Continuous
100
AcDbCircle
 10
-494.866986
 20
-238.974112
 30
0.0
 40
42.5
100
AcDbArc
 50
98.519624
 51
142.908354
  0
ARC
  5
30B
100
AcDbEntity
  8
0
370
    -3
390
0
  6
Continuous
100
AcDbCircle
 10
-494.866986
 20
-238.974112
 30
0.0
 40
35.0
100
AcDbArc
 50
99.332418
 51
142.233566
  0
ARC
  5
30C
100
AcDbEntity
  8
0
370
    -3
390
0
  6
Continuous
100
AcDbCircle
 10
-494.866986
 20
-238.974112
 30
0.0
 40
30.0
100
AcDbArc
 50
102.373625
 51
139.713439
  0
ARC
  5
30D
100
AcDbEntity
  8
0
370
    -3
390
0
  6
Continuous
100
AcDbCircle
 10
-494.866986
 20
-238.974112
 30
0.0
 40
22.5
100
AcDbArc
 50
104.175804
 51
138.224256
  0
ARC
  5
30E
100
AcDbEntity
  8
0
370
    -3
390
0
  6
Continuous
100
AcDbCircle
 10
-494.866986
 20
-238.974112
 30
0.0
 40
17.5
100
AcDbArc
 50
112.773972
 51
131.180937
  0
ARC
  5
30F
100
AcDbEntity
  8
0
370
    -3
390
0
  6
Continuous
100
AcDbCircle
 10
-494.866986
 20
-238.974112
 30
0.0
 40
10.0
100
AcDbArc
 50
120.0
 51
125.375682
  0
ARC
  5
310
100
AcDbEntity
  8
0
370
    -3
390
0
  6
Continuous
100
AcDbCircle
 10
-494.866986
 20
-238.974112
 30
0.0
 40
55.0
100
AcDbArc
 50
35.413312
 51
83.49975
  0
ARC
  5
311
100
AcDbEntity
  8
0
370
    -3
390
0
  6
Continuous
100
AcDbCircle
 10
-494.866986
 20
-238.974112
 30
0.0
 40
47.5
100
AcDbArc
 50
35.79734
 51
83.037937
  0
ARC
  5
312
100
AcDbEntity
  8
0
370
    -3
390
0
  6
Continuous
100
AcDbCircle
 10
-494.866986
 20
-238.974112
 30
0.0
 40
42.5
100
AcDbArc
 50
37.091646
 51
81.480376
  0
ARC
  5
313
100
AcDbEntity
  8
0
370
    -3
390
0
  6
Continuous
100
AcDbCircle
 10
-494.866986
 20
-238.974112
 30
0.0
 40
35.0
100
AcDbArc
 50
37.766434
 51
80.667582
  0
ARC
  5
314
100
AcDbEntity
  8
0
370
    -3
390
0
  6
Continuous
100
AcDbCircle
 10
-494.866986
 20
-238.974112
 30
0.0
 40
30.0
100
AcDbArc
 50
40.286561
 51
77.626375
  0
ARC
  5
315
100
AcDbEntity
  8
0
370
    -3
390
0
  6
Continuous
100
AcDbCircle
 10
-494.866986
 20
-238.974112
 30
0.0
 40
22.5
100
AcDbArc
 50
41.775744
 51
75.824196
  0
ARC
  5
316
100
AcDbEntity
  8
0
370
    -3
390
0
  6
Continuous
100
AcDbCircle
 10
-494.866986
 20
-238.974112
 30
0.0
 40
17.5
100
AcDbArc
 50
48.819063
 51
67.226028
  0
ARC
  5
317
100
AcDbEntity
  8
0
370
    -3
390
0
  6
Continuous
100
AcDbCircle
 10
-488.866986
 20
-186.31483
 30
0.0
 40
2.0
100
AcDbArc
 50
83.49975
 51
180.0
  0
ARC
  5
318
100
AcDbEntity
  8
0
370
    -3
390
0
  6
Continuous
100
AcDbCircle
 10
-488.866986
 20
-189.839094
 30
0.0
 40
2.0
100
AcDbArc
 50
180.0
 51
263.037937
  0
ARC
  5
319
100
AcDbEntity
  8
0
370
    -3
390
0
  6
Continuous
100
AcDbCircle
 10
-451.672347
 20
-208.262174
 30
0.0
 40
2.0
100
AcDbArc
 50
300.0
 51
35.413312
  0
ARC
  5
31A
100
AcDbEntity
  8
0
370
    -3
390
0
  6
Continuous
100
AcDbCircle
 10
-454.717982
 20
-210.020572
 30
0.0
 40
2.0
100
AcDbArc
 50
215.79734
 51
300.0
  0
ARC
  5
31B
100
AcDbEntity
  8
0
370
    -3
390
0
  6
Continuous
100
AcDbCircle
 10
-462.561275
 20
-214.548899
 30
0.0
 40
2.0
100
AcDbArc
 50
300.0
 51
37.091646
  0
ARC
  5
31C
100
AcDbEntity
  8
0
370
    -3
390
0
  6
Continuous
100
AcDbCircle
 10
-488.866986
 20
-198.921023
 30
0.0
 40
2.0
100
AcDbArc
 50
81.480376
 51
180.0
  0
ARC
  5
31D
100
AcDbEntity
  8
0
370
    -3
390
0
  6
Continuous
100
AcDbCircle
 10
-488.866986
 20
-202.46384
 30
0.0
 40
2.0
100
AcDbArc
 50
180.0
 51
260.667582
  0
ARC
  5
31E
100
AcDbEntity
  8
0
370
    -3
390
0
  6
Continuous
100
AcDbCircle
 10
-465.61797
 20
-216.313683
 30
0.0
 40
2.0
100
AcDbArc
 50
217.766434
 51
300.0
  0
ARC
  5
31F
100
AcDbEntity
  8
0
370
    -3
390
0
  6
Continuous
100
AcDbCircle
 10
-473.508025
 20
-220.869008
 30
0.0
 40
2.0
100
AcDbArc
 50
300.0
 51
40.286561
  0
ARC
  5
320
100
AcDbEntity
  8
0
370
    -3
390
0
  6
Continuous
100
AcDbCircle
 10
-488.866986
 20
-211.624524
 30
0.0
 40
2.0
100
AcDbArc
 50
77.626375
 51
180.0
  0
ARC
  5
321
100
AcDbEntity
  8
0
370
    -3
390
0
  6
Continuous
100
AcDbCircle
 10
-488.866986
 20
-215.220165
 30
0.0
 40
2.0
100
AcDbArc
 50
180.0
 51
255.824196
  0
ARC
  5
322
100
AcDbEntity
  8
0
370
    -3
390
0
  6
Continuous
100
AcDbCircle
 10
-476.595912
 20
-222.6518
 30
0.0
 40
2.0
100
AcDbArc
 50
221.775744
 51
300.0
  0
ARC
  5
323
100
AcDbEntity
  8
0
370
    -3
390
0
  6
Continuous
100
AcDbCircle
 10
-484.66118
 20
-227.308285
 30
0.0
 40
2.0
100
AcDbArc
 50
300.0
 51
48.819063
  0
ARC
  5
324
100
AcDbEntity
  8
0
370
    -3
390
0
  6
Continuous
100
AcDbCircle
 10
-488.866986
 20
-224.682507
 30
0.0
 40
2.0
100
AcDbArc
 50
67.226028
 51
180.0
  0
ARC
  5
325
100
AcDbEntity
  8
0
370
    -3
390
0
  6
Continuous
100
AcDbCircle
 10
-494.866986
 20
-238.974112
 30
0.0
 40
10.0
100
AcDbArc
 50
294.624318
 51
300.0
  0
ARC
  5
326
100
AcDbEntity
  8
0
370
    -3
390
0
  6
Continuous
100
AcDbCircle
 10
-494.866986
 20
-238.974112
 30
0.0
 40
10.0
100
AcDbArc
 50
54.624318
 51
60.0
  0
ARC
  5
327
100
AcDbEntity
  8
0
370
    -3
390
0
  6
Continuous
100
AcDbCircle
 10
-488.866986
 20
-228.581808
 30
0.0
 40
2.0
100
AcDbArc
 50
180.0
 51
240.0
  0
ARC
  5
328
100
AcDbEntity
  8
0
370
    -3
390
0
  6
Continuous
100
AcDbCircle
 10
-487.919764
 20
-229.189629
 30
0.0
 40
2.0
100
AcDbArc
 50
234.624318
 51
300.0
  0
ARC
  5
329
100
AcDbEntity
  8
0
370
    -3
390
0
  6
Continuous
100
AcDbCircle
 10
-494.866986
 20
-238.974112
 30
0.0
 40
55.0
100
AcDbArc
 50
336.50025
 51
24.586688
  0
ARC
  5
32A
100
AcDbEntity
  8
0
370
    -3
390
0
  6
Continuous
100
AcDbCircle
 10
-494.866986
 20
-238.974112
 30
0.0
 40
47.5
100
AcDbArc
 50
336.962063
 51
24.20266
  0
ARC
  5
32B
100
AcDbEntity
  8
0
370
    -3
390
0
  6
Continuous
100
AcDbCircle
 10
-494.866986
 20
-238.974112
 30
0.0
 40
42.5
100
AcDbArc
 50
338.519624
 51
22.908354
  0
ARC
  5
32C
100
AcDbEntity
  8
0
370
    -3
390
0
  6
Continuous
100
AcDbCircle
 10
-494.866986
 20
-238.974112
 30
0.0
 40
35.0
100
AcDbArc
 50
339.332418
 51
22.233566
  0
ARC
  5
32D
100
AcDbEntity
  8
0
370
    -3
390
0
  6
Continuous
100
AcDbCircle
 10
-494.866986
 20
-238.974112
 30
0.0
 40
30.0
100
AcDbArc
 50
342.373625
 51
19.713439
  0
ARC
  5
32E
100
AcDbEntity
  8
0
370
    -3
390
0
  6
Continuous
100
AcDbCircle
 10
-494.866986
 20
-238.974112
 30
0.0
 40
22.5
100
AcDbArc
 50
344.175804
 51
18.224256
  0
ARC
  5
32F
100
AcDbEntity
  8
0
370
    -3
390
0
  6
Continuous
100
AcDbCircle
 10
-494.866986
 20
-238.974112
 30
0.0
 40
17.5
100
AcDbArc
 50
352.773972
 51
11.180937
  0
ARC
  5
330
100
AcDbEntity
  8
0
370
    -3
390
0
  6
Continuous
100
AcDbCircle
 10
-494.866986
 20
-238.974112
 30
0.0
 40
10.0
100
AcDbArc
 50
0.0
 51
5.375682
  0
ARC
  5
331
100
AcDbEntity
  8
0
370
    -3
390
0
  6
Continuous
100
AcDbCircle
 10
-494.866986
 20
-238.974112
 30
0.0
 40
17.5
100
AcDbArc
 50
288.819063
 51
307.226028
  0
ARC
  5
332
100
AcDbEntity
  8
0
370
    -3
390
0
  6
Continuous
100
AcDbCircle
 10
-494.866986
 20
-238.974112
 30
0.0
 40
22.5
100
AcDbArc
 50
281.775744
 51
315.824196
  0
ARC
  5
333
100
AcDbEntity
  8
0
370
    -3
390
0
  6
Continuous
100
AcDbCircle
 10
-494.866986
 20
-238.974112
 30
0.0
 40
30.0
100
AcDbArc
 50
280.286561
 51
317.626375
  0
ARC
  5
334
100
AcDbEntity
  8
0
370
    -3
390
0
  6
Continuous
100
AcDbCircle
 10
-494.866986
 20
-238.974112
 30
0.0
 40
35.0
100
AcDbArc
 50
277.766434
 51
320.667582
  0
ARC
  5
335
100
AcDbEntity
  8
0
370
    -3
390
0
  6
Continuous
100
AcDbCircle
 10
-494.866986
 20
-238.974112
 30
0.0
 40
42.5
100
AcDbArc
 50
277.091646
 51
321.480376
  0
ARC
  5
336
100
AcDbEntity
  8
0
370
    -3
390
0
  6
Continuous
100
AcDbCircle
 10
-494.866986
 20
-238.974112
 30
0.0
 40
47.5
100
AcDbArc
 50
275.79734
 51
323.037937
  0
ARC
  5
337
100
AcDbEntity
  8
0
370
    -3
390
0
  6
Continuous
100
AcDbCircle
 10
-494.866986
 20
-238.974112
 30
0.0
 40
55.0
100
AcDbArc
 50
275.413312
 51
323.49975
  0
ARC
  5
338
100
AcDbEntity
  8
0
370
    -3
390
0
  6
Continuous
100
AcDbCircle
 10
-494.866986
 20
-238.974112
 30
0.0
 40
55.0
100
AcDbArc
 50
216.50025
 51
264.586688
  0
ARC
  5
339
100
AcDbEntity
  8
0
370
    -3
390
0
  6
Continuous
100
AcDbCircle
 10
-494.866986
 20
-238.974112
 30
0.0
 40
47.5
100
AcDbArc
 50
216.962063
 51
264.20266
  0
ARC
  5
33A
100
AcDbEntity
  8
0
370
    -3
390
0
  6
Continuous
100
AcDbCircle
 10
-494.866986
 20
-238.974112
 30
0.0
 40
42.5
100
AcDbArc
 50
218.519624
 51
262.908354
  0
ARC
  5
33B
100
AcDbEntity
  8
0
370
    -3
390
0
  6
Continuous
100
AcDbCircle
 10
-494.866986
 20
-238.974112
 30
0.0
 40
35.0
100
AcDbArc
 50
219.332418
 51
262.233566
  0
ARC
  5
33C
100
AcDbEntity
  8
0
370
    -3
390
0
  6
Continuous
100
AcDbCircle
 10
-494.866986
 20
-238.974112
 30
0.0
 40
30.0
100
AcDbArc
 50
222.373625
 51
259.713439
  0
ARC
  5
33D
100
AcDbEntity
  8
0
370
    -3
390
0
  6
Continuous
100
AcDbCircle
 10
-494.866986
 20
-238.974112
 30
0.0
 40
22.5
100
AcDbArc
 50
224.175804
 51
258.224256
  0
ARC
  5
33E
100
AcDbEntity
  8
0
370
    -3
390
0
  6
Continuous
100
AcDbCircle
 10
-494.866986
 20
-238.974112
 30
0.0
 40
17.5
100
AcDbArc
 50
232.773972
 51
251.180937
  0
ARC
  5
33F
100
AcDbEntity
  8
0
370
    -3
390
0
  6
Continuous
100
AcDbCircle
 10
-494.866986
 20
-238.974112
 30
0.0
 40
10.0
100
AcDbArc
 50
240.0
 51
245.375682
  0
ARC
  5
340
100
AcDbEntity
  8
0
370
    -3
390
0
  6
Continuous
100
AcDbCircle
 10
-494.866986
 20
-238.974112
 30
0.0
 40
55.0
100
AcDbArc
 50
155.413312
 51
203.49975
  0
ARC
  5
341
100
AcDbEntity
  8
0
370
    -3
390
0
  6
Continuous
100
AcDbCircle
 10
-494.866986
 20
-238.974112
 30
0.0
 40
47.5
100
AcDbArc
 50
155.79734
 51
203.037937
  0
ARC
  5
342
100
AcDbEntity
  8
0
370
    -3
390
0
  6
Continuous
100
AcDbCircle
 10
-494.866986
 20
-238.974112
 30
0.0
 40
42.5
100
AcDbArc
 50
157.091646
 51
201.480376
  0
ARC
  5
343
100
AcDbEntity
  8
0
370
    -3
390
0
  6
Continuous
100
AcDbCircle
 10
-494.866986
 20
-238.974112
 30
0.0
 40
35.0
100
AcDbArc
 50
157.766434
 51
200.667582
  0
ARC
  5
344
100
AcDbEntity
  8
0
370
    -3
390
0
  6
Continuous
100
AcDbCircle
 10
-494.866986
 20
-238.974112
 30
0.0
 40
30.0
100
AcDbArc
 50
160.286561
 51
197.626375
  0
ARC
  5
345
100
AcDbEntity
  8
0
370
    -3
390
0
  6
Continuous
100
AcDbCircle
 10
-494.866986
 20
-238.974112
 30
0.0
 40
22.5
100
AcDbArc
 50
161.775744
 51
195.824196
  0
ARC
  5
346
100
AcDbEntity
  8
0
370
    -3
390
0
  6
Continuous
100
AcDbCircle
 10
-494.866986
 20
-238.974112
 30
0.0
 40
17.5
100
AcDbArc
 50
168.819063
 51
187.226028
  0
ARC
  5
347
100
AcDbEntity
  8
0
370
    -3
390
0
  6
Continuous
100
AcDbCircle
 10
-494.866986
 20
-238.974112
 30
0.0
 40
10.0
100
AcDbArc
 50
174.624318
 51
180.0
  0
ARC
  5
348
100
AcDbEntity
  8
0
370
    -3
390
0
  6
Continuous
100
AcDbCircle
 10
-446.672347
 20
-216.922428
 30
0.0
 40
2.0
100
AcDbArc
 50
24.586688
 51
120.0
  0
ARC
  5
349
100
AcDbEntity
  8
0
370
    -3
390
0
  6
Continuous
100
AcDbCircle
 10
-449.717982
 20
-218.680826
 30
0.0
 40
2.0
100
AcDbArc
 50
120.0
 51
204.20266
  0
ARC
  5
34A
100
AcDbEntity
  8
0
370
    -3
390
0
  6
Continuous
100
AcDbCircle
 10
-489.866986
 20
-288.22094
 30
0.0
 40
2.0
100
AcDbArc
 50
95.79734
 51
180.0
  0
ARC
  5
34B
100
AcDbEntity
  8
0
370
    -3
390
0
  6
Continuous
100
AcDbCircle
 10
-489.866986
 20
-291.737736
 30
0.0
 40
2.0
100
AcDbArc
 50
180.0
 51
275.413312
  0
ARC
  5
34C
100
AcDbEntity
  8
0
370
    -3
390
0
  6
Continuous
100
AcDbCircle
 10
-499.866986
 20
-291.737736
 30
0.0
 40
2.0
100
AcDbArc
 50
264.586688
 51
0.0
  0
ARC
  5
34D
100
AcDbEntity
  8
0
370
    -3
390
0
  6
Continuous
100
AcDbCircle
 10
-499.866986
 20
-288.22094
 30
0.0
 40
2.0
100
AcDbArc
 50
0.0
 51
84.20266
  0
ARC
  5
34E
100
AcDbEntity
  8
0
370
    -3
390
0
  6
Continuous
100
AcDbCircle
 10
-534.41916
 20
-268.737774
 30
0.0
 40
2.0
100
AcDbArc
 50
36.962063
 51
120.0
  0
ARC
  5
34F
100
AcDbEntity
  8
0
370
    -3
390
0
  6
Continuous
100
AcDbCircle
 10
-537.471262
 20
-270.499906
 30
0.0
 40
2.0
100
AcDbArc
 50
120.0
 51
216.50025
  0
ARC
  5
350
100
AcDbEntity
  8
0
370
    -3
390
0
  6
Continuous
100
AcDbCircle
 10
-543.471262
 20
-260.107601
 30
0.0
 40
2.0
100
AcDbArc
 50
203.49975
 51
300.0
  0
ARC
  5
351
100
AcDbEntity
  8
0
370
    -3
390
0
  6
Continuous
100
AcDbCircle
 10
-543.061625
 20
-216.922428
 30
0.0
 40
2.0
100
AcDbArc
 50
60.0
 51
155.413312
  0
ARC
  5
352
100
AcDbEntity
  8
0
370
    -3
390
0
  6
Continuous
100
AcDbCircle
 10
-538.061625
 20
-208.262174
 30
0.0
 40
2.0
100
AcDbArc
 50
144.586688
 51
240.0
  0
ARC
  5
353
100
AcDbEntity
  8
0
370
    -3
390
0
  6
Continuous
100
AcDbCircle
 10
-500.866986
 20
-186.31483
 30
0.0
 40
2.0
100
AcDbArc
 50
0.0
 51
96.50025
  0
ARC
  5
354
100
AcDbEntity
  8
0
370
    -3
390
0
  6
Continuous
100
AcDbCircle
 10
-500.866986
 20
-189.839094
 30
0.0
 40
2.0
100
AcDbArc
 50
276.962063
 51
0.0
  0
ARC
  5
355
100
AcDbEntity
  8
0
370
    -3
390
0
  6
Continuous
100
AcDbCircle
 10
-535.015989
 20
-210.020572
 30
0.0
 40
2.0
100
AcDbArc
 50
240.0
 51
324.20266
  0
ARC
  5
356
100
AcDbEntity
  8
0
370
    -3
390
0
  6
Continuous
100
AcDbCircle
 10
-500.866986
 20
-198.921023
 30
0.0
 40
2.0
100
AcDbArc
 50
0.0
 51
98.519624
  0
ARC
  5
357
100
AcDbEntity
  8
0
370
    -3
390
0
  6
Continuous
100
AcDbCircle
 10
-500.866986
 20
-202.46384
 30
0.0
 40
2.0
100
AcDbArc
 50
279.332418
 51
0.0
  0
ARC
  5
358
100
AcDbEntity
  8
0
370
    -3
390
0
  6
Continuous
100
AcDbCircle
 10
-524.116002
 20
-216.313683
 30
0.0
 40
2.0
100
AcDbArc
 50
240.0
 51
322.233566
  0
ARC
  5
359
100
AcDbEntity
  8
0
370
    -3
390
0
  6
Continuous
100
AcDbCircle
 10
-527.172697
 20
-214.548899
 30
0.0
 40
2.0
100
AcDbArc
 50
142.908354
 51
240.0
  0
ARC
  5
35A
100
AcDbEntity
  8
0
370
    -3
390
0
  6
Continuous
100
AcDbCircle
 10
-529.116002
 20
-224.973937
 30
0.0
 40
2.0
100
AcDbArc
 50
337.766434
 51
60.0
  0
ARC
  5
35B
100
AcDbEntity
  8
0
370
    -3
390
0
  6
Continuous
100
AcDbCircle
 10
-532.172697
 20
-223.209153
 30
0.0
 40
2.0
100
AcDbArc
 50
60.0
 51
157.091646
  0
ARC
  5
35C
100
AcDbEntity
  8
0
370
    -3
390
0
  6
Continuous
100
AcDbCircle
 10
-540.015989
 20
-218.680826
 30
0.0
 40
2.0
100
AcDbArc
 50
335.79734
 51
60.0
  0
ARC
  5
35D
100
AcDbEntity
  8
0
370
    -3
390
0
  6
Continuous
100
AcDbCircle
 10
-500.866986
 20
-211.624524
 30
0.0
 40
2.0
100
AcDbArc
 50
0.0
 51
102.373625
  0
ARC
  5
35E
100
AcDbEntity
  8
0
370
    -3
390
0
  6
Continuous
100
AcDbCircle
 10
-516.225946
 20
-220.869008
 30
0.0
 40
2.0
100
AcDbArc
 50
139.713439
 51
240.0
  0
ARC
  5
35F
100
AcDbEntity
  8
0
370
    -3
390
0
  6
Continuous
100
AcDbCircle
 10
-513.13806
 20
-222.6518
 30
0.0
 40
2.0
100
AcDbArc
 50
240.0
 51
318.224256
  0
ARC
  5
360
100
AcDbEntity
  8
0
370
    -3
390
0
  6
Continuous
100
AcDbCircle
 10
-500.866986
 20
-215.220165
 30
0.0
 40
2.0
100
AcDbArc
 50
284.175804
 51
0.0
  0
ARC
  5
361
100
AcDbEntity
  8
0
370
    -3
390
0
  6
Continuous
100
AcDbCircle
 10
-500.866986
 20
-224.682507
 30
0.0
 40
2.0
100
AcDbArc
 50
0.0
 51
112.773972
  0
ARC
  5
362
100
AcDbEntity
  8
0
370
    -3
390
0
  6
Continuous
100
AcDbCircle
 10
-505.072792
 20
-227.308285
 30
0.0
 40
2.0
100
AcDbArc
 50
131.180937
 51
240.0
  0
ARC
  5
363
100
AcDbEntity
  8
0
370
    -3
390
0
  6
Continuous
100
AcDbCircle
 10
-500.866986
 20
-228.581808
 30
0.0
 40
2.0
100
AcDbArc
 50
300.0
 51
0.0
  0
ARC
  5
364
100
AcDbEntity
  8
0
370
    -3
390
0
  6
Continuous
100
AcDbCircle
 10
-501.814208
 20
-229.189629
 30
0.0
 40
2.0
100
AcDbArc
 50
240.0
 51
305.375682
  0
ARC
  5
365
100
AcDbEntity
  8
0
370
    -3
390
0
  6
Continuous
100
AcDbCircle
 10
-506.814208
 20
-237.849883
 30
0.0
 40
2.0
100
AcDbArc
 50
354.624318
 51
60.0
  0
ARC
  5
366
100
AcDbEntity
  8
0
370
    -3
390
0
  6
Continuous
100
AcDbCircle
 10
-510.072792
 20
-235.968539
 30
0.0
 40
2.0
100
AcDbArc
 50
60.0
 51
168.819063
  0
ARC
  5
367
100
AcDbEntity
  8
0
370
    -3
390
0
  6
Continuous
100
AcDbCircle
 10
-510.24388
 20
-240.923763
 30
0.0
 40
2.0
100
AcDbArc
 50
187.226028
 51
300.0
  0
ARC
  5
368
100
AcDbEntity
  8
0
370
    -3
390
0
  6
Continuous
100
AcDbCircle
 10
-506.866986
 20
-238.974112
 30
0.0
 40
2.0
100
AcDbArc
 50
300.0
 51
0.0
  0
ARC
  5
369
100
AcDbEntity
  8
0
370
    -3
390
0
  6
Continuous
100
AcDbCircle
 10
-500.866986
 20
-249.366417
 30
0.0
 40
2.0
100
AcDbArc
 50
60.0
 51
120.0
  0
ARC
  5
36A
100
AcDbEntity
  8
0
370
    -3
390
0
  6
Continuous
100
AcDbCircle
 10
-499.866986
 20
-249.882825
 30
0.0
 40
2.0
100
AcDbArc
 50
0.0
 51
65.375682
  0
ARC
  5
36B
100
AcDbEntity
  8
0
370
    -3
390
0
  6
Continuous
100
AcDbCircle
 10
-504.24388
 20
-251.316068
 30
0.0
 40
2.0
100
AcDbArc
 50
120.0
 51
232.773972
  0
ARC
  5
36C
100
AcDbEntity
  8
0
370
    -3
390
0
  6
Continuous
100
AcDbCircle
 10
-499.866986
 20
-253.645513
 30
0.0
 40
2.0
100
AcDbArc
 50
251.180937
 51
0.0
  0
ARC
  5
36D
100
AcDbEntity
  8
0
370
    -3
390
0
  6
Continuous
100
AcDbCircle
 10
-489.866986
 20
-253.645513
 30
0.0
 40
2.0
100
AcDbArc
 50
180.0
 51
288.819063
  0
ARC
  5
36E
100
AcDbEntity
  8
0
370
    -3
390
0
  6
Continuous
100
AcDbCircle
 10
-489.866986
 20
-249.882825
 30
0.0
 40
2.0
100
AcDbArc
 50
114.624318
 51
180.0
  0
ARC
  5
36F
100
AcDbEntity
  8
0
370
    -3
390
0
  6
Continuous
100
AcDbCircle
 10
-482.919764
 20
-237.849883
 30
0.0
 40
2.0
100
AcDbArc
 50
120.0
 51
185.375682
  0
ARC
  5
370
100
AcDbEntity
  8
0
370
    -3
390
0
  6
Continuous
100
AcDbCircle
 10
-479.66118
 20
-235.968539
 30
0.0
 40
2.0
100
AcDbArc
 50
11.180937
 51
120.0
  0
ARC
  5
371
100
AcDbEntity
  8
0
370
    -3
390
0
  6
Continuous
100
AcDbCircle
 10
-471.595912
 20
-231.312055
 30
0.0
 40
2.0
100
AcDbArc
 50
120.0
 51
198.224256
  0
ARC
  5
372
100
AcDbEntity
  8
0
370
    -3
390
0
  6
Continuous
100
AcDbCircle
 10
-468.508025
 20
-229.529262
 30
0.0
 40
2.0
100
AcDbArc
 50
19.713439
 51
120.0
  0
ARC
  5
373
100
AcDbEntity
  8
0
370
    -3
390
0
  6
Continuous
100
AcDbCircle
 10
-460.61797
 20
-224.973937
 30
0.0
 40
2.0
100
AcDbArc
 50
120.0
 51
202.233566
  0
ARC
  5
374
100
AcDbEntity
  8
0
370
    -3
390
0
  6
Continuous
100
AcDbCircle
 10
-457.561275
 20
-223.209153
 30
0.0
 40
2.0
100
AcDbArc
 50
22.908354
 51
120.0
  0
ARC
  5
375
100
AcDbEntity
  8
0
370
    -3
390
0
  6
Continuous
100
AcDbCircle
 10
-489.866986
 20
-262.958482
 30
0.0
 40
2.0
100
AcDbArc
 50
101.775744
 51
180.0
  0
ARC
  5
376
100
AcDbEntity
  8
0
370
    -3
390
0
  6
Continuous
100
AcDbCircle
 10
-489.866986
 20
-266.524067
 30
0.0
 40
2.0
100
AcDbArc
 50
180.0
 51
280.286561
  0
ARC
  5
377
100
AcDbEntity
  8
0
370
    -3
390
0
  6
Continuous
100
AcDbCircle
 10
-489.866986
 20
-275.634718
 30
0.0
 40
2.0
100
AcDbArc
 50
97.766434
 51
180.0
  0
ARC
  5
378
100
AcDbEntity
  8
0
370
    -3
390
0
  6
Continuous
100
AcDbCircle
 10
-489.866986
 20
-279.164285
 30
0.0
 40
2.0
100
AcDbArc
 50
180.0
 51
277.091646
  0
ARC
  5
379
100
AcDbEntity
  8
0
370
    -3
390
0
  6
Continuous
100
AcDbCircle
 10
-499.866986
 20
-279.164285
 30
0.0
 40
2.0
100
AcDbArc
 50
262.908354
 51
0.0
  0
ARC
  5
37A
100
AcDbEntity
  8
0
370
    -3
390
0
  6
Continuous
100
AcDbCircle
 10
-499.866986
 20
-275.634718
 30
0.0
 40
2.0
100
AcDbArc
 50
0.0
 51
82.233566
  0
ARC
  5
37B
100
AcDbEntity
  8
0
370
    -3
390
0
  6
Continuous
100
AcDbCircle
 10
-499.866986
 20
-266.524067
 30
0.0
 40
2.0
100
AcDbArc
 50
259.713439
 51
0.0
  0
ARC
  5
37C
100
AcDbEntity
  8
0
370
    -3
390
0
  6
Continuous
100
AcDbCircle
 10
-499.866986
 20
-262.958482
 30
0.0
 40
2.0
100
AcDbArc
 50
0.0
 51
78.224256
  0
ARC
  5
37D
100
AcDbEntity
  8
0
370
    -3
390
0
  6
Continuous
100
AcDbCircle
 10
-526.553979
 20
-264.19681
 30
0.0
 40
2.0
100
AcDbArc
 50
120.0
 51
218.519624
  0
ARC
  5
37E
100
AcDbEntity
  8
0
370
    -3
390
0
  6
Continuous
100
AcDbCircle
 10
-523.485809
 20
-262.425401
 30
0.0
 40
2.0
100
AcDbArc
 50
39.332418
 51
120.0
  0
ARC
  5
37F
100
AcDbEntity
  8
0
370
    -3
390
0
  6
Continuous
100
AcDbCircle
 10
-529.485809
 20
-252.033096
 30
0.0
 40
2.0
100
AcDbArc
 50
300.0
 51
20.667582
  0
ARC
  5
380
100
AcDbEntity
  8
0
370
    -3
390
0
  6
Continuous
100
AcDbCircle
 10
-532.553979
 20
-253.804505
 30
0.0
 40
2.0
100
AcDbArc
 50
201.480376
 51
300.0
  0
ARC
  5
381
100
AcDbEntity
  8
0
370
    -3
390
0
  6
Continuous
100
AcDbCircle
 10
-521.552424
 20
-247.452754
 30
0.0
 40
2.0
100
AcDbArc
 50
197.626375
 51
300.0
  0
ARC
  5
382
100
AcDbEntity
  8
0
370
    -3
390
0
  6
Continuous
100
AcDbCircle
 10
-518.438507
 20
-245.654934
 30
0.0
 40
2.0
100
AcDbArc
 50
300.0
 51
15.824196
  0
ARC
  5
383
100
AcDbEntity
  8
0
370
    -3
390
0
  6
Continuous
100
AcDbCircle
 10
-518.13806
 20
-231.312055
 30
0.0
 40
2.0
100
AcDbArc
 50
341.775744
 51
60.0
  0
ARC
  5
384
100
AcDbEntity
  8
0
370
    -3
390
0
  6
Continuous
100
AcDbCircle
 10
-521.225946
 20
-229.529262
 30
0.0
 40
2.0
100
AcDbArc
 50
60.0
 51
160.286561
  0
ARC
  5
385
100
AcDbEntity
  8
0
370
    -3
390
0
  6
Continuous
100
AcDbCircle
 10
-540.41916
 20
-258.345469
 30
0.0
 40
2.0
100
AcDbArc
 50
300.0
 51
23.037937
  0
LINE
  5
386
100
AcDbEntity
  8
0
370
    -3
390
0
  6
Continuous
100
AcDbLine
 10
-513.438507
 20
-254.315188
 30
0.0
 11
-516.552424
 21
-256.113008
 31
0.0
  0
ARC
  5
387
100
AcDbEntity
  8
0
370
    -3
390
0
  6
Continuous
100
AcDbCircle
 10
-512.438507
 20
-256.047238
 30
0.0
 40
2.0
100
AcDbArc
 50
44.175804
 51
120.0
  0
ARC
  5
388
100
AcDbEntity
  8
0
370
    -3
390
0
  6
Continuous
100
AcDbCircle
 10
-515.552424
 20
-257.845059
 30
0.0
 40
2.0
100
AcDbArc
 50
120.0
 51
222.373625
  0
LINE
  5
389
100
AcDbEntity
  8
0
370
    -3
390
0
  6
Continuous
100
AcDbLine
 10
-483.866986
 20
-240.706163
 30
0.0
 11
-480.490092
 21
-242.655814
 31
0.0
  0
LINE
  5
38A
100
AcDbEntity
  8
0
370
    -3
390
0
  6
Continuous
100
AcDbLine
 10
-487.866986
 20
-247.634366
 30
0.0
 11
-484.490092
 21
-249.584017
 31
0.0
  0
LINE
  5
38B
100
AcDbEntity
  8
0
370
    -3
390
0
  6
Continuous
100
AcDbLine
 10
-439.425429
 20
-266.364508
 30
0.0
 11
-438.555385
 21
-266.866828
 31
0.0
  0
LINE
  5
38C
100
AcDbEntity
  8
0
370
    -3
390
0
  6
Continuous
100
AcDbLine
 10
-450.314812
 20
-260.07752
 30
0.0
 11
-447.26271
 21
-261.839652
 31
0.0
  0
LINE
  5
38D
100
AcDbEntity
  8
0
370
    -3
390
0
  6
Continuous
100
AcDbLine
 10
-461.248162
 20
-253.765147
 30
0.0
 11
-458.179993
 21
-255.536556
 31
0.0
  0
LINE
  5
38E
100
AcDbEntity
  8
0
370
    -3
390
0
  6
Continuous
100
AcDbLine
 10
-472.295464
 20
-247.386984
 30
0.0
 11
-469.181547
 21
-249.184805
 31
0.0
  0
LINE
  5
38F
100
AcDbEntity
  8
0
370
    -3
390
0
  6
Continuous
100
AcDbLine
 10
-476.295464
 20
-254.315188
 30
0.0
 11
-473.181547
 21
-256.113008
 31
0.0
  0
LINE
  5
390
100
AcDbEntity
  8
0
370
    -3
390
0
  6
Continuous
100
AcDbLine
 10
-465.248162
 20
-260.69335
 30
0.0
 11
-462.179993
 21
-262.464759
 31
0.0
  0
LINE
  5
391
100
AcDbEntity
  8
0
370
    -3
390
0
  6
Continuous
100
AcDbLine
 10
-454.314812
 20
-267.005723
 30
0.0
 11
-451.26271
 21
-268.767855
 31
0.0
  0
LINE
  5
392
100
AcDbEntity
  8
0
370
    -3
390
0
  6
Continuous
100
AcDbLine
 10
-443.425429
 20
-273.292711
 30
0.0
 11
-442.555385
 21
-273.795031
 31
0.0
  0
ARC
  5
393
100
AcDbEntity
  8
0
370
    -3
390
0
  6
Continuous
100
AcDbCircle
 10
-437.555385
 20
-265.134777
 30
0.0
 40
2.0
100
AcDbArc
 50
240.0
 51
335.465024
  0
ARC
  5
394
100
AcDbEntity
  8
0
370
    -3
390
0
  6
Continuous
100
AcDbCircle
 10
-438.425429
 20
-264.632457
 30
0.0
 40
2.0
100
AcDbArc
 50
155.553444
 51
240.0
  0
ARC
  5
395
100
AcDbEntity
  8
0
370
    -3
390
0
  6
Continuous
100
AcDbCircle
 10
-446.26271
 20
-260.107601
 30
0.0
 40
2.0
100
AcDbArc
 50
240.0
 51
336.50025
  0
ARC
  5
396
100
AcDbEntity
  8
0
370
    -3
390
0
  6
Continuous
100
AcDbCircle
 10
-449.314812
 20
-258.345469
 30
0.0
 40
2.0
100
AcDbArc
 50
156.962063
 51
240.0
  0
ARC
  5
397
100
AcDbEntity
  8
0
370
    -3
390
0
  6
Continuous
100
AcDbCircle
 10
-457.179993
 20
-253.804505
 30
0.0
 40
2.0
100
AcDbArc
 50
240.0
 51
338.519624
  0
ARC
  5
398
100
AcDbEntity
  8
0
370
    -3
390
0
  6
Continuous
100
AcDbCircle
 10
-460.248162
 20
-252.033096
 30
0.0
 40
2.0
100
AcDbArc
 50
159.332418
 51
240.0
  0
ARC
  5
399
100
AcDbEntity
  8
0
370
    -3
390
0
  6
Continuous
100
AcDbCircle
 10
-468.181547
 20
-247.452754
 30
0.0
 40
2.0
100
AcDbArc
 50
240.0
 51
342.373625
  0
ARC
  5
39A
100
AcDbEntity
  8
0
370
    -3
390
0
  6
Continuous
100
AcDbCircle
 10
-471.295464
 20
-245.654934
 30
0.0
 40
2.0
100
AcDbArc
 50
164.175804
 51
240.0
  0
ARC
  5
39B
100
AcDbEntity
  8
0
370
    -3
390
0
  6
Continuous
100
AcDbCircle
 10
-479.490092
 20
-240.923763
 30
0.0
 40
2.0
100
AcDbArc
 50
240.0
 51
352.773972
  0
ARC
  5
39C
100
AcDbEntity
  8
0
370
    -3
390
0
  6
Continuous
100
AcDbCircle
 10
-482.866986
 20
-238.974112
 30
0.0
 40
2.0
100
AcDbArc
 50
180.0
 51
240.0
  0
ARC
  5
39D
100
AcDbEntity
  8
0
370
    -3
390
0
  6
Continuous
100
AcDbCircle
 10
-488.866986
 20
-249.366417
 30
0.0
 40
2.0
100
AcDbArc
 50
60.0
 51
120.0
  0
ARC
  5
39E
100
AcDbEntity
  8
0
370
    -3
390
0
  6
Continuous
100
AcDbCircle
 10
-485.490092
 20
-251.316068
 30
0.0
 40
2.0
100
AcDbArc
 50
307.226028
 51
60.0
  0
ARC
  5
39F
100
AcDbEntity
  8
0
370
    -3
390
0
  6
Continuous
100
AcDbCircle
 10
-477.295464
 20
-256.047238
 30
0.0
 40
2.0
100
AcDbArc
 50
60.0
 51
135.824196
  0
ARC
  5
3A0
100
AcDbEntity
  8
0
370
    -3
390
0
  6
Continuous
100
AcDbCircle
 10
-474.181547
 20
-257.845059
 30
0.0
 40
2.0
100
AcDbArc
 50
317.626375
 51
60.0
  0
ARC
  5
3A1
100
AcDbEntity
  8
0
370
    -3
390
0
  6
Continuous
100
AcDbCircle
 10
-466.248162
 20
-262.425401
 30
0.0
 40
2.0
100
AcDbArc
 50
60.0
 51
140.667582
  0
ARC
  5
3A2
100
AcDbEntity
  8
0
370
    -3
390
0
  6
Continuous
100
AcDbCircle
 10
-463.179993
 20
-264.19681
 30
0.0
 40
2.0
100
AcDbArc
 50
321.480376
 51
60.0
  0
ARC
  5
3A3
100
AcDbEntity
  8
0
370
    -3
390
0
  6
Continuous
100
AcDbCircle
 10
-455.314812
 20
-268.737774
 30
0.0
 40
2.0
100
AcDbArc
 50
60.0
 51
143.037937
  0
ARC
  5
3A4
100
AcDbEntity
  8
0
370
    -3
390
0
  6
Continuous
100
AcDbCircle
 10
-452.26271
 20
-270.499906
 30
0.0
 40
2.0
100
AcDbArc
 50
323.49975
 51
60.0
  0
ARC
  5
3A5
100
AcDbEntity
  8
0
370
    -3
390
0
  6
Continuous
100
AcDbCircle
 10
-444.425429
 20
-275.024762
 30
0.0
 40
2.0
100
AcDbArc
 50
60.0
 51
144.446556
  0
ARC
  5
3A6
100
AcDbEntity
  8
0
370
    -3
390
0
  6
Continuous
100
AcDbCircle
 10
-443.555385
 20
-275.527082
 30
0.0
 40
2.0
100
AcDbArc
 50
324.534976
 51
60.0
  0
ARC
  5
3A7
100
AcDbEntity
  8
0
370
    -3
390
0
  6
Continuous
100
AcDbCircle
 10
-546.178587
 20
-275.527082
 30
0.0
 40
2.0
100
AcDbArc
 50
120.0
 51
215.465024
  0
ARC
  5
3A8
100
AcDbEntity
  8
0
370
    -3
390
0
  6
Continuous
100
AcDbCircle
 10
-425.287679
 20
-176.041609
 30
0.0
 40
0.3
100
AcDbArc
 50
315.0
 51
45.0
  0
LINE
  5
3A9
100
AcDbEntity
  8
0
370
    -3
390
0
  6
Continuous
100
AcDbLine
 10
-424.651283
 20
-175.12237
 30
0.0
 11
-425.216968
 21
-175.688056
 31
0.0
  0
LINE
  5
3AA
100
AcDbEntity
  8
0
370
    -3
390
0
  6
Continuous
100
AcDbLine
 10
-426.878669
 20
-174.026355
 30
0.0
 11
-425.075547
 21
-175.829477
 31
0.0
  0
LINE
  5
3AB
100
AcDbEntity
  8
0
370
    -3
390
0
  6
Continuous
100
AcDbLine
 10
-429.919228
 20
-170.985795
 30
0.0
 11
-431.580929
 21
-169.324094
 31
0.0
  0
LINE
  5
3AC
100
AcDbEntity
  8
0
370
    -3
390
0
  6
Continuous
100
AcDbLine
 10
-425.075547
 20
-176.253741
 30
0.0
 11
-425.807258
 21
-176.985452
 31
0.0
  0
LINE
  5
3AD
100
AcDbEntity
  8
0
370
    -3
390
0
  6
Continuous
100
AcDbLine
 10
-427.833263
 20
-171.94039
 30
0.0
 11
-424.651283
 21
-175.12237
 31
0.0
  0
LINE
  5
3AE
100
AcDbEntity
  8
0
370
    -3
390
0
  6
Continuous
100
AcDbLine
 10
-428.398948
 20
-172.506075
 30
0.0
 11
-425.075547
 21
-175.829477
 31
0.0
  0
ARC
  5
3AF
100
AcDbEntity
  8
0
370
    -3
390
0
  6
Continuous
100
AcDbCircle
 10
-431.934482
 20
-169.394805
 30
0.0
 40
0.3
100
AcDbArc
 50
45.0
 51
135.0
  0
LINE
  5
3B0
100
AcDbEntity
  8
0
370
    -3
390
0
  6
Continuous
100
AcDbLine
 10
-431.015244
 20
-168.758409
 30
0.0
 11
-431.580929
 21
-169.324094
 31
0.0
  0
LINE
  5
3B1
100
AcDbEntity
  8
0
370
    -3
390
0
  6
Continuous
100
AcDbLine
 10
-429.919228
 20
-170.985795
 30
0.0
 11
-431.72235
 21
-169.182673
 31
0.0
  0
LINE
  5
3B2
100
AcDbEntity
  8
0
370
    -3
390
0
  6
Continuous
100
AcDbLine
 10
-432.146614
 20
-169.182673
 30
0.0
 11
-432.878326
 21
-169.914385
 31
0.0
  0
LINE
  5
3B3
100
AcDbEntity
  8
0
370
    -3
390
0
  6
Continuous
100
AcDbLine
 10
-427.833263
 20
-171.94039
 30
0.0
 11
-431.015244
 21
-168.758409
 31
0.0
  0
LINE
  5
3B4
100
AcDbEntity
  8
0
370
    -3
390
0
  6
Continuous
100
AcDbLine
 10
-428.398948
 20
-172.506075
 30
0.0
 11
-431.72235
 21
-169.182673
 31
0.0
  0
ARC
  5
3B5
100
AcDbEntity
  8
0
370
    -3
390
0
  6
Continuous
100
AcDbCircle
 10
-425.287679
 20
-301.906616
 30
0.0
 40
0.3
100
AcDbArc
 50
315.0
 51
45.0
  0
LINE
  5
3B6
100
AcDbEntity
  8
0
370
    -3
390
0
  6
Continuous
100
AcDbLine
 10
-424.651283
 20
-302.825855
 30
0.0
 11
-425.216968
 21
-302.260169
 31
0.0
  0
LINE
  5
3B7
100
AcDbEntity
  8
0
370
    -3
390
0
  6
Continuous
100
AcDbLine
 10
-426.878669
 20
-303.92187
 30
0.0
 11
-425.075547
 21
-302.118748
 31
0.0
  0
LINE
  5
3B8
100
AcDbEntity
  8
0
370
    -3
390
0
  6
Continuous
100
AcDbLine
 10
-429.919228
 20
-306.962429
 30
0.0
 11
-431.580929
 21
-308.62413
 31
0.0
  0
LINE
  5
3B9
100
AcDbEntity
  8
0
370
    -3
390
0
  6
Continuous
100
AcDbLine
 10
-425.075547
 20
-301.694484
 30
0.0
 11
-425.807258
 21
-300.962773
 31
0.0
  0
LINE
  5
3BA
100
AcDbEntity
  8
0
370
    -3
390
0
  6
Continuous
100
AcDbLine
 10
-427.833263
 20
-306.007835
 30
0.0
 11
-424.651283
 21
-302.825855
 31
0.0
  0
LINE
  5
3BB
100
AcDbEntity
  8
0
370
    -3
390
0
  6
Continuous
100
AcDbLine
 10
-428.398948
 20
-305.44215
 30
0.0
 11
-425.075547
 21
-302.118748
 31
0.0
  0
ARC
  5
3BC
100
AcDbEntity
  8
0
370
    -3
390
0
  6
Continuous
100
AcDbCircle
 10
-431.934482
 20
-308.55342
 30
0.0
 40
0.3
100
AcDbArc
 50
225.0
 51
315.0
  0
LINE
  5
3BD
100
AcDbEntity
  8
0
370
    -3
390
0
  6
Continuous
100
AcDbLine
 10
-431.015244
 20
-309.189816
 30
0.0
 11
-431.580929
 21
-308.62413
 31
0.0
  0
LINE
  5
3BE
100
AcDbEntity
  8
0
370
    -3
390
0
  6
Continuous
100
AcDbLine
 10
-429.919228
 20
-306.962429
 30
0.0
 11
-431.72235
 21
-308.765552
 31
0.0
  0
LINE
  5
3BF
100
AcDbEntity
  8
0
370
    -3
390
0
  6
Continuous
100
AcDbLine
 10
-432.146614
 20
-308.765552
 30
0.0
 11
-432.878326
 21
-308.03384
 31
0.0
  0
LINE
  5
3C0
100
AcDbEntity
  8
0
370
    -3
390
0
  6
Continuous
100
AcDbLine
 10
-427.833263
 20
-306.007835
 30
0.0
 11
-431.015244
 21
-309.189816
 31
0.0
  0
LINE
  5
3C1
100
AcDbEntity
  8
0
370
    -3
390
0
  6
Continuous
100
AcDbLine
 10
-428.398948
 20
-305.44215
 30
0.0
 11
-431.72235
 21
-308.765552
 31
0.0
  0
ARC
  5
3C2
100
AcDbEntity
  8
0
370
    -3
390
0
  6
Continuous
100
AcDbCircle
 10
-564.446293
 20
-301.906616
 30
0.0
 40
0.3
100
AcDbArc
 50
135.0
 51
225.0
  0
LINE
  5
3C3
100
AcDbEntity
  8
0
370
    -3
390
0
  6
Continuous
100
AcDbLine
 10
-565.082689
 20
-302.825855
 30
0.0
 11
-564.517004
 21
-302.260169
 31
0.0
  0
LINE
  5
3C4
100
AcDbEntity
  8
0
370
    -3
390
0
  6
Continuous
100
AcDbLine
 10
-562.855303
 20
-303.92187
 30
0.0
 11
-564.658425
 21
-302.118748
 31
0.0
  0
LINE
  5
3C5
100
AcDbEntity
  8
0
370
    -3
390
0
  6
Continuous
100
AcDbLine
 10
-559.814744
 20
-306.962429
 30
0.0
 11
-558.153043
 21
-308.62413
 31
0.0
  0
LINE
  5
3C6
100
AcDbEntity
  8
0
370
    -3
390
0
  6
Continuous
100
AcDbLine
 10
-564.658425
 20
-301.694484
 30
0.0
 11
-563.926714
 21
-300.962773
 31
0.0
  0
LINE
  5
3C7
100
AcDbEntity
  8
0
370
    -3
390
0
  6
Continuous
100
AcDbLine
 10
-561.900709
 20
-306.007835
 30
0.0
 11
-565.082689
 21
-302.825855
 31
0.0
  0
LINE
  5
3C8
100
AcDbEntity
  8
0
370
    -3
390
0
  6
Continuous
100
AcDbLine
 10
-561.335023
 20
-305.44215
 30
0.0
 11
-564.658425
 21
-302.118748
 31
0.0
  0
ARC
  5
3C9
100
AcDbEntity
  8
0
370
    -3
390
0
  6
Continuous
100
AcDbCircle
 10
-557.799489
 20
-308.55342
 30
0.0
 40
0.3
100
AcDbArc
 50
225.0
 51
315.0
  0
LINE
  5
3CA
100
AcDbEntity
  8
0
370
    -3
390
0
  6
Continuous
100
AcDbLine
 10
-558.718728
 20
-309.189816
 30
0.0
 11
-558.153043
 21
-308.62413
 31
0.0
  0
LINE
  5
3CB
100
AcDbEntity
  8
0
370
    -3
390
0
  6
Continuous
100
AcDbLine
 10
-559.814744
 20
-306.962429
 30
0.0
 11
-558.011621
 21
-308.765552
 31
0.0
  0
LINE
  5
3CC
100
AcDbEntity
  8
0
370
    -3
390
0
  6
Continuous
100
AcDbLine
 10
-557.587357
 20
-308.765552
 30
0.0
 11
-556.855646
 21
-308.03384
 31
0.0
  0
LINE
  5
3CD
100
AcDbEntity
  8
0
370
    -3
390
0
  6
Continuous
100
AcDbLine
 10
-561.900709
 20
-306.007835
 30
0.0
 11
-558.718728
 21
-309.189816
 31
0.0
  0
LINE
  5
3CE
100
AcDbEntity
  8
0
370
    -3
390
0
  6
Continuous
100
AcDbLine
 10
-561.335023
 20
-305.44215
 30
0.0
 11
-558.011621
 21
-308.765552
 31
0.0
  0
ARC
  5
3CF
100
AcDbEntity
  8
0
370
    -3
390
0
  6
Continuous
100
AcDbCircle
 10
-564.446293
 20
-176.041609
 30
0.0
 40
0.3
100
AcDbArc
 50
135.0
 51
225.0
  0
LINE
  5
3D0
100
AcDbEntity
  8
0
370
    -3
390
0
  6
Continuous
100
AcDbLine
 10
-565.082689
 20
-175.12237
 30
0.0
 11
-564.517004
 21
-175.688056
 31
0.0
  0
LINE
  5
3D1
100
AcDbEntity
  8
0
370
    -3
390
0
  6
Continuous
100
AcDbLine
 10
-562.855303
 20
-174.026355
 30
0.0
 11
-564.658425
 21
-175.829477
 31
0.0
  0
LINE
  5
3D2
100
AcDbEntity
  8
0
370
    -3
390
0
  6
Continuous
100
AcDbLine
 10
-559.814744
 20
-170.985795
 30
0.0
 11
-558.153043
 21
-169.324094
 31
0.0
  0
LINE
  5
3D3
100
AcDbEntity
  8
0
370
    -3
390
0
  6
Continuous
100
AcDbLine
 10
-564.658425
 20
-176.253741
 30
0.0
 11
-563.926714
 21
-176.985452
 31
0.0
  0
LINE
  5
3D4
100
AcDbEntity
  8
0
370
    -3
390
0
  6
Continuous
100
AcDbLine
 10
-561.900709
 20
-171.94039
 30
0.0
 11
-565.082689
 21
-175.12237
 31
0.0
  0
LINE
  5
3D5
100
AcDbEntity
  8
0
370
    -3
390
0
  6
Continuous
100
AcDbLine
 10
-561.335023
 20
-172.506075
 30
0.0
 11
-564.658425
 21
-175.829477
 31
0.0
  0
ARC
  5
3D6
100
AcDbEntity
  8
0
370
    -3
390
0
  6
Continuous
100
AcDbCircle
 10
-557.799489
 20
-169.394805
 30
0.0
 40
0.3
100
AcDbArc
 50
45.0
 51
135.0
  0
LINE
  5
3D7
100
AcDbEntity
  8
0
370
    -3
390
0
  6
Continuous
100
AcDbLine
 10
-558.718728
 20
-168.758409
 30
0.0
 11
-558.153043
 21
-169.324094
 31
0.0
  0
LINE
  5
3D8
100
AcDbEntity
  8
0
370
    -3
390
0
  6
Continuous
100
AcDbLine
 10
-559.814744
 20
-170.985795
 30
0.0
 11
-558.011621
 21
-169.182673
 31
0.0
  0
LINE
  5
3D9
100
AcDbEntity
  8
0
370
    -3
390
0
  6
Continuous
100
AcDbLine
 10
-557.587357
 20
-169.182673
 30
0.0
 11
-556.855646
 21
-169.914385
 31
0.0
  0
LINE
  5
3DA
100
AcDbEntity
  8
0
370
    -3
390
0
  6
Continuous
100
AcDbLine
 10
-561.900709
 20
-171.94039
 30
0.0
 11
-558.718728
 21
-168.758409
 31
0.0
  0
LINE
  5
3DB
100
AcDbEntity
  8
0
370
    -3
390
0
  6
Continuous
100
AcDbLine
 10
-561.335023
 20
-172.506075
 30
0.0
 11
-558.011621
 21
-169.182673
 31
0.0
  0
ARC
  5
3DC
100
AcDbEntity
  8
0
370
    -3
390
0
  6
Continuous
100
AcDbCircle
 10
-402.466986
 20
-265.574112
 30
0.0
 40
2.0
100
AcDbArc
 50
0.0
 51
90.0
  0
LINE
  5
3DD
100
AcDbEntity
  8
0
370
    -3
390
0
  6
Continuous
100
AcDbLine
 10
-398.866986
 20
-269.974112
 30
0.0
 11
-400.466986
 21
-269.974112
 31
0.0
  0
LINE
  5
3DE
100
AcDbEntity
  8
0
370
    -3
390
0
  6
Continuous
100
AcDbLine
 10
-398.866986
 20
-207.974112
 30
0.0
 11
-400.466986
 21
-207.974112
 31
0.0
  0
LINE
  5
3DF
100
AcDbEntity
  8
0
370
    -3
390
0
  6
Continuous
100
AcDbLine
 10
-398.866986
 20
-269.974112
 30
0.0
 11
-398.866986
 21
-207.974112
 31
0.0
  0
ARC
  5
3E0
100
AcDbEntity
  8
0
370
    -3
390
0
  6
Continuous
100
AcDbCircle
 10
-402.466986
 20
-212.374112
 30
0.0
 40
2.0
100
AcDbArc
 50
270.0
 51
0.0
  0
LINE
  5
3E1
100
AcDbEntity
  8
0
370
    -3
390
0
  6
Continuous
100
AcDbLine
 10
-400.466986
 20
-269.974112
 30
0.0
 11
-400.466986
 21
-207.974112
 31
0.0
  0
LINE
  5
3E2
100
AcDbEntity
  8
0
370
    -3
390
0
  6
Continuous
100
AcDbLine
 10
-402.466986
 20
-214.374112
 30
0.0
 11
-408.459073
 21
-214.374112
 31
0.0
  0
LINE
  5
3E3
100
AcDbEntity
  8
0
370
    -3
390
0
  6
Continuous
100
AcDbLine
 10
-402.466986
 20
-263.574112
 30
0.0
 11
-408.459073
 21
-263.574112
 31
0.0
  0
LINE
  5
3E4
100
AcDbEntity
  8
0
370
    -3
390
0
  6
Continuous
100
AcDbLine
 10
-398.866986
 20
-207.974112
 30
0.0
 11
-397.866986
 21
-207.974112
 31
0.0
  0
LINE
  5
3E5
100
AcDbEntity
  8
0
370
    -3
390
0
  6
Continuous
100
AcDbLine
 10
-398.866986
 20
-269.974112
 30
0.0
 11
-397.866986
 21
-269.974112
 31
0.0
  0
ARC
  5
3E6
100
AcDbEntity
  8
0
370
    -3
390
0
  6
Continuous
100
AcDbCircle
 10
-349.687387
 20
-270.365969
 30
0.0
 40
1.0
100
AcDbArc
 50
123.952127
 51
177.005924
  0
ARC
  5
3E7
100
AcDbEntity
  8
0
370
    -3
390
0
  6
Continuous
100
AcDbCircle
 10
-365.119275
 20
-221.795217
 30
0.0
 40
15.0
100
AcDbArc
 50
1.682769
 51
80.681877
  0
ARC
  5
3E8
100
AcDbEntity
  8
0
370
    -3
390
0
  6
Continuous
100
AcDbCircle
 10
-355.985378
 20
-295.151019
 30
0.0
 40
9.0
100
AcDbArc
 50
7.398452
 51
40.601531
  0
ARC
  5
3E9
100
AcDbEntity
  8
0
370
    -3
390
0
  6
Continuous
100
AcDbCircle
 10
-348.349483
 20
-294.1595
 30
0.0
 40
1.299999
100
AcDbArc
 50
293.999982
 51
7.398452
  0
LINE
  5
3EA
100
AcDbEntity
  8
0
370
    -3
390
0
  6
CENTER
100
AcDbLine
 10
-373.866986
 20
-271.091589
 30
0.0
 11
-373.866986
 21
-293.960098
 31
0.0
  0
LINE
  5
3EB
100
AcDbEntity
  8
0
370
    -3
390
0
  6
Continuous
100
AcDbLine
 10
-397.866986
 20
-206.282508
 30
0.0
 11
-397.866986
 21
-280.474112
 31
0.0
  0
LINE
  5
3EC
100
AcDbEntity
  8
0
370
    -3
390
0
  6
Continuous
100
AcDbLine
 10
-352.796687
 20
-295.920595
 30
0.0
 11
-356.313837
 21
-297.486531
 31
0.0
  0
LINE
  5
3ED
100
AcDbEntity
  8
0
370
    -3
390
0
  6
Continuous
100
AcDbLine
 10
-354.423634
 20
-292.266413
 30
0.0
 11
-357.940784
 21
-293.83235
 31
0.0
  0
ARC
  5
3EE
100
AcDbEntity
  8
0
370
    -3
390
0
  6
Continuous
100
AcDbCircle
 10
-353.496972
 20
-283.096747
 30
0.0
 40
2.0
100
AcDbArc
 50
294.0
 51
355.768662
  0
ARC
  5
3EF
100
AcDbEntity
  8
0
370
    -3
390
0
  6
Continuous
100
AcDbCircle
 10
-352.072299
 20
-285.74635
 30
0.0
 40
1.0
100
AcDbArc
 50
114.0
 51
204.0
  0
LINE
  5
3F0
100
AcDbEntity
  8
0
370
    -3
390
0
  6
Continuous
100
AcDbLine
 10
-373.991277
 20
-238.974112
 30
0.0
 11
-347.779615
 21
-297.846469
 31
0.0
  0
ARC
  5
3F1
100
AcDbEntity
  8
0
370
    -3
390
0
  6
Continuous
100
AcDbCircle
 10
-348.693161
 20
-298.253205
 30
0.0
 40
1.0
100
AcDbArc
 50
294.0
 51
24.0
  0
LINE
  5
3F2
100
AcDbEntity
  8
0
370
    -3
390
0
  6
Continuous
100
AcDbLine
 10
-348.286424
 20
-299.166751
 30
0.0
 11
-350.844351
 21
-300.305613
 31
0.0
  0
LINE
  5
3F3
100
AcDbEntity
  8
0
370
    -3
390
0
  6
Continuous
100
AcDbLine
 10
-392.866986
 20
-285.474112
 30
0.0
 11
-357.447761
 21
-285.474112
 31
0.0
  0
ARC
  5
3F4
100
AcDbEntity
  8
0
370
    -3
390
0
  6
Continuous
100
AcDbCircle
 10
-392.866986
 20
-280.474112
 30
0.0
 40
5.0
100
AcDbArc
 50
180.0
 51
270.0
  0
ARC
  5
3F5
100
AcDbEntity
  8
0
370
    -3
390
0
  6
Continuous
100
AcDbCircle
 10
-350.900937
 20
-288.377272
 30
0.0
 40
1.0
100
AcDbArc
 50
175.284875
 51
204.0
  0
ARC
  5
3F6
100
AcDbEntity
  8
0
370
    -3
390
0
  6
Continuous
100
AcDbCircle
 10
-949.866986
 20
-238.974112
 30
0.0
 40
600.0
100
AcDbArc
 50
355.284875
 51
1.682769
  0
ARC
  5
3F7
100
AcDbEntity
  8
0
370
    -3
390
0
  6
Continuous
100
AcDbCircle
 10
-350.139124
 20
-290.139899
 30
0.0
 40
1.299999
100
AcDbArc
 50
40.601531
 51
114.000001
  0
LINE
  5
3F8
100
AcDbEntity
  8
0
370
    -3
390
0
  6
Continuous
100
AcDbLine
 10
-351.562266
 20
-289.350496
 30
0.0
 11
-350.667882
 21
-288.952291
 31
0.0
  0
LINE
  5
3F9
100
AcDbEntity
  8
0
370
    -3
390
0
  6
Continuous
100
AcDbLine
 10
-348.715109
 20
-295.745314
 30
0.0
 11
-347.820725
 21
-295.347109
 31
0.0
  0
LINE
  5
3FA
100
AcDbEntity
  8
0
370
    -3
390
0
  6
Continuous
100
AcDbLine
 10
-351.562266
 20
-289.350496
 30
0.0
 11
-348.715109
 21
-295.745314
 31
0.0
  0
LINE
  5
3FB
100
AcDbEntity
  8
0
370
    -3
390
0
  6
Continuous
100
AcDbLine
 10
-351.562266
 20
-289.350496
 30
0.0
 11
-348.715109
 21
-295.745314
 31
0.0
  0
POINT
  5
3FC
100
AcDbEntity
  8
0
370
    -3
390
0
  6
Continuous
100
AcDbPoint
 10
-350.138688
 20
-292.547905
 30
0.0
  0
LINE
  5
3FD
100
AcDbEntity
  8
0
370
    -3
390
0
  6
Continuous
100
AcDbLine
 10
-358.118167
 20
-294.294448
 30
0.0
 11
-356.775936
 21
-297.309148
 31
0.0
  0
LINE
  5
3FE
100
AcDbEntity
  8
0
370
    -3
390
0
  6
Continuous
100
AcDbLine
 10
-356.313837
 20
-297.486531
 30
0.0
 11
-356.775936
 21
-297.309148
 31
0.0
  0
LINE
  5
3FF
100
AcDbEntity
  8
0
370
    -3
390
0
  6
Continuous
100
AcDbLine
 10
-357.940784
 20
-293.83235
 30
0.0
 11
-358.118167
 21
-294.294448
 31
0.0
  0
LINE
  5
400
100
AcDbEntity
  8
0
370
    -3
390
0
  6
Continuous
100
AcDbLine
 10
-354.281276
 20
-292.586154
 30
0.0
 11
-358.118167
 21
-294.294448
 31
0.0
  0
LINE
  5
401
100
AcDbEntity
  8
0
370
    -3
390
0
  6
Continuous
100
AcDbLine
 10
-352.939045
 20
-295.600854
 30
0.0
 11
-356.775936
 21
-297.309148
 31
0.0
  0
LINE
  5
402
100
AcDbEntity
  8
0
370
    -3
390
0
  6
Continuous
100
AcDbLine
 10
-396.56155
 20
-197.623104
 30
0.0
 11
-350.844351
 21
-300.305613
 31
0.0
  0
ARC
  5
403
100
AcDbEntity
  8
0
370
    -3
390
0
  6
Continuous
100
AcDbCircle
 10
-394.866986
 20
-206.282508
 30
0.0
 40
3.0
100
AcDbArc
 50
114.0
 51
180.0
  0
LINE
  5
404
100
AcDbEntity
  8
0
370
    -3
390
0
  6
Continuous
100
AcDbLine
 10
-394.283825
 20
-202.738959
 30
0.0
 11
-396.087196
 21
-203.541871
 31
0.0
  0
LINE
  5
405
100
AcDbEntity
  8
0
370
    -3
390
0
  6
Continuous
100
AcDbLine
 10
-394.003623
 20
-196.484241
 30
0.0
 11
-396.56155
 21
-197.623104
 31
0.0
  0
LINE
  5
406
100
AcDbEntity
  8
0
370
    -3
390
0
  6
Continuous
100
AcDbLine
 10
-388.646173
 20
-202.734319
 30
0.0
 11
-362.690535
 21
-206.993148
 31
0.0
  0
ARC
  5
407
100
AcDbEntity
  8
0
370
    -3
390
0
  6
Continuous
100
AcDbCircle
 10
-388.160425
 20
-199.773906
 30
0.0
 40
3.0
100
AcDbArc
 50
204.0
 51
260.681877
  0
LINE
  5
408
100
AcDbEntity
  8
0
370
    -3
390
0
  6
Continuous
100
AcDbLine
 10
-392.68334
 20
-196.99105
 30
0.0
 11
-373.991277
 21
-238.974112
 31
0.0
  0
LINE
  5
409
100
AcDbEntity
  8
0
370
    -3
390
0
  6
Continuous
100
AcDbLine
 10
-396.232389
 20
-200.317442
 30
0.0
 11
-395.495985
 21
-200.630027
 31
0.0
  0
LINE
  5
40A
100
AcDbEntity
  8
0
370
    -3
390
0
  6
Continuous
100
AcDbLine
 10
-395.362643
 20
-200.315893
 30
0.0
 11
-395.495985
 21
-200.630027
 31
0.0
  0
LINE
  5
40B
100
AcDbEntity
  8
0
370
    -3
390
0
  6
Continuous
100
AcDbLine
 10
-395.807557
 20
-199.3166
 30
0.0
 11
-396.232389
 21
-200.317442
 31
0.0
  0
ARC
  5
40C
100
AcDbEntity
  8
0
370
    -3
390
0
  6
Continuous
100
AcDbCircle
 10
-393.596886
 20
-197.397787
 30
0.0
 40
1.0
100
AcDbArc
 50
24.0
 51
114.0
  0
LINE
  5
40D
100
AcDbEntity
  8
0
370
    -3
390
0
  6
Continuous
100
AcDbLine
 10
-373.866991
 20
-180.438211
 30
0.0
 11
-376.866983
 21
-178.706159
 31
0.0
  0
LINE
  5
40E
100
AcDbEntity
  8
0
370
    -3
390
0
  6
Continuous
100
AcDbLine
 10
-373.866979
 20
-173.510016
 30
0.0
 11
-370.866988
 21
-175.242066
 31
0.0
  0
LINE
  5
40F
100
AcDbEntity
  8
0
370
    -3
390
0
  6
Continuous
100
AcDbLine
 10
-370.866988
 20
-178.706165
 30
0.0
 11
-373.86699
 21
-180.438212
 31
0.0
  0
LINE
  5
410
100
AcDbEntity
  8
0
370
    -3
390
0
  6
Continuous
100
AcDbLine
 10
-373.866979
 20
-173.510016
 30
0.0
 11
-376.866984
 21
-175.242061
 31
0.0
  0
LINE
  5
411
100
AcDbEntity
  8
0
370
    -3
390
0
  6
Continuous
100
AcDbLine
 10
-370.866989
 20
-175.242066
 30
0.0
 11
-370.866988
 21
-178.706164
 31
0.0
  0
LINE
  5
412
100
AcDbEntity
  8
0
370
    -3
390
0
  6
Continuous
100
AcDbLine
 10
-376.866983
 20
-178.706159
 30
0.0
 11
-376.866984
 21
-175.242061
 31
0.0
  0
CIRCLE
  5
413
100
AcDbEntity
  8
0
370
    -3
390
0
  6
Continuous
100
AcDbCircle
 10
-373.866986
 20
-176.974113
 30
0.0
 40
6.5
  0
CIRCLE
  5
414
100
AcDbEntity
  8
0
370
    -3
390
0
  6
Continuous
100
AcDbCircle
 10
-373.866986
 20
-176.974113
 30
0.0
 40
5.633955
  0
LINE
  5
415
100
AcDbEntity
  8
0
370
    -3
390
0
  6
Continuous
100
AcDbLine
 10
-444.866991
 20
-111.438211
 30
0.0
 11
-447.866983
 21
-109.706159
 31
0.0
  0
LINE
  5
416
100
AcDbEntity
  8
0
370
    -3
390
0
  6
Continuous
100
AcDbLine
 10
-444.866979
 20
-104.510016
 30
0.0
 11
-441.866988
 21
-106.242066
 31
0.0
  0
LINE
  5
417
100
AcDbEntity
  8
0
370
    -3
390
0
  6
Continuous
100
AcDbLine
 10
-441.866988
 20
-109.706165
 30
0.0
 11
-444.86699
 21
-111.438212
 31
0.0
  0
LINE
  5
418
100
AcDbEntity
  8
0
370
    -3
390
0
  6
Continuous
100
AcDbLine
 10
-444.866979
 20
-104.510016
 30
0.0
 11
-447.866984
 21
-106.242061
 31
0.0
  0
LINE
  5
419
100
AcDbEntity
  8
0
370
    -3
390
0
  6
Continuous
100
AcDbLine
 10
-441.866989
 20
-106.242066
 30
0.0
 11
-441.866988
 21
-109.706164
 31
0.0
  0
LINE
  5
41A
100
AcDbEntity
  8
0
370
    -3
390
0
  6
Continuous
100
AcDbLine
 10
-447.866983
 20
-109.706159
 30
0.0
 11
-447.866984
 21
-106.242061
 31
0.0
  0
CIRCLE
  5
41B
100
AcDbEntity
  8
0
370
    -3
390
0
  6
Continuous
100
AcDbCircle
 10
-444.866986
 20
-107.974113
 30
0.0
 40
6.5
  0
CIRCLE
  5
41C
100
AcDbEntity
  8
0
370
    -3
390
0
  6
Continuous
100
AcDbCircle
 10
-444.866986
 20
-107.974113
 30
0.0
 40
5.633955
  0
LINE
  5
41D
100
AcDbEntity
  8
0
370
    -3
390
0
  6
Continuous
100
AcDbLine
 10
-484.366991
 20
-110.438211
 30
0.0
 11
-487.366983
 21
-108.706159
 31
0.0
  0
LINE
  5
41E
100
AcDbEntity
  8
0
370
    -3
390
0
  6
Continuous
100
AcDbLine
 10
-484.366979
 20
-103.510016
 30
0.0
 11
-481.366988
 21
-105.242066
 31
0.0
  0
LINE
  5
41F
100
AcDbEntity
  8
0
370
    -3
390
0
  6
Continuous
100
AcDbLine
 10
-481.366988
 20
-108.706164
 30
0.0
 11
-484.36699
 21
-110.438211
 31
0.0
  0
LINE
  5
420
100
AcDbEntity
  8
0
370
    -3
390
0
  6
Continuous
100
AcDbLine
 10
-484.366979
 20
-103.510015
 30
0.0
 11
-487.366984
 21
-105.242061
 31
0.0
  0
LINE
  5
421
100
AcDbEntity
  8
0
370
    -3
390
0
  6
Continuous
100
AcDbLine
 10
-481.366989
 20
-105.242065
 30
0.0
 11
-481.366988
 21
-108.706163
 31
0.0
  0
LINE
  5
422
100
AcDbEntity
  8
0
370
    -3
390
0
  6
Continuous
100
AcDbLine
 10
-487.366983
 20
-108.706158
 30
0.0
 11
-487.366984
 21
-105.24206
 31
0.0
  0
CIRCLE
  5
423
100
AcDbEntity
  8
0
370
    -3
390
0
  6
Continuous
100
AcDbCircle
 10
-484.366986
 20
-106.974112
 30
0.0
 40
6.5
  0
CIRCLE
  5
424
100
AcDbEntity
  8
0
370
    -3
390
0
  6
Continuous
100
AcDbCircle
 10
-484.366986
 20
-106.974112
 30
0.0
 40
5.633955
  0
LINE
  5
425
100
AcDbEntity
  8
0
370
    -3
390
0
  6
Continuous
100
AcDbLine
 10
-505.366981
 20
-110.438211
 30
0.0
 11
-502.366988
 21
-108.706159
 31
0.0
  0
LINE
  5
426
100
AcDbEntity
  8
0
370
    -3
390
0
  6
Continuous
100
AcDbLine
 10
-505.366993
 20
-103.510016
 30
0.0
 11
-508.366983
 21
-105.242066
 31
0.0
  0
LINE
  5
427
100
AcDbEntity
  8
0
370
    -3
390
0
  6
Continuous
100
AcDbLine
 10
-508.366984
 20
-108.706164
 30
0.0
 11
-505.366981
 21
-110.438211
 31
0.0
  0
LINE
  5
428
100
AcDbEntity
  8
0
370
    -3
390
0
  6
Continuous
100
AcDbLine
 10
-505.366993
 20
-103.510015
 30
0.0
 11
-502.366988
 21
-105.242061
 31
0.0
  0
LINE
  5
429
100
AcDbEntity
  8
0
370
    -3
390
0
  6
Continuous
100
AcDbLine
 10
-508.366983
 20
-105.242065
 30
0.0
 11
-508.366984
 21
-108.706163
 31
0.0
  0
LINE
  5
42A
100
AcDbEntity
  8
0
370
    -3
390
0
  6
Continuous
100
AcDbLine
 10
-502.366989
 20
-108.706158
 30
0.0
 11
-502.366988
 21
-105.24206
 31
0.0
  0
CIRCLE
  5
42B
100
AcDbEntity
  8
0
370
    -3
390
0
  6
Continuous
100
AcDbCircle
 10
-505.366986
 20
-106.974112
 30
0.0
 40
6.5
  0
CIRCLE
  5
42C
100
AcDbEntity
  8
0
370
    -3
390
0
  6
Continuous
100
AcDbCircle
 10
-505.366986
 20
-106.974112
 30
0.0
 40
5.633955
  0
LINE
  5
42D
100
AcDbEntity
  8
0
370
    -3
390
0
  6
Continuous
100
AcDbLine
 10
-544.866981
 20
-111.438211
 30
0.0
 11
-541.866988
 21
-109.706159
 31
0.0
  0
LINE
  5
42E
100
AcDbEntity
  8
0
370
    -3
390
0
  6
Continuous
100
AcDbLine
 10
-544.866993
 20
-104.510016
 30
0.0
 11
-547.866983
 21
-106.242066
 31
0.0
  0
LINE
  5
42F
100
AcDbEntity
  8
0
370
    -3
390
0
  6
Continuous
100
AcDbLine
 10
-547.866984
 20
-109.706165
 30
0.0
 11
-544.866981
 21
-111.438212
 31
0.0
  0
LINE
  5
430
100
AcDbEntity
  8
0
370
    -3
390
0
  6
Continuous
100
AcDbLine
 10
-544.866993
 20
-104.510016
 30
0.0
 11
-541.866988
 21
-106.242061
 31
0.0
  0
LINE
  5
431
100
AcDbEntity
  8
0
370
    -3
390
0
  6
Continuous
100
AcDbLine
 10
-547.866983
 20
-106.242066
 30
0.0
 11
-547.866984
 21
-109.706164
 31
0.0
  0
LINE
  5
432
100
AcDbEntity
  8
0
370
    -3
390
0
  6
Continuous
100
AcDbLine
 10
-541.866989
 20
-109.706159
 30
0.0
 11
-541.866988
 21
-106.242061
 31
0.0
  0
CIRCLE
  5
433
100
AcDbEntity
  8
0
370
    -3
390
0
  6
Continuous
100
AcDbCircle
 10
-544.866986
 20
-107.974113
 30
0.0
 40
6.5
  0
CIRCLE
  5
434
100
AcDbEntity
  8
0
370
    -3
390
0
  6
Continuous
100
AcDbCircle
 10
-544.866986
 20
-107.974113
 30
0.0
 40
5.633955
  0
LINE
  5
435
100
AcDbEntity
  8
0
370
    -3
390
0
  6
Continuous
100
AcDbLine
 10
-615.866981
 20
-180.438211
 30
0.0
 11
-612.866988
 21
-178.706159
 31
0.0
  0
LINE
  5
436
100
AcDbEntity
  8
0
370
    -3
390
0
  6
Continuous
100
AcDbLine
 10
-615.866993
 20
-173.510016
 30
0.0
 11
-618.866983
 21
-175.242066
 31
0.0
  0
LINE
  5
437
100
AcDbEntity
  8
0
370
    -3
390
0
  6
Continuous
100
AcDbLine
 10
-618.866984
 20
-178.706165
 30
0.0
 11
-615.866981
 21
-180.438212
 31
0.0
  0
LINE
  5
438
100
AcDbEntity
  8
0
370
    -3
390
0
  6
Continuous
100
AcDbLine
 10
-615.866993
 20
-173.510016
 30
0.0
 11
-612.866988
 21
-175.242061
 31
0.0
  0
LINE
  5
439
100
AcDbEntity
  8
0
370
    -3
390
0
  6
Continuous
100
AcDbLine
 10
-618.866983
 20
-175.242066
 30
0.0
 11
-618.866984
 21
-178.706164
 31
0.0
  0
LINE
  5
43A
100
AcDbEntity
  8
0
370
    -3
390
0
  6
Continuous
100
AcDbLine
 10
-612.866989
 20
-178.706159
 30
0.0
 11
-612.866988
 21
-175.242061
 31
0.0
  0
CIRCLE
  5
43B
100
AcDbEntity
  8
0
370
    -3
390
0
  6
Continuous
100
AcDbCircle
 10
-615.866986
 20
-176.974113
 30
0.0
 40
6.5
  0
CIRCLE
  5
43C
100
AcDbEntity
  8
0
370
    -3
390
0
  6
Continuous
100
AcDbCircle
 10
-615.866986
 20
-176.974113
 30
0.0
 40
5.633955
  0
LINE
  5
43D
100
AcDbEntity
  8
0
370
    -3
390
0
  6
Continuous
100
AcDbLine
 10
-616.866981
 20
-270.438211
 30
0.0
 11
-613.866988
 21
-268.706159
 31
0.0
  0
LINE
  5
43E
100
AcDbEntity
  8
0
370
    -3
390
0
  6
Continuous
100
AcDbLine
 10
-616.866993
 20
-263.510016
 30
0.0
 11
-619.866983
 21
-265.242066
 31
0.0
  0
LINE
  5
43F
100
AcDbEntity
  8
0
370
    -3
390
0
  6
Continuous
100
AcDbLine
 10
-619.866984
 20
-268.706164
 30
0.0
 11
-616.866981
 21
-270.438211
 31
0.0
  0
LINE
  5
440
100
AcDbEntity
  8
0
370
    -3
390
0
  6
Continuous
100
AcDbLine
 10
-616.866993
 20
-263.510015
 30
0.0
 11
-613.866988
 21
-265.242061
 31
0.0
  0
LINE
  5
441
100
AcDbEntity
  8
0
370
    -3
390
0
  6
Continuous
100
AcDbLine
 10
-619.866983
 20
-265.242065
 30
0.0
 11
-619.866984
 21
-268.706163
 31
0.0
  0
LINE
  5
442
100
AcDbEntity
  8
0
370
    -3
390
0
  6
Continuous
100
AcDbLine
 10
-613.866989
 20
-268.706158
 30
0.0
 11
-613.866988
 21
-265.24206
 31
0.0
  0
CIRCLE
  5
443
100
AcDbEntity
  8
0
370
    -3
390
0
  6
Continuous
100
AcDbCircle
 10
-616.866986
 20
-266.974112
 30
0.0
 40
6.5
  0
CIRCLE
  5
444
100
AcDbEntity
  8
0
370
    -3
390
0
  6
Continuous
100
AcDbCircle
 10
-616.866986
 20
-266.974112
 30
0.0
 40
5.633955
  0
LINE
  5
445
100
AcDbEntity
  8
0
370
    -3
390
0
  6
Continuous
100
AcDbLine
 10
-572.366981
 20
-362.438211
 30
0.0
 11
-569.366988
 21
-360.706159
 31
0.0
  0
LINE
  5
446
100
AcDbEntity
  8
0
370
    -3
390
0
  6
Continuous
100
AcDbLine
 10
-572.366993
 20
-355.510016
 30
0.0
 11
-575.366983
 21
-357.242066
 31
0.0
  0
LINE
  5
447
100
AcDbEntity
  8
0
370
    -3
390
0
  6
Continuous
100
AcDbLine
 10
-575.366984
 20
-360.706164
 30
0.0
 11
-572.366981
 21
-362.438211
 31
0.0
  0
LINE
  5
448
100
AcDbEntity
  8
0
370
    -3
390
0
  6
Continuous
100
AcDbLine
 10
-572.366993
 20
-355.510015
 30
0.0
 11
-569.366988
 21
-357.242061
 31
0.0
  0
LINE
  5
449
100
AcDbEntity
  8
0
370
    -3
390
0
  6
Continuous
100
AcDbLine
 10
-575.366983
 20
-357.242065
 30
0.0
 11
-575.366984
 21
-360.706163
 31
0.0
  0
LINE
  5
44A
100
AcDbEntity
  8
0
370
    -3
390
0
  6
Continuous
100
AcDbLine
 10
-569.366989
 20
-360.706158
 30
0.0
 11
-569.366988
 21
-357.24206
 31
0.0
  0
CIRCLE
  5
44B
100
AcDbEntity
  8
0
370
    -3
390
0
  6
Continuous
100
AcDbCircle
 10
-572.366986
 20
-358.974112
 30
0.0
 40
6.5
  0
CIRCLE
  5
44C
100
AcDbEntity
  8
0
370
    -3
390
0
  6
Continuous
100
AcDbCircle
 10
-572.366986
 20
-358.974112
 30
0.0
 40
5.633955
  0
LINE
  5
44D
100
AcDbEntity
  8
0
370
    -3
390
0
  6
Continuous
100
AcDbLine
 10
-487.366991
 20
-361.438211
 30
0.0
 11
-490.366983
 21
-359.706159
 31
0.0
  0
LINE
  5
44E
100
AcDbEntity
  8
0
370
    -3
390
0
  6
Continuous
100
AcDbLine
 10
-487.366979
 20
-354.510016
 30
0.0
 11
-484.366988
 21
-356.242066
 31
0.0
  0
LINE
  5
44F
100
AcDbEntity
  8
0
370
    -3
390
0
  6
Continuous
100
AcDbLine
 10
-484.366988
 20
-359.706164
 30
0.0
 11
-487.36699
 21
-361.438211
 31
0.0
  0
LINE
  5
450
100
AcDbEntity
  8
0
370
    -3
390
0
  6
Continuous
100
AcDbLine
 10
-487.366979
 20
-354.510015
 30
0.0
 11
-490.366984
 21
-356.242061
 31
0.0
  0
LINE
  5
451
100
AcDbEntity
  8
0
370
    -3
390
0
  6
Continuous
100
AcDbLine
 10
-484.366989
 20
-356.242065
 30
0.0
 11
-484.366988
 21
-359.706163
 31
0.0
  0
LINE
  5
452
100
AcDbEntity
  8
0
370
    -3
390
0
  6
Continuous
100
AcDbLine
 10
-490.366983
 20
-359.706158
 30
0.0
 11
-490.366984
 21
-356.24206
 31
0.0
  0
CIRCLE
  5
453
100
AcDbEntity
  8
0
370
    -3
390
0
  6
Continuous
100
AcDbCircle
 10
-487.366986
 20
-357.974112
 30
0.0
 40
6.5
  0
CIRCLE
  5
454
100
AcDbEntity
  8
0
370
    -3
390
0
  6
Continuous
100
AcDbCircle
 10
-487.366986
 20
-357.974112
 30
0.0
 40
5.633955
  0
LINE
  5
455
100
AcDbEntity
  8
0
370
    -3
390
0
  6
Continuous
100
AcDbLine
 10
-417.366991
 20
-362.438211
 30
0.0
 11
-420.366983
 21
-360.706159
 31
0.0
  0
LINE
  5
456
100
AcDbEntity
  8
0
370
    -3
390
0
  6
Continuous
100
AcDbLine
 10
-417.366979
 20
-355.510016
 30
0.0
 11
-414.366988
 21
-357.242066
 31
0.0
  0
LINE
  5
457
100
AcDbEntity
  8
0
370
    -3
390
0
  6
Continuous
100
AcDbLine
 10
-414.366988
 20
-360.706164
 30
0.0
 11
-417.36699
 21
-362.438211
 31
0.0
  0
LINE
  5
458
100
AcDbEntity
  8
0
370
    -3
390
0
  6
Continuous
100
AcDbLine
 10
-417.366979
 20
-355.510015
 30
0.0
 11
-420.366984
 21
-357.242061
 31
0.0
  0
LINE
  5
459
100
AcDbEntity
  8
0
370
    -3
390
0
  6
Continuous
100
AcDbLine
 10
-414.366989
 20
-357.242065
 30
0.0
 11
-414.366988
 21
-360.706163
 31
0.0
  0
LINE
  5
45A
100
AcDbEntity
  8
0
370
    -3
390
0
  6
Continuous
100
AcDbLine
 10
-420.366983
 20
-360.706158
 30
0.0
 11
-420.366984
 21
-357.24206
 31
0.0
  0
CIRCLE
  5
45B
100
AcDbEntity
  8
0
370
    -3
390
0
  6
Continuous
100
AcDbCircle
 10
-417.366986
 20
-358.974112
 30
0.0
 40
6.5
  0
CIRCLE
  5
45C
100
AcDbEntity
  8
0
370
    -3
390
0
  6
Continuous
100
AcDbCircle
 10
-417.366986
 20
-358.974112
 30
0.0
 40
5.633955
  0
LINE
  5
45D
100
AcDbEntity
  8
0
370
    -3
390
0
  6
CENTER
100
AcDbLine
 10
-658.668813
 20
-238.974112
 30
0.0
 11
-330.259094
 21
-238.974112
 31
0.0
  0
LINE
  5
45E
100
AcDbEntity
  8
0
370
    -3
390
0
  6
CENTER
100
AcDbLine
 10
-494.866986
 20
-24.245037
 30
0.0
 11
-494.866986
 21
-238.974112
 31
0.0
  0
LINE
  5
45F
100
AcDbEntity
  8
0
370
    -3
390
0
  6
CENTER
100
AcDbLine
 10
-517.610411
 20
-198.974112
 30
0.0
 11
-472.573313
 21
-198.974112
 31
0.0
  0
LINE
  5
460
100
AcDbEntity
  8
0
370
    -3
390
0
  6
Continuous
100
AcDbLine
 10
-359.866986
 20
-204.612284
 30
0.0
 11
-359.866986
 21
-207.744827
 31
0.0
  0
LINE
  5
461
100
AcDbEntity
  8
0
370
    -3
390
0
  6
Continuous
100
AcDbLine
 10
-367.47839
 20
-285.474112
 30
0.0
 11
-375.959002
 21
-317.189714
 31
0.0
  0
ARC
  5
462
100
AcDbEntity
  8
0
370
    -3
390
0
  6
Continuous
100
AcDbCircle
 10
-432.358746
 20
-176.465873
 30
0.0
 40
9.0
100
AcDbArc
 50
28.398469
 51
61.601548
  0
POINT
  5
463
100
AcDbEntity
  8
0
370
    -3
390
0
  6
Continuous
100
AcDbPoint
 10
-427.833263
 20
-171.94039
 30
0.0
  0
LINE
  5
464
100
AcDbEntity
  8
0
370
    -3
390
0
  6
Continuous
100
AcDbLine
 10
-425.358389
 20
-174.415263
 30
0.0
 11
-430.308137
 21
-169.465516
 31
0.0
  0
LINE
  5
465
100
AcDbEntity
  8
0
370
    -3
390
0
  6
Continuous
100
AcDbLine
 10
-425.358389
 20
-174.415263
 30
0.0
 11
-430.308137
 21
-169.465516
 31
0.0
  0
LINE
  5
466
100
AcDbEntity
  8
0
370
    -3
390
0
  6
Continuous
100
AcDbLine
 10
-430.308137
 20
-169.465516
 30
0.0
 11
-429.615861
 21
-168.77324
 31
0.0
  0
LINE
  5
467
100
AcDbEntity
  8
0
370
    -3
390
0
  6
Continuous
100
AcDbLine
 10
-425.358389
 20
-174.415263
 30
0.0
 11
-424.666114
 21
-173.722988
 31
0.0
  0
ARC
  5
468
100
AcDbEntity
  8
0
370
    -3
390
0
  6
Continuous
100
AcDbCircle
 10
-428.696623
 20
-169.692479
 30
0.0
 40
1.299999
100
AcDbArc
 50
61.601548
 51
135.000018
  0
ARC
  5
469
100
AcDbEntity
  8
0
370
    -3
390
0
  6
Continuous
100
AcDbCircle
 10
-425.585352
 20
-172.80375
 30
0.0
 40
1.299999
100
AcDbArc
 50
314.999999
 51
28.398469
  0
ARC
  5
46A
100
AcDbEntity
  8
0
370
    -3
390
0
  6
Continuous
100
AcDbCircle
 10
-557.375226
 20
-176.465873
 30
0.0
 40
9.0
100
AcDbArc
 50
118.398452
 51
151.601531
  0
POINT
  5
46B
100
AcDbEntity
  8
0
370
    -3
390
0
  6
Continuous
100
AcDbPoint
 10
-561.900709
 20
-171.94039
 30
0.0
  0
LINE
  5
46C
100
AcDbEntity
  8
0
370
    -3
390
0
  6
Continuous
100
AcDbLine
 10
-564.375582
 20
-174.415263
 30
0.0
 11
-559.425835
 21
-169.465516
 31
0.0
  0
LINE
  5
46D
100
AcDbEntity
  8
0
370
    -3
390
0
  6
Continuous
100
AcDbLine
 10
-564.375582
 20
-174.415263
 30
0.0
 11
-559.425835
 21
-169.465516
 31
0.0
  0
LINE
  5
46E
100
AcDbEntity
  8
0
370
    -3
390
0
  6
Continuous
100
AcDbLine
 10
-559.425835
 20
-169.465516
 30
0.0
 11
-560.11811
 21
-168.77324
 31
0.0
  0
LINE
  5
46F
100
AcDbEntity
  8
0
370
    -3
390
0
  6
Continuous
100
AcDbLine
 10
-564.375582
 20
-174.415263
 30
0.0
 11
-565.067858
 21
-173.722988
 31
0.0
  0
ARC
  5
470
100
AcDbEntity
  8
0
370
    -3
390
0
  6
Continuous
100
AcDbCircle
 10
-561.037349
 20
-169.692479
 30
0.0
 40
1.299999
100
AcDbArc
 50
44.999982
 51
118.398452
  0
ARC
  5
471
100
AcDbEntity
  8
0
370
    -3
390
0
  6
Continuous
100
AcDbCircle
 10
-564.14862
 20
-172.80375
 30
0.0
 40
1.299999
100
AcDbArc
 50
151.601531
 51
225.000001
  0
ARC
  5
472
100
AcDbEntity
  8
0
370
    -3
390
0
  6
Continuous
100
AcDbCircle
 10
-557.375226
 20
-301.482352
 30
0.0
 40
9.0
100
AcDbArc
 50
208.398469
 51
241.601548
  0
POINT
  5
473
100
AcDbEntity
  8
0
370
    -3
390
0
  6
Continuous
100
AcDbPoint
 10
-561.900709
 20
-306.007835
 30
0.0
  0
LINE
  5
474
100
AcDbEntity
  8
0
370
    -3
390
0
  6
Continuous
100
AcDbLine
 10
-564.375582
 20
-303.532962
 30
0.0
 11
-559.425835
 21
-308.482709
 31
0.0
  0
LINE
  5
475
100
AcDbEntity
  8
0
370
    -3
390
0
  6
Continuous
100
AcDbLine
 10
-564.375582
 20
-303.532962
 30
0.0
 11
-559.425835
 21
-308.482709
 31
0.0
  0
LINE
  5
476
100
AcDbEntity
  8
0
370
    -3
390
0
  6
Continuous
100
AcDbLine
 10
-559.425835
 20
-308.482709
 30
0.0
 11
-560.11811
 21
-309.174984
 31
0.0
  0
LINE
  5
477
100
AcDbEntity
  8
0
370
    -3
390
0
  6
Continuous
100
AcDbLine
 10
-564.375582
 20
-303.532962
 30
0.0
 11
-565.067858
 21
-304.225237
 31
0.0
  0
ARC
  5
478
100
AcDbEntity
  8
0
370
    -3
390
0
  6
Continuous
100
AcDbCircle
 10
-561.037349
 20
-308.255746
 30
0.0
 40
1.299999
100
AcDbArc
 50
241.601548
 51
315.000018
  0
ARC
  5
479
100
AcDbEntity
  8
0
370
    -3
390
0
  6
Continuous
100
AcDbCircle
 10
-564.14862
 20
-305.144475
 30
0.0
 40
1.299999
100
AcDbArc
 50
134.999999
 51
208.398469
  0
ARC
  5
47A
100
AcDbEntity
  8
0
370
    -3
390
0
  6
Continuous
100
AcDbCircle
 10
-432.358746
 20
-301.482352
 30
0.0
 40
9.0
100
AcDbArc
 50
298.398452
 51
331.601531
  0
POINT
  5
47B
100
AcDbEntity
  8
0
370
    -3
390
0
  6
Continuous
100
AcDbPoint
 10
-427.833263
 20
-306.007835
 30
0.0
  0
LINE
  5
47C
100
AcDbEntity
  8
0
370
    -3
390
0
  6
Continuous
100
AcDbLine
 10
-425.358389
 20
-303.532962
 30
0.0
 11
-430.308137
 21
-308.482709
 31
0.0
  0
LINE
  5
47D
100
AcDbEntity
  8
0
370
    -3
390
0
  6
Continuous
100
AcDbLine
 10
-425.358389
 20
-303.532962
 30
0.0
 11
-430.308137
 21
-308.482709
 31
0.0
  0
LINE
  5
47E
100
AcDbEntity
  8
0
370
    -3
390
0
  6
Continuous
100
AcDbLine
 10
-430.308137
 20
-308.482709
 30
0.0
 11
-429.615861
 21
-309.174984
 31
0.0
  0
LINE
  5
47F
100
AcDbEntity
  8
0
370
    -3
390
0
  6
Continuous
100
AcDbLine
 10
-425.358389
 20
-303.532962
 30
0.0
 11
-424.666114
 21
-304.225237
 31
0.0
  0
ARC
  5
480
100
AcDbEntity
  8
0
370
    -3
390
0
  6
Continuous
100
AcDbCircle
 10
-428.696623
 20
-308.255746
 30
0.0
 40
1.299999
100
AcDbArc
 50
224.999982
 51
298.398452
  0
ARC
  5
481
100
AcDbEntity
  8
0
370
    -3
390
0
  6
Continuous
100
AcDbCircle
 10
-425.585352
 20
-305.144475
 30
0.0
 40
1.299999
100
AcDbArc
 50
331.601531
 51
45.000001
  0
LINE
  5
482
100
AcDbEntity
  8
0
370
    -3
390
0
  6
Continuous
100
AcDbLine
 10
-429.615861
 20
-168.77324
 30
0.0
 11
-393.426638
 21
-132.584017
 31
0.0
  0
LINE
  5
483
100
AcDbEntity
  8
0
370
    -3
390
0
  6
Continuous
100
AcDbLine
 10
-424.666114
 20
-173.722988
 30
0.0
 11
-389.238784
 21
-138.295658
 31
0.0
  0
ARC
  5
484
100
AcDbEntity
  8
0
370
    -3
390
0
  6
Continuous
100
AcDbCircle
 10
-486.366986
 20
-150.474112
 30
0.0
 40
5.0
100
AcDbArc
 50
180.0
 51
194.087879
  0
ARC
  5
485
100
AcDbEntity
  8
0
370
    -3
390
0
  6
Continuous
100
AcDbCircle
 10
-503.366986
 20
-150.474112
 30
0.0
 40
5.0
100
AcDbArc
 50
345.912121
 51
0.0
  0
LINE
  5
486
100
AcDbEntity
  8
0
370
    -3
390
0
  6
Continuous
100
AcDbLine
 10
-560.11811
 20
-168.77324
 30
0.0
 11
-596.307334
 21
-132.584017
 31
0.0
  0
LINE
  5
487
100
AcDbEntity
  8
0
370
    -3
390
0
  6
Continuous
100
AcDbLine
 10
-565.067858
 20
-173.722988
 30
0.0
 11
-600.495188
 21
-138.295658
 31
0.0
  0
LINE
  5
488
100
AcDbEntity
  8
0
370
    -3
390
0
  6
Continuous
100
AcDbLine
 10
-565.067858
 20
-304.225237
 30
0.0
 11
-596.724943
 21
-335.882322
 31
0.0
  0
ARC
  5
489
100
AcDbEntity
  8
0
370
    -3
390
0
  6
Continuous
100
AcDbCircle
 10
-526.061915
 20
-297.136612
 30
0.0
 40
32.0
100
AcDbArc
 50
201.710622
 51
296.004303
  0
ARC
  5
48A
100
AcDbEntity
  8
0
370
    -3
390
0
  6
Continuous
100
AcDbCircle
 10
-448.315334
 20
-290.854163
 30
0.0
 40
44.0
100
AcDbArc
 50
319.912288
 51
28.233717
  0
ARC
  5
48B
100
AcDbEntity
  8
0
370
    -3
390
0
  6
Continuous
100
AcDbCircle
 10
-448.315334
 20
-290.854163
 30
0.0
 40
44.0
100
AcDbArc
 50
232.520831
 51
319.912288
  0
ARC
  5
48C
100
AcDbEntity
  8
0
370
    -3
390
0
  6
Continuous
100
AcDbCircle
 10
310.909353
 20
186.729483
 30
0.0
 40
0.4
100
AcDbArc
 50
270.0
 51
0.0
  0
LINE
  5
48D
100
AcDbEntity
  8
0
370
    -3
390
0
  6
Continuous
100
AcDbLine
 10
310.909353
 20
186.329483
 30
0.0
 11
238.869161
 21
186.329483
 31
0.0
  0
LINE
  5
48E
100
AcDbEntity
  8
0
370
    -3
390
0
  6
Continuous
100
AcDbLine
 10
311.309353
 20
210.329483
 30
0.0
 11
311.309353
 21
182.829483
 31
0.0
  0
LINE
  5
48F
100
AcDbEntity
  8
0
370
    -3
390
0
  6
Continuous
100
AcDbLine
 10
311.309353
 20
182.829483
 30
0.0
 11
241.309353
 21
182.829483
 31
0.0
  0
ARC
  5
490
100
AcDbEntity
  8
0
370
    -3
390
0
  6
Continuous
100
AcDbCircle
 10
310.909353
 20
233.929483
 30
0.0
 40
0.4
100
AcDbArc
 50
0.0
 51
90.0
  0
LINE
  5
491
100
AcDbEntity
  8
0
370
    -3
390
0
  6
Continuous
100
AcDbLine
 10
311.309353
 20
210.329483
 30
0.0
 11
311.309353
 21
233.929483
 31
0.0
  0
LINE
  5
492
100
AcDbEntity
  8
0
370
    -3
390
0
  6
Continuous
100
AcDbLine
 10
310.909353
 20
234.329483
 30
0.0
 11
238.869161
 21
234.329483
 31
0.0
  0
LINE
  5
493
100
AcDbEntity
  8
0
370
    -3
390
0
  6
Continuous
100
AcDbLine
 10
236.309353
 20
185.529483
 30
0.0
 11
236.109353
 21
185.329483
 31
0.0
  0
ARC
  5
494
100
AcDbEntity
  8
0
370
    -3
390
0
  6
Continuous
100
AcDbCircle
 10
237.109353
 20
185.679483
 30
0.0
 40
0.8
100
AcDbArc
 50
90.0
 51
180.0
  0
LINE
  5
495
100
AcDbEntity
  8
0
370
    -3
390
0
  6
Continuous
100
AcDbLine
 10
236.309353
 20
185.679483
 30
0.0
 11
236.309353
 21
185.529483
 31
0.0
  0
LINE
  5
496
100
AcDbEntity
  8
0
370
    -3
390
0
  6
Continuous
100
AcDbLine
 10
238.309353
 20
186.479483
 30
0.0
 11
237.109353
 21
186.479483
 31
0.0
  0
LINE
  5
497
100
AcDbEntity
  8
0
370
    -3
390
0
  6
Continuous
100
AcDbLine
 10
238.309353
 20
186.479483
 30
0.0
 11
238.869161
 21
186.329483
 31
0.0
  0
LINE
  5
498
100
AcDbEntity
  8
0
370
    -3
390
0
  6
Continuous
100
AcDbLine
 10
236.109353
 20
185.329483
 30
0.0
 11
234.309353
 21
185.329483
 31
0.0
  0
LINE
  5
499
100
AcDbEntity
  8
0
370
    -3
390
0
  6
Continuous
100
AcDbLine
 10
236.309353
 20
210.329483
 30
0.0
 11
236.309353
 21
185.679483
 31
0.0
  0
LINE
  5
49A
100
AcDbEntity
  8
0
370
    -3
390
0
  6
Continuous
100
AcDbLine
 10
236.309353
 20
235.129483
 30
0.0
 11
236.109353
 21
235.329483
 31
0.0
  0
ARC
  5
49B
100
AcDbEntity
  8
0
370
    -3
390
0
  6
Continuous
100
AcDbCircle
 10
237.109353
 20
234.979483
 30
0.0
 40
0.8
100
AcDbArc
 50
180.0
 51
270.0
  0
LINE
  5
49C
100
AcDbEntity
  8
0
370
    -3
390
0
  6
Continuous
100
AcDbLine
 10
236.309353
 20
234.979483
 30
0.0
 11
236.309353
 21
235.129483
 31
0.0
  0
LINE
  5
49D
100
AcDbEntity
  8
0
370
    -3
390
0
  6
Continuous
100
AcDbLine
 10
238.309353
 20
234.179483
 30
0.0
 11
237.109353
 21
234.179483
 31
0.0
  0
LINE
  5
49E
100
AcDbEntity
  8
0
370
    -3
390
0
  6
Continuous
100
AcDbLine
 10
238.309353
 20
234.179483
 30
0.0
 11
238.869161
 21
234.329483
 31
0.0
  0
LINE
  5
49F
100
AcDbEntity
  8
0
370
    -3
390
0
  6
Continuous
100
AcDbLine
 10
236.109353
 20
235.329483
 30
0.0
 11
234.309353
 21
235.329483
 31
0.0
  0
LINE
  5
4A0
100
AcDbEntity
  8
0
370
    -3
390
0
  6
Continuous
100
AcDbLine
 10
236.309353
 20
210.329483
 30
0.0
 11
236.309353
 21
234.979483
 31
0.0
  0
LINE
  5
4A1
100
AcDbEntity
  8
0
370
    -3
390
0
  6
Continuous
100
AcDbLine
 10
241.309353
 20
182.829483
 30
0.0
 11
241.309353
 21
186.329483
 31
0.0
  0
LINE
  5
4A2
100
AcDbEntity
  8
0
370
    -3
390
0
  6
Continuous
100
AcDbLine
 10
217.809353
 20
210.329483
 30
0.0
 11
217.809353
 21
90.184822
 31
0.0
  0
LINE
  5
4A3
100
AcDbEntity
  8
0
370
    -3
390
0
  6
Continuous
100
AcDbLine
 10
217.809353
 20
210.329483
 30
0.0
 11
217.809353
 21
330.474144
 31
0.0
  0
LINE
  5
4A4
100
AcDbEntity
  8
0
370
    -3
390
0
  6
Continuous
100
AcDbLine
 10
224.809353
 20
297.234317
 30
0.0
 11
219.809353
 21
297.234317
 31
0.0
  0
LINE
  5
4A5
100
AcDbEntity
  8
0
370
    -3
390
0
  6
Continuous
100
AcDbLine
 10
224.809353
 20
332.474144
 30
0.0
 11
219.809353
 21
332.474144
 31
0.0
  0
ARC
  5
4A6
100
AcDbEntity
  8
0
370
    -3
390
0
  6
Continuous
100
AcDbCircle
 10
219.809353
 20
330.474144
 30
0.0
 40
2.0
100
AcDbArc
 50
90.0
 51
180.0
  0
ARC
  5
4A7
100
AcDbEntity
  8
0
370
    -3
390
0
  6
Continuous
100
AcDbCircle
 10
219.809353
 20
295.234317
 30
0.0
 40
2.0
100
AcDbArc
 50
90.0
 51
180.0
  0
LINE
  5
4A8
100
AcDbEntity
  8
0
370
    -3
390
0
  6
Continuous
100
AcDbLine
 10
224.809353
 20
123.424649
 30
0.0
 11
219.809353
 21
123.424649
 31
0.0
  0
LINE
  5
4A9
100
AcDbEntity
  8
0
370
    -3
390
0
  6
Continuous
100
AcDbLine
 10
224.809353
 20
88.184822
 30
0.0
 11
219.809353
 21
88.184822
 31
0.0
  0
ARC
  5
4AA
100
AcDbEntity
  8
0
370
    -3
390
0
  6
Continuous
100
AcDbCircle
 10
219.809353
 20
90.184822
 30
0.0
 40
2.0
100
AcDbArc
 50
180.0
 51
270.0
  0
ARC
  5
4AB
100
AcDbEntity
  8
0
370
    -3
390
0
  6
Continuous
100
AcDbCircle
 10
219.809353
 20
125.424649
 30
0.0
 40
2.0
100
AcDbArc
 50
180.0
 51
270.0
  0
LINE
  5
4AC
100
AcDbEntity
  8
0
370
    -3
390
0
  6
Continuous
100
AcDbLine
 10
88.809353
 20
75.329483
 30
0.0
 11
88.809353
 21
345.329483
 31
0.0
  0
LINE
  5
4AD
100
AcDbEntity
  8
0
370
    -3
390
0
  6
Continuous
100
AcDbLine
 10
88.809353
 20
75.329483
 30
0.0
 11
88.809353
 21
315.346944
 31
0.0
  0
LINE
  5
4AE
100
AcDbEntity
  8
0
370
    -3
390
0
  6
Continuous
100
AcDbLine
 10
199.983851
 20
71.447184
 30
0.0
 11
88.809049
 21
75.329494
 31
0.0
  0
ARC
  5
4AF
100
AcDbEntity
  8
0
370
    -3
390
0
  6
Continuous
100
AcDbCircle
 10
199.809353
 20
66.45023
 30
0.0
 40
5.0
100
AcDbArc
 50
0.0
 51
88.0
  0
LINE
  5
4B0
100
AcDbEntity
  8
0
370
    -3
390
0
  6
Continuous
100
AcDbLine
 10
199.983851
 20
349.211782
 30
0.0
 11
88.809049
 21
345.329473
 31
0.0
  0
ARC
  5
4B1
100
AcDbEntity
  8
0
370
    -3
390
0
  6
Continuous
100
AcDbCircle
 10
199.809353
 20
354.208736
 30
0.0
 40
5.0
100
AcDbArc
 50
272.0
 51
0.0
  0
LINE
  5
4B2
100
AcDbEntity
  8
0
370
    -3
390
0
  6
CENTER
100
AcDbLine
 10
242.947223
 20
75.979195
 30
0.0
 11
190.792178
 21
75.979195
 31
0.0
  0
LINE
  5
4B3
100
AcDbEntity
  8
0
370
    -3
390
0
  6
CENTER
100
AcDbLine
 10
242.947223
 20
344.679772
 30
0.0
 11
190.792178
 21
344.679772
 31
0.0
  0
LINE
  5
4B4
100
AcDbEntity
  8
0
370
    -3
390
0
  6
Continuous
100
AcDbLine
 10
204.809353
 20
55.829483
 30
0.0
 11
204.809353
 21
364.829483
 31
0.0
  0
LINE
  5
4B5
100
AcDbEntity
  8
0
370
    -3
390
0
  6
CENTER
100
AcDbLine
 10
321.201071
 20
210.329483
 30
0.0
 11
-270.318035
 21
210.329483
 31
0.0
  0
ARC
  5
4B6
100
AcDbEntity
  8
0
370
    -3
390
0
  6
Continuous
100
AcDbCircle
 10
232.809353
 20
136.977837
 30
0.0
 40
5.0
100
AcDbArc
 50
123.367013
 51
143.130102
  0
LINE
  5
4B7
100
AcDbEntity
  8
0
370
    -3
390
0
  6
Continuous
100
AcDbLine
 10
224.809353
 20
210.329483
 30
0.0
 11
224.809353
 21
52.829483
 31
0.0
  0
LINE
  5
4B8
100
AcDbEntity
  8
0
370
    -3
390
0
  6
Continuous
100
AcDbLine
 10
228.809353
 20
210.329483
 30
0.0
 11
228.809353
 21
66.329483
 31
0.0
  0
LINE
  5
4B9
100
AcDbEntity
  8
0
370
    -3
390
0
  6
Continuous
100
AcDbLine
 10
232.309353
 20
210.329483
 30
0.0
 11
232.309353
 21
145.329483
 31
0.0
  0
LINE
  5
4BA
100
AcDbEntity
  8
0
370
    -3
390
0
  6
Continuous
100
AcDbLine
 10
224.809353
 20
52.829483
 30
0.0
 11
207.809353
 21
52.829483
 31
0.0
  0
ARC
  5
4BB
100
AcDbEntity
  8
0
370
    -3
390
0
  6
Continuous
100
AcDbCircle
 10
207.809353
 20
55.829483
 30
0.0
 40
3.0
100
AcDbArc
 50
180.0
 51
270.0
  0
ARC
  5
4BC
100
AcDbEntity
  8
0
370
    -3
390
0
  6
Continuous
100
AcDbCircle
 10
227.309353
 20
275.58466
 30
0.0
 40
5.0
100
AcDbArc
 50
0.0
 51
72.542397
  0
LINE
  5
4BD
100
AcDbEntity
  8
0
370
    -3
390
0
  6
Continuous
100
AcDbLine
 10
228.809353
 20
210.329483
 30
0.0
 11
228.809353
 21
354.329483
 31
0.0
  0
LINE
  5
4BE
100
AcDbEntity
  8
0
370
    -3
390
0
  6
Continuous
100
AcDbLine
 10
232.309353
 20
210.329483
 30
0.0
 11
232.309353
 21
275.58466
 31
0.0
  0
LINE
  5
4BF
100
AcDbEntity
  8
0
370
    -3
390
0
  6
Continuous
100
AcDbLine
 10
224.809353
 20
210.329483
 30
0.0
 11
224.809353
 21
367.829483
 31
0.0
  0
ARC
  5
4C0
100
AcDbEntity
  8
0
370
    -3
390
0
  6
Continuous
100
AcDbCircle
 10
233.309353
 20
165.329483
 30
0.0
 40
1.0
100
AcDbArc
 50
90.0
 51
180.0
  0
ARC
  5
4C1
100
AcDbEntity
  8
0
370
    -3
390
0
  6
Continuous
100
AcDbCircle
 10
233.309353
 20
255.329483
 30
0.0
 40
1.0
100
AcDbArc
 50
180.0
 51
270.0
  0
ARC
  5
4C2
100
AcDbEntity
  8
0
370
    -3
390
0
  6
Continuous
100
AcDbCircle
 10
207.809353
 20
364.829483
 30
0.0
 40
3.0
100
AcDbArc
 50
90.0
 51
180.0
  0
ARC
  5
4C3
100
AcDbEntity
  8
0
370
    -3
390
0
  6
Continuous
100
AcDbCircle
 10
227.309353
 20
145.329483
 30
0.0
 40
5.0
100
AcDbArc
 50
303.367013
 51
0.0
  0
LINE
  5
4C4
100
AcDbEntity
  8
0
370
    -3
390
0
  6
Continuous
100
AcDbLine
 10
227.809353
 20
65.329483
 30
0.0
 11
224.809353
 21
65.329483
 31
0.0
  0
LINE
  5
4C5
100
AcDbEntity
  8
0
370
    -3
390
0
  6
Continuous
100
AcDbLine
 10
224.809353
 20
367.829483
 30
0.0
 11
207.809353
 21
367.829483
 31
0.0
  0
LINE
  5
4C6
100
AcDbEntity
  8
0
370
    -3
390
0
  6
Continuous
100
AcDbLine
 10
227.809353
 20
355.329483
 30
0.0
 11
224.809353
 21
355.329483
 31
0.0
  0
LINE
  5
4C7
100
AcDbEntity
  8
0
370
    -3
390
0
  6
Continuous
100
AcDbLine
 10
234.309353
 20
166.329483
 30
0.0
 11
234.309353
 21
254.329483
 31
0.0
  0
LINE
  5
4C8
100
AcDbEntity
  8
0
370
    -3
390
0
  6
Continuous
100
AcDbLine
 10
228.809353
 20
66.329483
 30
0.0
 11
227.809353
 21
65.329483
 31
0.0
  0
LINE
  5
4C9
100
AcDbEntity
  8
0
370
    -3
390
0
  6
Continuous
100
AcDbLine
 10
228.809353
 20
354.329483
 30
0.0
 11
227.809353
 21
355.329483
 31
0.0
  0
LINE
  5
4CA
100
AcDbEntity
  8
0
370
    -3
390
0
  6
Continuous
100
AcDbLine
 10
233.309353
 20
254.329483
 30
0.0
 11
234.309353
 21
254.329483
 31
0.0
  0
LINE
  5
4CB
100
AcDbEntity
  8
0
370
    -3
390
0
  6
Continuous
100
AcDbLine
 10
233.309353
 20
166.329483
 30
0.0
 11
234.309353
 21
166.329483
 31
0.0
  0
LINE
  5
4CC
100
AcDbEntity
  8
0
370
    -3
390
0
  6
Continuous
100
AcDbLine
 10
200.059749
 20
292.470066
 30
0.0
 11
172.587371
 21
292.470066
 31
0.0
  0
LINE
  5
4CD
100
AcDbEntity
  8
0
370
    -3
390
0
  6
Continuous
100
AcDbLine
 10
168.868103
 20
302.252763
 30
0.0
 11
202.730683
 21
326.631358
 31
0.0
  0
ARC
  5
4CE
100
AcDbEntity
  8
0
370
    -3
390
0
  6
Continuous
100
AcDbCircle
 10
199.809353
 20
330.68917
 30
0.0
 40
5.0
100
AcDbArc
 50
305.751143
 51
0.0
  0
ARC
  5
4CF
100
AcDbEntity
  8
0
370
    -3
390
0
  6
Continuous
100
AcDbCircle
 10
165.946773
 20
306.310574
 30
0.0
 40
5.0
100
AcDbArc
 50
270.0
 51
305.751143
  0
ARC
  5
4D0
100
AcDbEntity
  8
0
370
    -3
390
0
  6
Continuous
100
AcDbCircle
 10
199.809353
 20
321.848661
 30
0.0
 40
5.0
100
AcDbArc
 50
305.751143
 51
0.0
  0
LINE
  5
4D1
100
AcDbEntity
  8
0
370
    -3
390
0
  6
Continuous
100
AcDbLine
 10
168.868103
 20
293.412254
 30
0.0
 11
202.730683
 21
317.790849
 31
0.0
  0
ARC
  5
4D2
100
AcDbEntity
  8
0
370
    -3
390
0
  6
Continuous
100
AcDbCircle
 10
165.946773
 20
297.470066
 30
0.0
 40
5.0
100
AcDbArc
 50
270.0
 51
305.751143
  0
ARC
  5
4D3
100
AcDbEntity
  8
0
370
    -3
390
0
  6
Continuous
100
AcDbCircle
 10
199.809353
 20
201.829483
 30
0.0
 40
5.0
100
AcDbArc
 50
0.0
 51
90.0
  0
LINE
  5
4D4
100
AcDbEntity
  8
0
370
    -3
390
0
  6
Continuous
100
AcDbLine
 10
199.809353
 20
206.829483
 30
0.0
 11
172.559375
 21
206.829483
 31
0.0
  0
ARC
  5
4D5
100
AcDbEntity
  8
0
370
    -3
390
0
  6
Continuous
100
AcDbCircle
 10
199.809353
 20
218.829483
 30
0.0
 40
5.0
100
AcDbArc
 50
270.0
 51
0.0
  0
LINE
  5
4D6
100
AcDbEntity
  8
0
370
    -3
390
0
  6
Continuous
100
AcDbLine
 10
199.809353
 20
213.829483
 30
0.0
 11
172.559375
 21
213.829483
 31
0.0
  0
ARC
  5
4D7
100
AcDbEntity
  8
0
370
    -3
390
0
  6
Continuous
100
AcDbCircle
 10
172.559375
 20
218.829483
 30
0.0
 40
5.0
100
AcDbArc
 50
180.0
 51
270.0
  0
ARC
  5
4D8
100
AcDbEntity
  8
0
370
    -3
390
0
  6
Continuous
100
AcDbCircle
 10
172.559375
 20
201.829483
 30
0.0
 40
5.0
100
AcDbArc
 50
90.0
 51
180.0
  0
LINE
  5
4D9
100
AcDbEntity
  8
0
370
    -3
390
0
  6
Continuous
100
AcDbLine
 10
200.059749
 20
128.188901
 30
0.0
 11
172.587371
 21
128.188901
 31
0.0
  0
LINE
  5
4DA
100
AcDbEntity
  8
0
370
    -3
390
0
  6
Continuous
100
AcDbLine
 10
168.868103
 20
118.406204
 30
0.0
 11
202.730683
 21
94.027608
 31
0.0
  0
ARC
  5
4DB
100
AcDbEntity
  8
0
370
    -3
390
0
  6
Continuous
100
AcDbCircle
 10
199.809353
 20
89.969797
 30
0.0
 40
5.0
100
AcDbArc
 50
0.0
 51
54.248857
  0
ARC
  5
4DC
100
AcDbEntity
  8
0
370
    -3
390
0
  6
Continuous
100
AcDbCircle
 10
165.946773
 20
114.348392
 30
0.0
 40
5.0
100
AcDbArc
 50
54.248857
 51
90.0
  0
ARC
  5
4DD
100
AcDbEntity
  8
0
370
    -3
390
0
  6
Continuous
100
AcDbCircle
 10
199.809353
 20
98.810305
 30
0.0
 40
5.0
100
AcDbArc
 50
0.0
 51
54.248857
  0
LINE
  5
4DE
100
AcDbEntity
  8
0
370
    -3
390
0
  6
Continuous
100
AcDbLine
 10
168.868103
 20
127.246712
 30
0.0
 11
202.730683
 21
102.868117
 31
0.0
  0
ARC
  5
4DF
100
AcDbEntity
  8
0
370
    -3
390
0
  6
Continuous
100
AcDbCircle
 10
165.946773
 20
123.188901
 30
0.0
 40
5.0
100
AcDbArc
 50
54.248857
 51
90.0
  0
LINE
  5
4E0
100
AcDbEntity
  8
0
370
    -3
390
0
  6
Continuous
100
AcDbLine
 10
67.822665
 20
294.354259
 30
0.0
 11
59.704681
 21
293.928813
 31
0.0
  0
ARC
  5
4E1
100
AcDbEntity
  8
0
370
    -3
390
0
  6
Continuous
100
AcDbCircle
 10
74.309353
 20
316.371443
 30
0.0
 40
3.0
100
AcDbArc
 50
38.028903
 51
80.405932
  0
LINE
  5
4E2
100
AcDbEntity
  8
0
370
    -3
390
0
  6
Continuous
100
AcDbLine
 10
61.535029
 20
277.398293
 30
0.0
 11
77.122186
 21
319.432421
 31
0.0
  0
ARC
  5
4E3
100
AcDbEntity
  8
0
370
    -3
390
0
  6
Continuous
100
AcDbCircle
 10
74.309353
 20
320.47548
 30
0.0
 40
3.0
100
AcDbArc
 50
339.654138
 51
0.0
  0
ARC
  5
4E4
100
AcDbEntity
  8
0
370
    -3
390
0
  6
Continuous
100
AcDbCircle
 10
58.722196
 20
278.441352
 30
0.0
 40
3.0
100
AcDbArc
 50
270.0
 51
339.654138
  0
LINE
  5
4E5
100
AcDbEntity
  8
0
370
    -3
390
0
  6
Continuous
100
AcDbLine
 10
61.535029
 20
270.790174
 30
0.0
 11
75.563906
 21
270.790174
 31
0.0
  0
ARC
  5
4E6
100
AcDbEntity
  8
0
370
    -3
390
0
  6
Continuous
100
AcDbCircle
 10
58.722196
 20
273.790174
 30
0.0
 40
3.0
100
AcDbArc
 50
270.0
 51
339.654138
  0
LINE
  5
4E7
100
AcDbEntity
  8
0
370
    -3
390
0
  6
Continuous
100
AcDbLine
 10
61.535029
 20
272.747115
 30
0.0
 11
77.122186
 21
314.781243
 31
0.0
  0
ARC
  5
4E8
100
AcDbEntity
  8
0
370
    -3
390
0
  6
Continuous
100
AcDbCircle
 10
74.309353
 20
315.824302
 30
0.0
 40
3.0
100
AcDbArc
 50
339.654138
 51
0.0
  0
LINE
  5
4E9
100
AcDbEntity
  8
0
370
    -3
390
0
  6
Continuous
100
AcDbLine
 10
55.809353
 20
210.329483
 30
0.0
 11
55.809353
 21
214.329483
 31
0.0
  0
LINE
  5
4EA
100
AcDbEntity
  8
0
370
    -3
390
0
  6
Continuous
100
AcDbLine
 10
57.809353
 20
227.329483
 30
0.0
 11
57.809353
 21
291.931554
 31
0.0
  0
LINE
  5
4EB
100
AcDbEntity
  8
0
370
    -3
390
0
  6
Continuous
100
AcDbLine
 10
57.809353
 20
210.329483
 30
0.0
 11
57.809353
 21
214.329483
 31
0.0
  0
ARC
  5
4EC
100
AcDbEntity
  8
0
370
    -3
390
0
  6
Continuous
100
AcDbCircle
 10
55.809353
 20
283.329483
 30
0.0
 40
2.0
100
AcDbArc
 50
270.0
 51
0.0
  0
ARC
  5
4ED
100
AcDbEntity
  8
0
370
    -3
390
0
  6
Continuous
100
AcDbCircle
 10
59.809353
 20
291.931554
 30
0.0
 40
2.0
100
AcDbArc
 50
93.0
 51
180.0
  0
LINE
  5
4EE
100
AcDbEntity
  8
0
370
    -3
390
0
  6
Continuous
100
AcDbLine
 10
72.309353
 20
324.829483
 30
0.0
 11
72.309353
 21
322.287523
 31
0.0
  0
LINE
  5
4EF
100
AcDbEntity
  8
0
370
    -3
390
0
  6
Continuous
100
AcDbLine
 10
72.309353
 20
343.329483
 30
0.0
 11
72.309353
 21
337.829483
 31
0.0
  0
LINE
  5
4F0
100
AcDbEntity
  8
0
370
    -3
390
0
  6
Continuous
100
AcDbLine
 10
60.809353
 20
210.329483
 30
0.0
 11
60.809353
 21
230.829483
 31
0.0
  0
LINE
  5
4F1
100
AcDbEntity
  8
0
370
    -3
390
0
  6
Continuous
100
AcDbLine
 10
65.309353
 20
230.829483
 30
0.0
 11
60.809353
 21
230.829483
 31
0.0
  0
LINE
  5
4F2
100
AcDbEntity
  8
0
370
    -3
390
0
  6
Continuous
100
AcDbLine
 10
65.309353
 20
210.329483
 30
0.0
 11
65.309353
 21
230.829483
 31
0.0
  0
ARC
  5
4F3
100
AcDbEntity
  8
0
370
    -3
390
0
  6
Continuous
100
AcDbCircle
 10
68.309353
 20
228.037179
 30
0.0
 40
3.0
100
AcDbArc
 50
92.0
 51
180.0
  0
LINE
  5
4F4
100
AcDbEntity
  8
0
370
    -3
390
0
  6
Continuous
100
AcDbLine
 10
72.483851
 20
231.184784
 30
0.0
 11
68.204655
 21
231.035352
 31
0.0
  0
ARC
  5
4F5
100
AcDbEntity
  8
0
370
    -3
390
0
  6
Continuous
100
AcDbCircle
 10
72.309353
 20
236.181739
 30
0.0
 40
5.0
100
AcDbArc
 50
272.0
 51
0.0
  0
ARC
  5
4F6
100
AcDbEntity
  8
0
370
    -3
390
0
  6
Continuous
100
AcDbCircle
 10
74.309353
 20
343.329483
 30
0.0
 40
2.0
100
AcDbArc
 50
90.0
 51
180.0
  0
LINE
  5
4F7
100
AcDbEntity
  8
0
370
    -3
390
0
  6
Continuous
100
AcDbLine
 10
74.309353
 20
345.329483
 30
0.0
 11
88.809353
 21
345.329483
 31
0.0
  0
ARC
  5
4F8
100
AcDbEntity
  8
0
370
    -3
390
0
  6
Continuous
100
AcDbCircle
 10
75.309353
 20
322.287523
 30
0.0
 40
3.0
100
AcDbArc
 50
180.0
 51
260.405932
  0
LINE
  5
4F9
100
AcDbEntity
  8
0
370
    -3
390
0
  6
Continuous
100
AcDbLine
 10
77.309353
 20
210.329483
 30
0.0
 11
77.309353
 21
343.329483
 31
0.0
  0
LINE
  5
4FA
100
AcDbEntity
  8
0
370
    -3
390
0
  6
Continuous
100
AcDbLine
 10
88.309353
 20
210.329483
 30
0.0
 11
88.309353
 21
345.329483
 31
0.0
  0
ARC
  5
4FB
100
AcDbEntity
  8
0
370
    -3
390
0
  6
Continuous
100
AcDbCircle
 10
79.309353
 20
343.329483
 30
0.0
 40
2.0
100
AcDbArc
 50
90.0
 51
180.0
  0
LINE
  5
4FC
100
AcDbEntity
  8
0
370
    -3
390
0
  6
Continuous
100
AcDbLine
 10
67.822665
 20
126.304708
 30
0.0
 11
59.704681
 21
126.730153
 31
0.0
  0
ARC
  5
4FD
100
AcDbEntity
  8
0
370
    -3
390
0
  6
Continuous
100
AcDbCircle
 10
74.309353
 20
104.287523
 30
0.0
 40
3.0
100
AcDbArc
 50
279.594068
 51
321.971097
  0
LINE
  5
4FE
100
AcDbEntity
  8
0
370
    -3
390
0
  6
Continuous
100
AcDbLine
 10
61.535029
 20
143.260674
 30
0.0
 11
77.122186
 21
101.226546
 31
0.0
  0
ARC
  5
4FF
100
AcDbEntity
  8
0
370
    -3
390
0
  6
Continuous
100
AcDbCircle
 10
74.309353
 20
100.183487
 30
0.0
 40
3.0
100
AcDbArc
 50
0.0
 51
20.345862
  0
ARC
  5
500
100
AcDbEntity
  8
0
370
    -3
390
0
  6
Continuous
100
AcDbCircle
 10
58.722196
 20
142.217615
 30
0.0
 40
3.0
100
AcDbArc
 50
20.345862
 51
90.0
  0
LINE
  5
501
100
AcDbEntity
  8
0
370
    -3
390
0
  6
Continuous
100
AcDbLine
 10
61.535029
 20
149.868793
 30
0.0
 11
75.563906
 21
149.868793
 31
0.0
  0
ARC
  5
502
100
AcDbEntity
  8
0
370
    -3
390
0
  6
Continuous
100
AcDbCircle
 10
58.722196
 20
146.868793
 30
0.0
 40
3.0
100
AcDbArc
 50
20.345862
 51
90.0
  0
LINE
  5
503
100
AcDbEntity
  8
0
370
    -3
390
0
  6
Continuous
100
AcDbLine
 10
61.535029
 20
147.911852
 30
0.0
 11
77.122186
 21
105.877723
 31
0.0
  0
ARC
  5
504
100
AcDbEntity
  8
0
370
    -3
390
0
  6
Continuous
100
AcDbCircle
 10
74.309353
 20
104.834665
 30
0.0
 40
3.0
100
AcDbArc
 50
0.0
 51
20.345862
  0
LINE
  5
505
100
AcDbEntity
  8
0
370
    -3
390
0
  6
Continuous
100
AcDbLine
 10
55.809353
 20
210.329483
 30
0.0
 11
55.809353
 21
206.329483
 31
0.0
  0
LINE
  5
506
100
AcDbEntity
  8
0
370
    -3
390
0
  6
Continuous
100
AcDbLine
 10
57.809353
 20
193.329483
 30
0.0
 11
57.809353
 21
128.727412
 31
0.0
  0
LINE
  5
507
100
AcDbEntity
  8
0
370
    -3
390
0
  6
Continuous
100
AcDbLine
 10
57.809353
 20
210.329483
 30
0.0
 11
57.809353
 21
206.329483
 31
0.0
  0
ARC
  5
508
100
AcDbEntity
  8
0
370
    -3
390
0
  6
Continuous
100
AcDbCircle
 10
55.809353
 20
137.329483
 30
0.0
 40
2.0
100
AcDbArc
 50
0.0
 51
90.0
  0
ARC
  5
509
100
AcDbEntity
  8
0
370
    -3
390
0
  6
Continuous
100
AcDbCircle
 10
59.809353
 20
128.727412
 30
0.0
 40
2.0
100
AcDbArc
 50
180.0
 51
267.0
  0
LINE
  5
50A
100
AcDbEntity
  8
0
370
    -3
390
0
  6
Continuous
100
AcDbLine
 10
72.309353
 20
95.829483
 30
0.0
 11
72.309353
 21
98.371443
 31
0.0
  0
LINE
  5
50B
100
AcDbEntity
  8
0
370
    -3
390
0
  6
Continuous
100
AcDbLine
 10
72.309353
 20
77.329483
 30
0.0
 11
72.309353
 21
82.829483
 31
0.0
  0
LINE
  5
50C
100
AcDbEntity
  8
0
370
    -3
390
0
  6
Continuous
100
AcDbLine
 10
60.809353
 20
210.329483
 30
0.0
 11
60.809353
 21
189.829483
 31
0.0
  0
LINE
  5
50D
100
AcDbEntity
  8
0
370
    -3
390
0
  6
Continuous
100
AcDbLine
 10
65.309353
 20
189.829483
 30
0.0
 11
60.809353
 21
189.829483
 31
0.0
  0
LINE
  5
50E
100
AcDbEntity
  8
0
370
    -3
390
0
  6
Continuous
100
AcDbLine
 10
65.309353
 20
210.329483
 30
0.0
 11
65.309353
 21
189.829483
 31
0.0
  0
ARC
  5
50F
100
AcDbEntity
  8
0
370
    -3
390
0
  6
Continuous
100
AcDbCircle
 10
68.309353
 20
192.621787
 30
0.0
 40
3.0
100
AcDbArc
 50
180.0
 51
268.0
  0
LINE
  5
510
100
AcDbEntity
  8
0
370
    -3
390
0
  6
Continuous
100
AcDbLine
 10
72.483851
 20
189.474182
 30
0.0
 11
68.204655
 21
189.623615
 31
0.0
  0
ARC
  5
511
100
AcDbEntity
  8
0
370
    -3
390
0
  6
Continuous
100
AcDbCircle
 10
72.309353
 20
184.477228
 30
0.0
 40
5.0
100
AcDbArc
 50
0.0
 51
88.0
  0
ARC
  5
512
100
AcDbEntity
  8
0
370
    -3
390
0
  6
Continuous
100
AcDbCircle
 10
74.309353
 20
77.329483
 30
0.0
 40
2.0
100
AcDbArc
 50
180.0
 51
270.0
  0
LINE
  5
513
100
AcDbEntity
  8
0
370
    -3
390
0
  6
Continuous
100
AcDbLine
 10
74.309353
 20
75.329483
 30
0.0
 11
88.809353
 21
75.329483
 31
0.0
  0
ARC
  5
514
100
AcDbEntity
  8
0
370
    -3
390
0
  6
Continuous
100
AcDbCircle
 10
75.309353
 20
98.371443
 30
0.0
 40
3.0
100
AcDbArc
 50
99.594068
 51
180.0
  0
LINE
  5
515
100
AcDbEntity
  8
0
370
    -3
390
0
  6
Continuous
100
AcDbLine
 10
77.309353
 20
210.329483
 30
0.0
 11
77.309353
 21
77.329483
 31
0.0
  0
LINE
  5
516
100
AcDbEntity
  8
0
370
    -3
390
0
  6
Continuous
100
AcDbLine
 10
88.309353
 20
210.329483
 30
0.0
 11
88.309353
 21
75.329483
 31
0.0
  0
ARC
  5
517
100
AcDbEntity
  8
0
370
    -3
390
0
  6
Continuous
100
AcDbCircle
 10
79.309353
 20
77.329483
 30
0.0
 40
2.0
100
AcDbArc
 50
180.0
 51
270.0
  0
LINE
  5
518
100
AcDbEntity
  8
0
370
    -3
390
0
  6
Continuous
100
AcDbLine
 10
-259.190648
 20
141.389014
 30
0.0
 11
-259.190648
 21
210.329483
 31
0.0
  0
LINE
  5
519
100
AcDbEntity
  8
0
370
    -3
390
0
  6
Continuous
100
AcDbLine
 10
-257.290648
 20
138.098118
 30
0.0
 11
-240.65868
 21
128.495647
 31
0.0
  0
ARC
  5
51A
100
AcDbEntity
  8
0
370
    -3
390
0
  6
Continuous
100
AcDbCircle
 10
-220.25868
 20
163.829483
 30
0.0
 40
40.8
100
AcDbArc
 50
240.0
 51
270.0
  0
ARC
  5
51B
100
AcDbEntity
  8
0
370
    -3
390
0
  6
Continuous
100
AcDbCircle
 10
-255.390648
 20
141.389014
 30
0.0
 40
3.8
100
AcDbArc
 50
180.0
 51
240.0
  0
ELLIPSE
  5
51C
100
AcDbEntity
  8
0
370
    -3
390
0
  6
Continuous
100
AcDbEllipse
 10
-139.690647
 20
275.980917
 30
0.0
 11
5.0
 21
0.0
 31
0.0
210
0.0
220
0.0
230
1.0
 40
0.707107
 41
3.1415926535897931
 42
0.0
  0
LINE
  5
51D
100
AcDbEntity
  8
0
370
    -3
390
0
  6
Continuous
100
AcDbLine
 10
-144.690647
 20
276.797521
 30
0.0
 11
-144.690647
 21
275.980917
 31
0.0
  0
LINE
  5
51E
100
AcDbEntity
  8
0
370
    -3
390
0
  6
Continuous
100
AcDbLine
 10
-134.690647
 20
276.797521
 30
0.0
 11
-134.690647
 21
275.980917
 31
0.0
  0
ELLIPSE
  5
51F
100
AcDbEntity
  8
0
370
    -3
390
0
  6
Continuous
100
AcDbEllipse
 10
-139.690647
 20
276.797521
 30
0.0
 11
4.5
 21
0.0
 31
0.0
210
0.0
220
0.0
230
1.0
 40
0.707107
 41
3.1415926535897931
 42
0.0
  0
LINE
  5
520
100
AcDbEntity
  8
0
370
    -3
390
0
  6
Continuous
100
AcDbLine
 10
-144.190647
 20
277.363206
 30
0.0
 11
-144.190647
 21
276.797521
 31
0.0
  0
LINE
  5
521
100
AcDbEntity
  8
0
370
    -3
390
0
  6
Continuous
100
AcDbLine
 10
-135.190647
 20
277.363206
 30
0.0
 11
-135.190647
 21
276.797521
 31
0.0
  0
ELLIPSE
  5
522
100
AcDbEntity
  8
0
370
    -3
390
0
  6
Continuous
100
AcDbEllipse
 10
-139.690647
 20
276.797521
 30
0.0
 11
5.0
 21
0.0
 31
0.0
210
0.0
220
0.0
230
1.0
 40
0.707107
 41
0.0
 42
0.7392718269406207
  0
ELLIPSE
  5
523
100
AcDbEntity
  8
0
370
    -3
390
0
  6
Continuous
100
AcDbEllipse
 10
-139.690647
 20
276.797521
 30
0.0
 11
5.0
 21
0.0
 31
0.0
210
0.0
220
0.0
230
1.0
 40
0.707107
 41
2.4023208266491727
 42
3.1415926535897931
  0
ELLIPSE
  5
524
100
AcDbEntity
  8
0
370
    -3
390
0
  6
Continuous
100
AcDbEllipse
 10
-139.690647
 20
277.899724
 30
0.0
 11
3.5
 21
0.0
 31
0.0
210
0.0
220
0.0
230
1.0
 40
0.860398
 41
0.0
 42
6.2831853071795862
  0
ELLIPSE
  5
525
100
AcDbEntity
  8
0
370
    -3
390
0
  6
Continuous
100
AcDbEllipse
 10
-139.690647
 20
277.363206
 30
0.0
 11
4.5
 21
0.0
 31
0.0
210
0.0
220
0.0
230
1.0
 40
0.707107
 41
2.158706662346169
 42
0.9828859912436241
  0
LINE
  5
526
100
AcDbEntity
  8
0
370
    -3
390
0
  6
Continuous
100
AcDbLine
 10
-139.690647
 20
279.201684
 30
0.0
 11
-137.690647
 21
277.628346
 31
0.0
  0
LINE
  5
527
100
AcDbEntity
  8
0
370
    -3
390
0
  6
Continuous
100
AcDbLine
 10
-139.690647
 20
279.201684
 30
0.0
 11
-137.761442
 21
280.412346
 31
0.0
  0
LINE
  5
528
100
AcDbEntity
  8
0
370
    -3
390
0
  6
Continuous
100
AcDbLine
 10
-139.690647
 20
279.201684
 30
0.0
 11
-141.690647
 21
277.628346
 31
0.0
  0
LINE
  5
529
100
AcDbEntity
  8
0
370
    -3
390
0
  6
Continuous
100
AcDbLine
 10
-139.690647
 20
279.201684
 30
0.0
 11
-141.619851
 21
280.412346
 31
0.0
  0
ELLIPSE
  5
52A
100
AcDbEntity
  8
0
370
    -3
390
0
  6
Continuous
100
AcDbEllipse
 10
-139.690647
 20
144.678049
 30
0.0
 11
5.0
 21
0.0
 31
0.0
210
0.0
220
0.0
230
1.0
 40
0.707107
 41
0.0
 42
3.1415926535897931
  0
LINE
  5
52B
100
AcDbEntity
  8
0
370
    -3
390
0
  6
Continuous
100
AcDbLine
 10
-144.690647
 20
143.861446
 30
0.0
 11
-144.690647
 21
144.678049
 31
0.0
  0
LINE
  5
52C
100
AcDbEntity
  8
0
370
    -3
390
0
  6
Continuous
100
AcDbLine
 10
-134.690647
 20
143.861446
 30
0.0
 11
-134.690647
 21
144.678049
 31
0.0
  0
ELLIPSE
  5
52D
100
AcDbEntity
  8
0
370
    -3
390
0
  6
Continuous
100
AcDbEllipse
 10
-139.690647
 20
143.861446
 30
0.0
 11
4.5
 21
0.0
 31
0.0
210
0.0
220
0.0
230
1.0
 40
0.707107
 41
0.0
 42
3.1415926535897931
  0
LINE
  5
52E
100
AcDbEntity
  8
0
370
    -3
390
0
  6
Continuous
100
AcDbLine
 10
-144.190647
 20
143.29576
 30
0.0
 11
-144.190647
 21
143.861446
 31
0.0
  0
LINE
  5
52F
100
AcDbEntity
  8
0
370
    -3
390
0
  6
Continuous
100
AcDbLine
 10
-135.190647
 20
143.29576
 30
0.0
 11
-135.190647
 21
143.861446
 31
0.0
  0
ELLIPSE
  5
530
100
AcDbEntity
  8
0
370
    -3
390
0
  6
Continuous
100
AcDbEllipse
 10
-139.690647
 20
143.861446
 30
0.0
 11
5.0
 21
0.0
 31
0.0
210
0.0
220
0.0
230
1.0
 40
0.707107
 41
5.5439134802389658
 42
0.0
  0
ELLIPSE
  5
531
100
AcDbEntity
  8
0
370
    -3
390
0
  6
Continuous
100
AcDbEllipse
 10
-139.690647
 20
143.861446
 30
0.0
 11
5.0
 21
0.0
 31
0.0
210
0.0
220
0.0
230
1.0
 40
0.707107
 41
3.1415926535897931
 42
3.8808644805304136
  0
ELLIPSE
  5
532
100
AcDbEntity
  8
0
370
    -3
390
0
  6
Continuous
100
AcDbEllipse
 10
-139.690647
 20
142.759242
 30
0.0
 11
3.5
 21
0.0
 31
0.0
210
0.0
220
0.0
230
1.0
 40
0.860398
 41
0.0
 42
6.2831853071795862
  0
ELLIPSE
  5
533
100
AcDbEntity
  8
0
370
    -3
390
0
  6
Continuous
100
AcDbEllipse
 10
-139.690647
 20
143.29576
 30
0.0
 11
4.5
 21
0.0
 31
0.0
210
0.0
220
0.0
230
1.0
 40
0.707107
 41
5.3002993159359626
 42
4.1244786448334168
  0
LINE
  5
534
100
AcDbEntity
  8
0
370
    -3
390
0
  6
Continuous
100
AcDbLine
 10
-139.690647
 20
141.457282
 30
0.0
 11
-137.690647
 21
143.03062
 31
0.0
  0
LINE
  5
535
100
AcDbEntity
  8
0
370
    -3
390
0
  6
Continuous
100
AcDbLine
 10
-139.690647
 20
141.457282
 30
0.0
 11
-137.761442
 21
140.24662
 31
0.0
  0
LINE
  5
536
100
AcDbEntity
  8
0
370
    -3
390
0
  6
Continuous
100
AcDbLine
 10
-139.690647
 20
141.457282
 30
0.0
 11
-141.690647
 21
143.03062
 31
0.0
  0
LINE
  5
537
100
AcDbEntity
  8
0
370
    -3
390
0
  6
Continuous
100
AcDbLine
 10
-139.690647
 20
141.457282
 30
0.0
 11
-141.619851
 21
140.24662
 31
0.0
  0
ARC
  5
538
100
AcDbEntity
  8
0
370
    -3
390
0
  6
Continuous
100
AcDbCircle
 10
-220.25868
 20
256.829483
 30
0.0
 40
40.8
100
AcDbArc
 50
90.0
 51
120.0
  0
LINE
  5
539
100
AcDbEntity
  8
0
370
    -3
390
0
  6
Continuous
100
AcDbLine
 10
-259.190648
 20
279.269952
 30
0.0
 11
-259.190648
 21
210.329483
 31
0.0
  0
LINE
  5
53A
100
AcDbEntity
  8
0
370
    -3
390
0
  6
Continuous
100
AcDbLine
 10
-257.290648
 20
282.560849
 30
0.0
 11
-240.65868
 21
292.16332
 31
0.0
  0
ARC
  5
53B
100
AcDbEntity
  8
0
370
    -3
390
0
  6
Continuous
100
AcDbCircle
 10
-255.390648
 20
279.269952
 30
0.0
 40
3.8
100
AcDbArc
 50
120.0
 51
180.0
  0
LINE
  5
53C
100
AcDbEntity
  8
0
370
    -3
390
0
  6
Continuous
100
AcDbLine
 10
-220.25868
 20
297.629483
 30
0.0
 11
-114.190648
 21
297.629483
 31
0.0
  0
ARC
  5
53D
100
AcDbEntity
  8
0
370
    -3
390
0
  6
Continuous
100
AcDbCircle
 10
-117.190648
 20
126.969974
 30
0.0
 40
3.0
100
AcDbArc
 50
270.0
 51
0.0
  0
LINE
  5
53E
100
AcDbEntity
  8
0
370
    -3
390
0
  6
Continuous
100
AcDbLine
 10
-117.190648
 20
123.969974
 30
0.0
 11
-133.190648
 21
123.969974
 31
0.0
  0
ARC
  5
53F
100
AcDbEntity
  8
0
370
    -3
390
0
  6
Continuous
100
AcDbCircle
 10
-133.190648
 20
122.969974
 30
0.0
 40
1.0
100
AcDbArc
 50
90.0
 51
176.588332
  0
LINE
  5
540
100
AcDbEntity
  8
0
370
    -3
390
0
  6
Continuous
100
AcDbLine
 10
-220.25868
 20
123.029483
 30
0.0
 11
-134.188875
 21
123.029483
 31
0.0
  0
LINE
  5
541
100
AcDbEntity
  8
0
370
    -3
390
0
  6
Continuous
100
AcDbLine
 10
-114.190648
 20
126.969974
 30
0.0
 11
-114.190648
 21
297.629483
 31
0.0
  0
LINE
  5
542
100
AcDbEntity
  8
0
370
    -3
390
0
  6
Continuous
100
AcDbLine
 10
-80.190647
 20
130.329483
 30
0.0
 11
-80.190647
 21
129.329483
 31
0.0
  0
ARC
  5
543
100
AcDbEntity
  8
0
370
    -3
390
0
  6
Continuous
100
AcDbCircle
 10
-82.790647
 20
126.129483
 30
0.0
 40
3.2
100
AcDbArc
 50
0.0
 51
90.0
  0
ARC
  5
544
100
AcDbEntity
  8
0
370
    -3
390
0
  6
Continuous
100
AcDbCircle
 10
-77.590647
 20
117.929483
 30
0.0
 40
2.0
100
AcDbArc
 50
180.0
 51
270.0
  0
ARC
  5
545
100
AcDbEntity
  8
0
370
    -3
390
0
  6
Continuous
100
AcDbCircle
 10
-130.790647
 20
117.929483
 30
0.0
 40
2.0
100
AcDbArc
 50
270.0
 51
0.0
  0
LINE
  5
546
100
AcDbEntity
  8
0
370
    -3
390
0
  6
Continuous
100
AcDbLine
 10
-73.190647
 20
114.329483
 30
0.0
 11
-73.190647
 21
115.929483
 31
0.0
  0
LINE
  5
547
100
AcDbEntity
  8
0
370
    -3
390
0
  6
Continuous
100
AcDbLine
 10
-79.590647
 20
117.929483
 30
0.0
 11
-79.590647
 21
126.129483
 31
0.0
  0
LINE
  5
548
100
AcDbEntity
  8
0
370
    -3
390
0
  6
Continuous
100
AcDbLine
 10
-128.790647
 20
117.929483
 30
0.0
 11
-128.790647
 21
123.969974
 31
0.0
  0
LINE
  5
549
100
AcDbEntity
  8
0
370
    -3
390
0
  6
Continuous
100
AcDbLine
 10
-114.190648
 20
129.329483
 30
0.0
 11
-80.190647
 21
129.329483
 31
0.0
  0
LINE
  5
54A
100
AcDbEntity
  8
0
370
    -3
390
0
  6
Continuous
100
AcDbLine
 10
-135.190647
 20
115.929483
 30
0.0
 11
-73.190647
 21
115.929483
 31
0.0
  0
LINE
  5
54B
100
AcDbEntity
  8
0
370
    -3
390
0
  6
Continuous
100
AcDbLine
 10
-135.190647
 20
114.329483
 30
0.0
 11
-135.190647
 21
115.929483
 31
0.0
  0
LINE
  5
54C
100
AcDbEntity
  8
0
370
    -3
390
0
  6
Continuous
100
AcDbLine
 10
-73.190647
 20
114.329483
 30
0.0
 11
-73.190647
 21
113.329483
 31
0.0
  0
LINE
  5
54D
100
AcDbEntity
  8
0
370
    -3
390
0
  6
Continuous
100
AcDbLine
 10
-135.190647
 20
114.329483
 30
0.0
 11
-135.190647
 21
113.329483
 31
0.0
  0
LINE
  5
54E
100
AcDbEntity
  8
0
370
    -3
390
0
  6
Continuous
100
AcDbLine
 10
-137.990647
 20
113.329483
 30
0.0
 11
-70.390647
 21
113.329483
 31
0.0
  0
LINE
  5
54F
100
AcDbEntity
  8
0
370
    -3
390
0
  6
CENTER
100
AcDbLine
 10
-104.190647
 20
107.63029
 30
0.0
 11
-104.190647
 21
61.032802
 31
0.0
  0
LINE
  5
550
100
AcDbEntity
  8
0
370
    -3
390
0
  6
Continuous
100
AcDbLine
 10
-139.640647
 20
63.155658
 30
0.0
 11
-107.247903
 21
63.155658
 31
0.0
  0
LINE
  5
551
100
AcDbEntity
  8
0
370
    -3
390
0
  6
Continuous
100
AcDbLine
 10
-139.640647
 20
112.024047
 30
0.0
 11
-68.740647
 21
112.024047
 31
0.0
  0
LINE
  5
552
100
AcDbEntity
  8
0
370
    -3
390
0
  6
Continuous
100
AcDbLine
 10
-139.640647
 20
108.552574
 30
0.0
 11
-68.740647
 21
108.552574
 31
0.0
  0
LINE
  5
553
100
AcDbEntity
  8
0
370
    -3
390
0
  6
Continuous
100
AcDbLine
 10
-57.740647
 20
101.024047
 30
0.0
 11
-57.740647
 21
74.155658
 31
0.0
  0
LINE
  5
554
100
AcDbEntity
  8
0
370
    -3
390
0
  6
Continuous
100
AcDbLine
 10
-64.140647
 20
71.129483
 30
0.0
 11
-64.140647
 21
100.705418
 31
0.0
  0
LINE
  5
555
100
AcDbEntity
  8
0
370
    -3
390
0
  6
Continuous
100
AcDbLine
 10
-144.240647
 20
71.129483
 30
0.0
 11
-144.240647
 21
100.705418
 31
0.0
  0
LINE
  5
556
100
AcDbEntity
  8
0
370
    -3
390
0
  6
Continuous
100
AcDbLine
 10
-139.240647
 20
105.705418
 30
0.0
 11
-69.140647
 21
105.705418
 31
0.0
  0
ARC
  5
557
100
AcDbEntity
  8
0
370
    -3
390
0
  6
Continuous
100
AcDbCircle
 10
-69.140647
 20
100.705418
 30
0.0
 40
5.0
100
AcDbArc
 50
0.0
 51
90.0
  0
ARC
  5
558
100
AcDbEntity
  8
0
370
    -3
390
0
  6
Continuous
100
AcDbCircle
 10
-139.240647
 20
100.705418
 30
0.0
 40
5.0
100
AcDbArc
 50
90.0
 51
180.0
  0
ARC
  5
559
100
AcDbEntity
  8
0
370
    -3
390
0
  6
Continuous
100
AcDbCircle
 10
-68.740647
 20
74.155658
 30
0.0
 40
11.0
100
AcDbArc
 50
270.0
 51
0.0
  0
ARC
  5
55A
100
AcDbEntity
  8
0
370
    -3
390
0
  6
Continuous
100
AcDbCircle
 10
-139.640647
 20
74.155658
 30
0.0
 40
11.0
100
AcDbArc
 50
180.0
 51
270.0
  0
LINE
  5
55B
100
AcDbEntity
  8
0
370
    -3
390
0
  6
Continuous
100
AcDbLine
 10
-138.440647
 20
65.329483
 30
0.0
 11
-69.940647
 21
65.329483
 31
0.0
  0
ARC
  5
55C
100
AcDbEntity
  8
0
370
    -3
390
0
  6
Continuous
100
AcDbCircle
 10
-69.940647
 20
71.129483
 30
0.0
 40
5.8
100
AcDbArc
 50
270.0
 51
0.0
  0
ARC
  5
55D
100
AcDbEntity
  8
0
370
    -3
390
0
  6
Continuous
100
AcDbCircle
 10
-138.440647
 20
71.129483
 30
0.0
 40
5.8
100
AcDbArc
 50
180.0
 51
270.0
  0
ARC
  5
55E
100
AcDbEntity
  8
0
370
    -3
390
0
  6
Continuous
100
AcDbCircle
 10
-68.740647
 20
97.552574
 30
0.0
 40
11.0
100
AcDbArc
 50
0.0
 51
90.0
  0
ARC
  5
55F
100
AcDbEntity
  8
0
370
    -3
390
0
  6
Continuous
100
AcDbCircle
 10
-68.740647
 20
101.024047
 30
0.0
 40
11.0
100
AcDbArc
 50
0.0
 51
90.0
  0
ARC
  5
560
100
AcDbEntity
  8
0
370
    -3
390
0
  6
Continuous
100
AcDbCircle
 10
-139.640647
 20
97.552574
 30
0.0
 40
11.0
100
AcDbArc
 50
90.0
 51
180.0
  0
ARC
  5
561
100
AcDbEntity
  8
0
370
    -3
390
0
  6
Continuous
100
AcDbCircle
 10
-139.640647
 20
101.024047
 30
0.0
 40
11.0
100
AcDbArc
 50
90.0
 51
180.0
  0
ARC
  5
562
100
AcDbEntity
  8
0
370
    -3
390
0
  6
Continuous
100
AcDbCircle
 10
-70.390647
 20
108.329483
 30
0.0
 40
5.0
100
AcDbArc
 50
44.925956
 51
90.0
  0
ARC
  5
563
100
AcDbEntity
  8
0
370
    -3
390
0
  6
Continuous
100
AcDbCircle
 10
-137.990647
 20
108.329483
 30
0.0
 40
5.0
100
AcDbArc
 50
90.0
 51
135.074044
  0
LINE
  5
564
100
AcDbEntity
  8
0
370
    -3
390
0
  6
CENTER
100
AcDbLine
 10
-127.014278
 20
89.329483
 30
0.0
 11
-82.72656
 21
89.329483
 31
0.0
  0
CIRCLE
  5
565
100
AcDbEntity
  8
0
370
    -3
390
0
  6
DASHED
100
AcDbCircle
 10
-104.190647
 20
89.329483
 30
0.0
 40
13.5
  0
LINE
  5
566
100
AcDbEntity
  8
0
370
    -3
390
0
  6
Continuous
100
AcDbLine
 10
-101.13339
 20
63.155658
 30
0.0
 11
-68.740647
 21
63.155658
 31
0.0
  0
LINE
  5
567
100
AcDbEntity
  8
0
370
    -3
390
0
  6
Continuous
100
AcDbLine
 10
-150.640647
 20
101.024047
 30
0.0
 11
-150.640647
 21
74.155658
 31
0.0
  0
LINE
  5
568
100
AcDbEntity
  8
0
370
    -3
390
0
  6
Continuous
100
AcDbLine
 10
-135.190647
 20
114.329483
 30
0.0
 11
-73.190647
 21
114.329483
 31
0.0
  0
LINE
  5
569
100
AcDbEntity
  8
0
370
    -3
390
0
  6
Continuous
100
AcDbLine
 10
-114.190648
 20
293.829483
 30
0.0
 11
55.809353
 21
293.829483
 31
0.0
  0
LINE
  5
56A
100
AcDbEntity
  8
0
370
    -3
390
0
  6
Continuous
100
AcDbLine
 10
55.809353
 20
292.829483
 30
0.0
 11
-114.190648
 21
292.829483
 31
0.0
  0
LINE
  5
56B
100
AcDbEntity
  8
0
370
    -3
390
0
  6
Continuous
100
AcDbLine
 10
55.809353
 20
290.329483
 30
0.0
 11
-114.190648
 21
290.329483
 31
0.0
  0
LINE
  5
56C
100
AcDbEntity
  8
0
370
    -3
390
0
  6
Continuous
100
AcDbLine
 10
55.809353
 20
285.329483
 30
0.0
 11
-114.190648
 21
285.329483
 31
0.0
  0
LINE
  5
56D
100
AcDbEntity
  8
0
370
    -3
390
0
  6
Continuous
100
AcDbLine
 10
55.809353
 20
276.208696
 30
0.0
 11
-114.190648
 21
276.208696
 31
0.0
  0
LINE
  5
56E
100
AcDbEntity
  8
0
370
    -3
390
0
  6
Continuous
100
AcDbLine
 10
55.809353
 20
269.137628
 30
0.0
 11
-114.190648
 21
269.137628
 31
0.0
  0
LINE
  5
56F
100
AcDbEntity
  8
0
370
    -3
390
0
  6
Continuous
100
AcDbLine
 10
55.809353
 20
256.467207
 30
0.0
 11
-114.190648
 21
256.467207
 31
0.0
  0
LINE
  5
570
100
AcDbEntity
  8
0
370
    -3
390
0
  6
Continuous
100
AcDbLine
 10
55.809353
 20
254.244881
 30
0.0
 11
-114.190648
 21
254.244881
 31
0.0
  0
LINE
  5
571
100
AcDbEntity
  8
0
370
    -3
390
0
  6
Continuous
100
AcDbLine
 10
55.809353
 20
246.434421
 30
0.0
 11
-114.190648
 21
246.434421
 31
0.0
  0
LINE
  5
572
100
AcDbEntity
  8
0
370
    -3
390
0
  6
Continuous
100
AcDbLine
 10
55.809353
 20
244.267711
 30
0.0
 11
-114.190648
 21
244.267711
 31
0.0
  0
LINE
  5
573
100
AcDbEntity
  8
0
370
    -3
390
0
  6
Continuous
100
AcDbLine
 10
55.809353
 20
236.372103
 30
0.0
 11
-114.190648
 21
236.372103
 31
0.0
  0
LINE
  5
574
100
AcDbEntity
  8
0
370
    -3
390
0
  6
Continuous
100
AcDbLine
 10
55.809353
 20
234.307341
 30
0.0
 11
-114.190648
 21
234.307341
 31
0.0
  0
LINE
  5
575
100
AcDbEntity
  8
0
370
    -3
390
0
  6
Continuous
100
AcDbLine
 10
55.809353
 20
186.351626
 30
0.0
 11
-114.190648
 21
186.351626
 31
0.0
  0
LINE
  5
576
100
AcDbEntity
  8
0
370
    -3
390
0
  6
Continuous
100
AcDbLine
 10
55.809353
 20
184.286863
 30
0.0
 11
-114.190648
 21
184.286863
 31
0.0
  0
LINE
  5
577
100
AcDbEntity
  8
0
370
    -3
390
0
  6
Continuous
100
AcDbLine
 10
55.809353
 20
176.391255
 30
0.0
 11
-114.190648
 21
176.391255
 31
0.0
  0
LINE
  5
578
100
AcDbEntity
  8
0
370
    -3
390
0
  6
Continuous
100
AcDbLine
 10
55.809353
 20
174.224545
 30
0.0
 11
-114.190648
 21
174.224545
 31
0.0
  0
LINE
  5
579
100
AcDbEntity
  8
0
370
    -3
390
0
  6
Continuous
100
AcDbLine
 10
55.809353
 20
166.414086
 30
0.0
 11
-114.190648
 21
166.414086
 31
0.0
  0
LINE
  5
57A
100
AcDbEntity
  8
0
370
    -3
390
0
  6
Continuous
100
AcDbLine
 10
55.809353
 20
164.191759
 30
0.0
 11
-114.190648
 21
164.191759
 31
0.0
  0
LINE
  5
57B
100
AcDbEntity
  8
0
370
    -3
390
0
  6
Continuous
100
AcDbLine
 10
55.809353
 20
151.521338
 30
0.0
 11
-114.190648
 21
151.521338
 31
0.0
  0
LINE
  5
57C
100
AcDbEntity
  8
0
370
    -3
390
0
  6
Continuous
100
AcDbLine
 10
55.809353
 20
144.450271
 30
0.0
 11
-114.190648
 21
144.450271
 31
0.0
  0
LINE
  5
57D
100
AcDbEntity
  8
0
370
    -3
390
0
  6
Continuous
100
AcDbLine
 10
55.809353
 20
227.329483
 30
0.0
 11
55.809353
 21
293.829483
 31
0.0
  0
LINE
  5
57E
100
AcDbEntity
  8
0
370
    -3
390
0
  6
Continuous
100
AcDbLine
 10
55.809353
 20
193.329483
 30
0.0
 11
55.809353
 21
126.829483
 31
0.0
  0
LINE
  5
57F
100
AcDbEntity
  8
0
370
    -3
390
0
  6
Continuous
100
AcDbLine
 10
52.809354
 20
226.301211
 30
0.0
 11
-114.190648
 21
226.301211
 31
0.0
  0
LINE
  5
580
100
AcDbEntity
  8
0
370
    -3
390
0
  6
Continuous
100
AcDbLine
 10
52.809354
 20
224.358828
 30
0.0
 11
-114.190648
 21
224.358828
 31
0.0
  0
LINE
  5
581
100
AcDbEntity
  8
0
370
    -3
390
0
  6
Continuous
100
AcDbLine
 10
52.809354
 20
216.268753
 30
0.0
 11
-114.190648
 21
216.268753
 31
0.0
  0
LINE
  5
582
100
AcDbEntity
  8
0
370
    -3
390
0
  6
Continuous
100
AcDbLine
 10
53.283667
 20
214.373981
 30
0.0
 11
-114.190648
 21
214.373981
 31
0.0
  0
LINE
  5
583
100
AcDbEntity
  8
0
370
    -3
390
0
  6
Continuous
100
AcDbLine
 10
53.283667
 20
206.284986
 30
0.0
 11
-114.190648
 21
206.284986
 31
0.0
  0
LINE
  5
584
100
AcDbEntity
  8
0
370
    -3
390
0
  6
Continuous
100
AcDbLine
 10
52.809354
 20
204.390213
 30
0.0
 11
-114.190648
 21
204.390213
 31
0.0
  0
LINE
  5
585
100
AcDbEntity
  8
0
370
    -3
390
0
  6
Continuous
100
AcDbLine
 10
52.809354
 20
196.300138
 30
0.0
 11
-114.190648
 21
196.300138
 31
0.0
  0
LINE
  5
586
100
AcDbEntity
  8
0
370
    -3
390
0
  6
Continuous
100
AcDbLine
 10
52.809354
 20
194.357755
 30
0.0
 11
-114.190648
 21
194.357755
 31
0.0
  0
ENDSEC
  0
SECTION
  2
OBJECTS
  0
DICTIONARY
  5
19
100
AcDbDictionary
280
     0
281
     1
  3
ACAD_GROUP
350
1A
  3
ACAD_MLINESTYLE
350
1B
  3
ACAD_LAYOUT
350
1E
  3
ACAD_PLOTSETTINGS
350
22
  3
ACAD_PLOTSTYLENAME
350
1F
  3
ACAD_WIPEOUT_VARS
350
23
  3
DWGPROPS
350
587
  0
DICTIONARY
  5
1A
102
{ACAD_REACTORS
330
19
102
}
100
AcDbDictionary
280
     0
281
     1
  0
DICTIONARY
  5
1B
102
{ACAD_REACTORS
330
19
102
}
100
AcDbDictionary
280
     0
281
     1
  3
Standard
350
1C
  0
MLINESTYLE
  5
1C
102
{ACAD_REACTORS
330
1B
102
}
100
AcDbMlineStyle
  2
Standard
 70
     0
  3

 62
     0
 51
90.0
 52
90.0
 71
     2
 49
0.5
 62
   256
  6
ByLayer
 49
-0.5
 62
   256
  6
ByLayer
  0
ACDBDICTIONARYWDFLT
  5
1F
102
{ACAD_REACTORS
330
19
102
}
100
AcDbDictionary
281
     1
  3
Normal
350
1D
100
AcDbDictionaryWithDefault
340
1D
  0
ACDBPLACEHOLDER
  5
1D
102
{ACAD_REACTORS
330
1F
102
}
  0
LAYOUT
  5
20
102
{ACAD_REACTORS
330
1E
102
}
100
AcDbPlotSettings
  1

  2

  4

  6

 40
0.0
 41
0.0
 42
0.0
 43
0.0
 44
0.0
 45
0.0
 46
0.0
 47
0.0
 48
0.0
 49
0.0
140
0.0
141
0.0
142
1.0
143
1.0
 70
  1024
 72
     0
 73
     0
 74
     0
  7

 75
     0
147
1.0
148
0.0
149
0.0
100
AcDbLayout
  1
Model
 70
     0
 71
     0
 10
0.0
 20
0.0
 11
0.0
 21
0.0
 12
0.0
 22
0.0
 32
0.0
 14
0.0
 24
0.0
 34
0.0
 15
0.0
 25
0.0
 35
0.0
146
0.0
 13
0.0
 23
0.0
 33
0.0
 16
0.0
 26
0.0
 36
0.0
 17
0.0
 27
0.0
 37
0.0
 76
     0
330
A
331
0
345
0
346
0
  0
LAYOUT
  5
21
102
{ACAD_REACTORS
330
1E
102
}
100
AcDbPlotSettings
  1

  2

  4

  6

 40
0.0
 41
0.0
 42
0.0
 43
0.0
 44
0.0
 45
0.0
 46
0.0
 47
0.0
 48
0.0
 49
0.0
140
0.0
141
0.0
142
1.0
143
1.0
 70
     0
 72
     0
 73
     0
 74
     0
  7

 75
     0
147
1.0
148
0.0
149
0.0
100
AcDbLayout
  1
Layout1
 70
     0
 71
     0
 10
0.0
 20
0.0
 11
0.0
 21
0.0
 12
0.0
 22
0.0
 32
0.0
 14
0.0
 24
0.0
 34
0.0
 15
0.0
 25
0.0
 35
0.0
146
0.0
 13
0.0
 23
0.0
 33
0.0
 16
0.0
 26
0.0
 36
0.0
 17
0.0
 27
0.0
 37
0.0
 76
     0
330
B
331
0
345
0
346
0
  0
DICTIONARY
  5
1E
102
{ACAD_REACTORS
330
19
102
}
100
AcDbDictionary
280
     0
281
     1
  3
Layout1
350
21
  3
Model
350
20
  0
DICTIONARY
  5
22
102
{ACAD_REACTORS
330
19
102
}
100
AcDbDictionary
280
     0
281
     1
  0
WIPEOUTVARIABLES
  5
23
100
AcDbWipeoutVariables
 70
     1
  0
XRECORD
  5
587
100
AcDbXrecord
280
     1
  1
DWGPROPS COOKIE
  2

  3

  4

  6

  7

  8
YP81315
  9

300
=
301
=
302
=
303
=
304
=
305
=
306
=
307
=
308
=
309
=
 40
0.0
 41
2456785.704236
 42
2456785.704236
  1

 90
        0
  0
ENDSEC
  0
EOF
