  0
SECTION
  2
HEADER
  9
$TEXTSIZE
 40
2.5
  9
$ACADVER
  1
AC1009
  9
$DIMASZ
 40
3.863703297614046
  9
$DIMEXE
 40
2.000000000000000
  9
$DIMEXO
 40
1.000000000000000
  9
$DIMLFAC
 40
1.000000000000000
  9
$DIMSCALE
 40
1.000000000000000
  9
$DIMTAD
 70
1
  9
$DIMTFAC
 40
0.625000000000000
  9
$DIMTXT
 40
3.200000047683716
  9
$LUPREC
 70
3
  9
$REGENMODE
 70
1
  9
$TEXTSTYLE
  7
STANDARD1
  0
ENDSEC
  0
SECTION
  2
TABLES
  0
TABLE
  2
LTYPE
 70
4
  0
LTYPE
  2
CONTINUOUS
 70
64
  3
Solid line
 72
65
 73
0
 40
0.0
  0
LTYPE
  2
DASHED
 70
64
  3
-- -- -- -- -- -- -- -- -- -- -- -- -- -- --
 72
65
 73
2
 40
0.75
 49
0.5
 49
-0.25
  0
LTYPE
  2
DASHDOT
 70
64
  3
__ . __ . __ . __ . __ . __ . __ . __ . __ . __
 72
65
 73
4
 40
1.0
 49
0.5
 49
-0.25
 49
0.0
 49
-0.25
  0
LTYPE
  2
DIVIDE
 70
64
  3
__ . . __ . . __ . . __ . . __ . . __ . . __
 72
65
 73
6
 40
1.25
 49
0.5
 49
-0.25
 49
0.0
 49
-0.25
 49
0.0
 49
-0.25
  0
ENDTAB
  0
TABLE
  2
LAYER
 70
3
  0
LAYER
  2
0
 70
64
 62
53
  6
CONTINUOUS
  0
LAYER
  2
1
 70
64
 62
102
  6
CONTINUOUS
  0
LAYER
  2
2
 70
64
 62
191
  6
CONTINUOUS
  0
ENDTAB
  0
TABLE
  2
STYLE
 70
4
  0
STYLE
  2
STANDARD1
 70
64
 40
0.0
 41
1.0
 50
0.0
 71
0
 42
3.200000047683716
  3
MONOTXT
  4
BIGFONT
  0
STYLE
  2
STANDARD2
 70
68
 40
0.0
 41
1.0
 50
0.0
 71
0
 42
3.200000047683716
  3
MONOTXT
  4
BIGFONT
  0
STYLE
  2
STANDARD3
 70
64
 40
0.0
 41
1.0
 50
0.0
 71
0
 42
3.200000047683716
  3
MONOTXT
  4

  0
STYLE
  2
STANDARD4
 70
68
 40
0.0
 41
1.0
 50
0.0
 71
0
 42
3.200000047683716
  3
MONOTXT
  4

  0
ENDTAB
  0
TABLE
  2
VIEW
 70
0
  0
ENDTAB
  0
ENDSEC
  0
SECTION
  2
BLOCKS
  0
BLOCK
  8
0
  2
ZU_SYM_1
 70
64
 10
0.000000000000000
 20
0.000000000000000
  0
POINT
  8
0
  6
CONTINUOUS
 62
256
 10
0.000000000000000
 20
0.000000000000000
  0
LINE
  8
0
  6
CONTINUOUS
 62
256
 10
-2.300001000000000
 20
-4.000000000000000
 11
-4.600000000000000
 21
-0.000001000000000
  0
LINE
  8
0
  6
CONTINUOUS
 62
256
 10
-4.600000000000000
 20
0.000001000000000
 11
-2.300001000000000
 21
4.000000000000000
  0
LINE
  8
0
  6
CONTINUOUS
 62
256
 10
-2.299999000000000
 20
4.000000000000000
 11
2.299999000000000
 21
4.000000000000000
  0
LINE
  8
0
  6
CONTINUOUS
 62
256
 10
2.300001000000000
 20
4.000000000000000
 11
4.600000000000000
 21
0.000001000000000
  0
LINE
  8
0
  6
CONTINUOUS
 62
256
 10
4.600000000000000
 20
-0.000001000000000
 11
2.300001000000000
 21
-4.000000000000000
  0
LINE
  8
0
  6
CONTINUOUS
 62
256
 10
2.299999000000000
 20
-4.000000000000000
 11
-2.299999000000000
 21
-4.000000000000000
  0
CIRCLE
  8
0
  6
CONTINUOUS
 62
256
 10
0.000000000000000
 20
0.000000000000000
 40
4.000000000000000
  0
ENDBLK
  8
0
  0
BLOCK
  8
0
  2
ZU_SYM_2
 70
64
 10
0.000000000000000
 20
0.000000000000000
  0
POINT
  8
0
  6
CONTINUOUS
 62
256
 10
0.000000000000000
 20
0.000000000000000
  0
LINE
  8
0
  6
CONTINUOUS
 62
256
 10
-2.300001000000000
 20
-4.000000000000000
 11
-4.600000000000000
 21
-0.000001000000000
  0
LINE
  8
0
  6
CONTINUOUS
 62
256
 10
-4.600000000000000
 20
0.000001000000000
 11
-2.300001000000000
 21
4.000000000000000
  0
LINE
  8
0
  6
CONTINUOUS
 62
256
 10
-2.299999000000000
 20
4.000000000000000
 11
2.299999000000000
 21
4.000000000000000
  0
LINE
  8
0
  6
CONTINUOUS
 62
256
 10
2.300001000000000
 20
4.000000000000000
 11
4.600000000000000
 21
0.000001000000000
  0
LINE
  8
0
  6
CONTINUOUS
 62
256
 10
4.600000000000000
 20
-0.000001000000000
 11
2.300001000000000
 21
-4.000000000000000
  0
LINE
  8
0
  6
CONTINUOUS
 62
256
 10
2.299999000000000
 20
-4.000000000000000
 11
-2.299999000000000
 21
-4.000000000000000
  0
CIRCLE
  8
0
  6
CONTINUOUS
 62
256
 10
0.000000000000000
 20
0.000000000000000
 40
4.000000000000000
  0
ENDBLK
  8
0
  0
BLOCK
  8
0
  2
ZU_SYM_3
 70
64
 10
0.000000000000000
 20
0.000000000000000
  0
POINT
  8
0
  6
CONTINUOUS
 62
256
 10
0.000000000000000
 20
0.000000000000000
  0
LINE
  8
0
  6
CONTINUOUS
 62
256
 10
-2.300001000000000
 20
-4.000000000000000
 11
-4.600000000000000
 21
-0.000001000000000
  0
LINE
  8
0
  6
CONTINUOUS
 62
256
 10
-4.600000000000000
 20
0.000001000000000
 11
-2.300001000000000
 21
4.000000000000000
  0
LINE
  8
0
  6
CONTINUOUS
 62
256
 10
-2.299999000000000
 20
4.000000000000000
 11
2.299999000000000
 21
4.000000000000000
  0
LINE
  8
0
  6
CONTINUOUS
 62
256
 10
2.300001000000000
 20
4.000000000000000
 11
4.600000000000000
 21
0.000001000000000
  0
LINE
  8
0
  6
CONTINUOUS
 62
256
 10
4.600000000000000
 20
-0.000001000000000
 11
2.300001000000000
 21
-4.000000000000000
  0
LINE
  8
0
  6
CONTINUOUS
 62
256
 10
2.299999000000000
 20
-4.000000000000000
 11
-2.299999000000000
 21
-4.000000000000000
  0
CIRCLE
  8
0
  6
CONTINUOUS
 62
256
 10
0.000000000000000
 20
0.000000000000000
 40
4.000000000000000
  0
ENDBLK
  8
0
  0
BLOCK
  8
0
  2
ZU_SYM_4
 70
64
 10
0.000000000000000
 20
0.000000000000000
  0
POINT
  8
0
  6
CONTINUOUS
 62
256
 10
0.000000000000000
 20
0.000000000000000
  0
LINE
  8
0
  6
CONTINUOUS
 62
256
 10
-2.300001000000000
 20
-4.000000000000000
 11
-4.600000000000000
 21
-0.000001000000000
  0
LINE
  8
0
  6
CONTINUOUS
 62
256
 10
-4.600000000000000
 20
0.000001000000000
 11
-2.300001000000000
 21
4.000000000000000
  0
LINE
  8
0
  6
CONTINUOUS
 62
256
 10
-2.299999000000000
 20
4.000000000000000
 11
2.299999000000000
 21
4.000000000000000
  0
LINE
  8
0
  6
CONTINUOUS
 62
256
 10
2.300001000000000
 20
4.000000000000000
 11
4.600000000000000
 21
0.000001000000000
  0
LINE
  8
0
  6
CONTINUOUS
 62
256
 10
4.600000000000000
 20
-0.000001000000000
 11
2.300001000000000
 21
-4.000000000000000
  0
LINE
  8
0
  6
CONTINUOUS
 62
256
 10
2.299999000000000
 20
-4.000000000000000
 11
-2.299999000000000
 21
-4.000000000000000
  0
CIRCLE
  8
0
  6
CONTINUOUS
 62
256
 10
0.000000000000000
 20
0.000000000000000
 40
4.000000000000000
  0
ENDBLK
  8
0
  0
BLOCK
  8
0
  2
ZU_SYM_5
 70
64
 10
0.000000000000000
 20
0.000000000000000
  0
LINE
  8
0
  6
CONTINUOUS
 62
256
 10
-1.299999000000000
 20
0.300007000000000
 11
-0.000001000000000
 21
0.600002000000000
  0
LINE
  8
0
  6
CONTINUOUS
 62
256
 10
-1.300000000000000
 20
-0.299995000000000
 11
-0.000004000000000
 21
-0.000001000000000
  0
LINE
  8
0
  6
CONTINUOUS
 62
256
 10
-1.300018000000000
 20
-4.599993000000000
 11
-1.299981000000000
 21
4.600004000000000
  0
ARC
  8
0
  6
CONTINUOUS
 62
256
 10
0.740001000000000
 20
-0.000003000000000
 40
5.539999000000000
 50
155.470187000000040
 51
204.529249999999960
  0
ARC
  8
0
  6
CONTINUOUS
 62
256
 10
-3.229986000000000
 20
3.450012000000000
 40
1.570000000000000
 50
179.999744999999990
 51
227.099745999999980
  0
ARC
  8
0
  6
CONTINUOUS
 62
256
 10
-3.230014000000000
 20
-3.449986000000000
 40
1.570000000000000
 50
132.899744000000000
 51
179.999744999999990
  0
LINE
  8
0
  6
CONTINUOUS
 62
256
 10
-4.299987000000000
 20
2.300014000000000
 11
-1.299990000000000
 21
2.300004000000000
  0
LINE
  8
0
  6
CONTINUOUS
 62
256
 10
-4.300006000000000
 20
-2.299980000000000
 11
-1.300007000000000
 21
-2.299992000000000
  0
LINE
  8
0
  6
CONTINUOUS
 62
256
 10
0.000016000000000
 20
4.599992000000000
 11
-0.000021000000000
 21
-4.599992000000000
  0
LINE
  8
0
  6
CONTINUOUS
 62
256
 10
-4.299978000000000
 20
4.600015000000000
 11
0.000013000000000
 21
4.599998000000000
  0
LINE
  8
0
  6
CONTINUOUS
 62
256
 10
-4.799962000000000
 20
3.900001000000000
 11
-4.299962000000000
 21
4.599999000000000
  0
LINE
  8
0
  6
CONTINUOUS
 62
256
 10
-4.800010000000000
 20
-3.899973000000000
 11
-4.799979000000000
 21
3.900012000000000
  0
LINE
  8
0
  6
CONTINUOUS
 62
256
 10
-4.299996000000000
 20
-4.599962000000000
 11
-4.799990000000000
 21
-3.899959000000000
  0
LINE
  8
0
  6
CONTINUOUS
 62
256
 10
-0.000025000000000
 20
-4.599994000000000
 11
-4.300015000000000
 21
-4.599977000000000
  0
POINT
  8
0
  6
CONTINUOUS
 62
256
 10
0.000000000000000
 20
0.000000000000000
  0
ENDBLK
  8
0
  0
BLOCK
  8
0
  2
ZU_SYM_6
 70
64
 10
0.000000000000000
 20
0.000000000000000
  0
LINE
  8
0
  6
CONTINUOUS
 62
256
 10
-1.299999000000000
 20
0.300007000000000
 11
-0.000001000000000
 21
0.600002000000000
  0
LINE
  8
0
  6
CONTINUOUS
 62
256
 10
-1.300000000000000
 20
-0.299995000000000
 11
-0.000004000000000
 21
-0.000001000000000
  0
LINE
  8
0
  6
CONTINUOUS
 62
256
 10
-1.300018000000000
 20
-4.599993000000000
 11
-1.299981000000000
 21
4.600004000000000
  0
ARC
  8
0
  6
CONTINUOUS
 62
256
 10
0.740001000000000
 20
-0.000003000000000
 40
5.539999000000000
 50
155.470187000000040
 51
204.529249999999960
  0
ARC
  8
0
  6
CONTINUOUS
 62
256
 10
-3.229986000000000
 20
3.450012000000000
 40
1.570000000000000
 50
179.999744999999990
 51
227.099745999999980
  0
ARC
  8
0
  6
CONTINUOUS
 62
256
 10
-3.230014000000000
 20
-3.449986000000000
 40
1.570000000000000
 50
132.899744000000000
 51
179.999744999999990
  0
LINE
  8
0
  6
CONTINUOUS
 62
256
 10
-4.299987000000000
 20
2.300014000000000
 11
-1.299990000000000
 21
2.300004000000000
  0
LINE
  8
0
  6
CONTINUOUS
 62
256
 10
-4.300006000000000
 20
-2.299980000000000
 11
-1.300007000000000
 21
-2.299992000000000
  0
LINE
  8
0
  6
CONTINUOUS
 62
256
 10
0.000016000000000
 20
4.599992000000000
 11
-0.000021000000000
 21
-4.599992000000000
  0
LINE
  8
0
  6
CONTINUOUS
 62
256
 10
-4.299978000000000
 20
4.600015000000000
 11
0.000013000000000
 21
4.599998000000000
  0
LINE
  8
0
  6
CONTINUOUS
 62
256
 10
-4.799962000000000
 20
3.900001000000000
 11
-4.299962000000000
 21
4.599999000000000
  0
LINE
  8
0
  6
CONTINUOUS
 62
256
 10
-4.800010000000000
 20
-3.899973000000000
 11
-4.799979000000000
 21
3.900012000000000
  0
LINE
  8
0
  6
CONTINUOUS
 62
256
 10
-4.299996000000000
 20
-4.599962000000000
 11
-4.799990000000000
 21
-3.899959000000000
  0
LINE
  8
0
  6
CONTINUOUS
 62
256
 10
-0.000025000000000
 20
-4.599994000000000
 11
-4.300015000000000
 21
-4.599977000000000
  0
POINT
  8
0
  6
CONTINUOUS
 62
256
 10
0.000000000000000
 20
0.000000000000000
  0
ENDBLK
  8
0
  0
BLOCK
  8
0
  2
ZU_SYM_7
 70
64
 10
0.000000000000000
 20
0.000000000000000
  0
LINE
  8
0
  6
CONTINUOUS
 62
256
 10
-1.299999000000000
 20
0.300007000000000
 11
-0.000001000000000
 21
0.600002000000000
  0
LINE
  8
0
  6
CONTINUOUS
 62
256
 10
-1.300000000000000
 20
-0.299995000000000
 11
-0.000004000000000
 21
-0.000001000000000
  0
LINE
  8
0
  6
CONTINUOUS
 62
256
 10
-1.300018000000000
 20
-4.599993000000000
 11
-1.299981000000000
 21
4.600004000000000
  0
ARC
  8
0
  6
CONTINUOUS
 62
256
 10
0.740001000000000
 20
-0.000003000000000
 40
5.539999000000000
 50
155.470187000000040
 51
204.529249999999960
  0
ARC
  8
0
  6
CONTINUOUS
 62
256
 10
-3.229986000000000
 20
3.450012000000000
 40
1.570000000000000
 50
179.999744999999990
 51
227.099745999999980
  0
ARC
  8
0
  6
CONTINUOUS
 62
256
 10
-3.230014000000000
 20
-3.449986000000000
 40
1.570000000000000
 50
132.899744000000000
 51
179.999744999999990
  0
LINE
  8
0
  6
CONTINUOUS
 62
256
 10
-4.299987000000000
 20
2.300014000000000
 11
-1.299990000000000
 21
2.300004000000000
  0
LINE
  8
0
  6
CONTINUOUS
 62
256
 10
-4.300006000000000
 20
-2.299980000000000
 11
-1.300007000000000
 21
-2.299992000000000
  0
LINE
  8
0
  6
CONTINUOUS
 62
256
 10
0.000016000000000
 20
4.599992000000000
 11
-0.000021000000000
 21
-4.599992000000000
  0
LINE
  8
0
  6
CONTINUOUS
 62
256
 10
-4.299978000000000
 20
4.600015000000000
 11
0.000013000000000
 21
4.599998000000000
  0
LINE
  8
0
  6
CONTINUOUS
 62
256
 10
-4.799962000000000
 20
3.900001000000000
 11
-4.299962000000000
 21
4.599999000000000
  0
LINE
  8
0
  6
CONTINUOUS
 62
256
 10
-4.800010000000000
 20
-3.899973000000000
 11
-4.799979000000000
 21
3.900012000000000
  0
LINE
  8
0
  6
CONTINUOUS
 62
256
 10
-4.299996000000000
 20
-4.599962000000000
 11
-4.799990000000000
 21
-3.899959000000000
  0
LINE
  8
0
  6
CONTINUOUS
 62
256
 10
-0.000025000000000
 20
-4.599994000000000
 11
-4.300015000000000
 21
-4.599977000000000
  0
POINT
  8
0
  6
CONTINUOUS
 62
256
 10
0.000000000000000
 20
0.000000000000000
  0
ENDBLK
  8
0
  0
BLOCK
  8
0
  2
ZU_SYM_8
 70
64
 10
0.000000000000000
 20
0.000000000000000
  0
LINE
  8
0
  6
CONTINUOUS
 62
256
 10
1.999999000000000
 20
-1.154699000000000
 11
-0.000002000000000
 21
-2.309398000000000
  0
LINE
  8
0
  6
CONTINUOUS
 62
256
 10
-1.999999000000000
 20
1.154700000000000
 11
0.000002000000000
 21
2.309399000000000
  0
LINE
  8
0
  6
CONTINUOUS
 62
256
 10
-0.000002000000000
 20
-2.309397000000000
 11
-1.999997000000000
 21
-1.154696000000000
  0
LINE
  8
0
  6
CONTINUOUS
 62
256
 10
1.999998000000000
 20
1.154696000000000
 11
0.000002000000000
 21
2.309399000000000
  0
LINE
  8
0
  6
CONTINUOUS
 62
256
 10
1.999998000000000
 20
1.154695000000000
 11
1.999999000000000
 21
-1.154699000000000
  0
LINE
  8
0
  6
CONTINUOUS
 62
256
 10
-1.999998000000000
 20
-1.154696000000000
 11
-1.999999000000000
 21
1.154700000000000
  0
POINT
  8
0
  6
CONTINUOUS
 62
256
 10
0.000000000000000
 20
0.000000000000000
  0
CIRCLE
  8
0
  6
CONTINUOUS
 62
256
 10
0.000000000000000
 20
0.000000000000000
 40
4.249999000000000
  0
ENDBLK
  8
0
  0
BLOCK
  8
0
  2
ZU_SYM_9
 70
64
 10
0.000000000000000
 20
0.000000000000000
  0
LINE
  8
0
  6
CONTINUOUS
 62
256
 10
1.999999000000000
 20
-1.154699000000000
 11
-0.000002000000000
 21
-2.309398000000000
  0
LINE
  8
0
  6
CONTINUOUS
 62
256
 10
-1.999999000000000
 20
1.154700000000000
 11
0.000002000000000
 21
2.309399000000000
  0
LINE
  8
0
  6
CONTINUOUS
 62
256
 10
-0.000002000000000
 20
-2.309397000000000
 11
-1.999997000000000
 21
-1.154696000000000
  0
LINE
  8
0
  6
CONTINUOUS
 62
256
 10
1.999998000000000
 20
1.154696000000000
 11
0.000002000000000
 21
2.309399000000000
  0
LINE
  8
0
  6
CONTINUOUS
 62
256
 10
1.999998000000000
 20
1.154695000000000
 11
1.999999000000000
 21
-1.154699000000000
  0
LINE
  8
0
  6
CONTINUOUS
 62
256
 10
-1.999998000000000
 20
-1.154696000000000
 11
-1.999999000000000
 21
1.154700000000000
  0
POINT
  8
0
  6
CONTINUOUS
 62
256
 10
0.000000000000000
 20
0.000000000000000
  0
CIRCLE
  8
0
  6
CONTINUOUS
 62
256
 10
0.000000000000000
 20
0.000000000000000
 40
4.249999000000000
  0
ENDBLK
  8
0
  0
BLOCK
  8
0
  2
ZU_SYM_10
 70
64
 10
0.000000000000000
 20
0.000000000000000
  0
LINE
  8
0
  6
CONTINUOUS
 62
256
 10
1.999999000000000
 20
-1.154699000000000
 11
-0.000002000000000
 21
-2.309398000000000
  0
LINE
  8
0
  6
CONTINUOUS
 62
256
 10
-1.999999000000000
 20
1.154700000000000
 11
0.000002000000000
 21
2.309399000000000
  0
LINE
  8
0
  6
CONTINUOUS
 62
256
 10
-0.000002000000000
 20
-2.309397000000000
 11
-1.999997000000000
 21
-1.154696000000000
  0
LINE
  8
0
  6
CONTINUOUS
 62
256
 10
1.999998000000000
 20
1.154696000000000
 11
0.000002000000000
 21
2.309399000000000
  0
LINE
  8
0
  6
CONTINUOUS
 62
256
 10
1.999998000000000
 20
1.154695000000000
 11
1.999999000000000
 21
-1.154699000000000
  0
LINE
  8
0
  6
CONTINUOUS
 62
256
 10
-1.999998000000000
 20
-1.154696000000000
 11
-1.999999000000000
 21
1.154700000000000
  0
POINT
  8
0
  6
CONTINUOUS
 62
256
 10
0.000000000000000
 20
0.000000000000000
  0
CIRCLE
  8
0
  6
CONTINUOUS
 62
256
 10
0.000000000000000
 20
0.000000000000000
 40
4.249999000000000
  0
ENDBLK
  8
0
  0
BLOCK
  8
0
  2
ZU_SYM_11
 70
64
 10
0.000000000000000
 20
0.000000000000000
  0
LINE
  8
0
  6
CONTINUOUS
 62
256
 10
1.999999000000000
 20
-1.154699000000000
 11
-0.000002000000000
 21
-2.309398000000000
  0
LINE
  8
0
  6
CONTINUOUS
 62
256
 10
-1.999999000000000
 20
1.154700000000000
 11
0.000002000000000
 21
2.309399000000000
  0
LINE
  8
0
  6
CONTINUOUS
 62
256
 10
-0.000002000000000
 20
-2.309397000000000
 11
-1.999997000000000
 21
-1.154696000000000
  0
LINE
  8
0
  6
CONTINUOUS
 62
256
 10
1.999998000000000
 20
1.154696000000000
 11
0.000002000000000
 21
2.309399000000000
  0
LINE
  8
0
  6
CONTINUOUS
 62
256
 10
1.999998000000000
 20
1.154695000000000
 11
1.999999000000000
 21
-1.154699000000000
  0
LINE
  8
0
  6
CONTINUOUS
 62
256
 10
-1.999998000000000
 20
-1.154696000000000
 11
-1.999999000000000
 21
1.154700000000000
  0
POINT
  8
0
  6
CONTINUOUS
 62
256
 10
0.000000000000000
 20
0.000000000000000
  0
CIRCLE
  8
0
  6
CONTINUOUS
 62
256
 10
0.000000000000000
 20
0.000000000000000
 40
4.249999000000000
  0
ENDBLK
  8
0
  0
BLOCK
  8
0
  2
ZU_SYM_12
 70
64
 10
0.000000000000000
 20
0.000000000000000
  0
LINE
  8
0
  6
CONTINUOUS
 62
256
 10
-1.299999000000000
 20
0.300007000000000
 11
-0.000001000000000
 21
0.600002000000000
  0
LINE
  8
0
  6
CONTINUOUS
 62
256
 10
-1.300000000000000
 20
-0.299995000000000
 11
-0.000004000000000
 21
-0.000001000000000
  0
LINE
  8
0
  6
CONTINUOUS
 62
256
 10
-1.300018000000000
 20
-4.599993000000000
 11
-1.299981000000000
 21
4.600004000000000
  0
ARC
  8
0
  6
CONTINUOUS
 62
256
 10
0.740001000000000
 20
-0.000003000000000
 40
5.539999000000000
 50
155.470187000000040
 51
204.529249999999960
  0
ARC
  8
0
  6
CONTINUOUS
 62
256
 10
-3.229986000000000
 20
3.450012000000000
 40
1.570000000000000
 50
179.999744999999990
 51
227.099745999999980
  0
ARC
  8
0
  6
CONTINUOUS
 62
256
 10
-3.230014000000000
 20
-3.449986000000000
 40
1.570000000000000
 50
132.899744000000000
 51
179.999744999999990
  0
LINE
  8
0
  6
CONTINUOUS
 62
256
 10
-4.299987000000000
 20
2.300014000000000
 11
-1.299990000000000
 21
2.300004000000000
  0
LINE
  8
0
  6
CONTINUOUS
 62
256
 10
-4.300006000000000
 20
-2.299980000000000
 11
-1.300007000000000
 21
-2.299992000000000
  0
LINE
  8
0
  6
CONTINUOUS
 62
256
 10
0.000016000000000
 20
4.599992000000000
 11
-0.000021000000000
 21
-4.599992000000000
  0
LINE
  8
0
  6
CONTINUOUS
 62
256
 10
-4.299978000000000
 20
4.600015000000000
 11
0.000013000000000
 21
4.599998000000000
  0
LINE
  8
0
  6
CONTINUOUS
 62
256
 10
-4.799962000000000
 20
3.900001000000000
 11
-4.299962000000000
 21
4.599999000000000
  0
LINE
  8
0
  6
CONTINUOUS
 62
256
 10
-4.800010000000000
 20
-3.899973000000000
 11
-4.799979000000000
 21
3.900012000000000
  0
LINE
  8
0
  6
CONTINUOUS
 62
256
 10
-4.299996000000000
 20
-4.599962000000000
 11
-4.799990000000000
 21
-3.899959000000000
  0
LINE
  8
0
  6
CONTINUOUS
 62
256
 10
-0.000025000000000
 20
-4.599994000000000
 11
-4.300015000000000
 21
-4.599977000000000
  0
POINT
  8
0
  6
CONTINUOUS
 62
256
 10
0.000000000000000
 20
0.000000000000000
  0
ENDBLK
  8
0
  0
ENDSEC
  0
SECTION
  2
ENTITIES
  0
LINE
  8
0
  6
CONTINUOUS
 62
256
 10
-271.592337999999980
 20
-36.009621000000003
 11
-271.592337999999980
 21
-45.076782000000001
  0
LINE
  8
0
  6
CONTINUOUS
 62
256
 10
-282.592337999999980
 20
-35.308964000000003
 11
-282.592337999999980
 21
-40.451732999999997
  0
LINE
  8
0
  6
CONTINUOUS
 62
256
 10
-350.592337999999980
 20
-45.076782000000001
 11
-350.592337999999980
 21
-36.330084999999997
  0
LINE
  8
0
  6
CONTINUOUS
 62
256
 10
-282.592337999999980
 20
-35.308964000000003
 11
-282.592337999999980
 21
-38.817691000000003
  0
LINE
  8
0
  6
CONTINUOUS
 62
256
 10
-272.092186000000030
 20
-35.500971999999997
 11
-271.592337999999980
 21
-36.009621000000003
  0
LINE
  8
0
  6
CONTINUOUS
 62
256
 10
-282.592337999999980
 20
-35.317691000000003
 11
-340.592337999999980
 21
-36.330084999999997
  0
LINE
  8
0
  6
CONTINUOUS
 62
256
 10
-282.592337999999980
 20
-35.317691000000003
 11
-272.092186000000030
 21
-35.500971999999997
  0
LINE
  8
0
  6
CONTINUOUS
 62
256
 10
-340.592337999999980
 20
-36.330084999999997
 11
-350.592337999999980
 21
-36.330084999999997
  0
ARC
  8
0
  6
CONTINUOUS
 62
256
 10
-336.092337999999980
 20
-172.256528000000000
 40
5.000000000000000
 50
180.000000000000000
 51
265.138594999999900
  0
ARC
  8
0
  6
CONTINUOUS
 62
256
 10
-286.092337999999980
 20
-172.256528000000000
 40
4.999999999999989
 50
274.861405000000100
 51
0.000000000000000
  0
LINE
  8
0
  6
CONTINUOUS
 62
256
 10
-341.092337999999980
 20
-148.817758000000000
 11
-341.092337999999980
 21
-172.256528000000000
  0
LINE
  8
0
  6
CONTINUOUS
 62
256
 10
-281.092337999999980
 20
-148.817758000000000
 11
-281.092337999999980
 21
-172.256528000000000
  0
LINE
  8
0
  6
CONTINUOUS
 62
256
 10
-329.842337999999980
 20
-145.317758000000000
 11
-329.842337999999980
 21
-144.817758000000000
  0
LINE
  8
0
  6
CONTINUOUS
 62
256
 10
-292.342337999999980
 20
-145.317758000000000
 11
-292.342337999999980
 21
-144.817758000000000
  0
LINE
  8
0
  6
CONTINUOUS
 62
256
 10
-282.893696999999970
 20
-55.226393999999999
 11
-271.751224999999980
 21
-45.193666999999998
  0
LINE
  8
0
  6
CONTINUOUS
 62
256
 10
-275.000973999999990
 20
-63.119117000000003
 11
-264.968247000000020
 21
-51.976644999999998
  0
ARC
  8
0
  6
CONTINUOUS
 62
256
 10
-311.092337999999980
 20
-91.317757999999998
 40
52.500000000000014
 50
23.136889000000000
 51
23.663704999999993
  0
ARC
  8
0
  6
CONTINUOUS
 62
256
 10
-267.008506000000010
 20
-61.004961000000002
 40
0.999999999999993
 50
217.785803000000100
 51
267.000000000000910
  0
ARC
  8
0
  6
CONTINUOUS
 62
256
 10
-266.942687999999980
 20
-61.100903000000002
 40
0.999999999999996
 50
92.999999999999091
 51
211.115752999999190
  0
ARC
  8
0
  6
CONTINUOUS
 62
256
 10
-260.114401999999980
 20
-76.817757999999998
 40
0.500000000000015
 50
195.877701999999800
 51
270.000000000000000
  0
LINE
  8
0
  6
CONTINUOUS
 62
256
 10
-260.012422000000020
 20
-77.317757999999998
 11
-260.114401999999980
 21
-77.317757999999998
  0
ARC
  8
0
  6
CONTINUOUS
 62
256
 10
-260.012422000000020
 20
-77.817757999999998
 40
0.499999999999976
 50
7.797849999999888
 51
90.000000000000000
  0
ARC
  8
0
  6
CONTINUOUS
 62
256
 10
-358.592337999999980
 20
-91.317757999999998
 40
100.000000000000000
 50
0.000000000000000
 51
7.797850000000000
  0
ARC
  8
0
  6
CONTINUOUS
 62
256
 10
-311.092337999999980
 20
-91.317757999999998
 40
52.500000000000021
 50
15.877701999999992
 51
18.664571000000006
  0
ARC
  8
0
  6
CONTINUOUS
 62
256
 10
-311.092337999999980
 20
-91.317757999999998
 40
52.500000000000014
 50
28.562833999999995
 51
28.973449000000016
  0
ARC
  8
0
  6
CONTINUOUS
 62
256
 10
-261.092337999999980
 20
-67.817757999999998
 40
0.999999999999996
 50
272.999999999999090
 51
87.000000000000909
  0
ARC
  8
0
  6
CONTINUOUS
 62
256
 10
-264.242064000000030
 20
-65.485573000000002
 40
0.999999999999996
 50
92.999999999999091
 51
208.871352000000170
  0
LINE
  8
0
  6
CONTINUOUS
 62
256
 10
-264.201483000000000
 20
-66.653442999999996
 11
-261.040002000000020
 21
-66.819129000000004
  0
ARC
  8
0
  6
CONTINUOUS
 62
256
 10
-264.149147000000030
 20
-65.654813000000004
 40
1.000000000000009
 50
208.664584000000020
 51
267.000000000000910
  0
ARC
  8
0
  6
CONTINUOUS
 62
256
 10
-262.078689000000000
 20
-69.872196000000002
 40
0.999999999999996
 50
92.999999999999091
 51
203.631430000000390
  0
ARC
  8
0
  6
CONTINUOUS
 62
256
 10
-260.405992000000030
 20
-74.196303000000000
 40
1.000000000000005
 50
110.070332000000090
 51
198.664571000000760
  0
ARC
  8
0
  6
CONTINUOUS
 62
256
 10
-261.905524000000010
 20
-70.272396999999998
 40
0.999999999999977
 50
203.164432000000290
 51
267.000000000000910
  0
LINE
  8
0
  6
CONTINUOUS
 62
256
 10
-261.957859999999980
 20
-71.271026000000006
 11
-261.040002000000020
 21
-71.319129000000004
  0
ARC
  8
0
  6
CONTINUOUS
 62
256
 10
-261.092337999999980
 20
-72.317757999999998
 40
1.000000000000005
 50
290.070332000000060
 51
87.000000000000909
  0
LINE
  8
0
  6
CONTINUOUS
 62
256
 10
-262.131025000000020
 20
-68.873565999999997
 11
-261.040002000000020
 21
-68.816388000000003
  0
ARC
  8
0
  6
CONTINUOUS
 62
256
 10
-261.092337999999980
 20
-63.317757999999998
 40
0.999999999999996
 50
272.999999999999090
 51
87.000000000000909
  0
LINE
  8
0
  6
CONTINUOUS
 62
256
 10
-264.294400000000000
 20
-64.486943999999994
 11
-261.040002000000020
 21
-64.316388000000003
  0
ARC
  8
0
  6
CONTINUOUS
 62
256
 10
-261.592337999999980
 20
-58.817757999999998
 40
0.999999999999996
 50
272.999999999999090
 51
87.000000000000909
  0
LINE
  8
0
  6
CONTINUOUS
 62
256
 10
-266.995024000000000
 20
-60.102274000000001
 11
-261.540002000000020
 21
-59.816388000000003
  0
LINE
  8
0
  6
CONTINUOUS
 62
256
 10
-267.060841999999980
 20
-62.003590000000003
 11
-261.040002000000020
 21
-62.319128999999997
  0
LINE
  8
0
  6
CONTINUOUS
 62
256
 10
-291.792337999999970
 20
-37.817757999999998
 11
-311.092337999999980
 21
-37.817757999999998
  0
ARC
  8
0
  6
CONTINUOUS
 62
256
 10
-291.792337999999970
 20
-38.517758000000001
 40
0.699999999999989
 50
0.000000000000000
 51
90.000000000000000
  0
LINE
  8
0
  6
CONTINUOUS
 62
256
 10
-291.092337999999980
 20
-38.517758000000001
 11
-291.092337999999980
 21
-42.111559999999997
  0
ARC
  8
0
  6
CONTINUOUS
 62
256
 10
-311.092337999999980
 20
-91.317757999999998
 40
52.500000000000007
 50
66.304918999999984
 51
66.888397999999981
  0
ARC
  8
0
  6
CONTINUOUS
 62
256
 10
-290.092337999999980
 20
-42.111559999999997
 40
1.000000000000000
 50
180.000000000000000
 51
246.888398000001160
  0
ARC
  8
0
  6
CONTINUOUS
 62
256
 10
-311.092337999999980
 20
-91.317757999999998
 40
52.499999999999993
 50
66.336295000000021
 51
66.888397999999981
  0
ARC
  8
0
  6
CONTINUOUS
 62
256
 10
-311.092337999999980
 20
-91.317757999999998
 40
52.500000000000014
 50
61.026550999999969
 51
61.437165999999969
  0
ARC
  8
0
  6
CONTINUOUS
 62
256
 10
-311.092337999999980
 20
-91.317757999999998
 40
52.500000000000014
 50
61.026550999999969
 51
61.437165999999969
  0
ARC
  8
0
  6
CONTINUOUS
 62
256
 10
-278.592337999999980
 20
-41.817757999999998
 40
0.999999999999997
 50
2.999999999999903
 51
177.000000000000110
  0
ARC
  8
0
  6
CONTINUOUS
 62
256
 10
-283.092337999999980
 20
-41.317757999999998
 40
0.999999999999997
 50
2.999999999999903
 51
177.000000000000110
  0
LINE
  8
0
  6
CONTINUOUS
 62
256
 10
-279.876852999999980
 20
-47.220444000000001
 11
-279.590967999999980
 21
-41.765422000000001
  0
LINE
  8
0
  6
CONTINUOUS
 62
256
 10
-281.778169999999990
 20
-47.286262000000001
 11
-282.093708999999990
 21
-41.265422000000001
  0
LINE
  8
0
  6
CONTINUOUS
 62
256
 10
-284.261524000000010
 20
-44.519820000000003
 11
-284.090967999999980
 21
-41.265422000000001
  0
ARC
  8
0
  6
CONTINUOUS
 62
256
 10
-285.260153000000000
 20
-44.467483999999999
 40
0.999999999999995
 50
241.128648000000770
 51
357.000000000000060
  0
LINE
  8
0
  6
CONTINUOUS
 62
256
 10
-286.428023000000000
 20
-44.426903000000003
 11
-286.593708999999990
 21
-41.265422000000001
  0
ARC
  8
0
  6
CONTINUOUS
 62
256
 10
-285.429393000000000
 20
-44.374566999999999
 40
0.999999999999997
 50
182.999999999999890
 51
241.335416000001200
  0
ARC
  8
0
  6
CONTINUOUS
 62
256
 10
-287.592337999999980
 20
-41.317757999999998
 40
0.999999999999997
 50
2.999999999999903
 51
177.000000000000110
  0
ARC
  8
0
  6
CONTINUOUS
 62
256
 10
-289.646775999999990
 20
-42.304108999999997
 40
0.999999999999996
 50
246.368570000000860
 51
357.000000000000060
  0
LINE
  8
0
  6
CONTINUOUS
 62
256
 10
-288.648146000000000
 20
-42.356445000000001
 11
-288.590967999999980
 21
-41.265422000000001
  0
ARC
  8
0
  6
CONTINUOUS
 62
256
 10
-280.875482999999970
 20
-47.168107999999997
 40
0.999999999999996
 50
235.611524000000170
 51
357.000000000000060
  0
ARC
  8
0
  6
CONTINUOUS
 62
256
 10
-280.779540999999990
 20
-47.233925999999997
 40
0.999999999999997
 50
182.999999999999890
 51
235.486921000001050
  0
ARC
  8
0
  6
CONTINUOUS
 62
256
 10
-265.711390999999990
 20
-51.307513999999998
 40
0.999999999999982
 50
317.999999999999320
 51
41.401105999999722
  0
LINE
  8
0
  6
CONTINUOUS
 62
256
 10
-267.743637999999980
 20
-57.494010000000003
 11
-261.540002000000020
 21
-57.819128999999997
  0
ARC
  8
0
  6
CONTINUOUS
 62
256
 10
-267.691302000000010
 20
-56.495381000000002
 40
0.999999999999982
 50
137.999999999999320
 51
267.000000000000910
  0
ARC
  8
0
  6
CONTINUOUS
 62
256
 10
-271.082093999999980
 20
-45.936810999999999
 40
0.999999999999983
 50
48.598894000000925
 51
132.000000000000200
  0
ARC
  8
0
  6
CONTINUOUS
 62
256
 10
-311.092337999999980
 20
-91.317757999999998
 40
61.499999999999979
 50
41.401106000000013
 51
48.598894000000001
  0
LINE
  8
0
  6
CONTINUOUS
 62
256
 10
-277.268590000000020
 20
-47.969057999999997
 11
-277.593708999999990
 21
-41.765422000000001
  0
ARC
  8
0
  6
CONTINUOUS
 62
256
 10
-276.269961000000020
 20
-47.916722000000000
 40
0.999999999999997
 50
182.999999999999890
 51
312.000000000000170
  0
LINE
  8
0
  6
CONTINUOUS
 62
256
 10
-339.290979999999990
 20
-55.226393999999999
 11
-350.433451999999990
 21
-45.193666999999998
  0
LINE
  8
0
  6
CONTINUOUS
 62
256
 10
-347.183702999999980
 20
-63.119117000000003
 11
-357.216430000000000
 21
-51.976644999999998
  0
ARC
  8
0
  6
CONTINUOUS
 62
256
 10
-311.092337999999980
 20
-91.317757999999998
 40
52.500000000000007
 50
156.336295000000010
 51
156.863111000000000
  0
ARC
  8
0
  6
CONTINUOUS
 62
256
 10
-355.176171000000010
 20
-61.004961000000002
 40
0.999999999999996
 50
272.999999999999090
 51
322.214196999999900
  0
ARC
  8
0
  6
CONTINUOUS
 62
256
 10
-355.241988999999990
 20
-61.100903000000002
 40
1.000000000000021
 50
328.884247000000810
 51
87.000000000000909
  0
ARC
  8
0
  6
CONTINUOUS
 62
256
 10
-362.070274999999980
 20
-76.817757999999998
 40
0.500000000000000
 50
270.000000000000000
 51
344.122298000000230
  0
LINE
  8
0
  6
CONTINUOUS
 62
256
 10
-362.172255000000010
 20
-77.317757999999998
 11
-362.070274999999980
 21
-77.317757999999998
  0
ARC
  8
0
  6
CONTINUOUS
 62
256
 10
-362.172255000000010
 20
-77.817757999999998
 40
0.500000000000000
 50
90.000000000000000
 51
172.202150000000130
  0
ARC
  8
0
  6
CONTINUOUS
 62
256
 10
-263.592337999999980
 20
-91.317757999999998
 40
100.000000000000010
 50
172.202150000000020
 51
180.000000000000000
  0
ARC
  8
0
  6
CONTINUOUS
 62
256
 10
-311.092337999999980
 20
-91.317757999999998
 40
52.499999999999979
 50
161.335429000000000
 51
164.122297999999970
  0
ARC
  8
0
  6
CONTINUOUS
 62
256
 10
-311.092337999999980
 20
-91.317757999999998
 40
52.500000000000028
 50
151.026551000000040
 51
151.437165999999960
  0
ARC
  8
0
  6
CONTINUOUS
 62
256
 10
-361.092337999999980
 20
-67.817757999999998
 40
0.999999999999996
 50
92.999999999999091
 51
267.000000000000910
  0
ARC
  8
0
  6
CONTINUOUS
 62
256
 10
-357.942612999999990
 20
-65.485573000000002
 40
0.999999999999995
 50
331.128647999999880
 51
87.000000000000909
  0
LINE
  8
0
  6
CONTINUOUS
 62
256
 10
-357.983194000000030
 20
-66.653442999999996
 11
-361.144674000000010
 21
-66.819129000000004
  0
ARC
  8
0
  6
CONTINUOUS
 62
256
 10
-358.035529999999990
 20
-65.654813000000004
 40
0.999999999999996
 50
272.999999999999090
 51
331.335416000000010
  0
ARC
  8
0
  6
CONTINUOUS
 62
256
 10
-360.105988000000020
 20
-69.872196000000002
 40
0.999999999999982
 50
336.368569999999640
 51
87.000000000000909
  0
ARC
  8
0
  6
CONTINUOUS
 62
256
 10
-361.778685000000000
 20
-74.196303000000000
 40
0.999999999999979
 50
341.335428999999240
 51
69.929667999999921
  0
ARC
  8
0
  6
CONTINUOUS
 62
256
 10
-360.279153000000010
 20
-70.272396999999998
 40
0.999999999999996
 50
272.999999999999090
 51
336.835567999999680
  0
LINE
  8
0
  6
CONTINUOUS
 62
256
 10
-360.226816999999980
 20
-71.271026000000006
 11
-361.144674000000010
 21
-71.319129000000004
  0
ARC
  8
0
  6
CONTINUOUS
 62
256
 10
-361.092337999999980
 20
-72.317757999999998
 40
0.999999999999996
 50
92.999999999999091
 51
249.929667999999880
  0
LINE
  8
0
  6
CONTINUOUS
 62
256
 10
-360.053652000000000
 20
-68.873565999999997
 11
-361.144674000000010
 21
-68.816388000000003
  0
ARC
  8
0
  6
CONTINUOUS
 62
256
 10
-361.092337999999980
 20
-63.317757999999998
 40
0.999999999999996
 50
92.999999999999091
 51
267.000000000000910
  0
LINE
  8
0
  6
CONTINUOUS
 62
256
 10
-357.890277000000030
 20
-64.486943999999994
 11
-361.144674000000010
 21
-64.316388000000003
  0
ARC
  8
0
  6
CONTINUOUS
 62
256
 10
-360.592337999999980
 20
-58.817757999999998
 40
0.999999999999996
 50
92.999999999999091
 51
267.000000000000910
  0
LINE
  8
0
  6
CONTINUOUS
 62
256
 10
-355.189653000000020
 20
-60.102274000000001
 11
-360.644674000000010
 21
-59.816388000000003
  0
LINE
  8
0
  6
CONTINUOUS
 62
256
 10
-355.123834999999990
 20
-62.003590000000003
 11
-361.144674000000010
 21
-62.319128999999997
  0
LINE
  8
0
  6
CONTINUOUS
 62
256
 10
-330.392338000000000
 20
-37.817757999999998
 11
-311.092337999999980
 21
-37.817757999999998
  0
ARC
  8
0
  6
CONTINUOUS
 62
256
 10
-330.392338000000000
 20
-38.517758000000001
 40
0.700000000000003
 50
90.000000000000000
 51
180.000000000000000
  0
LINE
  8
0
  6
CONTINUOUS
 62
256
 10
-331.092337999999980
 20
-38.517758000000001
 11
-331.092337999999980
 21
-42.111559999999997
  0
ARC
  8
0
  6
CONTINUOUS
 62
256
 10
-311.092337999999980
 20
-91.317757999999998
 40
52.500000000000007
 50
113.111602000000020
 51
113.695081000000030
  0
ARC
  8
0
  6
CONTINUOUS
 62
256
 10
-332.092337999999980
 20
-42.111559999999997
 40
0.999999999999995
 50
293.111601999998870
 51
0.000000000000000
  0
ARC
  8
0
  6
CONTINUOUS
 62
256
 10
-311.092337999999980
 20
-91.317757999999998
 40
52.500000000000007
 50
113.111602000000020
 51
113.663704999999980
  0
ARC
  8
0
  6
CONTINUOUS
 62
256
 10
-311.092337999999980
 20
-91.317757999999998
 40
52.499999999999993
 50
118.562833999999970
 51
118.973448999999970
  0
ARC
  8
0
  6
CONTINUOUS
 62
256
 10
-311.092337999999980
 20
-91.317757999999998
 40
52.499999999999993
 50
118.562833999999970
 51
118.973448999999970
  0
ARC
  8
0
  6
CONTINUOUS
 62
256
 10
-343.592337999999980
 20
-41.817757999999998
 40
0.999999999999997
 50
2.999999999999903
 51
177.000000000000110
  0
ARC
  8
0
  6
CONTINUOUS
 62
256
 10
-339.092337999999980
 20
-41.317757999999998
 40
0.999999999999997
 50
2.999999999999903
 51
177.000000000000110
  0
LINE
  8
0
  6
CONTINUOUS
 62
256
 10
-342.307822999999980
 20
-47.220444000000001
 11
-342.593708999999990
 21
-41.765422000000001
  0
LINE
  8
0
  6
CONTINUOUS
 62
256
 10
-340.406506999999980
 20
-47.286262000000001
 11
-340.090967999999980
 21
-41.265422000000001
  0
LINE
  8
0
  6
CONTINUOUS
 62
256
 10
-337.923153000000010
 20
-44.519820000000003
 11
-338.093708999999990
 21
-41.265422000000001
  0
ARC
  8
0
  6
CONTINUOUS
 62
256
 10
-336.924524000000020
 20
-44.467483999999999
 40
0.999999999999997
 50
182.999999999999890
 51
298.871351999999210
  0
LINE
  8
0
  6
CONTINUOUS
 62
256
 10
-335.756654000000030
 20
-44.426903000000003
 11
-335.590967999999980
 21
-41.265422000000001
  0
ARC
  8
0
  6
CONTINUOUS
 62
256
 10
-336.755284000000020
 20
-44.374566999999999
 40
0.999999999999989
 50
298.664583999998800
 51
357.000000000000060
  0
ARC
  8
0
  6
CONTINUOUS
 62
256
 10
-334.592337999999980
 20
-41.317757999999998
 40
0.999999999999997
 50
2.999999999999903
 51
177.000000000000110
  0
ARC
  8
0
  6
CONTINUOUS
 62
256
 10
-332.537900999999980
 20
-42.304108999999997
 40
0.999999999999997
 50
182.999999999999890
 51
293.631429999999170
  0
LINE
  8
0
  6
CONTINUOUS
 62
256
 10
-333.536531000000020
 20
-42.356445000000001
 11
-333.593708999999990
 21
-41.265422000000001
  0
ARC
  8
0
  6
CONTINUOUS
 62
256
 10
-341.309193999999990
 20
-47.168107999999997
 40
0.999999999999997
 50
182.999999999999890
 51
304.388475999999800
  0
ARC
  8
0
  6
CONTINUOUS
 62
256
 10
-341.405136000000030
 20
-47.233925999999997
 40
0.999999999999990
 50
304.513078999998980
 51
357.000000000000060
  0
ARC
  8
0
  6
CONTINUOUS
 62
256
 10
-356.473284999999980
 20
-51.307513999999998
 40
1.000000000000002
 50
138.598894000000290
 51
222.000000000000680
  0
LINE
  8
0
  6
CONTINUOUS
 62
256
 10
-354.441038999999990
 20
-57.494010000000003
 11
-360.644674000000010
 21
-57.819128999999997
  0
ARC
  8
0
  6
CONTINUOUS
 62
256
 10
-354.493375000000010
 20
-56.495381000000002
 40
0.999999999999996
 50
272.999999999999090
 51
42.000000000000718
  0
ARC
  8
0
  6
CONTINUOUS
 62
256
 10
-351.102582999999980
 20
-45.936810999999999
 40
1.000000000000003
 50
47.999999999999801
 51
131.401105999999090
  0
ARC
  8
0
  6
CONTINUOUS
 62
256
 10
-311.092337999999980
 20
-91.317757999999998
 40
61.500000000000007
 50
131.401106000000000
 51
138.598893999999970
  0
LINE
  8
0
  6
CONTINUOUS
 62
256
 10
-344.916087000000000
 20
-47.969057999999997
 11
-344.590967999999980
 21
-41.765422000000001
  0
ARC
  8
0
  6
CONTINUOUS
 62
256
 10
-345.914716000000000
 20
-47.916722000000000
 40
1.000000000000003
 50
227.999999999999800
 51
357.000000000000060
  0
ARC
  8
0
  6
CONTINUOUS
 62
256
 10
-263.592337999999980
 20
-91.317757999999998
 40
100.000000000000000
 50
180.000000000000000
 51
187.797850000000010
  0
ARC
  8
0
  6
CONTINUOUS
 62
256
 10
-358.592337999999980
 20
-91.317757999999998
 40
100.000000000000010
 50
352.202150000000020
 51
0.000000000000000
  0
LINE
  8
0
  6
CONTINUOUS
 62
256
 10
-339.290979999999990
 20
-127.409122999999990
 11
-350.433451999999990
 21
-137.441849999999990
  0
LINE
  8
0
  6
CONTINUOUS
 62
256
 10
-347.183702999999980
 20
-119.516400000000000
 11
-357.216430000000000
 21
-130.658872000000000
  0
ARC
  8
0
  6
CONTINUOUS
 62
256
 10
-311.092337999999980
 20
-91.317757999999998
 40
52.500000000000007
 50
203.136888999999970
 51
203.663704999999990
  0
ARC
  8
0
  6
CONTINUOUS
 62
256
 10
-355.176171000000010
 20
-121.630556000000000
 40
0.999999999999998
 50
37.785803000000442
 51
87.000000000000909
  0
ARC
  8
0
  6
CONTINUOUS
 62
256
 10
-355.241988999999990
 20
-121.534614000000000
 40
0.999999999999996
 50
272.999999999999090
 51
31.115752999999547
  0
ARC
  8
0
  6
CONTINUOUS
 62
256
 10
-362.070274999999980
 20
-105.817758000000000
 40
0.500000000000015
 50
15.877701999999818
 51
90.000000000000000
  0
LINE
  8
0
  6
CONTINUOUS
 62
256
 10
-362.172255000000010
 20
-105.317758000000000
 11
-362.070274999999980
 21
-105.317758000000000
  0
ARC
  8
0
  6
CONTINUOUS
 62
256
 10
-362.172255000000010
 20
-104.817758000000000
 40
0.499999999999976
 50
187.797849999999870
 51
270.000000000000000
  0
ARC
  8
0
  6
CONTINUOUS
 62
256
 10
-311.092337999999980
 20
-91.317757999999998
 40
52.500000000000021
 50
195.877701999999970
 51
198.664570999999970
  0
ARC
  8
0
  6
CONTINUOUS
 62
256
 10
-311.092337999999980
 20
-91.317757999999998
 40
52.500000000000014
 50
208.562833999999980
 51
208.973449000000020
  0
ARC
  8
0
  6
CONTINUOUS
 62
256
 10
-361.092337999999980
 20
-114.817758000000000
 40
0.999999999999996
 50
92.999999999999091
 51
267.000000000000910
  0
ARC
  8
0
  6
CONTINUOUS
 62
256
 10
-357.942612999999990
 20
-117.149944000000000
 40
0.999999999999996
 50
272.999999999999090
 51
28.871352000000165
  0
LINE
  8
0
  6
CONTINUOUS
 62
256
 10
-357.983194000000030
 20
-115.982074000000000
 11
-361.144674000000010
 21
-115.816388000000000
  0
ARC
  8
0
  6
CONTINUOUS
 62
256
 10
-358.035529999999990
 20
-116.980704000000000
 40
1.000000000000009
 50
28.664584000000026
 51
87.000000000000909
  0
ARC
  8
0
  6
CONTINUOUS
 62
256
 10
-360.105988000000020
 20
-112.763321000000000
 40
0.999999999999996
 50
272.999999999999090
 51
23.631430000000389
  0
ARC
  8
0
  6
CONTINUOUS
 62
256
 10
-361.778685000000000
 20
-108.439214000000010
 40
1.000000000000005
 50
290.070332000000060
 51
18.664571000000766
  0
ARC
  8
0
  6
CONTINUOUS
 62
256
 10
-360.279153000000010
 20
-112.363120000000000
 40
0.999999999999977
 50
23.164432000000296
 51
87.000000000000909
  0
LINE
  8
0
  6
CONTINUOUS
 62
256
 10
-360.226816999999980
 20
-111.364491000000000
 11
-361.144674000000010
 21
-111.316388000000000
  0
ARC
  8
0
  6
CONTINUOUS
 62
256
 10
-361.092337999999980
 20
-110.317758000000000
 40
1.000000000000005
 50
110.070332000000090
 51
267.000000000000910
  0
LINE
  8
0
  6
CONTINUOUS
 62
256
 10
-360.053652000000000
 20
-113.761951000000000
 11
-361.144674000000010
 21
-113.819129000000000
  0
ARC
  8
0
  6
CONTINUOUS
 62
256
 10
-361.092337999999980
 20
-119.317758000000000
 40
0.999999999999996
 50
92.999999999999091
 51
267.000000000000910
  0
LINE
  8
0
  6
CONTINUOUS
 62
256
 10
-357.890277000000030
 20
-118.148573000000000
 11
-361.144674000000010
 21
-118.319129000000000
  0
ARC
  8
0
  6
CONTINUOUS
 62
256
 10
-360.592337999999980
 20
-123.817758000000000
 40
0.999999999999996
 50
92.999999999999091
 51
267.000000000000910
  0
LINE
  8
0
  6
CONTINUOUS
 62
256
 10
-355.189653000000020
 20
-122.533243000000000
 11
-360.644674000000010
 21
-122.819129000000000
  0
LINE
  8
0
  6
CONTINUOUS
 62
256
 10
-355.123834999999990
 20
-120.631927000000000
 11
-361.144674000000010
 21
-120.316388000000000
  0
ARC
  8
0
  6
CONTINUOUS
 62
256
 10
-311.092337999999980
 20
-91.317757999999998
 40
52.500000000000028
 50
241.026550999999960
 51
241.437165999999990
  0
ARC
  8
0
  6
CONTINUOUS
 62
256
 10
-311.092337999999980
 20
-91.317757999999998
 40
52.500000000000028
 50
241.026550999999960
 51
241.437165999999990
  0
LINE
  8
0
  6
CONTINUOUS
 62
256
 10
-342.307822999999980
 20
-135.415073000000010
 11
-342.593708999999990
 21
-140.870093999999990
  0
LINE
  8
0
  6
CONTINUOUS
 62
256
 10
-340.406506999999980
 20
-135.349255000000000
 11
-340.090967999999980
 21
-141.370093999999990
  0
ARC
  8
0
  6
CONTINUOUS
 62
256
 10
-336.924524000000020
 20
-138.168033000000010
 40
0.999999999999988
 50
61.128648000000545
 51
176.999999999999290
  0
ARC
  8
0
  6
CONTINUOUS
 62
256
 10
-336.755284000000020
 20
-138.260950000000010
 40
0.999999999999997
 50
3.000000000000716
 51
61.335416000001402
  0
ARC
  8
0
  6
CONTINUOUS
 62
256
 10
-341.309193999999990
 20
-135.467409000000000
 40
1.000000000000002
 50
55.611524000000401
 51
176.999999999999290
  0
ARC
  8
0
  6
CONTINUOUS
 62
256
 10
-341.405136000000030
 20
-135.401591000000000
 40
0.999999999999997
 50
3.000000000000716
 51
55.486921000000805
  0
ARC
  8
0
  6
CONTINUOUS
 62
256
 10
-356.473284999999980
 20
-131.328003000000000
 40
0.999999999999987
 50
137.999999999999010
 51
221.401106000000030
  0
LINE
  8
0
  6
CONTINUOUS
 62
256
 10
-354.441038999999990
 20
-125.141507000000000
 11
-360.644674000000010
 21
-124.816388000000000
  0
ARC
  8
0
  6
CONTINUOUS
 62
256
 10
-354.493375000000010
 20
-126.140136000000000
 40
0.999999999999987
 50
317.999999999998980
 51
87.000000000000909
  0
ARC
  8
0
  6
CONTINUOUS
 62
256
 10
-351.102582999999980
 20
-136.698705999999990
 40
0.999999999999988
 50
228.598894000001170
 51
311.999999999999940
  0
ARC
  8
0
  6
CONTINUOUS
 62
256
 10
-311.092337999999980
 20
-91.317757999999998
 40
61.500000000000007
 50
221.401105999999970
 51
228.598894000000000
  0
LINE
  8
0
  6
CONTINUOUS
 62
256
 10
-344.916087000000000
 20
-134.666459000000000
 11
-344.590967999999980
 21
-140.870093999999990
  0
ARC
  8
0
  6
CONTINUOUS
 62
256
 10
-345.914716000000000
 20
-134.718795000000000
 40
0.999999999999997
 50
3.000000000000716
 51
131.999999999999940
  0
LINE
  8
0
  6
CONTINUOUS
 62
256
 10
-282.893696999999970
 20
-127.409122999999990
 11
-271.751224999999980
 21
-137.441849999999990
  0
LINE
  8
0
  6
CONTINUOUS
 62
256
 10
-275.000973999999990
 20
-119.516400000000000
 11
-264.968247000000020
 21
-130.658872000000000
  0
ARC
  8
0
  6
CONTINUOUS
 62
256
 10
-311.092337999999980
 20
-91.317757999999998
 40
52.500000000000000
 50
336.336295000000010
 51
336.863111000000000
  0
ARC
  8
0
  6
CONTINUOUS
 62
256
 10
-267.008506000000010
 20
-121.630556000000000
 40
0.999999999999996
 50
92.999999999999091
 51
142.214196999999560
  0
ARC
  8
0
  6
CONTINUOUS
 62
256
 10
-266.942687999999980
 20
-121.534614000000000
 40
1.000000000000025
 50
148.884247000000470
 51
267.000000000000910
  0
ARC
  8
0
  6
CONTINUOUS
 62
256
 10
-260.114401999999980
 20
-105.817758000000000
 40
0.500000000000000
 50
90.000000000000000
 51
164.122298000000200
  0
LINE
  8
0
  6
CONTINUOUS
 62
256
 10
-260.012422000000020
 20
-105.317758000000000
 11
-260.114401999999980
 21
-105.317758000000000
  0
ARC
  8
0
  6
CONTINUOUS
 62
256
 10
-260.012422000000020
 20
-104.817758000000000
 40
0.500000000000000
 50
270.000000000000000
 51
352.202150000000130
  0
ARC
  8
0
  6
CONTINUOUS
 62
256
 10
-311.092337999999980
 20
-91.317757999999998
 40
52.499999999999979
 50
341.335429000000030
 51
344.122298000000000
  0
ARC
  8
0
  6
CONTINUOUS
 62
256
 10
-311.092337999999980
 20
-91.317757999999998
 40
52.499999999999986
 50
331.026550999999980
 51
331.437165999999930
  0
ARC
  8
0
  6
CONTINUOUS
 62
256
 10
-261.092337999999980
 20
-114.817758000000000
 40
0.999999999999996
 50
272.999999999999090
 51
87.000000000000909
  0
ARC
  8
0
  6
CONTINUOUS
 62
256
 10
-264.242064000000030
 20
-117.149944000000000
 40
0.999999999999995
 50
151.128647999999830
 51
267.000000000000910
  0
LINE
  8
0
  6
CONTINUOUS
 62
256
 10
-264.201483000000000
 20
-115.982074000000000
 11
-261.040002000000020
 21
-115.816388000000000
  0
ARC
  8
0
  6
CONTINUOUS
 62
256
 10
-264.149147000000030
 20
-116.980704000000000
 40
0.999999999999996
 50
92.999999999999091
 51
151.335415999999980
  0
ARC
  8
0
  6
CONTINUOUS
 62
256
 10
-262.078689000000000
 20
-112.763321000000000
 40
0.999999999999982
 50
156.368569999999610
 51
267.000000000000910
  0
ARC
  8
0
  6
CONTINUOUS
 62
256
 10
-260.405992000000030
 20
-108.439214000000010
 40
0.999999999999979
 50
161.335428999999240
 51
249.929667999999880
  0
ARC
  8
0
  6
CONTINUOUS
 62
256
 10
-261.905524000000010
 20
-112.363120000000000
 40
0.999999999999996
 50
92.999999999999091
 51
156.835567999999710
  0
LINE
  8
0
  6
CONTINUOUS
 62
256
 10
-261.957859999999980
 20
-111.364491000000000
 11
-261.040002000000020
 21
-111.316388000000000
  0
ARC
  8
0
  6
CONTINUOUS
 62
256
 10
-261.092337999999980
 20
-110.317758000000000
 40
0.999999999999996
 50
272.999999999999090
 51
69.929667999999921
  0
LINE
  8
0
  6
CONTINUOUS
 62
256
 10
-262.131025000000020
 20
-113.761951000000000
 11
-261.040002000000020
 21
-113.819129000000000
  0
ARC
  8
0
  6
CONTINUOUS
 62
256
 10
-261.092337999999980
 20
-119.317758000000000
 40
0.999999999999996
 50
272.999999999999090
 51
87.000000000000909
  0
LINE
  8
0
  6
CONTINUOUS
 62
256
 10
-264.294400000000000
 20
-118.148573000000000
 11
-261.040002000000020
 21
-118.319129000000000
  0
ARC
  8
0
  6
CONTINUOUS
 62
256
 10
-261.592337999999980
 20
-123.817758000000000
 40
0.999999999999996
 50
272.999999999999090
 51
87.000000000000909
  0
LINE
  8
0
  6
CONTINUOUS
 62
256
 10
-266.995024000000000
 20
-122.533243000000000
 11
-261.540002000000020
 21
-122.819129000000000
  0
LINE
  8
0
  6
CONTINUOUS
 62
256
 10
-267.060841999999980
 20
-120.631927000000000
 11
-261.040002000000020
 21
-120.316388000000000
  0
ARC
  8
0
  6
CONTINUOUS
 62
256
 10
-311.092337999999980
 20
-91.317757999999998
 40
52.500000000000007
 50
298.562834000000010
 51
298.973448999999960
  0
ARC
  8
0
  6
CONTINUOUS
 62
256
 10
-311.092337999999980
 20
-91.317757999999998
 40
52.500000000000007
 50
298.562834000000010
 51
298.973448999999960
  0
LINE
  8
0
  6
CONTINUOUS
 62
256
 10
-279.876852999999980
 20
-135.415073000000010
 11
-279.590967999999980
 21
-140.870093999999990
  0
LINE
  8
0
  6
CONTINUOUS
 62
256
 10
-281.778169999999990
 20
-135.349255000000000
 11
-282.093708999999990
 21
-141.370093999999990
  0
ARC
  8
0
  6
CONTINUOUS
 62
256
 10
-285.260153000000000
 20
-138.168033000000010
 40
0.999999999999997
 50
3.000000000000716
 51
118.871351999999450
  0
ARC
  8
0
  6
CONTINUOUS
 62
256
 10
-285.429393000000000
 20
-138.260950000000010
 40
0.999999999999996
 50
118.664583999998610
 51
176.999999999999290
  0
ARC
  8
0
  6
CONTINUOUS
 62
256
 10
-280.875482999999970
 20
-135.467409000000000
 40
0.999999999999997
 50
3.000000000000716
 51
124.388475999999600
  0
ARC
  8
0
  6
CONTINUOUS
 62
256
 10
-280.779540999999990
 20
-135.401591000000000
 40
0.999999999999985
 50
124.513078999999190
 51
176.999999999999290
  0
ARC
  8
0
  6
CONTINUOUS
 62
256
 10
-265.711390999999990
 20
-131.328003000000000
 40
1.000000000000007
 50
318.598893999999970
 51
42.000000000001023
  0
LINE
  8
0
  6
CONTINUOUS
 62
256
 10
-267.743637999999980
 20
-125.141507000000000
 11
-261.540002000000020
 21
-124.816388000000000
  0
ARC
  8
0
  6
CONTINUOUS
 62
256
 10
-267.691302000000010
 20
-126.140136000000000
 40
0.999999999999996
 50
92.999999999999091
 51
222.000000000000990
  0
ARC
  8
0
  6
CONTINUOUS
 62
256
 10
-271.082093999999980
 20
-136.698705999999990
 40
1.000000000000008
 50
228.000000000000060
 51
311.401105999998780
  0
ARC
  8
0
  6
CONTINUOUS
 62
256
 10
-311.092337999999980
 20
-91.317757999999998
 40
61.500000000000007
 50
311.401106000000030
 51
318.598893999999970
  0
LINE
  8
0
  6
CONTINUOUS
 62
256
 10
-277.268590000000020
 20
-134.666459000000000
 11
-277.593708999999990
 21
-140.870093999999990
  0
ARC
  8
0
  6
CONTINUOUS
 62
256
 10
-276.269961000000020
 20
-134.718795000000000
 40
1.000000000000008
 50
48.000000000000071
 51
176.999999999999290
  0
ARC
  8
0
  6
CONTINUOUS
 62
256
 10
-311.092337999999980
 20
-91.317757999999998
 40
52.499999999999986
 50
246.304919000000040
 51
246.888398000000000
  0
ARC
  8
0
  6
CONTINUOUS
 62
256
 10
-332.092337999999980
 20
-140.523957000000000
 40
1.000000000000000
 50
0.000000000000000
 51
66.888398000001317
  0
ARC
  8
0
  6
CONTINUOUS
 62
256
 10
-311.092337999999980
 20
-91.317757999999998
 40
52.500000000000000
 50
246.336295000000040
 51
246.888398000000000
  0
ARC
  8
0
  6
CONTINUOUS
 62
256
 10
-343.592337999999980
 20
-140.817758000000000
 40
0.999999999999997
 50
183.000000000000710
 51
356.999999999999260
  0
ARC
  8
0
  6
CONTINUOUS
 62
256
 10
-339.092337999999980
 20
-141.317758000000000
 40
0.999999999999997
 50
183.000000000000710
 51
356.999999999999260
  0
LINE
  8
0
  6
CONTINUOUS
 62
256
 10
-337.923153000000010
 20
-138.115697000000010
 11
-338.093708999999990
 21
-141.370093999999990
  0
LINE
  8
0
  6
CONTINUOUS
 62
256
 10
-335.756654000000030
 20
-138.208614000000010
 11
-335.590967999999980
 21
-141.370093999999990
  0
ARC
  8
0
  6
CONTINUOUS
 62
256
 10
-334.592337999999980
 20
-141.317758000000000
 40
0.999999999999997
 50
183.000000000000710
 51
356.999999999999260
  0
ARC
  8
0
  6
CONTINUOUS
 62
256
 10
-332.537900999999980
 20
-140.331408000000010
 40
1.000000000000003
 50
66.368570000001014
 51
176.999999999999290
  0
LINE
  8
0
  6
CONTINUOUS
 62
256
 10
-333.536531000000020
 20
-140.279072000000010
 11
-333.593708999999990
 21
-141.370093999999990
  0
ARC
  8
0
  6
CONTINUOUS
 62
256
 10
-311.092337999999980
 20
-91.317757999999998
 40
52.499999999999993
 50
293.111602000000000
 51
293.695081000000020
  0
ARC
  8
0
  6
CONTINUOUS
 62
256
 10
-290.092337999999980
 20
-140.523957000000000
 40
1.000000000000001
 50
113.111601999998680
 51
180.000000000000000
  0
ARC
  8
0
  6
CONTINUOUS
 62
256
 10
-311.092337999999980
 20
-91.317757999999998
 40
52.499999999999993
 50
293.111602000000000
 51
293.663704999999990
  0
ARC
  8
0
  6
CONTINUOUS
 62
256
 10
-278.592337999999980
 20
-140.817758000000000
 40
0.999999999999997
 50
183.000000000000710
 51
356.999999999999260
  0
ARC
  8
0
  6
CONTINUOUS
 62
256
 10
-283.092337999999980
 20
-141.317758000000000
 40
0.999999999999997
 50
183.000000000000710
 51
356.999999999999260
  0
LINE
  8
0
  6
CONTINUOUS
 62
256
 10
-284.261524000000010
 20
-138.115697000000010
 11
-284.090967999999980
 21
-141.370093999999990
  0
LINE
  8
0
  6
CONTINUOUS
 62
256
 10
-286.428023000000000
 20
-138.208614000000010
 11
-286.593708999999990
 21
-141.370093999999990
  0
ARC
  8
0
  6
CONTINUOUS
 62
256
 10
-287.592337999999980
 20
-141.317758000000000
 40
0.999999999999997
 50
183.000000000000710
 51
356.999999999999260
  0
ARC
  8
0
  6
CONTINUOUS
 62
256
 10
-289.646775999999990
 20
-140.331408000000010
 40
0.999999999999997
 50
3.000000000000716
 51
113.631429999999000
  0
LINE
  8
0
  6
CONTINUOUS
 62
256
 10
-288.648146000000000
 20
-140.279072000000010
 11
-288.590967999999980
 21
-141.370093999999990
  0
LINE
  8
0
  6
DASHDOT
 62
256
 10
-367.888006000000020
 20
-91.317757999999998
 11
-248.539876999999990
 21
-91.317757999999998
  0
LINE
  8
0
  6
CONTINUOUS
 62
256
 10
-342.592337999999980
 20
-148.817758000000000
 11
-279.592337999999980
 21
-148.817758000000000
  0
LINE
  8
0
  6
CONTINUOUS
 62
256
 10
-331.592337999999980
 20
-143.817758000000000
 11
-331.592337999999980
 21
-145.117758000000010
  0
ARC
  8
0
  6
CONTINUOUS
 62
256
 10
-331.392338000000000
 20
-145.117758000000010
 40
0.199999999999989
 50
180.000000000000000
 51
270.000000000000000
  0
LINE
  8
0
  6
CONTINUOUS
 62
256
 10
-290.592337999999980
 20
-143.817758000000000
 11
-279.592337999999980
 21
-143.817758000000000
  0
LINE
  8
0
  6
CONTINUOUS
 62
256
 10
-290.592337999999980
 20
-143.817758000000000
 11
-290.592337999999980
 21
-145.117758000000010
  0
LINE
  8
0
  6
CONTINUOUS
 62
256
 10
-331.392338000000000
 20
-145.317758000000000
 11
-290.792337999999970
 21
-145.317758000000000
  0
ARC
  8
0
  6
CONTINUOUS
 62
256
 10
-290.792337999999970
 20
-145.117758000000010
 40
0.199999999999989
 50
270.000000000000000
 51
0.000000000000000
  0
LINE
  8
0
  6
CONTINUOUS
 62
256
 10
-331.592337999999980
 20
-143.817758000000000
 11
-342.592337999999980
 21
-143.817758000000000
  0
LINE
  8
0
  6
CONTINUOUS
 62
256
 10
-279.592337999999980
 20
-143.817758000000000
 11
-279.592337999999980
 21
-148.817758000000000
  0
LINE
  8
0
  6
CONTINUOUS
 62
256
 10
-342.592337999999980
 20
-143.817758000000000
 11
-342.592337999999980
 21
-148.817758000000000
  0
ARC
  8
0
  6
CONTINUOUS
 62
256
 10
-311.092337999999980
 20
121.682242000000000
 40
300.000000000000000
 50
265.138595000000010
 51
274.861404999999990
  0
LINE
  8
0
  6
CONTINUOUS
 62
256
 10
-308.592337999999980
 20
-178.307342000000010
 11
-308.592337999999980
 21
-178.817758000000000
  0
LINE
  8
0
  6
CONTINUOUS
 62
256
 10
-313.592337999999980
 20
-178.307342000000010
 11
-313.592337999999980
 21
-178.817758000000000
  0
LINE
  8
0
  6
CONTINUOUS
 62
256
 10
-313.592337999999980
 20
-178.817758000000000
 11
-308.592337999999980
 21
-178.817758000000000
  0
LINE
  8
0
  6
CONTINUOUS
 62
256
 10
-330.392338000000000
 20
-144.817758000000000
 11
-311.092337999999980
 21
-144.817758000000000
  0
ARC
  8
0
  6
CONTINUOUS
 62
256
 10
-330.392338000000000
 20
-144.117758000000010
 40
0.699999999999989
 50
180.000000000000000
 51
270.000000000000000
  0
LINE
  8
0
  6
CONTINUOUS
 62
256
 10
-331.092337999999980
 20
-144.117758000000010
 11
-331.092337999999980
 21
-140.523957000000000
  0
LINE
  8
0
  6
CONTINUOUS
 62
256
 10
-291.792337999999970
 20
-144.817758000000000
 11
-311.092337999999980
 21
-144.817758000000000
  0
ARC
  8
0
  6
CONTINUOUS
 62
256
 10
-291.792337999999970
 20
-144.117758000000010
 40
0.699999999999989
 50
270.000000000000000
 51
0.000000000000000
  0
LINE
  8
0
  6
CONTINUOUS
 62
256
 10
-291.092337999999980
 20
-144.117758000000010
 11
-291.092337999999980
 21
-140.523957000000000
  0
LINE
  8
0
  6
DASHDOT
 62
256
 10
-311.092337999999980
 20
-188.720128999999990
 11
-311.092337999999980
 21
-31.129500000000000
  0
LINE
  8
0
  6
CONTINUOUS
 62
256
 10
-180.078179000000010
 20
81.280850999999998
 11
-81.078179000000006
 21
81.280850999999998
  0
LINE
  8
0
  6
CONTINUOUS
 62
256
 10
-180.078179000000010
 20
82.759874999999994
 11
-81.078179000000006
 21
82.759874999999994
  0
LINE
  8
0
  6
CONTINUOUS
 62
256
 10
-180.078179000000010
 20
85.852605999999994
 11
-81.078179000000006
 21
85.852605999999994
  0
LINE
  8
0
  6
CONTINUOUS
 62
256
 10
-180.078179000000010
 20
87.199006999999995
 11
-81.078179000000006
 21
87.199006999999995
  0
LINE
  8
0
  6
CONTINUOUS
 62
256
 10
-180.078179000000010
 20
90.037246999999994
 11
-81.078179000000006
 21
90.037246999999994
  0
LINE
  8
0
  6
CONTINUOUS
 62
256
 10
-180.078179000000010
 20
130.037247000000010
 11
-81.078179000000006
 21
130.037247000000010
  0
LINE
  8
0
  6
CONTINUOUS
 62
256
 10
-180.078179000000010
 20
132.875486999999990
 11
-81.078179000000006
 21
132.875486999999990
  0
LINE
  8
0
  6
CONTINUOUS
 62
256
 10
-180.078179000000010
 20
134.221888000000010
 11
-81.078179000000006
 21
134.221888000000010
  0
LINE
  8
0
  6
CONTINUOUS
 62
256
 10
-180.078179000000010
 20
137.314618999999990
 11
-81.078179000000006
 21
137.314618999999990
  0
LINE
  8
0
  6
CONTINUOUS
 62
256
 10
-180.078179000000010
 20
138.793642000000010
 11
-81.078179000000006
 21
138.793642000000010
  0
LINE
  8
0
  6
CONTINUOUS
 62
256
 10
-186.578179000000010
 20
110.037246999999990
 11
-186.578179000000010
 21
90.537246999999994
  0
ARC
  8
0
  6
CONTINUOUS
 62
256
 10
-186.078179000000010
 20
90.537246999999994
 40
0.500000000000000
 50
180.000000000000000
 51
224.884862000000280
  0
ARC
  8
0
  6
CONTINUOUS
 62
256
 10
-186.786705000000010
 20
89.831563000000003
 40
0.499999999999994
 50
1.652906999999361
 51
44.884862000000268
  0
LINE
  8
0
  6
CONTINUOUS
 62
256
 10
-180.578179000000010
 20
64.939267000000001
 11
-184.578179000000010
 21
64.939267000000001
  0
ARC
  8
0
  6
CONTINUOUS
 62
256
 10
-184.578179000000010
 20
65.439267000000001
 40
0.500000000000000
 50
180.000000000000000
 51
270.000000000000000
  0
LINE
  8
0
  6
CONTINUOUS
 62
256
 10
-185.078179000000010
 20
65.439267000000001
 11
-185.078179000000010
 21
80.838605000000001
  0
ARC
  8
0
  6
CONTINUOUS
 62
256
 10
-185.037380000000010
 20
82.546452000000002
 40
1.000000000000004
 50
182.253953000000080
 51
238.640963999999340
  0
ARC
  8
0
  6
CONTINUOUS
 62
256
 10
-195.078179000000010
 20
63.909706000000000
 40
10.000000000000000
 50
0.000000000000000
 51
3.725036999999979
  0
ARC
  8
0
  6
CONTINUOUS
 62
256
 10
-186.078179000000010
 20
80.838605000000001
 40
1.000000000000000
 50
0.000000000000000
 51
58.640963999999322
  0
LINE
  8
0
  6
CONTINUOUS
 62
256
 10
-180.078179000000010
 20
57.537247000000001
 11
-182.748955000000000
 21
57.537247000000001
  0
ARC
  8
0
  6
CONTINUOUS
 62
256
 10
-182.748955000000000
 20
59.537247000000001
 40
2.000000000000010
 50
184.148950000000010
 51
270.000000000000000
  0
LINE
  8
0
  6
CONTINUOUS
 62
256
 10
-180.578179000000010
 20
64.939267000000001
 11
-180.578179000000010
 21
73.788848000000002
  0
LINE
  8
0
  6
CONTINUOUS
 62
256
 10
-180.078179000000010
 20
73.788848000000002
 11
-180.578179000000010
 21
73.788848000000002
  0
LINE
  8
0
  6
CONTINUOUS
 62
256
 10
-180.578179000000010
 20
66.697846999999996
 11
-180.078179000000010
 21
66.697846999999996
  0
LINE
  8
0
  6
DASHDOT
 62
256
 10
-177.020777000000010
 20
70.439267000000001
 11
-191.651941999999990
 21
70.439267000000001
  0
LINE
  8
0
  6
CONTINUOUS
 62
256
 10
-81.078179000000006
 20
57.537247000000001
 11
-180.078179000000010
 21
57.537247000000001
  0
ARC
  8
0
  6
CONTINUOUS
 62
256
 10
513.421821000000020
 20
110.037246999999990
 40
700.000000000000000
 50
183.620061999999960
 51
184.148949999999990
  0
ARC
  8
0
  6
CONTINUOUS
 62
256
 10
513.421821000000020
 20
110.037246999999990
 40
700.000000000000000
 50
181.652906999999970
 51
182.865818999999960
  0
ARC
  8
0
  6
CONTINUOUS
 62
256
 10
-182.891146999999990
 20
61.537247000000001
 40
1.999999999999995
 50
183.984363999999910
 51
270.000000000000000
  0
ARC
  8
0
  6
CONTINUOUS
 62
256
 10
-182.856141000000010
 20
61.037247000000001
 40
1.999999999999989
 50
184.025507999999920
 51
270.000000000000000
  0
LINE
  8
0
  6
CONTINUOUS
 62
256
 10
-180.078179000000010
 20
59.537247000000001
 11
-182.891146999999990
 21
59.537247000000001
  0
LINE
  8
0
  6
CONTINUOUS
 62
256
 10
-180.078179000000010
 20
59.037247000000001
 11
-182.856141000000010
 21
59.037247000000001
  0
LINE
  8
0
  6
CONTINUOUS
 62
256
 10
-180.078179000000010
 20
59.537247000000001
 11
-81.078179000000006
 21
59.537247000000001
  0
LINE
  8
0
  6
CONTINUOUS
 62
256
 10
-180.078179000000010
 20
59.037247000000001
 11
-81.078179000000006
 21
59.037247000000001
  0
LINE
  8
0
  6
CONTINUOUS
 62
256
 10
-180.078179000000010
 20
65.532590999999996
 11
-81.078179000000006
 21
65.532590999999996
  0
LINE
  8
0
  6
CONTINUOUS
 62
256
 10
-180.078179000000010
 20
63.904164000000002
 11
-81.078179000000006
 21
63.904164000000002
  0
LINE
  8
0
  6
CONTINUOUS
 62
256
 10
-180.078179000000010
 20
68.995333000000002
 11
-81.078179000000006
 21
68.995333000000002
  0
LINE
  8
0
  6
CONTINUOUS
 62
256
 10
-180.078179000000010
 20
69.996812000000006
 11
-81.078179000000006
 21
69.996812000000006
  0
LINE
  8
0
  6
CONTINUOUS
 62
256
 10
-180.078179000000010
 20
76.733645999999993
 11
-81.078179000000006
 21
76.733645999999993
  0
LINE
  8
0
  6
CONTINUOUS
 62
256
 10
-180.078179000000010
 20
78.322856000000002
 11
-81.078179000000006
 21
78.322856000000002
  0
LINE
  8
0
  6
CONTINUOUS
 62
256
 10
-185.078179000000010
 20
76.213498999999999
 11
-180.078179000000010
 21
76.213498999999999
  0
LINE
  8
0
  6
CONTINUOUS
 62
256
 10
-185.078179000000010
 20
78.821762000000007
 11
-180.078179000000010
 21
78.821762000000007
  0
LINE
  8
0
  6
CONTINUOUS
 62
256
 10
-185.078179000000010
 20
80.723078999999998
 11
-180.078179000000010
 21
80.723078999999998
  0
LINE
  8
0
  6
CONTINUOUS
 62
256
 10
-186.063781000000010
 20
83.206432000000007
 11
-180.078179000000010
 21
83.206432000000007
  0
LINE
  8
0
  6
CONTINUOUS
 62
256
 10
-186.143524000000010
 20
85.372930999999994
 11
-180.078179000000010
 21
85.372930999999994
  0
LINE
  8
0
  6
CONTINUOUS
 62
256
 10
-186.218270999999990
 20
87.593055000000007
 11
-180.078179000000010
 21
87.593055000000007
  0
LINE
  8
0
  6
CONTINUOUS
 62
256
 10
-186.330971000000010
 20
90.037246999999994
 11
-180.078179000000010
 21
90.037246999999994
  0
LINE
  8
0
  6
CONTINUOUS
 62
256
 10
-81.078179000000006
 20
110.037246999999990
 11
-81.078179000000006
 21
57.537247000000001
  0
LINE
  8
0
  6
CONTINUOUS
 62
256
 10
-180.078179000000010
 20
57.537247000000001
 11
-180.078179000000010
 21
110.037246999999990
  0
LINE
  8
0
  6
CONTINUOUS
 62
256
 10
-186.330971000000010
 20
130.037247000000010
 11
-180.078179000000010
 21
130.037247000000010
  0
LINE
  8
0
  6
CONTINUOUS
 62
256
 10
-186.218270999999990
 20
132.481438999999990
 11
-180.078179000000010
 21
132.481438999999990
  0
LINE
  8
0
  6
CONTINUOUS
 62
256
 10
-186.143524000000010
 20
134.701562999999990
 11
-180.078179000000010
 21
134.701562999999990
  0
LINE
  8
0
  6
CONTINUOUS
 62
256
 10
-186.063781000000010
 20
136.868062000000010
 11
-180.078179000000010
 21
136.868062000000010
  0
LINE
  8
0
  6
CONTINUOUS
 62
256
 10
-185.078179000000010
 20
139.351415000000000
 11
-180.078179000000010
 21
139.351415000000000
  0
LINE
  8
0
  6
CONTINUOUS
 62
256
 10
-185.078179000000010
 20
141.252732000000010
 11
-180.078179000000010
 21
141.252732000000010
  0
LINE
  8
0
  6
CONTINUOUS
 62
256
 10
-185.078179000000010
 20
143.860995000000000
 11
-180.078179000000010
 21
143.860995000000000
  0
LINE
  8
0
  6
CONTINUOUS
 62
256
 10
-180.078179000000010
 20
150.077682000000010
 11
-81.078179000000006
 21
150.077682000000010
  0
LINE
  8
0
  6
CONTINUOUS
 62
256
 10
-180.078179000000010
 20
154.541901999999990
 11
-81.078179000000006
 21
154.541901999999990
  0
LINE
  8
0
  6
CONTINUOUS
 62
256
 10
-180.078179000000010
 20
141.751638000000010
 11
-81.078179000000006
 21
141.751638000000010
  0
LINE
  8
0
  6
CONTINUOUS
 62
256
 10
-180.078179000000010
 20
143.340847999999990
 11
-81.078179000000006
 21
143.340847999999990
  0
LINE
  8
0
  6
CONTINUOUS
 62
256
 10
-180.078179000000010
 20
151.079161000000000
 11
-81.078179000000006
 21
151.079161000000000
  0
LINE
  8
0
  6
CONTINUOUS
 62
256
 10
-180.078179000000010
 20
156.170330000000010
 11
-81.078179000000006
 21
156.170330000000010
  0
LINE
  8
0
  6
CONTINUOUS
 62
256
 10
-180.078179000000010
 20
161.037247000000010
 11
-81.078179000000006
 21
161.037247000000010
  0
LINE
  8
0
  6
CONTINUOUS
 62
256
 10
-180.078179000000010
 20
160.537247000000010
 11
-81.078179000000006
 21
160.537247000000010
  0
ARC
  8
0
  6
CONTINUOUS
 62
256
 10
-182.856141000000010
 20
159.037247000000010
 40
2.000000000000000
 50
90.000000000000000
 51
175.974492000000280
  0
ARC
  8
0
  6
CONTINUOUS
 62
256
 10
-182.891146999999990
 20
158.537247000000010
 40
2.000000000000000
 50
90.000000000000000
 51
176.015636000000090
  0
LINE
  8
0
  6
CONTINUOUS
 62
256
 10
-180.078179000000010
 20
161.037247000000010
 11
-182.856141000000010
 21
161.037247000000010
  0
LINE
  8
0
  6
CONTINUOUS
 62
256
 10
-180.078179000000010
 20
160.537247000000010
 11
-182.891146999999990
 21
160.537247000000010
  0
LINE
  8
0
  6
CONTINUOUS
 62
256
 10
-186.578179000000010
 20
110.037246999999990
 11
-186.578179000000010
 21
129.537247000000010
  0
ARC
  8
0
  6
CONTINUOUS
 62
256
 10
-186.078179000000010
 20
129.537247000000010
 40
0.499999999999995
 50
135.115137999999720
 51
180.000000000000000
  0
ARC
  8
0
  6
CONTINUOUS
 62
256
 10
-186.786705000000010
 20
130.242931000000000
 40
0.499999999999995
 50
315.115137999999770
 51
358.347092999999010
  0
LINE
  8
0
  6
CONTINUOUS
 62
256
 10
-180.578179000000010
 20
155.135226999999990
 11
-184.578179000000010
 21
155.135226999999990
  0
ARC
  8
0
  6
CONTINUOUS
 62
256
 10
-184.578179000000010
 20
154.635226999999990
 40
0.500000000000000
 50
90.000000000000000
 51
180.000000000000000
  0
LINE
  8
0
  6
CONTINUOUS
 62
256
 10
-185.078179000000010
 20
154.635226999999990
 11
-185.078179000000010
 21
139.235887999999990
  0
ARC
  8
0
  6
CONTINUOUS
 62
256
 10
-185.037380000000010
 20
137.528042000000000
 40
1.000000000000005
 50
121.359036000000670
 51
177.746046999999920
  0
ARC
  8
0
  6
CONTINUOUS
 62
256
 10
-195.078179000000010
 20
156.164786999999990
 40
9.999999999999993
 50
356.274962999999960
 51
0.000000000000000
  0
ARC
  8
0
  6
CONTINUOUS
 62
256
 10
-186.078179000000010
 20
139.235887999999990
 40
1.000000000000005
 50
301.359036000000630
 51
0.000000000000000
  0
LINE
  8
0
  6
CONTINUOUS
 62
256
 10
-180.078179000000010
 20
162.537247000000010
 11
-182.748955000000000
 21
162.537247000000010
  0
ARC
  8
0
  6
CONTINUOUS
 62
256
 10
-182.748955000000000
 20
160.537247000000010
 40
2.000000000000000
 50
90.000000000000000
 51
175.851050000000380
  0
LINE
  8
0
  6
CONTINUOUS
 62
256
 10
-180.578179000000010
 20
155.135226999999990
 11
-180.578179000000010
 21
146.285646000000010
  0
LINE
  8
0
  6
CONTINUOUS
 62
256
 10
-180.078179000000010
 20
146.285646000000010
 11
-180.578179000000010
 21
146.285646000000010
  0
LINE
  8
0
  6
CONTINUOUS
 62
256
 10
-180.578179000000010
 20
153.376645999999990
 11
-180.078179000000010
 21
153.376645999999990
  0
LINE
  8
0
  6
DASHDOT
 62
256
 10
-177.020777000000010
 20
149.635226999999990
 11
-191.651941999999990
 21
149.635226999999990
  0
LINE
  8
0
  6
CONTINUOUS
 62
256
 10
-180.078179000000010
 20
162.537247000000010
 11
-180.078179000000010
 21
110.037246999999990
  0
LINE
  8
0
  6
CONTINUOUS
 62
256
 10
-81.078179000000006
 20
162.537247000000010
 11
-180.078179000000010
 21
162.537247000000010
  0
LINE
  8
0
  6
CONTINUOUS
 62
256
 10
-81.078179000000006
 20
110.037246999999990
 11
-81.078179000000006
 21
162.537247000000010
  0
ARC
  8
0
  6
CONTINUOUS
 62
256
 10
513.421821000000020
 20
110.037246999999990
 40
700.000000000000000
 50
175.851049999999990
 51
176.379938000000010
  0
ARC
  8
0
  6
CONTINUOUS
 62
256
 10
513.421821000000020
 20
110.037246999999990
 40
700.000000000000000
 50
177.134181000000010
 51
178.347093000000000
  0
LINE
  8
0
  6
DASHDOT
 62
256
 10
-213.208656999999990
 20
110.037246999999990
 11
71.344622000000001
 21
110.037246999999990
  0
LINE
  8
0
  6
CONTINUOUS
 62
256
 10
60.729647000000000
 20
70.537246999999994
 11
21.421576000000002
 21
70.537246999999994
  0
LINE
  8
0
  6
CONTINUOUS
 62
256
 10
49.021576000000003
 20
66.537246999999994
 11
-6.178424000000000
 21
66.537246999999994
  0
LINE
  8
0
  6
CONTINUOUS
 62
256
 10
21.421576000000002
 20
70.537246999999994
 11
-55.886493999999999
 21
70.537246999999994
  0
LINE
  8
0
  6
CONTINUOUS
 62
256
 10
49.421576000000002
 20
66.937246999999999
 11
49.421576000000002
 21
70.537246999999994
  0
LINE
  8
0
  6
CONTINUOUS
 62
256
 10
49.021576000000003
 20
66.537246999999994
 11
49.421576000000002
 21
66.937246999999999
  0
LINE
  8
0
  6
CONTINUOUS
 62
256
 10
-6.578424000000000
 20
66.937246999999999
 11
-6.578424000000000
 21
70.537246999999994
  0
LINE
  8
0
  6
CONTINUOUS
 62
256
 10
-6.178424000000000
 20
66.537246999999994
 11
-6.578424000000000
 21
66.937246999999999
  0
LINE
  8
0
  6
CONTINUOUS
 62
256
 10
-56.578423999999998
 20
81.537246999999994
 11
61.421576000000002
 21
81.537246999999994
  0
LINE
  8
0
  6
CONTINUOUS
 62
256
 10
61.238295999999998
 20
71.037094999999994
 11
60.729647000000000
 21
70.537246999999994
  0
LINE
  8
0
  6
CONTINUOUS
 62
256
 10
-55.886493999999999
 20
70.537246999999994
 11
-56.395142999999997
 21
71.037094999999994
  0
LINE
  8
0
  6
CONTINUOUS
 62
256
 10
6.421576000000000
 20
153.537247000000010
 11
6.421576000000000
 21
156.537247000000010
  0
LINE
  8
0
  6
CONTINUOUS
 62
256
 10
36.421576000000002
 20
153.537247000000010
 11
36.421576000000002
 21
156.537247000000010
  0
ARC
  8
0
  6
CONTINUOUS
 62
256
 10
7.421576000000000
 20
63.537247000000001
 40
1.000000000000000
 50
180.000000000000000
 51
270.000000000000000
  0
ARC
  8
0
  6
CONTINUOUS
 62
256
 10
35.421576000000002
 20
63.537247000000001
 40
1.000000000000000
 50
270.000000000000000
 51
0.000000000000000
  0
ARC
  8
0
  6
CONTINUOUS
 62
256
 10
35.421576000000002
 20
156.537247000000010
 40
1.000000000000000
 50
0.000000000000000
 51
90.000000000000000
  0
ARC
  8
0
  6
CONTINUOUS
 62
256
 10
7.421576000000000
 20
156.537247000000010
 40
1.000000000000000
 50
90.000000000000000
 51
180.000000000000000
  0
LINE
  8
0
  6
CONTINUOUS
 62
256
 10
35.421576000000002
 20
62.537247000000001
 11
7.421576000000000
 21
62.537247000000001
  0
LINE
  8
0
  6
CONTINUOUS
 62
256
 10
36.421576000000002
 20
63.537247000000001
 11
36.421576000000002
 21
66.537246999999994
  0
LINE
  8
0
  6
CONTINUOUS
 62
256
 10
6.421576000000000
 20
63.537247000000001
 11
6.421576000000000
 21
66.537246999999994
  0
LINE
  8
0
  6
CONTINUOUS
 62
256
 10
7.421576000000000
 20
157.537247000000010
 11
35.421576000000002
 21
157.537247000000010
  0
ARC
  8
0
  6
CONTINUOUS
 62
256
 10
-61.078178999999999
 20
80.537246999999994
 40
2.000000000000000
 50
90.000000000000000
 51
180.000000000000000
  0
ARC
  8
0
  6
CONTINUOUS
 62
256
 10
-61.078178999999999
 20
148.537247000000010
 40
2.000000000000000
 50
180.000000000000000
 51
270.000000000000000
  0
LINE
  8
0
  6
CONTINUOUS
 62
256
 10
-56.578834999999998
 20
81.537246999999994
 11
61.421849000000002
 21
81.537246999999994
  0
LINE
  8
0
  6
CONTINUOUS
 62
256
 10
21.421576000000002
 20
149.537247000000010
 11
60.234904000000000
 21
149.537247000000010
  0
LINE
  8
0
  6
CONTINUOUS
 62
256
 10
-55.356980999999998
 20
149.537247000000010
 11
21.421576000000002
 21
149.537247000000010
  0
LINE
  8
0
  6
CONTINUOUS
 62
256
 10
-6.578424000000000
 20
149.537247000000010
 11
-6.578424000000000
 21
153.137247000000000
  0
LINE
  8
0
  6
CONTINUOUS
 62
256
 10
-6.178424000000000
 20
153.537247000000010
 11
49.021576000000003
 21
153.537247000000010
  0
LINE
  8
0
  6
CONTINUOUS
 62
256
 10
-6.178424000000000
 20
153.537247000000010
 11
-6.578424000000000
 21
153.137247000000000
  0
LINE
  8
0
  6
CONTINUOUS
 62
256
 10
49.421576000000002
 20
149.537247000000010
 11
49.421576000000002
 21
153.137247000000000
  0
LINE
  8
0
  6
CONTINUOUS
 62
256
 10
49.021576000000003
 20
153.537247000000010
 11
49.421576000000002
 21
153.137247000000000
  0
LINE
  8
0
  6
CONTINUOUS
 62
256
 10
-81.078179000000006
 20
110.037246999999990
 11
-81.078179000000006
 21
163.554701999999990
  0
LINE
  8
0
  6
CONTINUOUS
 62
256
 10
-81.078179000000006
 20
110.037246999999990
 11
-81.078179000000006
 21
56.519792000000002
  0
ARC
  8
0
  6
CONTINUOUS
 62
256
 10
21.421576000000002
 20
78.037246999999994
 40
0.500000000000000
 50
0.000000000000000
 51
180.000000000000000
  0
LINE
  8
0
  6
CONTINUOUS
 62
256
 10
20.921576000000002
 20
78.037246999999994
 11
20.921576000000002
 21
70.537246999999994
  0
LINE
  8
0
  6
CONTINUOUS
 62
256
 10
21.921576000000002
 20
78.037246999999994
 11
21.921576000000002
 21
70.537246999999994
  0
LINE
  8
0
  6
CONTINUOUS
 62
256
 10
61.421576000000002
 20
81.537246999999994
 11
61.238295999999998
 21
71.037094999999994
  0
LINE
  8
0
  6
CONTINUOUS
 62
256
 10
-56.578423999999998
 20
81.537246999999994
 11
-56.395142999999997
 21
71.037094999999994
  0
ARC
  8
0
  6
CONTINUOUS
 62
256
 10
-66.078179000000006
 20
59.258423000000001
 40
2.999999999999997
 50
269.000000000000110
 51
0.000000000000000
  0
ARC
  8
0
  6
CONTINUOUS
 62
256
 10
-66.078179000000006
 20
160.871087999999990
 40
3.000000000000000
 50
0.000000000000000
 51
91.277816000000129
  0
LINE
  8
0
  6
CONTINUOUS
 62
256
 10
-66.145079999999993
 20
163.870341999999990
 11
-81.078179000000006
 21
163.537247000000010
  0
LINE
  8
0
  6
CONTINUOUS
 62
256
 10
-81.078179000000006
 20
56.519792000000002
 11
-66.130536000000006
 21
56.258879999999998
  0
LINE
  8
0
  6
CONTINUOUS
 62
256
 10
-63.078178999999999
 20
59.258423000000001
 11
-63.078178999999999
 21
160.871087999999990
  0
LINE
  8
0
  6
CONTINUOUS
 62
256
 10
-66.078179000000006
 20
143.929413000000010
 11
-73.078179000000006
 21
143.929413000000010
  0
LINE
  8
0
  6
CONTINUOUS
 62
256
 10
-73.078179000000006
 20
154.537247000000010
 11
-68.078179000000006
 21
154.537247000000010
  0
LINE
  8
0
  6
CONTINUOUS
 62
256
 10
-74.078179000000006
 20
151.466899000000010
 11
-68.078179000000006
 21
151.466899000000010
  0
ARC
  8
0
  6
CONTINUOUS
 62
256
 10
-68.078179000000006
 20
146.466899000000010
 40
5.000000000000000
 50
0.000000000000000
 51
90.000000000000000
  0
ARC
  8
0
  6
CONTINUOUS
 62
256
 10
-68.078179000000006
 20
149.537247000000010
 40
5.000000000000000
 50
0.000000000000000
 51
90.000000000000000
  0
ARC
  8
0
  6
CONTINUOUS
 62
256
 10
-66.078179000000006
 20
140.929413000000010
 40
3.000000000000000
 50
0.000000000000000
 51
90.000000000000000
  0
LINE
  8
0
  6
CONTINUOUS
 62
256
 10
-73.078179000000006
 20
65.537246999999994
 11
-68.078179000000006
 21
65.537246999999994
  0
LINE
  8
0
  6
CONTINUOUS
 62
256
 10
-74.078179000000006
 20
68.607595000000003
 11
-68.078179000000006
 21
68.607595000000003
  0
LINE
  8
0
  6
CONTINUOUS
 62
256
 10
-66.078179000000006
 20
76.145081000000005
 11
-73.078179000000006
 21
76.145081000000005
  0
ARC
  8
0
  6
CONTINUOUS
 62
256
 10
-68.078179000000006
 20
73.607595000000003
 40
5.000000000000000
 50
270.000000000000000
 51
0.000000000000000
  0
ARC
  8
0
  6
CONTINUOUS
 62
256
 10
-68.078179000000006
 20
70.537246999999994
 40
5.000000000000000
 50
270.000000000000000
 51
0.000000000000000
  0
ARC
  8
0
  6
CONTINUOUS
 62
256
 10
-66.078179000000006
 20
79.145081000000005
 40
3.000000000000000
 50
270.000000000000000
 51
0.000000000000000
  0
LINE
  8
0
  6
CONTINUOUS
 62
256
 10
-76.078179000000006
 20
62.537247000000001
 11
-76.078179000000006
 21
59.502794000000002
  0
LINE
  8
0
  6
CONTINUOUS
 62
256
 10
-76.078179000000006
 20
110.037246999999990
 11
-76.078179000000006
 21
70.607595000000003
  0
LINE
  8
0
  6
CONTINUOUS
 62
256
 10
-76.078179000000006
 20
90.037246999999994
 11
-81.078179000000006
 21
90.037246999999994
  0
ARC
  8
0
  6
CONTINUOUS
 62
256
 10
-79.078179000000006
 20
59.502794000000002
 40
2.999999999999997
 50
269.000000000000110
 51
0.000000000000000
  0
ARC
  8
0
  6
CONTINUOUS
 62
256
 10
-73.078179000000006
 20
62.537247000000001
 40
3.000000000000007
 50
90.000000000000000
 51
180.000000000000000
  0
ARC
  8
0
  6
CONTINUOUS
 62
256
 10
-74.078179000000006
 20
70.607595000000003
 40
2.000000000000000
 50
180.000000000000000
 51
270.000000000000000
  0
ARC
  8
0
  6
CONTINUOUS
 62
256
 10
-73.078179000000006
 20
79.145081000000005
 40
3.000000000000000
 50
180.000000000000000
 51
270.000000000000000
  0
LINE
  8
0
  6
CONTINUOUS
 62
256
 10
-76.078179000000006
 20
110.037246999999990
 11
-76.078179000000006
 21
149.466899000000010
  0
LINE
  8
0
  6
CONTINUOUS
 62
256
 10
-76.078179000000006
 20
157.537247000000010
 11
-76.078179000000006
 21
160.571699999999990
  0
LINE
  8
0
  6
CONTINUOUS
 62
256
 10
-76.078179000000006
 20
130.037247000000010
 11
-81.078179000000006
 21
130.037247000000010
  0
ARC
  8
0
  6
CONTINUOUS
 62
256
 10
-73.078179000000006
 20
140.929413000000010
 40
3.000000000000000
 50
90.000000000000000
 51
180.000000000000000
  0
ARC
  8
0
  6
CONTINUOUS
 62
256
 10
-73.078179000000006
 20
157.537247000000010
 40
3.000000000000000
 50
180.000000000000000
 51
270.000000000000000
  0
ARC
  8
0
  6
CONTINUOUS
 62
256
 10
-74.078179000000006
 20
149.466899000000010
 40
2.000000000000000
 50
90.000000000000000
 51
180.000000000000000
  0
ARC
  8
0
  6
CONTINUOUS
 62
256
 10
-79.078179000000006
 20
160.571699999999990
 40
3.000000000000000
 50
0.000000000000000
 51
90.999999999999872
  0
ARC
  8
0
  6
CONTINUOUS
 62
256
 10
21.421576000000002
 20
85.037246999999994
 40
0.500000000000000
 50
180.000000000000000
 51
0.000000000000000
  0
LINE
  8
0
  6
CONTINUOUS
 62
256
 10
21.921576000000002
 20
85.037246999999994
 11
21.921576000000002
 21
149.537247000000010
  0
LINE
  8
0
  6
CONTINUOUS
 62
256
 10
20.921576000000002
 20
85.037246999999994
 11
20.921576000000002
 21
149.537247000000010
  0
LINE
  8
0
  6
CONTINUOUS
 62
256
 10
61.421849000000002
 20
81.537246999999994
 11
60.234904000000000
 21
149.537247000000010
  0
ARC
  8
0
  6
CONTINUOUS
 62
256
 10
-56.392043000000001
 20
147.537247000000010
 40
1.000000000000000
 50
270.000000000000000
 51
358.999999999999830
  0
ARC
  8
0
  6
CONTINUOUS
 62
256
 10
-57.578986999999998
 20
81.537246999999994
 40
1.000000000000000
 50
0.000000000000000
 51
90.000000000000000
  0
LINE
  8
0
  6
DASHDOT
 62
256
 10
21.421576000000002
 20
59.515352999999998
 11
21.421576000000002
 21
160.596432999999990
  0
LINE
  8
0
  6
CONTINUOUS
 62
256
 10
-61.078178999999999
 20
146.537247000000010
 11
-56.392043000000001
 21
146.537247000000010
  0
LINE
  8
0
  6
CONTINUOUS
 62
256
 10
-57.578986999999998
 20
82.537246999999994
 11
-61.078178999999999
 21
82.537246999999994
  0
LINE
  8
0
  6
CONTINUOUS
 62
256
 10
-56.543925000000002
 20
81.537246999999994
 11
-55.356980999999998
 21
149.537247000000010
  0
CIRCLE
  8
0
  6
CONTINUOUS
 62
256
 10
21.421576000000002
 20
-75.317690999999996
 40
21.000000000000000
  0
CIRCLE
  8
0
  6
CONTINUOUS
 62
256
 10
21.421576000000002
 20
-75.317690999999996
 40
28.000000000000000
  0
CIRCLE
  8
0
  6
CONTINUOUS
 62
256
 10
21.421576000000002
 20
-75.317690999999996
 40
30.000000000000000
  0
LINE
  8
0
  6
CONTINUOUS
 62
256
 10
-42.578664000000003
 20
-39.817385000000002
 11
-42.578664000000003
 21
-35.717691000000002
  0
LINE
  8
0
  6
CONTINUOUS
 62
256
 10
37.421816999999997
 20
-39.817385000000002
 11
37.421816999999997
 21
-35.717691000000002
  0
LINE
  8
0
  6
CONTINUOUS
 62
256
 10
47.421816999999997
 20
-39.817385000000002
 11
47.421816999999997
 21
-35.717691000000002
  0
LINE
  8
0
  6
CONTINUOUS
 62
256
 10
47.421816999999997
 20
-114.917691000000000
 11
47.421816999999997
 21
-110.817998000000000
  0
LINE
  8
0
  6
CONTINUOUS
 62
256
 10
37.421816999999997
 20
-114.917691000000000
 11
37.421816999999997
 21
-110.817998000000000
  0
LINE
  8
0
  6
CONTINUOUS
 62
256
 10
-32.578664000000003
 20
-114.917691000000000
 11
-32.578664000000003
 21
-110.817998000000000
  0
LINE
  8
0
  6
CONTINUOUS
 62
256
 10
57.671576000000002
 20
-57.679098000000003
 11
57.671576000000002
 21
-87.652613000000002
  0
ARC
  8
0
  6
CONTINUOUS
 62
256
 10
51.421576000000002
 20
-87.652613000000002
 40
6.249999999999997
 50
297.278575999999990
 51
0.000000000000000
  0
ARC
  8
0
  6
CONTINUOUS
 62
256
 10
56.921382999999999
 20
-98.318077000000002
 40
5.750000000000000
 50
117.278576000000030
 51
165.438153000000000
  0
ARC
  8
0
  6
CONTINUOUS
 62
256
 10
45.306862000000002
 20
-95.300978000000001
 40
6.250000000000001
 50
304.030594000000010
 51
345.438153000000000
  0
ARC
  8
0
  6
CONTINUOUS
 62
256
 10
53.421576000000002
 20
-107.317691000000000
 40
8.249999999999996
 50
124.030594000000050
 51
139.069285000000040
  0
ARC
  8
0
  6
CONTINUOUS
 62
256
 10
42.466791999999998
 20
-97.818076000000005
 40
6.250000000000001
 50
269.801777999999960
 51
319.069284999999920
  0
ARC
  8
0
  6
CONTINUOUS
 62
256
 10
42.421816999999997
 20
-110.817998000000000
 40
6.749999999999998
 50
89.801778000000013
 51
154.969509999999990
  0
ARC
  8
0
  6
CONTINUOUS
 62
256
 10
30.642741000000001
 20
-105.317691000000000
 40
6.250000000000000
 50
270.000000000000000
 51
334.969510000000010
  0
LINE
  8
0
  6
CONTINUOUS
 62
256
 10
30.642741000000001
 20
-111.567691000000000
 11
-25.799588000000000
 21
-111.567691000000000
  0
LINE
  8
0
  6
CONTINUOUS
 62
256
 10
-52.828423999999998
 20
-92.956284999999994
 11
-52.828423999999998
 21
-63.226404000000002
  0
LINE
  8
0
  6
CONTINUOUS
 62
256
 10
-25.799588000000000
 20
-39.067691000000003
 11
30.642741000000001
 21
-39.067691000000003
  0
ARC
  8
0
  6
CONTINUOUS
 62
256
 10
30.642741000000001
 20
-45.317691000000003
 40
6.250000000000000
 50
25.030490000000011
 51
90.000000000000000
  0
ARC
  8
0
  6
CONTINUOUS
 62
256
 10
42.421816999999997
 20
-39.817385000000002
 40
6.750000000000001
 50
205.030490000000010
 51
270.198221999999990
  0
ARC
  8
0
  6
CONTINUOUS
 62
256
 10
42.466791999999998
 20
-52.817307000000000
 40
6.249999999999997
 50
40.930714999999985
 51
90.198222000000015
  0
ARC
  8
0
  6
CONTINUOUS
 62
256
 10
53.421576000000002
 20
-43.317691000000003
 40
8.249999999999998
 50
220.930714999999960
 51
262.071858000000020
  0
ARC
  8
0
  6
CONTINUOUS
 62
256
 10
51.421576000000002
 20
-57.679098000000003
 40
6.250000000000000
 50
0.000000000000000
 51
82.071858000000034
  0
ARC
  8
0
  6
CONTINUOUS
 62
256
 10
-25.578792000000000
 20
-44.817691000000003
 40
5.750000000000000
 50
90.000000000000000
 51
157.378672000000020
  0
ARC
  8
0
  6
CONTINUOUS
 62
256
 10
-37.578664000000003
 20
-39.817385000000002
 40
7.249999999999996
 50
269.801777999999960
 51
337.378671999999990
  0
ARC
  8
0
  6
CONTINUOUS
 62
256
 10
-37.623638999999997
 20
-52.817307000000000
 40
5.750000000000003
 50
89.801778000000013
 51
139.069284999999980
  0
ARC
  8
0
  6
CONTINUOUS
 62
256
 10
-48.578423999999998
 20
-43.317691000000003
 40
8.750000000000002
 50
306.958504000000000
 51
319.069284999999980
  0
ARC
  8
0
  6
CONTINUOUS
 62
256
 10
-39.860495000000000
 20
-54.904223000000002
 40
5.749999999999999
 50
126.958503999999980
 51
167.552537000000000
  0
ARC
  8
0
  6
CONTINUOUS
 62
256
 10
-51.578423999999998
 20
-52.317691000000003
 40
6.250000000000001
 50
292.024313000000010
 51
347.552536999999920
  0
ARC
  8
0
  6
CONTINUOUS
 62
256
 10
-47.078423999999998
 20
-63.441989000000000
 40
5.749999999999995
 50
112.024312999999990
 51
180.000000000000000
  0
ARC
  8
0
  6
CONTINUOUS
 62
256
 10
-47.078423999999998
 20
-92.895486000000005
 40
5.750000000000000
 50
180.000000000000000
 51
264.062228000000000
  0
ARC
  8
0
  6
CONTINUOUS
 62
256
 10
-48.578423999999998
 20
-107.317691000000000
 40
8.750000000000005
 50
40.930715000000028
 51
84.062228000000019
  0
ARC
  8
0
  6
CONTINUOUS
 62
256
 10
-37.623638999999997
 20
-97.818076000000005
 40
5.749999999999996
 50
220.930714999999960
 51
270.198221999999990
  0
LINE
  8
0
  6
CONTINUOUS
 62
256
 10
-81.078766999999999
 20
-37.817757999999998
 11
-81.078766999999999
 21
-144.817758000000000
  0
LINE
  8
0
  6
CONTINUOUS
 62
256
 10
-81.078766999999999
 20
-37.817757999999998
 11
-180.078767000000000
 21
-37.817757999999998
  0
LINE
  8
0
  6
CONTINUOUS
 62
256
 10
-186.578767000000000
 20
-77.317757999999998
 11
-81.078766999999999
 21
-77.317757999999998
  0
LINE
  8
0
  6
CONTINUOUS
 62
256
 10
-186.578767000000000
 20
-71.689723999999998
 11
-81.078766999999999
 21
-71.689723999999998
  0
LINE
  8
0
  6
CONTINUOUS
 62
256
 10
-186.578767000000000
 20
-72.931644000000006
 11
-81.078766999999999
 21
-72.931644000000006
  0
LINE
  8
0
  6
CONTINUOUS
 62
256
 10
-186.206107000000000
 20
-68.479518999999996
 11
-81.078766999999999
 21
-68.479518999999996
  0
LINE
  8
0
  6
CONTINUOUS
 62
256
 10
-186.160858999999990
 20
-67.133116999999999
 11
-81.078766999999999
 21
-67.133116999999999
  0
LINE
  8
0
  6
CONTINUOUS
 62
256
 10
-186.047097000000010
 20
-64.040385999999998
 11
-81.078766999999999
 21
-64.040385999999998
  0
LINE
  8
0
  6
CONTINUOUS
 62
256
 10
-185.181873000000000
 20
-62.561363000000000
 11
-81.078766999999999
 21
-62.561363000000000
  0
LINE
  8
0
  6
CONTINUOUS
 62
256
 10
-185.078767000000000
 20
-59.603366999999999
 11
-81.078766999999999
 21
-59.603366999999999
  0
LINE
  8
0
  6
CONTINUOUS
 62
256
 10
-185.078767000000000
 20
-58.014158000000002
 11
-81.078766999999999
 21
-58.014158000000002
  0
LINE
  8
0
  6
CONTINUOUS
 62
256
 10
-180.078767000000000
 20
-50.275844999999997
 11
-81.078766999999999
 21
-50.275844999999997
  0
LINE
  8
0
  6
CONTINUOUS
 62
256
 10
-185.056926000000000
 20
-45.184676000000003
 11
-81.078766999999999
 21
-45.184676000000003
  0
LINE
  8
0
  6
CONTINUOUS
 62
256
 10
-184.754784000000000
 20
-40.817757999999998
 11
-81.078766999999999
 21
-40.817757999999998
  0
LINE
  8
0
  6
CONTINUOUS
 62
256
 10
-184.718437999999990
 20
-40.317757999999998
 11
-81.078766999999999
 21
-40.317757999999998
  0
LINE
  8
0
  6
CONTINUOUS
 62
256
 10
-180.578767000000000
 20
-46.219779000000003
 11
-180.578767000000000
 21
-55.069358999999999
  0
LINE
  8
0
  6
CONTINUOUS
 62
256
 10
-180.078767000000000
 20
-55.069358999999999
 11
-180.578767000000000
 21
-55.069358999999999
  0
LINE
  8
0
  6
CONTINUOUS
 62
256
 10
-180.578767000000000
 20
-47.978358999999998
 11
-180.078767000000000
 21
-47.978358999999998
  0
LINE
  8
0
  6
CONTINUOUS
 62
256
 10
-186.578767000000000
 20
-91.317757999999998
 11
-186.578767000000000
 21
-71.817757999999998
  0
ARC
  8
0
  6
CONTINUOUS
 62
256
 10
-186.078767000000000
 20
-71.817757999999998
 40
0.499999999999995
 50
135.115137999999720
 51
180.000000000000000
  0
ARC
  8
0
  6
CONTINUOUS
 62
256
 10
-186.787294000000000
 20
-71.112074000000007
 40
0.499999999999995
 50
315.115137999999770
 51
358.347093000000650
  0
LINE
  8
0
  6
CONTINUOUS
 62
256
 10
-180.578767000000000
 20
-46.219779000000003
 11
-184.578767000000000
 21
-46.219779000000003
  0
ARC
  8
0
  6
CONTINUOUS
 62
256
 10
-184.578767000000000
 20
-46.719779000000003
 40
0.500000000000000
 50
90.000000000000000
 51
180.000000000000000
  0
LINE
  8
0
  6
CONTINUOUS
 62
256
 10
-185.078767000000000
 20
-46.719779000000003
 11
-185.078767000000000
 21
-62.119117000000003
  0
ARC
  8
0
  6
CONTINUOUS
 62
256
 10
-185.037969000000000
 20
-63.826962999999999
 40
1.000000000000005
 50
121.359036000000670
 51
177.746046999999920
  0
ARC
  8
0
  6
CONTINUOUS
 62
256
 10
-195.078767000000000
 20
-45.190218000000002
 40
9.999999999999993
 50
356.274963000000010
 51
0.000000000000000
  0
ARC
  8
0
  6
CONTINUOUS
 62
256
 10
-186.078767000000000
 20
-62.119117000000003
 40
1.000000000000005
 50
301.359036000000630
 51
0.000000000000000
  0
LINE
  8
0
  6
DASHDOT
 62
256
 10
-177.021366000000000
 20
-51.719779000000003
 11
-191.652531000000010
 21
-51.719779000000003
  0
ARC
  8
0
  6
CONTINUOUS
 62
256
 10
513.421233000000030
 20
-91.317757999999998
 40
700.000000000000000
 50
177.134181000000010
 51
178.347093000000000
  0
ARC
  8
0
  6
CONTINUOUS
 62
256
 10
513.421233000000030
 20
-91.317757999999998
 40
700.000000000000000
 50
175.768744000000000
 51
176.379938000000010
  0
ARC
  8
0
  6
CONTINUOUS
 62
256
 10
-182.676281999999990
 20
-39.817757999999998
 40
2.000000000000000
 50
90.000000000000000
 51
175.768744000000050
  0
LINE
  8
0
  6
CONTINUOUS
 62
256
 10
-180.078767000000000
 20
-37.817757999999998
 11
-182.676281999999990
 21
-37.817757999999998
  0
LINE
  8
0
  6
CONTINUOUS
 62
256
 10
-180.078767000000000
 20
-91.317757999999998
 11
-180.078767000000000
 21
-37.817757999999998
  0
ARC
  8
0
  6
CONTINUOUS
 62
256
 10
-37.578664000000003
 20
-110.817998000000000
 40
7.249999999999997
 50
22.621327999999966
 51
90.198222000000001
  0
ARC
  8
0
  6
CONTINUOUS
 62
256
 10
-25.578792000000000
 20
-105.817691000000000
 40
5.749999999999997
 50
202.621327999999920
 51
270.000000000000000
  0
LINE
  8
0
  6
CONTINUOUS
 62
256
 10
47.421816999999997
 20
-114.917691000000000
 11
47.821817000000003
 21
-115.317691000000000
  0
LINE
  8
0
  6
CONTINUOUS
 62
256
 10
37.421816999999997
 20
-114.917691000000000
 11
37.021816999999999
 21
-115.317691000000000
  0
LINE
  8
0
  6
CONTINUOUS
 62
256
 10
-32.578664000000003
 20
-114.917691000000000
 11
-32.178663999999998
 21
-115.317691000000000
  0
LINE
  8
0
  6
CONTINUOUS
 62
256
 10
-42.578664000000003
 20
-114.917691000000000
 11
-42.978664000000002
 21
-115.317691000000000
  0
LINE
  8
0
  6
CONTINUOUS
 62
256
 10
-42.578664000000003
 20
-35.717691000000002
 11
-42.978664000000002
 21
-35.317691000000003
  0
LINE
  8
0
  6
CONTINUOUS
 62
256
 10
-32.578664000000003
 20
-35.717691000000002
 11
-32.178663999999998
 21
-35.317691000000003
  0
LINE
  8
0
  6
CONTINUOUS
 62
256
 10
47.421816999999997
 20
-35.717691000000002
 11
47.821817000000003
 21
-35.317691000000003
  0
LINE
  8
0
  6
CONTINUOUS
 62
256
 10
37.421816999999997
 20
-35.717691000000002
 11
37.021816999999999
 21
-35.317691000000003
  0
LINE
  8
0
  6
CONTINUOUS
 62
256
 10
-48.096423999999999
 20
-97.612757999999999
 11
-48.096423999999999
 21
-97.585922999999994
  0
CIRCLE
  8
0
  6
CONTINUOUS
 62
256
 10
21.421576000000002
 20
-75.317690999999996
 40
15.000000000000000
  0
ARC
  8
0
  6
CONTINUOUS
 62
256
 10
0.787644000000000
 20
-41.567691000000003
 40
2.500000000000000
 50
90.000000000000000
 51
188.752929000000050
  0
ARC
  8
0
  6
CONTINUOUS
 62
256
 10
0.787644000000000
 20
-109.067691000000000
 40
2.499999999999999
 50
171.247071000000120
 51
270.000000000000000
  0
CIRCLE
  8
0
  6
CONTINUOUS
 62
256
 10
-48.578423999999998
 20
-107.317691000000000
 40
3.450000000000003
  0
CIRCLE
  8
0
  6
CONTINUOUS
 62
256
 10
-48.578423999999998
 20
-107.317691000000000
 40
4.000000000000000
  0
CIRCLE
  8
0
  6
CONTINUOUS
 62
256
 10
53.421576000000002
 20
-107.317691000000000
 40
3.450000000000003
  0
CIRCLE
  8
0
  6
CONTINUOUS
 62
256
 10
53.421576000000002
 20
-107.317691000000000
 40
4.000000000000000
  0
CIRCLE
  8
0
  6
CONTINUOUS
 62
256
 10
53.421576000000002
 20
-43.317691000000003
 40
3.450000000000003
  0
CIRCLE
  8
0
  6
CONTINUOUS
 62
256
 10
53.421576000000002
 20
-43.317691000000003
 40
4.000000000000000
  0
CIRCLE
  8
0
  6
CONTINUOUS
 62
256
 10
-48.578423999999998
 20
-43.317691000000003
 40
3.450000000000003
  0
CIRCLE
  8
0
  6
CONTINUOUS
 62
256
 10
-48.578423999999998
 20
-43.317691000000003
 40
4.000000000000000
  0
LINE
  8
0
  6
DASHDOT
 62
256
 10
61.921576000000002
 20
-43.317691000000003
 11
44.921576000000002
 21
-43.317691000000003
  0
LINE
  8
0
  6
DASHDOT
 62
256
 10
53.421576000000002
 20
-34.817691000000003
 11
53.421576000000002
 21
-51.817691000000003
  0
LINE
  8
0
  6
DASHDOT
 62
256
 10
-40.078423999999998
 20
-43.317691000000003
 11
-57.078423999999998
 21
-43.317691000000003
  0
LINE
  8
0
  6
DASHDOT
 62
256
 10
-48.578423999999998
 20
-34.817691000000003
 11
-48.578423999999998
 21
-51.817691000000003
  0
LINE
  8
0
  6
DASHDOT
 62
256
 10
-40.078423999999998
 20
-107.317691000000000
 11
-57.078423999999998
 21
-107.317691000000000
  0
LINE
  8
0
  6
DASHDOT
 62
256
 10
-48.578423999999998
 20
-98.817690999999996
 11
-48.578423999999998
 21
-115.817691000000000
  0
LINE
  8
0
  6
DASHDOT
 62
256
 10
61.921576000000002
 20
-107.317691000000000
 11
44.921576000000002
 21
-107.317691000000000
  0
LINE
  8
0
  6
DASHDOT
 62
256
 10
53.421576000000002
 20
-98.817690999999996
 11
53.421576000000002
 21
-115.817691000000000
  0
LINE
  8
0
  6
DASHDOT
 62
256
 10
48.171816999999997
 20
-110.817998000000000
 11
36.671816999999997
 21
-110.817998000000000
  0
LINE
  8
0
  6
DASHDOT
 62
256
 10
42.421816999999997
 20
-105.067998000000000
 11
42.421816999999997
 21
-116.567998000000000
  0
LINE
  8
0
  6
DASHDOT
 62
256
 10
-31.828664000000000
 20
-110.817998000000000
 11
-43.328664000000003
 21
-110.817998000000000
  0
LINE
  8
0
  6
DASHDOT
 62
256
 10
-37.578664000000003
 20
-105.067998000000000
 11
-37.578664000000003
 21
-116.567998000000000
  0
LINE
  8
0
  6
DASHDOT
 62
256
 10
-31.828664000000000
 20
-39.817385000000002
 11
-43.328664000000003
 21
-39.817385000000002
  0
LINE
  8
0
  6
DASHDOT
 62
256
 10
-37.578664000000003
 20
-34.067385000000002
 11
-37.578664000000003
 21
-45.567385000000002
  0
LINE
  8
0
  6
DASHDOT
 62
256
 10
48.171816999999997
 20
-39.817385000000002
 11
36.671816999999997
 21
-39.817385000000002
  0
LINE
  8
0
  6
DASHDOT
 62
256
 10
42.421816999999997
 20
-34.067385000000002
 11
42.421816999999997
 21
-45.567385000000002
  0
LINE
  8
0
  6
DASHDOT
 62
256
 10
62.921576000000002
 20
-75.317690999999996
 11
-20.078423999999998
 21
-75.317690999999996
  0
LINE
  8
0
  6
DASHDOT
 62
256
 10
21.421576000000002
 20
-33.817691000000003
 11
21.421576000000002
 21
-116.817691000000000
  0
ARC
  8
0
  6
CONTINUOUS
 62
256
 10
20.098700999999998
 20
-114.317691000000000
 40
1.000000000000000
 50
270.000000000000000
 51
311.409621999999900
  0
ARC
  8
0
  6
CONTINUOUS
 62
256
 10
21.421576000000002
 20
-115.817691000000000
 40
1.000000000000002
 50
48.590378000000101
 51
131.409621999999900
  0
ARC
  8
0
  6
CONTINUOUS
 62
256
 10
22.744451999999999
 20
-114.317691000000000
 40
1.000000000000002
 50
228.590378000000100
 51
270.000000000000000
  0
ARC
  8
0
  6
CONTINUOUS
 62
256
 10
60.421576000000002
 20
-73.994816000000000
 40
1.000000000000005
 50
318.590377999999930
 51
0.000000000000000
  0
ARC
  8
0
  6
CONTINUOUS
 62
256
 10
61.921576000000002
 20
-75.317690999999996
 40
1.000000000000005
 50
138.590377999999960
 51
221.409622000000040
  0
ARC
  8
0
  6
CONTINUOUS
 62
256
 10
60.421576000000002
 20
-76.640567000000004
 40
1.000000000000000
 50
0.000000000000000
 51
41.409622000000049
  0
ARC
  8
0
  6
CONTINUOUS
 62
256
 10
22.744451999999999
 20
-36.317691000000003
 40
1.000000000000000
 50
90.000000000000000
 51
131.409621999999900
  0
ARC
  8
0
  6
CONTINUOUS
 62
256
 10
21.421576000000002
 20
-34.817691000000003
 40
1.000000000000002
 50
228.590378000000100
 51
311.409621999999900
  0
ARC
  8
0
  6
CONTINUOUS
 62
256
 10
20.098700999999998
 20
-36.317691000000003
 40
1.000000000000002
 50
48.590378000000101
 51
90.000000000000000
  0
LINE
  8
0
  6
CONTINUOUS
 62
256
 10
-81.078766999999999
 20
-91.317757999999998
 11
-81.078766999999999
 21
-37.817757999999998
  0
LINE
  8
0
  6
CONTINUOUS
 62
256
 10
-81.078766999999999
 20
-91.317757999999998
 11
-81.078766999999999
 21
-144.817758000000000
  0
LINE
  8
0
  6
CONTINUOUS
 62
256
 10
18.421576000000002
 20
-62.517690999999999
 11
18.421576000000002
 21
-65.778299000000004
  0
LINE
  8
0
  6
CONTINUOUS
 62
256
 10
24.421576000000002
 20
-62.517690999999999
 11
18.421576000000002
 21
-62.517690999999999
  0
LINE
  8
0
  6
CONTINUOUS
 62
256
 10
24.421576000000002
 20
-62.517690999999999
 11
24.421576000000002
 21
-65.778299000000004
  0
ARC
  8
0
  6
CONTINUOUS
 62
256
 10
21.421576000000002
 20
-75.317690999999996
 40
9.999999999999996
 50
107.457603000000010
 51
72.542396999999994
  0
CIRCLE
  8
0
  6
CONTINUOUS
 62
256
 10
-48.578423999999998
 20
-43.317691000000003
 40
5.500000000000000
  0
LINE
  8
0
  6
CONTINUOUS
 62
256
 10
-27.261896000000000
 20
-115.317691000000000
 11
-51.578423999999998
 21
-115.317691000000000
  0
CIRCLE
  8
0
  6
CONTINUOUS
 62
256
 10
-48.578423999999998
 20
-107.317691000000000
 40
5.500000000000000
  0
ARC
  8
0
  6
CONTINUOUS
 62
256
 10
-51.578423999999998
 20
-40.317691000000003
 40
5.000000000000000
 50
90.000000000000000
 51
180.000000000000000
  0
CIRCLE
  8
0
  6
CONTINUOUS
 62
256
 10
53.421576000000002
 20
-107.317691000000000
 40
5.500000000000000
  0
ARC
  8
0
  6
CONTINUOUS
 62
256
 10
56.421576000000002
 20
-110.317691000000000
 40
5.000000000000000
 50
270.000000000000000
 51
0.000000000000000
  0
ARC
  8
0
  6
CONTINUOUS
 62
256
 10
56.421576000000002
 20
-40.317691000000003
 40
5.000000000000000
 50
0.000000000000000
 51
90.000000000000000
  0
CIRCLE
  8
0
  6
CONTINUOUS
 62
256
 10
53.421576000000002
 20
-43.317691000000003
 40
5.500000000000000
  0
LINE
  8
0
  6
CONTINUOUS
 62
256
 10
56.421576000000002
 20
-35.317691000000003
 11
-51.578423999999998
 21
-35.317691000000003
  0
LINE
  8
0
  6
CONTINUOUS
 62
256
 10
61.421576000000002
 20
-40.317691000000003
 11
61.421576000000002
 21
-110.317691000000000
  0
LINE
  8
0
  6
CONTINUOUS
 62
256
 10
56.421576000000002
 20
-115.317691000000000
 11
-27.261896000000000
 21
-115.317691000000000
  0
ARC
  8
0
  6
CONTINUOUS
 62
256
 10
-51.578423999999998
 20
-110.317691000000000
 40
5.000000000000000
 50
180.000000000000000
 51
270.000000000000000
  0
LINE
  8
0
  6
CONTINUOUS
 62
256
 10
-48.996423999999998
 20
-101.612758000000000
 11
-48.996423999999998
 21
-101.585922999999990
  0
LINE
  8
0
  6
CONTINUOUS
 62
256
 10
-56.578423999999998
 20
-40.317691000000003
 11
-56.578423999999998
 21
-110.317691000000000
  0
ARC
  8
0
  6
CONTINUOUS
 62
256
 10
42.421816999999997
 20
-110.817998000000000
 40
5.000000000000000
 50
0.000000000000000
 51
180.000000000000000
  0
ARC
  8
0
  6
CONTINUOUS
 62
256
 10
-37.578664000000003
 20
-110.817998000000000
 40
5.000000000000000
 50
0.000000000000000
 51
180.000000000000000
  0
ARC
  8
0
  6
CONTINUOUS
 62
256
 10
42.421816999999997
 20
-39.817385000000002
 40
5.000000000000000
 50
180.000000000000000
 51
0.000000000000000
  0
ARC
  8
0
  6
CONTINUOUS
 62
256
 10
-37.578664000000003
 20
-39.817385000000002
 40
5.000000000000000
 50
180.000000000000000
 51
0.000000000000000
  0
ARC
  8
0
  6
CONTINUOUS
 62
256
 10
-10.578424000000000
 20
-43.317691000000003
 40
9.000000000000002
 50
265.011458000000000
 51
8.752928999999986
  0
ARC
  8
0
  6
CONTINUOUS
 62
256
 10
-11.578424000000000
 20
-54.774130999999997
 40
2.499999999999996
 50
85.011457999999990
 51
180.000000000000000
  0
LINE
  8
0
  6
CONTINUOUS
 62
256
 10
-14.078424000000000
 20
-54.774130999999997
 11
-14.078424000000000
 21
-95.861251999999993
  0
ARC
  8
0
  6
CONTINUOUS
 62
256
 10
-11.578424000000000
 20
-95.861251999999993
 40
2.500000000000000
 50
180.000000000000000
 51
274.988541999999940
  0
ARC
  8
0
  6
CONTINUOUS
 62
256
 10
-10.578424000000000
 20
-107.317691000000000
 40
9.000000000000000
 50
351.247071000000060
 51
94.988541999999995
  0
LINE
  8
0
  6
CONTINUOUS
 62
256
 10
-66.078766999999999
 20
-57.425592000000002
 11
-73.078766999999999
 21
-57.425592000000002
  0
LINE
  8
0
  6
CONTINUOUS
 62
256
 10
-76.078766999999999
 20
-91.317757999999998
 11
-76.078766999999999
 21
-51.888106999999998
  0
LINE
  8
0
  6
CONTINUOUS
 62
256
 10
-180.578767000000000
 20
-136.415738000000000
 11
-180.578767000000000
 21
-127.566158000000000
  0
LINE
  8
0
  6
CONTINUOUS
 62
256
 10
-180.078767000000000
 20
-127.566158000000000
 11
-180.578767000000000
 21
-127.566158000000000
  0
LINE
  8
0
  6
CONTINUOUS
 62
256
 10
-180.578767000000000
 20
-134.657158000000010
 11
-180.078767000000000
 21
-134.657158000000010
  0
LINE
  8
0
  6
CONTINUOUS
 62
256
 10
-186.578767000000000
 20
-91.317757999999998
 11
-186.578767000000000
 21
-110.817758000000000
  0
ARC
  8
0
  6
CONTINUOUS
 62
256
 10
-186.078767000000000
 20
-110.817758000000000
 40
0.500000000000000
 50
180.000000000000000
 51
224.884862000000280
  0
ARC
  8
0
  6
CONTINUOUS
 62
256
 10
-186.787294000000000
 20
-111.523443000000000
 40
0.499999999999994
 50
1.652906999999361
 51
44.884862000000268
  0
LINE
  8
0
  6
CONTINUOUS
 62
256
 10
-180.578767000000000
 20
-136.415738000000000
 11
-184.578767000000000
 21
-136.415738000000000
  0
ARC
  8
0
  6
CONTINUOUS
 62
256
 10
-184.578767000000000
 20
-135.915738000000000
 40
0.500000000000000
 50
180.000000000000000
 51
270.000000000000000
  0
LINE
  8
0
  6
CONTINUOUS
 62
256
 10
-185.078767000000000
 20
-135.915738000000000
 11
-185.078767000000000
 21
-120.516400000000000
  0
ARC
  8
0
  6
CONTINUOUS
 62
256
 10
-185.037969000000000
 20
-118.808554000000000
 40
1.000000000000004
 50
182.253953000000080
 51
238.640963999999340
  0
ARC
  8
0
  6
CONTINUOUS
 62
256
 10
-195.078767000000000
 20
-137.445299000000010
 40
10.000000000000000
 50
0.000000000000000
 51
3.725037000000060
  0
ARC
  8
0
  6
CONTINUOUS
 62
256
 10
-186.078767000000000
 20
-120.516400000000000
 40
1.000000000000000
 50
0.000000000000000
 51
58.640963999999322
  0
LINE
  8
0
  6
DASHDOT
 62
256
 10
-177.021366000000000
 20
-130.915738000000000
 11
-191.652531000000010
 21
-130.915738000000000
  0
ARC
  8
0
  6
CONTINUOUS
 62
256
 10
513.421233000000030
 20
-91.317757999999998
 40
700.000000000000000
 50
181.652906999999970
 51
182.865818999999960
  0
ARC
  8
0
  6
CONTINUOUS
 62
256
 10
513.421233000000030
 20
-91.317757999999998
 40
700.000000000000000
 50
183.620061999999960
 51
184.231255999999970
  0
ARC
  8
0
  6
CONTINUOUS
 62
256
 10
-182.676281999999990
 20
-142.817758000000000
 40
1.999999999999991
 50
184.231256000000140
 51
270.000000000000000
  0
LINE
  8
0
  6
CONTINUOUS
 62
256
 10
-180.078767000000000
 20
-144.817758000000000
 11
-182.676281999999990
 21
-144.817758000000000
  0
LINE
  8
0
  6
CONTINUOUS
 62
256
 10
-184.718437999999990
 20
-142.317758000000000
 11
-81.078766999999999
 21
-142.317758000000000
  0
LINE
  8
0
  6
CONTINUOUS
 62
256
 10
-184.754784000000000
 20
-141.817758000000000
 11
-81.078766999999999
 21
-141.817758000000000
  0
LINE
  8
0
  6
CONTINUOUS
 62
256
 10
-185.056926000000000
 20
-137.450841000000000
 11
-81.078766999999999
 21
-137.450841000000000
  0
LINE
  8
0
  6
CONTINUOUS
 62
256
 10
-180.078767000000000
 20
-132.359671999999990
 11
-81.078766999999999
 21
-132.359671999999990
  0
LINE
  8
0
  6
CONTINUOUS
 62
256
 10
-185.078767000000000
 20
-124.621359000000000
 11
-81.078766999999999
 21
-124.621359000000000
  0
LINE
  8
0
  6
CONTINUOUS
 62
256
 10
-185.078767000000000
 20
-123.032150000000000
 11
-81.078766999999999
 21
-123.032150000000000
  0
LINE
  8
0
  6
CONTINUOUS
 62
256
 10
-185.181873000000000
 20
-120.074153999999990
 11
-81.078766999999999
 21
-120.074153999999990
  0
LINE
  8
0
  6
CONTINUOUS
 62
256
 10
-186.047097000000010
 20
-118.595130999999990
 11
-81.078766999999999
 21
-118.595130999999990
  0
LINE
  8
0
  6
CONTINUOUS
 62
256
 10
-186.160858999999990
 20
-115.502399999999990
 11
-81.078766999999999
 21
-115.502399999999990
  0
LINE
  8
0
  6
CONTINUOUS
 62
256
 10
-186.206107000000000
 20
-114.155998000000000
 11
-81.078766999999999
 21
-114.155998000000000
  0
LINE
  8
0
  6
CONTINUOUS
 62
256
 10
-186.562096999999990
 20
-110.945792999999990
 11
-81.078766999999999
 21
-110.945792999999990
  0
LINE
  8
0
  6
CONTINUOUS
 62
256
 10
-186.578767000000000
 20
-109.703873000000000
 11
-81.078766999999999
 21
-109.703873000000000
  0
LINE
  8
0
  6
CONTINUOUS
 62
256
 10
-186.578767000000000
 20
-105.317758000000000
 11
-81.078766999999999
 21
-105.317758000000000
  0
LINE
  8
0
  6
CONTINUOUS
 62
256
 10
-173.078767000000000
 20
-144.817758000000000
 11
-180.078767000000000
 21
-144.817758000000000
  0
LINE
  8
0
  6
CONTINUOUS
 62
256
 10
-81.078766999999999
 20
-144.817758000000000
 11
-98.078766999999999
 21
-144.817758000000000
  0
LINE
  8
0
  6
CONTINUOUS
 62
256
 10
-172.078767000000000
 20
-177.317758000000000
 11
-172.078767000000000
 21
-148.817758000000000
  0
LINE
  8
0
  6
CONTINUOUS
 62
256
 10
-99.078766999999999
 20
-177.317758000000000
 11
-99.078766999999999
 21
-148.817758000000000
  0
LINE
  8
0
  6
CONTINUOUS
 62
256
 10
-98.078766999999999
 20
-148.817758000000000
 11
-98.078766999999999
 21
-143.817758000000000
  0
LINE
  8
0
  6
CONTINUOUS
 62
256
 10
-173.078767000000000
 20
-148.817758000000000
 11
-173.078767000000000
 21
-143.817758000000000
  0
LINE
  8
0
  6
CONTINUOUS
 62
256
 10
-173.078767000000000
 20
-148.817758000000000
 11
-98.078766999999999
 21
-148.817758000000000
  0
LINE
  8
0
  6
CONTINUOUS
 62
256
 10
-98.078766999999999
 20
-143.817758000000000
 11
-173.078767000000000
 21
-143.817758000000000
  0
LINE
  8
0
  6
CONTINUOUS
 62
256
 10
-180.078767000000000
 20
-91.317757999999998
 11
-180.078767000000000
 21
-144.817758000000000
  0
ARC
  8
0
  6
CONTINUOUS
 62
256
 10
-100.078767000000000
 20
-177.317758000000000
 40
1.000000000000000
 50
270.000000000000000
 51
0.000000000000000
  0
ARC
  8
0
  6
CONTINUOUS
 62
256
 10
-171.078767000000000
 20
-177.317758000000000
 40
1.000000000000000
 50
180.000000000000000
 51
270.000000000000000
  0
LINE
  8
0
  6
CONTINUOUS
 62
256
 10
-100.078767000000000
 20
-178.317758000000000
 11
-171.078767000000000
 21
-178.317758000000000
  0
LINE
  8
0
  6
CONTINUOUS
 62
256
 10
-81.078766999999999
 20
-143.817758000000000
 11
-81.078766999999999
 21
-141.567758000000000
  0
LINE
  8
0
  6
CONTINUOUS
 62
256
 10
-81.078766999999999
 20
-40.267758000000001
 11
-81.078766999999999
 21
-38.817757999999998
  0
LINE
  8
0
  6
CONTINUOUS
 62
256
 10
-81.078766999999999
 20
-38.817757999999998
 11
-81.078766999999999
 21
-41.067757999999998
  0
LINE
  8
0
  6
CONTINUOUS
 62
256
 10
-81.078766999999999
 20
-144.817758000000000
 11
-81.078766999999999
 21
-91.317757999999998
  0
LINE
  8
0
  6
CONTINUOUS
 62
256
 10
-81.078766999999999
 20
-91.317757999999998
 11
-81.078766999999999
 21
-37.817757999999998
  0
LINE
  8
0
  6
DASHDOT
 62
256
 10
-39.413566000000003
 20
-91.317757999999998
 11
-193.292064000000010
 21
-91.317757999999998
  0
LINE
  8
0
  6
CONTINUOUS
 62
256
 10
-73.078766999999999
 20
-46.817757999999998
 11
-68.078766999999999
 21
-46.817757999999998
  0
LINE
  8
0
  6
CONTINUOUS
 62
256
 10
-74.078766999999999
 20
-49.888106999999998
 11
-68.078766999999999
 21
-49.888106999999998
  0
LINE
  8
0
  6
CONTINUOUS
 62
256
 10
-76.078766999999999
 20
-43.817757999999998
 11
-76.078766999999999
 21
-40.783304999999999
  0
LINE
  8
0
  6
CONTINUOUS
 62
256
 10
-76.078766999999999
 20
-138.817758000000000
 11
-76.078766999999999
 21
-141.852212000000010
  0
LINE
  8
0
  6
CONTINUOUS
 62
256
 10
-73.078766999999999
 20
-135.817758000000000
 11
-68.078766999999999
 21
-135.817758000000000
  0
LINE
  8
0
  6
CONTINUOUS
 62
256
 10
-74.078766999999999
 20
-132.747410000000000
 11
-68.078766999999999
 21
-132.747410000000000
  0
LINE
  8
0
  6
CONTINUOUS
 62
256
 10
-76.078766999999999
 20
-91.317757999999998
 11
-76.078766999999999
 21
-130.747410000000000
  0
LINE
  8
0
  6
CONTINUOUS
 62
256
 10
-66.078766999999999
 20
-125.209924000000000
 11
-73.078766999999999
 21
-125.209924000000000
  0
ARC
  8
0
  6
CONTINUOUS
 62
256
 10
-73.078766999999999
 20
-60.425592000000002
 40
3.000000000000000
 50
90.000000000000000
 51
180.000000000000000
  0
ARC
  8
0
  6
CONTINUOUS
 62
256
 10
-73.078766999999999
 20
-43.817757999999998
 40
3.000000000000000
 50
180.000000000000000
 51
270.000000000000000
  0
ARC
  8
0
  6
CONTINUOUS
 62
256
 10
-74.078766999999999
 20
-51.888106999999998
 40
2.000000000000000
 50
90.000000000000000
 51
180.000000000000000
  0
ARC
  8
0
  6
CONTINUOUS
 62
256
 10
-68.078766999999999
 20
-54.888106999999998
 40
5.000000000000000
 50
0.000000000000000
 51
90.000000000000000
  0
ARC
  8
0
  6
CONTINUOUS
 62
256
 10
-68.078766999999999
 20
-51.817757999999998
 40
5.000000000000000
 50
0.000000000000000
 51
90.000000000000000
  0
ARC
  8
0
  6
CONTINUOUS
 62
256
 10
-66.078766999999999
 20
-60.425592000000002
 40
3.000000000000000
 50
0.000000000000000
 51
90.000000000000000
  0
ARC
  8
0
  6
CONTINUOUS
 62
256
 10
-79.078766999999999
 20
-40.783304999999999
 40
3.000000000000000
 50
0.000000000000000
 51
90.999999999999872
  0
ARC
  8
0
  6
CONTINUOUS
 62
256
 10
-79.078766999999999
 20
-141.852212000000010
 40
3.000000000000011
 50
269.000000000000110
 51
0.000000000000000
  0
ARC
  8
0
  6
CONTINUOUS
 62
256
 10
-73.078766999999999
 20
-138.817758000000000
 40
3.000000000000000
 50
90.000000000000000
 51
180.000000000000000
  0
ARC
  8
0
  6
CONTINUOUS
 62
256
 10
-74.078766999999999
 20
-130.747410000000000
 40
2.000000000000000
 50
180.000000000000000
 51
270.000000000000000
  0
ARC
  8
0
  6
CONTINUOUS
 62
256
 10
-68.078766999999999
 20
-127.747410000000000
 40
5.000000000000000
 50
270.000000000000000
 51
0.000000000000000
  0
ARC
  8
0
  6
CONTINUOUS
 62
256
 10
-68.078766999999999
 20
-130.817758000000000
 40
5.000000000000000
 50
270.000000000000000
 51
0.000000000000000
  0
ARC
  8
0
  6
CONTINUOUS
 62
256
 10
-73.078766999999999
 20
-122.209924000000000
 40
3.000000000000000
 50
180.000000000000000
 51
270.000000000000000
  0
ARC
  8
0
  6
CONTINUOUS
 62
256
 10
-66.078766999999999
 20
-122.209924000000000
 40
3.000000000000000
 50
270.000000000000000
 51
0.000000000000000
  0
LINE
  8
0
  6
CONTINUOUS
 62
256
 10
-76.078766999999999
 20
-71.317757999999998
 11
-81.078766999999999
 21
-71.317757999999998
  0
LINE
  8
0
  6
CONTINUOUS
 62
256
 10
-76.078766999999999
 20
-111.317758000000000
 11
-81.078766999999999
 21
-111.317758000000000
  0
ARC
  8
0
  6
CONTINUOUS
 62
256
 10
-51.578423999999998
 20
-40.317691000000003
 40
5.000000000000000
 50
90.000000000000000
 51
180.000000000000000
  0
ARC
  8
0
  6
CONTINUOUS
 62
256
 10
56.421576000000002
 20
-110.317691000000000
 40
5.000000000000000
 50
270.000000000000000
 51
0.000000000000000
  0
ARC
  8
0
  6
CONTINUOUS
 62
256
 10
56.421576000000002
 20
-40.317691000000003
 40
5.000000000000000
 50
0.000000000000000
 51
90.000000000000000
  0
ARC
  8
0
  6
CONTINUOUS
 62
256
 10
-52.269230000000000
 20
-118.317691000000000
 40
3.000000000000000
 50
90.000000000000000
 51
165.523149000000100
  0
ARC
  8
0
  6
CONTINUOUS
 62
256
 10
-58.078721999999999
 20
-116.817758000000000
 40
3.000000000000000
 50
270.000000000000000
 51
345.523148999999820
  0
ARC
  8
0
  6
CONTINUOUS
 62
256
 10
-51.578423999999998
 20
-110.317691000000000
 40
5.000000000000000
 50
180.000000000000000
 51
270.000000000000000
  0
ARC
  8
0
  6
CONTINUOUS
 62
256
 10
-56.822217000000002
 20
-34.275950999999999
 40
3.000000000000001
 50
271.277815999999970
 51
310.955611999999970
  0
ARC
  8
0
  6
CONTINUOUS
 62
256
 10
-66.078766999999999
 20
-142.096583000000010
 40
3.000000000000011
 50
269.000000000000110
 51
0.000000000000000
  0
ARC
  8
0
  6
CONTINUOUS
 62
256
 10
-60.078766999999999
 20
-118.317691000000000
 40
3.000000000000000
 50
90.000000000000000
 51
180.000000000000000
  0
ARC
  8
0
  6
CONTINUOUS
 62
256
 10
-60.078766999999999
 20
-122.817758000000000
 40
3.000000000000000
 50
90.000000000000000
 51
180.000000000000000
  0
ARC
  8
0
  6
CONTINUOUS
 62
256
 10
-66.078766999999999
 20
-40.483918000000003
 40
3.000000000000000
 50
0.000000000000000
 51
91.277816000000129
  0
LINE
  8
0
  6
CONTINUOUS
 62
256
 10
-27.261896000000000
 20
-115.317691000000000
 11
-60.078766999999999
 21
-115.317691000000000
  0
LINE
  8
0
  6
CONTINUOUS
 62
256
 10
56.421576000000002
 20
-35.317691000000003
 11
-51.578423999999998
 21
-35.317691000000003
  0
LINE
  8
0
  6
CONTINUOUS
 62
256
 10
61.421576000000002
 20
-40.317691000000003
 11
61.421576000000002
 21
-110.317691000000000
  0
LINE
  8
0
  6
CONTINUOUS
 62
256
 10
56.421576000000002
 20
-115.317691000000000
 11
-27.261896000000000
 21
-115.317691000000000
  0
LINE
  8
0
  6
CONTINUOUS
 62
256
 10
-56.578423999999998
 20
-106.817758000000000
 11
-56.578423999999998
 21
-110.317691000000000
  0
LINE
  8
0
  6
CONTINUOUS
 62
256
 10
-58.078721999999999
 20
-119.817758000000000
 11
-60.078766999999999
 21
-119.817758000000000
  0
LINE
  8
0
  6
CONTINUOUS
 62
256
 10
-56.578423999999998
 20
-110.317691000000000
 11
-56.578423999999998
 21
-40.317691000000003
  0
LINE
  8
0
  6
CONTINUOUS
 62
256
 10
-56.755316000000001
 20
-37.275204000000002
 11
-81.078766999999999
 21
-37.817757999999998
  0
LINE
  8
0
  6
CONTINUOUS
 62
256
 10
-81.078766999999999
 20
-144.835214000000010
 11
-66.131124999999997
 21
-145.096126000000000
  0
LINE
  8
0
  6
CONTINUOUS
 62
256
 10
-63.078766999999999
 20
-142.096583000000010
 11
-63.078766999999999
 21
-40.483918000000003
  0
POINT
  8
0
  6
CONTINUOUS
 62
256
 10
-55.078766999999999
 20
-118.317691000000000
  0
POINT
  8
0
  6
CONTINUOUS
 62
256
 10
-63.078766999999999
 20
-145.149405000000000
  0
LINE
  8
0
  6
DASHDOT
 62
256
 10
91.523865000000001
 20
-75.317690999999996
 11
128.823865000000010
 21
-75.317690999999996
  0
LINE
  8
0
  6
DASHDOT
 62
256
 10
110.173865000000010
 20
-93.967691000000002
 11
110.173865000000010
 21
-56.667690999999998
  0
LINE
  8
0
  6
CONTINUOUS
 62
256
 10
107.173865000000010
 20
-62.517690999999999
 11
107.173865000000010
 21
-65.778299000000004
  0
LINE
  8
0
  6
CONTINUOUS
 62
256
 10
107.173865000000010
 20
-62.517690999999999
 11
113.173865000000010
 21
-62.517690999999999
  0
ARC
  8
0
  6
CONTINUOUS
 62
256
 10
110.173865000000010
 20
-75.317690999999996
 40
9.999999999999996
 50
107.457603000000010
 51
72.542396999999994
  0
LINE
  8
0
  6
CONTINUOUS
 62
256
 10
113.173865000000010
 20
-62.517690999999999
 11
113.173865000000010
 21
-65.778299000000004
  0
CIRCLE
  8
0
  6
CONTINUOUS
 62
256
 10
110.173865000000010
 20
-75.317690999999996
 40
14.900000000000006
  0
LINE
  8
0
  6
CONTINUOUS
 62
256
 10
191.291876000000000
 20
-65.117690999999994
 11
191.291876000000000
 21
-85.517690999999999
  0
LINE
  8
0
  6
CONTINUOUS
 62
256
 10
191.291876000000000
 20
-85.517690999999999
 11
226.291876000000000
 21
-85.517690999999999
  0
LINE
  8
0
  6
CONTINUOUS
 62
256
 10
191.291876000000000
 20
-65.117690999999994
 11
226.291876000000000
 21
-65.117690999999994
  0
LINE
  8
0
  6
CONTINUOUS
 62
256
 10
256.291876000000000
 20
-61.417690999999998
 11
256.291876000000000
 21
-89.217691000000002
  0
ARC
  8
0
  6
CONTINUOUS
 62
256
 10
255.291876000000000
 20
-61.417690999999998
 40
1.000000000000000
 50
0.000000000000000
 51
90.000000000000000
  0
LINE
  8
0
  6
CONTINUOUS
 62
256
 10
161.291876000000000
 20
-61.417690999999998
 11
161.291876000000000
 21
-89.217691000000002
  0
ARC
  8
0
  6
CONTINUOUS
 62
256
 10
162.291876000000000
 20
-61.417690999999998
 40
1.000000000000000
 50
90.000000000000000
 51
180.000000000000000
  0
LINE
  8
0
  6
CONTINUOUS
 62
256
 10
252.827774000000010
 20
-85.317690999999996
 11
252.827774000000010
 21
-65.317690999999996
  0
LINE
  8
0
  6
CONTINUOUS
 62
256
 10
164.755977000000000
 20
-85.317690999999996
 11
164.755977000000000
 21
-65.317690999999996
  0
LINE
  8
0
  6
CONTINUOUS
 62
256
 10
226.291876000000000
 20
-65.117690999999994
 11
226.291876000000000
 21
-85.517690999999999
  0
LINE
  8
0
  6
CONTINUOUS
 62
256
 10
241.441876000000010
 20
-64.817690999999996
 11
241.441876000000010
 21
-85.817690999999996
  0
LINE
  8
0
  6
CONTINUOUS
 62
256
 10
240.291876000000000
 20
-64.817690999999996
 11
240.291876000000000
 21
-85.817690999999996
  0
LINE
  8
0
  6
CONTINUOUS
 62
256
 10
177.291876000000000
 20
-64.817690999999996
 11
177.291876000000000
 21
-85.817690999999996
  0
LINE
  8
0
  6
CONTINUOUS
 62
256
 10
176.141876000000000
 20
-64.817690999999996
 11
176.141876000000000
 21
-85.817690999999996
  0
ARC
  8
0
  6
CONTINUOUS
 62
256
 10
188.691876000000010
 20
-58.217691000000002
 40
0.399999999999999
 50
90.000000000000000
 51
180.000000000000000
  0
LINE
  8
0
  6
CONTINUOUS
 62
256
 10
188.691876000000010
 20
-57.817691000000003
 11
214.891876000000000
 21
-57.817691000000003
  0
LINE
  8
0
  6
CONTINUOUS
 62
256
 10
188.291876000000000
 20
-59.917690999999998
 11
188.291876000000000
 21
-58.217691000000002
  0
ARC
  8
0
  6
CONTINUOUS
 62
256
 10
214.891876000000000
 20
-58.217691000000002
 40
0.400000000000006
 50
0.000000000000000
 51
90.000000000000000
  0
LINE
  8
0
  6
CONTINUOUS
 62
256
 10
215.291876000000000
 20
-58.217691000000002
 11
215.291876000000000
 21
-59.167690999999998
  0
ARC
  8
0
  6
CONTINUOUS
 62
256
 10
225.891876000000000
 20
-59.967691000000002
 40
0.400000000000006
 50
0.000000000000000
 51
90.000000000000000
  0
LINE
  8
0
  6
CONTINUOUS
 62
256
 10
225.891876000000000
 20
-59.567691000000003
 11
215.691876000000010
 21
-59.567691000000003
  0
ARC
  8
0
  6
CONTINUOUS
 62
256
 10
215.691876000000010
 20
-59.167690999999998
 40
0.400000000000006
 50
180.000000000000000
 51
270.000000000000000
  0
LINE
  8
0
  6
CONTINUOUS
 62
256
 10
176.291876000000000
 20
-60.317691000000003
 11
176.291876000000000
 21
-60.417690999999998
  0
LINE
  8
0
  6
CONTINUOUS
 62
256
 10
176.291876000000000
 20
-60.417690999999998
 11
162.291876000000000
 21
-60.417690999999998
  0
LINE
  8
0
  6
CONTINUOUS
 62
256
 10
241.291876000000000
 20
-60.417690999999998
 11
241.291876000000000
 21
-60.317691000000003
  0
LINE
  8
0
  6
CONTINUOUS
 62
256
 10
255.291876000000000
 20
-60.417690999999998
 11
241.291876000000000
 21
-60.417690999999998
  0
LINE
  8
0
  6
CONTINUOUS
 62
256
 10
226.291876000000000
 20
-59.967691000000002
 11
226.291876000000000
 21
-60.317691000000003
  0
LINE
  8
0
  6
CONTINUOUS
 62
256
 10
241.291876000000000
 20
-60.317691000000003
 11
226.291876000000000
 21
-60.317691000000003
  0
LINE
  8
0
  6
CONTINUOUS
 62
256
 10
176.141876000000000
 20
-65.317690999999996
 11
164.755977000000000
 21
-65.317690999999996
  0
LINE
  8
0
  6
CONTINUOUS
 62
256
 10
191.291876000000000
 20
-65.317690999999996
 11
177.291876000000000
 21
-65.317690999999996
  0
ARC
  8
0
  6
CONTINUOUS
 62
256
 10
187.891876000000000
 20
-59.917690999999998
 40
0.399999999999999
 50
270.000000000000000
 51
0.000000000000000
  0
LINE
  8
0
  6
CONTINUOUS
 62
256
 10
176.291876000000000
 20
-60.317691000000003
 11
187.891876000000000
 21
-60.317691000000003
  0
LINE
  8
0
  6
CONTINUOUS
 62
256
 10
226.291876000000000
 20
-65.317690999999996
 11
240.291876000000000
 21
-65.317690999999996
  0
LINE
  8
0
  6
CONTINUOUS
 62
256
 10
241.441876000000010
 20
-65.317690999999996
 11
252.827774000000010
 21
-65.317690999999996
  0
LINE
  8
0
  6
CONTINUOUS
 62
256
 10
161.291876000000000
 20
-62.517690999999999
 11
256.291876000000000
 21
-62.517690999999999
  0
LINE
  8
0
  6
CONTINUOUS
 62
256
 10
256.291876000000000
 20
-63.317691000000003
 11
252.827774000000010
 21
-65.317690999999996
  0
LINE
  8
0
  6
CONTINUOUS
 62
256
 10
161.291876000000000
 20
-63.317691000000003
 11
164.755977000000000
 21
-65.317690999999996
  0
LINE
  8
0
  6
CONTINUOUS
 62
256
 10
240.291876000000000
 20
-64.817690999999996
 11
241.441876000000010
 21
-64.817690999999996
  0
LINE
  8
0
  6
CONTINUOUS
 62
256
 10
177.291876000000000
 20
-64.817690999999996
 11
176.141876000000000
 21
-64.817690999999996
  0
ARC
  8
0
  6
CONTINUOUS
 62
256
 10
188.691876000000010
 20
-92.417691000000005
 40
0.400000000000006
 50
180.000000000000000
 51
270.000000000000000
  0
LINE
  8
0
  6
CONTINUOUS
 62
256
 10
188.691876000000010
 20
-92.817690999999996
 11
214.891876000000000
 21
-92.817690999999996
  0
LINE
  8
0
  6
CONTINUOUS
 62
256
 10
188.291876000000000
 20
-90.717691000000002
 11
188.291876000000000
 21
-92.417691000000005
  0
ARC
  8
0
  6
CONTINUOUS
 62
256
 10
214.891876000000000
 20
-92.417691000000005
 40
0.400000000000006
 50
270.000000000000000
 51
0.000000000000000
  0
LINE
  8
0
  6
DASHDOT
 62
256
 10
259.291876000000000
 20
-75.317690999999996
 11
156.184299000000010
 21
-75.317690999999996
  0
LINE
  8
0
  6
CONTINUOUS
 62
256
 10
215.291876000000000
 20
-92.417691000000005
 11
215.291876000000000
 21
-91.467691000000002
  0
ARC
  8
0
  6
CONTINUOUS
 62
256
 10
225.891876000000000
 20
-90.667691000000005
 40
0.400000000000006
 50
270.000000000000000
 51
0.000000000000000
  0
LINE
  8
0
  6
CONTINUOUS
 62
256
 10
225.891876000000000
 20
-91.067690999999996
 11
215.691876000000010
 21
-91.067690999999996
  0
ARC
  8
0
  6
CONTINUOUS
 62
256
 10
215.691876000000010
 20
-91.467691000000002
 40
0.400000000000006
 50
90.000000000000000
 51
180.000000000000000
  0
ARC
  8
0
  6
CONTINUOUS
 62
256
 10
162.291876000000000
 20
-89.217691000000002
 40
1.000000000000000
 50
180.000000000000000
 51
270.000000000000000
  0
LINE
  8
0
  6
CONTINUOUS
 62
256
 10
176.291876000000000
 20
-90.317690999999996
 11
176.291876000000000
 21
-90.217691000000002
  0
LINE
  8
0
  6
CONTINUOUS
 62
256
 10
176.291876000000000
 20
-90.217691000000002
 11
162.291876000000000
 21
-90.217691000000002
  0
ARC
  8
0
  6
CONTINUOUS
 62
256
 10
255.291876000000000
 20
-89.217691000000002
 40
1.000000000000000
 50
270.000000000000000
 51
0.000000000000000
  0
LINE
  8
0
  6
CONTINUOUS
 62
256
 10
241.291876000000000
 20
-90.217691000000002
 11
241.291876000000000
 21
-90.317690999999996
  0
LINE
  8
0
  6
CONTINUOUS
 62
256
 10
255.291876000000000
 20
-90.217691000000002
 11
241.291876000000000
 21
-90.217691000000002
  0
LINE
  8
0
  6
CONTINUOUS
 62
256
 10
226.291876000000000
 20
-90.667691000000005
 11
226.291876000000000
 21
-90.317690999999996
  0
LINE
  8
0
  6
CONTINUOUS
 62
256
 10
241.291876000000000
 20
-90.317690999999996
 11
226.291876000000000
 21
-90.317690999999996
  0
LINE
  8
0
  6
CONTINUOUS
 62
256
 10
176.141876000000000
 20
-85.317690999999996
 11
164.755977000000000
 21
-85.317690999999996
  0
LINE
  8
0
  6
CONTINUOUS
 62
256
 10
191.291876000000000
 20
-85.317690999999996
 11
177.291876000000000
 21
-85.317690999999996
  0
ARC
  8
0
  6
CONTINUOUS
 62
256
 10
187.891876000000000
 20
-90.717691000000002
 40
0.400000000000006
 50
0.000000000000000
 51
90.000000000000000
  0
LINE
  8
0
  6
CONTINUOUS
 62
256
 10
176.291876000000000
 20
-90.317690999999996
 11
187.891876000000000
 21
-90.317690999999996
  0
LINE
  8
0
  6
CONTINUOUS
 62
256
 10
226.291876000000000
 20
-85.317690999999996
 11
240.291876000000000
 21
-85.317690999999996
  0
LINE
  8
0
  6
CONTINUOUS
 62
256
 10
241.441876000000010
 20
-85.317690999999996
 11
252.827774000000010
 21
-85.317690999999996
  0
LINE
  8
0
  6
CONTINUOUS
 62
256
 10
256.291876000000000
 20
-87.317690999999996
 11
252.827774000000010
 21
-85.317690999999996
  0
LINE
  8
0
  6
CONTINUOUS
 62
256
 10
161.291876000000000
 20
-87.317690999999996
 11
164.755977000000000
 21
-85.317690999999996
  0
LINE
  8
0
  6
CONTINUOUS
 62
256
 10
240.291876000000000
 20
-85.817690999999996
 11
241.441876000000010
 21
-85.817690999999996
  0
LINE
  8
0
  6
CONTINUOUS
 62
256
 10
177.291876000000000
 20
-85.817690999999996
 11
176.141876000000000
 21
-85.817690999999996
  0
LINE
  8
0
  6
DASHDOT
 62
256
 10
382.832992999999990
 20
-43.317691000000003
 11
295.317430000000000
 21
-43.317691000000003
  0
LINE
  8
0
  6
DASHDOT
 62
256
 10
382.832992999999990
 20
-107.317691000000000
 11
295.317430000000000
 21
-107.317691000000000
  0
LINE
  8
0
  6
CONTINUOUS
 62
256
 10
370.072108000000010
 20
-143.817825000000000
 11
370.072108000000010
 21
-148.817825000000000
  0
LINE
  8
0
  6
CONTINUOUS
 62
256
 10
308.072108000000010
 20
-143.817825000000000
 11
308.072108000000010
 21
-148.817825000000000
  0
LINE
  8
0
  6
CONTINUOUS
 62
256
 10
370.072108000000010
 20
-148.817825000000000
 11
308.072108000000010
 21
-148.817825000000000
  0
LINE
  8
0
  6
DASHED
 62
256
 10
369.572108000000010
 20
-37.817691000000003
 11
369.572108000000010
 21
-48.817691000000003
  0
LINE
  8
0
  6
DASHED
 62
256
 10
369.572108000000010
 20
-101.817691000000000
 11
369.572108000000010
 21
-112.817691000000000
  0
LINE
  8
0
  6
DASHED
 62
256
 10
378.572108000000010
 20
-48.817691000000003
 11
369.572108000000010
 21
-48.817691000000003
  0
LINE
  8
0
  6
DASHED
 62
256
 10
378.572108000000010
 20
-37.817691000000003
 11
369.572108000000010
 21
-37.817691000000003
  0
LINE
  8
0
  6
DASHED
 62
256
 10
369.572108000000010
 20
-39.317691000000003
 11
351.572108000000010
 21
-39.317691000000003
  0
LINE
  8
0
  6
DASHED
 62
256
 10
351.572108000000010
 20
-47.317691000000003
 11
351.572108000000010
 21
-39.317691000000003
  0
LINE
  8
0
  6
DASHED
 62
256
 10
369.572108000000010
 20
-47.317691000000003
 11
351.572108000000010
 21
-47.317691000000003
  0
LINE
  8
0
  6
DASHED
 62
256
 10
326.572108000000010
 20
-47.317691000000003
 11
326.572108000000010
 21
-39.317691000000003
  0
LINE
  8
0
  6
DASHED
 62
256
 10
308.572108000000010
 20
-48.817691000000003
 11
299.572108000000010
 21
-48.817691000000003
  0
LINE
  8
0
  6
DASHED
 62
256
 10
369.572108000000010
 20
-46.667690999999998
 11
308.572108000000010
 21
-46.667690999999998
  0
LINE
  8
0
  6
DASHED
 62
256
 10
326.572108000000010
 20
-47.317691000000003
 11
308.572108000000010
 21
-47.317691000000003
  0
LINE
  8
0
  6
DASHED
 62
256
 10
308.572108000000010
 20
-37.817691000000003
 11
299.572108000000010
 21
-37.817691000000003
  0
LINE
  8
0
  6
DASHED
 62
256
 10
308.572108000000010
 20
-48.817691000000003
 11
308.572108000000010
 21
-37.817691000000003
  0
LINE
  8
0
  6
DASHED
 62
256
 10
369.572108000000010
 20
-39.967691000000002
 11
308.572108000000010
 21
-39.967691000000002
  0
LINE
  8
0
  6
DASHED
 62
256
 10
326.572108000000010
 20
-39.317691000000003
 11
308.572108000000010
 21
-39.317691000000003
  0
LINE
  8
0
  6
CONTINUOUS
 62
256
 10
368.572108000000010
 20
-114.305297999999990
 11
378.572108000000010
 21
-114.305297999999990
  0
LINE
  8
0
  6
CONTINUOUS
 62
256
 10
368.572108000000010
 20
-36.330084999999997
 11
378.572108000000010
 21
-36.330084999999997
  0
POINT
  8
0
  6
CONTINUOUS
 62
256
 10
294.756936000000000
 20
-45.317757999999998
  0
ARC
  8
0
  6
CONTINUOUS
 62
256
 10
686.572107999999960
 20
-111.317758000000000
 40
400.000000000000000
 50
180.071529999999970
 51
181.431983999999970
  0
ARC
  8
0
  6
CONTINUOUS
 62
256
 10
286.072420000000020
 20
-111.817758000000000
 40
0.500000000000021
 50
0.071530000000043
 51
90.017883000003138
  0
ARC
  8
0
  6
CONTINUOUS
 62
256
 10
286.072108000000010
 20
-110.817758000000000
 40
0.500000000000000
 50
180.000000000000000
 51
270.017883000003170
  0
ARC
  8
0
  6
CONTINUOUS
 62
256
 10
286.072108000000010
 20
-71.817757999999998
 40
0.499999999999998
 50
89.982116999996876
 51
180.000000000000000
  0
ARC
  8
0
  6
CONTINUOUS
 62
256
 10
286.072420000000020
 20
-70.817758999999995
 40
0.499999999999998
 50
269.982116999996830
 51
359.928469999999950
  0
ARC
  8
0
  6
CONTINUOUS
 62
256
 10
686.572107999999960
 20
-71.317757999999998
 40
400.000000000000000
 50
178.568016000000000
 51
179.928470000000000
  0
ARC
  8
0
  6
CONTINUOUS
 62
256
 10
319.072108000000010
 20
256.182241999999970
 40
400.000000000000000
 50
268.568016000000060
 51
269.928470000000000
  0
ARC
  8
0
  6
CONTINUOUS
 62
256
 10
318.572108000000010
 20
-144.317445999999990
 40
0.500000000000013
 50
359.982117000000070
 51
89.928470000001582
  0
ARC
  8
0
  6
CONTINUOUS
 62
256
 10
319.572108000000010
 20
-144.317758000000000
 40
0.500000000000013
 50
179.982117000000130
 51
270.000000000000000
  0
ARC
  8
0
  6
CONTINUOUS
 62
256
 10
358.572108000000010
 20
-144.317758000000000
 40
0.500000000000000
 50
270.000000000000000
 51
0.017882999999877
  0
ARC
  8
0
  6
CONTINUOUS
 62
256
 10
359.572108000000010
 20
-144.317445999999990
 40
0.499999999999993
 50
90.071529999998418
 51
180.017882999999870
  0
ARC
  8
0
  6
CONTINUOUS
 62
256
 10
359.072108000000010
 20
256.182241999999970
 40
400.000000000000000
 50
270.071530000000000
 51
271.431984000000000
  0
ARC
  8
0
  6
CONTINUOUS
 62
256
 10
-8.427892000000000
 20
-111.317758000000000
 40
400.000000000000000
 50
358.568016000000060
 51
359.928470000000000
  0
ARC
  8
0
  6
CONTINUOUS
 62
256
 10
-8.427892000000000
 20
-71.317757999999998
 40
399.999999999999940
 50
0.053000000000000
 51
1.431984000000000
  0
ARC
  8
0
  6
CONTINUOUS
 62
256
 10
392.072108000000010
 20
-71.935879000000000
 40
0.500000000000000
 50
0.000000000000000
 51
90.017883000003138
  0
ARC
  8
0
  6
CONTINUOUS
 62
256
 10
392.072108000000010
 20
-110.935879000000000
 40
0.499999999999998
 50
269.982116999996830
 51
0.000000000000000
  0
ARC
  8
0
  6
CONTINUOUS
 62
256
 10
392.071796000000010
 20
-111.935879000000000
 40
0.499999999999998
 50
89.982116999996876
 51
179.928469999999950
  0
ARC
  8
0
  6
CONTINUOUS
 62
256
 10
392.071796000000010
 20
-70.935879000000000
 40
0.500000000000021
 50
180.071530000000050
 51
270.017883000003170
  0
ARC
  8
0
  6
CONTINUOUS
 62
256
 10
295.980388000000000
 20
-48.296860000000002
 40
2.999999999999996
 50
90.999999999999602
 51
135.130421000000440
  0
ARC
  8
0
  6
CONTINUOUS
 62
256
 10
294.039752000000020
 20
-50.528044000000001
 40
2.999999999999989
 50
142.837479999999830
 51
224.999999999999800
  0
ARC
  8
0
  6
CONTINUOUS
 62
256
 10
339.072108000000010
 20
-91.317757999999998
 40
53.500000000000007
 50
152.604368000000020
 51
27.395631999999999
  0
ARC
  8
0
  6
CONTINUOUS
 62
256
 10
384.877480999999990
 20
-124.395210000000010
 40
3.000000000000000
 50
144.165806000000030
 51
224.999999999999800
  0
ARC
  8
0
  6
CONTINUOUS
 62
256
 10
384.104463000000010
 20
-132.107473000000000
 40
2.999999999999989
 50
322.837479999999800
 51
44.999999999999616
  0
ARC
  8
0
  6
CONTINUOUS
 62
256
 10
384.877480999999990
 20
-124.395210000000010
 40
3.000000000000000
 50
144.165806000000030
 51
224.999999999999800
  0
ARC
  8
0
  6
CONTINUOUS
 62
256
 10
368.515921999999990
 20
-147.578861999999990
 40
9.999999999999989
 50
91.000000000000156
 51
117.624964000000080
  0
ARC
  8
0
  6
CONTINUOUS
 62
256
 10
309.628292999999990
 20
-147.578861999999990
 40
10.000000000000000
 50
62.375035999999923
 51
88.999999999999858
  0
ARC
  8
0
  6
CONTINUOUS
 62
256
 10
294.039752000000020
 20
-132.107473000000000
 40
3.000000000000004
 50
135.000000000000370
 51
217.162520000000170
  0
ARC
  8
0
  6
CONTINUOUS
 62
256
 10
293.266733999999990
 20
-124.395210000000010
 40
3.000000000000014
 50
315.000000000000230
 51
35.834193999999975
  0
ARC
  8
0
  6
CONTINUOUS
 62
256
 10
295.980388000000000
 20
-134.338657000000010
 40
3.000000000000027
 50
224.869578999999760
 51
269.000000000000340
  0
ARC
  8
0
  6
DASHED
 62
256
 10
382.163827000000030
 20
-48.296860000000002
 40
3.000000000000022
 50
44.869578999999668
 51
89.000000000000398
  0
ARC
  8
0
  6
CONTINUOUS
 62
256
 10
384.104463000000010
 20
-50.528044000000001
 40
3.000000000000014
 50
315.000000000000230
 51
37.162520000000193
  0
ARC
  8
0
  6
CONTINUOUS
 62
256
 10
382.163827000000030
 20
-134.338657000000010
 40
3.000000000000011
 50
270.999999999999600
 51
315.130421000000180
  0
ARC
  8
0
  6
CONTINUOUS
 62
256
 10
311.572108000000010
 20
-63.817757999999998
 40
25.000000000000000
 50
118.685402000000010
 51
174.269825000000000
  0
ARC
  8
0
  6
CONTINUOUS
 62
256
 10
366.572108000000010
 20
-63.817757999999998
 40
24.999999999999979
 50
5.730174999999997
 51
61.314597999999989
  0
ARC
  8
0
  6
CONTINUOUS
 62
256
 10
366.572108000000010
 20
-118.817758000000000
 40
25.000000000000011
 50
275.730175000000030
 51
354.269824999999970
  0
ARC
  8
0
  6
CONTINUOUS
 62
256
 10
311.572108000000010
 20
-118.817758000000000
 40
24.999999999999979
 50
185.730175000000000
 51
264.269825000000080
  0
LINE
  8
0
  6
CONTINUOUS
 62
256
 10
310.572108000000010
 20
-35.317691000000003
 11
368.572108000000010
 21
-36.330084999999997
  0
LINE
  8
0
  6
DASHDOT
 62
256
 10
290.070313000000000
 20
-75.317690999999996
 11
388.905055000000000
 21
-75.317690999999996
  0
LINE
  8
0
  6
CONTINUOUS
 62
256
 10
378.572108000000010
 20
-47.317691000000003
 11
382.172107999999980
 21
-47.317691000000003
  0
LINE
  8
0
  6
CONTINUOUS
 62
256
 10
378.572108000000010
 20
-103.317691000000000
 11
382.172107999999980
 21
-103.317691000000000
  0
LINE
  8
0
  6
CONTINUOUS
 62
256
 10
310.572108000000010
 20
-115.317691000000000
 11
368.572108000000010
 21
-114.305297999999990
  0
LINE
  8
0
  6
CONTINUOUS
 62
256
 10
378.572108000000010
 20
-41.999989999999997
 11
378.572108000000010
 21
-36.330084999999997
  0
LINE
  8
0
  6
CONTINUOUS
 62
256
 10
285.572108000000010
 20
-110.817758000000000
 11
285.572108000000010
 21
-71.817757999999998
  0
LINE
  8
0
  6
CONTINUOUS
 62
256
 10
358.572108000000010
 20
-144.817758000000000
 11
319.572108000000010
 21
-144.817758000000000
  0
LINE
  8
0
  6
CONTINUOUS
 62
256
 10
392.572108000000010
 20
-110.935879000000000
 11
392.572108000000010
 21
-71.935879000000000
  0
LINE
  8
0
  6
CONTINUOUS
 62
256
 10
295.928030999999980
 20
-45.297317000000000
 11
299.572108000000010
 21
-45.233708999999998
  0
LINE
  8
0
  6
CONTINUOUS
 62
256
 10
295.572108000000010
 20
-56.303040000000003
 11
291.918432000000000
 21
-52.649363999999998
  0
LINE
  8
0
  6
CONTINUOUS
 62
256
 10
382.756161000000020
 20
-126.516530000000000
 11
386.225782999999980
 21
-129.986153000000000
  0
LINE
  8
0
  6
CONTINUOUS
 62
256
 10
382.216184000000000
 20
-137.338200000000000
 11
368.341398000000030
 21
-137.580385000000010
  0
LINE
  8
0
  6
CONTINUOUS
 62
256
 10
295.928030999999980
 20
-137.338200000000000
 11
309.802818000000000
 21
-137.580385000000010
  0
LINE
  8
0
  6
CONTINUOUS
 62
256
 10
295.388055000000010
 20
-126.516530000000000
 11
291.918432000000000
 21
-129.986153000000000
  0
LINE
  8
0
  6
CONTINUOUS
 62
256
 10
382.216184000000000
 20
-45.297317000000000
 11
378.572108000000010
 21
-45.233708999999998
  0
LINE
  8
0
  6
CONTINUOUS
 62
256
 10
382.756161000000020
 20
-56.118986999999997
 11
386.225782999999980
 21
-52.649363999999998
  0
LINE
  8
0
  6
CONTINUOUS
 62
256
 10
310.572108000000010
 20
-35.317691000000003
 11
300.071955000000000
 21
-35.500971999999997
  0
LINE
  8
0
  6
CONTINUOUS
 62
256
 10
310.572108000000010
 20
-115.317691000000000
 11
300.071955000000000
 21
-115.134411000000000
  0
LINE
  8
0
  6
CONTINUOUS
 62
256
 10
310.572108000000010
 20
-39.080955000000003
 11
310.572108000000010
 21
-35.317691000000003
  0
LINE
  8
0
  6
CONTINUOUS
 62
256
 10
310.572108000000010
 20
-115.317691000000000
 11
310.572108000000010
 21
-39.080955000000003
  0
LINE
  8
0
  6
CONTINUOUS
 62
256
 10
378.572108000000010
 20
-41.999989999999997
 11
378.572108000000010
 21
-114.305297999999990
  0
LINE
  8
0
  6
DASHED
 62
256
 10
382.172107999999980
 20
-47.317691000000003
 11
382.572108000000010
 21
-47.717691000000002
  0
LINE
  8
0
  6
CONTINUOUS
 62
256
 10
382.572108000000010
 20
-102.917691000000000
 11
382.172107999999980
 21
-103.317691000000000
  0
LINE
  8
0
  6
CONTINUOUS
 62
256
 10
382.572108000000010
 20
-102.917691000000000
 11
382.572108000000010
 21
-47.717691000000002
  0
LINE
  8
0
  6
CONTINUOUS
 62
256
 10
314.072108000000010
 20
-74.817690999999996
 11
378.572108000000010
 21
-74.817690999999996
  0
LINE
  8
0
  6
CONTINUOUS
 62
256
 10
314.072108000000010
 20
-75.817690999999996
 11
378.572108000000010
 21
-75.817690999999996
  0
ARC
  8
0
  6
CONTINUOUS
 62
256
 10
314.072108000000010
 20
-75.317690999999996
 40
0.500000000000000
 50
90.000000000000000
 51
270.000000000000000
  0
LINE
  8
0
  6
CONTINUOUS
 62
256
 10
307.072108000000010
 20
-75.817690999999996
 11
299.572108000000010
 21
-75.817690999999996
  0
ARC
  8
0
  6
CONTINUOUS
 62
256
 10
307.072108000000010
 20
-75.317690999999996
 40
0.500000000000000
 50
270.000000000000000
 51
90.000000000000000
  0
LINE
  8
0
  6
CONTINUOUS
 62
256
 10
307.072108000000010
 20
-74.817690999999996
 11
299.572108000000010
 21
-74.817690999999996
  0
LINE
  8
0
  6
CONTINUOUS
 62
256
 10
291.572108000000010
 20
-61.317691000000003
 11
291.572108000000010
 21
-89.317690999999996
  0
LINE
  8
0
  6
CONTINUOUS
 62
256
 10
292.572108000000010
 20
-90.317690999999996
 11
295.572108000000010
 21
-90.317690999999996
  0
LINE
  8
0
  6
CONTINUOUS
 62
256
 10
292.572108000000010
 20
-60.317691000000003
 11
295.572108000000010
 21
-60.317691000000003
  0
LINE
  8
0
  6
CONTINUOUS
 62
256
 10
386.572108000000010
 20
-89.317690999999996
 11
386.572108000000010
 21
-61.317691000000003
  0
ARC
  8
0
  6
CONTINUOUS
 62
256
 10
385.572108000000010
 20
-61.317691000000003
 40
1.000000000000000
 50
0.000000000000000
 51
90.000000000000000
  0
ARC
  8
0
  6
CONTINUOUS
 62
256
 10
385.572108000000010
 20
-89.317690999999996
 40
1.000000000000000
 50
270.000000000000000
 51
0.000000000000000
  0
ARC
  8
0
  6
CONTINUOUS
 62
256
 10
292.572108000000010
 20
-89.317690999999996
 40
1.000000000000000
 50
180.000000000000000
 51
270.000000000000000
  0
ARC
  8
0
  6
CONTINUOUS
 62
256
 10
292.572108000000010
 20
-61.317691000000003
 40
1.000000000000000
 50
90.000000000000000
 51
180.000000000000000
  0
LINE
  8
0
  6
CONTINUOUS
 62
256
 10
382.572108000000010
 20
-90.317690999999996
 11
385.572108000000010
 21
-90.317690999999996
  0
LINE
  8
0
  6
CONTINUOUS
 62
256
 10
382.572108000000010
 20
-60.317691000000003
 11
385.572108000000010
 21
-60.317691000000003
  0
LINE
  8
0
  6
CONTINUOUS
 62
256
 10
299.572108000000010
 20
-114.625761999999990
 11
300.071955000000000
 21
-115.134411000000000
  0
LINE
  8
0
  6
CONTINUOUS
 62
256
 10
300.071955000000000
 20
-35.500971999999997
 11
299.572108000000010
 21
-36.009621000000003
  0
LINE
  8
0
  6
CONTINUOUS
 62
256
 10
295.572108000000010
 20
-102.917691000000000
 11
295.972107999999990
 21
-103.317691000000000
  0
LINE
  8
0
  6
CONTINUOUS
 62
256
 10
295.972107999999990
 20
-103.317691000000000
 11
299.572108000000010
 21
-103.317691000000000
  0
LINE
  8
0
  6
CONTINUOUS
 62
256
 10
295.572108000000010
 20
-47.717691000000002
 11
295.972107999999990
 21
-47.317691000000003
  0
LINE
  8
0
  6
CONTINUOUS
 62
256
 10
295.972107999999990
 20
-47.317691000000003
 11
299.572108000000010
 21
-47.317691000000003
  0
LINE
  8
0
  6
CONTINUOUS
 62
256
 10
310.572108000000010
 20
-35.308964000000003
 11
310.572108000000010
 21
-38.817691000000003
  0
LINE
  8
0
  6
CONTINUOUS
 62
256
 10
310.572108000000010
 20
-35.308964000000003
 11
310.572108000000010
 21
-115.326419000000000
  0
LINE
  8
0
  6
CONTINUOUS
 62
256
 10
299.572108000000010
 20
-36.009621000000003
 11
299.572108000000010
 21
-114.625761999999990
  0
LINE
  8
0
  6
CONTINUOUS
 62
256
 10
295.572108000000010
 20
-47.717691000000002
 11
295.572108000000010
 21
-102.917691000000000
  0
LINE
  8
0
  6
DASHED
 62
256
 10
369.572108000000010
 20
-103.317691000000000
 11
351.572108000000010
 21
-103.317691000000000
  0
LINE
  8
0
  6
DASHED
 62
256
 10
369.572108000000010
 20
-111.317691000000000
 11
351.572108000000010
 21
-111.317691000000000
  0
LINE
  8
0
  6
DASHED
 62
256
 10
369.572108000000010
 20
-103.967691000000000
 11
308.572108000000010
 21
-103.967691000000000
  0
LINE
  8
0
  6
DASHED
 62
256
 10
369.572108000000010
 20
-110.667691000000000
 11
308.572108000000010
 21
-110.667691000000000
  0
LINE
  8
0
  6
DASHED
 62
256
 10
351.572108000000010
 20
-103.317691000000000
 11
351.572108000000010
 21
-111.317691000000000
  0
LINE
  8
0
  6
DASHED
 62
256
 10
378.572108000000010
 20
-112.817691000000000
 11
369.572108000000010
 21
-112.817691000000000
  0
LINE
  8
0
  6
DASHED
 62
256
 10
378.572108000000010
 20
-101.817691000000000
 11
369.572108000000010
 21
-101.817691000000000
  0
LINE
  8
0
  6
DASHED
 62
256
 10
326.572108000000010
 20
-111.317691000000000
 11
308.572108000000010
 21
-111.317691000000000
  0
LINE
  8
0
  6
DASHED
 62
256
 10
326.572108000000010
 20
-103.317691000000000
 11
308.572108000000010
 21
-103.317691000000000
  0
LINE
  8
0
  6
DASHED
 62
256
 10
308.572108000000010
 20
-101.817691000000000
 11
308.572108000000010
 21
-112.817691000000000
  0
LINE
  8
0
  6
DASHED
 62
256
 10
308.572108000000010
 20
-112.817691000000000
 11
299.572108000000010
 21
-112.817691000000000
  0
LINE
  8
0
  6
DASHED
 62
256
 10
308.572108000000010
 20
-101.817691000000000
 11
299.572108000000010
 21
-101.817691000000000
  0
LINE
  8
0
  6
DASHDOT
 62
256
 10
282.747323999999990
 20
-91.317757999999998
 11
396.985609000000010
 21
-91.317757999999998
  0
LINE
  8
0
  6
DASHDOT
 62
256
 10
339.072108000000010
 20
-29.535329999999998
 11
339.072108000000010
 21
-187.621936000000010
  0
INSERT
  8
0
  2
ZU_SYM_1
 10
-350.690317999999990
 20
-130.915738000000000
 41
-1.000000000000000
 50
90.000000000000000
  0
INSERT
  8
0
  2
ZU_SYM_2
 10
-350.690317999999990
 20
-51.719779000000003
 50
90.000000000000000
  0
INSERT
  8
0
  2
ZU_SYM_3
 10
-271.494358999999970
 20
-51.719779000000003
 41
-1.000000000000000
 50
270.000000000000000
  0
INSERT
  8
0
  2
ZU_SYM_4
 10
-271.494358999999970
 20
-130.915738000000000
 50
270.000000000000000
  0
INSERT
  8
0
  2
ZU_SYM_5
 10
-185.078176000000010
 20
70.439267000000001
 41
-1.000000000000000
 50
180.000000000000000
  0
INSERT
  8
0
  2
ZU_SYM_6
 10
-185.078176000000010
 20
149.635226999999990
  0
INSERT
  8
0
  2
ZU_SYM_7
 10
-185.078765000000000
 20
-51.719779000000003
 50
360.000000000000000
  0
INSERT
  8
0
  2
ZU_SYM_8
 10
-37.578664000000003
 20
-39.817385000000002
  0
INSERT
  8
0
  2
ZU_SYM_9
 10
-37.578664000000003
 20
-110.817998000000000
  0
INSERT
  8
0
  2
ZU_SYM_10
 10
42.421816999999997
 20
-110.817998000000000
  0
INSERT
  8
0
  2
ZU_SYM_11
 10
42.421816999999997
 20
-39.817385000000002
  0
INSERT
  8
0
  2
ZU_SYM_12
 10
-185.078765000000000
 20
-130.915738000000000
 41
-1.000000000000000
 50
180.000000000000000
  0
TEXT
  8
0
  6
CONTINUOUS
 62
256
 10
411.994110107421870
 20
-221.482040405273440
 40
3.299999952316284
  1
1/1
 50
0.000002504478167
 41
0.850909097352304
  7
STANDARD1
  0
TEXT
  8
0
  6
CONTINUOUS
 62
256
 10
409.576110839843750
 20
-221.482040405273440
 40
3.299999952316284
  1
 
 50
0.000002504478167
 41
1.733333298293026
  7
STANDARD1
  0
TEXT
  8
0
  6
CONTINUOUS
 62
256
 10
396.525482177734370
 20
-221.482040405273440
 40
3.299999952316284
  1
SCALE
 50
0.000002504478167
 41
0.821052645401140
  7
STANDARD1
  0
TEXT
  8
0
  6
CONTINUOUS
 62
256
 10
393.274108886718750
 20
-221.482040405273440
 40
3.299999952316284
  1
 
 50
0.000002504478167
 41
1.733333298293026
  7
STANDARD1
  0
TEXT
  8
0
  6
CONTINUOUS
 62
256
 10
410.711303710937500
 20
-216.182037353515620
 40
3.299999952316284
  1
1/60
 50
0.000002504478167
 41
0.832000075658163
  7
STANDARD1
  0
TEXT
  8
0
  6
CONTINUOUS
 62
256
 10
406.920257568359370
 20
-216.182037353515620
 40
3.299999952316284
  1
ü`
 50
0.000002504478167
 41
1.176000019651471
  7
STANDARD1
  0
TEXT
  8
0
  6
CONTINUOUS
 62
256
 10
393.274108886718750
 20
-216.182037353515620
 40
3.299999952316284
  1
1/7.5
 50
0.000002504478167
 41
0.821052645401140
  7
STANDARD1
  0
TEXT
  8
0
  6
CONTINUOUS
 62
256
 10
393.274108886718750
 20
-210.882034301757810
 40
3.299999952316284
  1
GM-SSYF-RH
 50
0.000002504478167
 41
0.799999980493025
  7
STANDARD1
  0
TEXT
  8
0
  6
CONTINUOUS
 62
256
 10
399.099487304687500
 20
-205.582046508789060
 40
3.299999952316284
  1
0.1kW
 50
0.000002504478167
 41
0.821052645401140
  7
STANDARD1
  0
TEXT
  8
0
  6
CONTINUOUS
 62
256
 10
393.274108886718750
 20
-205.582046508789060
 40
3.299999952316284
  1
  
 50
0.000002504478167
 41
1.485714400175845
  7
STANDARD1
  0
TEXT
  8
0
  6
CONTINUOUS
 62
256
 10
399.099487304687500
 20
-200.282043457031250
 40
3.299999952316284
  1
SSY01
 50
0.000002504478167
 41
0.821052645401140
  7
STANDARD1
  0
TEXT
  8
0
  6
CONTINUOUS
 62
256
 10
393.274108886718750
 20
-200.282043457031250
 40
3.299999952316284
  1
  
 50
0.000002504478167
 41
1.485714400175845
  7
STANDARD1
  0
LINE
  8
0
  6
DASHED
 62
256
 10
-167.578767000000000
 20
-148.817758000000000
 11
-167.578767000000000
 21
-163.317758000000000
  0
LINE
  8
0
  6
DASHED
 62
256
 10
-153.578767000000000
 20
-148.817758000000000
 11
-153.578767000000000
 21
-163.317758000000000
  0
ARC
  8
0
  6
DASHED
 62
256
 10
-160.578767000000000
 20
-163.317758000000000
 40
7.000000000000000
 50
180.000000000000000
 51
0.000000000000000
  0
LINE
  8
0
  6
DASHED
 62
256
 10
-117.578767000000000
 20
-148.817758000000000
 11
-117.578767000000000
 21
-163.317758000000000
  0
LINE
  8
0
  6
DASHED
 62
256
 10
-103.578767000000000
 20
-148.817758000000000
 11
-103.578767000000000
 21
-163.317758000000000
  0
ARC
  8
0
  6
DASHED
 62
256
 10
-110.578767000000000
 20
-163.317758000000000
 40
7.000000000000000
 50
180.000000000000000
 51
0.000000000000000
  0
CIRCLE
  8
0
  6
DASHED
 62
256
 10
-110.578767000000000
 20
-163.317758000000000
 40
6.000000000000000
  0
LINE
  8
0
  6
DASHDOT
 62
256
 10
-160.578767000000000
 20
-146.033907000000000
 11
-160.578767000000000
 21
-174.013257000000010
  0
LINE
  8
0
  6
DASHDOT
 62
256
 10
-169.887101000000000
 20
-163.317758000000000
 11
-150.698061000000000
 21
-163.317758000000000
  0
LINE
  8
0
  6
DASHDOT
 62
256
 10
-110.578767000000000
 20
-146.033907000000000
 11
-110.578767000000000
 21
-174.013257000000010
  0
LINE
  8
0
  6
DASHDOT
 62
256
 10
-120.989065999999990
 20
-163.317758000000000
 11
-100.614884000000000
 21
-163.317758000000000
  0
LINE
  8
0
  6
CONTINUOUS
 62
256
 10
-106.078767000000000
 20
-178.817758000000000
 11
-106.078767000000000
 21
-178.317758000000000
  0
LINE
  8
0
  6
CONTINUOUS
 62
256
 10
-114.078767000000000
 20
-178.817758000000000
 11
-106.078767000000000
 21
-178.817758000000000
  0
LINE
  8
0
  6
CONTINUOUS
 62
256
 10
-114.078767000000000
 20
-178.817758000000000
 11
-114.078767000000000
 21
-178.317758000000000
  0
LINE
  8
0
  6
CONTINUOUS
 62
256
 10
336.572108000000010
 20
-178.817758000000000
 11
341.572108000000010
 21
-178.817758000000000
  0
LINE
  8
0
  6
CONTINUOUS
 62
256
 10
336.572108000000010
 20
-178.307342000000010
 11
336.572108000000010
 21
-178.817758000000000
  0
LINE
  8
0
  6
CONTINUOUS
 62
256
 10
341.572108000000010
 20
-178.307342000000010
 11
341.572108000000010
 21
-178.817758000000000
  0
ARC
  8
0
  6
CONTINUOUS
 62
256
 10
339.072108000000010
 20
121.682242000000000
 40
300.000000000000000
 50
265.138595000000010
 51
274.861404999999990
  0
LINE
  8
0
  6
CONTINUOUS
 62
256
 10
369.072108000000010
 20
-148.817758000000000
 11
369.072108000000010
 21
-172.256528000000000
  0
LINE
  8
0
  6
CONTINUOUS
 62
256
 10
309.072108000000010
 20
-148.817758000000000
 11
309.072108000000010
 21
-172.256528000000000
  0
ARC
  8
0
  6
CONTINUOUS
 62
256
 10
364.072108000000010
 20
-172.256528000000000
 40
4.999999999999989
 50
274.861405000000100
 51
0.000000000000000
  0
ARC
  8
0
  6
CONTINUOUS
 62
256
 10
314.072108000000010
 20
-172.256528000000000
 40
5.000000000000000
 50
180.000000000000000
 51
265.138594999999900
  0
ENDSEC
  0
EOF
