  0
SECTION
  2
HEADER
  9
$TEXTSIZE
 40
2.5
  9
$ACADVER
  1
AC1009
  9
$DIMASZ
 40
3.863703297614046
  9
$DIMEXE
 40
2.000000000000000
  9
$DIMEXO
 40
1.000000000000000
  9
$DIMLFAC
 40
1.000000000000000
  9
$DIMSCALE
 40
1.000000000000000
  9
$DIMTAD
 70
1
  9
$DIMTFAC
 40
0.625000000000000
  9
$DIMTXT
 40
3.200000047683716
  9
$LUPREC
 70
3
  9
$REGENMODE
 70
1
  9
$TEXTSTYLE
  7
STANDARD1
  0
ENDSEC
  0
SECTION
  2
TABLES
  0
TABLE
  2
LTYPE
 70
4
  0
LTYPE
  2
CONTINUOUS
 70
64
  3
Solid line
 72
65
 73
0
 40
0.0
  0
LTYPE
  2
DASHED
 70
64
  3
-- -- -- -- -- -- -- -- -- -- -- -- -- -- --
 72
65
 73
2
 40
0.75
 49
0.5
 49
-0.25
  0
LTYPE
  2
DASHDOT
 70
64
  3
__ . __ . __ . __ . __ . __ . __ . __ . __ . __
 72
65
 73
4
 40
1.0
 49
0.5
 49
-0.25
 49
0.0
 49
-0.25
  0
LTYPE
  2
DIVIDE
 70
64
  3
__ . . __ . . __ . . __ . . __ . . __ . . __
 72
65
 73
6
 40
1.25
 49
0.5
 49
-0.25
 49
0.0
 49
-0.25
 49
0.0
 49
-0.25
  0
ENDTAB
  0
TABLE
  2
LAYER
 70
2
  0
LAYER
  2
0
 70
64
 62
53
  6
CONTINUOUS
  0
LAYER
  2
1
 70
64
 62
102
  6
CONTINUOUS
  0
ENDTAB
  0
TABLE
  2
STYLE
 70
4
  0
STYLE
  2
STANDARD1
 70
64
 40
0.0
 41
1.0
 50
0.0
 71
0
 42
3.200000047683716
  3
MONOTXT
  4
BIGFONT
  0
STYLE
  2
STANDARD2
 70
68
 40
0.0
 41
1.0
 50
0.0
 71
0
 42
3.200000047683716
  3
MONOTXT
  4
BIGFONT
  0
STYLE
  2
STANDARD3
 70
64
 40
0.0
 41
1.0
 50
0.0
 71
0
 42
3.200000047683716
  3
MONOTXT
  4

  0
STYLE
  2
STANDARD4
 70
68
 40
0.0
 41
1.0
 50
0.0
 71
0
 42
3.200000047683716
  3
MONOTXT
  4

  0
ENDTAB
  0
TABLE
  2
VIEW
 70
0
  0
ENDTAB
  0
ENDSEC
  0
SECTION
  2
BLOCKS
  0
BLOCK
  8
0
  2
ZU_SYM_1
 70
64
 10
0.000000000000000
 20
0.000000000000000
  0
LINE
  8
0
  6
CONTINUOUS
 62
256
 10
1.999999000000000
 20
-1.154699000000000
 11
-0.000002000000000
 21
-2.309398000000000
  0
LINE
  8
0
  6
CONTINUOUS
 62
256
 10
-1.999999000000000
 20
1.154700000000000
 11
0.000002000000000
 21
2.309399000000000
  0
LINE
  8
0
  6
CONTINUOUS
 62
256
 10
-0.000002000000000
 20
-2.309397000000000
 11
-1.999997000000000
 21
-1.154696000000000
  0
LINE
  8
0
  6
CONTINUOUS
 62
256
 10
1.999998000000000
 20
1.154696000000000
 11
0.000002000000000
 21
2.309399000000000
  0
LINE
  8
0
  6
CONTINUOUS
 62
256
 10
1.999998000000000
 20
1.154695000000000
 11
1.999999000000000
 21
-1.154699000000000
  0
LINE
  8
0
  6
CONTINUOUS
 62
256
 10
-1.999998000000000
 20
-1.154696000000000
 11
-1.999999000000000
 21
1.154700000000000
  0
POINT
  8
0
  6
CONTINUOUS
 62
256
 10
0.000000000000000
 20
0.000000000000000
  0
CIRCLE
  8
0
  6
CONTINUOUS
 62
256
 10
0.000000000000000
 20
0.000000000000000
 40
4.249999000000000
  0
ENDBLK
  8
0
  0
BLOCK
  8
0
  2
ZU_SYM_2
 70
64
 10
0.000000000000000
 20
0.000000000000000
  0
LINE
  8
0
  6
CONTINUOUS
 62
256
 10
1.999999000000000
 20
-1.154699000000000
 11
-0.000002000000000
 21
-2.309398000000000
  0
LINE
  8
0
  6
CONTINUOUS
 62
256
 10
-1.999999000000000
 20
1.154700000000000
 11
0.000002000000000
 21
2.309399000000000
  0
LINE
  8
0
  6
CONTINUOUS
 62
256
 10
-0.000002000000000
 20
-2.309397000000000
 11
-1.999997000000000
 21
-1.154696000000000
  0
LINE
  8
0
  6
CONTINUOUS
 62
256
 10
1.999998000000000
 20
1.154696000000000
 11
0.000002000000000
 21
2.309399000000000
  0
LINE
  8
0
  6
CONTINUOUS
 62
256
 10
1.999998000000000
 20
1.154695000000000
 11
1.999999000000000
 21
-1.154699000000000
  0
LINE
  8
0
  6
CONTINUOUS
 62
256
 10
-1.999998000000000
 20
-1.154696000000000
 11
-1.999999000000000
 21
1.154700000000000
  0
POINT
  8
0
  6
CONTINUOUS
 62
256
 10
0.000000000000000
 20
0.000000000000000
  0
CIRCLE
  8
0
  6
CONTINUOUS
 62
256
 10
0.000000000000000
 20
0.000000000000000
 40
4.249999000000000
  0
ENDBLK
  8
0
  0
BLOCK
  8
0
  2
ZU_SYM_3
 70
64
 10
0.000000000000000
 20
0.000000000000000
  0
LINE
  8
0
  6
CONTINUOUS
 62
256
 10
1.999999000000000
 20
-1.154699000000000
 11
-0.000002000000000
 21
-2.309398000000000
  0
LINE
  8
0
  6
CONTINUOUS
 62
256
 10
-1.999999000000000
 20
1.154700000000000
 11
0.000002000000000
 21
2.309399000000000
  0
LINE
  8
0
  6
CONTINUOUS
 62
256
 10
-0.000002000000000
 20
-2.309397000000000
 11
-1.999997000000000
 21
-1.154696000000000
  0
LINE
  8
0
  6
CONTINUOUS
 62
256
 10
1.999998000000000
 20
1.154696000000000
 11
0.000002000000000
 21
2.309399000000000
  0
LINE
  8
0
  6
CONTINUOUS
 62
256
 10
1.999998000000000
 20
1.154695000000000
 11
1.999999000000000
 21
-1.154699000000000
  0
LINE
  8
0
  6
CONTINUOUS
 62
256
 10
-1.999998000000000
 20
-1.154696000000000
 11
-1.999999000000000
 21
1.154700000000000
  0
POINT
  8
0
  6
CONTINUOUS
 62
256
 10
0.000000000000000
 20
0.000000000000000
  0
CIRCLE
  8
0
  6
CONTINUOUS
 62
256
 10
0.000000000000000
 20
0.000000000000000
 40
4.249999000000000
  0
ENDBLK
  8
0
  0
BLOCK
  8
0
  2
ZU_SYM_4
 70
64
 10
0.000000000000000
 20
0.000000000000000
  0
LINE
  8
0
  6
CONTINUOUS
 62
256
 10
1.999999000000000
 20
-1.154699000000000
 11
-0.000002000000000
 21
-2.309398000000000
  0
LINE
  8
0
  6
CONTINUOUS
 62
256
 10
-1.999999000000000
 20
1.154700000000000
 11
0.000002000000000
 21
2.309399000000000
  0
LINE
  8
0
  6
CONTINUOUS
 62
256
 10
-0.000002000000000
 20
-2.309397000000000
 11
-1.999997000000000
 21
-1.154696000000000
  0
LINE
  8
0
  6
CONTINUOUS
 62
256
 10
1.999998000000000
 20
1.154696000000000
 11
0.000002000000000
 21
2.309399000000000
  0
LINE
  8
0
  6
CONTINUOUS
 62
256
 10
1.999998000000000
 20
1.154695000000000
 11
1.999999000000000
 21
-1.154699000000000
  0
LINE
  8
0
  6
CONTINUOUS
 62
256
 10
-1.999998000000000
 20
-1.154696000000000
 11
-1.999999000000000
 21
1.154700000000000
  0
POINT
  8
0
  6
CONTINUOUS
 62
256
 10
0.000000000000000
 20
0.000000000000000
  0
CIRCLE
  8
0
  6
CONTINUOUS
 62
256
 10
0.000000000000000
 20
0.000000000000000
 40
4.249999000000000
  0
ENDBLK
  8
0
  0
ENDSEC
  0
SECTION
  2
ENTITIES
  0
ARC
  8
0
  6
CONTINUOUS
 62
256
 10
303.738829000000010
 20
-173.392798000000000
 40
5.000000000000000
 50
180.000000000000000
 51
265.138594999999900
  0
ARC
  8
0
  6
CONTINUOUS
 62
256
 10
353.738829000000010
 20
-173.392798000000000
 40
4.999999999999989
 50
274.861405000000100
 51
0.000000000000000
  0
LINE
  8
0
  6
CONTINUOUS
 62
256
 10
298.738829000000010
 20
-149.954028999999990
 11
298.738829000000010
 21
-173.392798000000000
  0
LINE
  8
0
  6
CONTINUOUS
 62
256
 10
358.738829000000010
 20
-149.954028999999990
 11
358.738829000000010
 21
-173.392798000000000
  0
ARC
  8
0
  6
CONTINUOUS
 62
256
 10
328.738829000000010
 20
120.545970999999990
 40
300.000000000000000
 50
265.138595000000010
 51
274.861404999999990
  0
LINE
  8
0
  6
CONTINUOUS
 62
256
 10
331.238829000000010
 20
-179.443612000000000
 11
331.238829000000010
 21
-179.954028999999990
  0
LINE
  8
0
  6
CONTINUOUS
 62
256
 10
326.238829000000010
 20
-179.443612000000000
 11
326.238829000000010
 21
-179.954028999999990
  0
LINE
  8
0
  6
CONTINUOUS
 62
256
 10
326.238829000000010
 20
-179.954028999999990
 11
331.238829000000010
 21
-179.954028999999990
  0
ARC
  8
0
  6
CONTINUOUS
 62
256
 10
300.675072000000000
 20
-55.463962000000002
 40
20.600000000000005
 50
123.721560000000050
 51
135.000000000000000
  0
ARC
  8
0
  6
CONTINUOUS
 62
256
 10
356.802586000000020
 20
-55.463962000000002
 40
20.600000000000005
 50
60.887981999999951
 51
84.247716999999938
  0
ARC
  8
0
  6
CONTINUOUS
 62
256
 10
328.738829000000010
 20
-334.054029000000010
 40
300.600000000000020
 50
84.247716999999994
 51
90.000000000000000
  0
ARC
  8
0
  6
CONTINUOUS
 62
256
 10
356.802586000000020
 20
-55.463962000000002
 40
20.599999999999994
 50
45.000000000000014
 51
56.278439999999968
  0
LINE
  8
0
  6
CONTINUOUS
 62
256
 10
371.368985000000010
 20
-40.897562000000001
 11
378.827679999999990
 21
-48.356256999999999
  0
ARC
  8
0
  6
CONTINUOUS
 62
256
 10
374.160776000000000
 20
-53.023161999999999
 40
6.599999999999972
 50
5.743682000000001
 51
44.999999999999829
  0
ARC
  8
0
  6
CONTINUOUS
 62
256
 10
-17.861170999999999
 20
-92.454029000000006
 40
400.600000000000020
 50
0.000000000000000
 51
5.743682000000000
  0
ARC
  8
0
  6
CONTINUOUS
 62
256
 10
-17.861170999999999
 20
-92.454029000000006
 40
400.600000000000020
 50
354.256318000000020
 51
0.000000000000000
  0
ARC
  8
0
  6
CONTINUOUS
 62
256
 10
374.160776000000000
 20
-131.884896000000000
 40
6.600000000000017
 50
315.000000000000170
 51
354.256318000000020
  0
LINE
  8
0
  6
CONTINUOUS
 62
256
 10
371.368985000000010
 20
-144.010495999999990
 11
378.827679999999990
 21
-136.551801000000010
  0
ARC
  8
0
  6
CONTINUOUS
 62
256
 10
356.802586000000020
 20
-129.444096000000000
 40
20.599999999999991
 50
275.752282999999860
 51
315.000000000000000
  0
LINE
  8
0
  6
CONTINUOUS
 62
256
 10
360.238829000000010
 20
-149.755478000000010
 11
360.238829000000010
 21
-149.954028999999990
  0
LINE
  8
0
  6
CONTINUOUS
 62
256
 10
358.731328000000020
 20
-149.954028999999990
 11
360.238829000000010
 21
-149.954028999999990
  0
LINE
  8
0
  6
CONTINUOUS
 62
256
 10
286.108673000000010
 20
-144.010495999999990
 11
278.649976999999980
 21
-136.551801000000010
  0
ARC
  8
0
  6
CONTINUOUS
 62
256
 10
300.675072000000000
 20
-129.444096000000000
 40
20.599999999999991
 50
225.000000000000000
 51
264.247716999999910
  0
ARC
  8
0
  6
CONTINUOUS
 62
256
 10
675.338829000000030
 20
-92.454029000000006
 40
400.600000000000020
 50
180.000000000000000
 51
185.743681999999980
  0
ARC
  8
0
  6
CONTINUOUS
 62
256
 10
283.316882000000020
 20
-131.884896000000000
 40
6.599999999999971
 50
185.743681999999920
 51
224.999999999999830
  0
ARC
  8
0
  6
CONTINUOUS
 62
256
 10
675.338829000000030
 20
-92.454029000000006
 40
400.600000000000080
 50
174.256317999999990
 51
180.000000000000000
  0
ARC
  8
0
  6
CONTINUOUS
 62
256
 10
283.316882000000020
 20
-53.023161999999999
 40
6.600000000000017
 50
135.000000000000170
 51
174.256317999999940
  0
LINE
  8
0
  6
CONTINUOUS
 62
256
 10
286.108673000000010
 20
-40.897562000000001
 11
278.649976999999980
 21
-48.356256999999999
  0
ARC
  8
0
  6
CONTINUOUS
 62
256
 10
300.675072000000000
 20
-55.463962000000002
 40
20.600000000000001
 50
95.752283000000077
 51
113.624686000000030
  0
ARC
  8
0
  6
CONTINUOUS
 62
256
 10
328.738829000000010
 20
-334.054029000000010
 40
300.600000000000020
 50
90.000000000000000
 51
95.752283000000006
  0
TEXT
  8
0
  6
CONTINUOUS
 62
256
 10
410.146209716796870
 20
-191.186614990234370
 40
3.299999952316284
  1
  
 50
0.000002504478167
 41
1.702857141037180
  7
STANDARD1
  0
TEXT
  8
0
  6
CONTINUOUS
 62
256
 10
415.971588134765620
 20
-191.186614990234370
 40
3.299999952316284
  1
SSY02
 50
0.000002504478167
 41
0.863157975217372
  7
STANDARD1
  0
TEXT
  8
0
  6
CONTINUOUS
 62
256
 10
410.146209716796870
 20
-196.486618041992190
 40
3.299999952316284
  1
  
 50
0.000002504478167
 41
1.702857141037180
  7
STANDARD1
  0
TEXT
  8
0
  6
CONTINUOUS
 62
256
 10
415.971588134765620
 20
-196.486618041992190
 40
3.299999952316284
  1
0.2kW
 50
0.000002504478167
 41
0.863157975217372
  7
STANDARD1
  0
TEXT
  8
0
  6
CONTINUOUS
 62
256
 10
410.146209716796870
 20
-201.786605834960940
 40
3.299999952316284
  1
GM-SSYF-RH
 50
0.000002504478167
 41
0.820512807915722
  7
STANDARD1
  0
TEXT
  8
0
  6
CONTINUOUS
 62
256
 10
410.146209716796870
 20
-207.086608886718750
 40
3.299999952316284
  1
1/7.5
 50
0.000002504478167
 41
0.863157975217372
  7
STANDARD1
  0
TEXT
  8
0
  6
CONTINUOUS
 62
256
 10
423.792358398437500
 20
-207.086608886718750
 40
3.299999952316284
  1
ü`
 50
0.000002504478167
 41
1.415999991715556
  7
STANDARD1
  0
TEXT
  8
0
  6
CONTINUOUS
 62
256
 10
427.583404541015620
 20
-207.086608886718750
 40
3.299999952316284
  1
1/30
 50
0.000002504478167
 41
0.885333389388191
  7
STANDARD1
  0
TEXT
  8
0
  6
CONTINUOUS
 62
256
 10
410.146209716796870
 20
-212.386611938476560
 40
3.299999952316284
  1
 
 50
0.000002504478167
 41
2.306666620777106
  7
STANDARD1
  0
TEXT
  8
0
  6
CONTINUOUS
 62
256
 10
413.397583007812500
 20
-212.386611938476560
 40
3.299999952316284
  1
SCALE
 50
0.000002504478167
 41
0.863157975217372
  7
STANDARD1
  0
TEXT
  8
0
  6
CONTINUOUS
 62
256
 10
426.448211669921870
 20
-212.386611938476560
 40
3.299999952316284
  1
 
 50
0.000002504478167
 41
2.306666620777106
  7
STANDARD1
  0
TEXT
  8
0
  6
CONTINUOUS
 62
256
 10
428.866210937500000
 20
-212.386611938476560
 40
3.299999952316284
  1
1/1
 50
0.000002504478167
 41
0.927272693168360
  7
STANDARD1
  0
LINE
  8
0
  6
DASHDOT
 62
256
 10
328.738829000000010
 20
-21.171600000000002
 11
328.738829000000010
 21
-186.358409999999990
  0
LINE
  8
0
  6
DASHDOT
 62
256
 10
269.113627000000010
 20
-92.454029000000006
 11
386.652330000000010
 21
-92.454029000000006
  0
LINE
  8
0
  6
CONTINUOUS
 62
256
 10
359.738829000000010
 20
-149.954028999999990
 11
297.738829000000010
 21
-149.954028999999990
  0
LINE
  8
0
  6
CONTINUOUS
 62
256
 10
359.738829000000010
 20
-144.954028999999990
 11
359.738829000000010
 21
-149.954028999999990
  0
LINE
  8
0
  6
CONTINUOUS
 62
256
 10
297.738829000000010
 20
-144.954028999999990
 11
297.738829000000010
 21
-149.954028999999990
  0
LINE
  8
0
  6
CONTINUOUS
 62
256
 10
297.738829000000010
 20
-144.954028999999990
 11
308.256492999999980
 21
-144.954028999999990
  0
LINE
  8
0
  6
CONTINUOUS
 62
256
 10
349.221164999999980
 20
-144.954028999999990
 11
359.738829000000010
 21
-144.954028999999990
  0
LINE
  8
0
  6
CONTINUOUS
 62
256
 10
372.238829000000010
 20
-61.453961999999997
 11
375.238829000000010
 21
-61.453961999999997
  0
LINE
  8
0
  6
CONTINUOUS
 62
256
 10
372.238829000000010
 20
-91.453962000000004
 11
375.238829000000010
 21
-91.453962000000004
  0
ARC
  8
0
  6
CONTINUOUS
 62
256
 10
282.238829000000010
 20
-62.453961999999997
 40
1.000000000000000
 50
90.000000000000000
 51
180.000000000000000
  0
ARC
  8
0
  6
CONTINUOUS
 62
256
 10
282.238829000000010
 20
-90.453962000000004
 40
1.000000000000000
 50
180.000000000000000
 51
270.000000000000000
  0
ARC
  8
0
  6
CONTINUOUS
 62
256
 10
375.238829000000010
 20
-90.453962000000004
 40
1.000000000000000
 50
270.000000000000000
 51
0.000000000000000
  0
ARC
  8
0
  6
CONTINUOUS
 62
256
 10
375.238829000000010
 20
-62.453961999999997
 40
1.000000000000000
 50
0.000000000000000
 51
90.000000000000000
  0
LINE
  8
0
  6
CONTINUOUS
 62
256
 10
376.238829000000010
 20
-90.453962000000004
 11
376.238829000000010
 21
-62.453961999999997
  0
LINE
  8
0
  6
CONTINUOUS
 62
256
 10
282.238829000000010
 20
-61.453961999999997
 11
285.238829000000010
 21
-61.453961999999997
  0
LINE
  8
0
  6
CONTINUOUS
 62
256
 10
282.238829000000010
 20
-91.453962000000004
 11
285.238829000000010
 21
-91.453962000000004
  0
LINE
  8
0
  6
CONTINUOUS
 62
256
 10
281.238829000000010
 20
-62.453961999999997
 11
281.238829000000010
 21
-90.453962000000004
  0
LINE
  8
0
  6
CONTINUOUS
 62
256
 10
296.738829000000010
 20
-75.953962000000004
 11
289.238829000000010
 21
-75.953962000000004
  0
ARC
  8
0
  6
CONTINUOUS
 62
256
 10
296.738829000000010
 20
-76.453962000000004
 40
0.500000000000000
 50
270.000000000000000
 51
90.000000000000000
  0
LINE
  8
0
  6
CONTINUOUS
 62
256
 10
296.738829000000010
 20
-76.953962000000004
 11
289.238829000000010
 21
-76.953962000000004
  0
ARC
  8
0
  6
CONTINUOUS
 62
256
 10
303.738829000000010
 20
-76.453962000000004
 40
0.500000000000000
 50
90.000000000000000
 51
270.000000000000000
  0
LINE
  8
0
  6
CONTINUOUS
 62
256
 10
303.738829000000010
 20
-76.953962000000004
 11
368.238829000000010
 21
-76.953962000000004
  0
LINE
  8
0
  6
CONTINUOUS
 62
256
 10
303.738829000000010
 20
-75.953962000000004
 11
368.238829000000010
 21
-75.953962000000004
  0
LINE
  8
0
  6
CONTINUOUS
 62
256
 10
372.238829000000010
 20
-104.053962000000000
 11
372.238829000000010
 21
-48.853962000000003
  0
LINE
  8
0
  6
CONTINUOUS
 62
256
 10
372.238829000000010
 20
-104.053962000000000
 11
371.838828999999980
 21
-104.453962000000000
  0
LINE
  8
0
  6
DASHED
 62
256
 10
371.838828999999980
 20
-48.453961999999997
 11
372.238829000000010
 21
-48.853962000000003
  0
LINE
  8
0
  6
CONTINUOUS
 62
256
 10
368.238829000000010
 20
-43.136260999999998
 11
368.238829000000010
 21
-115.441568000000000
  0
LINE
  8
0
  6
CONTINUOUS
 62
256
 10
300.238829000000010
 20
-116.453962000000000
 11
300.238829000000010
 21
-40.217225999999997
  0
LINE
  8
0
  6
CONTINUOUS
 62
256
 10
300.238829000000010
 20
-40.217225999999997
 11
300.238829000000010
 21
-36.453961999999997
  0
LINE
  8
0
  6
CONTINUOUS
 62
256
 10
285.238829000000010
 20
-48.853962000000003
 11
285.238829000000010
 21
-104.053962000000000
  0
LINE
  8
0
  6
CONTINUOUS
 62
256
 10
289.238829000000010
 20
-37.145892000000003
 11
289.238829000000010
 21
-115.762033000000000
  0
LINE
  8
0
  6
CONTINUOUS
 62
256
 10
300.238829000000010
 20
-36.445234999999997
 11
300.238829000000010
 21
-116.462689999999990
  0
LINE
  8
0
  6
CONTINUOUS
 62
256
 10
300.238829000000010
 20
-36.445234999999997
 11
300.238829000000010
 21
-39.953961999999997
  0
LINE
  8
0
  6
CONTINUOUS
 62
256
 10
285.638828999999990
 20
-48.453961999999997
 11
289.238829000000010
 21
-48.453961999999997
  0
LINE
  8
0
  6
CONTINUOUS
 62
256
 10
285.238829000000010
 20
-48.853962000000003
 11
285.638828999999990
 21
-48.453961999999997
  0
LINE
  8
0
  6
CONTINUOUS
 62
256
 10
285.638828999999990
 20
-104.453962000000000
 11
289.238829000000010
 21
-104.453962000000000
  0
LINE
  8
0
  6
CONTINUOUS
 62
256
 10
285.238829000000010
 20
-104.053962000000000
 11
285.638828999999990
 21
-104.453962000000000
  0
LINE
  8
0
  6
CONTINUOUS
 62
256
 10
289.738677000000000
 20
-36.637242999999998
 11
289.238829000000010
 21
-37.145892000000003
  0
LINE
  8
0
  6
CONTINUOUS
 62
256
 10
289.238829000000010
 20
-115.762033000000000
 11
289.738677000000000
 21
-116.270681000000000
  0
LINE
  8
0
  6
CONTINUOUS
 62
256
 10
300.238829000000010
 20
-116.453962000000000
 11
289.738677000000000
 21
-116.270681000000000
  0
LINE
  8
0
  6
CONTINUOUS
 62
256
 10
300.238829000000010
 20
-36.453961999999997
 11
289.738677000000000
 21
-36.637242999999998
  0
LINE
  8
0
  6
CONTINUOUS
 62
256
 10
372.422882000000020
 20
-57.255257999999998
 11
375.892505000000030
 21
-53.785634999999999
  0
LINE
  8
0
  6
CONTINUOUS
 62
256
 10
371.882905999999990
 20
-46.433588000000000
 11
368.238829000000010
 21
-46.369979999999998
  0
LINE
  8
0
  6
CONTINUOUS
 62
256
 10
285.054776000000000
 20
-127.652801000000000
 11
281.585152999999990
 21
-131.122424000000000
  0
LINE
  8
0
  6
CONTINUOUS
 62
256
 10
285.594752000000030
 20
-138.474470999999990
 11
299.469539000000000
 21
-138.716656000000000
  0
LINE
  8
0
  6
CONTINUOUS
 62
256
 10
371.882905999999990
 20
-138.474470999999990
 11
358.008119000000020
 21
-138.716656000000000
  0
LINE
  8
0
  6
CONTINUOUS
 62
256
 10
372.422882000000020
 20
-127.652801000000000
 11
375.892505000000030
 21
-131.122424000000000
  0
LINE
  8
0
  6
CONTINUOUS
 62
256
 10
285.238829000000010
 20
-57.439310999999996
 11
281.585152999999990
 21
-53.785634999999999
  0
LINE
  8
0
  6
CONTINUOUS
 62
256
 10
285.594752000000030
 20
-46.433588000000000
 11
289.238829000000010
 21
-46.369979999999998
  0
LINE
  8
0
  6
CONTINUOUS
 62
256
 10
382.238829000000010
 20
-112.072149999999990
 11
382.238829000000010
 21
-73.072149999999993
  0
LINE
  8
0
  6
CONTINUOUS
 62
256
 10
348.238829000000010
 20
-145.954028999999990
 11
309.238829000000010
 21
-145.954028999999990
  0
LINE
  8
0
  6
CONTINUOUS
 62
256
 10
275.238829000000010
 20
-111.954029000000010
 11
275.238829000000010
 21
-72.954029000000006
  0
LINE
  8
0
  6
CONTINUOUS
 62
256
 10
368.238829000000010
 20
-43.136260999999998
 11
368.238829000000010
 21
-37.466355999999998
  0
LINE
  8
0
  6
CONTINUOUS
 62
256
 10
300.238829000000010
 20
-116.453962000000000
 11
358.238829000000010
 21
-115.441568000000000
  0
LINE
  8
0
  6
CONTINUOUS
 62
256
 10
368.238829000000010
 20
-104.453962000000000
 11
371.838828999999980
 21
-104.453962000000000
  0
LINE
  8
0
  6
CONTINUOUS
 62
256
 10
368.238829000000010
 20
-48.453961999999997
 11
371.838828999999980
 21
-48.453961999999997
  0
LINE
  8
0
  6
DASHDOT
 62
256
 10
281.814611000000010
 20
-76.453962000000004
 11
387.765489000000000
 21
-76.453962000000004
  0
LINE
  8
0
  6
CONTINUOUS
 62
256
 10
300.238829000000010
 20
-36.453961999999997
 11
358.238829000000010
 21
-37.466355999999998
  0
ARC
  8
0
  6
CONTINUOUS
 62
256
 10
301.238829000000010
 20
-119.954029000000010
 40
24.999999999999979
 50
185.730175000000000
 51
264.269825000000080
  0
ARC
  8
0
  6
CONTINUOUS
 62
256
 10
356.238829000000010
 20
-119.954029000000010
 40
24.999999999999996
 50
275.730175000000030
 51
354.269824999999970
  0
ARC
  8
0
  6
CONTINUOUS
 62
256
 10
356.238829000000010
 20
-64.954029000000006
 40
24.999999999999979
 50
5.730174999999997
 51
61.314597999999989
  0
ARC
  8
0
  6
CONTINUOUS
 62
256
 10
301.238829000000010
 20
-64.954029000000006
 40
25.000000000000000
 50
118.685402000000010
 51
174.269825000000000
  0
ARC
  8
0
  6
CONTINUOUS
 62
256
 10
371.830548000000020
 20
-135.474928000000010
 40
3.000000000000011
 50
270.999999999999600
 51
315.130421000000180
  0
ARC
  8
0
  6
CONTINUOUS
 62
256
 10
373.771184000000010
 20
-51.664315000000002
 40
3.000000000000014
 50
315.000000000000230
 51
37.162520000000193
  0
ARC
  8
0
  6
DASHED
 62
256
 10
371.830548000000020
 20
-49.433131000000003
 40
3.000000000000022
 50
44.869578999999668
 51
89.000000000000398
  0
ARC
  8
0
  6
CONTINUOUS
 62
256
 10
285.647110000000000
 20
-135.474928000000010
 40
3.000000000000027
 50
224.869578999999760
 51
269.000000000000340
  0
ARC
  8
0
  6
CONTINUOUS
 62
256
 10
282.933455999999980
 20
-125.531480000000000
 40
3.000000000000014
 50
315.000000000000230
 51
35.834193999999975
  0
ARC
  8
0
  6
CONTINUOUS
 62
256
 10
283.706474000000010
 20
-133.243743999999990
 40
3.000000000000004
 50
135.000000000000370
 51
217.162520000000170
  0
ARC
  8
0
  6
CONTINUOUS
 62
256
 10
299.295014999999980
 20
-148.715133000000010
 40
10.000000000000000
 50
62.375035999999923
 51
88.999999999999858
  0
ARC
  8
0
  6
CONTINUOUS
 62
256
 10
358.182642999999980
 20
-148.715133000000010
 40
9.999999999999989
 50
91.000000000000156
 51
117.624964000000080
  0
ARC
  8
0
  6
CONTINUOUS
 62
256
 10
374.544201999999980
 20
-125.531480000000000
 40
3.000000000000000
 50
144.165806000000030
 51
224.999999999999800
  0
ARC
  8
0
  6
CONTINUOUS
 62
256
 10
373.771184000000010
 20
-133.243743999999990
 40
2.999999999999989
 50
322.837479999999800
 51
44.999999999999616
  0
ARC
  8
0
  6
CONTINUOUS
 62
256
 10
374.544201999999980
 20
-125.531480000000000
 40
3.000000000000000
 50
144.165806000000030
 51
224.999999999999800
  0
ARC
  8
0
  6
CONTINUOUS
 62
256
 10
328.738829000000010
 20
-92.454029000000006
 40
53.500000000000014
 50
152.604367999999990
 51
27.395631999999999
  0
ARC
  8
0
  6
CONTINUOUS
 62
256
 10
283.706474000000010
 20
-51.664315000000002
 40
2.999999999999989
 50
142.837479999999830
 51
224.999999999999800
  0
ARC
  8
0
  6
CONTINUOUS
 62
256
 10
285.647110000000000
 20
-49.433131000000003
 40
2.999999999999996
 50
90.999999999999602
 51
135.130421000000440
  0
ARC
  8
0
  6
CONTINUOUS
 62
256
 10
381.738517000000000
 20
-72.072149999999993
 40
0.500000000000021
 50
180.071530000000050
 51
270.017883000003170
  0
ARC
  8
0
  6
CONTINUOUS
 62
256
 10
381.738517000000000
 20
-113.072149999999990
 40
0.499999999999998
 50
89.982116999996876
 51
179.928469999999950
  0
ARC
  8
0
  6
CONTINUOUS
 62
256
 10
381.738829000000010
 20
-112.072149999999990
 40
0.499999999999998
 50
269.982116999996830
 51
0.000000000000000
  0
ARC
  8
0
  6
CONTINUOUS
 62
256
 10
381.738829000000010
 20
-73.072149999999993
 40
0.500000000000000
 50
0.000000000000000
 51
90.017883000003138
  0
ARC
  8
0
  6
CONTINUOUS
 62
256
 10
-18.761171000000001
 20
-72.454029000000006
 40
399.999999999999940
 50
0.053000000000000
 51
1.431984000000000
  0
ARC
  8
0
  6
CONTINUOUS
 62
256
 10
-18.761171000000001
 20
-112.454029000000010
 40
400.000000000000000
 50
358.568016000000060
 51
359.928470000000000
  0
ARC
  8
0
  6
CONTINUOUS
 62
256
 10
348.738829000000010
 20
255.045971000000010
 40
400.000000000000000
 50
270.071530000000000
 51
271.431984000000000
  0
ARC
  8
0
  6
CONTINUOUS
 62
256
 10
349.238829000000010
 20
-145.453717000000010
 40
0.499999999999993
 50
90.071529999998418
 51
180.017882999999870
  0
ARC
  8
0
  6
CONTINUOUS
 62
256
 10
348.238829000000010
 20
-145.454028999999990
 40
0.500000000000000
 50
270.000000000000000
 51
0.017882999999877
  0
ARC
  8
0
  6
CONTINUOUS
 62
256
 10
309.238829000000010
 20
-145.454028999999990
 40
0.500000000000013
 50
179.982117000000130
 51
270.000000000000000
  0
ARC
  8
0
  6
CONTINUOUS
 62
256
 10
308.238829000000010
 20
-145.453717000000010
 40
0.500000000000013
 50
359.982117000000070
 51
89.928470000001582
  0
ARC
  8
0
  6
CONTINUOUS
 62
256
 10
308.738829000000010
 20
255.045971000000010
 40
400.000000000000000
 50
268.568016000000060
 51
269.928470000000000
  0
ARC
  8
0
  6
CONTINUOUS
 62
256
 10
676.238829000000010
 20
-72.454029000000006
 40
400.000000000000000
 50
178.568016000000000
 51
179.928470000000000
  0
ARC
  8
0
  6
CONTINUOUS
 62
256
 10
275.739141000000020
 20
-71.954029000000006
 40
0.499999999999998
 50
269.982116999996830
 51
359.928469999999950
  0
ARC
  8
0
  6
CONTINUOUS
 62
256
 10
275.738829000000010
 20
-72.954029000000006
 40
0.499999999999998
 50
89.982116999996876
 51
180.000000000000000
  0
ARC
  8
0
  6
CONTINUOUS
 62
256
 10
275.738829000000010
 20
-111.954029000000010
 40
0.500000000000000
 50
180.000000000000000
 51
270.017883000003170
  0
ARC
  8
0
  6
CONTINUOUS
 62
256
 10
275.739141000000020
 20
-112.954029000000010
 40
0.500000000000021
 50
0.071530000000043
 51
90.017883000003138
  0
ARC
  8
0
  6
CONTINUOUS
 62
256
 10
676.238829000000010
 20
-112.454029000000010
 40
400.000000000000000
 50
180.071529999999970
 51
181.431983999999970
  0
POINT
  8
0
  6
CONTINUOUS
 62
256
 10
284.423656999999990
 20
-46.454028999999998
  0
LINE
  8
0
  6
CONTINUOUS
 62
256
 10
358.238829000000010
 20
-37.466355999999998
 11
368.238829000000010
 21
-37.466355999999998
  0
LINE
  8
0
  6
CONTINUOUS
 62
256
 10
358.238829000000010
 20
-115.441568000000000
 11
368.238829000000010
 21
-115.441568000000000
  0
LINE
  8
0
  6
DASHED
 62
256
 10
316.238829000000010
 20
-48.453961999999997
 11
298.238829000000010
 21
-48.453961999999997
  0
LINE
  8
0
  6
DASHED
 62
256
 10
359.238829000000010
 20
-47.803961999999999
 11
298.238829000000010
 21
-47.803961999999999
  0
LINE
  8
0
  6
DASHED
 62
256
 10
298.238829000000010
 20
-49.953961999999997
 11
298.238829000000010
 21
-38.953961999999997
  0
LINE
  8
0
  6
DASHED
 62
256
 10
316.238829000000010
 20
-48.453961999999997
 11
316.238829000000010
 21
-40.453961999999997
  0
LINE
  8
0
  6
DASHED
 62
256
 10
298.238829000000010
 20
-49.953961999999997
 11
289.238829000000010
 21
-49.953961999999997
  0
LINE
  8
0
  6
DASHED
 62
256
 10
359.238829000000010
 20
-41.103962000000003
 11
298.238829000000010
 21
-41.103962000000003
  0
LINE
  8
0
  6
DASHED
 62
256
 10
316.238829000000010
 20
-40.453961999999997
 11
298.238829000000010
 21
-40.453961999999997
  0
LINE
  8
0
  6
DASHED
 62
256
 10
298.238829000000010
 20
-38.953961999999997
 11
289.238829000000010
 21
-38.953961999999997
  0
LINE
  8
0
  6
DASHED
 62
256
 10
359.238829000000010
 20
-40.453961999999997
 11
341.238829000000010
 21
-40.453961999999997
  0
LINE
  8
0
  6
DASHED
 62
256
 10
341.238829000000010
 20
-48.453961999999997
 11
341.238829000000010
 21
-40.453961999999997
  0
LINE
  8
0
  6
DASHED
 62
256
 10
359.238829000000010
 20
-48.453961999999997
 11
341.238829000000010
 21
-48.453961999999997
  0
LINE
  8
0
  6
DASHED
 62
256
 10
368.238829000000010
 20
-38.953961999999997
 11
359.238829000000010
 21
-38.953961999999997
  0
LINE
  8
0
  6
DASHED
 62
256
 10
368.238829000000010
 20
-49.953961999999997
 11
359.238829000000010
 21
-49.953961999999997
  0
LINE
  8
0
  6
DASHED
 62
256
 10
359.238829000000010
 20
-105.103962000000000
 11
298.238829000000010
 21
-105.103962000000000
  0
LINE
  8
0
  6
DASHED
 62
256
 10
316.238829000000010
 20
-104.453962000000000
 11
298.238829000000010
 21
-104.453962000000000
  0
LINE
  8
0
  6
DASHED
 62
256
 10
298.238829000000010
 20
-102.953962000000000
 11
298.238829000000010
 21
-113.953962000000000
  0
LINE
  8
0
  6
DASHED
 62
256
 10
298.238829000000010
 20
-102.953962000000000
 11
289.238829000000010
 21
-102.953962000000000
  0
LINE
  8
0
  6
DASHED
 62
256
 10
359.238829000000010
 20
-111.803962000000000
 11
298.238829000000010
 21
-111.803962000000000
  0
LINE
  8
0
  6
DASHED
 62
256
 10
316.238829000000010
 20
-112.453962000000000
 11
298.238829000000010
 21
-112.453962000000000
  0
LINE
  8
0
  6
DASHED
 62
256
 10
298.238829000000010
 20
-113.953962000000000
 11
289.238829000000010
 21
-113.953962000000000
  0
LINE
  8
0
  6
DASHED
 62
256
 10
359.238829000000010
 20
-104.453962000000000
 11
341.238829000000010
 21
-104.453962000000000
  0
LINE
  8
0
  6
DASHED
 62
256
 10
341.238829000000010
 20
-104.453962000000000
 11
341.238829000000010
 21
-112.453962000000000
  0
LINE
  8
0
  6
DASHED
 62
256
 10
359.238829000000010
 20
-112.453962000000000
 11
341.238829000000010
 21
-112.453962000000000
  0
LINE
  8
0
  6
DASHED
 62
256
 10
368.238829000000010
 20
-102.953962000000000
 11
359.238829000000010
 21
-102.953962000000000
  0
LINE
  8
0
  6
DASHED
 62
256
 10
368.238829000000010
 20
-113.953962000000000
 11
359.238829000000010
 21
-113.953962000000000
  0
LINE
  8
0
  6
DASHED
 62
256
 10
359.238829000000010
 20
-38.953961999999997
 11
359.238829000000010
 21
-49.953961999999997
  0
LINE
  8
0
  6
DASHED
 62
256
 10
359.238829000000010
 20
-102.953962000000000
 11
359.238829000000010
 21
-113.953962000000000
  0
LINE
  8
0
  6
DASHED
 62
256
 10
316.238829000000010
 20
-104.453962000000000
 11
316.238829000000010
 21
-112.453962000000000
  0
LINE
  8
0
  6
DASHDOT
 62
256
 10
372.499713999999980
 20
-44.453961999999997
 11
284.984151000000000
 21
-44.453961999999997
  0
LINE
  8
0
  6
DASHDOT
 62
256
 10
372.499713999999980
 20
-108.453962000000000
 11
284.984151000000000
 21
-108.453962000000000
  0
LINE
  8
0
  6
CONTINUOUS
 62
256
 10
159.346255000000010
 20
-86.953962000000004
 11
158.196255000000010
 21
-86.953962000000004
  0
LINE
  8
0
  6
CONTINUOUS
 62
256
 10
222.346255000000010
 20
-86.953962000000004
 11
223.496254999999990
 21
-86.953962000000004
  0
LINE
  8
0
  6
CONTINUOUS
 62
256
 10
143.346255000000010
 20
-88.453962000000004
 11
146.810356000000010
 21
-86.453962000000004
  0
LINE
  8
0
  6
CONTINUOUS
 62
256
 10
238.346255000000010
 20
-88.453962000000004
 11
234.882152999999990
 21
-86.453962000000004
  0
LINE
  8
0
  6
CONTINUOUS
 62
256
 10
223.496254999999990
 20
-86.453962000000004
 11
234.882152999999990
 21
-86.453962000000004
  0
LINE
  8
0
  6
CONTINUOUS
 62
256
 10
208.346255000000010
 20
-86.453962000000004
 11
222.346255000000010
 21
-86.453962000000004
  0
LINE
  8
0
  6
CONTINUOUS
 62
256
 10
158.346255000000010
 20
-91.453962000000004
 11
169.946255000000010
 21
-91.453962000000004
  0
ARC
  8
0
  6
CONTINUOUS
 62
256
 10
169.946255000000010
 20
-91.853961999999996
 40
0.400000000000006
 50
0.000000000000000
 51
90.000000000000000
  0
LINE
  8
0
  6
CONTINUOUS
 62
256
 10
173.346255000000010
 20
-86.453962000000004
 11
159.346255000000010
 21
-86.453962000000004
  0
LINE
  8
0
  6
CONTINUOUS
 62
256
 10
158.196255000000010
 20
-86.453962000000004
 11
146.810356000000010
 21
-86.453962000000004
  0
LINE
  8
0
  6
CONTINUOUS
 62
256
 10
223.346255000000010
 20
-91.453962000000004
 11
208.346255000000010
 21
-91.453962000000004
  0
LINE
  8
0
  6
CONTINUOUS
 62
256
 10
208.346255000000010
 20
-91.803961999999999
 11
208.346255000000010
 21
-91.453962000000004
  0
LINE
  8
0
  6
CONTINUOUS
 62
256
 10
237.346255000000010
 20
-91.353961999999996
 11
223.346255000000010
 21
-91.353961999999996
  0
LINE
  8
0
  6
CONTINUOUS
 62
256
 10
223.346255000000010
 20
-91.353961999999996
 11
223.346255000000010
 21
-91.453962000000004
  0
ARC
  8
0
  6
CONTINUOUS
 62
256
 10
237.346255000000010
 20
-90.353961999999996
 40
1.000000000000000
 50
270.000000000000000
 51
0.000000000000000
  0
LINE
  8
0
  6
CONTINUOUS
 62
256
 10
158.346255000000010
 20
-91.353961999999996
 11
144.346255000000010
 21
-91.353961999999996
  0
LINE
  8
0
  6
CONTINUOUS
 62
256
 10
158.346255000000010
 20
-91.453962000000004
 11
158.346255000000010
 21
-91.353961999999996
  0
ARC
  8
0
  6
CONTINUOUS
 62
256
 10
144.346255000000010
 20
-90.353961999999996
 40
1.000000000000000
 50
180.000000000000000
 51
270.000000000000000
  0
ARC
  8
0
  6
CONTINUOUS
 62
256
 10
197.746254999999990
 20
-92.603961999999996
 40
0.400000000000006
 50
90.000000000000000
 51
180.000000000000000
  0
LINE
  8
0
  6
CONTINUOUS
 62
256
 10
207.946255000000010
 20
-92.203962000000004
 11
197.746254999999990
 21
-92.203962000000004
  0
ARC
  8
0
  6
CONTINUOUS
 62
256
 10
207.946255000000010
 20
-91.803961999999999
 40
0.400000000000006
 50
270.000000000000000
 51
0.000000000000000
  0
LINE
  8
0
  6
CONTINUOUS
 62
256
 10
197.346255000000010
 20
-93.553961999999999
 11
197.346255000000010
 21
-92.603961999999996
  0
LINE
  8
0
  6
DASHDOT
 62
256
 10
241.346255000000010
 20
-76.453962000000004
 11
138.238677999999990
 21
-76.453962000000004
  0
ARC
  8
0
  6
CONTINUOUS
 62
256
 10
196.946255000000010
 20
-93.553961999999999
 40
0.400000000000006
 50
270.000000000000000
 51
0.000000000000000
  0
LINE
  8
0
  6
CONTINUOUS
 62
256
 10
170.346255000000010
 20
-91.853961999999996
 11
170.346255000000010
 21
-93.553961999999999
  0
LINE
  8
0
  6
CONTINUOUS
 62
256
 10
170.746254999999990
 20
-93.953962000000004
 11
196.946255000000010
 21
-93.953962000000004
  0
ARC
  8
0
  6
CONTINUOUS
 62
256
 10
170.746254999999990
 20
-93.553961999999999
 40
0.400000000000006
 50
180.000000000000000
 51
270.000000000000000
  0
LINE
  8
0
  6
CONTINUOUS
 62
256
 10
159.346255000000010
 20
-65.953962000000004
 11
158.196255000000010
 21
-65.953962000000004
  0
LINE
  8
0
  6
CONTINUOUS
 62
256
 10
222.346255000000010
 20
-65.953962000000004
 11
223.496254999999990
 21
-65.953962000000004
  0
LINE
  8
0
  6
CONTINUOUS
 62
256
 10
143.346255000000010
 20
-64.453962000000004
 11
146.810356000000010
 21
-66.453962000000004
  0
LINE
  8
0
  6
CONTINUOUS
 62
256
 10
238.346255000000010
 20
-64.453962000000004
 11
234.882152999999990
 21
-66.453962000000004
  0
LINE
  8
0
  6
CONTINUOUS
 62
256
 10
143.346255000000010
 20
-63.653962000000000
 11
238.346255000000010
 21
-63.653962000000000
  0
LINE
  8
0
  6
CONTINUOUS
 62
256
 10
223.496254999999990
 20
-66.453962000000004
 11
234.882152999999990
 21
-66.453962000000004
  0
LINE
  8
0
  6
CONTINUOUS
 62
256
 10
208.346255000000010
 20
-66.453962000000004
 11
222.346255000000010
 21
-66.453962000000004
  0
LINE
  8
0
  6
CONTINUOUS
 62
256
 10
158.346255000000010
 20
-61.453961999999997
 11
169.946255000000010
 21
-61.453961999999997
  0
ARC
  8
0
  6
CONTINUOUS
 62
256
 10
169.946255000000010
 20
-61.053961999999999
 40
0.399999999999999
 50
270.000000000000000
 51
0.000000000000000
  0
LINE
  8
0
  6
CONTINUOUS
 62
256
 10
173.346255000000010
 20
-66.453962000000004
 11
159.346255000000010
 21
-66.453962000000004
  0
LINE
  8
0
  6
CONTINUOUS
 62
256
 10
158.196255000000010
 20
-66.453962000000004
 11
146.810356000000010
 21
-66.453962000000004
  0
LINE
  8
0
  6
CONTINUOUS
 62
256
 10
223.346255000000010
 20
-61.453961999999997
 11
208.346255000000010
 21
-61.453961999999997
  0
LINE
  8
0
  6
CONTINUOUS
 62
256
 10
208.346255000000010
 20
-61.103962000000003
 11
208.346255000000010
 21
-61.453961999999997
  0
LINE
  8
0
  6
CONTINUOUS
 62
256
 10
237.346255000000010
 20
-61.553961999999999
 11
223.346255000000010
 21
-61.553961999999999
  0
LINE
  8
0
  6
CONTINUOUS
 62
256
 10
223.346255000000010
 20
-61.553961999999999
 11
223.346255000000010
 21
-61.453961999999997
  0
LINE
  8
0
  6
CONTINUOUS
 62
256
 10
158.346255000000010
 20
-61.553961999999999
 11
144.346255000000010
 21
-61.553961999999999
  0
LINE
  8
0
  6
CONTINUOUS
 62
256
 10
158.346255000000010
 20
-61.453961999999997
 11
158.346255000000010
 21
-61.553961999999999
  0
ARC
  8
0
  6
CONTINUOUS
 62
256
 10
197.746254999999990
 20
-60.303961999999999
 40
0.400000000000006
 50
180.000000000000000
 51
270.000000000000000
  0
LINE
  8
0
  6
CONTINUOUS
 62
256
 10
207.946255000000010
 20
-60.703961999999997
 11
197.746254999999990
 21
-60.703961999999997
  0
ARC
  8
0
  6
CONTINUOUS
 62
256
 10
207.946255000000010
 20
-61.103962000000003
 40
0.400000000000006
 50
0.000000000000000
 51
90.000000000000000
  0
LINE
  8
0
  6
CONTINUOUS
 62
256
 10
197.346255000000010
 20
-59.353962000000003
 11
197.346255000000010
 21
-60.303961999999999
  0
ARC
  8
0
  6
CONTINUOUS
 62
256
 10
196.946255000000010
 20
-59.353962000000003
 40
0.400000000000006
 50
0.000000000000000
 51
90.000000000000000
  0
LINE
  8
0
  6
CONTINUOUS
 62
256
 10
170.346255000000010
 20
-61.053961999999999
 11
170.346255000000010
 21
-59.353962000000003
  0
LINE
  8
0
  6
CONTINUOUS
 62
256
 10
170.746254999999990
 20
-58.953961999999997
 11
196.946255000000010
 21
-58.953961999999997
  0
ARC
  8
0
  6
CONTINUOUS
 62
256
 10
170.746254999999990
 20
-59.353962000000003
 40
0.399999999999999
 50
90.000000000000000
 51
180.000000000000000
  0
LINE
  8
0
  6
CONTINUOUS
 62
256
 10
158.196255000000010
 20
-65.953962000000004
 11
158.196255000000010
 21
-86.953962000000004
  0
LINE
  8
0
  6
CONTINUOUS
 62
256
 10
159.346255000000010
 20
-65.953962000000004
 11
159.346255000000010
 21
-86.953962000000004
  0
LINE
  8
0
  6
CONTINUOUS
 62
256
 10
222.346255000000010
 20
-65.953962000000004
 11
222.346255000000010
 21
-86.953962000000004
  0
LINE
  8
0
  6
CONTINUOUS
 62
256
 10
223.496254999999990
 20
-65.953962000000004
 11
223.496254999999990
 21
-86.953962000000004
  0
LINE
  8
0
  6
CONTINUOUS
 62
256
 10
208.346255000000010
 20
-66.253962000000001
 11
208.346255000000010
 21
-86.653962000000007
  0
LINE
  8
0
  6
CONTINUOUS
 62
256
 10
146.810356000000010
 20
-86.453962000000004
 11
146.810356000000010
 21
-66.453962000000004
  0
LINE
  8
0
  6
CONTINUOUS
 62
256
 10
234.882152999999990
 20
-86.453962000000004
 11
234.882152999999990
 21
-66.453962000000004
  0
ARC
  8
0
  6
CONTINUOUS
 62
256
 10
144.346255000000010
 20
-62.553961999999999
 40
1.000000000000000
 50
90.000000000000000
 51
180.000000000000000
  0
LINE
  8
0
  6
CONTINUOUS
 62
256
 10
143.346255000000010
 20
-62.553961999999999
 11
143.346255000000010
 21
-90.353961999999996
  0
ARC
  8
0
  6
CONTINUOUS
 62
256
 10
237.346255000000010
 20
-62.553961999999999
 40
1.000000000000000
 50
0.000000000000000
 51
90.000000000000000
  0
LINE
  8
0
  6
CONTINUOUS
 62
256
 10
238.346255000000010
 20
-62.553961999999999
 11
238.346255000000010
 21
-90.353961999999996
  0
LINE
  8
0
  6
CONTINUOUS
 62
256
 10
173.346255000000010
 20
-66.253962000000001
 11
208.346255000000010
 21
-66.253962000000001
  0
LINE
  8
0
  6
CONTINUOUS
 62
256
 10
173.346255000000010
 20
-86.653962000000007
 11
208.346255000000010
 21
-86.653962000000007
  0
LINE
  8
0
  6
CONTINUOUS
 62
256
 10
173.346255000000010
 20
-66.253962000000001
 11
173.346255000000010
 21
-86.653962000000007
  0
CIRCLE
  8
0
  6
CONTINUOUS
 62
256
 10
102.228243000000010
 20
-76.453962000000004
 40
14.900000000000006
  0
LINE
  8
0
  6
CONTINUOUS
 62
256
 10
105.228243000000010
 20
-63.653962000000000
 11
105.228243000000010
 21
-66.914569999999998
  0
ARC
  8
0
  6
CONTINUOUS
 62
256
 10
102.228243000000010
 20
-76.453962000000004
 40
9.999999999999996
 50
107.457603000000010
 51
72.542396999999994
  0
LINE
  8
0
  6
CONTINUOUS
 62
256
 10
99.228243000000006
 20
-63.653962000000000
 11
105.228243000000010
 21
-63.653962000000000
  0
LINE
  8
0
  6
CONTINUOUS
 62
256
 10
99.228243000000006
 20
-63.653962000000000
 11
99.228243000000006
 21
-66.914569999999998
  0
LINE
  8
0
  6
DASHDOT
 62
256
 10
102.228243000000010
 20
-95.103961999999996
 11
102.228243000000010
 21
-57.803961999999999
  0
LINE
  8
0
  6
DASHDOT
 62
256
 10
83.578243000000001
 20
-76.453962000000004
 11
120.878243000000000
 21
-76.453962000000004
  0
INSERT
  8
0
  2
ZU_SYM_1
 10
-37.911943000000001
 20
-40.953656000000002
  0
INSERT
  8
0
  2
ZU_SYM_2
 10
-37.911943000000001
 20
-111.954269000000000
  0
INSERT
  8
0
  2
ZU_SYM_3
 10
42.088538000000000
 20
-111.954269000000000
  0
INSERT
  8
0
  2
ZU_SYM_4
 10
42.088538000000000
 20
-40.953656000000002
  0
LINE
  8
0
  6
CONTINUOUS
 62
256
 10
-173.412046000000000
 20
-149.954028999999990
 11
-98.412046000000004
 21
-149.954028999999990
  0
LINE
  8
0
  6
CONTINUOUS
 62
256
 10
-98.412046000000004
 20
-149.954028999999990
 11
-98.412046000000004
 21
-144.954028999999990
  0
LINE
  8
0
  6
CONTINUOUS
 62
256
 10
-99.412046000000004
 20
-178.454028999999990
 11
-99.412046000000004
 21
-149.954028999999990
  0
LINE
  8
0
  6
CONTINUOUS
 62
256
 10
-172.412046000000000
 20
-178.454028999999990
 11
-172.412046000000000
 21
-149.954028999999990
  0
ARC
  8
0
  6
CONTINUOUS
 62
256
 10
-171.412046000000000
 20
-178.454028999999990
 40
1.000000000000000
 50
180.000000000000000
 51
270.000000000000000
  0
ARC
  8
0
  6
CONTINUOUS
 62
256
 10
-100.412046000000000
 20
-178.454028999999990
 40
1.000000000000000
 50
270.000000000000000
 51
0.000000000000000
  0
LINE
  8
0
  6
CONTINUOUS
 62
256
 10
-81.412046000000004
 20
-145.954028999999990
 11
-98.412046000000004
 21
-145.954028999999990
  0
LINE
  8
0
  6
CONTINUOUS
 62
256
 10
-106.412046000000000
 20
-179.954028999999990
 11
-106.412046000000000
 21
-179.454028999999990
  0
LINE
  8
0
  6
CONTINUOUS
 62
256
 10
-114.412046000000000
 20
-179.954028999999990
 11
-106.412046000000000
 21
-179.954028999999990
  0
LINE
  8
0
  6
CONTINUOUS
 62
256
 10
-114.412046000000000
 20
-179.954028999999990
 11
-114.412046000000000
 21
-179.454028999999990
  0
LINE
  8
0
  6
CONTINUOUS
 62
256
 10
-100.412046000000000
 20
-179.454028999999990
 11
-171.412046000000000
 21
-179.454028999999990
  0
LINE
  8
0
  6
CONTINUOUS
 62
256
 10
-165.412046000000000
 20
-143.793725999999990
 11
-165.412046000000000
 21
-92.454029000000006
  0
ARC
  8
0
  6
CONTINUOUS
 62
256
 10
-168.412046000000000
 20
-143.793725999999990
 40
3.000000000000000
 50
270.000000000000000
 51
0.000000000000000
  0
LINE
  8
0
  6
CONTINUOUS
 62
256
 10
-172.412046000000000
 20
-146.793725999999990
 11
-168.412046000000000
 21
-146.793725999999990
  0
POLYLINE
  8
0
  6
CONTINUOUS
 62
256
 66
1
 70
1
  0
VERTEX
  8
0
  6
CONTINUOUS
 62
256
 10
-171.712046000000020
 20
-139.781360000000010
  0
VERTEX
  8
0
  6
CONTINUOUS
 62
256
 10
-171.802355182104830
 20
-139.078403489441830
  0
VERTEX
  8
0
  6
CONTINUOUS
 62
256
 10
-172.069812197196970
 20
-138.402461203361870
  0
VERTEX
  8
0
  6
CONTINUOUS
 62
256
 10
-172.504138822178050
 20
-137.779509224741330
  0
VERTEX
  8
0
  6
CONTINUOUS
 62
256
 10
-173.088644128423230
 20
-137.233487248763170
  0
VERTEX
  8
0
  6
CONTINUOUS
 62
256
 10
-173.800865904807890
 20
-136.785378593751520
  0
VERTEX
  8
0
  6
CONTINUOUS
 62
256
 10
-174.613433867884080
 20
-136.452403824016270
  0
VERTEX
  8
0
  6
CONTINUOUS
 62
256
 10
-175.495121486524200
 20
-136.247358973223920
  0
VERTEX
  8
0
  6
CONTINUOUS
 62
256
 10
-176.412046000000000
 20
-136.178123800000010
  0
VERTEX
  8
0
  6
CONTINUOUS
 62
256
 10
-177.328970513475810
 20
-136.247358973223920
  0
VERTEX
  8
0
  6
CONTINUOUS
 62
256
 10
-178.210658132115920
 20
-136.452403824016270
  0
VERTEX
  8
0
  6
CONTINUOUS
 62
256
 10
-179.023226095192110
 20
-136.785378593751520
  0
VERTEX
  8
0
  6
CONTINUOUS
 62
256
 10
-179.735447871576780
 20
-137.233487248763170
  0
VERTEX
  8
0
  6
CONTINUOUS
 62
256
 10
-180.319953177821960
 20
-137.779509224741330
  0
VERTEX
  8
0
  6
CONTINUOUS
 62
256
 10
-180.754279802803040
 20
-138.402461203361870
  0
VERTEX
  8
0
  6
CONTINUOUS
 62
256
 10
-181.021736817895170
 20
-139.078403489441830
  0
VERTEX
  8
0
  6
CONTINUOUS
 62
256
 10
-181.112045999999990
 20
-139.781360000000010
  0
VERTEX
  8
0
  6
CONTINUOUS
 62
256
 10
-181.021736817895170
 20
-140.484316510558190
  0
VERTEX
  8
0
  6
CONTINUOUS
 62
256
 10
-180.754279802803040
 20
-141.160258796638150
  0
VERTEX
  8
0
  6
CONTINUOUS
 62
256
 10
-180.319953177821960
 20
-141.783210775258680
  0
VERTEX
  8
0
  6
CONTINUOUS
 62
256
 10
-179.735447871576780
 20
-142.329232751236840
  0
VERTEX
  8
0
  6
CONTINUOUS
 62
256
 10
-179.023226095192110
 20
-142.777341406248500
  0
VERTEX
  8
0
  6
CONTINUOUS
 62
256
 10
-178.210658132115920
 20
-143.110316175983740
  0
VERTEX
  8
0
  6
CONTINUOUS
 62
256
 10
-177.328970513475810
 20
-143.315361026776060
  0
VERTEX
  8
0
  6
CONTINUOUS
 62
256
 10
-176.412046000000000
 20
-143.384596200000000
  0
VERTEX
  8
0
  6
CONTINUOUS
 62
256
 10
-175.495121486524200
 20
-143.315361026776060
  0
VERTEX
  8
0
  6
CONTINUOUS
 62
256
 10
-174.613433867884080
 20
-143.110316175983740
  0
VERTEX
  8
0
  6
CONTINUOUS
 62
256
 10
-173.800865904807890
 20
-142.777341406248500
  0
VERTEX
  8
0
  6
CONTINUOUS
 62
256
 10
-173.088644128423250
 20
-142.329232751236840
  0
VERTEX
  8
0
  6
CONTINUOUS
 62
256
 10
-172.504138822178050
 20
-141.783210775258680
  0
VERTEX
  8
0
  6
CONTINUOUS
 62
256
 10
-172.069812197196970
 20
-141.160258796638150
  0
VERTEX
  8
0
  6
CONTINUOUS
 62
256
 10
-171.802355182104830
 20
-140.484316510558190
  0
SEQEND
  8
0
  6
CONTINUOUS
 62
256
  0
LINE
  8
0
  6
CONTINUOUS
 62
256
 10
-178.412046000000000
 20
-142.773736000000010
 11
-176.412046000000000
 21
-141.597950000000000
  0
LINE
  8
0
  6
CONTINUOUS
 62
256
 10
-176.412046000000000
 20
-141.597950000000000
 11
-174.412046000000000
 21
-139.945309000000010
  0
LINE
  8
0
  6
CONTINUOUS
 62
256
 10
-174.412046000000000
 20
-142.773736000000010
 11
-176.412046000000000
 21
-141.597950000000000
  0
LINE
  8
0
  6
CONTINUOUS
 62
256
 10
-176.412046000000000
 20
-141.597950000000000
 11
-178.412046000000000
 21
-139.945309000000010
  0
ARC
  8
0
  6
CONTINUOUS
 62
256
 10
-172.412046000000000
 20
-149.793725999999990
 40
3.000000000000000
 50
90.000000000000000
 51
180.000000000000000
  0
LINE
  8
0
  6
CONTINUOUS
 62
256
 10
-175.412046000000000
 20
-151.454028999999990
 11
-175.412046000000000
 21
-149.793725999999990
  0
LINE
  8
0
  6
CONTINUOUS
 62
256
 10
-165.412046000000000
 20
-33.454028999999998
 11
-165.412046000000000
 21
-92.454029000000006
  0
POLYLINE
  8
0
  6
CONTINUOUS
 62
256
 66
1
 70
1
  0
VERTEX
  8
0
  6
CONTINUOUS
 62
256
 10
-171.712046000000020
 20
-45.126697999999998
  0
VERTEX
  8
0
  6
CONTINUOUS
 62
256
 10
-171.802355182104830
 20
-44.423741489441831
  0
VERTEX
  8
0
  6
CONTINUOUS
 62
256
 10
-172.069812197196970
 20
-43.747799203361858
  0
VERTEX
  8
0
  6
CONTINUOUS
 62
256
 10
-172.504138822178050
 20
-43.124847224741337
  0
VERTEX
  8
0
  6
CONTINUOUS
 62
256
 10
-173.088644128423230
 20
-42.578825248763160
  0
VERTEX
  8
0
  6
CONTINUOUS
 62
256
 10
-173.800865904807890
 20
-42.130716593751508
  0
VERTEX
  8
0
  6
CONTINUOUS
 62
256
 10
-174.613433867884080
 20
-41.797741824016263
  0
VERTEX
  8
0
  6
CONTINUOUS
 62
256
 10
-175.495121486524200
 20
-41.592696973223937
  0
VERTEX
  8
0
  6
CONTINUOUS
 62
256
 10
-176.412046000000000
 20
-41.523461800000007
  0
VERTEX
  8
0
  6
CONTINUOUS
 62
256
 10
-177.328970513475810
 20
-41.592696973223937
  0
VERTEX
  8
0
  6
CONTINUOUS
 62
256
 10
-178.210658132115920
 20
-41.797741824016263
  0
VERTEX
  8
0
  6
CONTINUOUS
 62
256
 10
-179.023226095192110
 20
-42.130716593751508
  0
VERTEX
  8
0
  6
CONTINUOUS
 62
256
 10
-179.735447871576780
 20
-42.578825248763160
  0
VERTEX
  8
0
  6
CONTINUOUS
 62
256
 10
-180.319953177821960
 20
-43.124847224741337
  0
VERTEX
  8
0
  6
CONTINUOUS
 62
256
 10
-180.754279802803040
 20
-43.747799203361858
  0
VERTEX
  8
0
  6
CONTINUOUS
 62
256
 10
-181.021736817895170
 20
-44.423741489441831
  0
VERTEX
  8
0
  6
CONTINUOUS
 62
256
 10
-181.112045999999990
 20
-45.126697999999998
  0
VERTEX
  8
0
  6
CONTINUOUS
 62
256
 10
-181.021736817895170
 20
-45.829654510558164
  0
VERTEX
  8
0
  6
CONTINUOUS
 62
256
 10
-180.754279802803040
 20
-46.505596796638137
  0
VERTEX
  8
0
  6
CONTINUOUS
 62
256
 10
-180.319953177821960
 20
-47.128548775258658
  0
VERTEX
  8
0
  6
CONTINUOUS
 62
256
 10
-179.735447871576780
 20
-47.674570751236836
  0
VERTEX
  8
0
  6
CONTINUOUS
 62
256
 10
-179.023226095192110
 20
-48.122679406248487
  0
VERTEX
  8
0
  6
CONTINUOUS
 62
256
 10
-178.210658132115920
 20
-48.455654175983732
  0
VERTEX
  8
0
  6
CONTINUOUS
 62
256
 10
-177.328970513475810
 20
-48.660699026776058
  0
VERTEX
  8
0
  6
CONTINUOUS
 62
256
 10
-176.412046000000000
 20
-48.729934199999988
  0
VERTEX
  8
0
  6
CONTINUOUS
 62
256
 10
-175.495121486524200
 20
-48.660699026776058
  0
VERTEX
  8
0
  6
CONTINUOUS
 62
256
 10
-174.613433867884080
 20
-48.455654175983732
  0
VERTEX
  8
0
  6
CONTINUOUS
 62
256
 10
-173.800865904807890
 20
-48.122679406248487
  0
VERTEX
  8
0
  6
CONTINUOUS
 62
256
 10
-173.088644128423250
 20
-47.674570751236836
  0
VERTEX
  8
0
  6
CONTINUOUS
 62
256
 10
-172.504138822178050
 20
-47.128548775258658
  0
VERTEX
  8
0
  6
CONTINUOUS
 62
256
 10
-172.069812197196970
 20
-46.505596796638137
  0
VERTEX
  8
0
  6
CONTINUOUS
 62
256
 10
-171.802355182104830
 20
-45.829654510558164
  0
SEQEND
  8
0
  6
CONTINUOUS
 62
256
  0
LINE
  8
0
  6
CONTINUOUS
 62
256
 10
-178.412046000000000
 20
-42.134323000000002
 11
-176.412046000000000
 21
-43.310108000000000
  0
LINE
  8
0
  6
CONTINUOUS
 62
256
 10
-176.412046000000000
 20
-43.310108000000000
 11
-174.412046000000000
 21
-44.962750000000000
  0
LINE
  8
0
  6
CONTINUOUS
 62
256
 10
-174.412046000000000
 20
-42.134323000000002
 11
-176.412046000000000
 21
-43.310108000000000
  0
LINE
  8
0
  6
CONTINUOUS
 62
256
 10
-176.412046000000000
 20
-43.310108000000000
 11
-178.412046000000000
 21
-44.962750000000000
  0
LINE
  8
0
  6
CONTINUOUS
 62
256
 10
-81.412046000000004
 20
-38.954028999999998
 11
-165.412046000000000
 21
-38.954028999999998
  0
LINE
  8
0
  6
CONTINUOUS
 62
256
 10
-165.412046000000000
 20
-41.454028999999998
 11
-81.412046000000004
 21
-41.454028999999998
  0
LINE
  8
0
  6
CONTINUOUS
 62
256
 10
-165.412046000000000
 20
-41.954028999999998
 11
-81.412046000000004
 21
-41.954028999999998
  0
LINE
  8
0
  6
CONTINUOUS
 62
256
 10
-165.412046000000000
 20
-46.320946999999997
 11
-81.412046000000004
 21
-46.320946999999997
  0
LINE
  8
0
  6
CONTINUOUS
 62
256
 10
-165.412046000000000
 20
-51.412115000000000
 11
-81.412046000000004
 21
-51.412115000000000
  0
LINE
  8
0
  6
CONTINUOUS
 62
256
 10
-165.412046000000000
 20
-59.150427999999998
 11
-81.412046000000004
 21
-59.150427999999998
  0
LINE
  8
0
  6
CONTINUOUS
 62
256
 10
-165.412046000000000
 20
-60.739637999999999
 11
-81.412046000000004
 21
-60.739637999999999
  0
LINE
  8
0
  6
CONTINUOUS
 62
256
 10
-165.412046000000000
 20
-63.697634000000001
 11
-81.412046000000004
 21
-63.697634000000001
  0
LINE
  8
0
  6
CONTINUOUS
 62
256
 10
-165.412046000000000
 20
-65.176657000000006
 11
-81.412046000000004
 21
-65.176657000000006
  0
LINE
  8
0
  6
CONTINUOUS
 62
256
 10
-165.412046000000000
 20
-68.269388000000006
 11
-81.412046000000004
 21
-68.269388000000006
  0
LINE
  8
0
  6
CONTINUOUS
 62
256
 10
-165.412046000000000
 20
-69.615790000000004
 11
-81.412046000000004
 21
-69.615790000000004
  0
LINE
  8
0
  6
CONTINUOUS
 62
256
 10
-165.412046000000000
 20
-72.825995000000006
 11
-81.412046000000004
 21
-72.825995000000006
  0
LINE
  8
0
  6
CONTINUOUS
 62
256
 10
-165.412046000000000
 20
-74.067914000000002
 11
-81.412046000000004
 21
-74.067914000000002
  0
LINE
  8
0
  6
CONTINUOUS
 62
256
 10
-165.412046000000000
 20
-78.454029000000006
 11
-81.412046000000004
 21
-78.454029000000006
  0
LINE
  8
0
  6
CONTINUOUS
 62
256
 10
-165.412046000000000
 20
-106.454029000000010
 11
-81.412046000000004
 21
-106.454029000000010
  0
LINE
  8
0
  6
CONTINUOUS
 62
256
 10
-165.412046000000000
 20
-110.840144000000000
 11
-81.412046000000004
 21
-110.840144000000000
  0
LINE
  8
0
  6
CONTINUOUS
 62
256
 10
-165.412046000000000
 20
-112.082064000000000
 11
-81.412046000000004
 21
-112.082064000000000
  0
LINE
  8
0
  6
CONTINUOUS
 62
256
 10
-165.412046000000000
 20
-115.292269000000000
 11
-81.412046000000004
 21
-115.292269000000000
  0
LINE
  8
0
  6
CONTINUOUS
 62
256
 10
-165.412046000000000
 20
-116.638671000000000
 11
-81.412046000000004
 21
-116.638671000000000
  0
LINE
  8
0
  6
CONTINUOUS
 62
256
 10
-165.412046000000000
 20
-119.731402000000000
 11
-81.412046000000004
 21
-119.731402000000000
  0
LINE
  8
0
  6
CONTINUOUS
 62
256
 10
-165.412046000000000
 20
-121.210425000000000
 11
-81.412046000000004
 21
-121.210425000000000
  0
LINE
  8
0
  6
CONTINUOUS
 62
256
 10
-165.412046000000000
 20
-125.757630000000010
 11
-81.412046000000004
 21
-125.757630000000010
  0
LINE
  8
0
  6
CONTINUOUS
 62
256
 10
-165.412046000000000
 20
-124.168420000000000
 11
-81.412046000000004
 21
-124.168420000000000
  0
LINE
  8
0
  6
CONTINUOUS
 62
256
 10
-165.412046000000000
 20
-133.495943000000010
 11
-81.412046000000004
 21
-133.495943000000010
  0
LINE
  8
0
  6
CONTINUOUS
 62
256
 10
-165.412046000000000
 20
-138.587111999999990
 11
-81.412046000000004
 21
-138.587111999999990
  0
LINE
  8
0
  6
CONTINUOUS
 62
256
 10
-165.412046000000000
 20
-142.954028999999990
 11
-81.412046000000004
 21
-142.954028999999990
  0
LINE
  8
0
  6
CONTINUOUS
 62
256
 10
-165.412046000000000
 20
-143.454028999999990
 11
-81.412046000000004
 21
-143.454028999999990
  0
LINE
  8
0
  6
CONTINUOUS
 62
256
 10
-98.412046000000004
 20
-144.954028999999990
 11
-165.645514999999990
 21
-144.954028999999990
  0
LINE
  8
0
  6
CONTINUOUS
 62
256
 10
-173.412046000000000
 20
-149.954028999999990
 11
-173.412046000000000
 21
-146.965297999999990
  0
LINE
  8
0
  6
CONTINUOUS
 62
256
 10
-175.412046000000000
 20
-151.454028999999990
 11
-194.916890999999990
 21
-151.454028999999990
  0
LINE
  8
0
  6
CONTINUOUS
 62
256
 10
-165.412046000000000
 20
-33.454028999999998
 11
-194.916890999999990
 21
-33.454028999999998
  0
ARC
  8
0
  6
CONTINUOUS
 62
256
 10
-194.916890999999990
 20
-130.854029000000000
 40
20.600000000000005
 50
234.999999999999940
 51
270.000000000000000
  0
ARC
  8
0
  6
CONTINUOUS
 62
256
 10
-212.812046000000010
 20
-140.297649000000010
 40
2.599999999999994
 50
180.000000000000000
 51
234.999999999999770
  0
LINE
  8
0
  6
CONTINUOUS
 62
256
 10
-206.732565999999990
 20
-147.728561000000010
 11
-214.303345000000010
 21
-142.427445000000010
  0
LINE
  8
0
  6
CONTINUOUS
 62
256
 10
-215.412046000000000
 20
-140.297649000000010
 11
-215.412046000000000
 21
-92.454029000000006
  0
ARC
  8
0
  6
CONTINUOUS
 62
256
 10
-194.916890999999990
 20
-54.054029000000000
 40
20.600000000000001
 50
90.000000000000000
 51
124.999999999999990
  0
ARC
  8
0
  6
CONTINUOUS
 62
256
 10
-212.812046000000010
 20
-44.610408999999997
 40
2.600000000000001
 50
125.000000000000110
 51
180.000000000000000
  0
LINE
  8
0
  6
CONTINUOUS
 62
256
 10
-206.732565999999990
 20
-37.179496999999998
 11
-214.303345000000010
 21
-42.480614000000003
  0
LINE
  8
0
  6
CONTINUOUS
 62
256
 10
-215.412046000000000
 20
-44.610408999999997
 11
-215.412046000000000
 21
-92.454029000000006
  0
LINE
  8
0
  6
CONTINUOUS
 62
256
 10
-81.412046000000004
 20
-145.954028999999990
 11
-81.412046000000004
 21
-38.954028999999998
  0
LINE
  8
0
  6
DASHDOT
 62
256
 10
-33.950119999999998
 20
-92.454029000000006
 11
-220.576643999999990
 21
-92.454029000000006
  0
LINE
  8
0
  6
CONTINUOUS
 62
256
 10
-81.412046000000004
 20
-41.404029000000001
 11
-81.412046000000004
 21
-39.954028999999998
  0
LINE
  8
0
  6
CONTINUOUS
 62
256
 10
-81.412046000000004
 20
-39.954028999999998
 11
-81.412046000000004
 21
-42.204028999999998
  0
LINE
  8
0
  6
CONTINUOUS
 62
256
 10
-81.412046000000004
 20
-145.954028999999990
 11
-81.412046000000004
 21
-92.454029000000006
  0
LINE
  8
0
  6
CONTINUOUS
 62
256
 10
-81.412046000000004
 20
-92.454029000000006
 11
-81.412046000000004
 21
-38.954028999999998
  0
CIRCLE
  8
0
  6
CONTINUOUS
 62
256
 10
21.088298000000002
 20
-76.453962000000004
 40
21.000000000000000
  0
CIRCLE
  8
0
  6
CONTINUOUS
 62
256
 10
21.088298000000002
 20
-76.453962000000004
 40
28.000000000000000
  0
CIRCLE
  8
0
  6
CONTINUOUS
 62
256
 10
21.088298000000002
 20
-76.453962000000004
 40
30.000000000000000
  0
LINE
  8
0
  6
CONTINUOUS
 62
256
 10
-42.911943000000001
 20
-40.953656000000002
 11
-42.911943000000001
 21
-36.853962000000003
  0
LINE
  8
0
  6
CONTINUOUS
 62
256
 10
-32.911943000000001
 20
-40.953656000000002
 11
-32.911943000000001
 21
-36.853962000000003
  0
LINE
  8
0
  6
CONTINUOUS
 62
256
 10
37.088538000000000
 20
-40.953656000000002
 11
37.088538000000000
 21
-36.853962000000003
  0
LINE
  8
0
  6
CONTINUOUS
 62
256
 10
47.088538000000000
 20
-40.953656000000002
 11
47.088538000000000
 21
-36.853962000000003
  0
LINE
  8
0
  6
CONTINUOUS
 62
256
 10
47.088538000000000
 20
-116.053962000000000
 11
47.088538000000000
 21
-111.954269000000000
  0
LINE
  8
0
  6
CONTINUOUS
 62
256
 10
37.088538000000000
 20
-116.053962000000000
 11
37.088538000000000
 21
-111.954269000000000
  0
LINE
  8
0
  6
CONTINUOUS
 62
256
 10
-32.911943000000001
 20
-116.053962000000000
 11
-32.911943000000001
 21
-111.954269000000000
  0
LINE
  8
0
  6
CONTINUOUS
 62
256
 10
-42.911943000000001
 20
-116.053962000000000
 11
-42.911943000000001
 21
-111.954269000000000
  0
LINE
  8
0
  6
CONTINUOUS
 62
256
 10
57.338298000000002
 20
-58.815368999999997
 11
57.338298000000002
 21
-88.788883999999996
  0
ARC
  8
0
  6
CONTINUOUS
 62
256
 10
51.088298000000002
 20
-88.788883999999996
 40
6.249999999999997
 50
297.278575999999990
 51
0.000000000000000
  0
ARC
  8
0
  6
CONTINUOUS
 62
256
 10
56.588104999999999
 20
-99.454347999999996
 40
5.750000000000000
 50
117.278576000000030
 51
165.438153000000000
  0
ARC
  8
0
  6
CONTINUOUS
 62
256
 10
44.973582999999998
 20
-96.437248999999994
 40
6.250000000000001
 50
304.030594000000010
 51
345.438153000000000
  0
ARC
  8
0
  6
CONTINUOUS
 62
256
 10
53.088298000000002
 20
-108.453962000000000
 40
8.249999999999993
 50
124.030594000000010
 51
139.069285000000040
  0
ARC
  8
0
  6
CONTINUOUS
 62
256
 10
42.133513000000001
 20
-98.954346000000001
 40
6.250000000000001
 50
269.801777999999960
 51
319.069284999999920
  0
ARC
  8
0
  6
CONTINUOUS
 62
256
 10
42.088538000000000
 20
-111.954269000000000
 40
6.749999999999998
 50
89.801778000000013
 51
154.969509999999990
  0
ARC
  8
0
  6
CONTINUOUS
 62
256
 10
30.309462000000000
 20
-106.453962000000000
 40
6.250000000000000
 50
270.000000000000000
 51
334.969510000000070
  0
LINE
  8
0
  6
CONTINUOUS
 62
256
 10
30.309462000000000
 20
-112.703962000000000
 11
-26.132867000000001
 21
-112.703962000000000
  0
LINE
  8
0
  6
CONTINUOUS
 62
256
 10
-53.161701999999998
 20
-94.092556000000002
 11
-53.161701999999998
 21
-64.362673999999998
  0
LINE
  8
0
  6
CONTINUOUS
 62
256
 10
-26.132867000000001
 20
-40.203961999999997
 11
30.309462000000000
 21
-40.203961999999997
  0
ARC
  8
0
  6
CONTINUOUS
 62
256
 10
30.309462000000000
 20
-46.453961999999997
 40
6.249999999999996
 50
25.030490000000025
 51
90.000000000000000
  0
ARC
  8
0
  6
CONTINUOUS
 62
256
 10
42.088538000000000
 20
-40.953656000000002
 40
6.749999999999998
 50
205.030489999999960
 51
270.198221999999990
  0
ARC
  8
0
  6
CONTINUOUS
 62
256
 10
42.133513000000001
 20
-53.953578000000000
 40
6.249999999999997
 50
40.930714999999985
 51
90.198222000000015
  0
ARC
  8
0
  6
CONTINUOUS
 62
256
 10
53.088298000000002
 20
-44.453961999999997
 40
8.249999999999998
 50
220.930714999999960
 51
262.071858000000020
  0
ARC
  8
0
  6
CONTINUOUS
 62
256
 10
51.088298000000002
 20
-58.815368999999997
 40
6.250000000000000
 50
0.000000000000000
 51
82.071858000000034
  0
ARC
  8
0
  6
CONTINUOUS
 62
256
 10
-25.912071000000001
 20
-45.953961999999997
 40
5.750000000000000
 50
90.000000000000000
 51
157.378672000000020
  0
ARC
  8
0
  6
CONTINUOUS
 62
256
 10
-37.911943000000001
 20
-40.953656000000002
 40
7.250000000000003
 50
269.801777999999960
 51
337.378671999999990
  0
ARC
  8
0
  6
CONTINUOUS
 62
256
 10
-37.956918000000002
 20
-53.953578000000000
 40
5.750000000000003
 50
89.801778000000013
 51
139.069284999999980
  0
ARC
  8
0
  6
CONTINUOUS
 62
256
 10
-48.911701999999998
 20
-44.453961999999997
 40
8.750000000000002
 50
306.958504000000000
 51
319.069284999999980
  0
ARC
  8
0
  6
CONTINUOUS
 62
256
 10
-40.193773999999998
 20
-56.040494000000002
 40
5.749999999999999
 50
126.958503999999980
 51
167.552537000000000
  0
ARC
  8
0
  6
CONTINUOUS
 62
256
 10
-51.911701999999998
 20
-53.453961999999997
 40
6.250000000000001
 50
292.024313000000010
 51
347.552536999999920
  0
ARC
  8
0
  6
CONTINUOUS
 62
256
 10
-47.411701999999998
 20
-64.578260000000000
 40
5.750000000000002
 50
112.024312999999980
 51
180.000000000000000
  0
ARC
  8
0
  6
CONTINUOUS
 62
256
 10
-47.411701999999998
 20
-94.031756999999999
 40
5.750000000000000
 50
180.000000000000000
 51
264.062228000000000
  0
ARC
  8
0
  6
CONTINUOUS
 62
256
 10
-48.911701999999998
 20
-108.453962000000000
 40
8.750000000000005
 50
40.930715000000028
 51
84.062228000000019
  0
ARC
  8
0
  6
CONTINUOUS
 62
256
 10
-37.956918000000002
 20
-98.954346000000001
 40
5.749999999999996
 50
220.930714999999960
 51
270.198221999999990
  0
ARC
  8
0
  6
CONTINUOUS
 62
256
 10
-37.911943000000001
 20
-111.954269000000000
 40
7.249999999999997
 50
22.621327999999966
 51
90.198222000000001
  0
ARC
  8
0
  6
CONTINUOUS
 62
256
 10
-25.912071000000001
 20
-106.953962000000000
 40
5.750000000000003
 50
202.621328000000060
 51
270.000000000000000
  0
LINE
  8
0
  6
CONTINUOUS
 62
256
 10
47.088538000000000
 20
-116.053962000000000
 11
47.488537999999998
 21
-116.453962000000000
  0
LINE
  8
0
  6
CONTINUOUS
 62
256
 10
37.088538000000000
 20
-116.053962000000000
 11
36.688538000000001
 21
-116.453962000000000
  0
LINE
  8
0
  6
CONTINUOUS
 62
256
 10
-32.911943000000001
 20
-116.053962000000000
 11
-32.511943000000002
 21
-116.453962000000000
  0
LINE
  8
0
  6
CONTINUOUS
 62
256
 10
-42.911943000000001
 20
-116.053962000000000
 11
-43.311942999999999
 21
-116.453962000000000
  0
LINE
  8
0
  6
CONTINUOUS
 62
256
 10
-42.911943000000001
 20
-36.853962000000003
 11
-43.311942999999999
 21
-36.453961999999997
  0
LINE
  8
0
  6
CONTINUOUS
 62
256
 10
-32.911943000000001
 20
-36.853962000000003
 11
-32.511943000000002
 21
-36.453961999999997
  0
LINE
  8
0
  6
CONTINUOUS
 62
256
 10
47.088538000000000
 20
-36.853962000000003
 11
47.488537999999998
 21
-36.453961999999997
  0
LINE
  8
0
  6
CONTINUOUS
 62
256
 10
37.088538000000000
 20
-36.853962000000003
 11
36.688538000000001
 21
-36.453961999999997
  0
LINE
  8
0
  6
CONTINUOUS
 62
256
 10
-48.429701999999999
 20
-98.749028999999993
 11
-48.429701999999999
 21
-98.722194000000002
  0
CIRCLE
  8
0
  6
CONTINUOUS
 62
256
 10
21.088298000000002
 20
-76.453962000000004
 40
15.000000000000000
  0
ARC
  8
0
  6
CONTINUOUS
 62
256
 10
0.454366000000000
 20
-42.703961999999997
 40
2.500000000000000
 50
90.000000000000000
 51
188.752929000000050
  0
ARC
  8
0
  6
CONTINUOUS
 62
256
 10
0.454366000000000
 20
-110.203962000000000
 40
2.499999999999999
 50
171.247071000000120
 51
270.000000000000000
  0
CIRCLE
  8
0
  6
CONTINUOUS
 62
256
 10
-48.911701999999998
 20
-108.453962000000000
 40
3.450000000000003
  0
CIRCLE
  8
0
  6
CONTINUOUS
 62
256
 10
-48.911701999999998
 20
-108.453962000000000
 40
4.000000000000000
  0
CIRCLE
  8
0
  6
CONTINUOUS
 62
256
 10
53.088298000000002
 20
-108.453962000000000
 40
3.450000000000003
  0
CIRCLE
  8
0
  6
CONTINUOUS
 62
256
 10
53.088298000000002
 20
-108.453962000000000
 40
4.000000000000000
  0
CIRCLE
  8
0
  6
CONTINUOUS
 62
256
 10
53.088298000000002
 20
-44.453961999999997
 40
3.450000000000003
  0
CIRCLE
  8
0
  6
CONTINUOUS
 62
256
 10
53.088298000000002
 20
-44.453961999999997
 40
4.000000000000000
  0
CIRCLE
  8
0
  6
CONTINUOUS
 62
256
 10
-48.911701999999998
 20
-44.453961999999997
 40
3.450000000000003
  0
CIRCLE
  8
0
  6
CONTINUOUS
 62
256
 10
-48.911701999999998
 20
-44.453961999999997
 40
4.000000000000000
  0
LINE
  8
0
  6
DASHDOT
 62
256
 10
61.588298000000002
 20
-44.453961999999997
 11
44.588298000000002
 21
-44.453961999999997
  0
LINE
  8
0
  6
DASHDOT
 62
256
 10
53.088298000000002
 20
-35.953961999999997
 11
53.088298000000002
 21
-52.953961999999997
  0
LINE
  8
0
  6
DASHDOT
 62
256
 10
-40.411701999999998
 20
-44.453961999999997
 11
-57.411701999999998
 21
-44.453961999999997
  0
LINE
  8
0
  6
DASHDOT
 62
256
 10
-48.911701999999998
 20
-35.953961999999997
 11
-48.911701999999998
 21
-52.953961999999997
  0
LINE
  8
0
  6
DASHDOT
 62
256
 10
-40.411701999999998
 20
-108.453962000000000
 11
-57.411701999999998
 21
-108.453962000000000
  0
LINE
  8
0
  6
DASHDOT
 62
256
 10
-48.911701999999998
 20
-99.953962000000004
 11
-48.911701999999998
 21
-116.953962000000000
  0
LINE
  8
0
  6
DASHDOT
 62
256
 10
61.588298000000002
 20
-108.453962000000000
 11
44.588298000000002
 21
-108.453962000000000
  0
LINE
  8
0
  6
DASHDOT
 62
256
 10
53.088298000000002
 20
-99.953962000000004
 11
53.088298000000002
 21
-116.953962000000000
  0
LINE
  8
0
  6
DASHDOT
 62
256
 10
47.838538000000000
 20
-111.954269000000000
 11
36.338538000000000
 21
-111.954269000000000
  0
LINE
  8
0
  6
DASHDOT
 62
256
 10
42.088538000000000
 20
-106.204269000000000
 11
42.088538000000000
 21
-117.704269000000000
  0
LINE
  8
0
  6
DASHDOT
 62
256
 10
-32.161943000000001
 20
-111.954269000000000
 11
-43.661943000000001
 21
-111.954269000000000
  0
LINE
  8
0
  6
DASHDOT
 62
256
 10
-37.911943000000001
 20
-106.204269000000000
 11
-37.911943000000001
 21
-117.704269000000000
  0
LINE
  8
0
  6
DASHDOT
 62
256
 10
-32.161943000000001
 20
-40.953656000000002
 11
-43.661943000000001
 21
-40.953656000000002
  0
LINE
  8
0
  6
DASHDOT
 62
256
 10
-37.911943000000001
 20
-35.203656000000002
 11
-37.911943000000001
 21
-46.703656000000002
  0
LINE
  8
0
  6
DASHDOT
 62
256
 10
47.838538000000000
 20
-40.953656000000002
 11
36.338538000000000
 21
-40.953656000000002
  0
LINE
  8
0
  6
DASHDOT
 62
256
 10
42.088538000000000
 20
-35.203656000000002
 11
42.088538000000000
 21
-46.703656000000002
  0
LINE
  8
0
  6
DASHDOT
 62
256
 10
62.588298000000002
 20
-76.453962000000004
 11
-20.411701999999998
 21
-76.453962000000004
  0
LINE
  8
0
  6
DASHDOT
 62
256
 10
21.088298000000002
 20
-34.953961999999997
 11
21.088298000000002
 21
-117.953962000000000
  0
ARC
  8
0
  6
CONTINUOUS
 62
256
 10
19.765422000000001
 20
-115.453962000000000
 40
1.000000000000000
 50
270.000000000000000
 51
311.409621999999900
  0
ARC
  8
0
  6
CONTINUOUS
 62
256
 10
21.088298000000002
 20
-116.953962000000000
 40
1.000000000000002
 50
48.590378000000101
 51
131.409621999999900
  0
ARC
  8
0
  6
CONTINUOUS
 62
256
 10
22.411173000000002
 20
-115.453962000000000
 40
1.000000000000002
 50
228.590378000000100
 51
270.000000000000000
  0
ARC
  8
0
  6
CONTINUOUS
 62
256
 10
60.088298000000002
 20
-75.131086999999994
 40
1.000000000000005
 50
318.590377999999930
 51
0.000000000000000
  0
ARC
  8
0
  6
CONTINUOUS
 62
256
 10
61.588298000000002
 20
-76.453962000000004
 40
1.000000000000005
 50
138.590377999999960
 51
221.409622000000040
  0
ARC
  8
0
  6
CONTINUOUS
 62
256
 10
60.088298000000002
 20
-77.776837999999998
 40
1.000000000000000
 50
0.000000000000000
 51
41.409622000000049
  0
ARC
  8
0
  6
CONTINUOUS
 62
256
 10
22.411173000000002
 20
-37.453961999999997
 40
1.000000000000000
 50
90.000000000000000
 51
131.409621999999900
  0
ARC
  8
0
  6
CONTINUOUS
 62
256
 10
21.088298000000002
 20
-35.953961999999997
 40
1.000000000000002
 50
228.590378000000100
 51
311.409621999999900
  0
ARC
  8
0
  6
CONTINUOUS
 62
256
 10
19.765422000000001
 20
-37.453961999999997
 40
1.000000000000002
 50
48.590378000000101
 51
90.000000000000000
  0
LINE
  8
0
  6
CONTINUOUS
 62
256
 10
-81.412046000000004
 20
-92.454029000000006
 11
-81.412046000000004
 21
-38.954028999999998
  0
LINE
  8
0
  6
CONTINUOUS
 62
256
 10
-81.412046000000004
 20
-92.454029000000006
 11
-81.412046000000004
 21
-145.954028999999990
  0
LINE
  8
0
  6
CONTINUOUS
 62
256
 10
18.088298000000002
 20
-63.653962000000000
 11
18.088298000000002
 21
-66.914569999999998
  0
LINE
  8
0
  6
CONTINUOUS
 62
256
 10
24.088298000000002
 20
-63.653962000000000
 11
18.088298000000002
 21
-63.653962000000000
  0
LINE
  8
0
  6
CONTINUOUS
 62
256
 10
24.088298000000002
 20
-63.653962000000000
 11
24.088298000000002
 21
-66.914569999999998
  0
ARC
  8
0
  6
CONTINUOUS
 62
256
 10
21.088298000000002
 20
-76.453962000000004
 40
9.999999999999996
 50
107.457603000000010
 51
72.542396999999994
  0
CIRCLE
  8
0
  6
CONTINUOUS
 62
256
 10
-48.911701999999998
 20
-44.453961999999997
 40
5.500000000000000
  0
LINE
  8
0
  6
CONTINUOUS
 62
256
 10
-27.595175000000001
 20
-116.453962000000000
 11
-51.911701999999998
 21
-116.453962000000000
  0
CIRCLE
  8
0
  6
CONTINUOUS
 62
256
 10
-48.911701999999998
 20
-108.453962000000000
 40
5.500000000000000
  0
ARC
  8
0
  6
CONTINUOUS
 62
256
 10
-51.911701999999998
 20
-41.453961999999997
 40
5.000000000000000
 50
90.000000000000000
 51
180.000000000000000
  0
CIRCLE
  8
0
  6
CONTINUOUS
 62
256
 10
53.088298000000002
 20
-108.453962000000000
 40
5.500000000000000
  0
ARC
  8
0
  6
CONTINUOUS
 62
256
 10
56.088298000000002
 20
-111.453962000000000
 40
5.000000000000000
 50
270.000000000000000
 51
0.000000000000000
  0
ARC
  8
0
  6
CONTINUOUS
 62
256
 10
56.088298000000002
 20
-41.453961999999997
 40
5.000000000000000
 50
0.000000000000000
 51
90.000000000000000
  0
CIRCLE
  8
0
  6
CONTINUOUS
 62
256
 10
53.088298000000002
 20
-44.453961999999997
 40
5.500000000000000
  0
LINE
  8
0
  6
CONTINUOUS
 62
256
 10
56.088298000000002
 20
-36.453961999999997
 11
-51.911701999999998
 21
-36.453961999999997
  0
LINE
  8
0
  6
CONTINUOUS
 62
256
 10
61.088298000000002
 20
-41.453961999999997
 11
61.088298000000002
 21
-111.453962000000000
  0
LINE
  8
0
  6
CONTINUOUS
 62
256
 10
56.088298000000002
 20
-116.453962000000000
 11
-27.595175000000001
 21
-116.453962000000000
  0
ARC
  8
0
  6
CONTINUOUS
 62
256
 10
-51.911701999999998
 20
-111.453962000000000
 40
5.000000000000000
 50
180.000000000000000
 51
270.000000000000000
  0
LINE
  8
0
  6
CONTINUOUS
 62
256
 10
-49.329701999999997
 20
-102.749028999999990
 11
-49.329701999999997
 21
-102.722194000000000
  0
LINE
  8
0
  6
CONTINUOUS
 62
256
 10
-56.911701999999998
 20
-41.453961999999997
 11
-56.911701999999998
 21
-111.453962000000000
  0
ARC
  8
0
  6
CONTINUOUS
 62
256
 10
42.088538000000000
 20
-111.954269000000000
 40
5.000000000000000
 50
0.000000000000000
 51
180.000000000000000
  0
ARC
  8
0
  6
CONTINUOUS
 62
256
 10
-37.911943000000001
 20
-111.954269000000000
 40
5.000000000000000
 50
0.000000000000000
 51
180.000000000000000
  0
ARC
  8
0
  6
CONTINUOUS
 62
256
 10
42.088538000000000
 20
-40.953656000000002
 40
5.000000000000000
 50
180.000000000000000
 51
0.000000000000000
  0
ARC
  8
0
  6
CONTINUOUS
 62
256
 10
-37.911943000000001
 20
-40.953656000000002
 40
5.000000000000000
 50
180.000000000000000
 51
0.000000000000000
  0
ARC
  8
0
  6
CONTINUOUS
 62
256
 10
-10.911702000000000
 20
-44.453961999999997
 40
9.000000000000002
 50
265.011458000000000
 51
8.752928999999986
  0
ARC
  8
0
  6
CONTINUOUS
 62
256
 10
-11.911702000000000
 20
-55.910401000000000
 40
2.500000000000004
 50
85.011458000000005
 51
180.000000000000000
  0
LINE
  8
0
  6
CONTINUOUS
 62
256
 10
-14.411702000000000
 20
-55.910401000000000
 11
-14.411702000000000
 21
-96.997523000000001
  0
ARC
  8
0
  6
CONTINUOUS
 62
256
 10
-11.911702000000000
 20
-96.997523000000001
 40
2.500000000000000
 50
180.000000000000000
 51
274.988541999999940
  0
ARC
  8
0
  6
CONTINUOUS
 62
256
 10
-10.911702000000000
 20
-108.453962000000000
 40
9.000000000000000
 50
351.247071000000060
 51
94.988541999999995
  0
LINE
  8
0
  6
CONTINUOUS
 62
256
 10
-66.412046000000004
 20
-58.561863000000002
 11
-73.412046000000004
 21
-58.561863000000002
  0
LINE
  8
0
  6
CONTINUOUS
 62
256
 10
-76.412046000000004
 20
-92.454029000000006
 11
-76.412046000000004
 21
-53.024377999999999
  0
LINE
  8
0
  6
CONTINUOUS
 62
256
 10
-73.412046000000004
 20
-47.954028999999998
 11
-68.412046000000004
 21
-47.954028999999998
  0
LINE
  8
0
  6
CONTINUOUS
 62
256
 10
-74.412046000000004
 20
-51.024377999999999
 11
-68.412046000000004
 21
-51.024377999999999
  0
LINE
  8
0
  6
CONTINUOUS
 62
256
 10
-76.412046000000004
 20
-44.954028999999998
 11
-76.412046000000004
 21
-41.919575999999999
  0
LINE
  8
0
  6
CONTINUOUS
 62
256
 10
-76.412046000000004
 20
-139.954028999999990
 11
-76.412046000000004
 21
-142.988482000000000
  0
LINE
  8
0
  6
CONTINUOUS
 62
256
 10
-73.412046000000004
 20
-136.954028999999990
 11
-68.412046000000004
 21
-136.954028999999990
  0
LINE
  8
0
  6
CONTINUOUS
 62
256
 10
-74.412046000000004
 20
-133.883681000000000
 11
-68.412046000000004
 21
-133.883681000000000
  0
LINE
  8
0
  6
CONTINUOUS
 62
256
 10
-76.412046000000004
 20
-92.454029000000006
 11
-76.412046000000004
 21
-131.883681000000000
  0
LINE
  8
0
  6
CONTINUOUS
 62
256
 10
-66.412046000000004
 20
-126.346194999999990
 11
-73.412046000000004
 21
-126.346194999999990
  0
ARC
  8
0
  6
CONTINUOUS
 62
256
 10
-73.412046000000004
 20
-61.561863000000002
 40
3.000000000000000
 50
90.000000000000000
 51
180.000000000000000
  0
ARC
  8
0
  6
CONTINUOUS
 62
256
 10
-73.412046000000004
 20
-44.954028999999998
 40
3.000000000000000
 50
180.000000000000000
 51
270.000000000000000
  0
ARC
  8
0
  6
CONTINUOUS
 62
256
 10
-74.412046000000004
 20
-53.024377999999999
 40
2.000000000000000
 50
90.000000000000000
 51
180.000000000000000
  0
ARC
  8
0
  6
CONTINUOUS
 62
256
 10
-68.412046000000004
 20
-56.024377999999999
 40
5.000000000000000
 50
0.000000000000000
 51
90.000000000000000
  0
ARC
  8
0
  6
CONTINUOUS
 62
256
 10
-68.412046000000004
 20
-52.954028999999998
 40
5.000000000000000
 50
0.000000000000000
 51
90.000000000000000
  0
ARC
  8
0
  6
CONTINUOUS
 62
256
 10
-66.412046000000004
 20
-61.561863000000002
 40
3.000000000000000
 50
0.000000000000000
 51
90.000000000000000
  0
ARC
  8
0
  6
CONTINUOUS
 62
256
 10
-79.412046000000004
 20
-41.919575999999999
 40
3.000000000000000
 50
0.000000000000000
 51
90.999999999999872
  0
ARC
  8
0
  6
CONTINUOUS
 62
256
 10
-79.412046000000004
 20
-142.988482000000000
 40
3.000000000000011
 50
269.000000000000110
 51
0.000000000000000
  0
ARC
  8
0
  6
CONTINUOUS
 62
256
 10
-73.412046000000004
 20
-139.954028999999990
 40
3.000000000000000
 50
90.000000000000000
 51
180.000000000000000
  0
ARC
  8
0
  6
CONTINUOUS
 62
256
 10
-74.412046000000004
 20
-131.883681000000000
 40
2.000000000000000
 50
180.000000000000000
 51
270.000000000000000
  0
ARC
  8
0
  6
CONTINUOUS
 62
256
 10
-68.412046000000004
 20
-128.883681000000000
 40
5.000000000000000
 50
270.000000000000000
 51
0.000000000000000
  0
ARC
  8
0
  6
CONTINUOUS
 62
256
 10
-68.412046000000004
 20
-131.954028999999990
 40
5.000000000000000
 50
270.000000000000000
 51
0.000000000000000
  0
ARC
  8
0
  6
CONTINUOUS
 62
256
 10
-73.412046000000004
 20
-123.346194999999990
 40
3.000000000000000
 50
180.000000000000000
 51
270.000000000000000
  0
ARC
  8
0
  6
CONTINUOUS
 62
256
 10
-66.412046000000004
 20
-123.346194999999990
 40
3.000000000000000
 50
270.000000000000000
 51
0.000000000000000
  0
LINE
  8
0
  6
CONTINUOUS
 62
256
 10
-76.412046000000004
 20
-72.454029000000006
 11
-81.412046000000004
 21
-72.454029000000006
  0
LINE
  8
0
  6
CONTINUOUS
 62
256
 10
-76.412046000000004
 20
-112.454029000000010
 11
-81.412046000000004
 21
-112.454029000000010
  0
ARC
  8
0
  6
CONTINUOUS
 62
256
 10
-51.911701999999998
 20
-41.453961999999997
 40
5.000000000000000
 50
90.000000000000000
 51
180.000000000000000
  0
ARC
  8
0
  6
CONTINUOUS
 62
256
 10
56.088298000000002
 20
-111.453962000000000
 40
5.000000000000000
 50
270.000000000000000
 51
0.000000000000000
  0
ARC
  8
0
  6
CONTINUOUS
 62
256
 10
56.088298000000002
 20
-41.453961999999997
 40
5.000000000000000
 50
0.000000000000000
 51
90.000000000000000
  0
ARC
  8
0
  6
CONTINUOUS
 62
256
 10
-52.602508000000000
 20
-119.453962000000000
 40
3.000000000000000
 50
90.000000000000000
 51
165.523149000000100
  0
ARC
  8
0
  6
CONTINUOUS
 62
256
 10
-58.412000999999997
 20
-117.954029000000010
 40
3.000000000000000
 50
270.000000000000000
 51
345.523148999999820
  0
ARC
  8
0
  6
CONTINUOUS
 62
256
 10
-51.911701999999998
 20
-111.453962000000000
 40
5.000000000000000
 50
180.000000000000000
 51
270.000000000000000
  0
ARC
  8
0
  6
CONTINUOUS
 62
256
 10
-57.155495999999999
 20
-35.412221000000002
 40
3.000000000000001
 50
271.277815999999970
 51
310.955611999999970
  0
ARC
  8
0
  6
CONTINUOUS
 62
256
 10
-66.412046000000004
 20
-143.232853000000010
 40
3.000000000000011
 50
269.000000000000110
 51
0.000000000000000
  0
ARC
  8
0
  6
CONTINUOUS
 62
256
 10
-60.412045999999997
 20
-119.453962000000000
 40
3.000000000000000
 50
90.000000000000000
 51
180.000000000000000
  0
ARC
  8
0
  6
CONTINUOUS
 62
256
 10
-60.412045999999997
 20
-123.954029000000010
 40
3.000000000000000
 50
90.000000000000000
 51
180.000000000000000
  0
ARC
  8
0
  6
CONTINUOUS
 62
256
 10
-66.412046000000004
 20
-41.620189000000003
 40
3.000000000000000
 50
0.000000000000000
 51
91.277816000000129
  0
LINE
  8
0
  6
CONTINUOUS
 62
256
 10
-27.595175000000001
 20
-116.453962000000000
 11
-60.412045999999997
 21
-116.453962000000000
  0
LINE
  8
0
  6
CONTINUOUS
 62
256
 10
56.088298000000002
 20
-36.453961999999997
 11
-51.911701999999998
 21
-36.453961999999997
  0
LINE
  8
0
  6
CONTINUOUS
 62
256
 10
61.088298000000002
 20
-41.453961999999997
 11
61.088298000000002
 21
-111.453962000000000
  0
LINE
  8
0
  6
CONTINUOUS
 62
256
 10
56.088298000000002
 20
-116.453962000000000
 11
-27.595175000000001
 21
-116.453962000000000
  0
LINE
  8
0
  6
CONTINUOUS
 62
256
 10
-56.911701999999998
 20
-107.954029000000010
 11
-56.911701999999998
 21
-111.453962000000000
  0
LINE
  8
0
  6
CONTINUOUS
 62
256
 10
-58.412000999999997
 20
-120.954029000000010
 11
-60.412045999999997
 21
-120.954029000000010
  0
LINE
  8
0
  6
CONTINUOUS
 62
256
 10
-56.911701999999998
 20
-111.453962000000000
 11
-56.911701999999998
 21
-41.453961999999997
  0
LINE
  8
0
  6
CONTINUOUS
 62
256
 10
-57.088594999999998
 20
-38.411475000000003
 11
-81.412046000000004
 21
-38.954028999999998
  0
LINE
  8
0
  6
CONTINUOUS
 62
256
 10
-81.412046000000004
 20
-145.971484000000000
 11
-66.464403000000004
 21
-146.232395999999990
  0
LINE
  8
0
  6
CONTINUOUS
 62
256
 10
-63.412045999999997
 20
-143.232853000000010
 11
-63.412045999999997
 21
-41.620189000000003
  0
POINT
  8
0
  6
CONTINUOUS
 62
256
 10
-55.412045999999997
 20
-119.453962000000000
  0
POINT
  8
0
  6
CONTINUOUS
 62
256
 10
-63.412045999999997
 20
-146.285675000000000
  0
LINE
  8
0
  6
CONTINUOUS
 62
256
 10
-351.774849000000020
 20
-149.755478000000010
 11
-351.774849000000020
 21
-149.954028999999990
  0
LINE
  8
0
  6
CONTINUOUS
 62
256
 10
-351.774849000000020
 20
-149.954028999999990
 11
-350.262835000000000
 21
-149.954028999999990
  0
ARC
  8
0
  6
CONTINUOUS
 62
256
 10
-274.852901999999970
 20
-53.023161999999999
 40
6.599999999999972
 50
5.743682000000001
 51
44.999999999999829
  0
ARC
  8
0
  6
CONTINUOUS
 62
256
 10
-666.874849000000040
 20
-92.454029000000006
 40
400.600000000000020
 50
0.000000000000000
 51
5.743682000000000
  0
ARC
  8
0
  6
CONTINUOUS
 62
256
 10
-292.211092000000010
 20
-55.463962000000002
 40
20.599999999999994
 50
45.000000000000014
 51
84.247716999999938
  0
LINE
  8
0
  6
CONTINUOUS
 62
256
 10
-277.644692000000020
 20
-40.897562000000001
 11
-270.185996999999990
 21
-48.356256999999999
  0
ARC
  8
0
  6
CONTINUOUS
 62
256
 10
-320.274849000000020
 20
-334.054029000000010
 40
300.600000000000020
 50
84.247716999999994
 51
90.000000000000000
  0
ARC
  8
0
  6
CONTINUOUS
 62
256
 10
-365.696796000000010
 20
-53.023161999999999
 40
6.600000000000017
 50
135.000000000000170
 51
174.256317999999940
  0
ARC
  8
0
  6
CONTINUOUS
 62
256
 10
26.325151000000002
 20
-92.454029000000006
 40
400.600000000000080
 50
174.256317999999990
 51
180.000000000000000
  0
ARC
  8
0
  6
CONTINUOUS
 62
256
 10
-348.338604999999970
 20
-55.463962000000002
 40
20.600000000000001
 50
95.752283000000077
 51
135.000000000000000
  0
LINE
  8
0
  6
CONTINUOUS
 62
256
 10
-362.905005000000020
 20
-40.897562000000001
 11
-370.363699999999990
 21
-48.356256999999999
  0
ARC
  8
0
  6
CONTINUOUS
 62
256
 10
-320.274849000000020
 20
-334.054029000000010
 40
300.600000000000020
 50
90.000000000000000
 51
95.752283000000006
  0
ARC
  8
0
  6
CONTINUOUS
 62
256
 10
-365.696796000000010
 20
-131.884896000000000
 40
6.599999999999971
 50
185.743681999999920
 51
224.999999999999830
  0
ARC
  8
0
  6
CONTINUOUS
 62
256
 10
26.325151000000002
 20
-92.454029000000006
 40
400.600000000000020
 50
180.000000000000000
 51
185.743681999999980
  0
ARC
  8
0
  6
CONTINUOUS
 62
256
 10
-348.338604999999970
 20
-129.444096000000000
 40
20.599999999999991
 50
225.000000000000000
 51
264.247716999999910
  0
LINE
  8
0
  6
CONTINUOUS
 62
256
 10
-362.905005000000020
 20
-144.010495999999990
 11
-370.363699999999990
 21
-136.551801000000010
  0
ARC
  8
0
  6
CONTINUOUS
 62
256
 10
-320.274849000000020
 20
149.145971000000000
 40
300.600000000000020
 50
264.247717000000020
 51
270.000000000000000
  0
ARC
  8
0
  6
CONTINUOUS
 62
256
 10
-320.274849000000020
 20
149.145971000000000
 40
290.797000000000030
 50
270.000000000000000
 51
275.752282999999980
  0
LINE
  8
0
  6
CONTINUOUS
 62
256
 10
-284.576460000000000
 20
-137.078728000000010
 11
-278.689046000000020
 21
-131.191315000000000
  0
ARC
  8
0
  6
CONTINUOUS
 62
256
 10
-292.211092000000010
 20
-129.444096000000000
 40
10.796999999999988
 50
275.752283000000030
 51
315.000000000000000
  0
LINE
  8
0
  6
CONTINUOUS
 62
256
 10
-290.282350000000010
 20
-149.954028999999990
 11
-288.774849000000020
 21
-149.954028999999990
  0
LINE
  8
0
  6
CONTINUOUS
 62
256
 10
-288.774849000000020
 20
-149.755478000000010
 11
-288.774849000000020
 21
-149.954028999999990
  0
ARC
  8
0
  6
CONTINUOUS
 62
256
 10
-320.274849000000020
 20
149.145971000000000
 40
300.600000000000020
 50
270.000000000000000
 51
275.752282999999980
  0
LINE
  8
0
  6
CONTINUOUS
 62
256
 10
-277.644692000000020
 20
-144.010495999999990
 11
-270.185996999999990
 21
-136.551801000000010
  0
ARC
  8
0
  6
CONTINUOUS
 62
256
 10
-292.211092000000010
 20
-129.444096000000000
 40
20.599999999999991
 50
275.752282999999860
 51
315.000000000000000
  0
LINE
  8
0
  6
CONTINUOUS
 62
256
 10
-322.774849000000020
 20
-179.954028999999990
 11
-317.774849000000020
 21
-179.954028999999990
  0
LINE
  8
0
  6
CONTINUOUS
 62
256
 10
-322.774849000000020
 20
-179.443612000000000
 11
-322.774849000000020
 21
-179.954028999999990
  0
LINE
  8
0
  6
CONTINUOUS
 62
256
 10
-317.774849000000020
 20
-179.443612000000000
 11
-317.774849000000020
 21
-179.954028999999990
  0
ARC
  8
0
  6
CONTINUOUS
 62
256
 10
-320.274849000000020
 20
120.545970999999990
 40
300.000000000000000
 50
265.138595000000010
 51
274.861404999999990
  0
LINE
  8
0
  6
CONTINUOUS
 62
256
 10
-290.274849000000020
 20
-149.954028999999990
 11
-290.274849000000020
 21
-173.392798000000000
  0
LINE
  8
0
  6
CONTINUOUS
 62
256
 10
-350.274849000000020
 20
-149.954028999999990
 11
-350.274849000000020
 21
-173.392798000000000
  0
ARC
  8
0
  6
CONTINUOUS
 62
256
 10
-295.274849000000020
 20
-173.392798000000000
 40
4.999999999999989
 50
274.861405000000100
 51
0.000000000000000
  0
ARC
  8
0
  6
CONTINUOUS
 62
256
 10
-345.274849000000020
 20
-173.392798000000000
 40
5.000000000000000
 50
180.000000000000000
 51
265.138594999999900
  0
ARC
  8
0
  6
CONTINUOUS
 62
256
 10
-320.274849000000020
 20
-334.054029000000010
 40
290.797000000000030
 50
84.998350000000002
 51
90.000000000000000
  0
LINE
  8
0
  6
CONTINUOUS
 62
256
 10
-282.029351000000020
 20
-50.376438999999998
 11
-278.689046000000020
 21
-53.716743999999998
  0
ARC
  8
0
  6
CONTINUOUS
 62
256
 10
-296.735051000000000
 20
-65.082138999999998
 40
20.797000000000008
 50
44.999999999999972
 51
84.998349999999959
  0
ARC
  8
0
  6
CONTINUOUS
 62
256
 10
-666.874849000000040
 20
-92.454029000000006
 40
390.797000000000030
 50
0.000000000000000
 51
5.417964000000000
  0
ARC
  8
0
  6
CONTINUOUS
 62
256
 10
-280.810366999999990
 20
-55.838064000000003
 40
2.999999999999997
 50
5.417964000000066
 51
44.999999999999808
  0
ARC
  8
0
  6
CONTINUOUS
 62
256
 10
-320.274849000000020
 20
-334.054029000000010
 40
290.797000000000030
 50
90.000000000000000
 51
95.001649999999998
  0
LINE
  8
0
  6
CONTINUOUS
 62
256
 10
-358.520346000000020
 20
-50.376438999999998
 11
-361.860651000000020
 21
-53.716743999999998
  0
ARC
  8
0
  6
CONTINUOUS
 62
256
 10
-343.814645999999980
 20
-65.082138999999998
 40
20.797000000000001
 50
95.001650000000041
 51
135.000000000000030
  0
ARC
  8
0
  6
CONTINUOUS
 62
256
 10
26.325151000000002
 20
-92.454029000000006
 40
390.797000000000030
 50
174.582035999999990
 51
180.000000000000000
  0
ARC
  8
0
  6
CONTINUOUS
 62
256
 10
-359.739330999999990
 20
-55.838064000000003
 40
3.000000000000014
 50
135.000000000000200
 51
174.582035999999930
  0
ARC
  8
0
  6
CONTINUOUS
 62
256
 10
-320.274849000000020
 20
149.145971000000000
 40
290.797000000000030
 50
264.998350000000070
 51
270.000000000000000
  0
LINE
  8
0
  6
CONTINUOUS
 62
256
 10
-358.520346000000020
 20
-134.531620000000000
 11
-361.860651000000020
 21
-131.191315000000000
  0
ARC
  8
0
  6
CONTINUOUS
 62
256
 10
-343.814645999999980
 20
-119.825920000000000
 40
20.797000000000015
 50
225.000000000000000
 51
264.998350000000070
  0
ARC
  8
0
  6
CONTINUOUS
 62
256
 10
26.325151000000002
 20
-92.454029000000006
 40
390.797000000000030
 50
180.000000000000000
 51
185.417963999999980
  0
ARC
  8
0
  6
CONTINUOUS
 62
256
 10
-359.739330999999990
 20
-129.069994000000010
 40
2.999999999999998
 50
185.417964000000180
 51
224.999999999999630
  0
ARC
  8
0
  6
CONTINUOUS
 62
256
 10
-280.810366999999990
 20
-129.069994000000010
 40
3.000000000000004
 50
315.000000000000340
 51
354.582035999999790
  0
ARC
  8
0
  6
CONTINUOUS
 62
256
 10
-666.874849000000040
 20
-92.454029000000006
 40
390.797000000000030
 50
354.582036000000020
 51
0.000000000000000
  0
ARC
  8
0
  6
CONTINUOUS
 62
256
 10
-274.852901999999970
 20
-131.884896000000000
 40
6.600000000000017
 50
315.000000000000170
 51
354.256318000000020
  0
ARC
  8
0
  6
CONTINUOUS
 62
256
 10
-666.874849000000040
 20
-92.454029000000006
 40
400.600000000000020
 50
354.256318000000020
 51
0.000000000000000
  0
ARC
  8
0
  6
CONTINUOUS
 62
256
 10
-355.099408999999980
 20
-88.954029000000006
 40
1.000000000000000
 50
270.000000000000000
 51
354.260829999999540
  0
ARC
  8
0
  6
CONTINUOUS
 62
256
 10
-358.113320999999980
 20
-88.954029000000006
 40
1.000000000000027
 50
174.715267000000240
 51
270.000000000000000
  0
ARC
  8
0
  6
CONTINUOUS
 62
256
 10
-349.566486000000000
 20
-88.954029000000006
 40
1.000000000000019
 50
173.186146000000240
 51
270.000000000000000
  0
LINE
  8
0
  6
CONTINUOUS
 62
256
 10
-358.113320999999980
 20
-89.954029000000006
 11
-355.099408999999980
 21
-89.954029000000006
  0
ARC
  8
0
  6
CONTINUOUS
 62
256
 10
-326.071981999999990
 20
-75.413100999999997
 40
0.999999999999984
 50
210.000000000000510
 51
288.787729000000750
  0
LINE
  8
0
  6
CONTINUOUS
 62
256
 10
-328.462924999999980
 20
-73.271865000000005
 11
-326.938007000000030
 21
-75.913100999999997
  0
ARC
  8
0
  6
CONTINUOUS
 62
256
 10
-327.596899000000010
 20
-72.771865000000005
 40
0.999999999999993
 50
110.405931999999860
 51
210.000000000000510
  0
ARC
  8
0
  6
CONTINUOUS
 62
256
 10
-330.377684999999990
 20
-67.955403000000004
 40
0.999999999999984
 50
210.000000000000510
 51
292.410458000000400
  0
ARC
  8
0
  6
CONTINUOUS
 62
256
 10
-334.656040000000020
 20
-60.545074999999997
 40
0.999999999999984
 50
210.000000000000510
 51
294.260829999998690
  0
LINE
  8
0
  6
CONTINUOUS
 62
256
 10
-332.755604000000010
 20
-65.836726999999996
 11
-331.243711000000020
 21
-68.455403000000004
  0
ARC
  8
0
  6
CONTINUOUS
 62
256
 10
-331.889577999999970
 20
-65.336726999999996
 40
1.000000000000000
 50
113.186146000000120
 51
210.000000000000510
  0
LINE
  8
0
  6
CONTINUOUS
 62
256
 10
-337.029022000000000
 20
-58.434950999999998
 11
-335.522065000000000
 21
-61.045074999999997
  0
ARC
  8
0
  6
CONTINUOUS
 62
256
 10
-336.162996000000020
 20
-57.934950999999998
 40
1.000000000000004
 50
114.715267000000150
 51
210.000000000000510
  0
ARC
  8
0
  6
CONTINUOUS
 62
256
 10
-342.225173999999980
 20
-61.434950999999998
 40
0.999999999999984
 50
30.000000000000544
 51
125.284733000000970
  0
ARC
  8
0
  6
CONTINUOUS
 62
256
 10
-340.718217999999980
 20
-64.045074999999997
 40
0.999999999999998
 50
305.739170000000230
 51
30.000000000000544
  0
ARC
  8
0
  6
CONTINUOUS
 62
256
 10
-346.542700000000020
 20
-88.954029000000006
 40
1.000000000000000
 50
270.000000000000000
 51
352.410458000000010
  0
ARC
  8
0
  6
CONTINUOUS
 62
256
 10
-337.951755999999990
 20
-68.836726999999996
 40
0.999999999999984
 50
30.000000000000544
 51
126.813854000000730
  0
ARC
  8
0
  6
CONTINUOUS
 62
256
 10
-336.439863000000000
 20
-71.455403000000004
 40
0.999999999999993
 50
307.589541999998800
 51
30.000000000000544
  0
ARC
  8
0
  6
CONTINUOUS
 62
256
 10
-340.981128000000010
 20
-88.954029000000006
 40
0.999999999999978
 50
170.405932000000040
 51
270.000000000000000
  0
ARC
  8
0
  6
CONTINUOUS
 62
256
 10
-337.931291999999980
 20
-88.954029000000006
 40
1.000000000000000
 50
270.000000000000000
 51
348.787729000000300
  0
ARC
  8
0
  6
CONTINUOUS
 62
256
 10
-333.659077000000020
 20
-76.271865000000005
 40
0.999999999999984
 50
30.000000000000544
 51
129.594067999999310
  0
ARC
  8
0
  6
CONTINUOUS
 62
256
 10
-332.134159000000010
 20
-78.913100999999997
 40
1.000000000000006
 50
311.212270999999760
 51
30.000000000000544
  0
ARC
  8
0
  6
CONTINUOUS
 62
256
 10
-329.305938000000030
 20
-83.811723999999998
 40
0.999999999999984
 50
30.000000000000544
 51
136.260205000000240
  0
ARC
  8
0
  6
CONTINUOUS
 62
256
 10
-332.274849000000020
 20
-88.954029000000006
 40
0.999999999999976
 50
163.739794999999330
 51
270.000000000000000
  0
ARC
  8
0
  6
CONTINUOUS
 62
256
 10
-329.106609999999990
 20
-88.954029000000006
 40
1.000000000000000
 50
270.000000000000000
 51
338.381728000000520
  0
ARC
  8
0
  6
CONTINUOUS
 62
256
 10
-327.721817999999980
 20
-86.555499999999995
 40
0.999999999999985
 50
321.618271999998970
 51
30.000000000000544
  0
ARC
  8
0
  6
CONTINUOUS
 62
256
 10
-320.274849000000020
 20
-92.454029000000006
 40
39.000000000000000
 50
125.284733000000000
 51
174.715267000000010
  0
ARC
  8
0
  6
CONTINUOUS
 62
256
 10
-320.274849000000020
 20
-92.454029000000006
 40
30.499999999999982
 50
126.813853999999980
 51
173.186145999999980
  0
ARC
  8
0
  6
CONTINUOUS
 62
256
 10
-320.274849000000020
 20
-92.454029000000006
 40
34.000000000000007
 50
125.739170000000040
 51
174.260830000000000
  0
ARC
  8
0
  6
CONTINUOUS
 62
256
 10
-320.274849000000020
 20
-92.454029000000006
 40
25.499999999999996
 50
127.589541999999970
 51
172.410458000000010
  0
ARC
  8
0
  6
CONTINUOUS
 62
256
 10
-320.274849000000020
 20
-92.454029000000006
 40
21.999999999999986
 50
129.594067999999940
 51
170.405931999999980
  0
ARC
  8
0
  6
CONTINUOUS
 62
256
 10
-320.274849000000020
 20
-92.454029000000006
 40
17.000000000000014
 50
131.212271000000020
 51
168.787728999999980
  0
ARC
  8
0
  6
CONTINUOUS
 62
256
 10
-320.274849000000020
 20
-92.454029000000006
 40
13.500000000000004
 50
136.260205000000010
 51
163.739794999999960
  0
ARC
  8
0
  6
CONTINUOUS
 62
256
 10
-320.274849000000020
 20
-92.454029000000006
 40
8.500000000000005
 50
141.618272000000020
 51
158.381728000000040
  0
LINE
  8
0
  6
CONTINUOUS
 62
256
 10
-337.085731000000010
 20
-68.336726999999996
 11
-335.573838000000020
 21
-70.955403000000004
  0
LINE
  8
0
  6
CONTINUOUS
 62
256
 10
-341.359149000000000
 20
-60.934950999999998
 11
-339.852192000000000
 21
-63.545074999999997
  0
LINE
  8
0
  6
CONTINUOUS
 62
256
 10
-332.793051999999990
 20
-75.771865000000005
 11
-331.268133999999980
 21
-78.413100999999997
  0
LINE
  8
0
  6
CONTINUOUS
 62
256
 10
-328.439911999999990
 20
-83.311723999999998
 11
-326.855793000000010
 21
-86.055499999999995
  0
LINE
  8
0
  6
CONTINUOUS
 62
256
 10
-332.274849000000020
 20
-89.954029000000006
 11
-329.106609999999990
 21
-89.954029000000006
  0
LINE
  8
0
  6
CONTINUOUS
 62
256
 10
-340.981128000000010
 20
-89.954029000000006
 11
-337.931291999999980
 21
-89.954029000000006
  0
LINE
  8
0
  6
CONTINUOUS
 62
256
 10
-349.566486000000000
 20
-89.954029000000006
 11
-346.542700000000020
 21
-89.954029000000006
  0
ARC
  8
0
  6
CONTINUOUS
 62
256
 10
-321.659640000000020
 20
-83.055499999999995
 40
0.999999999999984
 50
210.000000000000510
 51
278.381727999998870
  0
ARC
  8
0
  6
CONTINUOUS
 62
256
 10
-320.274849000000020
 20
-92.454029000000006
 40
8.500000000000002
 50
81.618271999999948
 51
98.381728000000052
  0
LINE
  8
0
  6
CONTINUOUS
 62
256
 10
-324.109784999999990
 20
-80.811723999999998
 11
-322.525666000000000
 21
-83.555499999999995
  0
ARC
  8
0
  6
CONTINUOUS
 62
256
 10
-323.243760000000010
 20
-80.311723999999998
 40
1.000000000000011
 50
103.739795000001280
 51
210.000000000000510
  0
ARC
  8
0
  6
CONTINUOUS
 62
256
 10
-302.618405000000000
 20
-88.954029000000006
 40
1.000000000000016
 50
191.212270999999730
 51
270.000000000000000
  0
LINE
  8
0
  6
CONTINUOUS
 62
256
 10
-299.568570000000020
 20
-89.954029000000006
 11
-302.618405000000000
 21
-89.954029000000006
  0
ARC
  8
0
  6
CONTINUOUS
 62
256
 10
-299.568570000000020
 20
-88.954029000000006
 40
1.000000000000000
 50
270.000000000000000
 51
9.594067999999961
  0
ARC
  8
0
  6
CONTINUOUS
 62
256
 10
-294.006998000000010
 20
-88.954029000000006
 40
0.999999999999990
 50
187.589541999999990
 51
270.000000000000000
  0
LINE
  8
0
  6
CONTINUOUS
 62
256
 10
-290.983211999999980
 20
-89.954029000000006
 11
-294.006998000000010
 21
-89.954029000000006
  0
ARC
  8
0
  6
CONTINUOUS
 62
256
 10
-290.983211999999980
 20
-88.954029000000006
 40
1.000000000000000
 50
270.000000000000000
 51
6.813853999999752
  0
ARC
  8
0
  6
CONTINUOUS
 62
256
 10
-285.450288000000000
 20
-88.954029000000006
 40
0.999999999999978
 50
185.739170000000430
 51
270.000000000000000
  0
LINE
  8
0
  6
CONTINUOUS
 62
256
 10
-282.436376000000000
 20
-89.954029000000006
 11
-285.450288000000000
 21
-89.954029000000006
  0
ARC
  8
0
  6
CONTINUOUS
 62
256
 10
-282.436376000000000
 20
-88.954029000000006
 40
1.000000000000000
 50
270.000000000000000
 51
5.284732999999778
  0
ARC
  8
0
  6
CONTINUOUS
 62
256
 10
-302.597940999999990
 20
-68.836726999999996
 40
1.000000000000011
 50
53.186145999999269
 51
149.999999999999460
  0
LINE
  8
0
  6
CONTINUOUS
 62
256
 10
-303.463967000000030
 20
-68.336726999999996
 11
-304.975860000000010
 21
-70.955403000000004
  0
ARC
  8
0
  6
CONTINUOUS
 62
256
 10
-304.109833999999980
 20
-71.455403000000004
 40
0.999999999999984
 50
149.999999999999460
 51
232.410458000001200
  0
ARC
  8
0
  6
CONTINUOUS
 62
256
 10
-298.324524000000000
 20
-61.434950999999998
 40
1.000000000000016
 50
54.715266999999017
 51
149.999999999999460
  0
LINE
  8
0
  6
CONTINUOUS
 62
256
 10
-299.190548999999980
 20
-60.934950999999998
 11
-300.697504999999980
 21
-63.545074999999997
  0
ARC
  8
0
  6
CONTINUOUS
 62
256
 10
-299.831480000000000
 20
-64.045074999999997
 40
0.999999999999984
 50
149.999999999999460
 51
234.260829999999740
  0
ARC
  8
0
  6
CONTINUOUS
 62
256
 10
-312.827879000000000
 20
-86.555499999999995
 40
0.999999999999984
 50
149.999999999999460
 51
218.381728000001000
  0
LINE
  8
0
  6
CONTINUOUS
 62
256
 10
-312.109784999999990
 20
-83.311723999999998
 11
-313.693904999999970
 21
-86.055499999999995
  0
ARC
  8
0
  6
CONTINUOUS
 62
256
 10
-308.415538000000030
 20
-78.913100999999997
 40
0.999999999999984
 50
149.999999999999460
 51
228.787728999999730
  0
LINE
  8
0
  6
CONTINUOUS
 62
256
 10
-307.756645999999990
 20
-75.771865000000005
 11
-309.281563000000010
 21
-78.413100999999997
  0
ARC
  8
0
  6
CONTINUOUS
 62
256
 10
-306.890620000000010
 20
-76.271865000000005
 40
0.999999999999988
 50
50.405932000000682
 51
149.999999999999460
  0
ARC
  8
0
  6
CONTINUOUS
 62
256
 10
-311.443087999999990
 20
-88.954029000000006
 40
1.000000000000013
 50
201.618271999999450
 51
270.000000000000000
  0
ARC
  8
0
  6
CONTINUOUS
 62
256
 10
-320.274849000000020
 20
-92.454029000000006
 40
8.500000000000016
 50
21.618271999999980
 51
38.381727999999960
  0
ARC
  8
0
  6
CONTINUOUS
 62
256
 10
-311.243760000000010
 20
-83.811723999999998
 40
1.000000000000005
 50
43.739794999999773
 51
149.999999999999460
  0
LINE
  8
0
  6
CONTINUOUS
 62
256
 10
-308.274849000000020
 20
-89.954029000000006
 11
-311.443087999999990
 21
-89.954029000000006
  0
ARC
  8
0
  6
CONTINUOUS
 62
256
 10
-308.274849000000020
 20
-88.954029000000006
 40
1.000000000000000
 50
270.000000000000000
 51
16.260205000000671
  0
ARC
  8
0
  6
CONTINUOUS
 62
256
 10
-320.274849000000020
 20
-92.454029000000006
 40
13.499999999999989
 50
16.260205000000035
 51
43.739795000000001
  0
ARC
  8
0
  6
CONTINUOUS
 62
256
 10
-320.274849000000020
 20
-92.454029000000006
 40
16.999999999999993
 50
11.212271000000010
 51
48.787728999999970
  0
ARC
  8
0
  6
CONTINUOUS
 62
256
 10
-320.274849000000020
 20
-92.454029000000006
 40
21.999999999999979
 50
9.594068000000020
 51
50.405932000000064
  0
ARC
  8
0
  6
CONTINUOUS
 62
256
 10
-320.274849000000020
 20
-92.454029000000006
 40
30.499999999999986
 50
6.813854000000005
 51
53.186146000000029
  0
ARC
  8
0
  6
CONTINUOUS
 62
256
 10
-320.274849000000020
 20
-92.454029000000006
 40
25.500000000000011
 50
7.589541999999985
 51
52.410458000000027
  0
ARC
  8
0
  6
CONTINUOUS
 62
256
 10
-320.274849000000020
 20
-92.454029000000006
 40
34.000000000000028
 50
5.739170000000004
 51
54.260829999999984
  0
ARC
  8
0
  6
CONTINUOUS
 62
256
 10
-320.274849000000020
 20
-92.454029000000006
 40
38.999999999999986
 50
5.284733000000007
 51
54.715266999999990
  0
ARC
  8
0
  6
CONTINUOUS
 62
256
 10
-308.660119000000010
 20
-65.336726999999996
 40
0.999999999999984
 50
329.999999999999490
 51
66.813853999999878
  0
LINE
  8
0
  6
CONTINUOUS
 62
256
 10
-307.794093999999970
 20
-65.836726999999996
 11
-309.305987000000020
 21
-68.455403000000004
  0
ARC
  8
0
  6
CONTINUOUS
 62
256
 10
-310.172012000000000
 20
-67.955403000000004
 40
1.000000000000009
 50
247.589541999999540
 51
329.999999999999490
  0
ARC
  8
0
  6
CONTINUOUS
 62
256
 10
-304.386701000000020
 20
-57.934950999999998
 40
0.999999999999984
 50
329.999999999999490
 51
65.284732999999861
  0
LINE
  8
0
  6
CONTINUOUS
 62
256
 10
-303.520675999999980
 20
-58.434950999999998
 11
-305.027631999999980
 21
-61.045074999999997
  0
ARC
  8
0
  6
CONTINUOUS
 62
256
 10
-305.893658000000020
 20
-60.545074999999997
 40
0.999999999999992
 50
245.739170000001340
 51
329.999999999999490
  0
ARC
  8
0
  6
CONTINUOUS
 62
256
 10
-318.890057000000010
 20
-83.055499999999995
 40
0.999999999999998
 50
261.618272000001130
 51
329.999999999999490
  0
LINE
  8
0
  6
CONTINUOUS
 62
256
 10
-316.439911999999990
 20
-80.811723999999998
 11
-318.024031999999980
 21
-83.555499999999995
  0
ARC
  8
0
  6
CONTINUOUS
 62
256
 10
-314.477715999999990
 20
-75.413100999999997
 40
1.000000000000010
 50
251.212270999999220
 51
329.999999999999490
  0
LINE
  8
0
  6
CONTINUOUS
 62
256
 10
-312.086772999999990
 20
-73.271865000000005
 11
-313.611691000000010
 21
-75.913100999999997
  0
ARC
  8
0
  6
CONTINUOUS
 62
256
 10
-312.952797999999970
 20
-72.771865000000005
 40
0.999999999999984
 50
329.999999999999490
 51
69.594068000000149
  0
ARC
  8
0
  6
CONTINUOUS
 62
256
 10
-317.305938000000030
 20
-80.311723999999998
 40
0.999999999999984
 50
329.999999999999490
 51
76.260204999998734
  0
ARC
  8
0
  6
CONTINUOUS
 62
256
 10
-320.274849000000020
 20
-92.454029000000006
 40
13.499999999999989
 50
76.260205000000056
 51
103.739794999999940
  0
ARC
  8
0
  6
CONTINUOUS
 62
256
 10
-320.274849000000020
 20
-92.454029000000006
 40
16.999999999999993
 50
71.212271000000044
 51
108.787728999999960
  0
ARC
  8
0
  6
CONTINUOUS
 62
256
 10
-320.274849000000020
 20
-92.454029000000006
 40
21.999999999999996
 50
69.594067999999993
 51
110.405932000000020
  0
ARC
  8
0
  6
CONTINUOUS
 62
256
 10
-320.274849000000020
 20
-92.454029000000006
 40
30.499999999999996
 50
66.813853999999992
 51
113.186146000000020
  0
ARC
  8
0
  6
CONTINUOUS
 62
256
 10
-320.274849000000020
 20
-92.454029000000006
 40
25.500000000000007
 50
67.589541999999966
 51
112.410458000000050
  0
ARC
  8
0
  6
CONTINUOUS
 62
256
 10
-320.274849000000020
 20
-92.454029000000006
 40
34.000000000000000
 50
65.739169999999987
 51
114.260830000000010
  0
ARC
  8
0
  6
CONTINUOUS
 62
256
 10
-320.274849000000020
 20
-92.454029000000006
 40
38.999999999999993
 50
65.284733000000031
 51
114.715266999999980
  0
LINE
  8
0
  6
CONTINUOUS
 62
256
 10
-349.566486000000000
 20
-94.954029000000006
 11
-346.542700000000020
 21
-94.954029000000006
  0
LINE
  8
0
  6
CONTINUOUS
 62
256
 10
-340.981128000000010
 20
-94.954029000000006
 11
-337.931291999999980
 21
-94.954029000000006
  0
LINE
  8
0
  6
CONTINUOUS
 62
256
 10
-332.274849000000020
 20
-94.954029000000006
 11
-329.106609999999990
 21
-94.954029000000006
  0
LINE
  8
0
  6
CONTINUOUS
 62
256
 10
-328.439911999999990
 20
-101.596334000000000
 11
-326.855793000000010
 21
-98.852558999999999
  0
LINE
  8
0
  6
CONTINUOUS
 62
256
 10
-332.793051999999990
 20
-109.136193000000010
 11
-331.268133999999980
 21
-106.494958000000000
  0
LINE
  8
0
  6
CONTINUOUS
 62
256
 10
-341.359149000000000
 20
-123.973108000000000
 11
-339.852192000000000
 21
-121.362983000000000
  0
LINE
  8
0
  6
CONTINUOUS
 62
256
 10
-358.113320999999980
 20
-94.954029000000006
 11
-355.099408999999980
 21
-94.954029000000006
  0
LINE
  8
0
  6
CONTINUOUS
 62
256
 10
-337.085731000000010
 20
-116.571331000000000
 11
-335.573838000000020
 21
-113.952656000000000
  0
ARC
  8
0
  6
CONTINUOUS
 62
256
 10
-320.274849000000020
 20
-92.454029000000006
 40
8.500000000000016
 50
201.618271999999960
 51
218.381727999999950
  0
ARC
  8
0
  6
CONTINUOUS
 62
256
 10
-320.274849000000020
 20
-92.454029000000006
 40
13.499999999999989
 50
196.260205000000010
 51
223.739794999999990
  0
ARC
  8
0
  6
CONTINUOUS
 62
256
 10
-320.274849000000020
 20
-92.454029000000006
 40
16.999999999999989
 50
191.212270999999960
 51
228.787728999999960
  0
ARC
  8
0
  6
CONTINUOUS
 62
256
 10
-320.274849000000020
 20
-92.454029000000006
 40
21.999999999999975
 50
189.594067999999960
 51
230.405932000000060
  0
ARC
  8
0
  6
CONTINUOUS
 62
256
 10
-320.274849000000020
 20
-92.454029000000006
 40
25.500000000000011
 50
187.589541999999990
 51
232.410458000000030
  0
ARC
  8
0
  6
CONTINUOUS
 62
256
 10
-320.274849000000020
 20
-92.454029000000006
 40
34.000000000000028
 50
185.739169999999970
 51
234.260829999999970
  0
ARC
  8
0
  6
CONTINUOUS
 62
256
 10
-320.274849000000020
 20
-92.454029000000006
 40
30.499999999999986
 50
186.813853999999990
 51
233.186146000000040
  0
ARC
  8
0
  6
CONTINUOUS
 62
256
 10
-320.274849000000020
 20
-92.454029000000006
 40
38.999999999999986
 50
185.284732999999990
 51
234.715266999999980
  0
ARC
  8
0
  6
CONTINUOUS
 62
256
 10
-327.721817999999980
 20
-98.352558999999999
 40
0.999999999999984
 50
329.999999999999490
 51
38.381728000001026
  0
ARC
  8
0
  6
CONTINUOUS
 62
256
 10
-329.106609999999990
 20
-95.954029000000006
 40
1.000000000000013
 50
21.618271999999475
 51
90.000000000000000
  0
ARC
  8
0
  6
CONTINUOUS
 62
256
 10
-332.274849000000020
 20
-95.954029000000006
 40
1.000000000000000
 50
90.000000000000000
 51
196.260205000000670
  0
ARC
  8
0
  6
CONTINUOUS
 62
256
 10
-329.305938000000030
 20
-101.096334000000000
 40
1.000000000000005
 50
223.739794999999760
 51
329.999999999999490
  0
ARC
  8
0
  6
CONTINUOUS
 62
256
 10
-332.134159000000010
 20
-105.994958000000000
 40
0.999999999999984
 50
329.999999999999490
 51
48.787728999999715
  0
ARC
  8
0
  6
CONTINUOUS
 62
256
 10
-333.659077000000020
 20
-108.636193000000010
 40
0.999999999999988
 50
230.405932000000690
 51
329.999999999999490
  0
ARC
  8
0
  6
CONTINUOUS
 62
256
 10
-337.931291999999980
 20
-95.954029000000006
 40
1.000000000000016
 50
11.212270999999729
 51
90.000000000000000
  0
ARC
  8
0
  6
CONTINUOUS
 62
256
 10
-340.981128000000010
 20
-95.954029000000006
 40
1.000000000000000
 50
90.000000000000000
 51
189.594067999999960
  0
ARC
  8
0
  6
CONTINUOUS
 62
256
 10
-349.566486000000000
 20
-95.954029000000006
 40
1.000000000000000
 50
90.000000000000000
 51
186.813853999999760
  0
ARC
  8
0
  6
CONTINUOUS
 62
256
 10
-336.439863000000000
 20
-113.452656000000000
 40
0.999999999999984
 50
329.999999999999490
 51
52.410458000001171
  0
ARC
  8
0
  6
CONTINUOUS
 62
256
 10
-337.951755999999990
 20
-116.071331000000000
 40
1.000000000000011
 50
233.186145999999270
 51
329.999999999999490
  0
ARC
  8
0
  6
CONTINUOUS
 62
256
 10
-346.542700000000020
 20
-95.954029000000006
 40
0.999999999999990
 50
7.589541999999997
 51
90.000000000000000
  0
ARC
  8
0
  6
CONTINUOUS
 62
256
 10
-358.113320999999980
 20
-95.954029000000006
 40
1.000000000000000
 50
90.000000000000000
 51
185.284732999999760
  0
ARC
  8
0
  6
CONTINUOUS
 62
256
 10
-355.099408999999980
 20
-95.954029000000006
 40
0.999999999999978
 50
5.739170000000447
 51
90.000000000000000
  0
ARC
  8
0
  6
CONTINUOUS
 62
256
 10
-340.718217999999980
 20
-120.862983000000000
 40
0.999999999999984
 50
329.999999999999490
 51
54.260829999999778
  0
ARC
  8
0
  6
CONTINUOUS
 62
256
 10
-342.225173999999980
 20
-123.473108000000000
 40
1.000000000000016
 50
234.715266999999020
 51
329.999999999999490
  0
CIRCLE
  8
0
  6
CONTINUOUS
 62
256
 10
-320.274849000000020
 20
-92.454029000000006
 40
5.000000000000000
  0
ARC
  8
0
  6
CONTINUOUS
 62
256
 10
-336.162996000000020
 20
-126.973108000000000
 40
0.999999999999984
 50
149.999999999999460
 51
245.284732999999870
  0
LINE
  8
0
  6
CONTINUOUS
 62
256
 10
-337.029022000000000
 20
-126.473108000000000
 11
-335.522065000000000
 21
-123.862983000000000
  0
ARC
  8
0
  6
CONTINUOUS
 62
256
 10
-320.274849000000020
 20
-92.454029000000006
 40
39.000000000000000
 50
245.284732999999960
 51
294.715266999999980
  0
ARC
  8
0
  6
CONTINUOUS
 62
256
 10
-320.274849000000020
 20
-92.454029000000006
 40
34.000000000000000
 50
245.739170000000000
 51
294.260830000000000
  0
ARC
  8
0
  6
CONTINUOUS
 62
256
 10
-320.274849000000020
 20
-92.454029000000006
 40
25.500000000000007
 50
247.589541999999940
 51
292.410458000000010
  0
ARC
  8
0
  6
CONTINUOUS
 62
256
 10
-320.274849000000020
 20
-92.454029000000006
 40
30.499999999999996
 50
246.813853999999990
 51
293.186146000000010
  0
ARC
  8
0
  6
CONTINUOUS
 62
256
 10
-331.889577999999970
 20
-119.571331000000000
 40
0.999999999999984
 50
149.999999999999460
 51
246.813853999999880
  0
LINE
  8
0
  6
CONTINUOUS
 62
256
 10
-332.755604000000010
 20
-119.071331000000000
 11
-331.243711000000020
 21
-116.452656000000000
  0
ARC
  8
0
  6
CONTINUOUS
 62
256
 10
-320.274849000000020
 20
-92.454029000000006
 40
21.999999999999996
 50
249.594067999999990
 51
290.405932000000010
  0
ARC
  8
0
  6
CONTINUOUS
 62
256
 10
-334.656040000000020
 20
-124.362983000000000
 40
0.999999999999992
 50
65.739170000001337
 51
149.999999999999460
  0
ARC
  8
0
  6
CONTINUOUS
 62
256
 10
-330.377684999999990
 20
-116.952656000000000
 40
1.000000000000009
 50
67.589541999999554
 51
149.999999999999460
  0
ARC
  8
0
  6
CONTINUOUS
 62
256
 10
-327.596899000000010
 20
-112.136193000000010
 40
0.999999999999984
 50
149.999999999999460
 51
249.594068000000160
  0
ARC
  8
0
  6
CONTINUOUS
 62
256
 10
-320.274849000000020
 20
-92.454029000000006
 40
16.999999999999993
 50
251.212271000000040
 51
288.787728999999960
  0
LINE
  8
0
  6
CONTINUOUS
 62
256
 10
-328.462924999999980
 20
-111.636193000000010
 11
-326.938007000000030
 21
-108.994958000000000
  0
ARC
  8
0
  6
CONTINUOUS
 62
256
 10
-326.071981999999990
 20
-109.494958000000000
 40
1.000000000000010
 50
71.212270999999262
 51
149.999999999999460
  0
ARC
  8
0
  6
CONTINUOUS
 62
256
 10
-320.274849000000020
 20
-92.454029000000006
 40
13.499999999999989
 50
256.260205000000040
 51
283.739794999999960
  0
ARC
  8
0
  6
CONTINUOUS
 62
256
 10
-323.243760000000010
 20
-104.596334000000000
 40
0.999999999999984
 50
149.999999999999460
 51
256.260204999998730
  0
LINE
  8
0
  6
CONTINUOUS
 62
256
 10
-324.109784999999990
 20
-104.096334000000000
 11
-322.525666000000000
 21
-101.352559000000000
  0
ARC
  8
0
  6
CONTINUOUS
 62
256
 10
-317.305938000000030
 20
-104.596334000000000
 40
1.000000000000011
 50
283.739795000001270
 51
30.000000000000544
  0
ARC
  8
0
  6
CONTINUOUS
 62
256
 10
-320.274849000000020
 20
-92.454029000000006
 40
8.500000000000002
 50
261.618271999999930
 51
278.381728000000070
  0
ARC
  8
0
  6
CONTINUOUS
 62
256
 10
-321.659640000000020
 20
-101.852559000000000
 40
0.999999999999998
 50
81.618272000001099
 51
149.999999999999460
  0
ARC
  8
0
  6
CONTINUOUS
 62
256
 10
-312.952797999999970
 20
-112.136193000000010
 40
0.999999999999993
 50
290.405931999999840
 51
30.000000000000544
  0
LINE
  8
0
  6
CONTINUOUS
 62
256
 10
-312.086772999999990
 20
-111.636193000000010
 11
-313.611691000000010
 21
-108.994958000000000
  0
ARC
  8
0
  6
CONTINUOUS
 62
256
 10
-314.477715999999990
 20
-109.494958000000000
 40
0.999999999999984
 50
30.000000000000544
 51
108.787729000000750
  0
LINE
  8
0
  6
CONTINUOUS
 62
256
 10
-316.439911999999990
 20
-104.096334000000000
 11
-318.024031999999980
 21
-101.352559000000000
  0
ARC
  8
0
  6
CONTINUOUS
 62
256
 10
-318.890057000000010
 20
-101.852559000000000
 40
0.999999999999984
 50
30.000000000000544
 51
98.381727999998901
  0
ARC
  8
0
  6
CONTINUOUS
 62
256
 10
-305.893658000000020
 20
-124.362983000000000
 40
0.999999999999984
 50
30.000000000000544
 51
114.260829999998650
  0
LINE
  8
0
  6
CONTINUOUS
 62
256
 10
-303.520675999999980
 20
-126.473108000000000
 11
-305.027631999999980
 21
-123.862983000000000
  0
ARC
  8
0
  6
CONTINUOUS
 62
256
 10
-304.386701000000020
 20
-126.973108000000000
 40
1.000000000000004
 50
294.715267000000150
 51
30.000000000000544
  0
ARC
  8
0
  6
CONTINUOUS
 62
256
 10
-310.172012000000000
 20
-116.952656000000000
 40
0.999999999999984
 50
30.000000000000544
 51
112.410458000000460
  0
LINE
  8
0
  6
CONTINUOUS
 62
256
 10
-307.794093999999970
 20
-119.071331000000000
 11
-309.305987000000020
 21
-116.452656000000000
  0
ARC
  8
0
  6
CONTINUOUS
 62
256
 10
-308.660119000000010
 20
-119.571331000000000
 40
1.000000000000000
 50
293.186146000000120
 51
30.000000000000544
  0
ARC
  8
0
  6
CONTINUOUS
 62
256
 10
-320.274849000000020
 20
-92.454029000000006
 40
39.000000000000014
 50
305.284733000000020
 51
354.715266999999980
  0
ARC
  8
0
  6
CONTINUOUS
 62
256
 10
-320.274849000000020
 20
-92.454029000000006
 40
33.999999999999986
 50
305.739169999999940
 51
354.260830000000000
  0
ARC
  8
0
  6
CONTINUOUS
 62
256
 10
-320.274849000000020
 20
-92.454029000000006
 40
25.499999999999996
 50
307.589541999999990
 51
352.410458000000010
  0
ARC
  8
0
  6
CONTINUOUS
 62
256
 10
-320.274849000000020
 20
-92.454029000000006
 40
30.500000000000014
 50
306.813854000000050
 51
353.186146000000010
  0
ARC
  8
0
  6
CONTINUOUS
 62
256
 10
-320.274849000000020
 20
-92.454029000000006
 40
21.999999999999986
 50
309.594067999999940
 51
350.405932000000010
  0
ARC
  8
0
  6
CONTINUOUS
 62
256
 10
-320.274849000000020
 20
-92.454029000000006
 40
17.000000000000014
 50
311.212270999999990
 51
348.787729000000010
  0
ARC
  8
0
  6
CONTINUOUS
 62
256
 10
-320.274849000000020
 20
-92.454029000000006
 40
13.500000000000004
 50
316.260204999999980
 51
343.739794999999960
  0
ARC
  8
0
  6
CONTINUOUS
 62
256
 10
-308.274849000000020
 20
-95.954029000000006
 40
0.999999999999976
 50
343.739794999999330
 51
90.000000000000000
  0
LINE
  8
0
  6
CONTINUOUS
 62
256
 10
-308.274849000000020
 20
-94.954029000000006
 11
-311.443087999999990
 21
-94.954029000000006
  0
ARC
  8
0
  6
CONTINUOUS
 62
256
 10
-311.243760000000010
 20
-101.096334000000000
 40
0.999999999999984
 50
210.000000000000510
 51
316.260205000000270
  0
ARC
  8
0
  6
CONTINUOUS
 62
256
 10
-320.274849000000020
 20
-92.454029000000006
 40
8.500000000000005
 50
321.618272000000050
 51
338.381728000000010
  0
ARC
  8
0
  6
CONTINUOUS
 62
256
 10
-311.443087999999990
 20
-95.954029000000006
 40
1.000000000000000
 50
90.000000000000000
 51
158.381728000000550
  0
ARC
  8
0
  6
CONTINUOUS
 62
256
 10
-306.890620000000010
 20
-108.636193000000010
 40
0.999999999999984
 50
210.000000000000510
 51
309.594067999999310
  0
LINE
  8
0
  6
CONTINUOUS
 62
256
 10
-307.756645999999990
 20
-109.136193000000010
 11
-309.281563000000010
 21
-106.494958000000000
  0
ARC
  8
0
  6
CONTINUOUS
 62
256
 10
-308.415538000000030
 20
-105.994958000000000
 40
1.000000000000006
 50
131.212270999999760
 51
210.000000000000510
  0
LINE
  8
0
  6
CONTINUOUS
 62
256
 10
-312.109784999999990
 20
-101.596334000000000
 11
-313.693904999999970
 21
-98.852558999999999
  0
ARC
  8
0
  6
CONTINUOUS
 62
256
 10
-312.827879000000000
 20
-98.352558999999999
 40
0.999999999999985
 50
141.618271999999000
 51
210.000000000000510
  0
ARC
  8
0
  6
CONTINUOUS
 62
256
 10
-299.831480000000000
 20
-120.862983000000000
 40
0.999999999999998
 50
125.739170000000210
 51
210.000000000000510
  0
LINE
  8
0
  6
CONTINUOUS
 62
256
 10
-299.190548999999980
 20
-123.973108000000000
 11
-300.697504999999980
 21
-121.362983000000000
  0
ARC
  8
0
  6
CONTINUOUS
 62
256
 10
-298.324524000000000
 20
-123.473108000000000
 40
0.999999999999984
 50
210.000000000000510
 51
305.284733000000980
  0
ARC
  8
0
  6
CONTINUOUS
 62
256
 10
-304.109833999999980
 20
-113.452656000000000
 40
0.999999999999993
 50
127.589541999998830
 51
210.000000000000510
  0
LINE
  8
0
  6
CONTINUOUS
 62
256
 10
-303.463967000000030
 20
-116.571331000000000
 11
-304.975860000000010
 21
-113.952656000000000
  0
ARC
  8
0
  6
CONTINUOUS
 62
256
 10
-302.597940999999990
 20
-116.071331000000000
 40
0.999999999999984
 50
210.000000000000510
 51
306.813854000000730
  0
ARC
  8
0
  6
CONTINUOUS
 62
256
 10
-282.436376000000000
 20
-95.954029000000006
 40
1.000000000000027
 50
354.715267000000210
 51
90.000000000000000
  0
LINE
  8
0
  6
CONTINUOUS
 62
256
 10
-282.436376000000000
 20
-94.954029000000006
 11
-285.450288000000000
 21
-94.954029000000006
  0
ARC
  8
0
  6
CONTINUOUS
 62
256
 10
-285.450288000000000
 20
-95.954029000000006
 40
1.000000000000000
 50
90.000000000000000
 51
174.260829999999570
  0
ARC
  8
0
  6
CONTINUOUS
 62
256
 10
-290.983211999999980
 20
-95.954029000000006
 40
1.000000000000019
 50
353.186146000000240
 51
90.000000000000000
  0
LINE
  8
0
  6
CONTINUOUS
 62
256
 10
-290.983211999999980
 20
-94.954029000000006
 11
-294.006998000000010
 21
-94.954029000000006
  0
ARC
  8
0
  6
CONTINUOUS
 62
256
 10
-294.006998000000010
 20
-95.954029000000006
 40
1.000000000000000
 50
90.000000000000000
 51
172.410458000000010
  0
ARC
  8
0
  6
CONTINUOUS
 62
256
 10
-299.568570000000020
 20
-95.954029000000006
 40
0.999999999999978
 50
350.405932000000010
 51
90.000000000000000
  0
LINE
  8
0
  6
CONTINUOUS
 62
256
 10
-299.568570000000020
 20
-94.954029000000006
 11
-302.618405000000000
 21
-94.954029000000006
  0
ARC
  8
0
  6
CONTINUOUS
 62
256
 10
-302.618405000000000
 20
-95.954029000000006
 40
1.000000000000000
 50
90.000000000000000
 51
168.787729000000270
  0
LINE
  8
0
  6
DASHDOT
 62
256
 10
-381.998578000000010
 20
-92.454029000000006
 11
-256.780620000000000
 21
-92.454029000000006
  0
LINE
  8
0
  6
DASHDOT
 62
256
 10
-320.274849000000020
 20
-29.213542000000000
 11
-320.274849000000020
 21
-187.139269000000010
  0
LINE
  8
0
  6
CONTINUOUS
 62
256
 10
-281.274696000000010
 20
-36.637242999999998
 11
-280.774849000000020
 21
-37.145892000000003
  0
LINE
  8
0
  6
CONTINUOUS
 62
256
 10
-358.360889999999980
 20
-37.466355999999998
 11
-359.774849000000020
 21
-37.466355999999998
  0
LINE
  8
0
  6
CONTINUOUS
 62
256
 10
-359.774849000000020
 20
-38.330008999999997
 11
-359.774849000000020
 21
-37.466355999999998
  0
LINE
  8
0
  6
CONTINUOUS
 62
256
 10
-283.955769999999970
 20
-36.590445000000003
 11
-281.274696000000010
 21
-36.637242999999998
  0
LINE
  8
0
  6
CONTINUOUS
 62
256
 10
-280.774849000000020
 20
-37.145892000000003
 11
-280.774849000000020
 21
-38.330008999999997
  0
LINE
  8
0
  6
CONTINUOUS
 62
256
 10
-56.877791999999999
 20
81.590806000000001
 11
-55.690848000000003
 21
149.590805999999990
  0
LINE
  8
0
  6
CONTINUOUS
 62
256
 10
-57.912855000000000
 20
82.590806000000001
 11
-61.412045999999997
 21
82.590806000000001
  0
LINE
  8
0
  6
CONTINUOUS
 62
256
 10
-61.412045999999997
 20
146.590805999999990
 11
-56.725909999999999
 21
146.590805999999990
  0
LINE
  8
0
  6
DASHDOT
 62
256
 10
21.087709000000000
 20
59.568913000000002
 11
21.087709000000000
 21
160.649992000000000
  0
ARC
  8
0
  6
CONTINUOUS
 62
256
 10
-57.912855000000000
 20
81.590806000000001
 40
1.000000000000000
 50
0.000000000000000
 51
90.000000000000000
  0
ARC
  8
0
  6
CONTINUOUS
 62
256
 10
-56.725909999999999
 20
147.590805999999990
 40
1.000000000000000
 50
270.000000000000000
 51
358.999999999999830
  0
LINE
  8
0
  6
CONTINUOUS
 62
256
 10
61.087981999999997
 20
81.590806000000001
 11
59.901037000000002
 21
149.590805999999990
  0
LINE
  8
0
  6
CONTINUOUS
 62
256
 10
20.587709000000000
 20
85.090806000000001
 11
20.587709000000000
 21
149.590805999999990
  0
LINE
  8
0
  6
CONTINUOUS
 62
256
 10
21.587709000000000
 20
85.090806000000001
 11
21.587709000000000
 21
149.590805999999990
  0
ARC
  8
0
  6
CONTINUOUS
 62
256
 10
21.087709000000000
 20
85.090806000000001
 40
0.500000000000000
 50
180.000000000000000
 51
0.000000000000000
  0
ARC
  8
0
  6
CONTINUOUS
 62
256
 10
-79.412046000000004
 20
160.625259000000000
 40
3.000000000000000
 50
0.000000000000000
 51
90.999999999999872
  0
ARC
  8
0
  6
CONTINUOUS
 62
256
 10
-74.412046000000004
 20
149.520457999999990
 40
2.000000000000000
 50
90.000000000000000
 51
180.000000000000000
  0
ARC
  8
0
  6
CONTINUOUS
 62
256
 10
-73.412046000000004
 20
157.590805999999990
 40
3.000000000000000
 50
180.000000000000000
 51
270.000000000000000
  0
ARC
  8
0
  6
CONTINUOUS
 62
256
 10
-73.412046000000004
 20
140.982971999999990
 40
3.000000000000000
 50
90.000000000000000
 51
180.000000000000000
  0
LINE
  8
0
  6
CONTINUOUS
 62
256
 10
-76.412046000000004
 20
130.090805999999990
 11
-81.412046000000004
 21
130.090805999999990
  0
LINE
  8
0
  6
CONTINUOUS
 62
256
 10
-76.412046000000004
 20
157.590805999999990
 11
-76.412046000000004
 21
160.625259000000000
  0
LINE
  8
0
  6
CONTINUOUS
 62
256
 10
-76.412046000000004
 20
110.090806000000000
 11
-76.412046000000004
 21
149.520457999999990
  0
ARC
  8
0
  6
CONTINUOUS
 62
256
 10
-73.412046000000004
 20
79.198639999999997
 40
3.000000000000000
 50
180.000000000000000
 51
270.000000000000000
  0
ARC
  8
0
  6
CONTINUOUS
 62
256
 10
-74.412046000000004
 20
70.661153999999996
 40
2.000000000000000
 50
180.000000000000000
 51
270.000000000000000
  0
ARC
  8
0
  6
CONTINUOUS
 62
256
 10
-73.412046000000004
 20
62.590806000000001
 40
3.000000000000000
 50
90.000000000000000
 51
180.000000000000000
  0
ARC
  8
0
  6
CONTINUOUS
 62
256
 10
-79.412046000000004
 20
59.556353000000001
 40
2.999999999999997
 50
269.000000000000110
 51
0.000000000000000
  0
LINE
  8
0
  6
CONTINUOUS
 62
256
 10
-76.412046000000004
 20
90.090806000000001
 11
-81.412046000000004
 21
90.090806000000001
  0
LINE
  8
0
  6
CONTINUOUS
 62
256
 10
-76.412046000000004
 20
110.090806000000000
 11
-76.412046000000004
 21
70.661153999999996
  0
LINE
  8
0
  6
CONTINUOUS
 62
256
 10
-76.412046000000004
 20
62.590806000000001
 11
-76.412046000000004
 21
59.556353000000001
  0
ARC
  8
0
  6
CONTINUOUS
 62
256
 10
-66.412046000000004
 20
79.198639999999997
 40
3.000000000000000
 50
270.000000000000000
 51
0.000000000000000
  0
ARC
  8
0
  6
CONTINUOUS
 62
256
 10
-68.412046000000004
 20
70.590806000000001
 40
5.000000000000000
 50
270.000000000000000
 51
0.000000000000000
  0
ARC
  8
0
  6
CONTINUOUS
 62
256
 10
-68.412046000000004
 20
73.661153999999996
 40
5.000000000000000
 50
270.000000000000000
 51
0.000000000000000
  0
LINE
  8
0
  6
CONTINUOUS
 62
256
 10
-66.412046000000004
 20
76.198639999999997
 11
-73.412046000000004
 21
76.198639999999997
  0
LINE
  8
0
  6
CONTINUOUS
 62
256
 10
-74.412046000000004
 20
68.661153999999996
 11
-68.412046000000004
 21
68.661153999999996
  0
LINE
  8
0
  6
CONTINUOUS
 62
256
 10
-73.412046000000004
 20
65.590806000000001
 11
-68.412046000000004
 21
65.590806000000001
  0
ARC
  8
0
  6
CONTINUOUS
 62
256
 10
-66.412046000000004
 20
140.982971999999990
 40
3.000000000000000
 50
0.000000000000000
 51
90.000000000000000
  0
ARC
  8
0
  6
CONTINUOUS
 62
256
 10
-68.412046000000004
 20
149.590805999999990
 40
5.000000000000000
 50
0.000000000000000
 51
90.000000000000000
  0
ARC
  8
0
  6
CONTINUOUS
 62
256
 10
-68.412046000000004
 20
146.520457999999990
 40
5.000000000000000
 50
0.000000000000000
 51
90.000000000000000
  0
LINE
  8
0
  6
CONTINUOUS
 62
256
 10
-74.412046000000004
 20
151.520457999999990
 11
-68.412046000000004
 21
151.520457999999990
  0
LINE
  8
0
  6
CONTINUOUS
 62
256
 10
-73.412046000000004
 20
154.590805999999990
 11
-68.412046000000004
 21
154.590805999999990
  0
LINE
  8
0
  6
CONTINUOUS
 62
256
 10
-66.412046000000004
 20
143.982971999999990
 11
-73.412046000000004
 21
143.982971999999990
  0
LINE
  8
0
  6
CONTINUOUS
 62
256
 10
-63.412045999999997
 20
59.311982000000000
 11
-63.412045999999997
 21
160.924646999999990
  0
LINE
  8
0
  6
CONTINUOUS
 62
256
 10
-81.412046000000004
 20
56.573351000000002
 11
-66.464403000000004
 21
56.312438999999998
  0
LINE
  8
0
  6
CONTINUOUS
 62
256
 10
-66.478947000000005
 20
163.923901000000000
 11
-81.412046000000004
 21
163.590805999999990
  0
ARC
  8
0
  6
CONTINUOUS
 62
256
 10
-66.412046000000004
 20
160.924646999999990
 40
3.000000000000000
 50
0.000000000000000
 51
91.277816000000129
  0
ARC
  8
0
  6
CONTINUOUS
 62
256
 10
-66.412046000000004
 20
59.311982000000000
 40
2.999999999999997
 50
269.000000000000110
 51
0.000000000000000
  0
LINE
  8
0
  6
CONTINUOUS
 62
256
 10
-56.912291000000003
 20
81.590806000000001
 11
-56.729010000000002
 21
71.090654000000001
  0
LINE
  8
0
  6
CONTINUOUS
 62
256
 10
61.087708999999997
 20
81.590806000000001
 11
60.904428000000003
 21
71.090654000000001
  0
LINE
  8
0
  6
CONTINUOUS
 62
256
 10
21.587709000000000
 20
78.090806000000001
 11
21.587709000000000
 21
70.590806000000001
  0
LINE
  8
0
  6
CONTINUOUS
 62
256
 10
20.587709000000000
 20
78.090806000000001
 11
20.587709000000000
 21
70.590806000000001
  0
ARC
  8
0
  6
CONTINUOUS
 62
256
 10
21.087709000000000
 20
78.090806000000001
 40
0.500000000000000
 50
0.000000000000000
 51
180.000000000000000
  0
LINE
  8
0
  6
CONTINUOUS
 62
256
 10
-81.412046000000004
 20
110.090806000000000
 11
-81.412046000000004
 21
56.573351000000002
  0
LINE
  8
0
  6
CONTINUOUS
 62
256
 10
-81.412046000000004
 20
110.090806000000000
 11
-81.412046000000004
 21
163.608261000000000
  0
LINE
  8
0
  6
CONTINUOUS
 62
256
 10
48.687708999999998
 20
153.590805999999990
 11
49.087708999999997
 21
153.190806000000010
  0
LINE
  8
0
  6
CONTINUOUS
 62
256
 10
49.087708999999997
 20
149.590805999999990
 11
49.087708999999997
 21
153.190806000000010
  0
LINE
  8
0
  6
CONTINUOUS
 62
256
 10
-6.512291000000000
 20
153.590805999999990
 11
-6.912291000000000
 21
153.190806000000010
  0
LINE
  8
0
  6
CONTINUOUS
 62
256
 10
-6.512291000000000
 20
153.590805999999990
 11
48.687708999999998
 21
153.590805999999990
  0
LINE
  8
0
  6
CONTINUOUS
 62
256
 10
-6.912291000000000
 20
149.590805999999990
 11
-6.912291000000000
 21
153.190806000000010
  0
LINE
  8
0
  6
CONTINUOUS
 62
256
 10
-55.690848000000003
 20
149.590805999999990
 11
21.087709000000000
 21
149.590805999999990
  0
LINE
  8
0
  6
CONTINUOUS
 62
256
 10
21.087709000000000
 20
149.590805999999990
 11
59.901037000000002
 21
149.590805999999990
  0
LINE
  8
0
  6
CONTINUOUS
 62
256
 10
-56.912702000000003
 20
81.590806000000001
 11
61.087981999999997
 21
81.590806000000001
  0
ARC
  8
0
  6
CONTINUOUS
 62
256
 10
-61.412045999999997
 20
148.590805999999990
 40
2.000000000000000
 50
180.000000000000000
 51
270.000000000000000
  0
ARC
  8
0
  6
CONTINUOUS
 62
256
 10
-61.412045999999997
 20
80.590806000000001
 40
2.000000000000000
 50
90.000000000000000
 51
180.000000000000000
  0
LINE
  8
0
  6
CONTINUOUS
 62
256
 10
7.087709000000000
 20
157.590805999999990
 11
35.087708999999997
 21
157.590805999999990
  0
LINE
  8
0
  6
CONTINUOUS
 62
256
 10
6.087709000000000
 20
63.590806000000001
 11
6.087709000000000
 21
66.590806000000001
  0
LINE
  8
0
  6
CONTINUOUS
 62
256
 10
36.087708999999997
 20
63.590806000000001
 11
36.087708999999997
 21
66.590806000000001
  0
LINE
  8
0
  6
CONTINUOUS
 62
256
 10
35.087708999999997
 20
62.590806000000001
 11
7.087709000000000
 21
62.590806000000001
  0
ARC
  8
0
  6
CONTINUOUS
 62
256
 10
7.087709000000000
 20
156.590805999999990
 40
1.000000000000000
 50
90.000000000000000
 51
180.000000000000000
  0
ARC
  8
0
  6
CONTINUOUS
 62
256
 10
35.087708999999997
 20
156.590805999999990
 40
1.000000000000000
 50
0.000000000000000
 51
90.000000000000000
  0
ARC
  8
0
  6
CONTINUOUS
 62
256
 10
35.087708999999997
 20
63.590806000000001
 40
1.000000000000000
 50
270.000000000000000
 51
0.000000000000000
  0
ARC
  8
0
  6
CONTINUOUS
 62
256
 10
7.087709000000000
 20
63.590806000000001
 40
1.000000000000000
 50
180.000000000000000
 51
270.000000000000000
  0
LINE
  8
0
  6
CONTINUOUS
 62
256
 10
36.087708999999997
 20
153.590805999999990
 11
36.087708999999997
 21
156.590805999999990
  0
LINE
  8
0
  6
CONTINUOUS
 62
256
 10
6.087709000000000
 20
153.590805999999990
 11
6.087709000000000
 21
156.590805999999990
  0
LINE
  8
0
  6
CONTINUOUS
 62
256
 10
-56.220360999999997
 20
70.590806000000001
 11
-56.729010000000002
 21
71.090654000000001
  0
LINE
  8
0
  6
CONTINUOUS
 62
256
 10
60.904428000000003
 20
71.090654000000001
 11
60.395780000000002
 21
70.590806000000001
  0
LINE
  8
0
  6
CONTINUOUS
 62
256
 10
-56.912291000000003
 20
81.590806000000001
 11
61.087708999999997
 21
81.590806000000001
  0
LINE
  8
0
  6
CONTINUOUS
 62
256
 10
-6.512291000000000
 20
66.590806000000001
 11
-6.912291000000000
 21
66.990806000000006
  0
LINE
  8
0
  6
CONTINUOUS
 62
256
 10
-6.912291000000000
 20
66.990806000000006
 11
-6.912291000000000
 21
70.590806000000001
  0
LINE
  8
0
  6
CONTINUOUS
 62
256
 10
48.687708999999998
 20
66.590806000000001
 11
49.087708999999997
 21
66.990806000000006
  0
LINE
  8
0
  6
CONTINUOUS
 62
256
 10
49.087708999999997
 20
66.990806000000006
 11
49.087708999999997
 21
70.590806000000001
  0
LINE
  8
0
  6
CONTINUOUS
 62
256
 10
21.087709000000000
 20
70.590806000000001
 11
-56.220360999999997
 21
70.590806000000001
  0
LINE
  8
0
  6
CONTINUOUS
 62
256
 10
48.687708999999998
 20
66.590806000000001
 11
-6.512291000000000
 21
66.590806000000001
  0
LINE
  8
0
  6
CONTINUOUS
 62
256
 10
60.395780000000002
 20
70.590806000000001
 11
21.087709000000000
 21
70.590806000000001
  0
LINE
  8
0
  6
CONTINUOUS
 62
256
 10
-81.412046000000004
 20
110.090806000000000
 11
-81.412046000000004
 21
57.590806000000001
  0
POLYLINE
  8
0
  6
CONTINUOUS
 62
256
 66
1
 70
1
  0
VERTEX
  8
0
  6
CONTINUOUS
 62
256
 10
-171.712046000000020
 20
62.763475000000000
  0
VERTEX
  8
0
  6
CONTINUOUS
 62
256
 10
-171.802355182104830
 20
63.466431510558166
  0
VERTEX
  8
0
  6
CONTINUOUS
 62
256
 10
-172.069812197196970
 20
64.142373796638140
  0
VERTEX
  8
0
  6
CONTINUOUS
 62
256
 10
-172.504138822178050
 20
64.765325775258660
  0
VERTEX
  8
0
  6
CONTINUOUS
 62
256
 10
-173.088644128423230
 20
65.311347751236838
  0
VERTEX
  8
0
  6
CONTINUOUS
 62
256
 10
-173.800865904807890
 20
65.759456406248489
  0
VERTEX
  8
0
  6
CONTINUOUS
 62
256
 10
-174.613433867884080
 20
66.092431175983748
  0
VERTEX
  8
0
  6
CONTINUOUS
 62
256
 10
-175.495121486524200
 20
66.297476026776067
  0
VERTEX
  8
0
  6
CONTINUOUS
 62
256
 10
-176.412046000000000
 20
66.366711199999997
  0
VERTEX
  8
0
  6
CONTINUOUS
 62
256
 10
-177.328970513475810
 20
66.297476026776067
  0
VERTEX
  8
0
  6
CONTINUOUS
 62
256
 10
-178.210658132115920
 20
66.092431175983748
  0
VERTEX
  8
0
  6
CONTINUOUS
 62
256
 10
-179.023226095192110
 20
65.759456406248489
  0
VERTEX
  8
0
  6
CONTINUOUS
 62
256
 10
-179.735447871576780
 20
65.311347751236838
  0
VERTEX
  8
0
  6
CONTINUOUS
 62
256
 10
-180.319953177821960
 20
64.765325775258660
  0
VERTEX
  8
0
  6
CONTINUOUS
 62
256
 10
-180.754279802803040
 20
64.142373796638140
  0
VERTEX
  8
0
  6
CONTINUOUS
 62
256
 10
-181.021736817895170
 20
63.466431510558174
  0
VERTEX
  8
0
  6
CONTINUOUS
 62
256
 10
-181.112045999999990
 20
62.763475000000000
  0
VERTEX
  8
0
  6
CONTINUOUS
 62
256
 10
-181.021736817895170
 20
62.060518489441833
  0
VERTEX
  8
0
  6
CONTINUOUS
 62
256
 10
-180.754279802803040
 20
61.384576203361860
  0
VERTEX
  8
0
  6
CONTINUOUS
 62
256
 10
-180.319953177821960
 20
60.761624224741340
  0
VERTEX
  8
0
  6
CONTINUOUS
 62
256
 10
-179.735447871576780
 20
60.215602248763155
  0
VERTEX
  8
0
  6
CONTINUOUS
 62
256
 10
-179.023226095192110
 20
59.767493593751510
  0
VERTEX
  8
0
  6
CONTINUOUS
 62
256
 10
-178.210658132115920
 20
59.434518824016259
  0
VERTEX
  8
0
  6
CONTINUOUS
 62
256
 10
-177.328970513475810
 20
59.229473973223932
  0
VERTEX
  8
0
  6
CONTINUOUS
 62
256
 10
-176.412046000000000
 20
59.160238800000002
  0
VERTEX
  8
0
  6
CONTINUOUS
 62
256
 10
-175.495121486524200
 20
59.229473973223932
  0
VERTEX
  8
0
  6
CONTINUOUS
 62
256
 10
-174.613433867884080
 20
59.434518824016259
  0
VERTEX
  8
0
  6
CONTINUOUS
 62
256
 10
-173.800865904807890
 20
59.767493593751503
  0
VERTEX
  8
0
  6
CONTINUOUS
 62
256
 10
-173.088644128423250
 20
60.215602248763155
  0
VERTEX
  8
0
  6
CONTINUOUS
 62
256
 10
-172.504138822178050
 20
60.761624224741333
  0
VERTEX
  8
0
  6
CONTINUOUS
 62
256
 10
-172.069812197196970
 20
61.384576203361860
  0
VERTEX
  8
0
  6
CONTINUOUS
 62
256
 10
-171.802355182104830
 20
62.060518489441826
  0
SEQEND
  8
0
  6
CONTINUOUS
 62
256
  0
LINE
  8
0
  6
CONTINUOUS
 62
256
 10
-178.412046000000000
 20
59.771099000000000
 11
-176.412046000000000
 21
60.946885000000002
  0
LINE
  8
0
  6
CONTINUOUS
 62
256
 10
-176.412046000000000
 20
60.946885000000002
 11
-174.412046000000000
 21
62.599527000000002
  0
LINE
  8
0
  6
CONTINUOUS
 62
256
 10
-174.412046000000000
 20
59.771099000000000
 11
-176.412046000000000
 21
60.946885000000002
  0
LINE
  8
0
  6
CONTINUOUS
 62
256
 10
-176.412046000000000
 20
60.946885000000002
 11
-178.412046000000000
 21
62.599527000000002
  0
LINE
  8
0
  6
CONTINUOUS
 62
256
 10
-81.412046000000004
 20
57.590806000000001
 11
-165.412046000000000
 21
57.590806000000001
  0
LINE
  8
0
  6
CONTINUOUS
 62
256
 10
-165.412046000000000
 20
59.590806000000001
 11
-81.412046000000004
 21
59.590806000000001
  0
LINE
  8
0
  6
CONTINUOUS
 62
256
 10
-165.412046000000000
 20
59.090806000000001
 11
-81.412046000000004
 21
59.090806000000001
  0
LINE
  8
0
  6
CONTINUOUS
 62
256
 10
-165.412046000000000
 20
63.957723000000001
 11
-81.412046000000004
 21
63.957723000000001
  0
LINE
  8
0
  6
CONTINUOUS
 62
256
 10
-165.412046000000000
 20
65.586150000000004
 11
-81.412046000000004
 21
65.586150000000004
  0
LINE
  8
0
  6
CONTINUOUS
 62
256
 10
-165.412046000000000
 20
69.048891999999995
 11
-81.412046000000004
 21
69.048891999999995
  0
LINE
  8
0
  6
CONTINUOUS
 62
256
 10
-165.569646000000010
 20
70.050370999999998
 11
-81.412046000000004
 21
70.050370999999998
  0
LINE
  8
0
  6
CONTINUOUS
 62
256
 10
-165.412046000000000
 20
56.090806000000001
 11
-194.916890999999990
 21
56.090806000000001
  0
ARC
  8
0
  6
CONTINUOUS
 62
256
 10
-194.916890999999990
 20
76.690805999999995
 40
20.600000000000012
 50
234.999999999999940
 51
270.000000000000000
  0
ARC
  8
0
  6
CONTINUOUS
 62
256
 10
-212.812046000000010
 20
67.247185999999999
 40
2.599999999999994
 50
180.000000000000000
 51
234.999999999999940
  0
LINE
  8
0
  6
CONTINUOUS
 62
256
 10
-215.412046000000000
 20
67.247185999999999
 11
-215.412046000000000
 21
110.090806000000000
  0
LINE
  8
0
  6
CONTINUOUS
 62
256
 10
-206.732565999999990
 20
59.816274000000000
 11
-214.303345000000010
 21
65.117390999999998
  0
POLYLINE
  8
0
  6
CONTINUOUS
 62
256
 66
1
 70
1
  0
VERTEX
  8
0
  6
CONTINUOUS
 62
256
 10
-171.712046000000020
 20
157.418137000000000
  0
VERTEX
  8
0
  6
CONTINUOUS
 62
256
 10
-171.802355182104830
 20
158.121093510558180
  0
VERTEX
  8
0
  6
CONTINUOUS
 62
256
 10
-172.069812197196970
 20
158.797035796638140
  0
VERTEX
  8
0
  6
CONTINUOUS
 62
256
 10
-172.504138822178050
 20
159.419987775258680
  0
VERTEX
  8
0
  6
CONTINUOUS
 62
256
 10
-173.088644128423230
 20
159.966009751236840
  0
VERTEX
  8
0
  6
CONTINUOUS
 62
256
 10
-173.800865904807890
 20
160.414118406248490
  0
VERTEX
  8
0
  6
CONTINUOUS
 62
256
 10
-174.613433867884080
 20
160.747093175983740
  0
VERTEX
  8
0
  6
CONTINUOUS
 62
256
 10
-175.495121486524200
 20
160.952138026776080
  0
VERTEX
  8
0
  6
CONTINUOUS
 62
256
 10
-176.412046000000000
 20
161.021373200000000
  0
VERTEX
  8
0
  6
CONTINUOUS
 62
256
 10
-177.328970513475810
 20
160.952138026776080
  0
VERTEX
  8
0
  6
CONTINUOUS
 62
256
 10
-178.210658132115920
 20
160.747093175983740
  0
VERTEX
  8
0
  6
CONTINUOUS
 62
256
 10
-179.023226095192110
 20
160.414118406248490
  0
VERTEX
  8
0
  6
CONTINUOUS
 62
256
 10
-179.735447871576780
 20
159.966009751236840
  0
VERTEX
  8
0
  6
CONTINUOUS
 62
256
 10
-180.319953177821960
 20
159.419987775258680
  0
VERTEX
  8
0
  6
CONTINUOUS
 62
256
 10
-180.754279802803040
 20
158.797035796638140
  0
VERTEX
  8
0
  6
CONTINUOUS
 62
256
 10
-181.021736817895170
 20
158.121093510558180
  0
VERTEX
  8
0
  6
CONTINUOUS
 62
256
 10
-181.112045999999990
 20
157.418137000000000
  0
VERTEX
  8
0
  6
CONTINUOUS
 62
256
 10
-181.021736817895170
 20
156.715180489441820
  0
VERTEX
  8
0
  6
CONTINUOUS
 62
256
 10
-180.754279802803040
 20
156.039238203361860
  0
VERTEX
  8
0
  6
CONTINUOUS
 62
256
 10
-180.319953177821960
 20
155.416286224741330
  0
VERTEX
  8
0
  6
CONTINUOUS
 62
256
 10
-179.735447871576780
 20
154.870264248763160
  0
VERTEX
  8
0
  6
CONTINUOUS
 62
256
 10
-179.023226095192110
 20
154.422155593751510
  0
VERTEX
  8
0
  6
CONTINUOUS
 62
256
 10
-178.210658132115920
 20
154.089180824016270
  0
VERTEX
  8
0
  6
CONTINUOUS
 62
256
 10
-177.328970513475810
 20
153.884135973223950
  0
VERTEX
  8
0
  6
CONTINUOUS
 62
256
 10
-176.412046000000000
 20
153.814900800000000
  0
VERTEX
  8
0
  6
CONTINUOUS
 62
256
 10
-175.495121486524200
 20
153.884135973223950
  0
VERTEX
  8
0
  6
CONTINUOUS
 62
256
 10
-174.613433867884080
 20
154.089180824016270
  0
VERTEX
  8
0
  6
CONTINUOUS
 62
256
 10
-173.800865904807890
 20
154.422155593751510
  0
VERTEX
  8
0
  6
CONTINUOUS
 62
256
 10
-173.088644128423250
 20
154.870264248763160
  0
VERTEX
  8
0
  6
CONTINUOUS
 62
256
 10
-172.504138822178050
 20
155.416286224741330
  0
VERTEX
  8
0
  6
CONTINUOUS
 62
256
 10
-172.069812197196970
 20
156.039238203361860
  0
VERTEX
  8
0
  6
CONTINUOUS
 62
256
 10
-171.802355182104830
 20
156.715180489441820
  0
SEQEND
  8
0
  6
CONTINUOUS
 62
256
  0
LINE
  8
0
  6
CONTINUOUS
 62
256
 10
-178.412046000000000
 20
160.410512000000010
 11
-176.412046000000000
 21
159.234726999999990
  0
LINE
  8
0
  6
CONTINUOUS
 62
256
 10
-176.412046000000000
 20
159.234726999999990
 11
-174.412046000000000
 21
157.582085000000010
  0
LINE
  8
0
  6
CONTINUOUS
 62
256
 10
-174.412046000000000
 20
160.410512000000010
 11
-176.412046000000000
 21
159.234726999999990
  0
LINE
  8
0
  6
CONTINUOUS
 62
256
 10
-176.412046000000000
 20
159.234726999999990
 11
-178.412046000000000
 21
157.582085000000010
  0
ARC
  8
0
  6
CONTINUOUS
 62
256
 10
-194.916890999999990
 20
143.490805999999990
 40
20.599999999999994
 50
90.000000000000000
 51
125.000000000000010
  0
ARC
  8
0
  6
CONTINUOUS
 62
256
 10
-212.812046000000010
 20
152.934426000000000
 40
2.599999999999996
 50
125.000000000000210
 51
180.000000000000000
  0
LINE
  8
0
  6
CONTINUOUS
 62
256
 10
-215.412046000000000
 20
152.934426000000000
 11
-215.412046000000000
 21
110.090806000000000
  0
LINE
  8
0
  6
CONTINUOUS
 62
256
 10
-206.732565999999990
 20
160.365338000000010
 11
-214.303345000000010
 21
155.064221000000000
  0
LINE
  8
0
  6
CONTINUOUS
 62
256
 10
-165.412046000000000
 20
164.090805999999990
 11
-194.916890999999990
 21
164.090805999999990
  0
LINE
  8
0
  6
CONTINUOUS
 62
256
 10
-81.412046000000004
 20
110.090806000000000
 11
-81.412046000000004
 21
162.590805999999990
  0
LINE
  8
0
  6
CONTINUOUS
 62
256
 10
-81.412046000000004
 20
162.590805999999990
 11
-165.412046000000000
 21
162.590805999999990
  0
LINE
  8
0
  6
CONTINUOUS
 62
256
 10
-165.412046000000000
 20
160.590805999999990
 11
-81.412046000000004
 21
160.590805999999990
  0
LINE
  8
0
  6
CONTINUOUS
 62
256
 10
-165.412046000000000
 20
161.090805999999990
 11
-81.412046000000004
 21
161.090805999999990
  0
LINE
  8
0
  6
CONTINUOUS
 62
256
 10
-165.412046000000000
 20
156.223889000000010
 11
-81.412046000000004
 21
156.223889000000010
  0
LINE
  8
0
  6
CONTINUOUS
 62
256
 10
-165.412046000000000
 20
151.132720000000010
 11
-81.412046000000004
 21
151.132720000000010
  0
LINE
  8
0
  6
CONTINUOUS
 62
256
 10
-165.412046000000000
 20
154.595462000000000
 11
-81.412046000000004
 21
154.595462000000000
  0
LINE
  8
0
  6
CONTINUOUS
 62
256
 10
-165.569646000000010
 20
150.131240999999990
 11
-81.412046000000004
 21
150.131240999999990
  0
LINE
  8
0
  6
DASHDOT
 62
256
 10
-225.798409999999990
 20
110.090806000000000
 11
68.569338999999999
 21
110.090806000000000
  0
LINE
  8
0
  6
CONTINUOUS
 62
256
 10
-165.412046000000000
 20
164.090805999999990
 11
-165.412046000000000
 21
110.090806000000000
  0
LINE
  8
0
  6
CONTINUOUS
 62
256
 10
-165.412046000000000
 20
56.090806000000001
 11
-165.412046000000000
 21
110.090806000000000
  0
LINE
  8
0
  6
CONTINUOUS
 62
256
 10
-165.412046000000000
 20
143.394407000000000
 11
-81.412046000000004
 21
143.394407000000000
  0
LINE
  8
0
  6
CONTINUOUS
 62
256
 10
-165.412046000000000
 20
138.847202000000010
 11
-81.412046000000004
 21
138.847202000000010
  0
LINE
  8
0
  6
CONTINUOUS
 62
256
 10
-165.412046000000000
 20
137.368178000000000
 11
-81.412046000000004
 21
137.368178000000000
  0
LINE
  8
0
  6
CONTINUOUS
 62
256
 10
-165.412046000000000
 20
134.275447000000010
 11
-81.412046000000004
 21
134.275447000000010
  0
LINE
  8
0
  6
CONTINUOUS
 62
256
 10
-165.412046000000000
 20
132.929046000000000
 11
-81.412046000000004
 21
132.929046000000000
  0
LINE
  8
0
  6
CONTINUOUS
 62
256
 10
-165.412046000000000
 20
130.090805999999990
 11
-81.412046000000004
 21
130.090805999999990
  0
LINE
  8
0
  6
CONTINUOUS
 62
256
 10
-165.412046000000000
 20
81.334410000000005
 11
-81.412046000000004
 21
81.334410000000005
  0
LINE
  8
0
  6
CONTINUOUS
 62
256
 10
-165.412046000000000
 20
82.813434000000001
 11
-81.412046000000004
 21
82.813434000000001
  0
LINE
  8
0
  6
CONTINUOUS
 62
256
 10
-165.412046000000000
 20
85.906165000000001
 11
-81.412046000000004
 21
85.906165000000001
  0
LINE
  8
0
  6
CONTINUOUS
 62
256
 10
-165.412046000000000
 20
87.252566000000002
 11
-81.412046000000004
 21
87.252566000000002
  0
LINE
  8
0
  6
CONTINUOUS
 62
256
 10
-165.412046000000000
 20
90.090806000000001
 11
-81.412046000000004
 21
90.090806000000001
  0
LINE
  8
0
  6
CONTINUOUS
 62
256
 10
-165.412046000000000
 20
76.787205000000000
 11
-81.412046000000004
 21
76.787205000000000
  0
LINE
  8
0
  6
DASHED
 62
256
 10
-103.912046000000000
 20
-149.954028999999990
 11
-103.912046000000000
 21
-164.454028999999990
  0
LINE
  8
0
  6
DASHED
 62
256
 10
-167.912046000000000
 20
-149.954028999999990
 11
-167.912046000000000
 21
-164.454028999999990
  0
LINE
  8
0
  6
DASHED
 62
256
 10
-153.912046000000000
 20
-149.954028999999990
 11
-153.912046000000000
 21
-164.454028999999990
  0
ARC
  8
0
  6
DASHED
 62
256
 10
-160.912046000000000
 20
-164.454028999999990
 40
7.000000000000000
 50
180.000000000000000
 51
0.000000000000000
  0
LINE
  8
0
  6
DASHED
 62
256
 10
-117.912046000000000
 20
-149.954028999999990
 11
-117.912046000000000
 21
-164.454028999999990
  0
ARC
  8
0
  6
DASHED
 62
256
 10
-110.912046000000000
 20
-164.454028999999990
 40
7.000000000000000
 50
180.000000000000000
 51
0.000000000000000
  0
CIRCLE
  8
0
  6
DASHED
 62
256
 10
-110.912046000000000
 20
-164.454028999999990
 40
6.000000000000000
  0
LINE
  8
0
  6
DASHDOT
 62
256
 10
-160.912046000000000
 20
-147.170177999999990
 11
-160.912046000000000
 21
-175.149528000000000
  0
LINE
  8
0
  6
DASHDOT
 62
256
 10
-170.220380000000010
 20
-164.454028999999990
 11
-151.031340000000000
 21
-164.454028999999990
  0
LINE
  8
0
  6
DASHDOT
 62
256
 10
-110.912046000000000
 20
-147.170177999999990
 11
-110.912046000000000
 21
-175.149528000000000
  0
LINE
  8
0
  6
DASHDOT
 62
256
 10
-121.322345000000000
 20
-164.454028999999990
 11
-100.948162999999990
 21
-164.454028999999990
  0
ENDSEC
  0
EOF
