  0
SECTION
  2
HEADER
  9
$TEXTSIZE
 40
2.5
  9
$ACADVER
  1
AC1009
  9
$DIMASZ
 40
3.863703297614046
  9
$DIMEXE
 40
2.000000000000000
  9
$DIMEXO
 40
1.000000000000000
  9
$DIMLFAC
 40
1.000000000000000
  9
$DIMSCALE
 40
1.000000000000000
  9
$DIMTAD
 70
1
  9
$DIMTFAC
 40
0.625000000000000
  9
$DIMTXT
 40
3.200000047683716
  9
$LUPREC
 70
3
  9
$REGENMODE
 70
1
  9
$TEXTSTYLE
  7
STANDARD1
  0
ENDSEC
  0
SECTION
  2
TABLES
  0
TABLE
  2
LTYPE
 70
4
  0
LTYPE
  2
CONTINUOUS
 70
64
  3
Solid line
 72
65
 73
0
 40
0.0
  0
LTYPE
  2
DASHED
 70
64
  3
-- -- -- -- -- -- -- -- -- -- -- -- -- -- --
 72
65
 73
2
 40
0.75
 49
0.5
 49
-0.25
  0
LTYPE
  2
DASHDOT
 70
64
  3
__ . __ . __ . __ . __ . __ . __ . __ . __ . __
 72
65
 73
4
 40
1.0
 49
0.5
 49
-0.25
 49
0.0
 49
-0.25
  0
LTYPE
  2
DIVIDE
 70
64
  3
__ . . __ . . __ . . __ . . __ . . __ . . __
 72
65
 73
6
 40
1.25
 49
0.5
 49
-0.25
 49
0.0
 49
-0.25
 49
0.0
 49
-0.25
  0
ENDTAB
  0
TABLE
  2
LAYER
 70
6
  0
LAYER
  2
0
 70
64
 62
53
  6
CONTINUOUS
  0
LAYER
  2
1
 70
64
 62
102
  6
CONTINUOUS
  0
LAYER
  2
2
 70
64
 62
4
  6
CONTINUOUS
  0
LAYER
  2
3
 70
64
 62
7
  6
CONTINUOUS
  0
LAYER
  2
4
 70
64
 62
42
  6
CONTINUOUS
  0
LAYER
  2
5
 70
64
 62
102
  6
CONTINUOUS
  0
ENDTAB
  0
TABLE
  2
STYLE
 70
4
  0
STYLE
  2
STANDARD1
 70
64
 40
0.0
 41
1.0
 50
0.0
 71
0
 42
3.200000047683716
  3
MONOTXT
  4
BIGFONT
  0
STYLE
  2
STANDARD2
 70
68
 40
0.0
 41
1.0
 50
0.0
 71
0
 42
3.200000047683716
  3
MONOTXT
  4
BIGFONT
  0
STYLE
  2
STANDARD3
 70
64
 40
0.0
 41
1.0
 50
0.0
 71
0
 42
3.200000047683716
  3
MONOTXT
  4

  0
STYLE
  2
STANDARD4
 70
68
 40
0.0
 41
1.0
 50
0.0
 71
0
 42
3.200000047683716
  3
MONOTXT
  4

  0
ENDTAB
  0
TABLE
  2
VIEW
 70
0
  0
ENDTAB
  0
ENDSEC
  0
SECTION
  2
BLOCKS
  0
BLOCK
  8
0
  2
ZU_SYM_1
 70
64
 10
0.000000000000000
 20
0.000000000000000
  0
LINE
  8
0
  6
CONTINUOUS
 62
256
 10
1.999999000000000
 20
-1.154699000000000
 11
-0.000002000000000
 21
-2.309398000000000
  0
LINE
  8
0
  6
CONTINUOUS
 62
256
 10
-1.999999000000000
 20
1.154700000000000
 11
0.000002000000000
 21
2.309399000000000
  0
LINE
  8
0
  6
CONTINUOUS
 62
256
 10
-0.000002000000000
 20
-2.309397000000000
 11
-1.999997000000000
 21
-1.154696000000000
  0
LINE
  8
0
  6
CONTINUOUS
 62
256
 10
1.999998000000000
 20
1.154696000000000
 11
0.000002000000000
 21
2.309399000000000
  0
LINE
  8
0
  6
CONTINUOUS
 62
256
 10
1.999998000000000
 20
1.154695000000000
 11
1.999999000000000
 21
-1.154699000000000
  0
LINE
  8
0
  6
CONTINUOUS
 62
256
 10
-1.999998000000000
 20
-1.154696000000000
 11
-1.999999000000000
 21
1.154700000000000
  0
POINT
  8
0
  6
CONTINUOUS
 62
256
 10
0.000000000000000
 20
0.000000000000000
  0
CIRCLE
  8
0
  6
CONTINUOUS
 62
256
 10
0.000000000000000
 20
0.000000000000000
 40
4.249999000000000
  0
ENDBLK
  8
0
  0
BLOCK
  8
0
  2
ZU_SYM_2
 70
64
 10
0.000000000000000
 20
0.000000000000000
  0
LINE
  8
0
  6
CONTINUOUS
 62
256
 10
1.999999000000000
 20
-1.154699000000000
 11
-0.000002000000000
 21
-2.309398000000000
  0
LINE
  8
0
  6
CONTINUOUS
 62
256
 10
-1.999999000000000
 20
1.154700000000000
 11
0.000002000000000
 21
2.309399000000000
  0
LINE
  8
0
  6
CONTINUOUS
 62
256
 10
-0.000002000000000
 20
-2.309397000000000
 11
-1.999997000000000
 21
-1.154696000000000
  0
LINE
  8
0
  6
CONTINUOUS
 62
256
 10
1.999998000000000
 20
1.154696000000000
 11
0.000002000000000
 21
2.309399000000000
  0
LINE
  8
0
  6
CONTINUOUS
 62
256
 10
1.999998000000000
 20
1.154695000000000
 11
1.999999000000000
 21
-1.154699000000000
  0
LINE
  8
0
  6
CONTINUOUS
 62
256
 10
-1.999998000000000
 20
-1.154696000000000
 11
-1.999999000000000
 21
1.154700000000000
  0
POINT
  8
0
  6
CONTINUOUS
 62
256
 10
0.000000000000000
 20
0.000000000000000
  0
CIRCLE
  8
0
  6
CONTINUOUS
 62
256
 10
0.000000000000000
 20
0.000000000000000
 40
4.249999000000000
  0
ENDBLK
  8
0
  0
BLOCK
  8
0
  2
ZU_SYM_3
 70
64
 10
0.000000000000000
 20
0.000000000000000
  0
LINE
  8
0
  6
CONTINUOUS
 62
256
 10
1.999999000000000
 20
-1.154699000000000
 11
-0.000002000000000
 21
-2.309398000000000
  0
LINE
  8
0
  6
CONTINUOUS
 62
256
 10
-1.999999000000000
 20
1.154700000000000
 11
0.000002000000000
 21
2.309399000000000
  0
LINE
  8
0
  6
CONTINUOUS
 62
256
 10
-0.000002000000000
 20
-2.309397000000000
 11
-1.999997000000000
 21
-1.154696000000000
  0
LINE
  8
0
  6
CONTINUOUS
 62
256
 10
1.999998000000000
 20
1.154696000000000
 11
0.000002000000000
 21
2.309399000000000
  0
LINE
  8
0
  6
CONTINUOUS
 62
256
 10
1.999998000000000
 20
1.154695000000000
 11
1.999999000000000
 21
-1.154699000000000
  0
LINE
  8
0
  6
CONTINUOUS
 62
256
 10
-1.999998000000000
 20
-1.154696000000000
 11
-1.999999000000000
 21
1.154700000000000
  0
POINT
  8
0
  6
CONTINUOUS
 62
256
 10
0.000000000000000
 20
0.000000000000000
  0
CIRCLE
  8
0
  6
CONTINUOUS
 62
256
 10
0.000000000000000
 20
0.000000000000000
 40
4.249999000000000
  0
ENDBLK
  8
0
  0
BLOCK
  8
0
  2
ZU_SYM_4
 70
64
 10
0.000000000000000
 20
0.000000000000000
  0
LINE
  8
0
  6
CONTINUOUS
 62
256
 10
1.999999000000000
 20
-1.154699000000000
 11
-0.000002000000000
 21
-2.309398000000000
  0
LINE
  8
0
  6
CONTINUOUS
 62
256
 10
-1.999999000000000
 20
1.154700000000000
 11
0.000002000000000
 21
2.309399000000000
  0
LINE
  8
0
  6
CONTINUOUS
 62
256
 10
-0.000002000000000
 20
-2.309397000000000
 11
-1.999997000000000
 21
-1.154696000000000
  0
LINE
  8
0
  6
CONTINUOUS
 62
256
 10
1.999998000000000
 20
1.154696000000000
 11
0.000002000000000
 21
2.309399000000000
  0
LINE
  8
0
  6
CONTINUOUS
 62
256
 10
1.999998000000000
 20
1.154695000000000
 11
1.999999000000000
 21
-1.154699000000000
  0
LINE
  8
0
  6
CONTINUOUS
 62
256
 10
-1.999998000000000
 20
-1.154696000000000
 11
-1.999999000000000
 21
1.154700000000000
  0
POINT
  8
0
  6
CONTINUOUS
 62
256
 10
0.000000000000000
 20
0.000000000000000
  0
CIRCLE
  8
0
  6
CONTINUOUS
 62
256
 10
0.000000000000000
 20
0.000000000000000
 40
4.249999000000000
  0
ENDBLK
  8
0
  0
ENDSEC
  0
SECTION
  2
ENTITIES
  0
TEXT
  8
0
  6
CONTINUOUS
 62
256
 10
-70.375488281250000
 20
-13.156250000000000
 40
2.799999952316284
  1
ü@
 50
0.000002504478167
 41
0.996000017370497
  7
STANDARD1
  0
TEXT
  8
0
  6
CONTINUOUS
 62
256
 10
1.624511957168579
 20
-253.406250000000000
 40
2.799999952316284
  1
ü@
 50
0.000002504478167
 41
0.996000017370497
  7
STANDARD1
  0
ARC
  8
0
  6
CONTINUOUS
 62
256
 10
164.038805999999990
 20
789.885326999999960
 40
54.000000000000014
 50
329.521803999999920
 51
329.731816999999980
  0
LINE
  8
0
  6
CONTINUOUS
 62
256
 10
297.190695000000010
 20
-116.089963999999990
 11
293.590694999999980
 21
-116.089963999999990
  0
LINE
  8
0
  6
CONTINUOUS
 62
256
 10
297.190695000000010
 20
-41.089964000000002
 11
293.590694999999980
 21
-41.089964000000002
  0
LINE
  8
0
  6
CONTINUOUS
 62
256
 10
293.590694999999980
 20
-116.089963999999990
 11
293.190695000000010
 21
-115.689964000000000
  0
LINE
  8
0
  6
CONTINUOUS
 62
256
 10
293.190695000000010
 20
-78.589963999999995
 11
293.190695000000010
 21
-115.689964000000000
  0
LINE
  8
0
  6
CONTINUOUS
 62
256
 10
297.690542999999990
 20
-126.398410000000000
 11
297.190695000000010
 21
-125.889760999999990
  0
LINE
  8
0
  6
CONTINUOUS
 62
256
 10
297.190695000000010
 20
-78.589963999999995
 11
297.190695000000010
 21
-125.889760999999990
  0
LINE
  8
0
  6
CONTINUOUS
 62
256
 10
293.590694999999980
 20
-41.089964000000002
 11
293.190695000000010
 21
-41.489964000000001
  0
LINE
  8
0
  6
CONTINUOUS
 62
256
 10
297.190695000000010
 20
-78.589963999999995
 11
297.190695000000010
 21
-31.290167000000000
  0
LINE
  8
0
  6
CONTINUOUS
 62
256
 10
297.690542999999990
 20
-30.781517999999998
 11
297.190695000000010
 21
-31.290167000000000
  0
LINE
  8
0
  6
CONTINUOUS
 62
256
 10
308.190695000000010
 20
-30.598237000000001
 11
297.690542999999990
 21
-30.781517999999998
  0
LINE
  8
0
  6
CONTINUOUS
 62
256
 10
387.790695000000030
 20
-41.089964000000002
 11
388.190695000000010
 21
-41.489964000000001
  0
LINE
  8
0
  6
CONTINUOUS
 62
256
 10
384.190695000000010
 20
-41.089964000000002
 11
387.790695000000030
 21
-41.089964000000002
  0
LINE
  8
0
  6
CONTINUOUS
 62
256
 10
387.790695000000030
 20
-116.089963999999990
 11
388.190695000000010
 21
-115.689964000000000
  0
LINE
  8
0
  6
CONTINUOUS
 62
256
 10
384.190695000000010
 20
-116.089963999999990
 11
387.790695000000030
 21
-116.089963999999990
  0
LINE
  8
0
  6
CONTINUOUS
 62
256
 10
308.190695000000010
 20
-30.585170000000002
 11
384.190695000000010
 21
-31.929210000000001
  0
LINE
  8
0
  6
CONTINUOUS
 62
256
 10
293.190695000000010
 20
-78.589963999999995
 11
293.190695000000010
 21
-41.489964000000001
  0
LINE
  8
0
  6
CONTINUOUS
 62
256
 10
293.190695000000010
 20
-59.589964000000002
 11
290.190695000000010
 21
-59.589964000000002
  0
ARC
  8
0
  6
CONTINUOUS
 62
256
 10
290.190695000000010
 20
-60.589964000000002
 40
1.000000000000000
 50
90.000000000000000
 51
180.000000000000000
  0
LINE
  8
0
  6
CONTINUOUS
 62
256
 10
289.190695000000010
 20
-60.589964000000002
 11
289.190695000000010
 21
-96.589963999999995
  0
LINE
  8
0
  6
CONTINUOUS
 62
256
 10
293.190695000000010
 20
-97.589963999999995
 11
290.190695000000010
 21
-97.589963999999995
  0
ARC
  8
0
  6
CONTINUOUS
 62
256
 10
290.190695000000010
 20
-96.589963999999995
 40
1.000000000000000
 50
180.000000000000000
 51
270.000000000000000
  0
LINE
  8
0
  6
CONTINUOUS
 62
256
 10
308.190695000000010
 20
-126.581691000000010
 11
297.690542999999990
 21
-126.398410000000000
  0
LINE
  8
0
  6
CONTINUOUS
 62
256
 10
308.190695000000010
 20
-126.602625000000000
 11
384.190695000000010
 21
-125.258585000000000
  0
LINE
  8
0
  6
CONTINUOUS
 62
256
 10
384.190695000000010
 20
-46.446733000000002
 11
384.190695000000010
 21
-125.267312000000000
  0
LINE
  8
0
  6
CONTINUOUS
 62
256
 10
384.190695000000010
 20
-31.920078000000000
 11
384.190695000000010
 21
-46.446733000000002
  0
LINE
  8
0
  6
CONTINUOUS
 62
256
 10
388.190695000000010
 20
-78.589963999999995
 11
388.190695000000010
 21
-115.689964000000000
  0
ARC
  8
0
  6
CONTINUOUS
 62
256
 10
391.190695000000010
 20
-96.589963999999995
 40
1.000000000000000
 50
270.000000000000000
 51
0.000000000000000
  0
LINE
  8
0
  6
CONTINUOUS
 62
256
 10
392.190695000000010
 20
-60.589964000000002
 11
392.190695000000010
 21
-96.589963999999995
  0
LINE
  8
0
  6
CONTINUOUS
 62
256
 10
391.190695000000010
 20
-97.589963999999995
 11
388.190695000000010
 21
-97.589963999999995
  0
LINE
  8
0
  6
CONTINUOUS
 62
256
 10
388.190695000000010
 20
-78.589963999999995
 11
388.190695000000010
 21
-41.489964000000001
  0
ARC
  8
0
  6
CONTINUOUS
 62
256
 10
391.190695000000010
 20
-60.589964000000002
 40
1.000000000000000
 50
0.000000000000000
 51
90.000000000000000
  0
LINE
  8
0
  6
CONTINUOUS
 62
256
 10
391.190695000000010
 20
-59.589964000000002
 11
388.190695000000010
 21
-59.589964000000002
  0
LINE
  8
0
  6
DASHED
 62
256
 10
308.190695000000010
 20
-47.594031999999999
 11
297.190695000000010
 21
-47.594031999999999
  0
LINE
  8
0
  6
DASHED
 62
256
 10
308.190695000000010
 20
-47.594031999999999
 11
308.190695000000010
 21
-33.594031999999999
  0
LINE
  8
0
  6
DASHED
 62
256
 10
308.190695000000010
 20
-33.594031999999999
 11
297.190695000000010
 21
-33.594031999999999
  0
LINE
  8
0
  6
DASHED
 62
256
 10
330.190695000000010
 20
-35.594031999999999
 11
308.190695000000010
 21
-35.594031999999999
  0
LINE
  8
0
  6
DASHED
 62
256
 10
373.190695000000010
 20
-36.344031999999999
 11
308.190695000000010
 21
-36.344031999999999
  0
LINE
  8
0
  6
DASHED
 62
256
 10
373.190695000000010
 20
-33.292893999999997
 11
373.190695000000010
 21
-47.895170000000000
  0
LINE
  8
0
  6
DASHED
 62
256
 10
351.190695000000010
 20
-35.594031999999999
 11
351.190695000000010
 21
-45.594031999999999
  0
LINE
  8
0
  6
DASHED
 62
256
 10
373.190695000000010
 20
-35.594031999999999
 11
351.190695000000010
 21
-35.594031999999999
  0
LINE
  8
0
  6
DASHED
 62
256
 10
373.190695000000010
 20
-45.594031999999999
 11
351.190695000000010
 21
-45.594031999999999
  0
LINE
  8
0
  6
DASHED
 62
256
 10
373.190695000000010
 20
-33.292893999999997
 11
384.190695000000010
 21
-33.580939000000001
  0
LINE
  8
0
  6
DASHED
 62
256
 10
373.190695000000010
 20
-47.895170000000000
 11
384.190695000000010
 21
-47.607125000000003
  0
LINE
  8
0
  6
DASHED
 62
256
 10
373.190695000000010
 20
-44.844031999999999
 11
308.190695000000010
 21
-44.844031999999999
  0
LINE
  8
0
  6
DASHED
 62
256
 10
330.190695000000010
 20
-45.594031999999999
 11
308.190695000000010
 21
-45.594031999999999
  0
LINE
  8
0
  6
DASHED
 62
256
 10
330.190695000000010
 20
-45.594031999999999
 11
330.190695000000010
 21
-35.594031999999999
  0
LINE
  8
0
  6
CONTINUOUS
 62
256
 10
308.190695000000010
 20
-30.585170000000002
 11
308.190695000000010
 21
-126.593897000000000
  0
LINE
  8
0
  6
DASHED
 62
256
 10
308.190695000000010
 20
-109.585896000000010
 11
297.190695000000010
 21
-109.585896000000010
  0
LINE
  8
0
  6
DASHED
 62
256
 10
308.190695000000010
 20
-109.585896000000010
 11
308.190695000000010
 21
-123.585896000000010
  0
LINE
  8
0
  6
DASHED
 62
256
 10
330.190695000000010
 20
-121.585896000000010
 11
308.190695000000010
 21
-121.585896000000010
  0
LINE
  8
0
  6
DASHED
 62
256
 10
308.190695000000010
 20
-123.585896000000010
 11
297.190695000000010
 21
-123.585896000000010
  0
LINE
  8
0
  6
DASHED
 62
256
 10
373.190695000000010
 20
-112.335896000000010
 11
308.190695000000010
 21
-112.335896000000010
  0
LINE
  8
0
  6
DASHED
 62
256
 10
373.190695000000010
 20
-120.835896000000010
 11
308.190695000000010
 21
-120.835896000000010
  0
LINE
  8
0
  6
DASHED
 62
256
 10
373.190695000000010
 20
-109.284758000000000
 11
373.190695000000010
 21
-123.887034000000000
  0
LINE
  8
0
  6
DASHED
 62
256
 10
373.190695000000010
 20
-111.585896000000010
 11
351.190695000000010
 21
-111.585896000000010
  0
LINE
  8
0
  6
DASHED
 62
256
 10
351.190695000000010
 20
-121.585896000000010
 11
351.190695000000010
 21
-111.585896000000010
  0
LINE
  8
0
  6
DASHED
 62
256
 10
373.190695000000010
 20
-121.585896000000010
 11
351.190695000000010
 21
-121.585896000000010
  0
LINE
  8
0
  6
DASHED
 62
256
 10
373.190695000000010
 20
-109.284758000000000
 11
384.190695000000010
 21
-109.572802999999990
  0
LINE
  8
0
  6
DASHED
 62
256
 10
373.190695000000010
 20
-123.887034000000000
 11
384.190695000000010
 21
-123.598989000000000
  0
LINE
  8
0
  6
DASHED
 62
256
 10
330.190695000000010
 20
-111.585896000000010
 11
308.190695000000010
 21
-111.585896000000010
  0
LINE
  8
0
  6
DASHED
 62
256
 10
330.190695000000010
 20
-111.585896000000010
 11
330.190695000000010
 21
-121.585896000000010
  0
CIRCLE
  8
0
  6
CONTINUOUS
 62
256
 10
-38.460428999999998
 20
-78.590098999999995
 40
37.500000000000000
  0
CIRCLE
  8
0
  6
CONTINUOUS
 62
256
 10
-38.460428999999998
 20
-78.590098999999995
 40
25.000000000000000
  0
LINE
  8
0
  6
CONTINUOUS
 62
256
 10
-105.460621000000000
 20
-30.990099000000001
 11
-105.860620999999990
 21
-30.590098999999999
  0
LINE
  8
0
  6
CONTINUOUS
 62
256
 10
-95.460621000000003
 20
-30.990099000000001
 11
-95.060620999999998
 21
-30.590098999999999
  0
LINE
  8
0
  6
CONTINUOUS
 62
256
 10
-17.960156999999999
 20
-30.990099000000001
 11
-18.360157000000001
 21
-30.590098999999999
  0
LINE
  8
0
  6
CONTINUOUS
 62
256
 10
-7.960157000000000
 20
-30.990099000000001
 11
-7.560157000000000
 21
-30.590098999999999
  0
LINE
  8
0
  6
CONTINUOUS
 62
256
 10
-7.960157000000000
 20
-126.190099000000000
 11
-7.560157000000000
 21
-126.590099000000000
  0
LINE
  8
0
  6
CONTINUOUS
 62
256
 10
-17.960156999999999
 20
-126.190099000000000
 11
-18.360157000000001
 21
-126.590099000000000
  0
LINE
  8
0
  6
CONTINUOUS
 62
256
 10
-95.460621000000003
 20
-126.190099000000000
 11
-95.060620999999998
 21
-126.590099000000000
  0
LINE
  8
0
  6
CONTINUOUS
 62
256
 10
-105.460621000000000
 20
-126.190099000000000
 11
-105.860620999999990
 21
-126.590099000000000
  0
ARC
  8
0
  6
CONTINUOUS
 62
256
 10
-75.960429000000005
 20
-55.581763000000002
 40
4.500000000000003
 50
91.910212999999928
 51
180.000000000000000
  0
ARC
  8
0
  6
CONTINUOUS
 62
256
 10
-75.960429000000005
 20
-101.598434999999990
 40
4.500000000000000
 50
180.000000000000000
 51
268.089787000000060
  0
ARC
  8
0
  6
CONTINUOUS
 62
256
 10
-88.651641999999995
 20
-41.590099000000002
 40
5.750000000000000
 50
90.000000000000000
 51
155.282845000000040
  0
ARC
  8
0
  6
CONTINUOUS
 62
256
 10
-111.460429000000000
 20
-63.498914999999997
 40
5.749999999999999
 50
114.625327000000070
 51
180.000000000000000
  0
ARC
  8
0
  6
CONTINUOUS
 62
256
 10
-111.460429000000000
 20
-100.120430000000000
 40
5.750000000000000
 50
180.000000000000000
 51
266.525398999999990
  0
ARC
  8
0
  6
CONTINUOUS
 62
256
 10
-88.651641999999995
 20
-115.590099000000000
 40
5.750000000000001
 50
204.717154999999960
 51
270.000000000000000
  0
ARC
  8
0
  6
CONTINUOUS
 62
256
 10
-112.460429000000000
 20
-116.590099000000000
 40
10.750000000000007
 50
30.497126000000016
 51
86.525399000000021
  0
ARC
  8
0
  6
CONTINUOUS
 62
256
 10
-98.243127999999999
 20
-108.216429000000010
 40
5.749999999999995
 50
210.497126000000010
 51
260.178665999999960
  0
ARC
  8
0
  6
CONTINUOUS
 62
256
 10
-100.460621000000000
 20
-121.025907000000000
 40
7.249999999999999
 50
24.717154999999952
 51
80.178666000000021
  0
LINE
  8
0
  6
CONTINUOUS
 62
256
 10
-117.210429000000000
 20
-63.498914999999997
 11
-117.210429000000000
 21
-100.120430000000000
  0
ARC
  8
0
  6
CONTINUOUS
 62
256
 10
-116.460621000000000
 20
-52.590291000000001
 40
6.249999999999998
 50
294.625327000000030
 51
347.568851999999990
  0
ARC
  8
0
  6
CONTINUOUS
 62
256
 10
-112.460429000000000
 20
-40.590099000000002
 40
10.749999999999998
 50
297.890690999999950
 51
329.502874000000020
  0
ARC
  8
0
  6
CONTINUOUS
 62
256
 10
-104.741956000000000
 20
-55.173485999999997
 40
5.750000000000001
 50
117.890691000000060
 51
167.568851999999990
  0
ARC
  8
0
  6
CONTINUOUS
 62
256
 10
-98.243127999999999
 20
-48.963768999999999
 40
5.749999999999999
 50
99.821334000000050
 51
149.502873999999990
  0
ARC
  8
0
  6
CONTINUOUS
 62
256
 10
-100.460621000000000
 20
-36.154291000000001
 40
7.250000000000003
 50
279.821333999999980
 51
335.282845000000070
  0
ARC
  8
0
  6
CONTINUOUS
 62
256
 10
-76.460429000000005
 20
-40.590099000000002
 40
10.499999999999998
 50
271.910213000000000
 51
0.954974000000016
  0
LINE
  8
0
  6
CONTINUOUS
 62
256
 10
-80.460429000000005
 20
-101.598434999999990
 11
-80.460429000000005
 21
-55.581763000000002
  0
ARC
  8
0
  6
CONTINUOUS
 62
256
 10
-76.460429000000005
 20
-116.590099000000000
 40
10.499999999999995
 50
359.045026000000010
 51
88.089787000000030
  0
ARC
  8
0
  6
CONTINUOUS
 62
256
 10
-12.460236999999999
 20
-36.154291000000001
 40
6.750000000000000
 50
207.167967999999970
 51
260.178666000000020
  0
ARC
  8
0
  6
CONTINUOUS
 62
256
 10
-14.677730000000000
 20
-48.963768999999999
 40
6.249999999999997
 50
30.497125999999994
 51
80.178666000000007
  0
ARC
  8
0
  6
CONTINUOUS
 62
256
 10
-0.460429000000000
 20
-40.590099000000002
 40
10.250000000000000
 50
210.497126000000010
 51
264.784090999999990
  0
ARC
  8
0
  6
CONTINUOUS
 62
256
 10
-1.960429000000000
 20
-57.021776000000003
 40
6.250000000000000
 50
0.000000000000000
 51
84.784091000000004
  0
LINE
  8
0
  6
CONTINUOUS
 62
256
 10
4.289571000000000
 20
-93.924640999999994
 11
4.289571000000000
 21
-57.021776000000003
  0
ARC
  8
0
  6
CONTINUOUS
 62
256
 10
-1.960429000000000
 20
-93.924640999999994
 40
6.249999999999994
 50
297.280644000000000
 51
0.000000000000000
  0
ARC
  8
0
  6
CONTINUOUS
 62
256
 10
3.539763000000000
 20
-104.589907000000000
 40
5.749999999999996
 50
117.280644000000040
 51
167.568851999999990
  0
ARC
  8
0
  6
CONTINUOUS
 62
256
 10
-8.178902000000001
 20
-102.006711999999990
 40
6.249999999999996
 50
297.890691000000000
 51
347.568851999999940
  0
ARC
  8
0
  6
CONTINUOUS
 62
256
 10
-0.460429000000000
 20
-116.590099000000000
 40
10.250000000000004
 50
117.890691000000000
 51
149.502873999999990
  0
ARC
  8
0
  6
CONTINUOUS
 62
256
 10
-14.677730000000000
 20
-108.216429000000010
 40
6.249999999999995
 50
279.821333999999980
 51
329.502874000000020
  0
ARC
  8
0
  6
CONTINUOUS
 62
256
 10
-12.460236999999999
 20
-121.025907000000000
 40
6.750000000000006
 50
99.821333999999979
 51
152.832031999999940
  0
ARC
  8
0
  6
CONTINUOUS
 62
256
 10
-24.025970000000001
 20
-115.090099000000000
 40
6.250000000000000
 50
270.000000000000000
 51
332.832032000000030
  0
LINE
  8
0
  6
CONTINUOUS
 62
256
 10
-88.651641999999995
 20
-121.340099000000000
 11
-24.025970000000001
 21
-121.340099000000000
  0
LINE
  8
0
  6
CONTINUOUS
 62
256
 10
-24.025970000000001
 20
-35.840099000000002
 11
-88.651641999999995
 21
-35.840099000000002
  0
ARC
  8
0
  6
CONTINUOUS
 62
256
 10
-24.025970000000001
 20
-42.090099000000002
 40
6.249999999999999
 50
27.167968000000016
 51
90.000000000000000
  0
CIRCLE
  8
0
  6
CONTINUOUS
 62
256
 10
-38.460428999999998
 20
-78.590098999999995
 40
39.250000000000000
  0
LINE
  8
0
  6
CONTINUOUS
 62
256
 10
-95.460621000000003
 20
-36.590099000000002
 11
-95.460621000000003
 21
-30.990099000000001
  0
LINE
  8
0
  6
CONTINUOUS
 62
256
 10
-17.960156999999999
 20
-126.190099000000000
 11
-17.960156999999999
 21
-120.590099000000000
  0
LINE
  8
0
  6
CONTINUOUS
 62
256
 10
-7.960157000000000
 20
-126.190099000000000
 11
-7.960157000000000
 21
-120.590099000000000
  0
LINE
  8
0
  6
CONTINUOUS
 62
256
 10
-105.460621000000000
 20
-126.190099000000000
 11
-105.460621000000000
 21
-120.590099000000000
  0
LINE
  8
0
  6
CONTINUOUS
 62
256
 10
-95.460621000000003
 20
-126.190099000000000
 11
-95.460621000000003
 21
-120.590099000000000
  0
LINE
  8
0
  6
CONTINUOUS
 62
256
 10
-17.960156999999999
 20
-36.590099000000002
 11
-17.960156999999999
 21
-30.990099000000001
  0
LINE
  8
0
  6
CONTINUOUS
 62
256
 10
-7.960157000000000
 20
-36.590099000000002
 11
-7.960157000000000
 21
-30.990099000000001
  0
LINE
  8
0
  6
CONTINUOUS
 62
256
 10
384.190695000000010
 20
-79.589963999999995
 11
312.191041999999980
 21
-79.589963999999995
  0
ARC
  8
0
  6
CONTINUOUS
 62
256
 10
312.191041999999980
 20
-78.589963999999995
 40
1.000000000000000
 50
90.000000000000000
 51
270.000000000000000
  0
LINE
  8
0
  6
CONTINUOUS
 62
256
 10
384.190695000000010
 20
-77.589963999999995
 11
312.191041999999980
 21
-77.589963999999995
  0
LINE
  8
0
  6
CONTINUOUS
 62
256
 10
297.191041999999980
 20
-79.589963999999995
 11
304.191041999999980
 21
-79.589963999999995
  0
LINE
  8
0
  6
CONTINUOUS
 62
256
 10
297.191041999999980
 20
-77.589963999999995
 11
304.191041999999980
 21
-77.589963999999995
  0
ARC
  8
0
  6
CONTINUOUS
 62
256
 10
304.191041999999980
 20
-78.589963999999995
 40
1.000000000000000
 50
270.000000000000000
 51
90.000000000000000
  0
CIRCLE
  8
0
  6
CONTINUOUS
 62
256
 10
-112.460429000000000
 20
-116.590099000000000
 40
5.000000000000000
  0
CIRCLE
  8
0
  6
CONTINUOUS
 62
256
 10
-0.460429000000000
 20
-116.590099000000000
 40
5.000000000000000
  0
CIRCLE
  8
0
  6
CONTINUOUS
 62
256
 10
-0.460429000000000
 20
-40.590099000000002
 40
5.000000000000000
  0
CIRCLE
  8
0
  6
CONTINUOUS
 62
256
 10
-112.460429000000000
 20
-40.590099000000002
 40
5.000000000000000
  0
CIRCLE
  8
0
  6
CONTINUOUS
 62
256
 10
-112.460429000000000
 20
-116.590099000000000
 40
4.400000000000006
  0
CIRCLE
  8
0
  6
CONTINUOUS
 62
256
 10
-0.460429000000000
 20
-116.590099000000000
 40
4.400000000000000
  0
CIRCLE
  8
0
  6
CONTINUOUS
 62
256
 10
-0.460429000000000
 20
-40.590099000000002
 40
4.400000000000000
  0
CIRCLE
  8
0
  6
CONTINUOUS
 62
256
 10
-112.460429000000000
 20
-40.590099000000002
 40
4.400000000000006
  0
LINE
  8
0
  6
CONTINUOUS
 62
256
 10
-147.960184000000000
 20
-92.590098999999995
 11
-147.960184000000000
 21
-146.090099000000010
  0
LINE
  8
0
  6
CONTINUOUS
 62
256
 10
-147.960184000000000
 20
-92.590098999999995
 11
-147.960184000000000
 21
-39.090099000000002
  0
POINT
  8
0
  6
DASHDOT
 62
256
 10
-38.460428999999998
 20
-78.590098999999995
  0
LINE
  8
0
  6
DASHDOT
 62
256
 10
-38.460428999999998
 20
-27.129529000000002
 11
-38.460428999999998
 21
-131.629779000000010
  0
LINE
  8
0
  6
DASHDOT
 62
256
 10
13.418653000000001
 20
-78.590098999999995
 11
-85.524697000000003
 21
-78.590098999999995
  0
LINE
  8
0
  6
DASHDOT
 62
256
 10
-0.460429000000000
 20
-27.677392000000001
 11
-0.460429000000000
 21
-50.590099000000002
  0
LINE
  8
0
  6
DASHDOT
 62
256
 10
12.220171000000001
 20
-40.590099000000002
 11
-10.460429000000000
 21
-40.590099000000002
  0
LINE
  8
0
  6
DASHDOT
 62
256
 10
-12.960157000000001
 20
-30.840098999999999
 11
-12.960157000000001
 21
-42.340099000000002
  0
LINE
  8
0
  6
DASHDOT
 62
256
 10
-7.210157000000000
 20
-36.590099000000002
 11
-18.710156999999999
 21
-36.590099000000002
  0
LINE
  8
0
  6
DASHDOT
 62
256
 10
-0.460429000000000
 20
-106.590099000000000
 11
-0.460429000000000
 21
-129.189764000000000
  0
LINE
  8
0
  6
DASHDOT
 62
256
 10
12.883651000000000
 20
-116.590099000000000
 11
-10.460429000000000
 21
-116.590099000000000
  0
LINE
  8
0
  6
DASHDOT
 62
256
 10
-12.960157000000001
 20
-114.840099000000000
 11
-12.960157000000001
 21
-126.340099000000000
  0
LINE
  8
0
  6
DASHDOT
 62
256
 10
-7.210157000000000
 20
-120.590099000000000
 11
-18.710156999999999
 21
-120.590099000000000
  0
LINE
  8
0
  6
DASHDOT
 62
256
 10
-100.460621000000000
 20
-114.840099000000000
 11
-100.460621000000000
 21
-126.340099000000000
  0
LINE
  8
0
  6
DASHDOT
 62
256
 10
-94.710621000000003
 20
-120.590099000000000
 11
-106.210621000000000
 21
-120.590099000000000
  0
LINE
  8
0
  6
DASHDOT
 62
256
 10
-112.460429000000000
 20
-106.590099000000000
 11
-112.460429000000000
 21
-128.858024000000000
  0
LINE
  8
0
  6
DASHDOT
 62
256
 10
-102.460429000000000
 20
-116.590099000000000
 11
-122.460429000000000
 21
-116.590099000000000
  0
LINE
  8
0
  6
DASHDOT
 62
256
 10
-112.460429000000000
 20
-27.677392000000001
 11
-112.460429000000000
 21
-50.590099000000002
  0
LINE
  8
0
  6
DASHDOT
 62
256
 10
-102.460429000000000
 20
-40.590099000000002
 11
-122.460429000000000
 21
-40.590099000000002
  0
LINE
  8
0
  6
DASHDOT
 62
256
 10
-100.460621000000000
 20
-30.840098999999999
 11
-100.460621000000000
 21
-42.340099000000002
  0
LINE
  8
0
  6
DASHDOT
 62
256
 10
-94.710621000000003
 20
-36.590099000000002
 11
-106.210621000000000
 21
-36.590099000000002
  0
ARC
  8
0
  6
CONTINUOUS
 62
256
 10
-61.462513000000001
 20
-40.340099000000002
 40
4.500000000000000
 50
90.000000000000000
 51
180.954974000000020
  0
ARC
  8
0
  6
CONTINUOUS
 62
256
 10
-61.462513000000001
 20
-116.840099000000000
 40
4.500000000000004
 50
179.045025999999980
 51
270.000000000000000
  0
INSERT
  8
0
  2
ZU_SYM_1
 10
-100.460621000000000
 20
-36.590099000000002
  0
INSERT
  8
0
  2
ZU_SYM_2
 10
-12.960157000000001
 20
-36.590099000000002
  0
INSERT
  8
0
  2
ZU_SYM_3
 10
-12.960157000000001
 20
-120.590099000000000
  0
INSERT
  8
0
  2
ZU_SYM_4
 10
-100.460621000000000
 20
-120.590099000000000
  0
CIRCLE
  8
0
  6
CONTINUOUS
 62
256
 10
-38.460428999999998
 20
-78.590098999999995
 40
19.000000000000000
  0
LINE
  8
0
  6
DASHDOT
 62
256
 10
340.690695000000010
 20
-22.137028999999998
 11
340.690695000000010
 21
-187.336274000000000
  0
LINE
  8
0
  6
DASHDOT
 62
256
 10
282.820164999999970
 20
-78.589963999999995
 11
398.713105999999980
 21
-78.589963999999995
  0
LINE
  8
0
  6
CONTINUOUS
 62
256
 10
245.858056000000000
 20
-91.090098999999995
 11
245.858056000000000
 21
-66.090040000000002
  0
LINE
  8
0
  6
CONTINUOUS
 62
256
 10
149.786056000000000
 20
-91.090098999999995
 11
149.786056000000000
 21
-66.090040000000002
  0
LINE
  8
0
  6
CONTINUOUS
 62
256
 10
184.322056000000000
 20
-91.290098999999998
 11
184.322056000000000
 21
-65.890099000000006
  0
LINE
  8
0
  6
CONTINUOUS
 62
256
 10
211.322056000000000
 20
-91.290098999999998
 11
211.322056000000000
 21
-65.890099000000006
  0
LINE
  8
0
  6
CONTINUOUS
 62
256
 10
228.672056000000000
 20
-91.690099000000004
 11
228.672056000000000
 21
-65.490099000000001
  0
LINE
  8
0
  6
CONTINUOUS
 62
256
 10
227.322056000000000
 20
-91.690099000000004
 11
227.322056000000000
 21
-65.490099000000001
  0
LINE
  8
0
  6
CONTINUOUS
 62
256
 10
168.322056000000000
 20
-91.690099000000004
 11
168.322056000000000
 21
-65.490099000000001
  0
LINE
  8
0
  6
CONTINUOUS
 62
256
 10
166.972056000000010
 20
-91.690099000000004
 11
166.972056000000010
 21
-65.490099000000001
  0
LINE
  8
0
  6
CONTINUOUS
 62
256
 10
228.672056000000000
 20
-91.690099000000004
 11
227.322056000000000
 21
-91.690099000000004
  0
ARC
  8
0
  6
CONTINUOUS
 62
256
 10
147.322056000000000
 20
-96.590098999999995
 40
1.000000000000000
 50
180.000000000000000
 51
270.000000000000000
  0
LINE
  8
0
  6
CONTINUOUS
 62
256
 10
147.322056000000000
 20
-97.590098999999995
 11
162.922056000000000
 21
-97.590098999999995
  0
ARC
  8
0
  6
CONTINUOUS
 62
256
 10
174.922030000000010
 20
-98.990099000000001
 40
0.399999999999992
 50
359.999929999999490
 51
90.000000000000000
  0
LINE
  8
0
  6
CONTINUOUS
 62
256
 10
163.722056000000010
 20
-98.590098999999995
 11
174.922030000000010
 21
-98.590098999999995
  0
LINE
  8
0
  6
CONTINUOUS
 62
256
 10
175.322027999999990
 20
-100.690098000000010
 11
175.322030000000010
 21
-98.990099000000001
  0
LINE
  8
0
  6
CONTINUOUS
 62
256
 10
205.922056000000000
 20
-101.090099000000000
 11
175.722027999999990
 21
-101.090099000000000
  0
ARC
  8
0
  6
CONTINUOUS
 62
256
 10
206.722056000000010
 20
-99.240099000000001
 40
0.400000000000006
 50
90.000000000000000
 51
180.000000000000000
  0
LINE
  8
0
  6
CONTINUOUS
 62
256
 10
218.322056000000000
 20
-98.840098999999995
 11
206.722056000000010
 21
-98.840098999999995
  0
ARC
  8
0
  6
CONTINUOUS
 62
256
 10
175.722027999999990
 20
-100.690099000000000
 40
0.399999999999992
 50
179.999929999999470
 51
270.000000000000000
  0
ARC
  8
0
  6
CONTINUOUS
 62
256
 10
205.922056000000000
 20
-100.690099000000000
 40
0.400000000000006
 50
270.000000000000000
 51
0.000000000000000
  0
ARC
  8
0
  6
CONTINUOUS
 62
256
 10
248.322056000000000
 20
-96.590098999999995
 40
1.000000000000000
 50
270.000000000000000
 51
0.000000000000000
  0
LINE
  8
0
  6
CONTINUOUS
 62
256
 10
206.322056000000000
 20
-100.690099000000000
 11
206.322056000000000
 21
-99.240099000000001
  0
ARC
  8
0
  6
CONTINUOUS
 62
256
 10
232.722056000000010
 20
-97.990099000000001
 40
0.400000000000006
 50
90.000000000000000
 51
180.000000000000000
  0
ARC
  8
0
  6
CONTINUOUS
 62
256
 10
231.922056000000000
 20
-98.190099000000004
 40
0.400000000000006
 50
270.000000000000000
 51
0.000000000000000
  0
LINE
  8
0
  6
CONTINUOUS
 62
256
 10
218.322056000000000
 20
-98.840098999999995
 11
218.322056000000000
 21
-98.590098999999995
  0
ARC
  8
0
  6
CONTINUOUS
 62
256
 10
163.722056000000010
 20
-98.190099000000004
 40
0.400000000000006
 50
180.000000000000000
 51
270.000000000000000
  0
ARC
  8
0
  6
CONTINUOUS
 62
256
 10
162.922056000000000
 20
-97.990099000000001
 40
0.400000000000006
 50
0.000000000000000
 51
90.000000000000000
  0
LINE
  8
0
  6
CONTINUOUS
 62
256
 10
231.922056000000000
 20
-98.590098999999995
 11
218.322056000000000
 21
-98.590098999999995
  0
LINE
  8
0
  6
CONTINUOUS
 62
256
 10
232.322056000000000
 20
-97.990099000000001
 11
232.322056000000000
 21
-98.190099000000004
  0
LINE
  8
0
  6
CONTINUOUS
 62
256
 10
163.322056000000000
 20
-97.990099000000001
 11
163.322056000000000
 21
-98.190099000000004
  0
LINE
  8
0
  6
CONTINUOUS
 62
256
 10
248.322056000000000
 20
-97.590098999999995
 11
232.722056000000010
 21
-97.590098999999995
  0
LINE
  8
0
  6
CONTINUOUS
 62
256
 10
249.322056000000000
 20
-93.090098999999995
 11
245.857954000000010
 21
-91.090098999999995
  0
LINE
  8
0
  6
CONTINUOUS
 62
256
 10
245.858056000000000
 20
-91.090098999999995
 11
228.672056000000000
 21
-91.090098999999995
  0
LINE
  8
0
  6
CONTINUOUS
 62
256
 10
227.322056000000000
 20
-91.090098999999995
 11
211.322056000000000
 21
-91.090098999999995
  0
LINE
  8
0
  6
CONTINUOUS
 62
256
 10
211.322056000000000
 20
-91.290098999999998
 11
184.322056000000000
 21
-91.290098999999998
  0
LINE
  8
0
  6
CONTINUOUS
 62
256
 10
168.322056000000000
 20
-91.090098999999995
 11
184.322056000000000
 21
-91.090098999999995
  0
LINE
  8
0
  6
CONTINUOUS
 62
256
 10
149.786157000000000
 20
-91.090098999999995
 11
166.972056000000010
 21
-91.090098999999995
  0
LINE
  8
0
  6
CONTINUOUS
 62
256
 10
166.972056000000010
 20
-91.690099000000004
 11
168.322056000000000
 21
-91.690099000000004
  0
LINE
  8
0
  6
CONTINUOUS
 62
256
 10
146.322056000000000
 20
-93.090098999999995
 11
149.786157000000000
 21
-91.090098999999995
  0
LINE
  8
0
  6
DASHDOT
 62
256
 10
254.056173000000000
 20
-78.590098999999995
 11
140.371670999999990
 21
-78.590098999999995
  0
ARC
  8
0
  6
CONTINUOUS
 62
256
 10
74.136424000000005
 20
-78.590098999999995
 40
12.500000000000002
 50
108.662925000000020
 51
71.337074999999999
  0
ARC
  8
0
  6
CONTINUOUS
 62
256
 10
174.922030000000010
 20
-58.190098999999996
 40
0.399999999999999
 50
270.000000000000000
 51
0.000069999999513
  0
LINE
  8
0
  6
CONTINUOUS
 62
256
 10
163.722056000000010
 20
-58.590099000000002
 11
174.922030000000010
 21
-58.590099000000002
  0
LINE
  8
0
  6
CONTINUOUS
 62
256
 10
175.322027999999990
 20
-56.490099000000001
 11
175.322030000000010
 21
-58.190097999999999
  0
LINE
  8
0
  6
CONTINUOUS
 62
256
 10
205.922056000000000
 20
-56.090099000000002
 11
175.722027999999990
 21
-56.090099000000002
  0
ARC
  8
0
  6
CONTINUOUS
 62
256
 10
206.722056000000010
 20
-57.940098999999996
 40
0.400000000000006
 50
180.000000000000000
 51
270.000000000000000
  0
LINE
  8
0
  6
CONTINUOUS
 62
256
 10
218.322056000000000
 20
-58.340099000000002
 11
206.722056000000010
 21
-58.340099000000002
  0
ARC
  8
0
  6
CONTINUOUS
 62
256
 10
175.722027999999990
 20
-56.490099000000001
 40
0.399999999999999
 50
90.000000000000000
 51
180.000069999999510
  0
ARC
  8
0
  6
CONTINUOUS
 62
256
 10
205.922056000000000
 20
-56.490099000000001
 40
0.400000000000006
 50
0.000000000000000
 51
90.000000000000000
  0
ARC
  8
0
  6
CONTINUOUS
 62
256
 10
248.322056000000000
 20
-60.590099000000002
 40
1.000000000000000
 50
0.000000000000000
 51
90.000000000000000
  0
ARC
  8
0
  6
CONTINUOUS
 62
256
 10
147.322056000000000
 20
-60.590099000000002
 40
1.000000000000000
 50
90.000000000000000
 51
180.000000000000000
  0
LINE
  8
0
  6
CONTINUOUS
 62
256
 10
249.322056000000000
 20
-64.090098999999995
 11
245.857954000000010
 21
-66.090098999999995
  0
LINE
  8
0
  6
CONTINUOUS
 62
256
 10
146.322056000000000
 20
-64.090098999999995
 11
149.786157000000000
 21
-66.090098999999995
  0
LINE
  8
0
  6
CONTINUOUS
 62
256
 10
78.136424000000005
 20
-62.790098999999998
 11
78.136424000000005
 21
-66.747380000000007
  0
LINE
  8
0
  6
CONTINUOUS
 62
256
 10
70.136424000000005
 20
-62.790098999999998
 11
70.136424000000005
 21
-66.747380000000007
  0
LINE
  8
0
  6
CONTINUOUS
 62
256
 10
70.136424000000005
 20
-62.790098999999998
 11
78.136424000000005
 21
-62.790098999999998
  0
LINE
  8
0
  6
DASHDOT
 62
256
 10
45.767023000000002
 20
-78.590098999999995
 11
103.594876000000000
 21
-78.590098999999995
  0
LINE
  8
0
  6
DASHDOT
 62
256
 10
74.136424000000005
 20
-48.362983000000000
 11
74.136424000000005
 21
-107.370996000000010
  0
LINE
  8
0
  6
CONTINUOUS
 62
256
 10
211.322056000000000
 20
-65.890099000000006
 11
184.322056000000000
 21
-65.890099000000006
  0
LINE
  8
0
  6
CONTINUOUS
 62
256
 10
206.322056000000000
 20
-56.490099000000001
 11
206.322056000000000
 21
-57.940098999999996
  0
LINE
  8
0
  6
CONTINUOUS
 62
256
 10
149.786157000000000
 20
-66.090098999999995
 11
166.972056000000010
 21
-66.090098999999995
  0
LINE
  8
0
  6
CONTINUOUS
 62
256
 10
166.972056000000010
 20
-65.490099000000001
 11
168.322056000000000
 21
-65.490099000000001
  0
LINE
  8
0
  6
CONTINUOUS
 62
256
 10
168.322056000000000
 20
-66.090098999999995
 11
184.322056000000000
 21
-66.090098999999995
  0
LINE
  8
0
  6
CONTINUOUS
 62
256
 10
227.322056000000000
 20
-66.090098999999995
 11
211.322056000000000
 21
-66.090098999999995
  0
LINE
  8
0
  6
CONTINUOUS
 62
256
 10
228.672056000000000
 20
-65.490099000000001
 11
227.322056000000000
 21
-65.490099000000001
  0
ARC
  8
0
  6
CONTINUOUS
 62
256
 10
232.722056000000010
 20
-59.190098999999996
 40
0.400000000000006
 50
180.000000000000000
 51
270.000000000000000
  0
ARC
  8
0
  6
CONTINUOUS
 62
256
 10
231.922056000000000
 20
-58.990099000000001
 40
0.400000000000006
 50
0.000000000000000
 51
90.000000000000000
  0
LINE
  8
0
  6
CONTINUOUS
 62
256
 10
218.322056000000000
 20
-58.340099000000002
 11
218.322056000000000
 21
-58.590099000000002
  0
ARC
  8
0
  6
CONTINUOUS
 62
256
 10
163.722056000000010
 20
-58.990099000000001
 40
0.399999999999999
 50
90.000000000000000
 51
180.000000000000000
  0
ARC
  8
0
  6
CONTINUOUS
 62
256
 10
162.922056000000000
 20
-59.190098999999996
 40
0.399999999999999
 50
270.000000000000000
 51
0.000000000000000
  0
LINE
  8
0
  6
CONTINUOUS
 62
256
 10
245.858056000000000
 20
-66.090098999999995
 11
228.672056000000000
 21
-66.090098999999995
  0
LINE
  8
0
  6
CONTINUOUS
 62
256
 10
231.922056000000000
 20
-58.590099000000002
 11
218.322056000000000
 21
-58.590099000000002
  0
LINE
  8
0
  6
CONTINUOUS
 62
256
 10
232.322056000000000
 20
-59.190098999999996
 11
232.322056000000000
 21
-58.990099000000001
  0
LINE
  8
0
  6
CONTINUOUS
 62
256
 10
163.322056000000000
 20
-59.190098999999996
 11
163.322056000000000
 21
-58.990099000000001
  0
LINE
  8
0
  6
CONTINUOUS
 62
256
 10
249.322056000000000
 20
-96.590098999999995
 11
249.322056000000000
 21
-60.590099000000002
  0
LINE
  8
0
  6
CONTINUOUS
 62
256
 10
248.322056000000000
 20
-59.590099000000002
 11
232.722056000000010
 21
-59.590099000000002
  0
LINE
  8
0
  6
CONTINUOUS
 62
256
 10
146.322056000000000
 20
-96.590098999999995
 11
146.322056000000000
 21
-60.590099000000002
  0
LINE
  8
0
  6
CONTINUOUS
 62
256
 10
147.322056000000000
 20
-59.590099000000002
 11
162.922056000000000
 21
-59.590099000000002
  0
LINE
  8
0
  6
CONTINUOUS
 62
256
 10
249.322056000000000
 20
-62.790098999999998
 11
146.322056000000000
 21
-62.790098999999998
  0
CIRCLE
  8
0
  6
CONTINUOUS
 62
256
 10
74.136424000000005
 20
-78.590098999999995
 40
19.000000000000000
  0
ARC
  8
0
  6
CONTINUOUS
 62
256
 10
320.690695000000010
 20
254.910035999999990
 40
400.000000000000000
 50
268.865247000000010
 51
269.928470000000000
  0
ARC
  8
0
  6
CONTINUOUS
 62
256
 10
320.190695000000010
 20
-145.589652000000000
 40
0.500000000000013
 50
359.982117000000070
 51
89.928470000001582
  0
ARC
  8
0
  6
CONTINUOUS
 62
256
 10
321.190695000000010
 20
-145.589964000000010
 40
0.500000000000013
 50
179.982117000000130
 51
270.000000000000000
  0
ARC
  8
0
  6
CONTINUOUS
 62
256
 10
360.190695000000010
 20
-145.589964000000010
 40
0.500000000000000
 50
270.000000000000000
 51
0.017882999999877
  0
ARC
  8
0
  6
CONTINUOUS
 62
256
 10
361.190695000000010
 20
-145.589652000000000
 40
0.499999999999993
 50
90.071529999998418
 51
180.017882999999870
  0
ARC
  8
0
  6
CONTINUOUS
 62
256
 10
360.690695000000010
 20
254.910035999999990
 40
400.000000000000000
 50
270.071530000000000
 51
271.134752999999990
  0
ARC
  8
0
  6
CONTINUOUS
 62
256
 10
368.117151999999980
 20
-120.016420000000000
 40
25.000000000000011
 50
271.134752999999990
 51
358.865247000000010
  0
ARC
  8
0
  6
CONTINUOUS
 62
256
 10
-6.809305000000000
 20
-112.589963999999990
 40
400.000000000000000
 50
358.865247000000010
 51
359.928470000000000
  0
ARC
  8
0
  6
CONTINUOUS
 62
256
 10
393.690383000000000
 20
-113.089963999999990
 40
0.499999999999998
 50
89.982116999996876
 51
179.928469999999950
  0
ARC
  8
0
  6
CONTINUOUS
 62
256
 10
393.690695000000010
 20
-112.089963999999990
 40
0.499999999999998
 50
269.982116999996830
 51
0.000000000000000
  0
ARC
  8
0
  6
CONTINUOUS
 62
256
 10
393.690695000000010
 20
-73.089963999999995
 40
0.500000000000000
 50
0.000000000000000
 51
90.017883000003138
  0
ARC
  8
0
  6
CONTINUOUS
 62
256
 10
393.690383000000000
 20
-72.089963999999995
 40
0.500000000000021
 50
180.071530000000050
 51
270.017883000003170
  0
ARC
  8
0
  6
CONTINUOUS
 62
256
 10
-6.809305000000000
 20
-72.589963999999995
 40
400.000000000000000
 50
0.071529999999999
 51
1.134753000000001
  0
ARC
  8
0
  6
CONTINUOUS
 62
256
 10
368.117151999999980
 20
-65.163507999999993
 40
25.000000000000025
 50
1.134753000000012
 51
36.588057000000020
  0
ARC
  8
0
  6
CONTINUOUS
 62
256
 10
313.264238999999980
 20
-65.163507999999993
 40
24.999999999999986
 50
143.411942999999980
 51
178.865247000000010
  0
ARC
  8
0
  6
CONTINUOUS
 62
256
 10
688.190695000000010
 20
-72.589963999999995
 40
400.000000000000000
 50
178.865247000000010
 51
179.947000000000000
  0
ARC
  8
0
  6
CONTINUOUS
 62
256
 10
688.190695000000010
 20
-112.589963999999990
 40
400.000000000000000
 50
180.071529999999970
 51
181.134752999999960
  0
ARC
  8
0
  6
CONTINUOUS
 62
256
 10
287.690695000000010
 20
-73.208084999999997
 40
0.499999999999998
 50
89.982116999996876
 51
180.000000000000000
  0
ARC
  8
0
  6
CONTINUOUS
 62
256
 10
287.691007000000010
 20
-72.208084999999997
 40
0.499999999999998
 50
269.982116999996830
 51
359.928469999999950
  0
ARC
  8
0
  6
CONTINUOUS
 62
256
 10
287.690695000000010
 20
-112.208085000000000
 40
0.500000000000000
 50
180.000000000000000
 51
270.017883000003170
  0
ARC
  8
0
  6
CONTINUOUS
 62
256
 10
287.691007000000010
 20
-113.208085000000000
 40
0.500000000000021
 50
0.071530000000043
 51
90.017883000003138
  0
ARC
  8
0
  6
CONTINUOUS
 62
256
 10
313.264238999999980
 20
-120.016420000000000
 40
25.000000000000025
 50
181.134752999999960
 51
268.865247000000010
  0
ARC
  8
0
  6
CONTINUOUS
 62
256
 10
295.680166999999980
 20
-133.237630999999990
 40
2.999999999999999
 50
136.999999999999630
 51
216.938979000000270
  0
ARC
  8
0
  6
CONTINUOUS
 62
256
 10
300.043027999999990
 20
-137.600492000000000
 40
3.000000000000007
 50
233.061021000000010
 51
270.000000000000000
  0
ARC
  8
0
  6
CONTINUOUS
 62
256
 10
381.338362000000020
 20
-137.600492000000000
 40
3.000000000000000
 50
270.000000000000000
 51
306.938978999999960
  0
ARC
  8
0
  6
CONTINUOUS
 62
256
 10
385.701224000000020
 20
-133.237630999999990
 40
2.999999999999985
 50
323.061020999999700
 51
43.000000000000391
  0
ARC
  8
0
  6
DASHED
 62
256
 10
294.733088000000010
 20
-125.455574000000000
 40
2.999999999999989
 50
316.999999999999830
 51
341.546318999999810
  0
ARC
  8
0
  6
DASHED
 62
256
 10
315.481302000000030
 20
-150.871491999999990
 40
9.999999999999986
 50
66.609337000000096
 51
88.999999999999858
  0
ARC
  8
0
  6
CONTINUOUS
 62
256
 10
365.900088999999980
 20
-150.871491999999990
 40
9.999999999999989
 50
91.000000000000156
 51
102.905208999999810
  0
ARC
  8
0
  6
CONTINUOUS
 62
256
 10
386.648303000000000
 20
-125.455574000000000
 40
3.000000000000016
 50
176.581472000000130
 51
223.000000000000170
  0
ARC
  8
0
  6
CONTINUOUS
 62
256
 10
340.690695000000010
 20
-92.589963999999995
 40
53.499999999999972
 50
164.284144000000000
 51
215.601638999999980
  0
LINE
  8
0
  6
CONTINUOUS
 62
256
 10
394.190695000000010
 20
-112.089963999999990
 11
394.190695000000010
 21
-73.089963999999995
  0
LINE
  8
0
  6
CONTINUOUS
 62
256
 10
287.190695000000010
 20
-112.208085000000000
 11
287.190695000000010
 21
-73.208084999999997
  0
LINE
  8
0
  6
CONTINUOUS
 62
256
 10
321.190695000000010
 20
-146.089964000000010
 11
360.190695000000010
 21
-146.089964000000010
  0
LINE
  8
0
  6
CONTINUOUS
 62
256
 10
296.927148999999990
 20
-127.501569000000000
 11
293.486106000000010
 21
-131.191635999999990
  0
LINE
  8
0
  6
CONTINUOUS
 62
256
 10
300.043027999999990
 20
-140.600492000000000
 11
315.655825999999990
 21
-140.873015000000010
  0
LINE
  8
0
  6
CONTINUOUS
 62
256
 10
381.338362000000020
 20
-140.600492000000000
 11
365.725565000000020
 21
-140.873015000000010
  0
LINE
  8
0
  6
CONTINUOUS
 62
256
 10
384.454241000000020
 20
-127.501569000000000
 11
387.895285000000000
 21
-131.191635999999990
  0
ARC
  8
0
  6
CONTINUOUS
 62
256
 10
340.690695000000010
 20
-92.589963999999995
 40
53.499999999999979
 50
324.398361000000020
 51
15.715856000000015
  0
ARC
  8
0
  6
CONTINUOUS
 62
256
 10
340.690695000000010
 20
-92.589963999999995
 40
53.500000000000007
 50
219.242768999999980
 51
322.325973999999970
  0
LINE
  8
0
  6
DASHDOT
 62
256
 10
295.145826000000000
 20
-40.594237999999997
 11
386.469010000000030
 21
-40.593722000000000
  0
LINE
  8
0
  6
DASHDOT
 62
256
 10
295.145826000000000
 20
-116.585690000000000
 11
386.469010000000030
 21
-116.586206000000000
  0
ARC
  8
0
  6
CONTINUOUS
 62
256
 10
320.190695000000010
 20
-145.589652000000000
 40
0.500000000000013
 50
359.982117000000070
 51
89.928470000001582
  0
ARC
  8
0
  6
CONTINUOUS
 62
256
 10
321.190695000000010
 20
-145.589964000000010
 40
0.500000000000013
 50
179.982117000000130
 51
270.000000000000000
  0
ARC
  8
0
  6
CONTINUOUS
 62
256
 10
360.190695000000010
 20
-145.589964000000010
 40
0.500000000000000
 50
270.000000000000000
 51
0.017882999999877
  0
ARC
  8
0
  6
CONTINUOUS
 62
256
 10
361.190695000000010
 20
-145.589652000000000
 40
0.499999999999993
 50
90.071529999998418
 51
180.017882999999870
  0
LINE
  8
0
  6
DASHDOT
 62
256
 10
401.397584999999990
 20
-92.589963999999995
 11
275.479313999999990
 21
-92.589963999999995
  0
LINE
  8
0
  6
CONTINUOUS
 62
256
 10
321.190695000000010
 20
-146.089964000000010
 11
360.190695000000010
 21
-146.089964000000010
  0
LINE
  8
0
  6
CONTINUOUS
 62
256
 10
9.539571000000001
 20
-37.590099000000002
 11
9.539571000000001
 21
-119.590099000000000
  0
ARC
  8
0
  6
CONTINUOUS
 62
256
 10
2.539571000000000
 20
-37.590099000000002
 40
7.000000000000000
 50
0.000000000000000
 51
90.000000000000000
  0
LINE
  8
0
  6
CONTINUOUS
 62
256
 10
-115.460429000000000
 20
-30.590098999999999
 11
2.539571000000000
 21
-30.590098999999999
  0
LINE
  8
0
  6
CONTINUOUS
 62
256
 10
-127.077184000000000
 20
-126.590099000000000
 11
2.539571000000000
 21
-126.590099000000000
  0
LINE
  8
0
  6
CONTINUOUS
 62
256
 10
-122.460429000000000
 20
-37.590099000000002
 11
-122.460429000000000
 21
-83.086166000000006
  0
ARC
  8
0
  6
CONTINUOUS
 62
256
 10
-115.460429000000000
 20
-37.590099000000002
 40
7.000000000000000
 50
90.000000000000000
 51
180.000000000000000
  0
ARC
  8
0
  6
CONTINUOUS
 62
256
 10
2.539571000000000
 20
-119.590099000000000
 40
7.000000000000000
 50
270.000000000000000
 51
0.000000000000000
  0
ARC
  8
0
  6
CONTINUOUS
 62
256
 10
-115.460429000000000
 20
-119.590099000000000
 40
7.000000000000000
 50
180.000000000000000
 51
270.000000000000000
  0
LINE
  8
0
  6
CONTINUOUS
 62
256
 10
-122.460429000000000
 20
-119.590099000000000
 11
-122.460429000000000
 21
-83.086166000000006
  0
LINE
  8
0
  6
CONTINUOUS
 62
256
 10
-125.074777000000000
 20
-38.590775000000001
 11
-147.960184000000000
 21
-39.090566000000003
  0
ARC
  8
0
  6
CONTINUOUS
 62
256
 10
-126.960184000000000
 20
-129.590099000000010
 40
3.000000000000000
 50
90.000000000000000
 51
180.000000000000000
  0
ARC
  8
0
  6
CONTINUOUS
 62
256
 10
-125.141678000000000
 20
-35.591521000000000
 40
3.000000000000000
 50
271.277815999999860
 51
348.471355000000070
  0
LINE
  8
0
  6
CONTINUOUS
 62
256
 10
-142.960184000000000
 20
-112.590099000000000
 11
-147.960184000000000
 21
-112.590099000000000
  0
LINE
  8
0
  6
CONTINUOUS
 62
256
 10
-147.960184000000000
 20
-146.107553999999990
 11
-133.012542000000000
 21
-146.368466000000010
  0
ARC
  8
0
  6
CONTINUOUS
 62
256
 10
-132.960184000000000
 20
-143.368923000000000
 40
3.000000000000011
 50
268.999999999999830
 51
0.000000000000000
  0
ARC
  8
0
  6
CONTINUOUS
 62
256
 10
-132.960184000000000
 20
-123.482265000000000
 40
3.000000000000000
 50
270.000000000000000
 51
0.000000000000000
  0
ARC
  8
0
  6
CONTINUOUS
 62
256
 10
-139.960184000000000
 20
-123.482265000000000
 40
3.000000000000000
 50
180.000000000000000
 51
270.000000000000000
  0
ARC
  8
0
  6
CONTINUOUS
 62
256
 10
-134.960184000000000
 20
-132.090099000000010
 40
5.000000000000000
 50
270.000000000000000
 51
0.000000000000000
  0
ARC
  8
0
  6
CONTINUOUS
 62
256
 10
-134.960184000000000
 20
-129.019749999999990
 40
5.000000000000000
 50
270.000000000000000
 51
0.000000000000000
  0
ARC
  8
0
  6
CONTINUOUS
 62
256
 10
-140.960184000000000
 20
-132.019749999999990
 40
2.000000000000000
 50
180.000000000000000
 51
270.000000000000000
  0
ARC
  8
0
  6
CONTINUOUS
 62
256
 10
-139.960184000000000
 20
-140.090099000000010
 40
3.000000000000000
 50
90.000000000000000
 51
180.000000000000000
  0
ARC
  8
0
  6
CONTINUOUS
 62
256
 10
-145.960184000000000
 20
-143.124551999999990
 40
3.000000000000011
 50
268.999999999999830
 51
0.000000000000000
  0
LINE
  8
0
  6
CONTINUOUS
 62
256
 10
-132.960184000000000
 20
-126.482265000000000
 11
-139.960184000000000
 21
-126.482265000000000
  0
LINE
  8
0
  6
CONTINUOUS
 62
256
 10
-142.960184000000000
 20
-92.590098999999995
 11
-142.960184000000000
 21
-132.019749999999990
  0
LINE
  8
0
  6
CONTINUOUS
 62
256
 10
-140.960184000000000
 20
-134.019749999999990
 11
-134.960184000000000
 21
-134.019749999999990
  0
LINE
  8
0
  6
CONTINUOUS
 62
256
 10
-139.960184000000000
 20
-137.090099000000010
 11
-134.960184000000000
 21
-137.090099000000010
  0
LINE
  8
0
  6
CONTINUOUS
 62
256
 10
-142.960184000000000
 20
-140.090099000000010
 11
-142.960184000000000
 21
-143.124551999999990
  0
LINE
  8
0
  6
CONTINUOUS
 62
256
 10
-142.960184000000000
 20
-72.590098999999995
 11
-147.960184000000000
 21
-72.590098999999995
  0
LINE
  8
0
  6
CONTINUOUS
 62
256
 10
-129.960184000000000
 20
-143.368923000000000
 11
-129.960184000000000
 21
-41.756258000000003
  0
ARC
  8
0
  6
CONTINUOUS
 62
256
 10
-132.960184000000000
 20
-41.756258000000003
 40
3.000000000000000
 50
0.000000000000000
 51
91.277815999999859
  0
ARC
  8
0
  6
CONTINUOUS
 62
256
 10
-145.960184000000000
 20
-42.055646000000003
 40
3.000000000000000
 50
0.000000000000000
 51
91.000000000000156
  0
ARC
  8
0
  6
CONTINUOUS
 62
256
 10
-132.960184000000000
 20
-61.697932999999999
 40
3.000000000000000
 50
0.000000000000000
 51
90.000000000000000
  0
ARC
  8
0
  6
CONTINUOUS
 62
256
 10
-134.960184000000000
 20
-53.090099000000002
 40
5.000000000000000
 50
0.000000000000000
 51
90.000000000000000
  0
ARC
  8
0
  6
CONTINUOUS
 62
256
 10
-134.960184000000000
 20
-56.160446999999998
 40
5.000000000000000
 50
0.000000000000000
 51
90.000000000000000
  0
ARC
  8
0
  6
CONTINUOUS
 62
256
 10
-140.960184000000000
 20
-53.160446999999998
 40
2.000000000000000
 50
90.000000000000000
 51
180.000000000000000
  0
ARC
  8
0
  6
CONTINUOUS
 62
256
 10
-139.960184000000000
 20
-45.090099000000002
 40
3.000000000000000
 50
180.000000000000000
 51
270.000000000000000
  0
ARC
  8
0
  6
CONTINUOUS
 62
256
 10
-139.960184000000000
 20
-61.697932999999999
 40
3.000000000000000
 50
90.000000000000000
 51
180.000000000000000
  0
LINE
  8
0
  6
CONTINUOUS
 62
256
 10
-142.960184000000000
 20
-45.090099000000002
 11
-142.960184000000000
 21
-42.055646000000003
  0
LINE
  8
0
  6
CONTINUOUS
 62
256
 10
-140.960184000000000
 20
-51.160446999999998
 11
-134.960184000000000
 21
-51.160446999999998
  0
LINE
  8
0
  6
CONTINUOUS
 62
256
 10
-139.960184000000000
 20
-48.090099000000002
 11
-134.960184000000000
 21
-48.090099000000002
  0
LINE
  8
0
  6
CONTINUOUS
 62
256
 10
-142.960184000000000
 20
-92.590098999999995
 11
-142.960184000000000
 21
-53.160446999999998
  0
LINE
  8
0
  6
CONTINUOUS
 62
256
 10
-132.960184000000000
 20
-58.697932999999999
 11
-139.960184000000000
 21
-58.697932999999999
  0
ARC
  8
0
  6
CONTINUOUS
 62
256
 10
-36.728377999999999
 20
-125.590099000000000
 40
1.000000000000002
 50
209.999999999999910
 51
270.000000000000000
  0
ARC
  8
0
  6
CONTINUOUS
 62
256
 10
-40.192480000000003
 20
-125.590099000000000
 40
1.000000000000000
 50
270.000000000000000
 51
330.000000000000060
  0
ARC
  8
0
  6
CONTINUOUS
 62
256
 10
-38.460428999999998
 20
-126.590099000000000
 40
1.000000000000002
 50
29.999999999999932
 51
150.000000000000090
  0
ARC
  8
0
  6
CONTINUOUS
 62
256
 10
8.539571000000001
 20
-76.858047999999997
 40
0.999999999999996
 50
300.000000000000110
 51
0.000000000000000
  0
ARC
  8
0
  6
CONTINUOUS
 62
256
 10
8.539571000000001
 20
-80.322149999999993
 40
1.000000000000000
 50
0.000000000000000
 51
59.999999999999865
  0
ARC
  8
0
  6
CONTINUOUS
 62
256
 10
9.539571000000001
 20
-78.590098999999995
 40
0.999999999999996
 50
120.000000000000140
 51
239.999999999999830
  0
ARC
  8
0
  6
CONTINUOUS
 62
256
 10
-40.192480000000003
 20
-31.590098999999999
 40
1.000000000000002
 50
29.999999999999932
 51
90.000000000000000
  0
ARC
  8
0
  6
CONTINUOUS
 62
256
 10
-36.728377999999999
 20
-31.590098999999999
 40
1.000000000000000
 50
90.000000000000000
 51
150.000000000000090
  0
ARC
  8
0
  6
CONTINUOUS
 62
256
 10
-38.460428999999998
 20
-30.590098999999999
 40
1.000000000000002
 50
209.999999999999910
 51
330.000000000000060
  0
ARC
  8
0
  6
CONTINUOUS
 62
256
 10
-12.960157000000001
 20
-120.590401000000000
 40
5.000000000000000
 50
0.000000000000000
 51
180.000000000000000
  0
ARC
  8
0
  6
CONTINUOUS
 62
256
 10
-100.460621000000000
 20
-120.590099000000000
 40
5.000000000000000
 50
0.000000000000000
 51
180.000000000000000
  0
ARC
  8
0
  6
CONTINUOUS
 62
256
 10
-100.460621000000000
 20
-36.590099000000002
 40
5.000000000000000
 50
180.000000000000000
 51
0.000000000000000
  0
ARC
  8
0
  6
CONTINUOUS
 62
256
 10
-12.960157000000001
 20
-36.590099000000002
 40
5.000000000000002
 50
180.000000000000000
 51
0.000000000000000
  0
LINE
  8
0
  6
CONTINUOUS
 62
256
 10
-115.460429000000000
 20
-30.590098999999999
 11
2.539571000000000
 21
-30.590098999999999
  0
LINE
  8
0
  6
CONTINUOUS
 62
256
 10
9.539571000000001
 20
-37.590099000000002
 11
9.539571000000001
 21
-119.590099000000000
  0
CIRCLE
  8
0
  6
CONTINUOUS
 62
256
 10
-0.460429000000000
 20
-40.590099000000002
 40
7.000000000000000
  0
CIRCLE
  8
0
  6
CONTINUOUS
 62
256
 10
-0.460429000000000
 20
-116.590099000000000
 40
7.000000000000000
  0
LINE
  8
0
  6
CONTINUOUS
 62
256
 10
-115.460429000000000
 20
-126.590099000000000
 11
2.539571000000000
 21
-126.590099000000000
  0
CIRCLE
  8
0
  6
CONTINUOUS
 62
256
 10
-112.460429000000000
 20
-40.590099000000002
 40
7.000000000000000
  0
CIRCLE
  8
0
  6
CONTINUOUS
 62
256
 10
-112.460429000000000
 20
-116.590099000000000
 40
7.000000000000000
  0
ARC
  8
0
  6
CONTINUOUS
 62
256
 10
-115.460429000000000
 20
-37.590099000000002
 40
7.000000000000000
 50
90.000000000000000
 51
180.000000000000000
  0
ARC
  8
0
  6
CONTINUOUS
 62
256
 10
2.539571000000000
 20
-37.590099000000002
 40
7.000000000000000
 50
0.000000000000000
 51
90.000000000000000
  0
ARC
  8
0
  6
CONTINUOUS
 62
256
 10
2.539571000000000
 20
-119.590099000000000
 40
7.000000000000000
 50
270.000000000000000
 51
0.000000000000000
  0
ARC
  8
0
  6
CONTINUOUS
 62
256
 10
-115.460429000000000
 20
-119.590099000000000
 40
7.000000000000000
 50
180.000000000000000
 51
270.000000000000000
  0
LINE
  8
0
  6
CONTINUOUS
 62
256
 10
-10.722333000000001
 20
-123.035302000000000
 11
-10.692662000000000
 21
-123.064972999999990
  0
LINE
  8
0
  6
CONTINUOUS
 62
256
 10
-122.460429000000000
 20
-37.590099000000002
 11
-122.460429000000000
 21
-119.590099000000000
  0
ARC
  8
0
  6
CONTINUOUS
 62
256
 10
-38.460428999999998
 20
-78.590098999999995
 40
12.500000000000002
 50
108.662925000000020
 51
71.337074999999999
  0
LINE
  8
0
  6
CONTINUOUS
 62
256
 10
-34.460428999999998
 20
-62.790098999999998
 11
-34.460428999999998
 21
-66.747380000000007
  0
LINE
  8
0
  6
CONTINUOUS
 62
256
 10
-42.460428999999998
 20
-62.790098999999998
 11
-34.460428999999998
 21
-62.790098999999998
  0
LINE
  8
0
  6
CONTINUOUS
 62
256
 10
-42.460428999999998
 20
-62.790098999999998
 11
-42.460428999999998
 21
-66.747380000000007
  0
ARC
  8
0
  6
CONTINUOUS
 62
256
 10
687.290695000000030
 20
-92.590098999999995
 40
400.600000000000080
 50
174.256317999999990
 51
180.000000000000000
  0
ARC
  8
0
  6
CONTINUOUS
 62
256
 10
295.268748000000020
 20
-53.159232000000003
 40
6.600000000000017
 50
135.000000000000170
 51
174.256317999999940
  0
LINE
  8
0
  6
CONTINUOUS
 62
256
 10
293.190695000000010
 20
-45.903475999999998
 11
290.601844000000030
 21
-48.492327000000003
  0
ARC
  8
0
  6
CONTINUOUS
 62
256
 10
-5.909305000000000
 20
-92.590098999999995
 40
400.600000000000020
 50
0.000000000000000
 51
5.743682000000000
  0
ARC
  8
0
  6
CONTINUOUS
 62
256
 10
386.112641999999990
 20
-53.159232000000003
 40
6.599999999999972
 50
5.743682000000001
 51
44.999999999999829
  0
LINE
  8
0
  6
CONTINUOUS
 62
256
 10
388.190347999999970
 20
-45.903129000000000
 11
390.779546999999980
 21
-48.492327000000003
  0
LINE
  8
0
  6
CONTINUOUS
 62
256
 10
309.690695000000010
 20
-145.090099000000010
 11
309.690695000000010
 21
-150.090099000000010
  0
LINE
  8
0
  6
CONTINUOUS
 62
256
 10
309.690695000000010
 20
-145.090099000000010
 11
320.208358999999970
 21
-145.090099000000010
  0
LINE
  8
0
  6
CONTINUOUS
 62
256
 10
371.690695000000010
 20
-150.090099000000010
 11
309.690695000000010
 21
-150.090099000000010
  0
LINE
  8
0
  6
CONTINUOUS
 62
256
 10
371.690695000000010
 20
-145.090099000000010
 11
371.690695000000010
 21
-150.090099000000010
  0
LINE
  8
0
  6
CONTINUOUS
 62
256
 10
361.173030999999980
 20
-145.090099000000010
 11
371.690695000000010
 21
-145.090099000000010
  0
LINE
  8
0
  6
DASHDOT
 62
256
 10
-79.488011000000000
 20
-92.590098999999995
 11
-288.461130000000030
 21
-92.590098999999995
  0
LINE
  8
0
  6
CONTINUOUS
 62
256
 10
370.690695000000010
 20
-150.090099000000010
 11
370.690695000000010
 21
-173.528732999999990
  0
LINE
  8
0
  6
CONTINUOUS
 62
256
 10
310.690695000000010
 20
-150.090099000000010
 11
310.690695000000010
 21
-173.528732999999990
  0
LINE
  8
0
  6
CONTINUOUS
 62
256
 10
-281.960184000000030
 20
-44.746479000000001
 11
-281.960184000000030
 21
-92.590098999999995
  0
LINE
  8
0
  6
CONTINUOUS
 62
256
 10
-273.280704000000010
 20
-37.315567000000001
 11
-280.851482999999970
 21
-42.616683000000002
  0
ARC
  8
0
  6
CONTINUOUS
 62
256
 10
-279.360184000000000
 20
-44.746479000000001
 40
2.600000000000001
 50
125.000000000000110
 51
180.000000000000000
  0
ARC
  8
0
  6
CONTINUOUS
 62
256
 10
-261.465029000000020
 20
-54.190098999999996
 40
20.600000000000001
 50
90.000000000000000
 51
124.999999999999990
  0
LINE
  8
0
  6
CONTINUOUS
 62
256
 10
-281.960184000000030
 20
-140.433719000000000
 11
-281.960184000000030
 21
-92.590098999999995
  0
LINE
  8
0
  6
CONTINUOUS
 62
256
 10
-273.280704000000010
 20
-147.864631000000000
 11
-280.851482999999970
 21
-142.563514000000000
  0
ARC
  8
0
  6
CONTINUOUS
 62
256
 10
-279.360184000000000
 20
-140.433719000000000
 40
2.600000000000023
 50
180.000000000000000
 51
234.999999999999770
  0
ARC
  8
0
  6
CONTINUOUS
 62
256
 10
-261.465029000000020
 20
-130.990098999999990
 40
20.599999999999991
 50
235.000000000000000
 51
270.000000000000000
  0
LINE
  8
0
  6
CONTINUOUS
 62
256
 10
-231.960184000000000
 20
-33.590099000000002
 11
-261.465029000000020
 21
-33.590099000000002
  0
LINE
  8
0
  6
CONTINUOUS
 62
256
 10
-241.960184000000000
 20
-151.590099000000010
 11
-261.465029000000020
 21
-151.590099000000010
  0
LINE
  8
0
  6
CONTINUOUS
 62
256
 10
-239.960184000000000
 20
-150.090099000000010
 11
-239.960184000000000
 21
-147.101368000000010
  0
LINE
  8
0
  6
CONTINUOUS
 62
256
 10
-164.960184000000000
 20
-145.090099000000010
 11
-232.193653000000010
 21
-145.090099000000010
  0
LINE
  8
0
  6
CONTINUOUS
 62
256
 10
-231.960184000000000
 20
-143.590099000000010
 11
-147.960184000000000
 21
-143.590099000000010
  0
LINE
  8
0
  6
CONTINUOUS
 62
256
 10
-231.960184000000000
 20
-143.090099000000010
 11
-147.960184000000000
 21
-143.090099000000010
  0
LINE
  8
0
  6
CONTINUOUS
 62
256
 10
-231.960184000000000
 20
-138.723181000000010
 11
-147.960184000000000
 21
-138.723181000000010
  0
LINE
  8
0
  6
CONTINUOUS
 62
256
 10
-231.960184000000000
 20
-133.632013000000000
 11
-147.960184000000000
 21
-133.632013000000000
  0
LINE
  8
0
  6
CONTINUOUS
 62
256
 10
-231.960184000000000
 20
-124.304490000000000
 11
-147.960184000000000
 21
-124.304490000000000
  0
LINE
  8
0
  6
CONTINUOUS
 62
256
 10
-231.960184000000000
 20
-125.893700000000000
 11
-147.960184000000000
 21
-125.893700000000000
  0
LINE
  8
0
  6
CONTINUOUS
 62
256
 10
-231.960184000000000
 20
-121.346494000000010
 11
-147.960184000000000
 21
-121.346494000000010
  0
LINE
  8
0
  6
CONTINUOUS
 62
256
 10
-231.960184000000000
 20
-119.867470999999990
 11
-147.960184000000000
 21
-119.867470999999990
  0
LINE
  8
0
  6
CONTINUOUS
 62
256
 10
-231.960184000000000
 20
-116.774739999999990
 11
-147.960184000000000
 21
-116.774739999999990
  0
LINE
  8
0
  6
CONTINUOUS
 62
256
 10
-231.960184000000000
 20
-115.428338999999990
 11
-147.960184000000000
 21
-115.428338999999990
  0
LINE
  8
0
  6
CONTINUOUS
 62
256
 10
-231.960184000000000
 20
-112.218134000000010
 11
-147.960184000000000
 21
-112.218134000000010
  0
LINE
  8
0
  6
CONTINUOUS
 62
256
 10
-231.960184000000000
 20
-110.976214000000000
 11
-147.960184000000000
 21
-110.976214000000000
  0
LINE
  8
0
  6
CONTINUOUS
 62
256
 10
-231.960184000000000
 20
-106.590099000000000
 11
-147.960184000000000
 21
-106.590099000000000
  0
LINE
  8
0
  6
CONTINUOUS
 62
256
 10
-231.960184000000000
 20
-78.590098999999995
 11
-147.960184000000000
 21
-78.590098999999995
  0
LINE
  8
0
  6
CONTINUOUS
 62
256
 10
-231.960184000000000
 20
-74.203984000000005
 11
-147.960184000000000
 21
-74.203984000000005
  0
LINE
  8
0
  6
CONTINUOUS
 62
256
 10
-231.960184000000000
 20
-72.962063999999998
 11
-147.960184000000000
 21
-72.962063999999998
  0
LINE
  8
0
  6
CONTINUOUS
 62
256
 10
-231.960184000000000
 20
-69.751858999999996
 11
-147.960184000000000
 21
-69.751858999999996
  0
LINE
  8
0
  6
CONTINUOUS
 62
256
 10
-231.960184000000000
 20
-68.405456999999998
 11
-147.960184000000000
 21
-68.405456999999998
  0
LINE
  8
0
  6
CONTINUOUS
 62
256
 10
-231.960184000000000
 20
-65.312725999999998
 11
-147.960184000000000
 21
-65.312725999999998
  0
LINE
  8
0
  6
CONTINUOUS
 62
256
 10
-231.960184000000000
 20
-63.833703000000000
 11
-147.960184000000000
 21
-63.833703000000000
  0
LINE
  8
0
  6
CONTINUOUS
 62
256
 10
-231.960184000000000
 20
-60.875708000000003
 11
-147.960184000000000
 21
-60.875708000000003
  0
LINE
  8
0
  6
CONTINUOUS
 62
256
 10
-231.960184000000000
 20
-59.286498000000002
 11
-147.960184000000000
 21
-59.286498000000002
  0
LINE
  8
0
  6
CONTINUOUS
 62
256
 10
-231.960184000000000
 20
-51.548184999999997
 11
-147.960184000000000
 21
-51.548184999999997
  0
LINE
  8
0
  6
CONTINUOUS
 62
256
 10
-231.960184000000000
 20
-46.457016000000003
 11
-147.960184000000000
 21
-46.457016000000003
  0
LINE
  8
0
  6
CONTINUOUS
 62
256
 10
-231.960184000000000
 20
-42.090099000000002
 11
-147.960184000000000
 21
-42.090099000000002
  0
LINE
  8
0
  6
CONTINUOUS
 62
256
 10
-231.960184000000000
 20
-41.590099000000002
 11
-147.960184000000000
 21
-41.590099000000002
  0
LINE
  8
0
  6
CONTINUOUS
 62
256
 10
-147.960184000000000
 20
-39.090099000000002
 11
-231.960184000000000
 21
-39.090099000000002
  0
LINE
  8
0
  6
CONTINUOUS
 62
256
 10
-242.960184000000000
 20
-43.446178000000003
 11
-244.960184000000000
 21
-45.098818999999999
  0
LINE
  8
0
  6
CONTINUOUS
 62
256
 10
-240.960184000000000
 20
-42.270392000000001
 11
-242.960184000000000
 21
-43.446178000000003
  0
LINE
  8
0
  6
CONTINUOUS
 62
256
 10
-242.960184000000000
 20
-43.446178000000003
 11
-240.960184000000000
 21
-45.098818999999999
  0
LINE
  8
0
  6
CONTINUOUS
 62
256
 10
-244.960184000000000
 20
-42.270392000000001
 11
-242.960184000000000
 21
-43.446178000000003
  0
POLYLINE
  8
0
  6
CONTINUOUS
 62
256
 66
1
 70
1
  0
VERTEX
  8
0
  6
CONTINUOUS
 62
256
 10
-238.260184000000010
 20
-45.262768000000001
  0
VERTEX
  8
0
  6
CONTINUOUS
 62
256
 10
-238.350493182104830
 20
-44.559811489441834
  0
VERTEX
  8
0
  6
CONTINUOUS
 62
256
 10
-238.617950197196960
 20
-43.883869203361861
  0
VERTEX
  8
0
  6
CONTINUOUS
 62
256
 10
-239.052276822178040
 20
-43.260917224741341
  0
VERTEX
  8
0
  6
CONTINUOUS
 62
256
 10
-239.636782128423220
 20
-42.714895248763163
  0
VERTEX
  8
0
  6
CONTINUOUS
 62
256
 10
-240.349003904807890
 20
-42.266786593751512
  0
VERTEX
  8
0
  6
CONTINUOUS
 62
256
 10
-241.161571867884080
 20
-41.933811824016267
  0
VERTEX
  8
0
  6
CONTINUOUS
 62
256
 10
-242.043259486524190
 20
-41.728766973223941
  0
VERTEX
  8
0
  6
CONTINUOUS
 62
256
 10
-242.960184000000000
 20
-41.659531800000011
  0
VERTEX
  8
0
  6
CONTINUOUS
 62
256
 10
-243.877108513475800
 20
-41.728766973223941
  0
VERTEX
  8
0
  6
CONTINUOUS
 62
256
 10
-244.758796132115920
 20
-41.933811824016267
  0
VERTEX
  8
0
  6
CONTINUOUS
 62
256
 10
-245.571364095192110
 20
-42.266786593751512
  0
VERTEX
  8
0
  6
CONTINUOUS
 62
256
 10
-246.283585871576780
 20
-42.714895248763163
  0
VERTEX
  8
0
  6
CONTINUOUS
 62
256
 10
-246.868091177821950
 20
-43.260917224741341
  0
VERTEX
  8
0
  6
CONTINUOUS
 62
256
 10
-247.302417802803030
 20
-43.883869203361861
  0
VERTEX
  8
0
  6
CONTINUOUS
 62
256
 10
-247.569874817895170
 20
-44.559811489441834
  0
VERTEX
  8
0
  6
CONTINUOUS
 62
256
 10
-247.660183999999990
 20
-45.262768000000001
  0
VERTEX
  8
0
  6
CONTINUOUS
 62
256
 10
-247.569874817895170
 20
-45.965724510558168
  0
VERTEX
  8
0
  6
CONTINUOUS
 62
256
 10
-247.302417802803030
 20
-46.641666796638141
  0
VERTEX
  8
0
  6
CONTINUOUS
 62
256
 10
-246.868091177821950
 20
-47.264618775258661
  0
VERTEX
  8
0
  6
CONTINUOUS
 62
256
 10
-246.283585871576780
 20
-47.810640751236839
  0
VERTEX
  8
0
  6
CONTINUOUS
 62
256
 10
-245.571364095192110
 20
-48.258749406248491
  0
VERTEX
  8
0
  6
CONTINUOUS
 62
256
 10
-244.758796132115920
 20
-48.591724175983735
  0
VERTEX
  8
0
  6
CONTINUOUS
 62
256
 10
-243.877108513475800
 20
-48.796769026776062
  0
VERTEX
  8
0
  6
CONTINUOUS
 62
256
 10
-242.960184000000000
 20
-48.866004199999992
  0
VERTEX
  8
0
  6
CONTINUOUS
 62
256
 10
-242.043259486524190
 20
-48.796769026776062
  0
VERTEX
  8
0
  6
CONTINUOUS
 62
256
 10
-241.161571867884080
 20
-48.591724175983735
  0
VERTEX
  8
0
  6
CONTINUOUS
 62
256
 10
-240.349003904807890
 20
-48.258749406248491
  0
VERTEX
  8
0
  6
CONTINUOUS
 62
256
 10
-239.636782128423250
 20
-47.810640751236839
  0
VERTEX
  8
0
  6
CONTINUOUS
 62
256
 10
-239.052276822178040
 20
-47.264618775258661
  0
VERTEX
  8
0
  6
CONTINUOUS
 62
256
 10
-238.617950197196960
 20
-46.641666796638141
  0
VERTEX
  8
0
  6
CONTINUOUS
 62
256
 10
-238.350493182104830
 20
-45.965724510558168
  0
SEQEND
  8
0
  6
CONTINUOUS
 62
256
  0
LINE
  8
0
  6
CONTINUOUS
 62
256
 10
-231.960184000000000
 20
-33.590099000000002
 11
-231.960184000000000
 21
-92.590098999999995
  0
LINE
  8
0
  6
CONTINUOUS
 62
256
 10
-241.960184000000000
 20
-151.590099000000010
 11
-241.960184000000000
 21
-149.929795000000010
  0
ARC
  8
0
  6
CONTINUOUS
 62
256
 10
-238.960184000000000
 20
-149.929795000000010
 40
3.000000000000000
 50
90.000000000000000
 51
180.000000000000000
  0
LINE
  8
0
  6
CONTINUOUS
 62
256
 10
-242.960184000000000
 20
-141.734019999999990
 11
-244.960184000000000
 21
-140.081378000000000
  0
LINE
  8
0
  6
CONTINUOUS
 62
256
 10
-240.960184000000000
 20
-142.909805000000010
 11
-242.960184000000000
 21
-141.734019999999990
  0
LINE
  8
0
  6
CONTINUOUS
 62
256
 10
-242.960184000000000
 20
-141.734019999999990
 11
-240.960184000000000
 21
-140.081378000000000
  0
LINE
  8
0
  6
CONTINUOUS
 62
256
 10
-244.960184000000000
 20
-142.909805000000010
 11
-242.960184000000000
 21
-141.734019999999990
  0
POLYLINE
  8
0
  6
CONTINUOUS
 62
256
 66
1
 70
1
  0
VERTEX
  8
0
  6
CONTINUOUS
 62
256
 10
-238.260184000000010
 20
-139.917430000000000
  0
VERTEX
  8
0
  6
CONTINUOUS
 62
256
 10
-238.350493182104830
 20
-139.214473489441810
  0
VERTEX
  8
0
  6
CONTINUOUS
 62
256
 10
-238.617950197196960
 20
-138.538531203361860
  0
VERTEX
  8
0
  6
CONTINUOUS
 62
256
 10
-239.052276822178040
 20
-137.915579224741320
  0
VERTEX
  8
0
  6
CONTINUOUS
 62
256
 10
-239.636782128423220
 20
-137.369557248763160
  0
VERTEX
  8
0
  6
CONTINUOUS
 62
256
 10
-240.349003904807890
 20
-136.921448593751510
  0
VERTEX
  8
0
  6
CONTINUOUS
 62
256
 10
-241.161571867884080
 20
-136.588473824016260
  0
VERTEX
  8
0
  6
CONTINUOUS
 62
256
 10
-242.043259486524190
 20
-136.383428973223910
  0
VERTEX
  8
0
  6
CONTINUOUS
 62
256
 10
-242.960184000000000
 20
-136.314193800000000
  0
VERTEX
  8
0
  6
CONTINUOUS
 62
256
 10
-243.877108513475800
 20
-136.383428973223910
  0
VERTEX
  8
0
  6
CONTINUOUS
 62
256
 10
-244.758796132115920
 20
-136.588473824016260
  0
VERTEX
  8
0
  6
CONTINUOUS
 62
256
 10
-245.571364095192110
 20
-136.921448593751510
  0
VERTEX
  8
0
  6
CONTINUOUS
 62
256
 10
-246.283585871576780
 20
-137.369557248763160
  0
VERTEX
  8
0
  6
CONTINUOUS
 62
256
 10
-246.868091177821950
 20
-137.915579224741320
  0
VERTEX
  8
0
  6
CONTINUOUS
 62
256
 10
-247.302417802803030
 20
-138.538531203361860
  0
VERTEX
  8
0
  6
CONTINUOUS
 62
256
 10
-247.569874817895170
 20
-139.214473489441810
  0
VERTEX
  8
0
  6
CONTINUOUS
 62
256
 10
-247.660183999999990
 20
-139.917430000000000
  0
VERTEX
  8
0
  6
CONTINUOUS
 62
256
 10
-247.569874817895170
 20
-140.620386510558180
  0
VERTEX
  8
0
  6
CONTINUOUS
 62
256
 10
-247.302417802803030
 20
-141.296328796638140
  0
VERTEX
  8
0
  6
CONTINUOUS
 62
256
 10
-246.868091177821950
 20
-141.919280775258670
  0
VERTEX
  8
0
  6
CONTINUOUS
 62
256
 10
-246.283585871576780
 20
-142.465302751236830
  0
VERTEX
  8
0
  6
CONTINUOUS
 62
256
 10
-245.571364095192110
 20
-142.913411406248490
  0
VERTEX
  8
0
  6
CONTINUOUS
 62
256
 10
-244.758796132115920
 20
-143.246386175983730
  0
VERTEX
  8
0
  6
CONTINUOUS
 62
256
 10
-243.877108513475800
 20
-143.451431026776050
  0
VERTEX
  8
0
  6
CONTINUOUS
 62
256
 10
-242.960184000000000
 20
-143.520666199999990
  0
VERTEX
  8
0
  6
CONTINUOUS
 62
256
 10
-242.043259486524190
 20
-143.451431026776050
  0
VERTEX
  8
0
  6
CONTINUOUS
 62
256
 10
-241.161571867884080
 20
-143.246386175983730
  0
VERTEX
  8
0
  6
CONTINUOUS
 62
256
 10
-240.349003904807890
 20
-142.913411406248490
  0
VERTEX
  8
0
  6
CONTINUOUS
 62
256
 10
-239.636782128423250
 20
-142.465302751236830
  0
VERTEX
  8
0
  6
CONTINUOUS
 62
256
 10
-239.052276822178040
 20
-141.919280775258670
  0
VERTEX
  8
0
  6
CONTINUOUS
 62
256
 10
-238.617950197196960
 20
-141.296328796638140
  0
VERTEX
  8
0
  6
CONTINUOUS
 62
256
 10
-238.350493182104830
 20
-140.620386510558180
  0
SEQEND
  8
0
  6
CONTINUOUS
 62
256
  0
LINE
  8
0
  6
CONTINUOUS
 62
256
 10
-238.960184000000000
 20
-146.929795000000010
 11
-234.960184000000000
 21
-146.929795000000010
  0
ARC
  8
0
  6
CONTINUOUS
 62
256
 10
-234.960184000000000
 20
-143.929795000000010
 40
3.000000000000000
 50
270.000000000000000
 51
0.000000000000000
  0
LINE
  8
0
  6
CONTINUOUS
 62
256
 10
-231.960184000000000
 20
-143.929795000000010
 11
-231.960184000000000
 21
-92.590098999999995
  0
LINE
  8
0
  6
CONTINUOUS
 62
256
 10
-166.960184000000000
 20
-179.590099000000010
 11
-237.960184000000000
 21
-179.590099000000010
  0
LINE
  8
0
  6
CONTINUOUS
 62
256
 10
-180.960184000000000
 20
-180.090099000000010
 11
-180.960184000000000
 21
-179.590099000000010
  0
LINE
  8
0
  6
CONTINUOUS
 62
256
 10
-180.960184000000000
 20
-180.090099000000010
 11
-172.960184000000000
 21
-180.090099000000010
  0
LINE
  8
0
  6
CONTINUOUS
 62
256
 10
-172.960184000000000
 20
-180.090099000000010
 11
-172.960184000000000
 21
-179.590099000000010
  0
LINE
  8
0
  6
CONTINUOUS
 62
256
 10
-147.960184000000000
 20
-146.090099000000010
 11
-164.960184000000000
 21
-146.090099000000010
  0
ARC
  8
0
  6
CONTINUOUS
 62
256
 10
-166.960184000000000
 20
-178.590099000000010
 40
1.000000000000000
 50
270.000000000000000
 51
0.000000000000000
  0
ARC
  8
0
  6
CONTINUOUS
 62
256
 10
-237.960184000000000
 20
-178.590099000000010
 40
1.000000000000000
 50
180.000000000000000
 51
270.000000000000000
  0
LINE
  8
0
  6
CONTINUOUS
 62
256
 10
-238.960184000000000
 20
-178.590099000000010
 11
-238.960184000000000
 21
-150.090099000000010
  0
LINE
  8
0
  6
CONTINUOUS
 62
256
 10
-165.960184000000000
 20
-178.590099000000010
 11
-165.960184000000000
 21
-150.090099000000010
  0
LINE
  8
0
  6
CONTINUOUS
 62
256
 10
-164.960184000000000
 20
-150.090099000000010
 11
-164.960184000000000
 21
-145.090099000000010
  0
LINE
  8
0
  6
CONTINUOUS
 62
256
 10
-239.960184000000000
 20
-150.090099000000010
 11
-164.960184000000000
 21
-150.090099000000010
  0
LINE
  8
0
  6
CONTINUOUS
 62
256
 10
-147.960184000000000
 20
-146.090099000000010
 11
-147.960184000000000
 21
-39.090099000000002
  0
TEXT
  8
0
  6
CONTINUOUS
 62
256
 10
430.200561523437500
 20
-225.902877807617190
 40
3.299999952316284
  1
1/1
 50
0.000002504478167
 41
0.850909097352304
  7
STANDARD1
  0
TEXT
  8
0
  6
CONTINUOUS
 62
256
 10
427.782562255859370
 20
-225.902877807617190
 40
3.299999952316284
  1
 
 50
0.000002504478167
 41
1.733333298293026
  7
STANDARD1
  0
TEXT
  8
0
  6
CONTINUOUS
 62
256
 10
414.731933593750000
 20
-225.902877807617190
 40
3.299999952316284
  1
SCALE
 50
0.000002504478167
 41
0.821052645401140
  7
STANDARD1
  0
TEXT
  8
0
  6
CONTINUOUS
 62
256
 10
411.480560302734370
 20
-225.902877807617190
 40
3.299999952316284
  1
 
 50
0.000002504478167
 41
1.733333298293026
  7
STANDARD1
  0
TEXT
  8
0
  6
CONTINUOUS
 62
256
 10
426.343750000000000
 20
-220.602874755859370
 40
3.299999952316284
  1
1/60
 50
0.000002504478167
 41
0.832000075658163
  7
STANDARD1
  0
TEXT
  8
0
  6
CONTINUOUS
 62
256
 10
422.552734375000000
 20
-220.602874755859370
 40
3.299999952316284
  1
ü`
 50
0.000002504478167
 41
1.176000019651471
  7
STANDARD1
  0
TEXT
  8
0
  6
CONTINUOUS
 62
256
 10
411.480560302734370
 20
-220.602874755859370
 40
3.299999952316284
  1
1/40
 50
0.000002504478167
 41
0.832000075658163
  7
STANDARD1
  0
TEXT
  8
0
  6
CONTINUOUS
 62
256
 10
411.480560302734370
 20
-215.302871704101560
 40
3.299999952316284
  1
GM-SSYF-RH
 50
0.000002504478167
 41
0.799999980493025
  7
STANDARD1
  0
TEXT
  8
0
  6
CONTINUOUS
 62
256
 10
417.305938720703120
 20
-210.002883911132810
 40
3.299999952316284
  1
0.2kW
 50
0.000002504478167
 41
0.821052645401140
  7
STANDARD1
  0
TEXT
  8
0
  6
CONTINUOUS
 62
256
 10
411.480560302734370
 20
-210.002883911132810
 40
3.299999952316284
  1
  
 50
0.000002504478167
 41
1.485714400175845
  7
STANDARD1
  0
TEXT
  8
0
  6
CONTINUOUS
 62
256
 10
417.305938720703120
 20
-204.702880859375000
 40
3.299999952316284
  1
SSY03
 50
0.000002504478167
 41
0.821052645401140
  7
STANDARD1
  0
TEXT
  8
0
  6
CONTINUOUS
 62
256
 10
411.480560302734370
 20
-204.702880859375000
 40
3.299999952316284
  1
  
 50
0.000002504478167
 41
1.485714400175845
  7
STANDARD1
  0
LINE
  8
0
  6
DASHED
 62
256
 10
-170.460184000000000
 20
-150.090099000000010
 11
-170.460184000000000
 21
-164.590099000000010
  0
LINE
  8
0
  6
DASHED
 62
256
 10
-184.460184000000000
 20
-150.090099000000010
 11
-184.460184000000000
 21
-164.590099000000010
  0
ARC
  8
0
  6
DASHED
 62
256
 10
-177.460184000000000
 20
-164.590099000000010
 40
7.000000000000000
 50
180.000000000000000
 51
0.000000000000000
  0
CIRCLE
  8
0
  6
DASHED
 62
256
 10
-177.460184000000000
 20
-164.590099000000010
 40
6.000000000000000
  0
LINE
  8
0
  6
DASHDOT
 62
256
 10
-177.460184000000000
 20
-147.306247000000010
 11
-177.460184000000000
 21
-175.285597000000000
  0
LINE
  8
0
  6
DASHDOT
 62
256
 10
-187.870483000000010
 20
-164.590099000000010
 11
-167.496301999999990
 21
-164.590099000000010
  0
LINE
  8
0
  6
DASHED
 62
256
 10
-234.460184000000000
 20
-150.090099000000010
 11
-234.460184000000000
 21
-164.590099000000010
  0
LINE
  8
0
  6
DASHED
 62
256
 10
-220.460184000000000
 20
-150.090099000000010
 11
-220.460184000000000
 21
-164.590099000000010
  0
LINE
  8
0
  6
DASHDOT
 62
256
 10
-227.460184000000000
 20
-147.306247000000010
 11
-227.460184000000000
 21
-175.285597000000000
  0
LINE
  8
0
  6
DASHDOT
 62
256
 10
-236.768518000000000
 20
-164.590099000000010
 11
-217.579477999999990
 21
-164.590099000000010
  0
LINE
  8
0
  6
CONTINUOUS
 62
256
 10
-419.508423999999990
 20
-149.891548000000000
 11
-419.508423999999990
 21
-150.090099000000010
  0
LINE
  8
0
  6
CONTINUOUS
 62
256
 10
-419.508423999999990
 20
-150.090099000000010
 11
-417.996409000000030
 21
-150.090099000000010
  0
ARC
  8
0
  6
CONTINUOUS
 62
256
 10
-342.586477000000000
 20
-53.159232000000003
 40
6.599999999999972
 50
5.743682000000001
 51
44.999999999999829
  0
ARC
  8
0
  6
CONTINUOUS
 62
256
 10
-734.608424000000010
 20
-92.590098999999995
 40
400.600000000000020
 50
0.000000000000000
 51
5.743682000000000
  0
ARC
  8
0
  6
CONTINUOUS
 62
256
 10
-359.944666999999980
 20
-55.600031999999999
 40
20.599999999999994
 50
45.000000000000014
 51
84.247716999999938
  0
LINE
  8
0
  6
CONTINUOUS
 62
256
 10
-345.378266999999990
 20
-41.033631999999997
 11
-337.919572000000020
 21
-48.492327000000003
  0
ARC
  8
0
  6
CONTINUOUS
 62
256
 10
-388.008423999999990
 20
-334.190098999999980
 40
300.600000000000020
 50
84.247716999999994
 51
90.000000000000000
  0
ARC
  8
0
  6
CONTINUOUS
 62
256
 10
-433.430369999999980
 20
-53.159232000000003
 40
6.600000000000017
 50
135.000000000000170
 51
174.256317999999940
  0
ARC
  8
0
  6
CONTINUOUS
 62
256
 10
-41.408423999999997
 20
-92.590098999999995
 40
400.600000000000080
 50
174.256317999999990
 51
180.000000000000000
  0
ARC
  8
0
  6
CONTINUOUS
 62
256
 10
-416.072180000000000
 20
-55.600031999999999
 40
20.600000000000009
 50
95.752283000000077
 51
135.000000000000000
  0
LINE
  8
0
  6
CONTINUOUS
 62
256
 10
-430.638579999999990
 20
-41.033631999999997
 11
-438.097275000000020
 21
-48.492327000000003
  0
ARC
  8
0
  6
CONTINUOUS
 62
256
 10
-388.008423999999990
 20
-334.190098999999980
 40
300.600000000000020
 50
90.000000000000000
 51
95.752283000000006
  0
ARC
  8
0
  6
CONTINUOUS
 62
256
 10
-433.430369999999980
 20
-132.020965999999990
 40
6.599999999999971
 50
185.743681999999920
 51
224.999999999999830
  0
ARC
  8
0
  6
CONTINUOUS
 62
256
 10
-41.408423999999997
 20
-92.590098999999995
 40
400.600000000000020
 50
180.000000000000000
 51
185.743681999999980
  0
ARC
  8
0
  6
CONTINUOUS
 62
256
 10
-416.072180000000000
 20
-129.580165999999990
 40
20.599999999999991
 50
225.000000000000000
 51
264.247716999999910
  0
LINE
  8
0
  6
CONTINUOUS
 62
256
 10
-430.638579999999990
 20
-144.146566000000010
 11
-438.097275000000020
 21
-136.687871000000000
  0
ARC
  8
0
  6
CONTINUOUS
 62
256
 10
-388.008423999999990
 20
149.009901000000010
 40
300.600000000000020
 50
264.247717000000020
 51
270.000000000000000
  0
ARC
  8
0
  6
CONTINUOUS
 62
256
 10
-388.008423999999990
 20
149.009901000000010
 40
290.797000000000030
 50
270.000000000000000
 51
275.752282999999980
  0
LINE
  8
0
  6
CONTINUOUS
 62
256
 10
-352.310035000000030
 20
-137.214798000000000
 11
-346.422620999999990
 21
-131.327384000000000
  0
ARC
  8
0
  6
CONTINUOUS
 62
256
 10
-359.944666999999980
 20
-129.580165999999990
 40
10.796999999999988
 50
275.752283000000030
 51
315.000000000000000
  0
LINE
  8
0
  6
CONTINUOUS
 62
256
 10
-358.015924999999980
 20
-150.090099000000010
 11
-356.508423999999990
 21
-150.090099000000010
  0
LINE
  8
0
  6
CONTINUOUS
 62
256
 10
-356.508423999999990
 20
-149.891548000000000
 11
-356.508423999999990
 21
-150.090099000000010
  0
ARC
  8
0
  6
CONTINUOUS
 62
256
 10
-388.008423999999990
 20
149.009901000000010
 40
300.600000000000020
 50
270.000000000000000
 51
275.752282999999980
  0
LINE
  8
0
  6
CONTINUOUS
 62
256
 10
-345.378266999999990
 20
-144.146566000000010
 11
-337.919572000000020
 21
-136.687871000000000
  0
ARC
  8
0
  6
CONTINUOUS
 62
256
 10
-359.944666999999980
 20
-129.580165999999990
 40
20.599999999999991
 50
275.752282999999860
 51
315.000000000000000
  0
LINE
  8
0
  6
CONTINUOUS
 62
256
 10
-390.508423999999990
 20
-180.090099000000010
 11
-385.508423999999990
 21
-180.090099000000010
  0
LINE
  8
0
  6
CONTINUOUS
 62
256
 10
-390.508423999999990
 20
-179.579681999999990
 11
-390.508423999999990
 21
-180.090099000000010
  0
LINE
  8
0
  6
CONTINUOUS
 62
256
 10
-385.508423999999990
 20
-179.579681999999990
 11
-385.508423999999990
 21
-180.090099000000010
  0
ARC
  8
0
  6
CONTINUOUS
 62
256
 10
-388.008423999999990
 20
120.409901000000000
 40
300.000000000000000
 50
265.138595000000010
 51
274.861404999999990
  0
LINE
  8
0
  6
CONTINUOUS
 62
256
 10
-358.008423999999990
 20
-150.090099000000010
 11
-358.008423999999990
 21
-173.528867999999990
  0
LINE
  8
0
  6
CONTINUOUS
 62
256
 10
-418.008423999999990
 20
-150.090099000000010
 11
-418.008423999999990
 21
-173.528867999999990
  0
ARC
  8
0
  6
CONTINUOUS
 62
256
 10
-363.008423999999990
 20
-173.528867999999990
 40
4.999999999999989
 50
274.861405000000100
 51
0.000000000000000
  0
ARC
  8
0
  6
CONTINUOUS
 62
256
 10
-413.008423999999990
 20
-173.528867999999990
 40
5.000000000000000
 50
180.000000000000000
 51
265.138594999999900
  0
ARC
  8
0
  6
CONTINUOUS
 62
256
 10
-388.008423999999990
 20
-334.190098999999980
 40
290.797000000000030
 50
84.998350000000002
 51
90.000000000000000
  0
LINE
  8
0
  6
CONTINUOUS
 62
256
 10
-349.762925999999990
 20
-50.512509000000001
 11
-346.422620999999990
 21
-53.852814000000002
  0
ARC
  8
0
  6
CONTINUOUS
 62
256
 10
-364.468625999999970
 20
-65.218208000000004
 40
20.797000000000008
 50
44.999999999999972
 51
84.998349999999959
  0
ARC
  8
0
  6
CONTINUOUS
 62
256
 10
-734.608424000000010
 20
-92.590098999999995
 40
390.797000000000030
 50
0.000000000000000
 51
5.417964000000000
  0
ARC
  8
0
  6
CONTINUOUS
 62
256
 10
-348.543942000000020
 20
-55.974133999999999
 40
2.999999999999997
 50
5.417964000000066
 51
44.999999999999808
  0
ARC
  8
0
  6
CONTINUOUS
 62
256
 10
-388.008423999999990
 20
-334.190098999999980
 40
290.797000000000030
 50
90.000000000000000
 51
95.001649999999998
  0
LINE
  8
0
  6
CONTINUOUS
 62
256
 10
-426.253920999999990
 20
-50.512509000000001
 11
-429.594225999999990
 21
-53.852814000000002
  0
ARC
  8
0
  6
CONTINUOUS
 62
256
 10
-411.548221000000010
 20
-65.218208000000004
 40
20.797000000000001
 50
95.001650000000041
 51
135.000000000000030
  0
ARC
  8
0
  6
CONTINUOUS
 62
256
 10
-41.408423999999997
 20
-92.590098999999995
 40
390.797000000000030
 50
174.582035999999990
 51
180.000000000000000
  0
ARC
  8
0
  6
CONTINUOUS
 62
256
 10
-427.472906000000020
 20
-55.974133999999999
 40
3.000000000000014
 50
135.000000000000200
 51
174.582035999999930
  0
ARC
  8
0
  6
CONTINUOUS
 62
256
 10
-388.008423999999990
 20
149.009901000000010
 40
290.797000000000030
 50
264.998350000000070
 51
270.000000000000000
  0
LINE
  8
0
  6
CONTINUOUS
 62
256
 10
-426.253920999999990
 20
-134.667689000000000
 11
-429.594225999999990
 21
-131.327384000000000
  0
ARC
  8
0
  6
CONTINUOUS
 62
256
 10
-411.548221000000010
 20
-119.961989000000000
 40
20.797000000000008
 50
224.999999999999970
 51
264.998350000000070
  0
ARC
  8
0
  6
CONTINUOUS
 62
256
 10
-41.408423999999997
 20
-92.590098999999995
 40
390.797000000000030
 50
180.000000000000000
 51
185.417964000000010
  0
ARC
  8
0
  6
CONTINUOUS
 62
256
 10
-427.472906000000020
 20
-129.206064000000000
 40
2.999999999999998
 50
185.417964000000180
 51
224.999999999999630
  0
ARC
  8
0
  6
CONTINUOUS
 62
256
 10
-348.543942000000020
 20
-129.206064000000000
 40
3.000000000000004
 50
315.000000000000340
 51
354.582035999999790
  0
ARC
  8
0
  6
CONTINUOUS
 62
256
 10
-734.608424000000010
 20
-92.590098999999995
 40
390.797000000000030
 50
354.582036000000020
 51
0.000000000000000
  0
ARC
  8
0
  6
CONTINUOUS
 62
256
 10
-342.586477000000000
 20
-132.020965999999990
 40
6.600000000000017
 50
315.000000000000170
 51
354.256318000000020
  0
ARC
  8
0
  6
CONTINUOUS
 62
256
 10
-734.608424000000010
 20
-92.590098999999995
 40
400.600000000000020
 50
354.256318000000020
 51
0.000000000000000
  0
ARC
  8
0
  6
CONTINUOUS
 62
256
 10
-422.832984000000010
 20
-89.090098999999995
 40
1.000000000000000
 50
270.000000000000000
 51
354.260829999999540
  0
ARC
  8
0
  6
CONTINUOUS
 62
256
 10
-425.846896000000020
 20
-89.090098999999995
 40
1.000000000000027
 50
174.715267000000240
 51
270.000000000000000
  0
ARC
  8
0
  6
CONTINUOUS
 62
256
 10
-417.300061000000030
 20
-89.090098999999995
 40
1.000000000000019
 50
173.186146000000240
 51
270.000000000000000
  0
LINE
  8
0
  6
CONTINUOUS
 62
256
 10
-425.846896000000020
 20
-90.090098999999995
 11
-422.832984000000010
 21
-90.090098999999995
  0
ARC
  8
0
  6
CONTINUOUS
 62
256
 10
-393.805556000000020
 20
-75.549170000000004
 40
0.999999999999984
 50
210.000000000000510
 51
288.787729000000750
  0
LINE
  8
0
  6
CONTINUOUS
 62
256
 10
-396.196500000000010
 20
-73.407934999999995
 11
-394.671582000000000
 21
-76.049170000000004
  0
ARC
  8
0
  6
CONTINUOUS
 62
256
 10
-395.330473999999980
 20
-72.907934999999995
 40
0.999999999999993
 50
110.405931999999860
 51
210.000000000000510
  0
ARC
  8
0
  6
CONTINUOUS
 62
256
 10
-398.111260000000020
 20
-68.091472999999993
 40
0.999999999999984
 50
210.000000000000510
 51
292.410458000000400
  0
ARC
  8
0
  6
CONTINUOUS
 62
256
 10
-402.389614999999990
 20
-60.681145000000001
 40
0.999999999999984
 50
210.000000000000510
 51
294.260829999998690
  0
LINE
  8
0
  6
CONTINUOUS
 62
256
 10
-400.489178999999980
 20
-65.972797000000000
 11
-398.977285999999990
 21
-68.591472999999993
  0
ARC
  8
0
  6
CONTINUOUS
 62
256
 10
-399.623153000000000
 20
-65.472797000000000
 40
1.000000000000000
 50
113.186146000000120
 51
210.000000000000510
  0
LINE
  8
0
  6
CONTINUOUS
 62
256
 10
-404.762595999999970
 20
-58.571019999999997
 11
-403.255640000000030
 21
-61.181145000000001
  0
ARC
  8
0
  6
CONTINUOUS
 62
256
 10
-403.896570999999990
 20
-58.071019999999997
 40
1.000000000000004
 50
114.715267000000150
 51
210.000000000000510
  0
ARC
  8
0
  6
CONTINUOUS
 62
256
 10
-409.958749000000010
 20
-61.571019999999997
 40
0.999999999999984
 50
30.000000000000544
 51
125.284733000001220
  0
ARC
  8
0
  6
CONTINUOUS
 62
256
 10
-408.451793000000010
 20
-64.181145000000001
 40
0.999999999999998
 50
305.739170000000230
 51
30.000000000000544
  0
ARC
  8
0
  6
CONTINUOUS
 62
256
 10
-414.276275000000000
 20
-89.090098999999995
 40
1.000000000000000
 50
270.000000000000000
 51
352.410458000000010
  0
ARC
  8
0
  6
CONTINUOUS
 62
256
 10
-405.685331000000020
 20
-68.972797000000000
 40
0.999999999999984
 50
30.000000000000544
 51
126.813854000000730
  0
ARC
  8
0
  6
CONTINUOUS
 62
256
 10
-404.173437999999980
 20
-71.591472999999993
 40
0.999999999999993
 50
307.589541999998800
 51
30.000000000000544
  0
ARC
  8
0
  6
CONTINUOUS
 62
256
 10
-408.714702999999990
 20
-89.090098999999995
 40
0.999999999999978
 50
170.405932000000040
 51
270.000000000000000
  0
ARC
  8
0
  6
CONTINUOUS
 62
256
 10
-405.664867000000020
 20
-89.090098999999995
 40
1.000000000000000
 50
270.000000000000000
 51
348.787729000000300
  0
ARC
  8
0
  6
CONTINUOUS
 62
256
 10
-401.392652000000000
 20
-76.407934999999995
 40
0.999999999999984
 50
30.000000000000544
 51
129.594067999999310
  0
ARC
  8
0
  6
CONTINUOUS
 62
256
 10
-399.867733999999980
 20
-79.049170000000004
 40
1.000000000000006
 50
311.212270999999760
 51
30.000000000000544
  0
ARC
  8
0
  6
CONTINUOUS
 62
256
 10
-397.039513000000000
 20
-83.947794000000002
 40
0.999999999999984
 50
30.000000000000544
 51
136.260205000000240
  0
ARC
  8
0
  6
CONTINUOUS
 62
256
 10
-400.008423999999990
 20
-89.090098999999995
 40
0.999999999999976
 50
163.739794999999330
 51
270.000000000000000
  0
ARC
  8
0
  6
CONTINUOUS
 62
256
 10
-396.840184000000020
 20
-89.090098999999995
 40
1.000000000000000
 50
270.000000000000000
 51
338.381728000000520
  0
ARC
  8
0
  6
CONTINUOUS
 62
256
 10
-395.455393000000020
 20
-86.691569999999999
 40
0.999999999999985
 50
321.618271999998970
 51
30.000000000000544
  0
ARC
  8
0
  6
CONTINUOUS
 62
256
 10
-388.008423999999990
 20
-92.590098999999995
 40
39.000000000000000
 50
125.284733000000000
 51
174.715267000000010
  0
ARC
  8
0
  6
CONTINUOUS
 62
256
 10
-388.008423999999990
 20
-92.590098999999995
 40
30.499999999999982
 50
126.813853999999980
 51
173.186145999999980
  0
ARC
  8
0
  6
CONTINUOUS
 62
256
 10
-388.008423999999990
 20
-92.590098999999995
 40
34.000000000000007
 50
125.739170000000040
 51
174.260830000000000
  0
ARC
  8
0
  6
CONTINUOUS
 62
256
 10
-388.008423999999990
 20
-92.590098999999995
 40
25.499999999999996
 50
127.589541999999970
 51
172.410458000000010
  0
ARC
  8
0
  6
CONTINUOUS
 62
256
 10
-388.008423999999990
 20
-92.590098999999995
 40
21.999999999999986
 50
129.594067999999940
 51
170.405931999999980
  0
ARC
  8
0
  6
CONTINUOUS
 62
256
 10
-388.008423999999990
 20
-92.590098999999995
 40
17.000000000000014
 50
131.212271000000020
 51
168.787728999999980
  0
ARC
  8
0
  6
CONTINUOUS
 62
256
 10
-388.008423999999990
 20
-92.590098999999995
 40
13.500000000000004
 50
136.260205000000010
 51
163.739794999999960
  0
ARC
  8
0
  6
CONTINUOUS
 62
256
 10
-388.008423999999990
 20
-92.590098999999995
 40
8.500000000000005
 50
141.618272000000020
 51
158.381728000000040
  0
LINE
  8
0
  6
CONTINUOUS
 62
256
 10
-404.819305999999980
 20
-68.472797000000000
 11
-403.307413000000000
 21
-71.091472999999993
  0
LINE
  8
0
  6
CONTINUOUS
 62
256
 10
-409.092722999999980
 20
-61.071019999999997
 11
-407.585766999999980
 21
-63.681145000000001
  0
LINE
  8
0
  6
CONTINUOUS
 62
256
 10
-400.526627000000020
 20
-75.907934999999995
 11
-399.001709000000010
 21
-78.549170000000004
  0
LINE
  8
0
  6
CONTINUOUS
 62
256
 10
-396.173487000000020
 20
-83.447794000000002
 11
-394.589367999999980
 21
-86.191569999999999
  0
LINE
  8
0
  6
CONTINUOUS
 62
256
 10
-400.008423999999990
 20
-90.090098999999995
 11
-396.840184000000020
 21
-90.090098999999995
  0
LINE
  8
0
  6
CONTINUOUS
 62
256
 10
-408.714702999999990
 20
-90.090098999999995
 11
-405.664867000000020
 21
-90.090098999999995
  0
LINE
  8
0
  6
CONTINUOUS
 62
256
 10
-417.300061000000030
 20
-90.090098999999995
 11
-414.276275000000000
 21
-90.090098999999995
  0
ARC
  8
0
  6
CONTINUOUS
 62
256
 10
-389.393215000000000
 20
-83.191569999999999
 40
0.999999999999984
 50
210.000000000000510
 51
278.381727999998870
  0
ARC
  8
0
  6
CONTINUOUS
 62
256
 10
-388.008423999999990
 20
-92.590098999999995
 40
8.500000000000002
 50
81.618271999999948
 51
98.381728000000052
  0
LINE
  8
0
  6
CONTINUOUS
 62
256
 10
-391.843360000000020
 20
-80.947794000000002
 11
-390.259240999999970
 21
-83.691569999999999
  0
ARC
  8
0
  6
CONTINUOUS
 62
256
 10
-390.977334999999980
 20
-80.447794000000002
 40
1.000000000000011
 50
103.739795000001280
 51
210.000000000000510
  0
ARC
  8
0
  6
CONTINUOUS
 62
256
 10
-370.351980000000030
 20
-89.090098999999995
 40
1.000000000000016
 50
191.212270999999730
 51
270.000000000000000
  0
LINE
  8
0
  6
CONTINUOUS
 62
256
 10
-367.302144000000000
 20
-90.090098999999995
 11
-370.351980000000030
 21
-90.090098999999995
  0
ARC
  8
0
  6
CONTINUOUS
 62
256
 10
-367.302144000000000
 20
-89.090098999999995
 40
1.000000000000000
 50
270.000000000000000
 51
9.594067999999961
  0
ARC
  8
0
  6
CONTINUOUS
 62
256
 10
-361.740572999999980
 20
-89.090098999999995
 40
0.999999999999990
 50
187.589541999999990
 51
270.000000000000000
  0
LINE
  8
0
  6
CONTINUOUS
 62
256
 10
-358.716787000000010
 20
-90.090098999999995
 11
-361.740572999999980
 21
-90.090098999999995
  0
ARC
  8
0
  6
CONTINUOUS
 62
256
 10
-358.716787000000010
 20
-89.090098999999995
 40
1.000000000000000
 50
270.000000000000000
 51
6.813853999999752
  0
ARC
  8
0
  6
CONTINUOUS
 62
256
 10
-353.183862999999970
 20
-89.090098999999995
 40
0.999999999999978
 50
185.739170000000430
 51
270.000000000000000
  0
LINE
  8
0
  6
CONTINUOUS
 62
256
 10
-350.169951000000030
 20
-90.090098999999995
 11
-353.183862999999970
 21
-90.090098999999995
  0
ARC
  8
0
  6
CONTINUOUS
 62
256
 10
-350.169951000000030
 20
-89.090098999999995
 40
1.000000000000000
 50
270.000000000000000
 51
5.284732999999778
  0
ARC
  8
0
  6
CONTINUOUS
 62
256
 10
-370.331516000000020
 20
-68.972797000000000
 40
1.000000000000011
 50
53.186145999999269
 51
149.999999999999460
  0
LINE
  8
0
  6
CONTINUOUS
 62
256
 10
-371.197542000000000
 20
-68.472797000000000
 11
-372.709434999999980
 21
-71.091472999999993
  0
ARC
  8
0
  6
CONTINUOUS
 62
256
 10
-371.843409000000010
 20
-71.591472999999993
 40
0.999999999999984
 50
149.999999999999460
 51
232.410458000001200
  0
ARC
  8
0
  6
CONTINUOUS
 62
256
 10
-366.058097999999970
 20
-61.571019999999997
 40
1.000000000000011
 50
54.715266999998782
 51
149.999999999999460
  0
LINE
  8
0
  6
CONTINUOUS
 62
256
 10
-366.924124000000010
 20
-61.071019999999997
 11
-368.431080000000010
 21
-63.681145000000001
  0
ARC
  8
0
  6
CONTINUOUS
 62
256
 10
-367.565054999999970
 20
-64.181145000000001
 40
0.999999999999984
 50
149.999999999999460
 51
234.260829999999740
  0
ARC
  8
0
  6
CONTINUOUS
 62
256
 10
-380.561454000000030
 20
-86.691569999999999
 40
0.999999999999984
 50
149.999999999999460
 51
218.381728000001000
  0
LINE
  8
0
  6
CONTINUOUS
 62
256
 10
-379.843360000000020
 20
-83.447794000000002
 11
-381.427480000000000
 21
-86.191569999999999
  0
ARC
  8
0
  6
CONTINUOUS
 62
256
 10
-376.149113000000000
 20
-79.049170000000004
 40
0.999999999999984
 50
149.999999999999460
 51
228.787729000000240
  0
LINE
  8
0
  6
CONTINUOUS
 62
256
 10
-375.490220000000020
 20
-75.907934999999995
 11
-377.015137999999980
 21
-78.549170000000004
  0
ARC
  8
0
  6
CONTINUOUS
 62
256
 10
-374.624194999999990
 20
-76.407934999999995
 40
0.999999999999988
 50
50.405932000000682
 51
149.999999999999460
  0
ARC
  8
0
  6
CONTINUOUS
 62
256
 10
-379.176663000000020
 20
-89.090098999999995
 40
1.000000000000013
 50
201.618271999999450
 51
270.000000000000000
  0
ARC
  8
0
  6
CONTINUOUS
 62
256
 10
-388.008423999999990
 20
-92.590098999999995
 40
8.500000000000016
 50
21.618271999999980
 51
38.381727999999960
  0
ARC
  8
0
  6
CONTINUOUS
 62
256
 10
-378.977334999999980
 20
-83.947794000000002
 40
1.000000000000005
 50
43.739794999999773
 51
149.999999999999460
  0
LINE
  8
0
  6
CONTINUOUS
 62
256
 10
-376.008423999999990
 20
-90.090098999999995
 11
-379.176663000000020
 21
-90.090098999999995
  0
ARC
  8
0
  6
CONTINUOUS
 62
256
 10
-376.008423999999990
 20
-89.090098999999995
 40
1.000000000000000
 50
270.000000000000000
 51
16.260205000000671
  0
ARC
  8
0
  6
CONTINUOUS
 62
256
 10
-388.008423999999990
 20
-92.590098999999995
 40
13.499999999999989
 50
16.260205000000035
 51
43.739795000000001
  0
ARC
  8
0
  6
CONTINUOUS
 62
256
 10
-388.008423999999990
 20
-92.590098999999995
 40
16.999999999999993
 50
11.212271000000010
 51
48.787728999999970
  0
ARC
  8
0
  6
CONTINUOUS
 62
256
 10
-388.008423999999990
 20
-92.590098999999995
 40
21.999999999999979
 50
9.594068000000020
 51
50.405932000000064
  0
ARC
  8
0
  6
CONTINUOUS
 62
256
 10
-388.008423999999990
 20
-92.590098999999995
 40
30.499999999999986
 50
6.813854000000005
 51
53.186146000000029
  0
ARC
  8
0
  6
CONTINUOUS
 62
256
 10
-388.008423999999990
 20
-92.590098999999995
 40
25.500000000000011
 50
7.589541999999985
 51
52.410458000000027
  0
ARC
  8
0
  6
CONTINUOUS
 62
256
 10
-388.008423999999990
 20
-92.590098999999995
 40
34.000000000000028
 50
5.739170000000004
 51
54.260829999999984
  0
ARC
  8
0
  6
CONTINUOUS
 62
256
 10
-388.008423999999990
 20
-92.590098999999995
 40
38.999999999999986
 50
5.284733000000007
 51
54.715266999999990
  0
ARC
  8
0
  6
CONTINUOUS
 62
256
 10
-376.393693999999980
 20
-65.472797000000000
 40
0.999999999999984
 50
329.999999999999490
 51
66.813853999999878
  0
LINE
  8
0
  6
CONTINUOUS
 62
256
 10
-375.527669000000000
 20
-65.972797000000000
 11
-377.039561999999990
 21
-68.591472999999993
  0
ARC
  8
0
  6
CONTINUOUS
 62
256
 10
-377.905587000000030
 20
-68.091472999999993
 40
1.000000000000009
 50
247.589541999999540
 51
329.999999999999490
  0
ARC
  8
0
  6
CONTINUOUS
 62
256
 10
-372.120275999999990
 20
-58.071019999999997
 40
0.999999999999984
 50
329.999999999999490
 51
65.284732999999861
  0
LINE
  8
0
  6
CONTINUOUS
 62
256
 10
-371.254251000000010
 20
-58.571019999999997
 11
-372.761207000000010
 21
-61.181145000000001
  0
ARC
  8
0
  6
CONTINUOUS
 62
256
 10
-373.627231999999990
 20
-60.681145000000001
 40
0.999999999999992
 50
245.739170000001340
 51
329.999999999999490
  0
ARC
  8
0
  6
CONTINUOUS
 62
256
 10
-386.623631999999990
 20
-83.191569999999999
 40
0.999999999999998
 50
261.618272000001130
 51
329.999999999999490
  0
LINE
  8
0
  6
CONTINUOUS
 62
256
 10
-384.173487000000020
 20
-80.947794000000002
 11
-385.757607000000010
 21
-83.691569999999999
  0
ARC
  8
0
  6
CONTINUOUS
 62
256
 10
-382.211291000000020
 20
-75.549170000000004
 40
1.000000000000010
 50
251.212270999999220
 51
329.999999999999490
  0
LINE
  8
0
  6
CONTINUOUS
 62
256
 10
-379.820347000000030
 20
-73.407934999999995
 11
-381.345264999999980
 21
-76.049170000000004
  0
ARC
  8
0
  6
CONTINUOUS
 62
256
 10
-380.686373000000000
 20
-72.907934999999995
 40
0.999999999999984
 50
329.999999999999490
 51
69.594068000000149
  0
ARC
  8
0
  6
CONTINUOUS
 62
256
 10
-385.039513000000000
 20
-80.447794000000002
 40
0.999999999999984
 50
329.999999999999490
 51
76.260204999998734
  0
ARC
  8
0
  6
CONTINUOUS
 62
256
 10
-388.008423999999990
 20
-92.590098999999995
 40
13.499999999999989
 50
76.260205000000056
 51
103.739794999999940
  0
ARC
  8
0
  6
CONTINUOUS
 62
256
 10
-388.008423999999990
 20
-92.590098999999995
 40
16.999999999999993
 50
71.212271000000044
 51
108.787728999999960
  0
ARC
  8
0
  6
CONTINUOUS
 62
256
 10
-388.008423999999990
 20
-92.590098999999995
 40
21.999999999999996
 50
69.594067999999993
 51
110.405932000000020
  0
ARC
  8
0
  6
CONTINUOUS
 62
256
 10
-388.008423999999990
 20
-92.590098999999995
 40
30.499999999999996
 50
66.813853999999992
 51
113.186146000000020
  0
ARC
  8
0
  6
CONTINUOUS
 62
256
 10
-388.008423999999990
 20
-92.590098999999995
 40
25.500000000000007
 50
67.589541999999966
 51
112.410458000000050
  0
ARC
  8
0
  6
CONTINUOUS
 62
256
 10
-388.008423999999990
 20
-92.590098999999995
 40
34.000000000000000
 50
65.739169999999987
 51
114.260830000000010
  0
ARC
  8
0
  6
CONTINUOUS
 62
256
 10
-388.008423999999990
 20
-92.590098999999995
 40
38.999999999999993
 50
65.284733000000031
 51
114.715266999999980
  0
LINE
  8
0
  6
CONTINUOUS
 62
256
 10
-417.300061000000030
 20
-95.090098999999995
 11
-414.276275000000000
 21
-95.090098999999995
  0
LINE
  8
0
  6
CONTINUOUS
 62
256
 10
-408.714702999999990
 20
-95.090098999999995
 11
-405.664867000000020
 21
-95.090098999999995
  0
LINE
  8
0
  6
CONTINUOUS
 62
256
 10
-400.008423999999990
 20
-95.090098999999995
 11
-396.840184000000020
 21
-95.090098999999995
  0
LINE
  8
0
  6
CONTINUOUS
 62
256
 10
-396.173487000000020
 20
-101.732404000000000
 11
-394.589367999999980
 21
-98.988628000000006
  0
LINE
  8
0
  6
CONTINUOUS
 62
256
 10
-400.526627000000020
 20
-109.272263000000000
 11
-399.001709000000010
 21
-106.631028000000000
  0
LINE
  8
0
  6
CONTINUOUS
 62
256
 10
-409.092722999999980
 20
-124.109177000000000
 11
-407.585766999999980
 21
-121.499053000000000
  0
LINE
  8
0
  6
CONTINUOUS
 62
256
 10
-425.846896000000020
 20
-95.090098999999995
 11
-422.832984000000010
 21
-95.090098999999995
  0
LINE
  8
0
  6
CONTINUOUS
 62
256
 10
-404.819305999999980
 20
-116.707401000000000
 11
-403.307413000000000
 21
-114.088725000000000
  0
ARC
  8
0
  6
CONTINUOUS
 62
256
 10
-388.008423999999990
 20
-92.590098999999995
 40
8.500000000000016
 50
201.618271999999960
 51
218.381727999999950
  0
ARC
  8
0
  6
CONTINUOUS
 62
256
 10
-388.008423999999990
 20
-92.590098999999995
 40
13.499999999999989
 50
196.260205000000010
 51
223.739794999999990
  0
ARC
  8
0
  6
CONTINUOUS
 62
256
 10
-388.008423999999990
 20
-92.590098999999995
 40
16.999999999999989
 50
191.212270999999960
 51
228.787728999999960
  0
ARC
  8
0
  6
CONTINUOUS
 62
256
 10
-388.008423999999990
 20
-92.590098999999995
 40
21.999999999999975
 50
189.594067999999960
 51
230.405932000000060
  0
ARC
  8
0
  6
CONTINUOUS
 62
256
 10
-388.008423999999990
 20
-92.590098999999995
 40
25.500000000000011
 50
187.589541999999990
 51
232.410458000000030
  0
ARC
  8
0
  6
CONTINUOUS
 62
256
 10
-388.008423999999990
 20
-92.590098999999995
 40
34.000000000000028
 50
185.739169999999970
 51
234.260829999999970
  0
ARC
  8
0
  6
CONTINUOUS
 62
256
 10
-388.008423999999990
 20
-92.590098999999995
 40
30.499999999999986
 50
186.813853999999990
 51
233.186146000000040
  0
ARC
  8
0
  6
CONTINUOUS
 62
256
 10
-388.008423999999990
 20
-92.590098999999995
 40
38.999999999999986
 50
185.284732999999990
 51
234.715266999999980
  0
ARC
  8
0
  6
CONTINUOUS
 62
256
 10
-395.455393000000020
 20
-98.488628000000006
 40
0.999999999999984
 50
329.999999999999490
 51
38.381728000001026
  0
ARC
  8
0
  6
CONTINUOUS
 62
256
 10
-396.840184000000020
 20
-96.090098999999995
 40
1.000000000000013
 50
21.618271999999475
 51
90.000000000000000
  0
ARC
  8
0
  6
CONTINUOUS
 62
256
 10
-400.008423999999990
 20
-96.090098999999995
 40
1.000000000000000
 50
90.000000000000000
 51
196.260205000000670
  0
ARC
  8
0
  6
CONTINUOUS
 62
256
 10
-397.039513000000000
 20
-101.232404000000000
 40
1.000000000000005
 50
223.739794999999760
 51
329.999999999999490
  0
ARC
  8
0
  6
CONTINUOUS
 62
256
 10
-399.867733999999980
 20
-106.131028000000000
 40
0.999999999999984
 50
329.999999999999490
 51
48.787728999999715
  0
ARC
  8
0
  6
CONTINUOUS
 62
256
 10
-401.392652000000000
 20
-108.772263000000000
 40
0.999999999999988
 50
230.405932000000690
 51
329.999999999999490
  0
ARC
  8
0
  6
CONTINUOUS
 62
256
 10
-405.664867000000020
 20
-96.090098999999995
 40
1.000000000000016
 50
11.212270999999729
 51
90.000000000000000
  0
ARC
  8
0
  6
CONTINUOUS
 62
256
 10
-408.714702999999990
 20
-96.090098999999995
 40
1.000000000000000
 50
90.000000000000000
 51
189.594067999999960
  0
ARC
  8
0
  6
CONTINUOUS
 62
256
 10
-417.300061000000030
 20
-96.090098999999995
 40
1.000000000000000
 50
90.000000000000000
 51
186.813853999999760
  0
ARC
  8
0
  6
CONTINUOUS
 62
256
 10
-404.173437999999980
 20
-113.588725000000000
 40
0.999999999999984
 50
329.999999999999490
 51
52.410458000001171
  0
ARC
  8
0
  6
CONTINUOUS
 62
256
 10
-405.685331000000020
 20
-116.207401000000000
 40
1.000000000000011
 50
233.186145999999270
 51
329.999999999999490
  0
ARC
  8
0
  6
CONTINUOUS
 62
256
 10
-414.276275000000000
 20
-96.090098999999995
 40
0.999999999999990
 50
7.589541999999997
 51
90.000000000000000
  0
ARC
  8
0
  6
CONTINUOUS
 62
256
 10
-425.846896000000020
 20
-96.090098999999995
 40
1.000000000000000
 50
90.000000000000000
 51
185.284732999999760
  0
ARC
  8
0
  6
CONTINUOUS
 62
256
 10
-422.832984000000010
 20
-96.090098999999995
 40
0.999999999999978
 50
5.739170000000447
 51
90.000000000000000
  0
ARC
  8
0
  6
CONTINUOUS
 62
256
 10
-408.451793000000010
 20
-120.999053000000000
 40
0.999999999999984
 50
329.999999999999490
 51
54.260829999999778
  0
ARC
  8
0
  6
CONTINUOUS
 62
256
 10
-409.958749000000010
 20
-123.609177000000000
 40
1.000000000000016
 50
234.715266999999020
 51
329.999999999999490
  0
CIRCLE
  8
0
  6
CONTINUOUS
 62
256
 10
-388.008423999999990
 20
-92.590098999999995
 40
5.000000000000000
  0
ARC
  8
0
  6
CONTINUOUS
 62
256
 10
-403.896570999999990
 20
-127.109177000000000
 40
0.999999999999984
 50
149.999999999999460
 51
245.284732999999510
  0
LINE
  8
0
  6
CONTINUOUS
 62
256
 10
-404.762595999999970
 20
-126.609177000000000
 11
-403.255640000000030
 21
-123.999053000000000
  0
ARC
  8
0
  6
CONTINUOUS
 62
256
 10
-388.008423999999990
 20
-92.590098999999995
 40
39.000000000000000
 50
245.284732999999960
 51
294.715266999999980
  0
ARC
  8
0
  6
CONTINUOUS
 62
256
 10
-388.008423999999990
 20
-92.590098999999995
 40
34.000000000000000
 50
245.739170000000000
 51
294.260830000000000
  0
ARC
  8
0
  6
CONTINUOUS
 62
256
 10
-388.008423999999990
 20
-92.590098999999995
 40
25.500000000000007
 50
247.589541999999940
 51
292.410458000000010
  0
ARC
  8
0
  6
CONTINUOUS
 62
256
 10
-388.008423999999990
 20
-92.590098999999995
 40
30.499999999999996
 50
246.813853999999990
 51
293.186146000000010
  0
ARC
  8
0
  6
CONTINUOUS
 62
256
 10
-399.623153000000000
 20
-119.707401000000000
 40
0.999999999999984
 50
149.999999999999460
 51
246.813853999999880
  0
LINE
  8
0
  6
CONTINUOUS
 62
256
 10
-400.489178999999980
 20
-119.207401000000000
 11
-398.977285999999990
 21
-116.588725000000000
  0
ARC
  8
0
  6
CONTINUOUS
 62
256
 10
-388.008423999999990
 20
-92.590098999999995
 40
21.999999999999996
 50
249.594067999999990
 51
290.405932000000010
  0
ARC
  8
0
  6
CONTINUOUS
 62
256
 10
-402.389614999999990
 20
-124.499053000000000
 40
0.999999999999992
 50
65.739170000001337
 51
149.999999999999460
  0
ARC
  8
0
  6
CONTINUOUS
 62
256
 10
-398.111260000000020
 20
-117.088725000000000
 40
1.000000000000009
 50
67.589541999999554
 51
149.999999999999460
  0
ARC
  8
0
  6
CONTINUOUS
 62
256
 10
-395.330473999999980
 20
-112.272263000000000
 40
0.999999999999984
 50
149.999999999999460
 51
249.594068000000160
  0
ARC
  8
0
  6
CONTINUOUS
 62
256
 10
-388.008423999999990
 20
-92.590098999999995
 40
16.999999999999993
 50
251.212271000000040
 51
288.787728999999960
  0
LINE
  8
0
  6
CONTINUOUS
 62
256
 10
-396.196500000000010
 20
-111.772263000000000
 11
-394.671582000000000
 21
-109.131028000000000
  0
ARC
  8
0
  6
CONTINUOUS
 62
256
 10
-393.805556000000020
 20
-109.631028000000000
 40
1.000000000000010
 50
71.212270999999262
 51
149.999999999999460
  0
ARC
  8
0
  6
CONTINUOUS
 62
256
 10
-388.008423999999990
 20
-92.590098999999995
 40
13.499999999999989
 50
256.260205000000040
 51
283.739794999999960
  0
ARC
  8
0
  6
CONTINUOUS
 62
256
 10
-390.977334999999980
 20
-104.732404000000000
 40
0.999999999999984
 50
149.999999999999460
 51
256.260204999998730
  0
LINE
  8
0
  6
CONTINUOUS
 62
256
 10
-391.843360000000020
 20
-104.232404000000000
 11
-390.259240999999970
 21
-101.488628000000010
  0
ARC
  8
0
  6
CONTINUOUS
 62
256
 10
-385.039513000000000
 20
-104.732404000000000
 40
1.000000000000011
 50
283.739795000001270
 51
30.000000000000544
  0
ARC
  8
0
  6
CONTINUOUS
 62
256
 10
-388.008423999999990
 20
-92.590098999999995
 40
8.500000000000002
 50
261.618271999999930
 51
278.381728000000070
  0
ARC
  8
0
  6
CONTINUOUS
 62
256
 10
-389.393215000000000
 20
-101.988628000000010
 40
0.999999999999998
 50
81.618272000001099
 51
149.999999999999460
  0
ARC
  8
0
  6
CONTINUOUS
 62
256
 10
-380.686373000000000
 20
-112.272263000000000
 40
0.999999999999993
 50
290.405931999999840
 51
30.000000000000544
  0
LINE
  8
0
  6
CONTINUOUS
 62
256
 10
-379.820347000000030
 20
-111.772263000000000
 11
-381.345264999999980
 21
-109.131028000000000
  0
ARC
  8
0
  6
CONTINUOUS
 62
256
 10
-382.211291000000020
 20
-109.631028000000000
 40
0.999999999999984
 50
30.000000000000544
 51
108.787729000000750
  0
LINE
  8
0
  6
CONTINUOUS
 62
256
 10
-384.173487000000020
 20
-104.232404000000000
 11
-385.757607000000010
 21
-101.488628000000010
  0
ARC
  8
0
  6
CONTINUOUS
 62
256
 10
-386.623631999999990
 20
-101.988628000000010
 40
0.999999999999984
 50
30.000000000000544
 51
98.381727999998901
  0
ARC
  8
0
  6
CONTINUOUS
 62
256
 10
-373.627231999999990
 20
-124.499053000000000
 40
0.999999999999984
 50
30.000000000000544
 51
114.260829999998650
  0
LINE
  8
0
  6
CONTINUOUS
 62
256
 10
-371.254251000000010
 20
-126.609177000000000
 11
-372.761207000000010
 21
-123.999053000000000
  0
ARC
  8
0
  6
CONTINUOUS
 62
256
 10
-372.120275999999990
 20
-127.109177000000000
 40
0.999999999999991
 50
294.715267000000490
 51
30.000000000000544
  0
ARC
  8
0
  6
CONTINUOUS
 62
256
 10
-377.905587000000030
 20
-117.088725000000000
 40
0.999999999999984
 50
30.000000000000544
 51
112.410458000000460
  0
LINE
  8
0
  6
CONTINUOUS
 62
256
 10
-375.527669000000000
 20
-119.207401000000000
 11
-377.039561999999990
 21
-116.588725000000000
  0
ARC
  8
0
  6
CONTINUOUS
 62
256
 10
-376.393693999999980
 20
-119.707401000000000
 40
1.000000000000000
 50
293.186146000000120
 51
30.000000000000544
  0
ARC
  8
0
  6
CONTINUOUS
 62
256
 10
-388.008423999999990
 20
-92.590098999999995
 40
39.000000000000014
 50
305.284733000000020
 51
354.715266999999980
  0
ARC
  8
0
  6
CONTINUOUS
 62
256
 10
-388.008423999999990
 20
-92.590098999999995
 40
33.999999999999986
 50
305.739169999999940
 51
354.260830000000000
  0
ARC
  8
0
  6
CONTINUOUS
 62
256
 10
-388.008423999999990
 20
-92.590098999999995
 40
25.499999999999996
 50
307.589541999999990
 51
352.410458000000010
  0
ARC
  8
0
  6
CONTINUOUS
 62
256
 10
-388.008423999999990
 20
-92.590098999999995
 40
30.500000000000014
 50
306.813854000000050
 51
353.186146000000010
  0
ARC
  8
0
  6
CONTINUOUS
 62
256
 10
-388.008423999999990
 20
-92.590098999999995
 40
21.999999999999986
 50
309.594067999999940
 51
350.405932000000010
  0
ARC
  8
0
  6
CONTINUOUS
 62
256
 10
-388.008423999999990
 20
-92.590098999999995
 40
17.000000000000014
 50
311.212270999999990
 51
348.787729000000010
  0
ARC
  8
0
  6
CONTINUOUS
 62
256
 10
-388.008423999999990
 20
-92.590098999999995
 40
13.500000000000004
 50
316.260204999999980
 51
343.739794999999960
  0
ARC
  8
0
  6
CONTINUOUS
 62
256
 10
-376.008423999999990
 20
-96.090098999999995
 40
0.999999999999976
 50
343.739794999999330
 51
90.000000000000000
  0
LINE
  8
0
  6
CONTINUOUS
 62
256
 10
-376.008423999999990
 20
-95.090098999999995
 11
-379.176663000000020
 21
-95.090098999999995
  0
ARC
  8
0
  6
CONTINUOUS
 62
256
 10
-378.977334999999980
 20
-101.232404000000000
 40
0.999999999999984
 50
210.000000000000510
 51
316.260205000000270
  0
ARC
  8
0
  6
CONTINUOUS
 62
256
 10
-388.008423999999990
 20
-92.590098999999995
 40
8.500000000000005
 50
321.618272000000050
 51
338.381728000000010
  0
ARC
  8
0
  6
CONTINUOUS
 62
256
 10
-379.176663000000020
 20
-96.090098999999995
 40
1.000000000000000
 50
90.000000000000000
 51
158.381728000000550
  0
ARC
  8
0
  6
CONTINUOUS
 62
256
 10
-374.624194999999990
 20
-108.772263000000000
 40
0.999999999999984
 50
210.000000000000510
 51
309.594067999999310
  0
LINE
  8
0
  6
CONTINUOUS
 62
256
 10
-375.490220000000020
 20
-109.272263000000000
 11
-377.015137999999980
 21
-106.631028000000000
  0
ARC
  8
0
  6
CONTINUOUS
 62
256
 10
-376.149113000000000
 20
-106.131028000000000
 40
1.000000000000006
 50
131.212270999999760
 51
210.000000000000510
  0
LINE
  8
0
  6
CONTINUOUS
 62
256
 10
-379.843360000000020
 20
-101.732404000000000
 11
-381.427480000000000
 21
-98.988628000000006
  0
ARC
  8
0
  6
CONTINUOUS
 62
256
 10
-380.561454000000030
 20
-98.488628000000006
 40
0.999999999999985
 50
141.618271999999000
 51
210.000000000000510
  0
ARC
  8
0
  6
CONTINUOUS
 62
256
 10
-367.565054999999970
 20
-120.999053000000000
 40
0.999999999999998
 50
125.739170000000210
 51
210.000000000000510
  0
LINE
  8
0
  6
CONTINUOUS
 62
256
 10
-366.924124000000010
 20
-124.109177000000000
 11
-368.431080000000010
 21
-121.499053000000000
  0
ARC
  8
0
  6
CONTINUOUS
 62
256
 10
-366.058097999999970
 20
-123.609177000000000
 40
0.999999999999984
 50
210.000000000000510
 51
305.284733000000980
  0
ARC
  8
0
  6
CONTINUOUS
 62
256
 10
-371.843409000000010
 20
-113.588725000000000
 40
0.999999999999993
 50
127.589541999998830
 51
210.000000000000510
  0
LINE
  8
0
  6
CONTINUOUS
 62
256
 10
-371.197542000000000
 20
-116.707401000000000
 11
-372.709434999999980
 21
-114.088725000000000
  0
ARC
  8
0
  6
CONTINUOUS
 62
256
 10
-370.331516000000020
 20
-116.207401000000000
 40
0.999999999999984
 50
210.000000000000510
 51
306.813854000000730
  0
ARC
  8
0
  6
CONTINUOUS
 62
256
 10
-350.169951000000030
 20
-96.090098999999995
 40
1.000000000000027
 50
354.715267000000210
 51
90.000000000000000
  0
LINE
  8
0
  6
CONTINUOUS
 62
256
 10
-350.169951000000030
 20
-95.090098999999995
 11
-353.183862999999970
 21
-95.090098999999995
  0
ARC
  8
0
  6
CONTINUOUS
 62
256
 10
-353.183862999999970
 20
-96.090098999999995
 40
1.000000000000000
 50
90.000000000000000
 51
174.260829999999570
  0
ARC
  8
0
  6
CONTINUOUS
 62
256
 10
-358.716787000000010
 20
-96.090098999999995
 40
1.000000000000019
 50
353.186146000000240
 51
90.000000000000000
  0
LINE
  8
0
  6
CONTINUOUS
 62
256
 10
-358.716787000000010
 20
-95.090098999999995
 11
-361.740572999999980
 21
-95.090098999999995
  0
ARC
  8
0
  6
CONTINUOUS
 62
256
 10
-361.740572999999980
 20
-96.090098999999995
 40
1.000000000000000
 50
90.000000000000000
 51
172.410458000000010
  0
ARC
  8
0
  6
CONTINUOUS
 62
256
 10
-367.302144000000000
 20
-96.090098999999995
 40
0.999999999999978
 50
350.405932000000010
 51
90.000000000000000
  0
LINE
  8
0
  6
CONTINUOUS
 62
256
 10
-367.302144000000000
 20
-95.090098999999995
 11
-370.351980000000030
 21
-95.090098999999995
  0
ARC
  8
0
  6
CONTINUOUS
 62
256
 10
-370.351980000000030
 20
-96.090098999999995
 40
1.000000000000000
 50
90.000000000000000
 51
168.787729000000270
  0
LINE
  8
0
  6
DASHDOT
 62
256
 10
-449.732152999999980
 20
-92.590098999999995
 11
-324.514194999999970
 21
-92.590098999999995
  0
LINE
  8
0
  6
DASHDOT
 62
256
 10
-388.008423999999990
 20
-29.349612000000000
 11
-388.008423999999990
 21
-187.275339000000000
  0
LINE
  8
0
  6
CONTINUOUS
 62
256
 10
-344.508423999999990
 20
-41.090099000000002
 11
-340.908424000000020
 21
-41.090099000000002
  0
LINE
  8
0
  6
CONTINUOUS
 62
256
 10
-340.908424000000020
 20
-41.090099000000002
 11
-340.508423999999990
 21
-41.490099000000001
  0
LINE
  8
0
  6
CONTINUOUS
 62
256
 10
-340.508423999999990
 20
-45.903475999999998
 11
-340.508423999999990
 21
-41.490099000000001
  0
LINE
  8
0
  6
CONTINUOUS
 62
256
 10
-344.508423999999990
 20
-41.903475999999998
 11
-344.508423999999990
 21
-31.290300999999999
  0
LINE
  8
0
  6
CONTINUOUS
 62
256
 10
-345.008270999999980
 20
-30.781652999999999
 11
-344.508423999999990
 21
-31.290300999999999
  0
LINE
  8
0
  6
CONTINUOUS
 62
256
 10
-355.508423999999990
 20
-30.598372000000001
 11
-345.008270999999980
 21
-30.781652999999999
  0
LINE
  8
0
  6
CONTINUOUS
 62
256
 10
-355.508423999999990
 20
-30.585304000000001
 11
-431.508423999999990
 21
-31.929344000000000
  0
LINE
  8
0
  6
CONTINUOUS
 62
256
 10
-355.508423999999990
 20
-30.585304000000001
 11
-355.508423999999990
 21
-35.483378000000002
  0
LINE
  8
0
  6
CONTINUOUS
 62
256
 10
-431.508423999999990
 20
-31.920213000000000
 11
-431.508423999999990
 21
-41.903475999999998
  0
LINE
  8
0
  6
CONTINUOUS
 62
256
 10
-435.108424000000010
 20
-41.090099000000002
 11
-435.508423999999990
 21
-41.490099000000001
  0
LINE
  8
0
  6
CONTINUOUS
 62
256
 10
-431.508423999999990
 20
-41.090099000000002
 11
-435.108424000000010
 21
-41.090099000000002
  0
LINE
  8
0
  6
CONTINUOUS
 62
256
 10
-435.508423999999990
 20
-45.903475999999998
 11
-435.508423999999990
 21
-41.490099000000001
  0
LINE
  8
0
  6
DASHDOT
 62
256
 10
-294.195260000000020
 20
127.480645000000000
 11
16.436806000000001
 21
127.480645000000000
  0
LINE
  8
0
  6
CONTINUOUS
 62
256
 10
-231.960184000000000
 20
95.766254000000004
 11
-147.960184000000000
 21
95.766254000000004
  0
LINE
  8
0
  6
CONTINUOUS
 62
256
 10
-231.960184000000000
 20
94.177043999999995
 11
-147.960184000000000
 21
94.177043999999995
  0
LINE
  8
0
  6
CONTINUOUS
 62
256
 10
-231.960184000000000
 20
159.195035999999990
 11
-147.960184000000000
 21
159.195035999999990
  0
LINE
  8
0
  6
CONTINUOUS
 62
256
 10
-231.960184000000000
 20
160.784246000000000
 11
-147.960184000000000
 21
160.784246000000000
  0
LINE
  8
0
  6
CONTINUOUS
 62
256
 10
-231.960184000000000
 20
107.480645000000000
 11
-147.960184000000000
 21
107.480645000000000
  0
LINE
  8
0
  6
CONTINUOUS
 62
256
 10
-231.960184000000000
 20
104.642405000000000
 11
-147.960184000000000
 21
104.642405000000000
  0
LINE
  8
0
  6
CONTINUOUS
 62
256
 10
-231.960184000000000
 20
103.296004000000000
 11
-147.960184000000000
 21
103.296004000000000
  0
LINE
  8
0
  6
CONTINUOUS
 62
256
 10
-231.960184000000000
 20
100.203273000000000
 11
-147.960184000000000
 21
100.203273000000000
  0
LINE
  8
0
  6
CONTINUOUS
 62
256
 10
-231.960184000000000
 20
98.724249999999998
 11
-147.960184000000000
 21
98.724249999999998
  0
LINE
  8
0
  6
CONTINUOUS
 62
256
 10
-231.960184000000000
 20
147.480645000000010
 11
-147.960184000000000
 21
147.480645000000010
  0
LINE
  8
0
  6
CONTINUOUS
 62
256
 10
-231.960184000000000
 20
150.318884999999990
 11
-147.960184000000000
 21
150.318884999999990
  0
LINE
  8
0
  6
CONTINUOUS
 62
256
 10
-231.960184000000000
 20
151.665286000000010
 11
-147.960184000000000
 21
151.665286000000010
  0
LINE
  8
0
  6
CONTINUOUS
 62
256
 10
-231.960184000000000
 20
154.758017000000000
 11
-147.960184000000000
 21
154.758017000000000
  0
LINE
  8
0
  6
CONTINUOUS
 62
256
 10
-231.960184000000000
 20
156.237041000000000
 11
-147.960184000000000
 21
156.237041000000000
  0
LINE
  8
0
  6
CONTINUOUS
 62
256
 10
-231.960184000000000
 20
73.480644999999996
 11
-231.960184000000000
 21
127.480645000000000
  0
LINE
  8
0
  6
CONTINUOUS
 62
256
 10
-231.960184000000000
 20
181.480645000000010
 11
-231.960184000000000
 21
127.480645000000000
  0
LINE
  8
0
  6
CONTINUOUS
 62
256
 10
-232.117785000000000
 20
167.521080000000010
 11
-147.960184000000000
 21
167.521080000000010
  0
LINE
  8
0
  6
CONTINUOUS
 62
256
 10
-231.960184000000000
 20
171.985300999999990
 11
-147.960184000000000
 21
171.985300999999990
  0
LINE
  8
0
  6
CONTINUOUS
 62
256
 10
-231.960184000000000
 20
168.522559000000000
 11
-147.960184000000000
 21
168.522559000000000
  0
LINE
  8
0
  6
CONTINUOUS
 62
256
 10
-231.960184000000000
 20
173.613728000000010
 11
-147.960184000000000
 21
173.613728000000010
  0
LINE
  8
0
  6
CONTINUOUS
 62
256
 10
-231.960184000000000
 20
178.480645000000010
 11
-147.960184000000000
 21
178.480645000000010
  0
LINE
  8
0
  6
CONTINUOUS
 62
256
 10
-231.960184000000000
 20
177.980645000000010
 11
-147.960184000000000
 21
177.980645000000010
  0
LINE
  8
0
  6
CONTINUOUS
 62
256
 10
-147.960184000000000
 20
179.980645000000010
 11
-231.960184000000000
 21
179.980645000000010
  0
LINE
  8
0
  6
CONTINUOUS
 62
256
 10
-147.960184000000000
 20
127.480645000000000
 11
-147.960184000000000
 21
179.980645000000010
  0
LINE
  8
0
  6
CONTINUOUS
 62
256
 10
-231.960184000000000
 20
181.480645000000010
 11
-261.465029000000020
 21
181.480645000000010
  0
LINE
  8
0
  6
CONTINUOUS
 62
256
 10
-273.280704000000010
 20
177.755177000000000
 11
-280.851482999999970
 21
172.454061000000000
  0
LINE
  8
0
  6
CONTINUOUS
 62
256
 10
-281.960184000000030
 20
170.324265000000000
 11
-281.960184000000030
 21
127.480645000000000
  0
ARC
  8
0
  6
CONTINUOUS
 62
256
 10
-279.360184000000000
 20
170.324265000000000
 40
2.599999999999996
 50
125.000000000000210
 51
180.000000000000000
  0
ARC
  8
0
  6
CONTINUOUS
 62
256
 10
-261.465029000000020
 20
160.880644999999990
 40
20.599999999999994
 50
90.000000000000000
 51
125.000000000000010
  0
LINE
  8
0
  6
CONTINUOUS
 62
256
 10
-242.960184000000000
 20
176.624565999999990
 11
-244.960184000000000
 21
174.971924000000000
  0
LINE
  8
0
  6
CONTINUOUS
 62
256
 10
-240.960184000000000
 20
177.800352000000000
 11
-242.960184000000000
 21
176.624565999999990
  0
LINE
  8
0
  6
CONTINUOUS
 62
256
 10
-242.960184000000000
 20
176.624565999999990
 11
-240.960184000000000
 21
174.971924000000000
  0
LINE
  8
0
  6
CONTINUOUS
 62
256
 10
-244.960184000000000
 20
177.800352000000000
 11
-242.960184000000000
 21
176.624565999999990
  0
POLYLINE
  8
0
  6
CONTINUOUS
 62
256
 66
1
 70
1
  0
VERTEX
  8
0
  6
CONTINUOUS
 62
256
 10
-238.260184000000010
 20
174.807976000000000
  0
VERTEX
  8
0
  6
CONTINUOUS
 62
256
 10
-238.350493182104830
 20
175.510932510558180
  0
VERTEX
  8
0
  6
CONTINUOUS
 62
256
 10
-238.617950197196960
 20
176.186874796638140
  0
VERTEX
  8
0
  6
CONTINUOUS
 62
256
 10
-239.052276822178040
 20
176.809826775258670
  0
VERTEX
  8
0
  6
CONTINUOUS
 62
256
 10
-239.636782128423220
 20
177.355848751236830
  0
VERTEX
  8
0
  6
CONTINUOUS
 62
256
 10
-240.349003904807890
 20
177.803957406248490
  0
VERTEX
  8
0
  6
CONTINUOUS
 62
256
 10
-241.161571867884080
 20
178.136932175983730
  0
VERTEX
  8
0
  6
CONTINUOUS
 62
256
 10
-242.043259486524190
 20
178.341977026776080
  0
VERTEX
  8
0
  6
CONTINUOUS
 62
256
 10
-242.960184000000000
 20
178.411212199999990
  0
VERTEX
  8
0
  6
CONTINUOUS
 62
256
 10
-243.877108513475800
 20
178.341977026776080
  0
VERTEX
  8
0
  6
CONTINUOUS
 62
256
 10
-244.758796132115920
 20
178.136932175983730
  0
VERTEX
  8
0
  6
CONTINUOUS
 62
256
 10
-245.571364095192110
 20
177.803957406248490
  0
VERTEX
  8
0
  6
CONTINUOUS
 62
256
 10
-246.283585871576780
 20
177.355848751236830
  0
VERTEX
  8
0
  6
CONTINUOUS
 62
256
 10
-246.868091177821950
 20
176.809826775258670
  0
VERTEX
  8
0
  6
CONTINUOUS
 62
256
 10
-247.302417802803030
 20
176.186874796638140
  0
VERTEX
  8
0
  6
CONTINUOUS
 62
256
 10
-247.569874817895170
 20
175.510932510558180
  0
VERTEX
  8
0
  6
CONTINUOUS
 62
256
 10
-247.660183999999990
 20
174.807976000000000
  0
VERTEX
  8
0
  6
CONTINUOUS
 62
256
 10
-247.569874817895170
 20
174.105019489441820
  0
VERTEX
  8
0
  6
CONTINUOUS
 62
256
 10
-247.302417802803030
 20
173.429077203361860
  0
VERTEX
  8
0
  6
CONTINUOUS
 62
256
 10
-246.868091177821950
 20
172.806125224741320
  0
VERTEX
  8
0
  6
CONTINUOUS
 62
256
 10
-246.283585871576780
 20
172.260103248763160
  0
VERTEX
  8
0
  6
CONTINUOUS
 62
256
 10
-245.571364095192110
 20
171.811994593751510
  0
VERTEX
  8
0
  6
CONTINUOUS
 62
256
 10
-244.758796132115920
 20
171.479019824016260
  0
VERTEX
  8
0
  6
CONTINUOUS
 62
256
 10
-243.877108513475800
 20
171.273974973223940
  0
VERTEX
  8
0
  6
CONTINUOUS
 62
256
 10
-242.960184000000000
 20
171.204739800000000
  0
VERTEX
  8
0
  6
CONTINUOUS
 62
256
 10
-242.043259486524190
 20
171.273974973223940
  0
VERTEX
  8
0
  6
CONTINUOUS
 62
256
 10
-241.161571867884080
 20
171.479019824016260
  0
VERTEX
  8
0
  6
CONTINUOUS
 62
256
 10
-240.349003904807890
 20
171.811994593751510
  0
VERTEX
  8
0
  6
CONTINUOUS
 62
256
 10
-239.636782128423250
 20
172.260103248763160
  0
VERTEX
  8
0
  6
CONTINUOUS
 62
256
 10
-239.052276822178040
 20
172.806125224741320
  0
VERTEX
  8
0
  6
CONTINUOUS
 62
256
 10
-238.617950197196960
 20
173.429077203361860
  0
VERTEX
  8
0
  6
CONTINUOUS
 62
256
 10
-238.350493182104830
 20
174.105019489441820
  0
SEQEND
  8
0
  6
CONTINUOUS
 62
256
  0
LINE
  8
0
  6
CONTINUOUS
 62
256
 10
-273.280704000000010
 20
77.206113000000002
 11
-280.851482999999970
 21
82.507230000000007
  0
LINE
  8
0
  6
CONTINUOUS
 62
256
 10
-281.960184000000030
 20
84.637024999999994
 11
-281.960184000000030
 21
127.480645000000000
  0
ARC
  8
0
  6
CONTINUOUS
 62
256
 10
-279.360184000000000
 20
84.637024999999994
 40
2.600000000000023
 50
180.000000000000000
 51
234.999999999999940
  0
ARC
  8
0
  6
CONTINUOUS
 62
256
 10
-261.465029000000020
 20
94.080645000000004
 40
20.599999999999991
 50
235.000000000000000
 51
270.000000000000000
  0
LINE
  8
0
  6
CONTINUOUS
 62
256
 10
-231.960184000000000
 20
73.480644999999996
 11
-261.465029000000020
 21
73.480644999999996
  0
LINE
  8
0
  6
CONTINUOUS
 62
256
 10
-232.117785000000000
 20
87.440209999999993
 11
-147.960184000000000
 21
87.440209999999993
  0
LINE
  8
0
  6
CONTINUOUS
 62
256
 10
-231.960184000000000
 20
86.438731000000004
 11
-147.960184000000000
 21
86.438731000000004
  0
LINE
  8
0
  6
CONTINUOUS
 62
256
 10
-231.960184000000000
 20
82.975989999999996
 11
-147.960184000000000
 21
82.975989999999996
  0
LINE
  8
0
  6
CONTINUOUS
 62
256
 10
-231.960184000000000
 20
81.347561999999996
 11
-147.960184000000000
 21
81.347561999999996
  0
LINE
  8
0
  6
CONTINUOUS
 62
256
 10
-231.960184000000000
 20
76.480644999999996
 11
-147.960184000000000
 21
76.480644999999996
  0
LINE
  8
0
  6
CONTINUOUS
 62
256
 10
-231.960184000000000
 20
76.980644999999996
 11
-147.960184000000000
 21
76.980644999999996
  0
LINE
  8
0
  6
CONTINUOUS
 62
256
 10
-147.960184000000000
 20
74.980644999999996
 11
-231.960184000000000
 21
74.980644999999996
  0
LINE
  8
0
  6
CONTINUOUS
 62
256
 10
-242.960184000000000
 20
78.336724000000004
 11
-244.960184000000000
 21
79.989366000000004
  0
LINE
  8
0
  6
CONTINUOUS
 62
256
 10
-240.960184000000000
 20
77.160938999999999
 11
-242.960184000000000
 21
78.336724000000004
  0
LINE
  8
0
  6
CONTINUOUS
 62
256
 10
-242.960184000000000
 20
78.336724000000004
 11
-240.960184000000000
 21
79.989366000000004
  0
LINE
  8
0
  6
CONTINUOUS
 62
256
 10
-244.960184000000000
 20
77.160938999999999
 11
-242.960184000000000
 21
78.336724000000004
  0
POLYLINE
  8
0
  6
CONTINUOUS
 62
256
 66
1
 70
1
  0
VERTEX
  8
0
  6
CONTINUOUS
 62
256
 10
-238.260184000000010
 20
80.153313999999995
  0
VERTEX
  8
0
  6
CONTINUOUS
 62
256
 10
-238.350493182104830
 20
80.856270510558161
  0
VERTEX
  8
0
  6
CONTINUOUS
 62
256
 10
-238.617950197196960
 20
81.532212796638134
  0
VERTEX
  8
0
  6
CONTINUOUS
 62
256
 10
-239.052276822178040
 20
82.155164775258655
  0
VERTEX
  8
0
  6
CONTINUOUS
 62
256
 10
-239.636782128423220
 20
82.701186751236833
  0
VERTEX
  8
0
  6
CONTINUOUS
 62
256
 10
-240.349003904807890
 20
83.149295406248484
  0
VERTEX
  8
0
  6
CONTINUOUS
 62
256
 10
-241.161571867884080
 20
83.482270175983743
  0
VERTEX
  8
0
  6
CONTINUOUS
 62
256
 10
-242.043259486524190
 20
83.687315026776062
  0
VERTEX
  8
0
  6
CONTINUOUS
 62
256
 10
-242.960184000000000
 20
83.756550199999992
  0
VERTEX
  8
0
  6
CONTINUOUS
 62
256
 10
-243.877108513475800
 20
83.687315026776062
  0
VERTEX
  8
0
  6
CONTINUOUS
 62
256
 10
-244.758796132115920
 20
83.482270175983743
  0
VERTEX
  8
0
  6
CONTINUOUS
 62
256
 10
-245.571364095192110
 20
83.149295406248484
  0
VERTEX
  8
0
  6
CONTINUOUS
 62
256
 10
-246.283585871576780
 20
82.701186751236833
  0
VERTEX
  8
0
  6
CONTINUOUS
 62
256
 10
-246.868091177821950
 20
82.155164775258655
  0
VERTEX
  8
0
  6
CONTINUOUS
 62
256
 10
-247.302417802803030
 20
81.532212796638134
  0
VERTEX
  8
0
  6
CONTINUOUS
 62
256
 10
-247.569874817895170
 20
80.856270510558161
  0
VERTEX
  8
0
  6
CONTINUOUS
 62
256
 10
-247.660183999999990
 20
80.153313999999995
  0
VERTEX
  8
0
  6
CONTINUOUS
 62
256
 10
-247.569874817895170
 20
79.450357489441828
  0
VERTEX
  8
0
  6
CONTINUOUS
 62
256
 10
-247.302417802803030
 20
78.774415203361855
  0
VERTEX
  8
0
  6
CONTINUOUS
 62
256
 10
-246.868091177821950
 20
78.151463224741335
  0
VERTEX
  8
0
  6
CONTINUOUS
 62
256
 10
-246.283585871576780
 20
77.605441248763157
  0
VERTEX
  8
0
  6
CONTINUOUS
 62
256
 10
-245.571364095192110
 20
77.157332593751505
  0
VERTEX
  8
0
  6
CONTINUOUS
 62
256
 10
-244.758796132115920
 20
76.824357824016261
  0
VERTEX
  8
0
  6
CONTINUOUS
 62
256
 10
-243.877108513475800
 20
76.619312973223927
  0
VERTEX
  8
0
  6
CONTINUOUS
 62
256
 10
-242.960184000000000
 20
76.550077799999997
  0
VERTEX
  8
0
  6
CONTINUOUS
 62
256
 10
-242.043259486524190
 20
76.619312973223927
  0
VERTEX
  8
0
  6
CONTINUOUS
 62
256
 10
-241.161571867884080
 20
76.824357824016246
  0
VERTEX
  8
0
  6
CONTINUOUS
 62
256
 10
-240.349003904807890
 20
77.157332593751505
  0
VERTEX
  8
0
  6
CONTINUOUS
 62
256
 10
-239.636782128423250
 20
77.605441248763157
  0
VERTEX
  8
0
  6
CONTINUOUS
 62
256
 10
-239.052276822178040
 20
78.151463224741335
  0
VERTEX
  8
0
  6
CONTINUOUS
 62
256
 10
-238.617950197196960
 20
78.774415203361855
  0
VERTEX
  8
0
  6
CONTINUOUS
 62
256
 10
-238.350493182104830
 20
79.450357489441828
  0
SEQEND
  8
0
  6
CONTINUOUS
 62
256
  0
LINE
  8
0
  6
CONTINUOUS
 62
256
 10
-147.960184000000000
 20
127.480645000000000
 11
-147.960184000000000
 21
74.980644999999996
  0
LINE
  8
0
  6
CONTINUOUS
 62
256
 10
-0.960184000000000
 20
83.980644999999996
 11
-0.960184000000000
 21
80.380645000000001
  0
LINE
  8
0
  6
CONTINUOUS
 62
256
 10
-75.960183999999998
 20
83.980644999999996
 11
-75.960183999999998
 21
80.380645000000001
  0
LINE
  8
0
  6
CONTINUOUS
 62
256
 10
-38.460183999999998
 20
79.980644999999996
 11
-1.360184000000000
 21
79.980644999999996
  0
LINE
  8
0
  6
CONTINUOUS
 62
256
 10
-75.560184000000007
 20
79.980644999999996
 11
-38.460183999999998
 21
79.980644999999996
  0
LINE
  8
0
  6
CONTINUOUS
 62
256
 10
-38.460183999999998
 20
83.980644999999996
 11
-121.759527000000010
 21
83.980644999999996
  0
LINE
  8
0
  6
CONTINUOUS
 62
256
 10
-122.460184000000000
 20
94.980644999999996
 11
-38.460183999999998
 21
94.980644999999996
  0
LINE
  8
0
  6
CONTINUOUS
 62
256
 10
-38.460183999999998
 20
83.980644999999996
 11
8.847613000000001
 21
83.980644999999996
  0
LINE
  8
0
  6
CONTINUOUS
 62
256
 10
-38.460183999999998
 20
94.980644999999996
 11
9.548270000000001
 21
94.980644999999996
  0
LINE
  8
0
  6
CONTINUOUS
 62
256
 10
-0.960184000000000
 20
80.380645000000001
 11
-1.360184000000000
 21
79.980644999999996
  0
LINE
  8
0
  6
CONTINUOUS
 62
256
 10
-75.960183999999998
 20
80.380645000000001
 11
-75.560184000000007
 21
79.980644999999996
  0
LINE
  8
0
  6
CONTINUOUS
 62
256
 10
-122.451457000000000
 20
94.980644999999996
 11
-122.268176000000000
 21
84.480492999999996
  0
LINE
  8
0
  6
CONTINUOUS
 62
256
 10
9.539543000000000
 20
94.980644999999996
 11
9.356261999999999
 21
84.480492999999996
  0
LINE
  8
0
  6
CONTINUOUS
 62
256
 10
9.356261999999999
 20
84.480492999999996
 11
8.847613000000001
 21
83.980644999999996
  0
LINE
  8
0
  6
CONTINUOUS
 62
256
 10
-121.759527000000010
 20
83.980644999999996
 11
-122.268176000000000
 21
84.480492999999996
  0
LINE
  8
0
  6
CONTINUOUS
 62
256
 10
-57.460183999999998
 20
174.980645000000010
 11
-57.460183999999998
 21
177.980645000000010
  0
LINE
  8
0
  6
CONTINUOUS
 62
256
 10
-19.460184000000002
 20
174.980645000000010
 11
-19.460184000000002
 21
177.980645000000010
  0
ARC
  8
0
  6
CONTINUOUS
 62
256
 10
-20.460184000000002
 20
177.980645000000010
 40
1.000000000000000
 50
0.000000000000000
 51
90.000000000000000
  0
ARC
  8
0
  6
CONTINUOUS
 62
256
 10
-56.460183999999998
 20
177.980645000000010
 40
1.000000000000000
 50
90.000000000000000
 51
180.000000000000000
  0
ARC
  8
0
  6
CONTINUOUS
 62
256
 10
-20.460184000000002
 20
76.980644999999996
 40
1.000000000000000
 50
270.000000000000000
 51
0.000000000000000
  0
ARC
  8
0
  6
CONTINUOUS
 62
256
 10
-56.460183999999998
 20
76.980644999999996
 40
1.000000000000000
 50
180.000000000000000
 51
270.000000000000000
  0
LINE
  8
0
  6
CONTINUOUS
 62
256
 10
-56.460183999999998
 20
75.980644999999996
 11
-20.460184000000002
 21
75.980644999999996
  0
LINE
  8
0
  6
CONTINUOUS
 62
256
 10
-19.460184000000002
 20
76.980644999999996
 11
-19.460184000000002
 21
79.980644999999996
  0
LINE
  8
0
  6
CONTINUOUS
 62
256
 10
-57.460183999999998
 20
76.980644999999996
 11
-57.460183999999998
 21
79.980644999999996
  0
LINE
  8
0
  6
CONTINUOUS
 62
256
 10
-56.460183999999998
 20
178.980645000000010
 11
-20.460184000000002
 21
178.980645000000010
  0
ARC
  8
0
  6
CONTINUOUS
 62
256
 10
-38.460183999999998
 20
90.980644999999996
 40
1.000000000000000
 50
0.000000000000000
 51
180.000000000000000
  0
LINE
  8
0
  6
CONTINUOUS
 62
256
 10
-39.460183999999998
 20
90.980644999999996
 11
-39.460183999999998
 21
83.980644999999996
  0
LINE
  8
0
  6
CONTINUOUS
 62
256
 10
-37.460183999999998
 20
90.980644999999996
 11
-37.460183999999998
 21
83.980644999999996
  0
ARC
  8
0
  6
CONTINUOUS
 62
256
 10
-38.460183999999998
 20
98.980644999999996
 40
1.000000000000000
 50
180.000000000000000
 51
0.000000000000000
  0
LINE
  8
0
  6
CONTINUOUS
 62
256
 10
-37.460183999999998
 20
98.980644999999996
 11
-37.460183999999998
 21
170.980645000000010
  0
LINE
  8
0
  6
CONTINUOUS
 62
256
 10
-39.460183999999998
 20
98.980644999999996
 11
-39.460183999999998
 21
170.980645000000010
  0
ARC
  8
0
  6
CONTINUOUS
 62
256
 10
-127.960184000000000
 20
95.980644999999996
 40
2.000000000000000
 50
90.000000000000000
 51
180.000000000000000
  0
ARC
  8
0
  6
CONTINUOUS
 62
256
 10
-127.960184000000000
 20
171.480645000000010
 40
2.000000000000000
 50
180.000000000000000
 51
270.000000000000000
  0
LINE
  8
0
  6
CONTINUOUS
 62
256
 10
-147.960184000000000
 20
127.480645000000000
 11
-147.960184000000000
 21
180.980645000000010
  0
LINE
  8
0
  6
CONTINUOUS
 62
256
 10
-147.960184000000000
 20
127.480645000000000
 11
-147.960184000000000
 21
73.980644999999996
  0
LINE
  8
0
  6
CONTINUOUS
 62
256
 10
-122.460184000000000
 20
94.980644999999996
 11
9.539816000000000
 21
94.980644999999996
  0
LINE
  8
0
  6
CONTINUOUS
 62
256
 10
-75.560184000000007
 20
174.980645000000010
 11
-1.360184000000000
 21
174.980645000000010
  0
LINE
  8
0
  6
CONTINUOUS
 62
256
 10
-75.960183999999998
 20
170.980645000000010
 11
-75.960183999999998
 21
174.580645000000000
  0
LINE
  8
0
  6
CONTINUOUS
 62
256
 10
-38.460183999999998
 20
170.980645000000010
 11
-121.014214000000000
 21
170.980645000000010
  0
LINE
  8
0
  6
CONTINUOUS
 62
256
 10
-38.460183999999998
 20
170.980645000000010
 11
7.539913000000000
 21
170.980645000000010
  0
LINE
  8
0
  6
CONTINUOUS
 62
256
 10
-75.560184000000007
 20
174.980645000000010
 11
-75.960183999999998
 21
174.580645000000000
  0
LINE
  8
0
  6
CONTINUOUS
 62
256
 10
-0.960184000000000
 20
170.980645000000010
 11
-0.960184000000000
 21
174.580645000000000
  0
LINE
  8
0
  6
CONTINUOUS
 62
256
 10
-1.360184000000000
 20
174.980645000000010
 11
-0.960184000000000
 21
174.580645000000000
  0
LINE
  8
0
  6
CONTINUOUS
 62
256
 10
7.539913000000000
 20
170.980645000000010
 11
8.049680000000000
 21
170.480840000000000
  0
LINE
  8
0
  6
CONTINUOUS
 62
256
 10
-132.960184000000000
 20
161.372811000000010
 11
-139.960184000000000
 21
161.372811000000010
  0
LINE
  8
0
  6
CONTINUOUS
 62
256
 10
-142.960184000000000
 20
127.480645000000000
 11
-142.960184000000000
 21
166.910297000000010
  0
LINE
  8
0
  6
CONTINUOUS
 62
256
 10
-139.960184000000000
 20
171.980645000000010
 11
-134.960184000000000
 21
171.980645000000010
  0
LINE
  8
0
  6
CONTINUOUS
 62
256
 10
-140.960184000000000
 20
168.910297000000010
 11
-134.960184000000000
 21
168.910297000000010
  0
LINE
  8
0
  6
CONTINUOUS
 62
256
 10
-142.960184000000000
 20
174.980645000000010
 11
-142.960184000000000
 21
178.015097999999990
  0
ARC
  8
0
  6
CONTINUOUS
 62
256
 10
-139.960184000000000
 20
158.372811000000010
 40
3.000000000000000
 50
90.000000000000000
 51
180.000000000000000
  0
ARC
  8
0
  6
CONTINUOUS
 62
256
 10
-139.960184000000000
 20
174.980645000000010
 40
3.000000000000000
 50
180.000000000000000
 51
270.000000000000000
  0
ARC
  8
0
  6
CONTINUOUS
 62
256
 10
-140.960184000000000
 20
166.910297000000010
 40
2.000000000000000
 50
90.000000000000000
 51
180.000000000000000
  0
ARC
  8
0
  6
CONTINUOUS
 62
256
 10
-134.960184000000000
 20
163.910297000000010
 40
5.000000000000000
 50
0.000000000000000
 51
90.000000000000000
  0
ARC
  8
0
  6
CONTINUOUS
 62
256
 10
-134.960184000000000
 20
166.980645000000010
 40
5.000000000000000
 50
0.000000000000000
 51
90.000000000000000
  0
ARC
  8
0
  6
CONTINUOUS
 62
256
 10
-132.960184000000000
 20
158.372811000000010
 40
3.000000000000000
 50
0.000000000000000
 51
90.000000000000000
  0
ARC
  8
0
  6
CONTINUOUS
 62
256
 10
-145.960184000000000
 20
178.015097999999990
 40
3.000000000000000
 50
0.000000000000000
 51
91.000000000000142
  0
ARC
  8
0
  6
CONTINUOUS
 62
256
 10
-132.960184000000000
 20
178.314485999999990
 40
3.000000000000000
 50
0.000000000000000
 51
91.277815999999859
  0
LINE
  8
0
  6
CONTINUOUS
 62
256
 10
-129.960184000000000
 20
76.701820999999995
 11
-129.960184000000000
 21
178.314485999999990
  0
LINE
  8
0
  6
CONTINUOUS
 62
256
 10
-142.960184000000000
 20
147.480645000000010
 11
-147.960184000000000
 21
147.480645000000010
  0
LINE
  8
0
  6
CONTINUOUS
 62
256
 10
-142.960184000000000
 20
79.980644999999996
 11
-142.960184000000000
 21
76.946191999999996
  0
LINE
  8
0
  6
CONTINUOUS
 62
256
 10
-139.960184000000000
 20
82.980644999999996
 11
-134.960184000000000
 21
82.980644999999996
  0
LINE
  8
0
  6
CONTINUOUS
 62
256
 10
-140.960184000000000
 20
86.050993000000005
 11
-134.960184000000000
 21
86.050993000000005
  0
LINE
  8
0
  6
CONTINUOUS
 62
256
 10
-142.960184000000000
 20
127.480645000000000
 11
-142.960184000000000
 21
88.050993000000005
  0
LINE
  8
0
  6
CONTINUOUS
 62
256
 10
-132.960184000000000
 20
93.588479000000007
 11
-139.960184000000000
 21
93.588479000000007
  0
ARC
  8
0
  6
CONTINUOUS
 62
256
 10
-145.960184000000000
 20
76.946191999999996
 40
2.999999999999997
 50
268.999999999999830
 51
0.000000000000000
  0
ARC
  8
0
  6
CONTINUOUS
 62
256
 10
-139.960184000000000
 20
79.980644999999996
 40
3.000000000000000
 50
90.000000000000000
 51
180.000000000000000
  0
ARC
  8
0
  6
CONTINUOUS
 62
256
 10
-140.960184000000000
 20
88.050993000000005
 40
2.000000000000000
 50
180.000000000000000
 51
270.000000000000000
  0
ARC
  8
0
  6
CONTINUOUS
 62
256
 10
-134.960184000000000
 20
91.050993000000005
 40
5.000000000000000
 50
270.000000000000000
 51
0.000000000000000
  0
ARC
  8
0
  6
CONTINUOUS
 62
256
 10
-134.960184000000000
 20
87.980644999999996
 40
5.000000000000000
 50
270.000000000000000
 51
0.000000000000000
  0
ARC
  8
0
  6
CONTINUOUS
 62
256
 10
-139.960184000000000
 20
96.588479000000007
 40
3.000000000000000
 50
180.000000000000000
 51
270.000000000000000
  0
ARC
  8
0
  6
CONTINUOUS
 62
256
 10
-132.960184000000000
 20
96.588479000000007
 40
3.000000000000000
 50
270.000000000000000
 51
0.000000000000000
  0
LINE
  8
0
  6
CONTINUOUS
 62
256
 10
-147.960184000000000
 20
73.963189999999997
 11
-133.012542000000000
 21
73.702278000000007
  0
LINE
  8
0
  6
CONTINUOUS
 62
256
 10
-142.960184000000000
 20
107.480645000000000
 11
-147.960184000000000
 21
107.480645000000000
  0
LINE
  8
0
  6
CONTINUOUS
 62
256
 10
-132.814447000000000
 20
181.310944000000010
 11
-147.960184000000000
 21
180.980178000000000
  0
ARC
  8
0
  6
CONTINUOUS
 62
256
 10
-132.960184000000000
 20
76.701820999999995
 40
2.999999999999997
 50
268.999999999999830
 51
0.000000000000000
  0
LINE
  8
0
  6
CONTINUOUS
 62
256
 10
-124.440837000000000
 20
97.980644999999996
 11
-127.960184000000000
 21
97.980644999999996
  0
LINE
  8
0
  6
CONTINUOUS
 62
256
 10
-122.950705000000000
 20
169.480645000000010
 11
-127.960184000000000
 21
169.480645000000010
  0
ARC
  8
0
  6
CONTINUOUS
 62
256
 10
-122.950705000000000
 20
171.480645000000010
 40
2.000000000000000
 50
270.000000000000000
 51
345.522488000000240
  0
LINE
  8
0
  6
CONTINUOUS
 62
256
 10
-122.441227000000000
 20
95.941179000000005
 11
-120.951095000000000
 21
171.441179000000010
  0
LINE
  8
0
  6
CONTINUOUS
 62
256
 10
-120.951095000000000
 20
171.441179000000010
 11
-120.950316000000000
 21
171.480645000000010
  0
ARC
  8
0
  6
CONTINUOUS
 62
256
 10
-124.440837000000000
 20
95.980644999999996
 40
2.000000000000001
 50
358.869308999999990
 51
90.000000000000000
  0
LINE
  8
0
  6
CONTINUOUS
 62
256
 10
-122.460184000000000
 20
94.980644999999996
 11
-122.441227000000000
 21
95.941179000000005
  0
LINE
  8
0
  6
CONTINUOUS
 62
256
 10
8.049680000000000
 20
170.480840000000000
 11
9.539816000000000
 21
94.980644999999996
  0
LINE
  8
0
  6
DASHDOT
 62
256
 10
-38.460183999999998
 20
73.291122000000001
 11
-38.460183999999998
 21
181.500652000000000
  0
LINE
  8
0
  6
DASHDOT
 62
256
 10
-156.690029000000010
 20
127.480645000000000
 11
-103.628517000000000
 21
127.480645000000000
  0
ARC
  8
0
  6
CONTINUOUS
 62
256
 10
315.690695000000010
 20
-173.528732999999990
 40
5.000000000000000
 50
180.000000000000000
 51
265.138594999999900
  0
ARC
  8
0
  6
CONTINUOUS
 62
256
 10
365.690695000000010
 20
-173.528732999999990
 40
4.999999999999989
 50
274.861405000000100
 51
0.000000000000000
  0
ARC
  8
0
  6
CONTINUOUS
 62
256
 10
340.690695000000010
 20
120.410036000000010
 40
300.000000000000000
 50
265.138595000000010
 51
274.861404999999990
  0
LINE
  8
0
  6
CONTINUOUS
 62
256
 10
343.190695000000010
 20
-179.579546999999990
 11
343.190695000000010
 21
-180.089964000000010
  0
LINE
  8
0
  6
CONTINUOUS
 62
256
 10
338.190695000000010
 20
-179.579546999999990
 11
338.190695000000010
 21
-180.089964000000010
  0
LINE
  8
0
  6
CONTINUOUS
 62
256
 10
338.190695000000010
 20
-180.089964000000010
 11
343.190695000000010
 21
-180.089964000000010
  0
ARC
  8
0
  6
CONTINUOUS
 62
256
 10
368.754452000000010
 20
-129.580030999999990
 40
20.599999999999991
 50
275.752282999999860
 51
315.000000000000000
  0
LINE
  8
0
  6
CONTINUOUS
 62
256
 10
383.320851000000000
 20
-144.146431000000010
 11
390.779546999999980
 21
-136.687736000000000
  0
ARC
  8
0
  6
CONTINUOUS
 62
256
 10
-5.909305000000000
 20
-92.589963999999995
 40
400.600000000000020
 50
354.256318000000020
 51
0.000000000000000
  0
ARC
  8
0
  6
CONTINUOUS
 62
256
 10
386.112641999999990
 20
-132.020830999999990
 40
6.600000000000017
 50
315.000000000000170
 51
354.256318000000020
  0
LINE
  8
0
  6
CONTINUOUS
 62
256
 10
298.060539000000010
 20
-144.146431000000010
 11
290.601844000000030
 21
-136.687736000000000
  0
ARC
  8
0
  6
CONTINUOUS
 62
256
 10
312.626938000000000
 20
-129.580030999999990
 40
20.599999999999991
 50
225.000000000000000
 51
264.247716999999910
  0
ARC
  8
0
  6
CONTINUOUS
 62
256
 10
687.290695000000030
 20
-92.589963999999995
 40
400.600000000000020
 50
180.000000000000000
 51
185.743681999999980
  0
ARC
  8
0
  6
CONTINUOUS
 62
256
 10
295.268748000000020
 20
-132.020830999999990
 40
6.599999999999971
 50
185.743681999999920
 51
224.999999999999830
  0
ENDSEC
  0
EOF
