  0
SECTION
  2
HEADER
  9
$TEXTSIZE
 40
2.5
  9
$ACADVER
  1
AC1009
  9
$DIMASZ
 40
3.863703297614046
  9
$DIMEXE
 40
2.000000000000000
  9
$DIMEXO
 40
1.000000000000000
  9
$DIMLFAC
 40
1.000000000000000
  9
$DIMSCALE
 40
1.000000000000000
  9
$DIMTAD
 70
1
  9
$DIMTFAC
 40
0.625000000000000
  9
$DIMTXT
 40
3.200000047683716
  9
$LUPREC
 70
3
  9
$REGENMODE
 70
1
  9
$TEXTSTYLE
  7
STANDARD1
  0
ENDSEC
  0
SECTION
  2
TABLES
  0
TABLE
  2
LTYPE
 70
4
  0
LTYPE
  2
CONTINUOUS
 70
64
  3
Solid line
 72
65
 73
0
 40
0.0
  0
LTYPE
  2
DASHED
 70
64
  3
-- -- -- -- -- -- -- -- -- -- -- -- -- -- --
 72
65
 73
2
 40
0.75
 49
0.5
 49
-0.25
  0
LTYPE
  2
DASHDOT
 70
64
  3
__ . __ . __ . __ . __ . __ . __ . __ . __ . __
 72
65
 73
4
 40
1.0
 49
0.5
 49
-0.25
 49
0.0
 49
-0.25
  0
LTYPE
  2
DIVIDE
 70
64
  3
__ . . __ . . __ . . __ . . __ . . __ . . __
 72
65
 73
6
 40
1.25
 49
0.5
 49
-0.25
 49
0.0
 49
-0.25
 49
0.0
 49
-0.25
  0
ENDTAB
  0
TABLE
  2
LAYER
 70
2
  0
LAYER
  2
0
 70
64
 62
53
  6
CONTINUOUS
  0
LAYER
  2
1
 70
64
 62
102
  6
CONTINUOUS
  0
ENDTAB
  0
TABLE
  2
STYLE
 70
4
  0
STYLE
  2
STANDARD1
 70
64
 40
0.0
 41
1.0
 50
0.0
 71
0
 42
3.200000047683716
  3
MONOTXT
  4
BIGFONT
  0
STYLE
  2
STANDARD2
 70
68
 40
0.0
 41
1.0
 50
0.0
 71
0
 42
3.200000047683716
  3
MONOTXT
  4
BIGFONT
  0
STYLE
  2
STANDARD3
 70
64
 40
0.0
 41
1.0
 50
0.0
 71
0
 42
3.200000047683716
  3
MONOTXT
  4

  0
STYLE
  2
STANDARD4
 70
68
 40
0.0
 41
1.0
 50
0.0
 71
0
 42
3.200000047683716
  3
MONOTXT
  4

  0
ENDTAB
  0
TABLE
  2
VIEW
 70
0
  0
ENDTAB
  0
ENDSEC
  0
SECTION
  2
BLOCKS
  0
BLOCK
  8
0
  2
ZU_SYM_1
 70
64
 10
0.000000000000000
 20
0.000000000000000
  0
LINE
  8
0
  6
CONTINUOUS
 62
256
 10
1.999999000000000
 20
-1.154699000000000
 11
-0.000002000000000
 21
-2.309398000000000
  0
LINE
  8
0
  6
CONTINUOUS
 62
256
 10
-1.999999000000000
 20
1.154700000000000
 11
0.000002000000000
 21
2.309399000000000
  0
LINE
  8
0
  6
CONTINUOUS
 62
256
 10
-0.000002000000000
 20
-2.309397000000000
 11
-1.999997000000000
 21
-1.154696000000000
  0
LINE
  8
0
  6
CONTINUOUS
 62
256
 10
1.999998000000000
 20
1.154696000000000
 11
0.000002000000000
 21
2.309399000000000
  0
LINE
  8
0
  6
CONTINUOUS
 62
256
 10
1.999998000000000
 20
1.154695000000000
 11
1.999999000000000
 21
-1.154699000000000
  0
LINE
  8
0
  6
CONTINUOUS
 62
256
 10
-1.999998000000000
 20
-1.154696000000000
 11
-1.999999000000000
 21
1.154700000000000
  0
POINT
  8
0
  6
CONTINUOUS
 62
256
 10
0.000000000000000
 20
0.000000000000000
  0
CIRCLE
  8
0
  6
CONTINUOUS
 62
256
 10
0.000000000000000
 20
0.000000000000000
 40
4.249999000000000
  0
ENDBLK
  8
0
  0
BLOCK
  8
0
  2
ZU_SYM_2
 70
64
 10
0.000000000000000
 20
0.000000000000000
  0
LINE
  8
0
  6
CONTINUOUS
 62
256
 10
1.999999000000000
 20
-1.154699000000000
 11
-0.000002000000000
 21
-2.309398000000000
  0
LINE
  8
0
  6
CONTINUOUS
 62
256
 10
-1.999999000000000
 20
1.154700000000000
 11
0.000002000000000
 21
2.309399000000000
  0
LINE
  8
0
  6
CONTINUOUS
 62
256
 10
-0.000002000000000
 20
-2.309397000000000
 11
-1.999997000000000
 21
-1.154696000000000
  0
LINE
  8
0
  6
CONTINUOUS
 62
256
 10
1.999998000000000
 20
1.154696000000000
 11
0.000002000000000
 21
2.309399000000000
  0
LINE
  8
0
  6
CONTINUOUS
 62
256
 10
1.999998000000000
 20
1.154695000000000
 11
1.999999000000000
 21
-1.154699000000000
  0
LINE
  8
0
  6
CONTINUOUS
 62
256
 10
-1.999998000000000
 20
-1.154696000000000
 11
-1.999999000000000
 21
1.154700000000000
  0
POINT
  8
0
  6
CONTINUOUS
 62
256
 10
0.000000000000000
 20
0.000000000000000
  0
CIRCLE
  8
0
  6
CONTINUOUS
 62
256
 10
0.000000000000000
 20
0.000000000000000
 40
4.249999000000000
  0
ENDBLK
  8
0
  0
BLOCK
  8
0
  2
ZU_SYM_3
 70
64
 10
0.000000000000000
 20
0.000000000000000
  0
LINE
  8
0
  6
CONTINUOUS
 62
256
 10
1.999999000000000
 20
-1.154699000000000
 11
-0.000002000000000
 21
-2.309398000000000
  0
LINE
  8
0
  6
CONTINUOUS
 62
256
 10
-0.000002000000000
 20
-2.309397000000000
 11
-1.999997000000000
 21
-1.154696000000000
  0
LINE
  8
0
  6
CONTINUOUS
 62
256
 10
1.999998000000000
 20
1.154696000000000
 11
0.000002000000000
 21
2.309399000000000
  0
LINE
  8
0
  6
CONTINUOUS
 62
256
 10
1.999998000000000
 20
1.154695000000000
 11
1.999999000000000
 21
-1.154699000000000
  0
LINE
  8
0
  6
CONTINUOUS
 62
256
 10
-1.999998000000000
 20
-1.154696000000000
 11
-1.999999000000000
 21
1.154700000000000
  0
POINT
  8
0
  6
CONTINUOUS
 62
256
 10
0.000000000000000
 20
0.000000000000000
  0
CIRCLE
  8
0
  6
CONTINUOUS
 62
256
 10
0.000000000000000
 20
0.000000000000000
 40
4.249999000000000
  0
ENDBLK
  8
0
  0
BLOCK
  8
0
  2
ZU_SYM_4
 70
64
 10
0.000000000000000
 20
0.000000000000000
  0
LINE
  8
0
  6
CONTINUOUS
 62
256
 10
1.999999000000000
 20
-1.154699000000000
 11
-0.000002000000000
 21
-2.309398000000000
  0
LINE
  8
0
  6
CONTINUOUS
 62
256
 10
-1.999999000000000
 20
1.154700000000000
 11
0.000002000000000
 21
2.309399000000000
  0
LINE
  8
0
  6
CONTINUOUS
 62
256
 10
-0.000002000000000
 20
-2.309397000000000
 11
-1.999997000000000
 21
-1.154696000000000
  0
LINE
  8
0
  6
CONTINUOUS
 62
256
 10
1.999998000000000
 20
1.154696000000000
 11
0.000002000000000
 21
2.309399000000000
  0
LINE
  8
0
  6
CONTINUOUS
 62
256
 10
1.999998000000000
 20
1.154695000000000
 11
1.999999000000000
 21
-1.154699000000000
  0
LINE
  8
0
  6
CONTINUOUS
 62
256
 10
-1.999998000000000
 20
-1.154696000000000
 11
-1.999999000000000
 21
1.154700000000000
  0
POINT
  8
0
  6
CONTINUOUS
 62
256
 10
0.000000000000000
 20
0.000000000000000
  0
CIRCLE
  8
0
  6
CONTINUOUS
 62
256
 10
0.000000000000000
 20
0.000000000000000
 40
4.249999000000000
  0
ENDBLK
  8
0
  0
ENDSEC
  0
SECTION
  2
ENTITIES
  0
LINE
  8
0
  6
CONTINUOUS
 62
256
 10
-418.251539999999980
 20
-51.113836999999997
 11
-418.251539999999980
 21
-49.890805000000000
  0
LINE
  8
0
  6
CONTINUOUS
 62
256
 10
-417.851540000000000
 20
-49.490805000000002
 11
-416.434890000000000
 21
-49.490805000000002
  0
LINE
  8
0
  6
CONTINUOUS
 62
256
 10
-414.251539999999980
 20
-47.890661000000001
 11
-414.251539999999980
 21
-40.334845000000001
  0
LINE
  8
0
  6
CONTINUOUS
 62
256
 10
-338.251539999999980
 20
-43.764277000000000
 11
-338.251539999999980
 21
-38.990805000000002
  0
LINE
  8
0
  6
CONTINUOUS
 62
256
 10
-327.251539999999980
 20
-39.682735000000001
 11
-327.251539999999980
 21
-47.890661000000001
  0
LINE
  8
0
  6
CONTINUOUS
 62
256
 10
-323.651540000000010
 20
-49.490805000000002
 11
-325.068190000000020
 21
-49.490805000000002
  0
LINE
  8
0
  6
CONTINUOUS
 62
256
 10
-323.251539999999980
 20
-51.111794000000003
 11
-323.251539999999980
 21
-49.890805000000000
  0
LINE
  8
0
  6
CONTINUOUS
 62
256
 10
-338.251539999999980
 20
-38.990805000000002
 11
-327.751388000000020
 21
-39.174086000000003
  0
LINE
  8
0
  6
CONTINUOUS
 62
256
 10
-327.751388000000020
 20
-39.174086000000003
 11
-327.251539999999980
 21
-39.682735000000001
  0
LINE
  8
0
  6
CONTINUOUS
 62
256
 10
-338.251539999999980
 20
-38.990805000000002
 11
-414.251539999999980
 21
-40.334845000000001
  0
LINE
  8
0
  6
CONTINUOUS
 62
256
 10
-323.251539999999980
 20
-49.890805000000000
 11
-323.651540000000010
 21
-49.490805000000002
  0
LINE
  8
0
  6
CONTINUOUS
 62
256
 10
-418.251539999999980
 20
-49.890805000000000
 11
-417.851540000000000
 21
-49.490805000000002
  0
LINE
  8
0
  6
CONTINUOUS
 62
256
 10
-215.738936000000000
 20
108.286968000000000
 11
-118.738936000000000
 21
108.286968000000000
  0
LINE
  8
0
  6
CONTINUOUS
 62
256
 10
-215.738936000000000
 20
113.739348000000010
 11
-118.738936000000000
 21
113.739348000000010
  0
LINE
  8
0
  6
CONTINUOUS
 62
256
 10
-215.738936000000000
 20
112.377467999999990
 11
-118.738936000000000
 21
112.377467999999990
  0
LINE
  8
0
  6
CONTINUOUS
 62
256
 10
-215.738936000000000
 20
118.569402000000000
 11
-118.738936000000000
 21
118.569402000000000
  0
LINE
  8
0
  6
CONTINUOUS
 62
256
 10
-215.738936000000000
 20
158.569402000000000
 11
-118.738936000000000
 21
158.569402000000000
  0
LINE
  8
0
  6
CONTINUOUS
 62
256
 10
-215.738936000000000
 20
168.851835999999990
 11
-118.738936000000000
 21
168.851835999999990
  0
LINE
  8
0
  6
CONTINUOUS
 62
256
 10
-215.738936000000000
 20
163.399454999999990
 11
-118.738936000000000
 21
163.399454999999990
  0
LINE
  8
0
  6
CONTINUOUS
 62
256
 10
-215.738936000000000
 20
164.761336000000000
 11
-118.738936000000000
 21
164.761336000000000
  0
LINE
  8
0
  6
CONTINUOUS
 62
256
 10
-215.738936000000000
 20
101.250217000000010
 11
-118.738936000000000
 21
101.250217000000010
  0
LINE
  8
0
  6
CONTINUOUS
 62
256
 10
-215.738936000000000
 20
102.854865000000000
 11
-118.738936000000000
 21
102.854865000000000
  0
LINE
  8
0
  6
CONTINUOUS
 62
256
 10
-215.738936000000000
 20
175.888587000000000
 11
-118.738936000000000
 21
175.888587000000000
  0
LINE
  8
0
  6
CONTINUOUS
 62
256
 10
-215.738936000000000
 20
174.283939000000000
 11
-118.738936000000000
 21
174.283939000000000
  0
LINE
  8
0
  6
CONTINUOUS
 62
256
 10
-215.738936000000000
 20
138.569402000000000
 11
-215.738936000000000
 21
78.569401999999997
  0
LINE
  8
0
  6
CONTINUOUS
 62
256
 10
-215.738936000000000
 20
138.569402000000000
 11
-215.738936000000000
 21
198.569402000000000
  0
LINE
  8
0
  6
DASHDOT
 62
256
 10
-274.424966999999980
 20
138.569402000000000
 11
59.533085999999997
 21
138.569402000000000
  0
LINE
  8
0
  6
CONTINUOUS
 62
256
 10
-226.738936000000000
 20
84.829286999999994
 11
-228.738936000000000
 21
86.481927999999996
  0
LINE
  8
0
  6
CONTINUOUS
 62
256
 10
-224.738936000000000
 20
83.653501000000006
 11
-226.738936000000000
 21
84.829286999999994
  0
LINE
  8
0
  6
CONTINUOUS
 62
256
 10
-226.738936000000000
 20
84.829286999999994
 11
-224.738936000000000
 21
86.481927999999996
  0
LINE
  8
0
  6
CONTINUOUS
 62
256
 10
-228.738936000000000
 20
83.653501000000006
 11
-226.738936000000000
 21
84.829286999999994
  0
POLYLINE
  8
0
  6
CONTINUOUS
 62
256
 66
1
 70
1
  0
VERTEX
  8
0
  6
CONTINUOUS
 62
256
 10
-222.038936000000010
 20
86.645876999999999
  0
VERTEX
  8
0
  6
CONTINUOUS
 62
256
 10
-222.129245182104820
 20
87.348833510558165
  0
VERTEX
  8
0
  6
CONTINUOUS
 62
256
 10
-222.396702197196960
 20
88.024775796638139
  0
VERTEX
  8
0
  6
CONTINUOUS
 62
256
 10
-222.831028822178040
 20
88.647727775258659
  0
VERTEX
  8
0
  6
CONTINUOUS
 62
256
 10
-223.415534128423220
 20
89.193749751236851
  0
VERTEX
  8
0
  6
CONTINUOUS
 62
256
 10
-224.127755904807880
 20
89.641858406248488
  0
VERTEX
  8
0
  6
CONTINUOUS
 62
256
 10
-224.940323867884080
 20
89.974833175983747
  0
VERTEX
  8
0
  6
CONTINUOUS
 62
256
 10
-225.822011486524190
 20
90.179878026776066
  0
VERTEX
  8
0
  6
CONTINUOUS
 62
256
 10
-226.738936000000000
 20
90.249113199999996
  0
VERTEX
  8
0
  6
CONTINUOUS
 62
256
 10
-227.655860513475800
 20
90.179878026776066
  0
VERTEX
  8
0
  6
CONTINUOUS
 62
256
 10
-228.537548132115920
 20
89.974833175983747
  0
VERTEX
  8
0
  6
CONTINUOUS
 62
256
 10
-229.350116095192110
 20
89.641858406248488
  0
VERTEX
  8
0
  6
CONTINUOUS
 62
256
 10
-230.062337871576770
 20
89.193749751236851
  0
VERTEX
  8
0
  6
CONTINUOUS
 62
256
 10
-230.646843177821950
 20
88.647727775258659
  0
VERTEX
  8
0
  6
CONTINUOUS
 62
256
 10
-231.081169802803030
 20
88.024775796638139
  0
VERTEX
  8
0
  6
CONTINUOUS
 62
256
 10
-231.348626817895170
 20
87.348833510558165
  0
VERTEX
  8
0
  6
CONTINUOUS
 62
256
 10
-231.438935999999980
 20
86.645876999999999
  0
VERTEX
  8
0
  6
CONTINUOUS
 62
256
 10
-231.348626817895170
 20
85.942920489441832
  0
VERTEX
  8
0
  6
CONTINUOUS
 62
256
 10
-231.081169802803030
 20
85.266978203361859
  0
VERTEX
  8
0
  6
CONTINUOUS
 62
256
 10
-230.646843177821950
 20
84.644026224741339
  0
VERTEX
  8
0
  6
CONTINUOUS
 62
256
 10
-230.062337871576770
 20
84.098004248763161
  0
VERTEX
  8
0
  6
CONTINUOUS
 62
256
 10
-229.350116095192110
 20
83.649895593751509
  0
VERTEX
  8
0
  6
CONTINUOUS
 62
256
 10
-228.537548132115920
 20
83.316920824016250
  0
VERTEX
  8
0
  6
CONTINUOUS
 62
256
 10
-227.655860513475800
 20
83.111875973223931
  0
VERTEX
  8
0
  6
CONTINUOUS
 62
256
 10
-226.738936000000000
 20
83.042640800000001
  0
VERTEX
  8
0
  6
CONTINUOUS
 62
256
 10
-225.822011486524190
 20
83.111875973223931
  0
VERTEX
  8
0
  6
CONTINUOUS
 62
256
 10
-224.940323867884080
 20
83.316920824016250
  0
VERTEX
  8
0
  6
CONTINUOUS
 62
256
 10
-224.127755904807880
 20
83.649895593751509
  0
VERTEX
  8
0
  6
CONTINUOUS
 62
256
 10
-223.415534128423250
 20
84.098004248763147
  0
VERTEX
  8
0
  6
CONTINUOUS
 62
256
 10
-222.831028822178040
 20
84.644026224741339
  0
VERTEX
  8
0
  6
CONTINUOUS
 62
256
 10
-222.396702197196960
 20
85.266978203361859
  0
VERTEX
  8
0
  6
CONTINUOUS
 62
256
 10
-222.129245182104820
 20
85.942920489441832
  0
SEQEND
  8
0
  6
CONTINUOUS
 62
256
  0
LINE
  8
0
  6
CONTINUOUS
 62
256
 10
-226.738936000000000
 20
192.309517000000000
 11
-228.738936000000000
 21
190.656875000000010
  0
LINE
  8
0
  6
CONTINUOUS
 62
256
 10
-224.738936000000000
 20
193.485301999999990
 11
-226.738936000000000
 21
192.309517000000000
  0
LINE
  8
0
  6
CONTINUOUS
 62
256
 10
-226.738936000000000
 20
192.309517000000000
 11
-224.738936000000000
 21
190.656875000000010
  0
LINE
  8
0
  6
CONTINUOUS
 62
256
 10
-228.738936000000000
 20
193.485301999999990
 11
-226.738936000000000
 21
192.309517000000000
  0
POLYLINE
  8
0
  6
CONTINUOUS
 62
256
 66
1
 70
1
  0
VERTEX
  8
0
  6
CONTINUOUS
 62
256
 10
-222.038936000000010
 20
190.492927000000010
  0
VERTEX
  8
0
  6
CONTINUOUS
 62
256
 10
-222.129245182104820
 20
191.195883510558190
  0
VERTEX
  8
0
  6
CONTINUOUS
 62
256
 10
-222.396702197196960
 20
191.871825796638150
  0
VERTEX
  8
0
  6
CONTINUOUS
 62
256
 10
-222.831028822178040
 20
192.494777775258680
  0
VERTEX
  8
0
  6
CONTINUOUS
 62
256
 10
-223.415534128423220
 20
193.040799751236850
  0
VERTEX
  8
0
  6
CONTINUOUS
 62
256
 10
-224.127755904807880
 20
193.488908406248500
  0
VERTEX
  8
0
  6
CONTINUOUS
 62
256
 10
-224.940323867884080
 20
193.821883175983740
  0
VERTEX
  8
0
  6
CONTINUOUS
 62
256
 10
-225.822011486524190
 20
194.026928026776090
  0
VERTEX
  8
0
  6
CONTINUOUS
 62
256
 10
-226.738936000000000
 20
194.096163200000010
  0
VERTEX
  8
0
  6
CONTINUOUS
 62
256
 10
-227.655860513475800
 20
194.026928026776090
  0
VERTEX
  8
0
  6
CONTINUOUS
 62
256
 10
-228.537548132115920
 20
193.821883175983740
  0
VERTEX
  8
0
  6
CONTINUOUS
 62
256
 10
-229.350116095192110
 20
193.488908406248500
  0
VERTEX
  8
0
  6
CONTINUOUS
 62
256
 10
-230.062337871576770
 20
193.040799751236850
  0
VERTEX
  8
0
  6
CONTINUOUS
 62
256
 10
-230.646843177821950
 20
192.494777775258680
  0
VERTEX
  8
0
  6
CONTINUOUS
 62
256
 10
-231.081169802803030
 20
191.871825796638150
  0
VERTEX
  8
0
  6
CONTINUOUS
 62
256
 10
-231.348626817895170
 20
191.195883510558190
  0
VERTEX
  8
0
  6
CONTINUOUS
 62
256
 10
-231.438935999999980
 20
190.492927000000010
  0
VERTEX
  8
0
  6
CONTINUOUS
 62
256
 10
-231.348626817895170
 20
189.789970489441830
  0
VERTEX
  8
0
  6
CONTINUOUS
 62
256
 10
-231.081169802803030
 20
189.114028203361870
  0
VERTEX
  8
0
  6
CONTINUOUS
 62
256
 10
-230.646843177821950
 20
188.491076224741330
  0
VERTEX
  8
0
  6
CONTINUOUS
 62
256
 10
-230.062337871576770
 20
187.945054248763170
  0
VERTEX
  8
0
  6
CONTINUOUS
 62
256
 10
-229.350116095192110
 20
187.496945593751520
  0
VERTEX
  8
0
  6
CONTINUOUS
 62
256
 10
-228.537548132115920
 20
187.163970824016270
  0
VERTEX
  8
0
  6
CONTINUOUS
 62
256
 10
-227.655860513475800
 20
186.958925973223960
  0
VERTEX
  8
0
  6
CONTINUOUS
 62
256
 10
-226.738936000000000
 20
186.889690800000010
  0
VERTEX
  8
0
  6
CONTINUOUS
 62
256
 10
-225.822011486524190
 20
186.958925973223960
  0
VERTEX
  8
0
  6
CONTINUOUS
 62
256
 10
-224.940323867884080
 20
187.163970824016270
  0
VERTEX
  8
0
  6
CONTINUOUS
 62
256
 10
-224.127755904807880
 20
187.496945593751520
  0
VERTEX
  8
0
  6
CONTINUOUS
 62
256
 10
-223.415534128423250
 20
187.945054248763170
  0
VERTEX
  8
0
  6
CONTINUOUS
 62
256
 10
-222.831028822178040
 20
188.491076224741330
  0
VERTEX
  8
0
  6
CONTINUOUS
 62
256
 10
-222.396702197196960
 20
189.114028203361870
  0
VERTEX
  8
0
  6
CONTINUOUS
 62
256
 10
-222.129245182104820
 20
189.789970489441830
  0
SEQEND
  8
0
  6
CONTINUOUS
 62
256
  0
ARC
  8
0
  6
CONTINUOUS
 62
256
 10
-264.138936000000000
 20
91.126197000000005
 40
2.600000000000023
 50
180.000000000000000
 51
234.999999999999940
  0
LINE
  8
0
  6
CONTINUOUS
 62
256
 10
-255.904489000000010
 20
82.186361000000005
 11
-265.630235000000030
 21
88.996402000000003
  0
ARC
  8
0
  6
CONTINUOUS
 62
256
 10
-244.432960000000010
 20
98.569401999999997
 40
20.000000000000007
 50
234.999999999999940
 51
270.000000000000000
  0
LINE
  8
0
  6
CONTINUOUS
 62
256
 10
-266.738936000000020
 20
138.569402000000000
 11
-266.738936000000020
 21
91.126197000000005
  0
LINE
  8
0
  6
CONTINUOUS
 62
256
 10
-215.738936000000000
 20
78.569401999999997
 11
-244.432960000000010
 21
78.569401999999997
  0
LINE
  8
0
  6
CONTINUOUS
 62
256
 10
-118.738936000000000
 20
80.069401999999997
 11
-118.738936000000000
 21
138.569402000000000
  0
LINE
  8
0
  6
CONTINUOUS
 62
256
 10
-118.738936000000000
 20
80.069401999999997
 11
-215.738936000000000
 21
80.069401999999997
  0
LINE
  8
0
  6
CONTINUOUS
 62
256
 10
-215.738936000000000
 20
93.203614999999999
 11
-118.738936000000000
 21
93.203614999999999
  0
LINE
  8
0
  6
CONTINUOUS
 62
256
 10
-215.738936000000000
 20
88.253867999999997
 11
-118.738936000000000
 21
88.253867999999997
  0
LINE
  8
0
  6
CONTINUOUS
 62
256
 10
-215.738936000000000
 20
83.569401999999997
 11
-118.738936000000000
 21
83.569401999999997
  0
LINE
  8
0
  6
CONTINUOUS
 62
256
 10
-215.738936000000000
 20
82.569401999999997
 11
-118.738936000000000
 21
82.569401999999997
  0
LINE
  8
0
  6
CONTINUOUS
 62
256
 10
-215.738936000000000
 20
81.069401999999997
 11
-118.738936000000000
 21
81.069401999999997
  0
LINE
  8
0
  6
CONTINUOUS
 62
256
 10
-215.738936000000000
 20
81.569401999999997
 11
-118.738936000000000
 21
81.569401999999997
  0
ARC
  8
0
  6
CONTINUOUS
 62
256
 10
-264.138936000000000
 20
186.012607000000000
 40
2.599999999999996
 50
125.000000000000210
 51
180.000000000000000
  0
LINE
  8
0
  6
CONTINUOUS
 62
256
 10
-255.904489000000010
 20
194.952442999999990
 11
-265.630235000000030
 21
188.142402000000000
  0
ARC
  8
0
  6
CONTINUOUS
 62
256
 10
-244.432960000000010
 20
178.569402000000000
 40
20.000000000000000
 50
90.000000000000000
 51
125.000000000000010
  0
LINE
  8
0
  6
CONTINUOUS
 62
256
 10
-266.738936000000020
 20
138.569402000000000
 11
-266.738936000000020
 21
186.012607000000000
  0
LINE
  8
0
  6
CONTINUOUS
 62
256
 10
-215.738936000000000
 20
198.569402000000000
 11
-244.432960000000010
 21
198.569402000000000
  0
LINE
  8
0
  6
CONTINUOUS
 62
256
 10
-118.738936000000000
 20
197.069402000000000
 11
-118.738936000000000
 21
138.569402000000000
  0
LINE
  8
0
  6
CONTINUOUS
 62
256
 10
-118.738936000000000
 20
197.069402000000000
 11
-215.738936000000000
 21
197.069402000000000
  0
LINE
  8
0
  6
CONTINUOUS
 62
256
 10
-215.738936000000000
 20
183.935189000000010
 11
-118.738936000000000
 21
183.935189000000010
  0
LINE
  8
0
  6
CONTINUOUS
 62
256
 10
-215.738936000000000
 20
188.884936000000010
 11
-118.738936000000000
 21
188.884936000000010
  0
LINE
  8
0
  6
CONTINUOUS
 62
256
 10
-215.738936000000000
 20
193.569402000000000
 11
-118.738936000000000
 21
193.569402000000000
  0
LINE
  8
0
  6
CONTINUOUS
 62
256
 10
-215.738936000000000
 20
194.569402000000000
 11
-118.738936000000000
 21
194.569402000000000
  0
LINE
  8
0
  6
CONTINUOUS
 62
256
 10
-215.738936000000000
 20
196.069402000000000
 11
-118.738936000000000
 21
196.069402000000000
  0
LINE
  8
0
  6
CONTINUOUS
 62
256
 10
-215.738936000000000
 20
195.569402000000000
 11
-118.738936000000000
 21
195.569402000000000
  0
LINE
  8
0
  6
CONTINUOUS
 62
256
 10
-14.738936000000001
 20
186.069402000000000
 11
-14.738936000000001
 21
189.069402000000000
  0
LINE
  8
0
  6
CONTINUOUS
 62
256
 10
23.261064000000001
 20
186.069402000000000
 11
23.261064000000001
 21
189.069402000000000
  0
ARC
  8
0
  6
CONTINUOUS
 62
256
 10
22.261064000000001
 20
88.069401999999997
 40
1.000000000000000
 50
270.000000000000000
 51
0.000000000000000
  0
ARC
  8
0
  6
CONTINUOUS
 62
256
 10
-13.738936000000001
 20
88.069401999999997
 40
1.000000000000000
 50
180.000000000000000
 51
270.000000000000000
  0
ARC
  8
0
  6
CONTINUOUS
 62
256
 10
22.261064000000001
 20
189.069402000000000
 40
1.000000000000000
 50
0.000000000000000
 51
90.000000000000000
  0
ARC
  8
0
  6
CONTINUOUS
 62
256
 10
-13.738936000000001
 20
189.069402000000000
 40
1.000000000000000
 50
90.000000000000000
 51
180.000000000000000
  0
LINE
  8
0
  6
CONTINUOUS
 62
256
 10
-14.738936000000001
 20
88.069401999999997
 11
-14.738936000000001
 21
91.069401999999997
  0
LINE
  8
0
  6
CONTINUOUS
 62
256
 10
23.261064000000001
 20
88.069401999999997
 11
23.261064000000001
 21
91.069401999999997
  0
LINE
  8
0
  6
CONTINUOUS
 62
256
 10
-13.738936000000001
 20
87.069401999999997
 11
22.261064000000001
 21
87.069401999999997
  0
LINE
  8
0
  6
CONTINUOUS
 62
256
 10
-13.738936000000001
 20
190.069402000000000
 11
22.261064000000001
 21
190.069402000000000
  0
ARC
  8
0
  6
CONTINUOUS
 62
256
 10
4.261064000000000
 20
102.069402000000000
 40
1.000000000000000
 50
0.000000000000000
 51
180.000000000000000
  0
LINE
  8
0
  6
CONTINUOUS
 62
256
 10
3.261064000000000
 20
102.069402000000000
 11
3.261064000000000
 21
95.069401999999997
  0
LINE
  8
0
  6
CONTINUOUS
 62
256
 10
5.261064000000000
 20
102.069402000000000
 11
5.261064000000000
 21
95.069401999999997
  0
LINE
  8
0
  6
CONTINUOUS
 62
256
 10
-33.238936000000002
 20
91.469402000000002
 11
-33.238936000000002
 21
95.069401999999997
  0
LINE
  8
0
  6
CONTINUOUS
 62
256
 10
-90.047005999999996
 20
95.069401999999997
 11
4.261064000000000
 21
95.069401999999997
  0
LINE
  8
0
  6
CONTINUOUS
 62
256
 10
-32.838935999999997
 20
91.069401999999997
 11
-33.238936000000002
 21
91.469402000000002
  0
LINE
  8
0
  6
CONTINUOUS
 62
256
 10
52.261063999999998
 20
106.069402000000000
 11
4.261064000000000
 21
106.069402000000000
  0
LINE
  8
0
  6
CONTINUOUS
 62
256
 10
41.761063999999998
 20
91.469402000000002
 11
41.761063999999998
 21
95.069401999999997
  0
LINE
  8
0
  6
CONTINUOUS
 62
256
 10
51.569133999999998
 20
95.069401999999997
 11
4.261064000000000
 21
95.069401999999997
  0
LINE
  8
0
  6
CONTINUOUS
 62
256
 10
41.361063999999999
 20
91.069401999999997
 11
41.761063999999998
 21
91.469402000000002
  0
LINE
  8
0
  6
CONTINUOUS
 62
256
 10
-32.838935999999997
 20
91.069401999999997
 11
41.361063999999999
 21
91.069401999999997
  0
LINE
  8
0
  6
CONTINUOUS
 62
256
 10
-90.738935999999995
 20
106.069402000000000
 11
4.261064000000000
 21
106.069402000000000
  0
ARC
  8
0
  6
CONTINUOUS
 62
256
 10
4.261064000000000
 20
110.069402000000000
 40
1.000000000000000
 50
180.000000000000000
 51
0.000000000000000
  0
LINE
  8
0
  6
CONTINUOUS
 62
256
 10
5.261064000000000
 20
110.069402000000000
 11
5.261064000000000
 21
182.069402000000000
  0
LINE
  8
0
  6
CONTINUOUS
 62
256
 10
3.261064000000000
 20
110.069402000000000
 11
3.261064000000000
 21
182.069402000000000
  0
ARC
  8
0
  6
CONTINUOUS
 62
256
 10
-97.738935999999995
 20
106.069402000000000
 40
2.000000000000000
 50
90.000000000000000
 51
180.000000000000000
  0
ARC
  8
0
  6
CONTINUOUS
 62
256
 10
-97.738935999999995
 20
180.069402000000000
 40
2.000000000000000
 50
180.000000000000000
 51
270.000000000000000
  0
LINE
  8
0
  6
CONTINUOUS
 62
256
 10
-118.738936000000000
 20
79.069401999999997
 11
-118.738936000000000
 21
198.069402000000000
  0
ARC
  8
0
  6
CONTINUOUS
 62
256
 10
-115.738936000000000
 20
81.999317000000005
 40
3.000000000000007
 50
268.645719999999930
 51
0.000000000000000
  0
ARC
  8
0
  6
CONTINUOUS
 62
256
 10
-115.738936000000000
 20
195.069402000000000
 40
3.000000000000000
 50
0.000000000000000
 51
90.000000000000000
  0
LINE
  8
0
  6
CONTINUOUS
 62
256
 10
-112.738936000000000
 20
158.569402000000000
 11
-118.738936000000000
 21
158.569402000000000
  0
LINE
  8
0
  6
CONTINUOUS
 62
256
 10
-112.738936000000000
 20
118.569402000000000
 11
-118.738936000000000
 21
118.569402000000000
  0
LINE
  8
0
  6
CONTINUOUS
 62
256
 10
4.261064000000000
 20
186.069402000000000
 11
41.361063999999999
 21
186.069402000000000
  0
LINE
  8
0
  6
CONTINUOUS
 62
256
 10
50.434555000000003
 20
182.069402000000000
 11
4.261064000000000
 21
182.069402000000000
  0
LINE
  8
0
  6
CONTINUOUS
 62
256
 10
-88.903426999999994
 20
182.069402000000000
 11
4.261064000000000
 21
182.069402000000000
  0
LINE
  8
0
  6
CONTINUOUS
 62
256
 10
41.761063999999998
 20
182.069402000000000
 11
41.761063999999998
 21
185.669401999999990
  0
LINE
  8
0
  6
CONTINUOUS
 62
256
 10
41.761063999999998
 20
185.669401999999990
 11
41.361063999999999
 21
186.069402000000000
  0
LINE
  8
0
  6
CONTINUOUS
 62
256
 10
-33.238936000000002
 20
185.669401999999990
 11
-32.838935999999997
 21
186.069402000000000
  0
LINE
  8
0
  6
CONTINUOUS
 62
256
 10
-33.238936000000002
 20
182.069402000000000
 11
-33.238936000000002
 21
185.669401999999990
  0
LINE
  8
0
  6
CONTINUOUS
 62
256
 10
4.261064000000000
 20
186.069402000000000
 11
-32.838935999999997
 21
186.069402000000000
  0
LINE
  8
0
  6
CONTINUOUS
 62
256
 10
-90.738664000000000
 20
106.069402000000000
 11
52.261063999999998
 21
106.069402000000000
  0
LINE
  8
0
  6
CONTINUOUS
 62
256
 10
-90.047005999999996
 20
95.069401999999997
 11
-90.555655000000002
 21
95.569249999999997
  0
LINE
  8
0
  6
CONTINUOUS
 62
256
 10
52.077782999999997
 20
95.569249999999997
 11
51.569133999999998
 21
95.069401999999997
  0
LINE
  8
0
  6
CONTINUOUS
 62
256
 10
52.261063999999998
 20
106.069402000000000
 11
52.077782999999997
 21
95.569249999999997
  0
LINE
  8
0
  6
CONTINUOUS
 62
256
 10
-90.555655000000002
 20
95.569249999999997
 11
-90.738935999999995
 21
106.069402000000000
  0
ARC
  8
0
  6
CONTINUOUS
 62
256
 10
-102.738936000000000
 20
81.691982999999993
 40
3.000000000000007
 50
268.645719999999930
 51
0.000000000000000
  0
ARC
  8
0
  6
CONTINUOUS
 62
256
 10
-102.738936000000000
 20
195.069402000000000
 40
3.000000000000000
 50
0.000000000000000
 51
90.000000000000000
  0
LINE
  8
0
  6
CONTINUOUS
 62
256
 10
-118.738936000000000
 20
79.069401999999997
 11
-102.809839000000000
 21
78.692820999999995
  0
LINE
  8
0
  6
CONTINUOUS
 62
256
 10
-102.738936000000000
 20
198.069402000000000
 11
-118.738936000000000
 21
198.069402000000000
  0
LINE
  8
0
  6
CONTINUOUS
 62
256
 10
-99.738935999999995
 20
81.691982999999993
 11
-99.738935999999995
 21
195.069402000000000
  0
ARC
  8
0
  6
CONTINUOUS
 62
256
 10
-102.738936000000000
 20
102.568135000000000
 40
3.000000000000000
 50
270.000000000000000
 51
0.000000000000000
  0
ARC
  8
0
  6
CONTINUOUS
 62
256
 10
-104.738936000000000
 20
91.473094000000003
 40
5.000000000000000
 50
270.000000000000000
 51
0.000000000000000
  0
ARC
  8
0
  6
CONTINUOUS
 62
256
 10
-104.738936000000000
 20
98.384670999999997
 40
5.000000000000000
 50
270.000000000000000
 51
0.000000000000000
  0
LINE
  8
0
  6
CONTINUOUS
 62
256
 10
-109.738936000000000
 20
86.473094000000003
 11
-104.738936000000000
 21
86.473094000000003
  0
LINE
  8
0
  6
CONTINUOUS
 62
256
 10
-109.738936000000000
 20
93.384670999999997
 11
-104.738936000000000
 21
93.384670999999997
  0
LINE
  8
0
  6
CONTINUOUS
 62
256
 10
-109.738936000000000
 20
99.568134999999998
 11
-102.738936000000000
 21
99.568134999999998
  0
LINE
  8
0
  6
CONTINUOUS
 62
256
 10
-112.738936000000000
 20
96.384670999999997
 11
-112.738936000000000
 21
138.569402000000000
  0
ARC
  8
0
  6
CONTINUOUS
 62
256
 10
-109.738936000000000
 20
96.384670999999997
 40
3.000000000000000
 50
180.000000000000000
 51
270.000000000000000
  0
ARC
  8
0
  6
CONTINUOUS
 62
256
 10
-109.738936000000000
 20
83.473094000000003
 40
3.000000000000000
 50
90.000000000000000
 51
180.000000000000000
  0
ARC
  8
0
  6
CONTINUOUS
 62
256
 10
-109.738936000000000
 20
102.568135000000000
 40
3.000000000000000
 50
180.000000000000000
 51
270.000000000000000
  0
ARC
  8
0
  6
CONTINUOUS
 62
256
 10
-102.738936000000000
 20
174.570669000000010
 40
3.000000000000000
 50
0.000000000000000
 51
90.000000000000000
  0
ARC
  8
0
  6
CONTINUOUS
 62
256
 10
-104.738936000000000
 20
178.754133000000000
 40
5.000000000000000
 50
0.000000000000000
 51
90.000000000000000
  0
ARC
  8
0
  6
CONTINUOUS
 62
256
 10
-104.738936000000000
 20
185.665708999999990
 40
5.000000000000000
 50
0.000000000000000
 51
90.000000000000000
  0
LINE
  8
0
  6
CONTINUOUS
 62
256
 10
-109.738936000000000
 20
177.570669000000010
 11
-102.738936000000000
 21
177.570669000000010
  0
LINE
  8
0
  6
CONTINUOUS
 62
256
 10
-109.738936000000000
 20
190.665708999999990
 11
-104.738936000000000
 21
190.665708999999990
  0
LINE
  8
0
  6
CONTINUOUS
 62
256
 10
-109.738936000000000
 20
183.754133000000000
 11
-104.738936000000000
 21
183.754133000000000
  0
LINE
  8
0
  6
CONTINUOUS
 62
256
 10
-112.738936000000000
 20
180.754133000000000
 11
-112.738936000000000
 21
138.569402000000000
  0
ARC
  8
0
  6
CONTINUOUS
 62
256
 10
-109.738936000000000
 20
193.665708999999990
 40
3.000000000000000
 50
180.000000000000000
 51
270.000000000000000
  0
ARC
  8
0
  6
CONTINUOUS
 62
256
 10
-109.738936000000000
 20
180.754133000000000
 40
3.000000000000000
 50
90.000000000000000
 51
180.000000000000000
  0
ARC
  8
0
  6
CONTINUOUS
 62
256
 10
-109.738936000000000
 20
174.570669000000010
 40
3.000000000000000
 50
90.000000000000000
 51
180.000000000000000
  0
LINE
  8
0
  6
CONTINUOUS
 62
256
 10
-112.738936000000000
 20
81.999317000000005
 11
-112.738936000000000
 21
83.473094000000003
  0
LINE
  8
0
  6
CONTINUOUS
 62
256
 10
-112.738936000000000
 20
195.069402000000000
 11
-112.738936000000000
 21
193.665708999999990
  0
LINE
  8
0
  6
CONTINUOUS
 62
256
 10
-90.727286000000007
 20
106.221245000000000
 11
-90.729935999999995
 21
106.069402000000000
  0
LINE
  8
0
  6
CONTINUOUS
 62
256
 10
50.434555000000003
 20
182.069402000000000
 11
50.943204000000001
 21
181.569554000000010
  0
LINE
  8
0
  6
CONTINUOUS
 62
256
 10
-89.412075999999999
 20
181.569554000000010
 11
-88.903426999999994
 21
182.069402000000000
  0
ARC
  8
0
  6
CONTINUOUS
 62
256
 10
-91.438565999999994
 20
180.069402000000000
 40
2.000000000000000
 50
270.000000000000000
 51
358.999999999999830
  0
ARC
  8
0
  6
CONTINUOUS
 62
256
 10
-91.438565999999994
 20
180.069402000000000
 40
2.000000000000000
 50
270.000000000000000
 51
358.999999999999830
  0
ARC
  8
0
  6
CONTINUOUS
 62
256
 10
-92.721513000000002
 20
106.069402000000000
 40
2.000000000000004
 50
4.354184000000047
 51
90.000000000000000
  0
LINE
  8
0
  6
DASHDOT
 62
256
 10
4.261064000000000
 20
78.060789999999997
 11
4.261064000000000
 21
197.666472000000000
  0
LINE
  8
0
  6
CONTINUOUS
 62
256
 10
-89.458972000000003
 20
178.882859999999990
 11
-90.729935999999995
 21
106.069402000000000
  0
LINE
  8
0
  6
CONTINUOUS
 62
256
 10
-91.438565999999994
 20
178.069402000000000
 11
-97.738935999999995
 21
178.069402000000000
  0
LINE
  8
0
  6
CONTINUOUS
 62
256
 10
-97.738935999999995
 20
108.069402000000000
 11
-92.721513000000002
 21
108.069402000000000
  0
LINE
  8
0
  6
CONTINUOUS
 62
256
 10
-91.438565999999994
 20
178.069402000000000
 11
-94.251863000000000
 21
178.069402000000000
  0
LINE
  8
0
  6
CONTINUOUS
 62
256
 10
52.261063999999998
 20
106.069402000000000
 11
50.943204000000001
 21
181.569554000000010
  0
LINE
  8
0
  6
CONTINUOUS
 62
256
 10
-89.412075999999999
 20
181.569554000000010
 11
-89.438869999999994
 21
180.034496999999990
  0
LINE
  8
0
  6
CONTINUOUS
 62
256
 10
52.191243999999998
 20
109.069402000000000
 11
52.208699000000003
 21
109.069402000000000
  0
ARC
  8
0
  6
CONTINUOUS
 62
256
 10
-611.351540000000000
 20
-106.990804999999990
 40
289.396999999999990
 50
0.000000000000000
 51
7.897989000000000
  0
ARC
  8
0
  6
CONTINUOUS
 62
256
 10
-330.642763000000000
 20
-68.049287000000007
 40
5.999999999999990
 50
7.897989000000010
 51
45.000000000000149
  0
LINE
  8
0
  6
CONTINUOUS
 62
256
 10
-326.400122000000010
 20
-63.806646000000001
 11
-330.976186999999980
 21
-59.230581000000001
  0
ARC
  8
0
  6
CONTINUOUS
 62
256
 10
-370.751539999999980
 20
-342.590804999999990
 40
289.396999999999990
 50
83.948014999999998
 51
90.000000000000000
  0
LINE
  8
0
  6
CONTINUOUS
 62
256
 10
-402.251539999999980
 20
-170.335800000000010
 11
-402.251539999999980
 21
-170.490804999999990
  0
LINE
  8
0
  6
CONTINUOUS
 62
256
 10
-340.759041000000020
 20
-170.490804999999990
 11
-339.251539999999980
 21
-170.490804999999990
  0
LINE
  8
0
  6
CONTINUOUS
 62
256
 10
-402.251539999999980
 20
-170.490804999999990
 11
-400.744038999999990
 21
-170.490804999999990
  0
LINE
  8
0
  6
CONTINUOUS
 62
256
 10
-340.751539999999980
 20
-193.929574000000000
 11
-340.751539999999980
 21
-170.490052999999990
  0
LINE
  8
0
  6
CONTINUOUS
 62
256
 10
-339.251539999999980
 20
-170.335800000000010
 11
-339.251539999999980
 21
-170.490804999999990
  0
LINE
  8
0
  6
CONTINUOUS
 62
256
 10
-373.251539999999980
 20
-200.490804999999990
 11
-368.251539999999980
 21
-200.490804999999990
  0
LINE
  8
0
  6
CONTINUOUS
 62
256
 10
-373.251539999999980
 20
-200.490804999999990
 11
-373.251539999999980
 21
-199.980388000000000
  0
LINE
  8
0
  6
CONTINUOUS
 62
256
 10
-368.251539999999980
 20
-200.490804999999990
 11
-368.251539999999980
 21
-199.980388000000000
  0
ARC
  8
0
  6
CONTINUOUS
 62
256
 10
-370.751539999999980
 20
100.009195000000010
 40
300.000000000000000
 50
270.000000000000000
 51
274.861404999999990
  0
ARC
  8
0
  6
CONTINUOUS
 62
256
 10
-345.751539999999980
 20
-193.929574000000000
 40
4.999999999999989
 50
274.861405000000100
 51
0.000000000000000
  0
ARC
  8
0
  6
CONTINUOUS
 62
256
 10
-395.751539999999980
 20
-193.929574000000000
 40
5.000000000000000
 50
180.000000000000000
 51
265.138594999999900
  0
LINE
  8
0
  6
CONTINUOUS
 62
256
 10
-400.751539999999980
 20
-193.929574000000000
 11
-400.751539999999980
 21
-170.490804999999990
  0
ARC
  8
0
  6
CONTINUOUS
 62
256
 10
-370.751539999999980
 20
100.009195000000010
 40
300.000000000000000
 50
265.138595000000010
 51
270.000000000000000
  0
ARC
  8
0
  6
CONTINUOUS
 62
256
 10
-320.654925999999990
 20
-63.042217999999998
 40
6.600000000000021
 50
8.597081999999979
 51
44.999999999999829
  0
ARC
  8
0
  6
CONTINUOUS
 62
256
 10
-342.028727000000000
 20
-102.990804999999990
 40
1.500000000000004
 50
187.928142000000150
 51
270.000000000000000
  0
ARC
  8
0
  6
CONTINUOUS
 62
256
 10
-370.751539999999980
 20
-106.990804999999990
 40
33.500000000000007
 50
7.180755999999994
 51
52.819243999999983
  0
ARC
  8
0
  6
CONTINUOUS
 62
256
 10
-370.751539999999980
 20
-106.990804999999990
 40
42.999999999999979
 50
5.531071999999997
 51
54.468927999999977
  0
ARC
  8
0
  6
CONTINUOUS
 62
256
 10
-370.751539999999980
 20
-106.990804999999990
 40
36.999999999999979
 50
5.963570000000011
 51
54.036430000000010
  0
ARC
  8
0
  6
CONTINUOUS
 62
256
 10
-352.926032000000020
 20
-84.116118999999998
 40
1.499999999999975
 50
149.999999999999460
 51
232.071857999999280
  0
ARC
  8
0
  6
CONTINUOUS
 62
256
 10
-351.412931000000010
 20
-81.495350999999999
 40
1.499999999999994
 50
52.819243999999927
 51
149.999999999999460
  0
ARC
  8
0
  6
CONTINUOUS
 62
256
 10
-348.141617000000000
 20
-75.829268999999996
 40
1.500000000000025
 50
150.000000000000540
 51
234.036429999999170
  0
LINE
  8
0
  6
CONTINUOUS
 62
256
 10
-354.225070000000020
 20
-83.366118999999998
 11
-352.711969000000010
 21
-80.745350999999999
  0
LINE
  8
0
  6
CONTINUOUS
 62
256
 10
-349.440654999999990
 20
-75.079268999999996
 11
-347.933087000000000
 21
-72.468085000000002
  0
ARC
  8
0
  6
CONTINUOUS
 62
256
 10
-346.634049000000000
 20
-73.218085000000002
 40
1.499999999999989
 50
54.468928000000517
 51
150.000000000000540
  0
ARC
  8
0
  6
CONTINUOUS
 62
256
 10
-383.161946000000000
 20
-77.495350999999999
 40
1.499999999999989
 50
112.819243999999050
 51
210.000000000000510
  0
LINE
  8
0
  6
CONTINUOUS
 62
256
 10
-384.460984999999990
 20
-78.245350999999999
 11
-382.947882999999990
 21
-80.866118999999998
  0
ARC
  8
0
  6
CONTINUOUS
 62
256
 10
-386.433261000000020
 20
-71.829268999999996
 40
1.499999999999975
 50
210.000000000000510
 51
294.036429999999600
  0
LINE
  8
0
  6
CONTINUOUS
 62
256
 10
-389.239866000000010
 20
-69.968085000000002
 11
-387.732299000000010
 21
-72.579268999999996
  0
ARC
  8
0
  6
CONTINUOUS
 62
256
 10
-387.940828000000010
 20
-69.218085000000002
 40
1.500000000000002
 50
114.468927999999780
 51
210.000000000000510
  0
ARC
  8
0
  6
CONTINUOUS
 62
256
 10
-381.648844999999990
 20
-80.116118999999998
 40
1.499999999999975
 50
210.000000000000510
 51
292.071857999999110
  0
ARC
  8
0
  6
CONTINUOUS
 62
256
 10
-370.751539999999980
 20
-106.990804999999990
 40
33.500000000000000
 50
67.180756000000002
 51
112.819244000000000
  0
ARC
  8
0
  6
CONTINUOUS
 62
256
 10
-370.751539999999980
 20
-106.990804999999990
 40
43.000000000000007
 50
65.531071999999980
 51
114.468928000000030
  0
ARC
  8
0
  6
CONTINUOUS
 62
256
 10
-370.751539999999980
 20
-106.990804999999990
 40
37.000000000000000
 50
65.963570000000033
 51
114.036429999999970
  0
ARC
  8
0
  6
CONTINUOUS
 62
256
 10
-370.751539999999980
 20
-106.990804999999990
 40
27.499999999999989
 50
67.928142000000008
 51
112.071857999999980
  0
ARC
  8
0
  6
CONTINUOUS
 62
256
 10
-359.854235000000020
 20
-80.116118999999998
 40
1.499999999999998
 50
247.928142000000830
 51
329.999999999999490
  0
ARC
  8
0
  6
CONTINUOUS
 62
256
 10
-358.341134000000010
 20
-77.495350999999999
 40
1.499999999999975
 50
329.999999999999490
 51
67.180756000000954
  0
ARC
  8
0
  6
CONTINUOUS
 62
256
 10
-355.069819999999990
 20
-71.829268999999996
 40
1.499999999999999
 50
245.963570000000350
 51
329.999999999999490
  0
LINE
  8
0
  6
CONTINUOUS
 62
256
 10
-358.555197000000020
 20
-80.866118999999998
 11
-357.042096000000020
 21
-78.245350999999999
  0
LINE
  8
0
  6
CONTINUOUS
 62
256
 10
-353.770782000000000
 20
-72.579268999999996
 11
-352.263214000000000
 21
-69.968085000000002
  0
ARC
  8
0
  6
CONTINUOUS
 62
256
 10
-353.562252000000000
 20
-69.218085000000002
 40
1.499999999999975
 50
329.999999999999490
 51
65.531072000000222
  0
ARC
  8
0
  6
CONTINUOUS
 62
256
 10
-390.090149999999990
 20
-81.495350999999999
 40
1.500000000000025
 50
29.999999999999456
 51
127.180756000000090
  0
LINE
  8
0
  6
CONTINUOUS
 62
256
 10
-388.791112000000000
 20
-80.745350999999999
 11
-387.278009999999990
 21
-83.366118999999998
  0
ARC
  8
0
  6
CONTINUOUS
 62
256
 10
-393.361464000000010
 20
-75.829268999999996
 40
1.500000000000007
 50
305.963570000000860
 51
30.000000000000544
  0
LINE
  8
0
  6
CONTINUOUS
 62
256
 10
-393.569993000000010
 20
-72.468085000000002
 11
-392.062426000000020
 21
-75.079268999999996
  0
ARC
  8
0
  6
CONTINUOUS
 62
256
 10
-394.869031000000010
 20
-73.218085000000002
 40
1.499999999999975
 50
30.000000000000544
 51
125.531071999999480
  0
ARC
  8
0
  6
CONTINUOUS
 62
256
 10
-388.577047999999990
 20
-84.116118999999998
 40
1.500000000000018
 50
307.928142000000720
 51
29.999999999999456
  0
ARC
  8
0
  6
CONTINUOUS
 62
256
 10
-370.751539999999980
 20
-106.990804999999990
 40
33.500000000000007
 50
127.180756000000020
 51
172.819244000000000
  0
ARC
  8
0
  6
CONTINUOUS
 62
256
 10
-370.751539999999980
 20
-106.990804999999990
 40
43.000000000000014
 50
125.531072000000020
 51
174.468928000000010
  0
ARC
  8
0
  6
CONTINUOUS
 62
256
 10
-370.751539999999980
 20
-106.990804999999990
 40
37.000000000000000
 50
125.963569999999990
 51
174.036430000000000
  0
ARC
  8
0
  6
CONTINUOUS
 62
256
 10
-370.751539999999980
 20
-106.990804999999990
 40
27.500000000000004
 50
127.928141999999990
 51
172.071857999999990
  0
ARC
  8
0
  6
CONTINUOUS
 62
256
 10
-399.474353000000010
 20
-102.990804999999990
 40
1.500000000000000
 50
270.000000000000000
 51
352.071857999999850
  0
ARC
  8
0
  6
CONTINUOUS
 62
256
 10
-402.500556000000020
 20
-102.990804999999990
 40
1.500000000000028
 50
172.819243999999910
 51
270.000000000000000
  0
ARC
  8
0
  6
CONTINUOUS
 62
256
 10
-409.043184000000000
 20
-102.990804999999990
 40
1.500000000000000
 50
270.000000000000000
 51
354.036430000000220
  0
LINE
  8
0
  6
CONTINUOUS
 62
256
 10
-399.474353000000010
 20
-104.490804999999990
 11
-402.500556000000020
 21
-104.490804999999990
  0
LINE
  8
0
  6
CONTINUOUS
 62
256
 10
-409.043184000000000
 20
-104.490804999999990
 11
-412.058318999999980
 21
-104.490804999999990
  0
ARC
  8
0
  6
CONTINUOUS
 62
256
 10
-412.058318999999980
 20
-102.990804999999990
 40
1.499999999999979
 50
174.468927999999720
 51
270.000000000000000
  0
ARC
  8
0
  6
CONTINUOUS
 62
256
 10
-390.090149999999990
 20
-132.486258999999990
 40
1.499999999999994
 50
232.819243999999940
 51
329.999999999999490
  0
LINE
  8
0
  6
CONTINUOUS
 62
256
 10
-388.791112000000000
 20
-133.236258999999990
 11
-387.278009999999990
 21
-130.615490999999990
  0
ARC
  8
0
  6
CONTINUOUS
 62
256
 10
-393.361464000000010
 20
-138.152341000000010
 40
1.499999999999975
 50
329.999999999999490
 51
54.036429999999186
  0
ARC
  8
0
  6
CONTINUOUS
 62
256
 10
-388.577047999999990
 20
-129.865490999999990
 40
1.499999999999975
 50
329.999999999999490
 51
52.071857999999288
  0
ARC
  8
0
  6
CONTINUOUS
 62
256
 10
-370.751539999999980
 20
-106.990804999999990
 40
33.500000000000007
 50
187.180756000000000
 51
232.819244000000000
  0
ARC
  8
0
  6
CONTINUOUS
 62
256
 10
-370.751539999999980
 20
-106.990804999999990
 40
42.999999999999979
 50
185.531071999999990
 51
234.468927999999950
  0
ARC
  8
0
  6
CONTINUOUS
 62
256
 10
-370.751539999999980
 20
-106.990804999999990
 40
36.999999999999979
 50
185.963570000000000
 51
234.036429999999970
  0
ARC
  8
0
  6
CONTINUOUS
 62
256
 10
-370.751539999999980
 20
-106.990804999999990
 40
27.499999999999989
 50
187.928142000000010
 51
232.071858000000050
  0
ARC
  8
0
  6
CONTINUOUS
 62
256
 10
-399.474353000000010
 20
-110.990804999999990
 40
1.500000000000004
 50
7.928142000000149
 51
90.000000000000000
  0
ARC
  8
0
  6
CONTINUOUS
 62
256
 10
-402.500556000000020
 20
-110.990804999999990
 40
1.500000000000000
 50
90.000000000000000
 51
187.180756000000090
  0
ARC
  8
0
  6
CONTINUOUS
 62
256
 10
-409.043184000000000
 20
-110.990804999999990
 40
1.500000000000012
 50
5.963569999999792
 51
90.000000000000000
  0
LINE
  8
0
  6
CONTINUOUS
 62
256
 10
-399.474353000000010
 20
-109.490804999999990
 11
-402.500556000000020
 21
-109.490804999999990
  0
LINE
  8
0
  6
CONTINUOUS
 62
256
 10
-409.043184000000000
 20
-109.490804999999990
 11
-412.058318999999980
 21
-109.490804999999990
  0
ARC
  8
0
  6
CONTINUOUS
 62
256
 10
-412.058318999999980
 20
-110.990804999999990
 40
1.500000000000000
 50
90.000000000000000
 51
185.531072000000280
  0
ARC
  8
0
  6
CONTINUOUS
 62
256
 10
-383.161946000000000
 20
-136.486258999999990
 40
1.499999999999975
 50
149.999999999999460
 51
247.180756000001140
  0
LINE
  8
0
  6
CONTINUOUS
 62
256
 10
-384.460984999999990
 20
-135.736258999999990
 11
-382.947882999999990
 21
-133.115490999999990
  0
ARC
  8
0
  6
CONTINUOUS
 62
256
 10
-381.648844999999990
 20
-133.865490999999990
 40
1.499999999999998
 50
67.928142000000889
 51
149.999999999999460
  0
ARC
  8
0
  6
CONTINUOUS
 62
256
 10
-370.751539999999980
 20
-106.990804999999990
 40
33.500000000000007
 50
247.180756000000030
 51
292.819244000000030
  0
ARC
  8
0
  6
CONTINUOUS
 62
256
 10
-370.751539999999980
 20
-106.990804999999990
 40
27.499999999999989
 50
247.928142000000040
 51
292.071857999999960
  0
ARC
  8
0
  6
CONTINUOUS
 62
256
 10
-359.854235000000020
 20
-133.865490999999990
 40
1.500000000000025
 50
29.999999999999456
 51
112.071857999999120
  0
ARC
  8
0
  6
CONTINUOUS
 62
256
 10
-358.341134000000010
 20
-136.486258999999990
 40
1.499999999999976
 50
292.819243999999230
 51
29.999999999999456
  0
LINE
  8
0
  6
CONTINUOUS
 62
256
 10
-358.555197000000020
 20
-133.115490999999990
 11
-357.042096000000020
 21
-135.736258999999990
  0
ARC
  8
0
  6
CONTINUOUS
 62
256
 10
-370.751539999999980
 20
-106.990804999999990
 40
33.500000000000000
 50
307.180755999999920
 51
352.819244000000030
  0
ARC
  8
0
  6
CONTINUOUS
 62
256
 10
-370.751539999999980
 20
-106.990804999999990
 40
36.999999999999993
 50
305.963570000000000
 51
354.036429999999940
  0
ARC
  8
0
  6
CONTINUOUS
 62
256
 10
-348.141617000000000
 20
-138.152341000000010
 40
1.500000000000007
 50
125.963570000000810
 51
210.000000000000510
  0
ARC
  8
0
  6
CONTINUOUS
 62
256
 10
-351.412931000000010
 20
-132.486258999999990
 40
1.499999999999975
 50
210.000000000000510
 51
307.180756000000090
  0
ARC
  8
0
  6
CONTINUOUS
 62
256
 10
-370.751539999999980
 20
-106.990804999999990
 40
27.500000000000014
 50
307.928141999999980
 51
352.071858000000020
  0
ARC
  8
0
  6
CONTINUOUS
 62
256
 10
-342.028727000000000
 20
-110.990804999999990
 40
1.500000000000000
 50
90.000000000000000
 51
172.071857999999850
  0
LINE
  8
0
  6
CONTINUOUS
 62
256
 10
-354.225070000000020
 20
-130.615490999999990
 11
-352.711969000000010
 21
-133.236258999999990
  0
ARC
  8
0
  6
CONTINUOUS
 62
256
 10
-352.926032000000020
 20
-129.865490999999990
 40
1.500000000000018
 50
127.928142000000730
 51
210.000000000000510
  0
CIRCLE
  8
0
  6
CONTINUOUS
 62
256
 10
-370.751539999999980
 20
-106.990804999999990
 40
5.000000000000000
  0
ARC
  8
0
  6
CONTINUOUS
 62
256
 10
-362.704862999999990
 20
-112.928059000000000
 40
1.500000000000000
 50
143.578178000000040
 51
210.000000000000510
  0
ARC
  8
0
  6
CONTINUOUS
 62
256
 10
-361.586389000000000
 20
-110.990804999999990
 40
1.500000000000000
 50
90.000000000000000
 51
156.421821999999620
  0
ARC
  8
0
  6
CONTINUOUS
 62
256
 10
-356.216643999999970
 20
-124.165983999999990
 40
1.499999999999975
 50
210.000000000000510
 51
310.240347999999810
  0
ARC
  8
0
  6
CONTINUOUS
 62
256
 10
-358.382223000000010
 20
-110.990804999999990
 40
1.500000000000024
 50
342.079787000000580
 51
90.000000000000000
  0
ARC
  8
0
  6
CONTINUOUS
 62
256
 10
-351.666205999999990
 20
-110.990804999999990
 40
1.500000000000000
 50
90.000000000000000
 51
168.162996000000190
  0
ARC
  8
0
  6
CONTINUOUS
 62
256
 10
-357.744771000000010
 20
-121.519189999999990
 40
1.499999999999989
 50
131.837003999999810
 51
210.000000000000510
  0
ARC
  8
0
  6
CONTINUOUS
 62
256
 10
-348.609950000000030
 20
-110.990804999999990
 40
1.500000000000009
 50
349.759652000000300
 51
90.000000000000000
  0
ARC
  8
0
  6
CONTINUOUS
 62
256
 10
-361.102780000000000
 20
-115.702948000000010
 40
1.499999999999975
 50
210.000000000000510
 51
317.920212999999820
  0
LINE
  8
0
  6
CONTINUOUS
 62
256
 10
-359.043809000000010
 20
-122.269189999999990
 11
-357.515682000000030
 21
-124.915983999999990
  0
ARC
  8
0
  6
CONTINUOUS
 62
256
 10
-370.751539999999980
 20
-106.990804999999990
 40
14.500000000000021
 50
317.920213000000050
 51
342.079787000000010
  0
LINE
  8
0
  6
CONTINUOUS
 62
256
 10
-358.382223000000010
 20
-109.490804999999990
 11
-361.586389000000000
 21
-109.490804999999990
  0
LINE
  8
0
  6
CONTINUOUS
 62
256
 10
-348.609950000000030
 20
-109.490804999999990
 11
-351.666205999999990
 21
-109.490804999999990
  0
LINE
  8
0
  6
CONTINUOUS
 62
256
 10
-364.003900999999980
 20
-113.678059000000000
 11
-362.401817999999990
 21
-116.452948000000010
  0
ARC
  8
0
  6
CONTINUOUS
 62
256
 10
-370.751539999999980
 20
-106.990804999999990
 40
24.000000000000004
 50
310.240347999999980
 51
349.759652000000020
  0
ARC
  8
0
  6
CONTINUOUS
 62
256
 10
-370.751539999999980
 20
-106.990804999999990
 40
8.499999999999989
 50
323.578177999999920
 51
336.421821999999910
  0
ARC
  8
0
  6
CONTINUOUS
 62
256
 10
-373.472097000000020
 20
-119.702948000000010
 40
1.499999999999975
 50
149.999999999999460
 51
257.920213000000840
  0
LINE
  8
0
  6
CONTINUOUS
 62
256
 10
-374.771135000000020
 20
-118.952948000000010
 11
-373.169052000000020
 21
-116.178059000000000
  0
ARC
  8
0
  6
CONTINUOUS
 62
256
 10
-371.870014000000030
 20
-116.928059000000000
 40
1.500000000000001
 50
83.578178000000747
 51
149.999999999999460
  0
ARC
  8
0
  6
CONTINUOUS
 62
256
 10
-370.751539999999980
 20
-106.990804999999990
 40
8.500000000000007
 50
263.578177999999980
 51
276.421822000000020
  0
ARC
  8
0
  6
CONTINUOUS
 62
256
 10
-369.633065999999990
 20
-116.928059000000000
 40
1.500000000000025
 50
29.999999999999456
 51
96.421821999999253
  0
LINE
  8
0
  6
CONTINUOUS
 62
256
 10
-368.334027999999990
 20
-116.178059000000000
 11
-366.731945000000000
 21
-118.952948000000010
  0
ARC
  8
0
  6
CONTINUOUS
 62
256
 10
-368.030982999999990
 20
-119.702948000000010
 40
1.500000000000002
 50
282.079786999999160
 51
29.999999999999456
  0
ARC
  8
0
  6
CONTINUOUS
 62
256
 10
-370.751539999999980
 20
-106.990804999999990
 40
14.500000000000002
 50
257.920213000000050
 51
282.079786999999950
  0
ARC
  8
0
  6
CONTINUOUS
 62
256
 10
-378.358232999999980
 20
-128.165984000000010
 40
1.499999999999975
 50
149.999999999999460
 51
250.240347999999300
  0
LINE
  8
0
  6
CONTINUOUS
 62
256
 10
-379.657271999999980
 20
-127.415983999999990
 11
-378.129144000000000
 21
-124.769189999999990
  0
ARC
  8
0
  6
CONTINUOUS
 62
256
 10
-376.830106000000000
 20
-125.519189999999990
 40
1.500000000000007
 50
71.837003999999709
 51
150.000000000000540
  0
ARC
  8
0
  6
CONTINUOUS
 62
256
 10
-370.751539999999980
 20
-106.990804999999990
 40
17.999999999999996
 50
251.837003999999980
 51
288.162995999999960
  0
ARC
  8
0
  6
CONTINUOUS
 62
256
 10
-364.672974000000010
 20
-125.519189999999990
 40
1.499999999999975
 50
30.000000000000544
 51
108.162996000000290
  0
LINE
  8
0
  6
CONTINUOUS
 62
256
 10
-363.373936000000010
 20
-124.769189999999990
 11
-361.845808999999970
 21
-127.415983999999990
  0
ARC
  8
0
  6
CONTINUOUS
 62
256
 10
-363.144847000000030
 20
-128.165984000000010
 40
1.500000000000012
 50
289.759652000000640
 51
29.999999999999456
  0
ARC
  8
0
  6
CONTINUOUS
 62
256
 10
-370.751539999999980
 20
-106.990804999999990
 40
23.999999999999993
 50
250.240348000000010
 51
289.759652000000020
  0
ARC
  8
0
  6
CONTINUOUS
 62
256
 10
-373.472097000000020
 20
-94.278661999999997
 40
1.499999999999989
 50
102.079786999999230
 51
210.000000000000510
  0
LINE
  8
0
  6
CONTINUOUS
 62
256
 10
-374.771135000000020
 20
-95.028661999999997
 11
-373.169052000000020
 21
-97.803550999999999
  0
ARC
  8
0
  6
CONTINUOUS
 62
256
 10
-371.870014000000030
 20
-97.053550999999999
 40
1.499999999999975
 50
210.000000000000510
 51
276.421821999999220
  0
ARC
  8
0
  6
CONTINUOUS
 62
256
 10
-370.751539999999980
 20
-106.990804999999990
 40
8.500000000000007
 50
83.578177999999994
 51
96.421822000000020
  0
ARC
  8
0
  6
CONTINUOUS
 62
256
 10
-369.633065999999990
 20
-97.053550999999999
 40
1.500000000000001
 50
263.578178000000780
 51
329.999999999999490
  0
LINE
  8
0
  6
CONTINUOUS
 62
256
 10
-368.334027999999990
 20
-97.803550999999999
 11
-366.731945000000000
 21
-95.028661999999997
  0
ARC
  8
0
  6
CONTINUOUS
 62
256
 10
-368.030982999999990
 20
-94.278661999999997
 40
1.499999999999975
 50
329.999999999999490
 51
77.920213000000771
  0
ARC
  8
0
  6
CONTINUOUS
 62
256
 10
-370.751539999999980
 20
-106.990804999999990
 40
14.500000000000002
 50
77.920213000000032
 51
102.079786999999980
  0
ARC
  8
0
  6
CONTINUOUS
 62
256
 10
-378.358232999999980
 20
-85.815625999999995
 40
1.500000000000012
 50
109.759652000000680
 51
210.000000000000510
  0
LINE
  8
0
  6
CONTINUOUS
 62
256
 10
-379.657271999999980
 20
-86.565625999999995
 11
-378.129144000000000
 21
-89.212419999999995
  0
ARC
  8
0
  6
CONTINUOUS
 62
256
 10
-376.830106000000000
 20
-88.462419999999995
 40
1.499999999999975
 50
210.000000000000510
 51
288.162996000000310
  0
ARC
  8
0
  6
CONTINUOUS
 62
256
 10
-370.751539999999980
 20
-106.990804999999990
 40
17.999999999999996
 50
71.837004000000007
 51
108.162996000000010
  0
ARC
  8
0
  6
CONTINUOUS
 62
256
 10
-364.672974000000010
 20
-88.462419999999995
 40
1.500000000000007
 50
251.837003999999720
 51
329.999999999999490
  0
LINE
  8
0
  6
CONTINUOUS
 62
256
 10
-363.373936000000010
 20
-89.212419999999995
 11
-361.845808999999970
 21
-86.565625999999995
  0
ARC
  8
0
  6
CONTINUOUS
 62
256
 10
-363.144847000000030
 20
-85.815625999999995
 40
1.499999999999975
 50
329.999999999999490
 51
70.240347999999329
  0
ARC
  8
0
  6
CONTINUOUS
 62
256
 10
-370.751539999999980
 20
-106.990804999999990
 40
23.999999999999993
 50
70.240348000000012
 51
109.759651999999990
  0
ARC
  8
0
  6
CONTINUOUS
 62
256
 10
-380.400300000000020
 20
-98.278661999999997
 40
1.500000000000025
 50
29.999999999999456
 51
137.920212999999820
  0
LINE
  8
0
  6
CONTINUOUS
 62
256
 10
-379.101262000000020
 20
-97.528661999999997
 11
-377.499179000000030
 21
-100.303551000000000
  0
ARC
  8
0
  6
CONTINUOUS
 62
256
 10
-378.798217000000020
 20
-101.053551000000000
 40
1.500000000000000
 50
323.578178000000040
 51
29.999999999999456
  0
ARC
  8
0
  6
CONTINUOUS
 62
256
 10
-370.751539999999980
 20
-106.990804999999990
 40
8.499999999999989
 50
143.578177999999950
 51
156.421821999999930
  0
ARC
  8
0
  6
CONTINUOUS
 62
256
 10
-379.916692000000010
 20
-102.990804999999990
 40
1.500000000000000
 50
270.000000000000000
 51
336.421821999999620
  0
LINE
  8
0
  6
CONTINUOUS
 62
256
 10
-379.916692000000010
 20
-104.490804999999990
 11
-383.120857000000000
 21
-104.490804999999990
  0
ARC
  8
0
  6
CONTINUOUS
 62
256
 10
-383.120857000000000
 20
-102.990804999999990
 40
1.500000000000024
 50
162.079787000000550
 51
270.000000000000000
  0
ARC
  8
0
  6
CONTINUOUS
 62
256
 10
-370.751539999999980
 20
-106.990804999999990
 40
14.500000000000012
 50
137.920213000000070
 51
162.079787000000070
  0
ARC
  8
0
  6
CONTINUOUS
 62
256
 10
-385.286436999999980
 20
-89.815625999999995
 40
1.500000000000025
 50
29.999999999999456
 51
130.240347999999780
  0
LINE
  8
0
  6
CONTINUOUS
 62
256
 10
-383.987398999999980
 20
-89.065625999999995
 11
-382.459271000000000
 21
-91.712419999999995
  0
ARC
  8
0
  6
CONTINUOUS
 62
256
 10
-383.758309000000000
 20
-92.462419999999995
 40
1.499999999999989
 50
311.837003999999810
 51
30.000000000000544
  0
ARC
  8
0
  6
CONTINUOUS
 62
256
 10
-370.751539999999980
 20
-106.990804999999990
 40
17.999999999999989
 50
131.837003999999920
 51
168.162995999999990
  0
ARC
  8
0
  6
CONTINUOUS
 62
256
 10
-389.836875000000020
 20
-102.990804999999990
 40
1.500000000000000
 50
270.000000000000000
 51
348.162996000000190
  0
LINE
  8
0
  6
CONTINUOUS
 62
256
 10
-389.836875000000020
 20
-104.490804999999990
 11
-392.893129999999990
 21
-104.490804999999990
  0
ARC
  8
0
  6
CONTINUOUS
 62
256
 10
-392.893129999999990
 20
-102.990804999999990
 40
1.500000000000009
 50
169.759652000000300
 51
270.000000000000000
  0
ARC
  8
0
  6
CONTINUOUS
 62
256
 10
-370.751539999999980
 20
-106.990804999999990
 40
24.000000000000004
 50
130.240347999999980
 51
169.759651999999960
  0
ARC
  8
0
  6
CONTINUOUS
 62
256
 10
-380.400300000000020
 20
-115.702948000000010
 40
1.499999999999994
 50
222.079787000000180
 51
329.999999999999490
  0
LINE
  8
0
  6
CONTINUOUS
 62
256
 10
-379.101262000000020
 20
-116.452948000000010
 11
-377.499179000000030
 21
-113.678059000000000
  0
ARC
  8
0
  6
CONTINUOUS
 62
256
 10
-378.798217000000020
 20
-112.928059000000000
 40
1.499999999999975
 50
329.999999999999490
 51
36.421821999999963
  0
ARC
  8
0
  6
CONTINUOUS
 62
256
 10
-370.751539999999980
 20
-106.990804999999990
 40
8.499999999999991
 50
203.578178000000070
 51
216.421822000000050
  0
ARC
  8
0
  6
CONTINUOUS
 62
256
 10
-379.916692000000010
 20
-110.990804999999990
 40
1.499999999999984
 50
23.578178000000403
 51
90.000000000000000
  0
LINE
  8
0
  6
CONTINUOUS
 62
256
 10
-379.916692000000010
 20
-109.490804999999990
 11
-383.120857000000000
 21
-109.490804999999990
  0
ARC
  8
0
  6
CONTINUOUS
 62
256
 10
-383.120857000000000
 20
-110.990804999999990
 40
1.500000000000000
 50
90.000000000000000
 51
197.920212999999450
  0
ARC
  8
0
  6
CONTINUOUS
 62
256
 10
-370.751539999999980
 20
-106.990804999999990
 40
14.500000000000011
 50
197.920212999999930
 51
222.079786999999930
  0
ARC
  8
0
  6
CONTINUOUS
 62
256
 10
-385.286436999999980
 20
-124.165983999999990
 40
1.499999999999991
 50
229.759652000000220
 51
329.999999999999490
  0
LINE
  8
0
  6
CONTINUOUS
 62
256
 10
-383.987398999999980
 20
-124.915983999999990
 11
-382.459271000000000
 21
-122.269189999999990
  0
ARC
  8
0
  6
CONTINUOUS
 62
256
 10
-383.758309000000000
 20
-121.519189999999990
 40
1.499999999999975
 50
329.999999999999490
 51
48.162996000000220
  0
ARC
  8
0
  6
CONTINUOUS
 62
256
 10
-370.751539999999980
 20
-106.990804999999990
 40
17.999999999999975
 50
191.837004000000010
 51
228.162996000000020
  0
ARC
  8
0
  6
CONTINUOUS
 62
256
 10
-389.836875000000020
 20
-110.990804999999990
 40
1.499999999999997
 50
11.837003999999803
 51
90.000000000000000
  0
LINE
  8
0
  6
CONTINUOUS
 62
256
 10
-389.836875000000020
 20
-109.490804999999990
 11
-392.893129999999990
 21
-109.490804999999990
  0
ARC
  8
0
  6
CONTINUOUS
 62
256
 10
-392.893129999999990
 20
-110.990804999999990
 40
1.500000000000000
 50
90.000000000000000
 51
190.240347999999700
  0
ARC
  8
0
  6
CONTINUOUS
 62
256
 10
-370.751539999999980
 20
-106.990804999999990
 40
23.999999999999996
 50
190.240348000000040
 51
229.759652000000020
  0
ARC
  8
0
  6
CONTINUOUS
 62
256
 10
-358.382223000000010
 20
-102.990804999999990
 40
1.500000000000000
 50
270.000000000000000
 51
17.920212999999450
  0
LINE
  8
0
  6
CONTINUOUS
 62
256
 10
-358.382223000000010
 20
-104.490804999999990
 11
-361.586389000000000
 21
-104.490804999999990
  0
ARC
  8
0
  6
CONTINUOUS
 62
256
 10
-361.586389000000000
 20
-102.990804999999990
 40
1.499999999999984
 50
203.578178000000380
 51
270.000000000000000
  0
ARC
  8
0
  6
CONTINUOUS
 62
256
 10
-370.751539999999980
 20
-106.990804999999990
 40
8.499999999999991
 50
23.578178000000058
 51
36.421822000000063
  0
ARC
  8
0
  6
CONTINUOUS
 62
256
 10
-362.704862999999990
 20
-101.053551000000000
 40
1.499999999999975
 50
149.999999999999460
 51
216.421821999999960
  0
LINE
  8
0
  6
CONTINUOUS
 62
256
 10
-364.003900999999980
 20
-100.303551000000000
 11
-362.401817999999990
 21
-97.528661999999997
  0
ARC
  8
0
  6
CONTINUOUS
 62
256
 10
-361.102780000000000
 20
-98.278661999999997
 40
1.499999999999994
 50
42.079787000000181
 51
149.999999999999460
  0
ARC
  8
0
  6
CONTINUOUS
 62
256
 10
-370.751539999999980
 20
-106.990804999999990
 40
14.500000000000014
 50
17.920213000000000
 51
42.079786999999946
  0
ARC
  8
0
  6
CONTINUOUS
 62
256
 10
-348.609950000000030
 20
-102.990804999999990
 40
1.500000000000000
 50
270.000000000000000
 51
10.240347999999715
  0
LINE
  8
0
  6
CONTINUOUS
 62
256
 10
-348.609950000000030
 20
-104.490804999999990
 11
-351.666205999999990
 21
-104.490804999999990
  0
ARC
  8
0
  6
CONTINUOUS
 62
256
 10
-351.666205999999990
 20
-102.990804999999990
 40
1.499999999999997
 50
191.837003999999810
 51
270.000000000000000
  0
ARC
  8
0
  6
CONTINUOUS
 62
256
 10
-370.751539999999980
 20
-106.990804999999990
 40
17.999999999999975
 50
11.837004000000027
 51
48.162996000000071
  0
ARC
  8
0
  6
CONTINUOUS
 62
256
 10
-357.744771000000010
 20
-92.462419999999995
 40
1.500000000000025
 50
150.000000000000540
 51
228.162996000000190
  0
LINE
  8
0
  6
CONTINUOUS
 62
256
 10
-359.043809000000010
 20
-91.712419999999995
 11
-357.515682000000030
 21
-89.065625999999995
  0
ARC
  8
0
  6
CONTINUOUS
 62
256
 10
-356.216643999999970
 20
-89.815625999999995
 40
1.499999999999991
 50
49.759652000000230
 51
150.000000000000540
  0
ARC
  8
0
  6
CONTINUOUS
 62
256
 10
-370.751539999999980
 20
-106.990804999999990
 40
23.999999999999993
 50
10.240347999999988
 51
49.759652000000010
  0
ARC
  8
0
  6
CONTINUOUS
 62
256
 10
-339.002523999999990
 20
-102.990804999999990
 40
1.500000000000000
 50
270.000000000000000
 51
7.180756000000089
  0
LINE
  8
0
  6
CONTINUOUS
 62
256
 10
-339.002523999999990
 20
-104.490804999999990
 11
-342.028727000000000
 21
-104.490804999999990
  0
ARC
  8
0
  6
CONTINUOUS
 62
256
 10
-332.459896000000010
 20
-102.990804999999990
 40
1.500000000000012
 50
185.963569999999780
 51
270.000000000000000
  0
LINE
  8
0
  6
CONTINUOUS
 62
256
 10
-329.444761000000030
 20
-104.490804999999990
 11
-332.459896000000010
 21
-104.490804999999990
  0
LINE
  8
0
  6
CONTINUOUS
 62
256
 10
-393.569993000000010
 20
-141.513524999999990
 11
-392.062426000000020
 21
-138.902341000000010
  0
ARC
  8
0
  6
CONTINUOUS
 62
256
 10
-394.869031000000010
 20
-140.763524999999990
 40
1.499999999999989
 50
234.468928000000520
 51
329.999999999999490
  0
ARC
  8
0
  6
CONTINUOUS
 62
256
 10
-386.433261000000020
 20
-142.152341000000010
 40
1.499999999999986
 50
65.963570000000146
 51
150.000000000000540
  0
LINE
  8
0
  6
CONTINUOUS
 62
256
 10
-389.239866000000010
 20
-144.013524999999990
 11
-387.732299000000010
 21
-141.402341000000010
  0
ARC
  8
0
  6
CONTINUOUS
 62
256
 10
-387.940828000000010
 20
-144.763524999999990
 40
1.500000000000025
 50
150.000000000000540
 51
245.531072000000020
  0
ARC
  8
0
  6
CONTINUOUS
 62
256
 10
-370.751539999999980
 20
-106.990804999999990
 40
42.999999999999993
 50
245.531071999999970
 51
294.468927999999950
  0
ARC
  8
0
  6
CONTINUOUS
 62
256
 10
-370.751539999999980
 20
-106.990804999999990
 40
37.000000000000000
 50
245.963569999999950
 51
294.036429999999940
  0
ARC
  8
0
  6
CONTINUOUS
 62
256
 10
-355.069819999999990
 20
-142.152341000000010
 40
1.499999999999975
 50
30.000000000000544
 51
114.036429999999850
  0
LINE
  8
0
  6
CONTINUOUS
 62
256
 10
-353.770782000000000
 20
-141.402341000000010
 11
-352.263214000000000
 21
-144.013524999999990
  0
ARC
  8
0
  6
CONTINUOUS
 62
256
 10
-353.562252000000000
 20
-144.763524999999990
 40
1.499999999999989
 50
294.468928000000010
 51
30.000000000000544
  0
ARC
  8
0
  6
CONTINUOUS
 62
256
 10
-370.751539999999980
 20
-106.990804999999990
 40
43.000000000000021
 50
305.531071999999990
 51
354.468928000000010
  0
ARC
  8
0
  6
CONTINUOUS
 62
256
 10
-346.634049000000000
 20
-140.763524999999990
 40
1.499999999999975
 50
210.000000000000510
 51
305.531071999999480
  0
ARC
  8
0
  6
CONTINUOUS
 62
256
 10
-332.459896000000010
 20
-110.990804999999990
 40
1.500000000000000
 50
90.000000000000000
 51
174.036430000000220
  0
ARC
  8
0
  6
CONTINUOUS
 62
256
 10
-339.002523999999990
 20
-110.990804999999990
 40
1.500000000000028
 50
352.819243999999910
 51
90.000000000000000
  0
LINE
  8
0
  6
CONTINUOUS
 62
256
 10
-339.002523999999990
 20
-109.490804999999990
 11
-342.028727000000000
 21
-109.490804999999990
  0
LINE
  8
0
  6
CONTINUOUS
 62
256
 10
-349.440654999999990
 20
-138.902341000000010
 11
-347.933087000000000
 21
-141.513524999999990
  0
LINE
  8
0
  6
CONTINUOUS
 62
256
 10
-329.444761000000030
 20
-109.490804999999990
 11
-332.459896000000010
 21
-109.490804999999990
  0
ARC
  8
0
  6
CONTINUOUS
 62
256
 10
-370.751539999999980
 20
-106.990804999999990
 40
27.499999999999986
 50
7.928141999999994
 51
52.071858000000006
  0
ARC
  8
0
  6
CONTINUOUS
 62
256
 10
-370.751539999999980
 20
-106.990804999999990
 40
17.999999999999989
 50
311.837003999999920
 51
348.162995999999960
  0
ARC
  8
0
  6
CONTINUOUS
 62
256
 10
-329.444761000000030
 20
-102.990804999999990
 40
1.500000000000000
 50
270.000000000000000
 51
5.531072000000276
  0
ARC
  8
0
  6
CONTINUOUS
 62
256
 10
-329.444761000000030
 20
-110.990804999999990
 40
1.499999999999979
 50
354.468927999999720
 51
90.000000000000000
  0
LINE
  8
0
  6
CONTINUOUS
 62
256
 10
-425.515059000000010
 20
-58.375312999999998
 11
-418.448609999999970
 21
-51.308864000000000
  0
LINE
  8
0
  6
CONTINUOUS
 62
256
 10
-315.988021000000000
 20
-155.606297000000010
 11
-323.054469999999980
 21
-162.672745999999990
  0
ARC
  8
0
  6
CONTINUOUS
 62
256
 10
-370.751539999999980
 20
-342.590804999999990
 40
300.600000000000020
 50
83.948014999999998
 51
96.051985000000002
  0
ARC
  8
0
  6
CONTINUOUS
 62
256
 10
-611.351540000000000
 20
-106.990804999999990
 40
300.600000000000020
 50
0.000000000000000
 51
8.597082000000000
  0
ARC
  8
0
  6
CONTINUOUS
 62
256
 10
-130.151540000000010
 20
-106.990804999999990
 40
300.600000000000020
 50
180.000000000000000
 51
188.597082000000000
  0
ARC
  8
0
  6
CONTINUOUS
 62
256
 10
-320.654925999999990
 20
-150.939392000000000
 40
6.600000000000017
 50
315.000000000000170
 51
351.402917999999940
  0
ARC
  8
0
  6
CONTINUOUS
 62
256
 10
-611.351540000000000
 20
-106.990804999999990
 40
300.600000000000020
 50
351.402918000000000
 51
0.000000000000000
  0
ARC
  8
0
  6
CONTINUOUS
 62
256
 10
-370.751539999999980
 20
128.609195000000000
 40
300.600000000000020
 50
263.948015000000000
 51
276.051985000000000
  0
LINE
  8
0
  6
CONTINUOUS
 62
256
 10
-425.515059000000010
 20
-155.606297000000010
 11
-418.448609999999970
 21
-162.672745999999990
  0
ARC
  8
0
  6
CONTINUOUS
 62
256
 10
-420.848155000000020
 20
-150.939392000000000
 40
6.600000000000022
 50
188.597082000000030
 51
224.999999999999830
  0
ARC
  8
0
  6
CONTINUOUS
 62
256
 10
-130.151540000000010
 20
-106.990804999999990
 40
300.600000000000020
 50
171.402918000000000
 51
180.000000000000000
  0
ARC
  8
0
  6
CONTINUOUS
 62
256
 10
-420.848155000000020
 20
-63.042217999999998
 40
6.600000000000017
 50
135.000000000000170
 51
171.402918000000030
  0
LINE
  8
0
  6
CONTINUOUS
 62
256
 10
-315.988021000000000
 20
-58.375312999999998
 11
-323.054469999999980
 21
-51.308864000000000
  0
LINE
  8
0
  6
DASHDOT
 62
256
 10
-370.751539999999980
 20
-40.213152000000001
 11
-370.751539999999980
 21
-218.696316999999990
  0
LINE
  8
0
  6
DASHDOT
 62
256
 10
-436.756823999999990
 20
-106.990804999999990
 11
-305.922312999999970
 21
-106.990804999999990
  0
ARC
  8
0
  6
CONTINUOUS
 62
256
 10
-341.863510000000020
 20
-143.863706000000010
 40
26.600000000000009
 50
276.051984999999950
 51
314.999999999999940
  0
ARC
  8
0
  6
CONTINUOUS
 62
256
 10
-341.863510000000020
 20
-70.117903999999996
 40
26.600000000000016
 50
44.999999999999957
 51
83.948015000000026
  0
ARC
  8
0
  6
CONTINUOUS
 62
256
 10
-399.639569999999990
 20
-70.117903999999996
 40
26.599999999999994
 50
96.051984999999974
 51
135.000000000000060
  0
ARC
  8
0
  6
CONTINUOUS
 62
256
 10
-399.639569999999990
 20
-143.863706000000010
 40
26.600000000000016
 50
224.999999999999940
 51
263.948015000000050
  0
ARC
  8
0
  6
CONTINUOUS
 62
256
 10
-341.863510000000020
 20
-70.117903999999996
 40
15.397000000000016
 50
44.999999999999929
 51
83.948015000000069
  0
ARC
  8
0
  6
CONTINUOUS
 62
256
 10
-370.751539999999980
 20
128.609195000000000
 40
289.396999999999990
 50
270.000000000000000
 51
276.051985000000000
  0
ARC
  8
0
  6
CONTINUOUS
 62
256
 10
-341.863510000000020
 20
-143.863706000000010
 40
15.397000000000000
 50
276.051984999999890
 51
315.000000000000060
  0
LINE
  8
0
  6
CONTINUOUS
 62
256
 10
-326.400122000000010
 20
-150.174963999999990
 11
-330.976186999999980
 21
-154.751028999999990
  0
ARC
  8
0
  6
CONTINUOUS
 62
256
 10
-330.642763000000000
 20
-145.932323000000000
 40
5.999999999999989
 50
314.999999999999770
 51
352.102010999999950
  0
ARC
  8
0
  6
CONTINUOUS
 62
256
 10
-611.351540000000000
 20
-106.990804999999990
 40
289.396999999999990
 50
352.102011000000000
 51
360.000000000000000
  0
ARC
  8
0
  6
CONTINUOUS
 62
256
 10
-370.751539999999980
 20
128.609195000000000
 40
289.397000000000050
 50
263.948015000000000
 51
270.000000000000000
  0
ARC
  8
0
  6
CONTINUOUS
 62
256
 10
-399.639569999999990
 20
-143.863706000000010
 40
15.397000000000016
 50
224.999999999999910
 51
263.948015000000110
  0
LINE
  8
0
  6
CONTINUOUS
 62
256
 10
-415.102958000000000
 20
-150.174963999999990
 11
-410.526892999999970
 21
-154.751028999999990
  0
ARC
  8
0
  6
CONTINUOUS
 62
256
 10
-410.860318000000010
 20
-145.932323000000000
 40
5.999999999999990
 50
187.897989000000000
 51
225.000000000000170
  0
ARC
  8
0
  6
CONTINUOUS
 62
256
 10
-130.151540000000010
 20
-106.990804999999990
 40
289.396999999999990
 50
180.000000000000000
 51
187.897989000000000
  0
ARC
  8
0
  6
CONTINUOUS
 62
256
 10
-370.751539999999980
 20
-342.590804999999990
 40
289.396999999999990
 50
90.000000000000000
 51
96.051985000000002
  0
ARC
  8
0
  6
CONTINUOUS
 62
256
 10
-399.639569999999990
 20
-70.117903999999996
 40
15.397000000000000
 50
96.051984999999931
 51
135.000000000000090
  0
LINE
  8
0
  6
CONTINUOUS
 62
256
 10
-415.102958000000000
 20
-63.806646000000001
 11
-410.526892999999970
 21
-59.230581000000001
  0
ARC
  8
0
  6
CONTINUOUS
 62
256
 10
-410.860318000000010
 20
-68.049287000000007
 40
5.999999999999983
 50
134.999999999999890
 51
172.102011000000000
  0
ARC
  8
0
  6
CONTINUOUS
 62
256
 10
-130.151540000000010
 20
-106.990804999999990
 40
289.396999999999990
 50
172.102011000000030
 51
180.000000000000000
  0
LINE
  8
0
  6
DASHDOT
 62
256
 10
-224.547270000000000
 20
-184.990804999999990
 11
-205.358229999999990
 21
-184.990804999999990
  0
LINE
  8
0
  6
DASHDOT
 62
256
 10
-215.238936000000000
 20
-167.706954000000000
 11
-215.238936000000000
 21
-195.686303000000010
  0
ARC
  8
0
  6
DASHED
 62
256
 10
-215.238936000000000
 20
-184.990804999999990
 40
7.000000000000000
 50
180.000000000000000
 51
0.000000000000000
  0
LINE
  8
0
  6
DASHED
 62
256
 10
-208.238936000000000
 20
-170.490804999999990
 11
-208.238936000000000
 21
-184.990804999999990
  0
LINE
  8
0
  6
DASHED
 62
256
 10
-222.238936000000000
 20
-170.490804999999990
 11
-222.238936000000000
 21
-184.990804999999990
  0
LINE
  8
0
  6
DASHDOT
 62
256
 10
-175.649235000000000
 20
-184.990804999999990
 11
-155.275053000000010
 21
-184.990804999999990
  0
LINE
  8
0
  6
DASHDOT
 62
256
 10
-165.238936000000000
 20
-167.706954000000000
 11
-165.238936000000000
 21
-195.686303000000010
  0
CIRCLE
  8
0
  6
DASHED
 62
256
 10
-165.238936000000000
 20
-184.990804999999990
 40
6.000000000000000
  0
ARC
  8
0
  6
DASHED
 62
256
 10
-165.238936000000000
 20
-184.990804999999990
 40
7.000000000000000
 50
180.000000000000000
 51
0.000000000000000
  0
LINE
  8
0
  6
DASHED
 62
256
 10
-172.238936000000000
 20
-170.490804999999990
 11
-172.238936000000000
 21
-184.990804999999990
  0
LINE
  8
0
  6
DASHED
 62
256
 10
-158.238936000000000
 20
-170.490804999999990
 11
-158.238936000000000
 21
-184.990804999999990
  0
TEXT
  8
0
  6
CONTINUOUS
 62
256
 10
460.788299560546870
 20
-227.957931518554690
 40
3.299999952316284
  1
1/1
 50
0.000002504478167
 41
0.850909097352304
  7
STANDARD1
  0
TEXT
  8
0
  6
CONTINUOUS
 62
256
 10
458.370300292968750
 20
-227.957931518554690
 40
3.299999952316284
  1
 
 50
0.000002504478167
 41
1.733333298293026
  7
STANDARD1
  0
TEXT
  8
0
  6
CONTINUOUS
 62
256
 10
445.319671630859370
 20
-227.957931518554690
 40
3.299999952316284
  1
SCALE
 50
0.000002504478167
 41
0.821052645401140
  7
STANDARD1
  0
TEXT
  8
0
  6
CONTINUOUS
 62
256
 10
442.068298339843750
 20
-227.957931518554690
 40
3.299999952316284
  1
 
 50
0.000002504478167
 41
1.733333298293026
  7
STANDARD1
  0
TEXT
  8
0
  6
CONTINUOUS
 62
256
 10
459.505493164062500
 20
-222.657928466796870
 40
3.299999952316284
  1
1/30
 50
0.000002504478167
 41
0.832000075658163
  7
STANDARD1
  0
TEXT
  8
0
  6
CONTINUOUS
 62
256
 10
455.714447021484370
 20
-222.657928466796870
 40
3.299999952316284
  1
ü`
 50
0.000002504478167
 41
1.176000019651471
  7
STANDARD1
  0
TEXT
  8
0
  6
CONTINUOUS
 62
256
 10
442.068298339843750
 20
-222.657928466796870
 40
3.299999952316284
  1
1/7.5
 50
0.000002504478167
 41
0.821052645401140
  7
STANDARD1
  0
TEXT
  8
0
  6
CONTINUOUS
 62
256
 10
442.068298339843750
 20
-217.357925415039060
 40
3.299999952316284
  1
GM-SSYF-RH
 50
0.000002504478167
 41
0.799999980493025
  7
STANDARD1
  0
TEXT
  8
0
  6
CONTINUOUS
 62
256
 10
447.893676757812500
 20
-212.057937622070310
 40
3.299999952316284
  1
0.4kW
 50
0.000002504478167
 41
0.821052645401140
  7
STANDARD1
  0
TEXT
  8
0
  6
CONTINUOUS
 62
256
 10
442.068298339843750
 20
-212.057937622070310
 40
3.299999952316284
  1
  
 50
0.000002504478167
 41
1.485714400175845
  7
STANDARD1
  0
TEXT
  8
0
  6
CONTINUOUS
 62
256
 10
447.893676757812500
 20
-206.757934570312500
 40
3.299999952316284
  1
SSY04
 50
0.000002504478167
 41
0.821052645401140
  7
STANDARD1
  0
TEXT
  8
0
  6
CONTINUOUS
 62
256
 10
442.068298339843750
 20
-206.757934570312500
 40
3.299999952316284
  1
  
 50
0.000002504478167
 41
1.485714400175845
  7
STANDARD1
  0
ARC
  8
0
  6
CONTINUOUS
 62
256
 10
600.012935999999970
 20
-106.990804999999990
 40
300.600000000000020
 50
180.000000000000000
 51
183.305128999999970
  0
ARC
  8
0
  6
CONTINUOUS
 62
256
 10
309.316322000000010
 20
-63.042217999999998
 40
6.600000000000017
 50
135.000000000000170
 51
171.402918000000030
  0
ARC
  8
0
  6
CONTINUOUS
 62
256
 10
600.012935999999970
 20
-106.990804999999990
 40
300.600000000000020
 50
171.402918000000000
 51
176.211099999999990
  0
ARC
  8
0
  6
CONTINUOUS
 62
256
 10
118.812935999999990
 20
-106.990804999999990
 40
300.600000000000020
 50
0.000000000000000
 51
3.305129000000000
  0
ARC
  8
0
  6
CONTINUOUS
 62
256
 10
409.509550999999990
 20
-63.042217999999998
 40
6.600000000000021
 50
8.597081999999979
 51
44.999999999999829
  0
LINE
  8
0
  6
CONTINUOUS
 62
256
 10
-122.738936000000000
 20
-166.490804999999990
 11
-122.738936000000000
 21
-47.516990999999997
  0
LINE
  8
0
  6
CONTINUOUS
 62
256
 10
-152.738936000000000
 20
-47.490805000000002
 11
-122.738936000000000
 21
-47.490805000000002
  0
LINE
  8
0
  6
CONTINUOUS
 62
256
 10
-219.738936000000000
 20
-49.990805000000002
 11
-122.738936000000000
 21
-49.990805000000002
  0
LINE
  8
0
  6
CONTINUOUS
 62
256
 10
-219.738936000000000
 20
-50.990805000000002
 11
-122.738936000000000
 21
-50.990805000000002
  0
LINE
  8
0
  6
CONTINUOUS
 62
256
 10
-219.738936000000000
 20
-51.990805000000002
 11
-122.738936000000000
 21
-51.990805000000002
  0
LINE
  8
0
  6
CONTINUOUS
 62
256
 10
-219.738936000000000
 20
-56.675271000000002
 11
-122.738936000000000
 21
-56.675271000000002
  0
LINE
  8
0
  6
CONTINUOUS
 62
256
 10
-219.738936000000000
 20
-61.625017999999997
 11
-122.738936000000000
 21
-61.625017999999997
  0
LINE
  8
0
  6
CONTINUOUS
 62
256
 10
-219.738936000000000
 20
-91.990804999999995
 11
-122.738936000000000
 21
-91.990804999999995
  0
LINE
  8
0
  6
CONTINUOUS
 62
256
 10
-219.738936000000000
 20
-87.617542999999998
 11
-122.738936000000000
 21
-87.617542999999998
  0
LINE
  8
0
  6
CONTINUOUS
 62
256
 10
-219.738936000000000
 20
-86.351304999999996
 11
-122.738936000000000
 21
-86.351304999999996
  0
LINE
  8
0
  6
CONTINUOUS
 62
256
 10
-219.738936000000000
 20
-82.160752000000002
 11
-122.738936000000000
 21
-82.160752000000002
  0
LINE
  8
0
  6
CONTINUOUS
 62
256
 10
-219.738936000000000
 20
-80.798871000000005
 11
-122.738936000000000
 21
-80.798871000000005
  0
LINE
  8
0
  6
CONTINUOUS
 62
256
 10
-219.738936000000000
 20
-76.708371000000000
 11
-122.738936000000000
 21
-76.708371000000000
  0
LINE
  8
0
  6
CONTINUOUS
 62
256
 10
-219.738936000000000
 20
-75.240013000000005
 11
-122.738936000000000
 21
-75.240013000000005
  0
LINE
  8
0
  6
CONTINUOUS
 62
256
 10
-219.738936000000000
 20
-71.276268000000002
 11
-122.738936000000000
 21
-71.276268000000002
  0
LINE
  8
0
  6
CONTINUOUS
 62
256
 10
-219.738936000000000
 20
-69.671620000000004
 11
-122.738936000000000
 21
-69.671620000000004
  0
LINE
  8
0
  6
CONTINUOUS
 62
256
 10
-219.738936000000000
 20
-121.990804999999990
 11
-122.738936000000000
 21
-121.990804999999990
  0
LINE
  8
0
  6
CONTINUOUS
 62
256
 10
-219.738936000000000
 20
-126.364067000000010
 11
-122.738936000000000
 21
-126.364067000000010
  0
LINE
  8
0
  6
CONTINUOUS
 62
256
 10
-219.738936000000000
 20
-127.630305000000010
 11
-122.738936000000000
 21
-127.630305000000010
  0
LINE
  8
0
  6
CONTINUOUS
 62
256
 10
-219.738936000000000
 20
-131.820857999999990
 11
-122.738936000000000
 21
-131.820857999999990
  0
LINE
  8
0
  6
CONTINUOUS
 62
256
 10
-219.738936000000000
 20
-133.182739000000000
 11
-122.738936000000000
 21
-133.182739000000000
  0
LINE
  8
0
  6
CONTINUOUS
 62
256
 10
-219.738936000000000
 20
-137.273238999999990
 11
-122.738936000000000
 21
-137.273238999999990
  0
LINE
  8
0
  6
CONTINUOUS
 62
256
 10
-219.738936000000000
 20
-138.741597000000010
 11
-122.738936000000000
 21
-138.741597000000010
  0
LINE
  8
0
  6
CONTINUOUS
 62
256
 10
-219.738936000000000
 20
-142.705342000000000
 11
-122.738936000000000
 21
-142.705342000000000
  0
LINE
  8
0
  6
CONTINUOUS
 62
256
 10
-219.738936000000000
 20
-144.309990000000000
 11
-122.738936000000000
 21
-144.309990000000000
  0
LINE
  8
0
  6
CONTINUOUS
 62
256
 10
-219.738936000000000
 20
-152.356592000000010
 11
-122.738936000000000
 21
-152.356592000000010
  0
LINE
  8
0
  6
CONTINUOUS
 62
256
 10
-219.738936000000000
 20
-157.306339000000010
 11
-122.738936000000000
 21
-157.306339000000010
  0
LINE
  8
0
  6
CONTINUOUS
 62
256
 10
-219.738936000000000
 20
-161.990804999999990
 11
-122.738936000000000
 21
-161.990804999999990
  0
LINE
  8
0
  6
CONTINUOUS
 62
256
 10
-219.738936000000000
 20
-162.990804999999990
 11
-122.738936000000000
 21
-162.990804999999990
  0
LINE
  8
0
  6
CONTINUOUS
 62
256
 10
-219.738936000000000
 20
-163.990804999999990
 11
-122.738936000000000
 21
-163.990804999999990
  0
LINE
  8
0
  6
CONTINUOUS
 62
256
 10
-152.738936000000000
 20
-166.490804999999990
 11
-122.738936000000000
 21
-166.490804999999990
  0
LINE
  8
0
  6
CONTINUOUS
 62
256
 10
-219.738936000000000
 20
-47.490805000000002
 11
-122.738936000000000
 21
-47.490805000000002
  0
ARC
  8
0
  6
CONTINUOUS
 62
256
 10
-226.738936000000000
 20
-171.610026000000000
 40
3.000000000000000
 50
90.000000000000000
 51
180.000000000000000
  0
ARC
  8
0
  6
CONTINUOUS
 62
256
 10
-222.738936000000000
 20
-165.610026000000000
 40
3.000000000000000
 50
270.000000000000000
 51
0.000000000000000
  0
LINE
  8
0
  6
CONTINUOUS
 62
256
 10
-229.738936000000000
 20
-171.990804999999990
 11
-229.738936000000000
 21
-171.610026000000000
  0
LINE
  8
0
  6
CONTINUOUS
 62
256
 10
-226.738936000000000
 20
-168.610026000000000
 11
-222.738936000000000
 21
-168.610026000000000
  0
LINE
  8
0
  6
CONTINUOUS
 62
256
 10
-152.738936000000000
 20
-170.490804999999990
 11
-152.738936000000000
 21
-165.490804999999990
  0
LINE
  8
0
  6
CONTINUOUS
 62
256
 10
-160.738936000000000
 20
-200.490804999999990
 11
-168.738936000000000
 21
-200.490804999999990
  0
LINE
  8
0
  6
CONTINUOUS
 62
256
 10
-168.738936000000000
 20
-199.990804999999990
 11
-168.738936000000000
 21
-200.490804999999990
  0
LINE
  8
0
  6
CONTINUOUS
 62
256
 10
-163.238936000000000
 20
-199.990804999999990
 11
-163.238936000000000
 21
-200.490804999999990
  0
LINE
  8
0
  6
CONTINUOUS
 62
256
 10
-160.738936000000000
 20
-199.990804999999990
 11
-160.738936000000000
 21
-200.490804999999990
  0
LINE
  8
0
  6
CONTINUOUS
 62
256
 10
-154.738936000000000
 20
-199.990804999999990
 11
-225.738936000000000
 21
-199.990804999999990
  0
ARC
  8
0
  6
CONTINUOUS
 62
256
 10
-225.738936000000000
 20
-198.990804999999990
 40
1.000000000000000
 50
180.000000000000000
 51
270.000000000000000
  0
ARC
  8
0
  6
CONTINUOUS
 62
256
 10
-154.738936000000000
 20
-198.990804999999990
 40
1.000000000000000
 50
270.000000000000000
 51
0.000000000000000
  0
LINE
  8
0
  6
CONTINUOUS
 62
256
 10
-153.738936000000000
 20
-198.990804999999990
 11
-153.738936000000000
 21
-170.490804999999990
  0
LINE
  8
0
  6
CONTINUOUS
 62
256
 10
-226.738936000000000
 20
-198.990804999999990
 11
-226.738936000000000
 21
-170.490804999999990
  0
LINE
  8
0
  6
CONTINUOUS
 62
256
 10
-152.738936000000000
 20
-170.490804999999990
 11
-227.738936000000000
 21
-170.490804999999990
  0
LINE
  8
0
  6
CONTINUOUS
 62
256
 10
-152.738936000000000
 20
-165.490804999999990
 11
-219.738936000000000
 21
-165.490804999999990
  0
LINE
  8
0
  6
CONTINUOUS
 62
256
 10
-227.738936000000000
 20
-170.490804999999990
 11
-227.738936000000000
 21
-168.781599000000000
  0
ARC
  8
0
  6
CONTINUOUS
 62
256
 10
-248.432960000000010
 20
-151.990804999999990
 40
19.999999999999979
 50
235.000000000000000
 51
270.000000000000000
  0
LINE
  8
0
  6
CONTINUOUS
 62
256
 10
-229.738936000000000
 20
-171.990804999999990
 11
-248.432960000000010
 21
-171.990804999999990
  0
ARC
  8
0
  6
CONTINUOUS
 62
256
 10
-268.138936000000000
 20
-159.434010000000000
 40
2.600000000000023
 50
180.000000000000000
 51
234.999999999999770
  0
LINE
  8
0
  6
CONTINUOUS
 62
256
 10
-259.904489000000010
 20
-168.373845999999990
 11
-269.630235000000030
 21
-161.563805000000000
  0
LINE
  8
0
  6
CONTINUOUS
 62
256
 10
-270.738936000000020
 20
-106.990804999999990
 11
-270.738936000000020
 21
-159.434010000000000
  0
LINE
  8
0
  6
CONTINUOUS
 62
256
 10
-219.738936000000000
 20
-106.990804999999990
 11
-219.738936000000000
 21
-165.610026000000000
  0
ARC
  8
0
  6
CONTINUOUS
 62
256
 10
-268.138936000000000
 20
-54.547600000000003
 40
2.600000000000001
 50
125.000000000000110
 51
180.000000000000000
  0
LINE
  8
0
  6
CONTINUOUS
 62
256
 10
-259.904489000000010
 20
-45.607764000000003
 11
-269.630235000000030
 21
-52.417805000000001
  0
ARC
  8
0
  6
CONTINUOUS
 62
256
 10
-248.432960000000010
 20
-61.990805000000002
 40
20.000000000000000
 50
90.000000000000000
 51
124.999999999999990
  0
LINE
  8
0
  6
CONTINUOUS
 62
256
 10
-270.738936000000020
 20
-106.990804999999990
 11
-270.738936000000020
 21
-54.547600000000003
  0
LINE
  8
0
  6
CONTINUOUS
 62
256
 10
-219.738936000000000
 20
-41.990805000000002
 11
-248.432960000000010
 21
-41.990805000000002
  0
LINE
  8
0
  6
CONTINUOUS
 62
256
 10
-219.738936000000000
 20
-106.990804999999990
 11
-219.738936000000000
 21
-41.990805000000002
  0
LINE
  8
0
  6
CONTINUOUS
 62
256
 10
-230.738936000000000
 20
-53.250689999999999
 11
-232.738936000000000
 21
-54.903331999999999
  0
LINE
  8
0
  6
CONTINUOUS
 62
256
 10
-228.738936000000000
 20
-52.074903999999997
 11
-230.738936000000000
 21
-53.250689999999999
  0
LINE
  8
0
  6
CONTINUOUS
 62
256
 10
-230.738936000000000
 20
-53.250689999999999
 11
-228.738936000000000
 21
-54.903331999999999
  0
LINE
  8
0
  6
CONTINUOUS
 62
256
 10
-232.738936000000000
 20
-52.074903999999997
 11
-230.738936000000000
 21
-53.250689999999999
  0
POLYLINE
  8
0
  6
CONTINUOUS
 62
256
 66
1
 70
1
  0
VERTEX
  8
0
  6
CONTINUOUS
 62
256
 10
-226.038936000000010
 20
-55.067279999999997
  0
VERTEX
  8
0
  6
CONTINUOUS
 62
256
 10
-226.129245182104820
 20
-54.364323489441830
  0
VERTEX
  8
0
  6
CONTINUOUS
 62
256
 10
-226.396702197196960
 20
-53.688381203361857
  0
VERTEX
  8
0
  6
CONTINUOUS
 62
256
 10
-226.831028822178040
 20
-53.065429224741337
  0
VERTEX
  8
0
  6
CONTINUOUS
 62
256
 10
-227.415534128423220
 20
-52.519407248763159
  0
VERTEX
  8
0
  6
CONTINUOUS
 62
256
 10
-228.127755904807880
 20
-52.071298593751507
  0
VERTEX
  8
0
  6
CONTINUOUS
 62
256
 10
-228.940323867884080
 20
-51.738323824016263
  0
VERTEX
  8
0
  6
CONTINUOUS
 62
256
 10
-229.822011486524190
 20
-51.533278973223936
  0
VERTEX
  8
0
  6
CONTINUOUS
 62
256
 10
-230.738936000000000
 20
-51.464043800000006
  0
VERTEX
  8
0
  6
CONTINUOUS
 62
256
 10
-231.655860513475800
 20
-51.533278973223936
  0
VERTEX
  8
0
  6
CONTINUOUS
 62
256
 10
-232.537548132115920
 20
-51.738323824016263
  0
VERTEX
  8
0
  6
CONTINUOUS
 62
256
 10
-233.350116095192110
 20
-52.071298593751507
  0
VERTEX
  8
0
  6
CONTINUOUS
 62
256
 10
-234.062337871576770
 20
-52.519407248763159
  0
VERTEX
  8
0
  6
CONTINUOUS
 62
256
 10
-234.646843177821950
 20
-53.065429224741337
  0
VERTEX
  8
0
  6
CONTINUOUS
 62
256
 10
-235.081169802803030
 20
-53.688381203361857
  0
VERTEX
  8
0
  6
CONTINUOUS
 62
256
 10
-235.348626817895170
 20
-54.364323489441830
  0
VERTEX
  8
0
  6
CONTINUOUS
 62
256
 10
-235.438935999999980
 20
-55.067279999999997
  0
VERTEX
  8
0
  6
CONTINUOUS
 62
256
 10
-235.348626817895170
 20
-55.770236510558163
  0
VERTEX
  8
0
  6
CONTINUOUS
 62
256
 10
-235.081169802803030
 20
-56.446178796638137
  0
VERTEX
  8
0
  6
CONTINUOUS
 62
256
 10
-234.646843177821950
 20
-57.069130775258657
  0
VERTEX
  8
0
  6
CONTINUOUS
 62
256
 10
-234.062337871576770
 20
-57.615152751236835
  0
VERTEX
  8
0
  6
CONTINUOUS
 62
256
 10
-233.350116095192110
 20
-58.063261406248486
  0
VERTEX
  8
0
  6
CONTINUOUS
 62
256
 10
-232.537548132115920
 20
-58.396236175983731
  0
VERTEX
  8
0
  6
CONTINUOUS
 62
256
 10
-231.655860513475800
 20
-58.601281026776057
  0
VERTEX
  8
0
  6
CONTINUOUS
 62
256
 10
-230.738936000000000
 20
-58.670516199999987
  0
VERTEX
  8
0
  6
CONTINUOUS
 62
256
 10
-229.822011486524190
 20
-58.601281026776057
  0
VERTEX
  8
0
  6
CONTINUOUS
 62
256
 10
-228.940323867884080
 20
-58.396236175983731
  0
VERTEX
  8
0
  6
CONTINUOUS
 62
256
 10
-228.127755904807880
 20
-58.063261406248486
  0
VERTEX
  8
0
  6
CONTINUOUS
 62
256
 10
-227.415534128423250
 20
-57.615152751236835
  0
VERTEX
  8
0
  6
CONTINUOUS
 62
256
 10
-226.831028822178040
 20
-57.069130775258657
  0
VERTEX
  8
0
  6
CONTINUOUS
 62
256
 10
-226.396702197196960
 20
-56.446178796638137
  0
VERTEX
  8
0
  6
CONTINUOUS
 62
256
 10
-226.129245182104820
 20
-55.770236510558163
  0
SEQEND
  8
0
  6
CONTINUOUS
 62
256
  0
LINE
  8
0
  6
CONTINUOUS
 62
256
 10
-230.738936000000000
 20
-160.730920000000000
 11
-232.738936000000000
 21
-159.078278000000010
  0
LINE
  8
0
  6
CONTINUOUS
 62
256
 10
-228.738936000000000
 20
-161.906706000000010
 11
-230.738936000000000
 21
-160.730920000000000
  0
LINE
  8
0
  6
CONTINUOUS
 62
256
 10
-230.738936000000000
 20
-160.730920000000000
 11
-228.738936000000000
 21
-159.078278000000010
  0
LINE
  8
0
  6
CONTINUOUS
 62
256
 10
-232.738936000000000
 20
-161.906706000000010
 11
-230.738936000000000
 21
-160.730920000000000
  0
POLYLINE
  8
0
  6
CONTINUOUS
 62
256
 66
1
 70
1
  0
VERTEX
  8
0
  6
CONTINUOUS
 62
256
 10
-226.038936000000010
 20
-158.914330000000010
  0
VERTEX
  8
0
  6
CONTINUOUS
 62
256
 10
-226.129245182104820
 20
-158.211373489441830
  0
VERTEX
  8
0
  6
CONTINUOUS
 62
256
 10
-226.396702197196960
 20
-157.535431203361870
  0
VERTEX
  8
0
  6
CONTINUOUS
 62
256
 10
-226.831028822178040
 20
-156.912479224741330
  0
VERTEX
  8
0
  6
CONTINUOUS
 62
256
 10
-227.415534128423220
 20
-156.366457248763170
  0
VERTEX
  8
0
  6
CONTINUOUS
 62
256
 10
-228.127755904807880
 20
-155.918348593751520
  0
VERTEX
  8
0
  6
CONTINUOUS
 62
256
 10
-228.940323867884080
 20
-155.585373824016270
  0
VERTEX
  8
0
  6
CONTINUOUS
 62
256
 10
-229.822011486524190
 20
-155.380328973223930
  0
VERTEX
  8
0
  6
CONTINUOUS
 62
256
 10
-230.738936000000000
 20
-155.311093800000010
  0
VERTEX
  8
0
  6
CONTINUOUS
 62
256
 10
-231.655860513475800
 20
-155.380328973223930
  0
VERTEX
  8
0
  6
CONTINUOUS
 62
256
 10
-232.537548132115920
 20
-155.585373824016270
  0
VERTEX
  8
0
  6
CONTINUOUS
 62
256
 10
-233.350116095192110
 20
-155.918348593751520
  0
VERTEX
  8
0
  6
CONTINUOUS
 62
256
 10
-234.062337871576770
 20
-156.366457248763170
  0
VERTEX
  8
0
  6
CONTINUOUS
 62
256
 10
-234.646843177821950
 20
-156.912479224741330
  0
VERTEX
  8
0
  6
CONTINUOUS
 62
256
 10
-235.081169802803030
 20
-157.535431203361870
  0
VERTEX
  8
0
  6
CONTINUOUS
 62
256
 10
-235.348626817895170
 20
-158.211373489441830
  0
VERTEX
  8
0
  6
CONTINUOUS
 62
256
 10
-235.438935999999980
 20
-158.914330000000010
  0
VERTEX
  8
0
  6
CONTINUOUS
 62
256
 10
-235.348626817895170
 20
-159.617286510558190
  0
VERTEX
  8
0
  6
CONTINUOUS
 62
256
 10
-235.081169802803030
 20
-160.293228796638150
  0
VERTEX
  8
0
  6
CONTINUOUS
 62
256
 10
-234.646843177821950
 20
-160.916180775258680
  0
VERTEX
  8
0
  6
CONTINUOUS
 62
256
 10
-234.062337871576770
 20
-161.462202751236840
  0
VERTEX
  8
0
  6
CONTINUOUS
 62
256
 10
-233.350116095192110
 20
-161.910311406248500
  0
VERTEX
  8
0
  6
CONTINUOUS
 62
256
 10
-232.537548132115920
 20
-162.243286175983740
  0
VERTEX
  8
0
  6
CONTINUOUS
 62
256
 10
-231.655860513475800
 20
-162.448331026776060
  0
VERTEX
  8
0
  6
CONTINUOUS
 62
256
 10
-230.738936000000000
 20
-162.517566200000000
  0
VERTEX
  8
0
  6
CONTINUOUS
 62
256
 10
-229.822011486524190
 20
-162.448331026776060
  0
VERTEX
  8
0
  6
CONTINUOUS
 62
256
 10
-228.940323867884080
 20
-162.243286175983740
  0
VERTEX
  8
0
  6
CONTINUOUS
 62
256
 10
-228.127755904807880
 20
-161.910311406248500
  0
VERTEX
  8
0
  6
CONTINUOUS
 62
256
 10
-227.415534128423250
 20
-161.462202751236840
  0
VERTEX
  8
0
  6
CONTINUOUS
 62
256
 10
-226.831028822178040
 20
-160.916180775258680
  0
VERTEX
  8
0
  6
CONTINUOUS
 62
256
 10
-226.396702197196960
 20
-160.293228796638150
  0
VERTEX
  8
0
  6
CONTINUOUS
 62
256
 10
-226.129245182104820
 20
-159.617286510558190
  0
SEQEND
  8
0
  6
CONTINUOUS
 62
256
  0
LINE
  8
0
  6
DASHDOT
 62
256
 10
359.412936000000000
 20
-205.196695000000010
 11
359.412936000000000
 21
-25.367515000000001
  0
ARC
  8
0
  6
CONTINUOUS
 62
256
 10
334.412936000000000
 20
-193.929574000000000
 40
5.000000000000000
 50
180.000000000000000
 51
265.138594999999900
  0
LINE
  8
0
  6
CONTINUOUS
 62
256
 10
389.412936000000000
 20
-170.490812000000010
 11
389.412936000000000
 21
-193.929574000000000
  0
ARC
  8
0
  6
CONTINUOUS
 62
256
 10
384.412936000000000
 20
-193.929574000000000
 40
4.999999999999989
 50
274.861405000000100
 51
0.000000000000000
  0
ARC
  8
0
  6
CONTINUOUS
 62
256
 10
359.412936000000000
 20
100.009195000000010
 40
300.000000000000000
 50
270.000000000000000
 51
274.861404999999990
  0
ARC
  8
0
  6
CONTINUOUS
 62
256
 10
359.412936000000000
 20
100.009195000000010
 40
300.000000000000000
 50
265.138595000000010
 51
270.000000000000000
  0
LINE
  8
0
  6
CONTINUOUS
 62
256
 10
329.412936000000000
 20
-170.490812000000010
 11
329.412936000000000
 21
-193.929574000000000
  0
LINE
  8
0
  6
DASHDOT
 62
256
 10
-58.707391000000001
 20
-106.990804999999990
 11
-281.374136000000020
 21
-106.990804999999990
  0
LINE
  8
0
  6
CONTINUOUS
 62
256
 10
-122.738936000000000
 20
-48.490802000000002
 11
-122.738936000000000
 21
-50.740802000000002
  0
LINE
  8
0
  6
CONTINUOUS
 62
256
 10
-122.739442000000000
 20
-50.740805000000002
 11
-122.739442000000000
 21
-48.572844000000003
  0
LINE
  8
0
  6
CONTINUOUS
 62
256
 10
-122.739442000000000
 20
-48.490805000000002
 11
-122.739442000000000
 21
-50.740805000000002
  0
LINE
  8
0
  6
CONTINUOUS
 62
256
 10
328.348630000000010
 20
-170.490812000000010
 11
328.348630000000010
 21
-165.490812000000010
  0
LINE
  8
0
  6
CONTINUOUS
 62
256
 10
328.348630000000010
 20
-170.490812000000010
 11
390.348630000000010
 21
-170.490812000000010
  0
LINE
  8
0
  6
CONTINUOUS
 62
256
 10
390.348630000000010
 20
-170.490812000000010
 11
390.348630000000010
 21
-165.490812000000010
  0
LINE
  8
0
  6
CONTINUOUS
 62
256
 10
356.848630000000010
 20
-200.490812000000010
 11
356.848630000000010
 21
-199.980394999999990
  0
LINE
  8
0
  6
CONTINUOUS
 62
256
 10
361.848630000000010
 20
-200.490812000000010
 11
361.848630000000010
 21
-199.980394999999990
  0
LINE
  8
0
  6
CONTINUOUS
 62
256
 10
361.848630000000010
 20
-200.490812000000010
 11
356.848630000000010
 21
-200.490812000000010
  0
LINE
  8
0
  6
CONTINUOUS
 62
256
 10
390.348630000000010
 20
-165.490812000000010
 11
379.412936000000000
 21
-165.490812000000010
  0
LINE
  8
0
  6
CONTINUOUS
 62
256
 10
414.176455999999970
 20
-58.375312999999998
 11
408.028429000000020
 21
-52.227285999999999
  0
ARC
  8
0
  6
CONTINUOUS
 62
256
 10
315.464349000000030
 20
-56.894190999999999
 40
6.600000000000013
 50
122.553903000000120
 51
135.000000000000170
  0
LINE
  8
0
  6
CONTINUOUS
 62
256
 10
304.649417000000030
 20
-58.375312999999998
 11
310.797443999999980
 21
-52.227285999999999
  0
ARC
  8
0
  6
CONTINUOUS
 62
256
 10
118.812935999999990
 20
-106.990804999999990
 40
300.600000000000020
 50
3.788899999999998
 51
8.597082000000000
  0
ARC
  8
0
  6
CONTINUOUS
 62
256
 10
118.812935999999990
 20
-106.990804999999990
 40
300.600000000000020
 50
356.694870999999980
 51
0.000000000000000
  0
ARC
  8
0
  6
CONTINUOUS
 62
256
 10
600.012935999999970
 20
-106.990804999999990
 40
300.600000000000020
 50
176.694871000000010
 51
180.000000000000000
  0
LINE
  8
0
  6
CONTINUOUS
 62
256
 10
339.412936000000000
 20
-165.490812000000010
 11
328.348630000000010
 21
-165.490812000000010
  0
LINE
  8
0
  6
CONTINUOUS
 62
256
 10
-3.738936000000000
 20
-71.190804999999997
 11
-3.738936000000000
 21
-75.148086000000006
  0
LINE
  8
0
  6
CONTINUOUS
 62
256
 10
-3.738936000000000
 20
-71.190804999999997
 11
4.261064000000000
 21
-71.190804999999997
  0
LINE
  8
0
  6
CONTINUOUS
 62
256
 10
4.261064000000000
 20
-71.190804999999997
 11
4.261064000000000
 21
-75.148086000000006
  0
ARC
  8
0
  6
CONTINUOUS
 62
256
 10
0.261064000000000
 20
-86.990804999999995
 40
12.500000000000000
 50
108.662925000000000
 51
71.337074999999999
  0
LINE
  8
0
  6
CONTINUOUS
 62
256
 10
-67.238935999999995
 20
-39.390805000000000
 11
-66.838936000000004
 21
-38.990805000000002
  0
LINE
  8
0
  6
CONTINUOUS
 62
256
 10
-77.238935999999995
 20
-39.390805000000000
 11
-77.638936000000001
 21
-38.990805000000002
  0
LINE
  8
0
  6
CONTINUOUS
 62
256
 10
30.761336000000000
 20
-39.390805000000000
 11
31.161335999999999
 21
-38.990805000000002
  0
LINE
  8
0
  6
CONTINUOUS
 62
256
 10
20.761336000000000
 20
-39.390805000000000
 11
20.361336000000001
 21
-38.990805000000002
  0
LINE
  8
0
  6
CONTINUOUS
 62
256
 10
30.761336000000000
 20
-134.590804999999990
 11
31.161335999999999
 21
-134.990804999999990
  0
LINE
  8
0
  6
CONTINUOUS
 62
256
 10
20.761336000000000
 20
-134.590804999999990
 11
20.361336000000001
 21
-134.990804999999990
  0
LINE
  8
0
  6
CONTINUOUS
 62
256
 10
-67.238935999999995
 20
-134.590804999999990
 11
-66.838936000000004
 21
-134.990804999999990
  0
LINE
  8
0
  6
CONTINUOUS
 62
256
 10
-77.238935999999995
 20
-134.590804999999990
 11
-77.638936000000001
 21
-134.990804999999990
  0
ARC
  8
0
  6
CONTINUOUS
 62
256
 10
-83.738935999999995
 20
-71.899517000000003
 40
5.749999999999995
 50
114.624317999999950
 51
180.000000000000000
  0
ARC
  8
0
  6
CONTINUOUS
 62
256
 10
-83.738935999999995
 20
-108.521136000000000
 40
5.750000000000000
 50
180.000000000000000
 51
266.525398999999990
  0
ARC
  8
0
  6
CONTINUOUS
 62
256
 10
-60.238936000000002
 20
-123.990804999999990
 40
5.749999999999997
 50
202.619865000000000
 51
270.000000000000000
  0
ARC
  8
0
  6
CONTINUOUS
 62
256
 10
-84.738935999999995
 20
-124.990804999999990
 40
10.750000000000004
 50
32.753422999999970
 51
86.525399000000021
  0
ARC
  8
0
  6
CONTINUOUS
 62
256
 10
-70.862325999999996
 20
-116.063897000000000
 40
5.750000000000000
 50
212.753423000000030
 51
263.921375000000010
  0
ARC
  8
0
  6
CONTINUOUS
 62
256
 10
-72.238935999999995
 20
-128.990804999999990
 40
7.249999999999997
 50
22.619865000000015
 51
83.921375000000012
  0
ARC
  8
0
  6
CONTINUOUS
 62
256
 10
-60.238936000000002
 20
-49.990805000000002
 40
5.750000000000000
 50
90.000000000000000
 51
157.380134999999970
  0
ARC
  8
0
  6
CONTINUOUS
 62
256
 10
-72.238935999999995
 20
-44.990805000000002
 40
7.249999999999997
 50
276.078624999999990
 51
337.380134999999940
  0
ARC
  8
0
  6
CONTINUOUS
 62
256
 10
-70.862325999999996
 20
-57.917712999999999
 40
5.749999999999997
 50
96.078625000000017
 51
147.246576999999970
  0
ARC
  8
0
  6
CONTINUOUS
 62
256
 10
-84.738935999999995
 20
-48.990805000000002
 40
10.749999999999998
 50
297.891356999999970
 51
327.246577000000000
  0
ARC
  8
0
  6
CONTINUOUS
 62
256
 10
-77.020294000000007
 20
-63.574102000000003
 40
5.750000000000005
 50
117.891357000000040
 51
167.568350999999950
  0
ARC
  8
0
  6
CONTINUOUS
 62
256
 10
-88.738935999999995
 20
-60.990805000000002
 40
6.250000000000001
 50
294.624318000000070
 51
347.568351000000010
  0
LINE
  8
0
  6
CONTINUOUS
 62
256
 10
-89.488935999999995
 20
-71.899517000000003
 11
-89.488935999999995
 21
-108.521136000000000
  0
ARC
  8
0
  6
CONTINUOUS
 62
256
 10
-37.738936000000002
 20
-48.990805000000002
 40
11.000000000000004
 50
271.848571999999990
 51
0.924166000000016
  0
ARC
  8
0
  6
CONTINUOUS
 62
256
 10
-37.238936000000002
 20
-64.482737999999998
 40
4.500000000000004
 50
91.848572000000033
 51
180.000000000000000
  0
LINE
  8
0
  6
CONTINUOUS
 62
256
 10
-41.738936000000002
 20
-109.498872000000010
 11
-41.738936000000002
 21
-64.482737999999998
  0
ARC
  8
0
  6
CONTINUOUS
 62
256
 10
-37.238936000000002
 20
-109.498872000000010
 40
4.500000000000000
 50
180.000000000000000
 51
268.151427999999950
  0
ARC
  8
0
  6
CONTINUOUS
 62
256
 10
-37.738936000000002
 20
-124.990804999999990
 40
11.000000000000000
 50
359.075833999999990
 51
88.151427999999981
  0
LINE
  8
0
  6
CONTINUOUS
 62
256
 10
-67.238935999999995
 20
-44.990805000000002
 11
-67.238935999999995
 21
-39.390805000000000
  0
LINE
  8
0
  6
CONTINUOUS
 62
256
 10
-77.238935999999995
 20
-44.990805000000002
 11
-77.238935999999995
 21
-39.390805000000000
  0
LINE
  8
0
  6
CONTINUOUS
 62
256
 10
30.761336000000000
 20
-44.990502999999997
 11
30.761336000000000
 21
-39.390805000000000
  0
LINE
  8
0
  6
CONTINUOUS
 62
256
 10
20.761336000000000
 20
-44.990502999999997
 11
20.761336000000000
 21
-39.390805000000000
  0
LINE
  8
0
  6
CONTINUOUS
 62
256
 10
30.761336000000000
 20
-134.590804999999990
 11
30.761336000000000
 21
-128.991108000000000
  0
LINE
  8
0
  6
CONTINUOUS
 62
256
 10
20.761336000000000
 20
-134.590804999999990
 11
20.761336000000000
 21
-128.991108000000000
  0
LINE
  8
0
  6
CONTINUOUS
 62
256
 10
-67.238935999999995
 20
-134.590804999999990
 11
-67.238935999999995
 21
-128.990804999999990
  0
LINE
  8
0
  6
CONTINUOUS
 62
256
 10
-77.238935999999995
 20
-134.590804999999990
 11
-77.238935999999995
 21
-128.990804999999990
  0
ARC
  8
0
  6
CONTINUOUS
 62
256
 10
36.761063999999998
 20
-102.325441000000000
 40
6.250000000000002
 50
297.279612999999980
 51
0.000000000000000
  0
ARC
  8
0
  6
CONTINUOUS
 62
256
 10
42.261063999999998
 20
-112.990804999999990
 40
5.750000000000001
 50
117.279613000000000
 51
167.568351000000060
  0
ARC
  8
0
  6
CONTINUOUS
 62
256
 10
30.542421999999998
 20
-110.407508000000010
 40
6.249999999999996
 50
297.891357000000030
 51
347.568350999999950
  0
ARC
  8
0
  6
CONTINUOUS
 62
256
 10
38.261063999999998
 20
-124.990804999999990
 40
10.250000000000005
 50
117.891356999999970
 51
147.248046999999990
  0
ARC
  8
0
  6
CONTINUOUS
 62
256
 10
24.384225000000001
 20
-116.064252999999990
 40
6.249999999999994
 50
276.080848000000000
 51
327.248046999999990
  0
ARC
  8
0
  6
CONTINUOUS
 62
256
 10
25.761336000000000
 20
-128.991108000000000
 40
6.750000000000004
 50
96.080848000000003
 51
154.969529000000050
  0
ARC
  8
0
  6
CONTINUOUS
 62
256
 10
13.982259000000001
 20
-123.490804999999990
 40
6.250000000000000
 50
270.000000000000000
 51
334.969529000000080
  0
LINE
  8
0
  6
CONTINUOUS
 62
256
 10
-60.238936000000002
 20
-129.740804999999990
 11
13.982259000000001
 21
-129.740804999999990
  0
LINE
  8
0
  6
CONTINUOUS
 62
256
 10
13.982259000000001
 20
-44.240805000000002
 11
-60.238936000000002
 21
-44.240805000000002
  0
ARC
  8
0
  6
CONTINUOUS
 62
256
 10
13.982259000000001
 20
-50.490805000000002
 40
6.249999999999999
 50
25.030471000000002
 51
90.000000000000000
  0
ARC
  8
0
  6
CONTINUOUS
 62
256
 10
25.761336000000000
 20
-44.990502999999997
 40
6.750000000000003
 50
205.030471000000010
 51
263.919152000000000
  0
ARC
  8
0
  6
CONTINUOUS
 62
256
 10
24.384225000000001
 20
-57.917357000000003
 40
6.250000000000001
 50
32.751952999999986
 51
83.919151999999983
  0
ARC
  8
0
  6
CONTINUOUS
 62
256
 10
38.261063999999998
 20
-48.990805000000002
 40
10.250000000000002
 50
212.751952999999990
 51
264.784090999999930
  0
ARC
  8
0
  6
CONTINUOUS
 62
256
 10
36.761063999999998
 20
-65.422482000000002
 40
6.250000000000000
 50
0.000000000000000
 51
84.784090999999975
  0
LINE
  8
0
  6
CONTINUOUS
 62
256
 10
43.011063999999998
 20
-102.325441000000000
 11
43.011063999999998
 21
-65.422482000000002
  0
CIRCLE
  8
0
  6
CONTINUOUS
 62
256
 10
0.261064000000000
 20
-86.990804999999995
 40
39.250000000000000
  0
ARC
  8
0
  6
CONTINUOUS
 62
256
 10
-1.470987000000000
 20
-39.990805000000002
 40
1.000000000000000
 50
29.999999999999996
 51
90.000000000000000
  0
ARC
  8
0
  6
CONTINUOUS
 62
256
 10
0.261064000000000
 20
-38.990805000000002
 40
1.000000000000000
 50
210.000000000000000
 51
330.000000000000000
  0
ARC
  8
0
  6
CONTINUOUS
 62
256
 10
1.993115000000000
 20
-39.990805000000002
 40
1.000000000000000
 50
90.000000000000000
 51
150.000000000000000
  0
ARC
  8
0
  6
CONTINUOUS
 62
256
 10
47.261063999999998
 20
-85.258753999999996
 40
0.999999999999996
 50
300.000000000000110
 51
0.000000000000000
  0
ARC
  8
0
  6
CONTINUOUS
 62
256
 10
48.261063999999998
 20
-86.990804999999995
 40
0.999999999999996
 50
120.000000000000140
 51
239.999999999999830
  0
ARC
  8
0
  6
CONTINUOUS
 62
256
 10
47.261063999999998
 20
-88.722855999999993
 40
1.000000000000000
 50
0.000000000000000
 51
59.999999999999865
  0
ARC
  8
0
  6
CONTINUOUS
 62
256
 10
1.993115000000000
 20
-133.990804999999990
 40
1.000000000000000
 50
210.000000000000000
 51
270.000000000000000
  0
ARC
  8
0
  6
CONTINUOUS
 62
256
 10
0.261064000000000
 20
-134.990804999999990
 40
1.000000000000000
 50
29.999999999999996
 51
150.000000000000000
  0
ARC
  8
0
  6
CONTINUOUS
 62
256
 10
-1.470987000000000
 20
-133.990804999999990
 40
1.000000000000000
 50
270.000000000000000
 51
330.000000000000000
  0
ARC
  8
0
  6
CONTINUOUS
 62
256
 10
25.761336000000000
 20
-128.991108000000000
 40
5.000000000000000
 50
0.000000000000000
 51
180.000000000000000
  0
ARC
  8
0
  6
CONTINUOUS
 62
256
 10
25.761336000000000
 20
-44.990502999999997
 40
5.000000000000000
 50
180.000000000000000
 51
0.000000000000000
  0
ARC
  8
0
  6
CONTINUOUS
 62
256
 10
-72.238935999999995
 20
-44.990805000000002
 40
5.000000000000000
 50
180.000000000000000
 51
0.000000000000000
  0
ARC
  8
0
  6
CONTINUOUS
 62
256
 10
-87.738935999999995
 20
-127.990804999999990
 40
7.000000000000000
 50
180.000000000000000
 51
270.000000000000000
  0
LINE
  8
0
  6
CONTINUOUS
 62
256
 10
-94.738935999999995
 20
-45.990805000000002
 11
-94.738935999999995
 21
-127.990804999999990
  0
LINE
  8
0
  6
CONTINUOUS
 62
256
 10
-87.738935999999995
 20
-134.990804999999990
 11
41.261063999999998
 21
-134.990804999999990
  0
ARC
  8
0
  6
CONTINUOUS
 62
256
 10
-87.738935999999995
 20
-127.990804999999990
 40
7.000000000000000
 50
180.000000000000000
 51
270.000000000000000
  0
LINE
  8
0
  6
DASHDOT
 62
256
 10
-72.238935999999995
 20
-121.490804999999990
 11
-72.238935999999995
 21
-136.490804999999990
  0
LINE
  8
0
  6
DASHDOT
 62
256
 10
-64.738935999999995
 20
-128.990804999999990
 11
-79.738935999999995
 21
-128.990804999999990
  0
ARC
  8
0
  6
CONTINUOUS
 62
256
 10
-72.238935999999995
 20
-128.990804999999990
 40
5.000000000000000
 50
0.000000000000000
 51
180.000000000000000
  0
CIRCLE
  8
0
  6
CONTINUOUS
 62
256
 10
-84.738935999999995
 20
-124.990804999999990
 40
7.000000000000000
  0
LINE
  8
0
  6
DASHDOT
 62
256
 10
25.761336000000000
 20
-135.991108000000000
 11
25.761336000000000
 21
-121.991108000000000
  0
LINE
  8
0
  6
DASHDOT
 62
256
 10
18.353403000000000
 20
-128.991108000000000
 11
32.761336000000000
 21
-128.991108000000000
  0
LINE
  8
0
  6
DASHDOT
 62
256
 10
-72.238935999999995
 20
-51.990805000000002
 11
-72.238935999999995
 21
-37.990805000000002
  0
LINE
  8
0
  6
DASHDOT
 62
256
 10
-79.238935999999995
 20
-44.990805000000002
 11
-63.778461999999998
 21
-44.990805000000002
  0
LINE
  8
0
  6
DASHDOT
 62
256
 10
25.761336000000000
 20
-37.990502999999997
 11
25.761336000000000
 21
-51.990502999999997
  0
LINE
  8
0
  6
DASHDOT
 62
256
 10
32.761336000000000
 20
-44.990502999999997
 11
16.228770000000001
 21
-44.990502999999997
  0
POINT
  8
0
  6
CONTINUOUS
 62
256
 10
0.261476000000000
 20
-86.990804999999995
  0
ARC
  8
0
  6
CONTINUOUS
 62
256
 10
41.261063999999998
 20
-45.990805000000002
 40
7.000000000000000
 50
0.000000000000000
 51
90.000000000000000
  0
ARC
  8
0
  6
CONTINUOUS
 62
256
 10
41.261063999999998
 20
-127.990804999999990
 40
7.000000000000000
 50
270.000000000000000
 51
0.000000000000000
  0
LINE
  8
0
  6
CONTINUOUS
 62
256
 10
48.261063999999998
 20
-45.990805000000002
 11
48.261063999999998
 21
-127.990804999999990
  0
ARC
  8
0
  6
CONTINUOUS
 62
256
 10
41.261063999999998
 20
-45.990805000000002
 40
7.000000000000000
 50
0.000000000000000
 51
90.000000000000000
  0
ARC
  8
0
  6
CONTINUOUS
 62
256
 10
-87.738935999999995
 20
-45.990805000000002
 40
7.000000000000000
 50
90.000000000000000
 51
180.000000000000000
  0
LINE
  8
0
  6
CONTINUOUS
 62
256
 10
-87.738935999999995
 20
-38.990805000000002
 11
41.261063999999998
 21
-38.990805000000002
  0
LINE
  8
0
  6
DASHDOT
 62
256
 10
0.261064000000000
 20
-36.675187999999999
 11
0.261064000000000
 21
-138.134314999999990
  0
POINT
  8
0
  6
DASHDOT
 62
256
 10
0.261476000000000
 20
-86.990804999999995
  0
CIRCLE
  8
0
  6
CONTINUOUS
 62
256
 10
38.261063999999998
 20
-124.990804999999990
 40
7.000000000000000
  0
CIRCLE
  8
0
  6
CONTINUOUS
 62
256
 10
38.261063999999998
 20
-48.990805000000002
 40
7.000000000000000
  0
CIRCLE
  8
0
  6
CONTINUOUS
 62
256
 10
-84.738935999999995
 20
-48.990805000000002
 40
7.000000000000000
  0
LINE
  8
0
  6
DASHDOT
 62
256
 10
52.423358999999998
 20
-86.990804999999995
 11
-48.806246999999999
 21
-86.990804999999995
  0
ARC
  8
0
  6
CONTINUOUS
 62
256
 10
-106.738936000000000
 20
-142.992072000000010
 40
3.000000000000000
 50
270.000000000000000
 51
0.000000000000000
  0
ARC
  8
0
  6
CONTINUOUS
 62
256
 10
-106.738936000000000
 20
-70.989537999999996
 40
3.000000000000000
 50
0.000000000000000
 51
90.000000000000000
  0
ARC
  8
0
  6
CONTINUOUS
 62
256
 10
-108.738936000000000
 20
-154.087111999999990
 40
5.000000000000000
 50
270.000000000000000
 51
0.000000000000000
  0
ARC
  8
0
  6
CONTINUOUS
 62
256
 10
-108.738936000000000
 20
-147.175535999999990
 40
5.000000000000000
 50
270.000000000000000
 51
0.000000000000000
  0
ARC
  8
0
  6
CONTINUOUS
 62
256
 10
-108.738936000000000
 20
-66.806073999999995
 40
5.000000000000000
 50
0.000000000000000
 51
90.000000000000000
  0
ARC
  8
0
  6
CONTINUOUS
 62
256
 10
-108.738936000000000
 20
-59.894497999999999
 40
5.000000000000000
 50
0.000000000000000
 51
90.000000000000000
  0
LINE
  8
0
  6
CONTINUOUS
 62
256
 10
-113.738936000000000
 20
-159.087111999999990
 11
-108.738936000000000
 21
-159.087111999999990
  0
LINE
  8
0
  6
CONTINUOUS
 62
256
 10
-113.738936000000000
 20
-152.175535999999990
 11
-108.738936000000000
 21
-152.175535999999990
  0
LINE
  8
0
  6
CONTINUOUS
 62
256
 10
-113.738936000000000
 20
-145.992072000000010
 11
-106.738936000000000
 21
-145.992072000000010
  0
LINE
  8
0
  6
CONTINUOUS
 62
256
 10
-113.738936000000000
 20
-67.989537999999996
 11
-106.738936000000000
 21
-67.989537999999996
  0
LINE
  8
0
  6
CONTINUOUS
 62
256
 10
-113.738936000000000
 20
-54.894497999999999
 11
-108.738936000000000
 21
-54.894497999999999
  0
LINE
  8
0
  6
CONTINUOUS
 62
256
 10
-113.738936000000000
 20
-61.806074000000002
 11
-108.738936000000000
 21
-61.806074000000002
  0
LINE
  8
0
  6
CONTINUOUS
 62
256
 10
-116.738936000000000
 20
-163.560890000000000
 11
-116.738936000000000
 21
-162.087111999999990
  0
LINE
  8
0
  6
CONTINUOUS
 62
256
 10
-116.738936000000000
 20
-149.175535999999990
 11
-116.738936000000000
 21
-106.990804999999990
  0
ARC
  8
0
  6
CONTINUOUS
 62
256
 10
-113.738936000000000
 20
-149.175535999999990
 40
3.000000000000000
 50
180.000000000000000
 51
270.000000000000000
  0
ARC
  8
0
  6
CONTINUOUS
 62
256
 10
-113.738936000000000
 20
-162.087111999999990
 40
3.000000000000000
 50
90.000000000000000
 51
180.000000000000000
  0
LINE
  8
0
  6
CONTINUOUS
 62
256
 10
-116.738936000000000
 20
-64.806073999999995
 11
-116.738936000000000
 21
-106.990804999999990
  0
ARC
  8
0
  6
CONTINUOUS
 62
256
 10
-113.738936000000000
 20
-51.894497999999999
 40
3.000000000000000
 50
180.000000000000000
 51
270.000000000000000
  0
LINE
  8
0
  6
CONTINUOUS
 62
256
 10
-116.738936000000000
 20
-50.490805000000002
 11
-116.738936000000000
 21
-51.894497999999999
  0
ARC
  8
0
  6
CONTINUOUS
 62
256
 10
-113.738936000000000
 20
-64.806073999999995
 40
3.000000000000000
 50
90.000000000000000
 51
180.000000000000000
  0
ARC
  8
0
  6
CONTINUOUS
 62
256
 10
-113.738936000000000
 20
-70.989537999999996
 40
3.000000000000000
 50
90.000000000000000
 51
180.000000000000000
  0
ARC
  8
0
  6
CONTINUOUS
 62
256
 10
-113.738936000000000
 20
-142.992072000000010
 40
3.000000000000000
 50
180.000000000000000
 51
270.000000000000000
  0
POINT
  8
0
  6
CONTINUOUS
 62
256
 10
0.261064000000000
 20
-86.990804999999995
  0
ARC
  8
0
  6
CONTINUOUS
 62
256
 10
41.261063999999998
 20
-45.990805000000002
 40
7.000000000000000
 50
0.000000000000000
 51
90.000000000000000
  0
ARC
  8
0
  6
CONTINUOUS
 62
256
 10
41.261063999999998
 20
-127.990804999999990
 40
7.000000000000000
 50
270.000000000000000
 51
0.000000000000000
  0
ARC
  8
0
  6
CONTINUOUS
 62
256
 10
41.261063999999998
 20
-45.990805000000002
 40
7.000000000000000
 50
0.000000000000000
 51
90.000000000000000
  0
ARC
  8
0
  6
CONTINUOUS
 62
256
 10
-87.738935999999995
 20
-127.990804999999990
 40
7.000000000000000
 50
180.000000000000000
 51
270.000000000000000
  0
ARC
  8
0
  6
CONTINUOUS
 62
256
 10
-87.738935999999995
 20
-127.990804999999990
 40
7.000000000000000
 50
180.000000000000000
 51
270.000000000000000
  0
ARC
  8
0
  6
CONTINUOUS
 62
256
 10
-106.738936000000000
 20
-163.868224000000000
 40
2.999999999999993
 50
268.645719999999930
 51
0.000000000000000
  0
ARC
  8
0
  6
CONTINUOUS
 62
256
 10
-100.738936000000000
 20
-140.993991999999990
 40
3.000000000000000
 50
90.000000000000000
 51
180.000000000000000
  0
ARC
  8
0
  6
CONTINUOUS
 62
256
 10
-92.654971000000003
 20
-137.990804999999990
 40
3.000000000000000
 50
90.000000000000000
 51
156.461659000000110
  0
ARC
  8
0
  6
CONTINUOUS
 62
256
 10
-97.238935999999995
 20
-135.993991999999990
 40
2.000000000000000
 50
270.000000000000000
 51
336.461659000000400
  0
ARC
  8
0
  6
CONTINUOUS
 62
256
 10
-87.738935999999995
 20
-45.990805000000002
 40
7.000000000000000
 50
90.000000000000000
 51
180.000000000000000
  0
ARC
  8
0
  6
CONTINUOUS
 62
256
 10
-99.217175999999995
 20
-42.490805000000002
 40
5.000000000000000
 50
270.000000000000000
 51
343.042237000000000
  0
ARC
  8
0
  6
CONTINUOUS
 62
256
 10
-106.738936000000000
 20
-50.490805000000002
 40
3.000000000000000
 50
0.000000000000000
 51
90.000000000000000
  0
ARC
  8
0
  6
CONTINUOUS
 62
256
 10
-100.738936000000000
 20
-137.990804999999990
 40
3.000000000000000
 50
90.000000000000000
 51
180.000000000000000
  0
LINE
  8
0
  6
CONTINUOUS
 62
256
 10
-97.238935999999995
 20
-137.993991999999990
 11
-100.738936000000000
 21
-137.993991999999990
  0
LINE
  8
0
  6
CONTINUOUS
 62
256
 10
-122.738936000000000
 20
-166.490804999999990
 11
-106.809839000000000
 21
-166.867386000000010
  0
LINE
  8
0
  6
CONTINUOUS
 62
256
 10
-100.738936000000000
 20
-134.990804999999990
 11
41.261063999999998
 21
-134.990804999999990
  0
LINE
  8
0
  6
DASHDOT
 62
256
 10
51.761476000000002
 20
-48.990805000000002
 11
24.761475999999998
 21
-48.990805000000002
  0
LINE
  8
0
  6
CONTINUOUS
 62
256
 10
48.261063999999998
 20
-45.990805000000002
 11
48.261063999999998
 21
-127.990804999999990
  0
LINE
  8
0
  6
DASHDOT
 62
256
 10
38.261063999999998
 20
-112.990804999999990
 11
38.261063999999998
 21
-136.990804999999990
  0
LINE
  8
0
  6
DASHDOT
 62
256
 10
50.261063999999998
 20
-124.990804999999990
 11
26.261064000000001
 21
-124.990804999999990
  0
LINE
  8
0
  6
DASHDOT
 62
256
 10
38.261063999999998
 20
-36.990805000000002
 11
38.261063999999998
 21
-60.990805000000002
  0
LINE
  8
0
  6
DASHDOT
 62
256
 10
50.261063999999998
 20
-48.990805000000002
 11
26.261064000000001
 21
-48.990805000000002
  0
LINE
  8
0
  6
DASHDOT
 62
256
 10
-84.738935999999995
 20
-36.990805000000002
 11
-84.738935999999995
 21
-60.990805000000002
  0
LINE
  8
0
  6
CONTINUOUS
 62
256
 10
-87.738935999999995
 20
-38.990805000000002
 11
41.261063999999998
 21
-38.990805000000002
  0
LINE
  8
0
  6
DASHDOT
 62
256
 10
-84.738935999999995
 20
-36.990805000000002
 11
-84.738935999999995
 21
-60.990805000000002
  0
LINE
  8
0
  6
DASHDOT
 62
256
 10
-72.738935999999995
 20
-48.990805000000002
 11
-96.738935999999995
 21
-48.990805000000002
  0
LINE
  8
0
  6
DASHDOT
 62
256
 10
-84.738935999999995
 20
-112.990804999999990
 11
-84.738935999999995
 21
-136.990804999999990
  0
LINE
  8
0
  6
DASHDOT
 62
256
 10
-72.738935999999995
 20
-124.990804999999990
 11
-96.738935999999995
 21
-124.990804999999990
  0
LINE
  8
0
  6
CONTINUOUS
 62
256
 10
-94.738935999999995
 20
-45.990805000000002
 11
-94.738935999999995
 21
-106.990804999999990
  0
LINE
  8
0
  6
CONTINUOUS
 62
256
 10
-94.738935999999995
 20
-106.990804999999990
 11
-94.738935999999995
 21
-127.990804999999990
  0
LINE
  8
0
  6
CONTINUOUS
 62
256
 10
-99.217175999999995
 20
-47.490805000000002
 11
-122.738936000000000
 21
-47.490805000000002
  0
LINE
  8
0
  6
CONTINUOUS
 62
256
 10
-103.738936000000000
 20
-163.868224000000000
 11
-103.738936000000000
 21
-50.490805000000002
  0
LINE
  8
0
  6
DASHDOT
 62
256
 10
293.787328000000000
 20
-106.990804999999990
 11
424.445944000000000
 21
-106.990804999999990
  0
ARC
  8
0
  6
CONTINUOUS
 62
256
 10
359.412936000000000
 20
-106.990804999999990
 40
58.499999999999986
 50
151.683631999999990
 51
28.316368000000015
  0
LINE
  8
0
  6
CONTINUOUS
 62
256
 10
409.797950000000010
 20
-65.091072999999994
 11
406.912936000000000
 21
-67.976085999999995
  0
LINE
  8
0
  6
CONTINUOUS
 62
256
 10
309.027922999999990
 20
-65.091072999999994
 11
311.912936000000000
 21
-67.976085999999995
  0
ARC
  8
0
  6
CONTINUOUS
 62
256
 10
332.866482000000020
 20
-80.444350000000000
 40
30.000000000000000
 50
134.302900000000020
 51
175.885655000000010
  0
ARC
  8
0
  6
CONTINUOUS
 62
256
 10
385.959390999999980
 20
-80.444350000000000
 40
30.000000000000018
 50
4.114344999999991
 51
45.697099999999999
  0
LINE
  8
0
  6
DASHDOT
 62
256
 10
404.342806999999990
 20
-124.990804999999990
 11
314.401363000000000
 21
-124.990804999999990
  0
LINE
  8
0
  6
DASHDOT
 62
256
 10
404.875004999999990
 20
-48.990805000000002
 11
313.336967000000020
 21
-48.990805000000002
  0
LINE
  8
0
  6
CONTINUOUS
 62
256
 10
299.912936000000000
 20
-106.990804999999990
 11
299.912936000000000
 21
-87.490804999999995
  0
LINE
  8
0
  6
CONTINUOUS
 62
256
 10
300.412936000000000
 20
-86.990804999999995
 11
301.937936999999980
 21
-86.990804999999995
  0
ARC
  8
0
  6
CONTINUOUS
 62
256
 10
701.912935999999950
 20
-106.990804999999990
 40
400.000000000000060
 50
175.885655000000010
 51
177.065975000000010
  0
ARC
  8
0
  6
CONTINUOUS
 62
256
 10
300.412936000000000
 20
-87.490804999999995
 40
0.500000000000000
 50
90.000000000000000
 51
180.000000000000000
  0
ARC
  8
0
  6
CONTINUOUS
 62
256
 10
301.937936999999980
 20
-86.490804999999995
 40
0.500000000000000
 50
270.000000000000000
 51
357.065974999999980
  0
ARC
  8
0
  6
CONTINUOUS
 62
256
 10
16.912935999999998
 20
-106.990804999999990
 40
400.000000000000000
 50
2.934025000000001
 51
4.114344999999999
  0
ARC
  8
0
  6
CONTINUOUS
 62
256
 10
416.887936000000020
 20
-86.490804999999995
 40
0.500000000000028
 50
182.934025000000020
 51
270.000000000000000
  0
LINE
  8
0
  6
CONTINUOUS
 62
256
 10
418.412936000000000
 20
-86.990804999999995
 11
416.887936000000020
 21
-86.990804999999995
  0
ARC
  8
0
  6
CONTINUOUS
 62
256
 10
418.412936000000000
 20
-87.490804999999995
 40
0.500000000000000
 50
0.000000000000000
 51
90.000000000000000
  0
LINE
  8
0
  6
CONTINUOUS
 62
256
 10
418.912936000000000
 20
-106.990804999999990
 11
418.912936000000000
 21
-87.490804999999995
  0
ARC
  8
0
  6
CONTINUOUS
 62
256
 10
385.959390999999980
 20
-133.537260000000000
 40
29.999999999999989
 50
274.114344999999960
 51
355.885654999999990
  0
ARC
  8
0
  6
CONTINUOUS
 62
256
 10
359.412936000000000
 20
235.509195000000010
 40
400.000000000000000
 50
272.934025000000020
 51
274.114345000000010
  0
ARC
  8
0
  6
CONTINUOUS
 62
256
 10
379.912936000000000
 20
-164.465803999999990
 40
0.499999999999999
 50
92.934025000000204
 51
180.000000000000000
  0
LINE
  8
0
  6
CONTINUOUS
 62
256
 10
379.412936000000000
 20
-165.990804999999990
 11
379.412936000000000
 21
-164.465803999999990
  0
ARC
  8
0
  6
CONTINUOUS
 62
256
 10
378.912936000000000
 20
-165.990804999999990
 40
0.500000000000000
 50
270.000000000000000
 51
0.000000000000000
  0
LINE
  8
0
  6
CONTINUOUS
 62
256
 10
359.412936000000000
 20
-166.490804999999990
 11
378.912936000000000
 21
-166.490804999999990
  0
ARC
  8
0
  6
CONTINUOUS
 62
256
 10
16.912935999999998
 20
-106.990804999999990
 40
399.999999999999940
 50
355.885654999999990
 51
357.065974999999980
  0
ARC
  8
0
  6
CONTINUOUS
 62
256
 10
416.887936000000020
 20
-127.490804999999990
 40
0.500000000000000
 50
90.000000000000000
 51
177.065974999999950
  0
LINE
  8
0
  6
CONTINUOUS
 62
256
 10
418.412936000000000
 20
-126.990804999999990
 11
416.887936000000020
 21
-126.990804999999990
  0
ARC
  8
0
  6
CONTINUOUS
 62
256
 10
418.412936000000000
 20
-126.490804999999990
 40
0.500000000000000
 50
270.000000000000000
 51
0.000000000000000
  0
LINE
  8
0
  6
CONTINUOUS
 62
256
 10
418.912936000000000
 20
-106.990804999999990
 11
418.912936000000000
 21
-126.490804999999990
  0
ARC
  8
0
  6
CONTINUOUS
 62
256
 10
332.866482000000020
 20
-133.537260000000000
 40
30.000000000000018
 50
184.114344999999960
 51
265.885655000000040
  0
ARC
  8
0
  6
CONTINUOUS
 62
256
 10
359.412936000000000
 20
235.509195000000010
 40
399.999999999999940
 50
265.885654999999990
 51
267.065974999999980
  0
ARC
  8
0
  6
CONTINUOUS
 62
256
 10
338.912936000000000
 20
-164.465803999999990
 40
0.500000000000000
 50
0.000000000000000
 51
87.065974999999796
  0
LINE
  8
0
  6
CONTINUOUS
 62
256
 10
339.412936000000000
 20
-165.990804999999990
 11
339.412936000000000
 21
-164.465803999999990
  0
ARC
  8
0
  6
CONTINUOUS
 62
256
 10
339.912936000000000
 20
-165.990804999999990
 40
0.500000000000000
 50
180.000000000000000
 51
270.000000000000000
  0
LINE
  8
0
  6
CONTINUOUS
 62
256
 10
359.412936000000000
 20
-166.490804999999990
 11
339.912936000000000
 21
-166.490804999999990
  0
ARC
  8
0
  6
CONTINUOUS
 62
256
 10
701.912935999999950
 20
-106.990804999999990
 40
400.000000000000000
 50
182.934024999999990
 51
184.114344999999960
  0
ARC
  8
0
  6
CONTINUOUS
 62
256
 10
301.937936999999980
 20
-127.490804999999990
 40
0.500000000000028
 50
2.934025000000031
 51
90.000000000000000
  0
LINE
  8
0
  6
CONTINUOUS
 62
256
 10
300.412936000000000
 20
-126.990804999999990
 11
301.937936999999980
 21
-126.990804999999990
  0
ARC
  8
0
  6
CONTINUOUS
 62
256
 10
300.412936000000000
 20
-126.490804999999990
 40
0.500000000000000
 50
180.000000000000000
 51
270.000000000000000
  0
LINE
  8
0
  6
CONTINUOUS
 62
256
 10
299.912936000000000
 20
-106.990804999999990
 11
299.912936000000000
 21
-126.490804999999990
  0
POINT
  8
0
  6
CONTINUOUS
 62
256
 10
307.839230999999980
 20
-63.902380999999998
  0
ARC
  8
0
  6
CONTINUOUS
 62
256
 10
310.442137000000000
 20
-63.676859000000000
 40
2.000000000000010
 50
143.213211000000260
 51
224.999999999999860
  0
ARC
  8
0
  6
CONTINUOUS
 62
256
 10
310.442137000000000
 20
-150.304751000000010
 40
2.000000000000016
 50
135.000000000000000
 51
216.786788999999740
  0
POINT
  8
0
  6
CONTINUOUS
 62
256
 10
307.839230999999980
 20
-150.079229000000000
  0
LINE
  8
0
  6
CONTINUOUS
 62
256
 10
309.027922999999990
 20
-148.890536999999990
 11
312.151405000000010
 21
-145.767056000000000
  0
ARC
  8
0
  6
CONTINUOUS
 62
256
 10
310.030083999999990
 20
-143.645735000000000
 40
3.000000000000004
 50
315.000000000000340
 51
36.585032000000176
  0
POINT
  8
0
  6
CONTINUOUS
 62
256
 10
402.501359999999980
 20
-158.564510000000010
  0
ARC
  8
0
  6
CONTINUOUS
 62
256
 10
408.383736000000000
 20
-150.304751000000010
 40
2.000000000000010
 50
323.213211000000230
 51
45.000000000000000
  0
POINT
  8
0
  6
CONTINUOUS
 62
256
 10
410.986642000000020
 20
-150.079229000000000
  0
LINE
  8
0
  6
CONTINUOUS
 62
256
 10
409.797950000000010
 20
-148.890536999999990
 11
406.674467999999990
 21
-145.767056000000000
  0
ARC
  8
0
  6
CONTINUOUS
 62
256
 10
408.795789000000010
 20
-143.645735000000000
 40
3.000000000000010
 50
143.414967999999850
 51
224.999999999999630
  0
ARC
  8
0
  6
CONTINUOUS
 62
256
 10
408.383736000000000
 20
-63.676859000000000
 40
2.000000000000011
 50
315.000000000000170
 51
36.786788999999757
  0
POINT
  8
0
  6
CONTINUOUS
 62
256
 10
410.986642000000020
 20
-63.902380999999998
  0
POINT
  8
0
  6
CONTINUOUS
 62
256
 10
410.986642000000020
 20
-63.902380999999998
  0
POINT
  8
0
  6
CONTINUOUS
 62
256
 10
402.501359999999980
 20
-158.564510000000010
  0
ARC
  8
0
  6
CONTINUOUS
 62
256
 10
408.383736000000000
 20
-150.304751000000010
 40
2.000000000000010
 50
323.213211000000230
 51
45.000000000000000
  0
POINT
  8
0
  6
CONTINUOUS
 62
256
 10
410.986642000000020
 20
-150.079229000000000
  0
LINE
  8
0
  6
CONTINUOUS
 62
256
 10
409.797950000000010
 20
-148.890536999999990
 11
406.674467999999990
 21
-145.767056000000000
  0
ARC
  8
0
  6
CONTINUOUS
 62
256
 10
408.795789000000010
 20
-143.645735000000000
 40
3.000000000000010
 50
143.414967999999850
 51
224.999999999999630
  0
ARC
  8
0
  6
CONTINUOUS
 62
256
 10
379.912936000000000
 20
-164.465803999999990
 40
0.499999999999999
 50
92.934025000000204
 51
180.000000000000000
  0
LINE
  8
0
  6
CONTINUOUS
 62
256
 10
379.412936000000000
 20
-165.990804999999990
 11
379.412936000000000
 21
-164.465803999999990
  0
ARC
  8
0
  6
CONTINUOUS
 62
256
 10
378.912936000000000
 20
-165.990804999999990
 40
0.500000000000000
 50
270.000000000000000
 51
0.000000000000000
  0
LINE
  8
0
  6
CONTINUOUS
 62
256
 10
359.412936000000000
 20
-166.490804999999990
 11
378.912936000000000
 21
-166.490804999999990
  0
ARC
  8
0
  6
CONTINUOUS
 62
256
 10
416.887936000000020
 20
-127.490804999999990
 40
0.500000000000000
 50
90.000000000000000
 51
177.065974999999950
  0
ARC
  8
0
  6
CONTINUOUS
 62
256
 10
416.887936000000020
 20
-86.490804999999995
 40
0.500000000000028
 50
182.934025000000020
 51
270.000000000000000
  0
ARC
  8
0
  6
CONTINUOUS
 62
256
 10
418.412936000000000
 20
-87.490804999999995
 40
0.500000000000000
 50
0.000000000000000
 51
90.000000000000000
  0
ARC
  8
0
  6
CONTINUOUS
 62
256
 10
310.442137000000000
 20
-150.304751000000010
 40
2.000000000000016
 50
135.000000000000000
 51
216.786788999999740
  0
POINT
  8
0
  6
CONTINUOUS
 62
256
 10
307.839230999999980
 20
-150.079229000000000
  0
POINT
  8
0
  6
CONTINUOUS
 62
256
 10
307.839230999999980
 20
-63.902380999999998
  0
ARC
  8
0
  6
CONTINUOUS
 62
256
 10
392.056566999999970
 20
-167.212424000000000
 40
9.999999999999989
 50
91.000000000000156
 51
118.460275999999850
  0
LINE
  8
0
  6
CONTINUOUS
 62
256
 10
403.972417000000010
 20
-157.002908999999990
 11
391.882043000000010
 21
-157.213946999999990
  0
ARC
  8
0
  6
CONTINUOUS
 62
256
 10
403.937512000000030
 20
-155.003212999999990
 40
1.999999999999998
 50
271.000000000000110
 51
309.946778000000170
  0
POINT
  8
0
  6
CONTINUOUS
 62
256
 10
404.665840000000000
 20
-156.990804999999990
  0
ARC
  8
0
  6
CONTINUOUS
 62
256
 10
326.769305999999970
 20
-167.212424000000000
 40
9.999999999999989
 50
61.539724000000142
 51
88.999999999999858
  0
LINE
  8
0
  6
CONTINUOUS
 62
256
 10
314.853455999999990
 20
-157.002908999999990
 11
326.943829999999990
 21
-157.213946999999990
  0
ARC
  8
0
  6
CONTINUOUS
 62
256
 10
314.888360999999970
 20
-155.003212999999990
 40
1.999999999999993
 50
230.053221999999810
 51
268.999999999999830
  0
POINT
  8
0
  6
CONTINUOUS
 62
256
 10
314.160033000000000
 20
-156.990804999999990
  0
POINT
  8
0
  6
CONTINUOUS
 62
256
 10
404.803177000000010
 20
-143.895765000000010
  0
ARC
  8
0
  6
CONTINUOUS
 62
256
 10
403.361523999999970
 20
-56.894190999999999
 40
6.600000000000017
 50
44.999999999999829
 51
57.446096999999888
  0
LINE
  8
0
  6
CONTINUOUS
 62
256
 10
262.350000000000020
 20
-71.190804999999997
 11
159.349999999999990
 21
-71.190804999999997
  0
LINE
  8
0
  6
CONTINUOUS
 62
256
 10
160.349999999999990
 20
-67.990804999999995
 11
175.949999999999990
 21
-67.990804999999995
  0
LINE
  8
0
  6
CONTINUOUS
 62
256
 10
159.349999999999990
 20
-104.990804999999990
 11
159.349999999999990
 21
-68.990804999999995
  0
LINE
  8
0
  6
CONTINUOUS
 62
256
 10
261.350000000000020
 20
-67.990804999999995
 11
245.750000000000000
 21
-67.990804999999995
  0
LINE
  8
0
  6
CONTINUOUS
 62
256
 10
262.350000000000020
 20
-104.990804999999990
 11
262.350000000000020
 21
-68.990804999999995
  0
LINE
  8
0
  6
CONTINUOUS
 62
256
 10
176.349999999999990
 20
-67.590805000000003
 11
176.349999999999990
 21
-67.390805000000000
  0
LINE
  8
0
  6
CONTINUOUS
 62
256
 10
245.349999999999990
 20
-67.590805000000003
 11
245.349999999999990
 21
-67.390805000000000
  0
LINE
  8
0
  6
CONTINUOUS
 62
256
 10
244.949999999999990
 20
-66.990804999999995
 11
231.349999999999990
 21
-66.990804999999995
  0
LINE
  8
0
  6
CONTINUOUS
 62
256
 10
258.886000000000020
 20
-74.490804999999995
 11
241.699999999999990
 21
-74.490804999999995
  0
ARC
  8
0
  6
CONTINUOUS
 62
256
 10
175.949999999999990
 20
-67.590805000000003
 40
0.400000000000006
 50
270.000000000000000
 51
0.000000000000000
  0
ARC
  8
0
  6
CONTINUOUS
 62
256
 10
176.750000000000000
 20
-67.390805000000000
 40
0.400000000000006
 50
90.000000000000000
 51
180.000000000000000
  0
LINE
  8
0
  6
CONTINUOUS
 62
256
 10
231.349999999999990
 20
-66.740804999999995
 11
231.349999999999990
 21
-66.990804999999995
  0
ARC
  8
0
  6
CONTINUOUS
 62
256
 10
244.949999999999990
 20
-67.390805000000000
 40
0.400000000000006
 50
0.000000000000000
 51
90.000000000000000
  0
ARC
  8
0
  6
CONTINUOUS
 62
256
 10
245.750000000000000
 20
-67.590805000000003
 40
0.400000000000006
 50
180.000000000000000
 51
270.000000000000000
  0
LINE
  8
0
  6
CONTINUOUS
 62
256
 10
241.699999999999990
 20
-73.890805000000000
 11
240.349999999999990
 21
-73.890805000000000
  0
LINE
  8
0
  6
CONTINUOUS
 62
256
 10
240.349999999999990
 20
-74.490804999999995
 11
224.349999999999990
 21
-74.490804999999995
  0
LINE
  8
0
  6
CONTINUOUS
 62
256
 10
181.349999999999990
 20
-74.490804999999995
 11
197.349999999999990
 21
-74.490804999999995
  0
LINE
  8
0
  6
CONTINUOUS
 62
256
 10
180.000000000000000
 20
-73.890805000000000
 11
181.349999999999990
 21
-73.890805000000000
  0
LINE
  8
0
  6
CONTINUOUS
 62
256
 10
162.814101999999990
 20
-74.490804999999995
 11
180.000000000000000
 21
-74.490804999999995
  0
LINE
  8
0
  6
CONTINUOUS
 62
256
 10
219.349999999999990
 20
-64.890805000000000
 11
219.349999999999990
 21
-66.340805000000003
  0
LINE
  8
0
  6
CONTINUOUS
 62
256
 10
224.349999999999990
 20
-74.290805000000006
 11
197.349999999999990
 21
-74.290805000000006
  0
LINE
  8
0
  6
CONTINUOUS
 62
256
 10
159.349999999999990
 20
-72.490804999999995
 11
162.814101999999990
 21
-74.490804999999995
  0
LINE
  8
0
  6
CONTINUOUS
 62
256
 10
262.350000000000020
 20
-72.490804999999995
 11
258.885898000000000
 21
-74.490804999999995
  0
ARC
  8
0
  6
CONTINUOUS
 62
256
 10
160.349999999999990
 20
-68.990804999999995
 40
1.000000000000000
 50
90.000000000000000
 51
180.000000000000000
  0
ARC
  8
0
  6
CONTINUOUS
 62
256
 10
261.350000000000020
 20
-68.990804999999995
 40
1.000000000000000
 50
0.000000000000000
 51
90.000000000000000
  0
ARC
  8
0
  6
CONTINUOUS
 62
256
 10
218.949999999999990
 20
-64.890805000000000
 40
0.400000000000006
 50
0.000000000000000
 51
90.000000000000000
  0
ARC
  8
0
  6
CONTINUOUS
 62
256
 10
188.749972000000010
 20
-64.890805000000000
 40
0.400000000000006
 50
90.000000000000000
 51
180.000070000000530
  0
LINE
  8
0
  6
CONTINUOUS
 62
256
 10
231.349999999999990
 20
-66.740804999999995
 11
219.750000000000000
 21
-66.740804999999995
  0
ARC
  8
0
  6
CONTINUOUS
 62
256
 10
219.750000000000000
 20
-66.340805000000003
 40
0.400000000000006
 50
180.000000000000000
 51
270.000000000000000
  0
LINE
  8
0
  6
CONTINUOUS
 62
256
 10
218.949999999999990
 20
-64.490804999999995
 11
188.749972000000010
 21
-64.490804999999995
  0
LINE
  8
0
  6
CONTINUOUS
 62
256
 10
188.349972000000010
 20
-64.890805999999998
 11
188.349974000000000
 21
-66.590805000000003
  0
LINE
  8
0
  6
CONTINUOUS
 62
256
 10
176.750000000000000
 20
-66.990804999999995
 11
187.949974000000000
 21
-66.990804999999995
  0
ARC
  8
0
  6
CONTINUOUS
 62
256
 10
187.949974000000000
 20
-66.590805000000003
 40
0.400000000000006
 50
270.000000000000000
 51
0.000070000000531
  0
LINE
  8
0
  6
DASHDOT
 62
256
 10
267.084117999999990
 20
-86.990804999999995
 11
153.399615000000010
 21
-86.990804999999995
  0
LINE
  8
0
  6
CONTINUOUS
 62
256
 10
159.349999999999990
 20
-101.490804999999990
 11
162.814101999999990
 21
-99.490804999999995
  0
LINE
  8
0
  6
CONTINUOUS
 62
256
 10
180.000000000000000
 20
-100.090805000000000
 11
181.349999999999990
 21
-100.090805000000000
  0
LINE
  8
0
  6
CONTINUOUS
 62
256
 10
162.814101999999990
 20
-99.490804999999995
 11
180.000000000000000
 21
-99.490804999999995
  0
LINE
  8
0
  6
CONTINUOUS
 62
256
 10
181.349999999999990
 20
-99.490804999999995
 11
197.349999999999990
 21
-99.490804999999995
  0
LINE
  8
0
  6
CONTINUOUS
 62
256
 10
224.349999999999990
 20
-99.690804999999997
 11
197.349999999999990
 21
-99.690804999999997
  0
LINE
  8
0
  6
CONTINUOUS
 62
256
 10
240.349999999999990
 20
-99.490804999999995
 11
224.349999999999990
 21
-99.490804999999995
  0
LINE
  8
0
  6
CONTINUOUS
 62
256
 10
258.886000000000020
 20
-99.490804999999995
 11
241.699999999999990
 21
-99.490804999999995
  0
LINE
  8
0
  6
CONTINUOUS
 62
256
 10
262.350000000000020
 20
-101.490804999999990
 11
258.885898000000000
 21
-99.490804999999995
  0
LINE
  8
0
  6
CONTINUOUS
 62
256
 10
261.350000000000020
 20
-105.990804999999990
 11
245.750000000000000
 21
-105.990804999999990
  0
LINE
  8
0
  6
CONTINUOUS
 62
256
 10
176.349999999999990
 20
-106.390805000000000
 11
176.349999999999990
 21
-106.590805000000000
  0
LINE
  8
0
  6
CONTINUOUS
 62
256
 10
245.349999999999990
 20
-106.390805000000000
 11
245.349999999999990
 21
-106.590805000000000
  0
LINE
  8
0
  6
CONTINUOUS
 62
256
 10
244.949999999999990
 20
-106.990804999999990
 11
231.349999999999990
 21
-106.990804999999990
  0
ARC
  8
0
  6
CONTINUOUS
 62
256
 10
175.949999999999990
 20
-106.390805000000000
 40
0.400000000000006
 50
0.000000000000000
 51
90.000000000000000
  0
ARC
  8
0
  6
CONTINUOUS
 62
256
 10
176.750000000000000
 20
-106.590805000000000
 40
0.400000000000006
 50
180.000000000000000
 51
270.000000000000000
  0
LINE
  8
0
  6
CONTINUOUS
 62
256
 10
231.349999999999990
 20
-107.240804999999990
 11
231.349999999999990
 21
-106.990804999999990
  0
ARC
  8
0
  6
CONTINUOUS
 62
256
 10
244.949999999999990
 20
-106.590805000000000
 40
0.400000000000006
 50
270.000000000000000
 51
0.000000000000000
  0
ARC
  8
0
  6
CONTINUOUS
 62
256
 10
245.750000000000000
 20
-106.390805000000000
 40
0.400000000000006
 50
90.000000000000000
 51
180.000000000000000
  0
LINE
  8
0
  6
CONTINUOUS
 62
256
 10
219.349999999999990
 20
-109.090805000000000
 11
219.349999999999990
 21
-107.640805000000000
  0
ARC
  8
0
  6
CONTINUOUS
 62
256
 10
261.350000000000020
 20
-104.990804999999990
 40
1.000000000000000
 50
270.000000000000000
 51
0.000000000000000
  0
ARC
  8
0
  6
CONTINUOUS
 62
256
 10
218.949999999999990
 20
-109.090805000000000
 40
0.400000000000006
 50
270.000000000000000
 51
0.000000000000000
  0
ARC
  8
0
  6
CONTINUOUS
 62
256
 10
188.749972000000010
 20
-109.090805000000000
 40
0.399999999999992
 50
179.999929999999470
 51
270.000000000000000
  0
LINE
  8
0
  6
CONTINUOUS
 62
256
 10
231.349999999999990
 20
-107.240804999999990
 11
219.750000000000000
 21
-107.240804999999990
  0
ARC
  8
0
  6
CONTINUOUS
 62
256
 10
219.750000000000000
 20
-107.640805000000000
 40
0.400000000000006
 50
90.000000000000000
 51
180.000000000000000
  0
LINE
  8
0
  6
CONTINUOUS
 62
256
 10
218.949999999999990
 20
-109.490804999999990
 11
188.749972000000010
 21
-109.490804999999990
  0
LINE
  8
0
  6
CONTINUOUS
 62
256
 10
188.349972000000010
 20
-109.090805000000000
 11
188.349974000000000
 21
-107.390806000000000
  0
LINE
  8
0
  6
CONTINUOUS
 62
256
 10
176.750000000000000
 20
-106.990804999999990
 11
187.949974000000000
 21
-106.990804999999990
  0
ARC
  8
0
  6
CONTINUOUS
 62
256
 10
187.949974000000000
 20
-107.390805000000000
 40
0.399999999999992
 50
359.999929999999490
 51
90.000000000000000
  0
LINE
  8
0
  6
CONTINUOUS
 62
256
 10
160.349999999999990
 20
-105.990804999999990
 11
175.949999999999990
 21
-105.990804999999990
  0
ARC
  8
0
  6
CONTINUOUS
 62
256
 10
160.349999999999990
 20
-104.990804999999990
 40
1.000000000000000
 50
180.000000000000000
 51
270.000000000000000
  0
LINE
  8
0
  6
CONTINUOUS
 62
256
 10
241.699999999999990
 20
-100.090805000000000
 11
240.349999999999990
 21
-100.090805000000000
  0
LINE
  8
0
  6
CONTINUOUS
 62
256
 10
180.000000000000000
 20
-100.090805000000000
 11
180.000000000000000
 21
-73.890805000000000
  0
LINE
  8
0
  6
CONTINUOUS
 62
256
 10
181.349999999999990
 20
-100.090805000000000
 11
181.349999999999990
 21
-73.890805000000000
  0
LINE
  8
0
  6
CONTINUOUS
 62
256
 10
240.349999999999990
 20
-100.090805000000000
 11
240.349999999999990
 21
-73.890805000000000
  0
LINE
  8
0
  6
CONTINUOUS
 62
256
 10
241.699999999999990
 20
-100.090805000000000
 11
241.699999999999990
 21
-73.890805000000000
  0
LINE
  8
0
  6
CONTINUOUS
 62
256
 10
224.349999999999990
 20
-99.690804999999997
 11
224.349999999999990
 21
-74.290805000000006
  0
LINE
  8
0
  6
CONTINUOUS
 62
256
 10
197.349999999999990
 20
-99.690804999999997
 11
197.349999999999990
 21
-74.290805000000006
  0
LINE
  8
0
  6
CONTINUOUS
 62
256
 10
162.813999999999990
 20
-99.490804999999995
 11
162.813999999999990
 21
-74.490746000000001
  0
LINE
  8
0
  6
CONTINUOUS
 62
256
 10
258.886000000000020
 20
-99.490804999999995
 11
258.886000000000020
 21
-74.490746000000001
  0
CIRCLE
  8
0
  6
CONTINUOUS
 62
256
 10
102.164368999999990
 20
-86.990804999999995
 40
19.000000000000000
  0
LINE
  8
0
  6
DASHDOT
 62
256
 10
102.164368999999990
 20
-56.763688999999999
 11
102.164368999999990
 21
-115.771702000000000
  0
LINE
  8
0
  6
DASHDOT
 62
256
 10
73.794967000000000
 20
-86.990804999999995
 11
131.622820999999990
 21
-86.990804999999995
  0
LINE
  8
0
  6
CONTINUOUS
 62
256
 10
98.164368999999994
 20
-71.190804999999997
 11
106.164368999999990
 21
-71.190804999999997
  0
LINE
  8
0
  6
CONTINUOUS
 62
256
 10
98.164368999999994
 20
-71.190804999999997
 11
98.164368999999994
 21
-75.148086000000006
  0
LINE
  8
0
  6
CONTINUOUS
 62
256
 10
106.164368999999990
 20
-71.190804999999997
 11
106.164368999999990
 21
-75.148086000000006
  0
ARC
  8
0
  6
CONTINUOUS
 62
256
 10
102.164368999999990
 20
-86.990804999999995
 40
12.500000000000002
 50
108.662925000000020
 51
71.337074999999999
  0
LINE
  8
0
  6
DASHDOT
 62
256
 10
420.393388000000020
 20
-86.990804999999995
 11
297.384102999999980
 21
-86.990804999999995
  0
CIRCLE
  8
0
  6
CONTINUOUS
 62
256
 10
0.261064000000000
 20
-86.990804999999995
 40
19.000000000000000
  0
INSERT
  8
0
  2
ZU_SYM_1
 10
-72.238935999999995
 20
-44.990805000000002
  0
INSERT
  8
0
  2
ZU_SYM_2
 10
-72.238935999999995
 20
-128.990804999999990
  0
INSERT
  8
0
  2
ZU_SYM_3
 10
25.761336000000000
 20
-128.991108000000000
  0
INSERT
  8
0
  2
ZU_SYM_4
 10
25.761336000000000
 20
-44.990502999999997
  0
LINE
  8
0
  6
DASHDOT
 62
256
 10
-74.738935999999995
 20
-48.990805000000002
 11
-94.738935999999995
 21
-48.990805000000002
  0
LINE
  8
0
  6
DASHDOT
 62
256
 10
-84.738935999999995
 20
-38.990805000000002
 11
-84.738935999999995
 21
-58.990805000000002
  0
LINE
  8
0
  6
DASHDOT
 62
256
 10
-74.738935999999995
 20
-124.990804999999990
 11
-94.738935999999995
 21
-124.990804999999990
  0
LINE
  8
0
  6
DASHDOT
 62
256
 10
-84.738935999999995
 20
-114.990804999999990
 11
-84.738935999999995
 21
-134.990804999999990
  0
LINE
  8
0
  6
DASHDOT
 62
256
 10
48.261063999999998
 20
-124.990804999999990
 11
28.261064000000001
 21
-124.990804999999990
  0
LINE
  8
0
  6
DASHDOT
 62
256
 10
38.261063999999998
 20
-114.990804999999990
 11
38.261063999999998
 21
-134.990804999999990
  0
LINE
  8
0
  6
DASHDOT
 62
256
 10
48.261063999999998
 20
-48.990805000000002
 11
28.261064000000001
 21
-48.990805000000002
  0
LINE
  8
0
  6
DASHDOT
 62
256
 10
38.261063999999998
 20
-38.990805000000002
 11
38.261063999999998
 21
-58.990805000000002
  0
ARC
  8
0
  6
CONTINUOUS
 62
256
 10
-22.240952000000000
 20
-125.240804999999990
 40
4.499999999999999
 50
179.075834000000070
 51
270.000000000000000
  0
ARC
  8
0
  6
CONTINUOUS
 62
256
 10
-22.240952000000000
 20
-48.740805000000002
 40
4.500000000000000
 50
90.000000000000000
 51
180.924166000000010
  0
CIRCLE
  8
0
  6
CONTINUOUS
 62
256
 10
0.261064000000000
 20
-86.990804999999995
 40
25.000000000000000
  0
CIRCLE
  8
0
  6
CONTINUOUS
 62
256
 10
0.261064000000000
 20
-86.990804999999995
 40
37.500000000000000
  0
LINE
  8
0
  6
CONTINUOUS
 62
256
 10
-116.738936000000000
 20
-126.990804999999990
 11
-122.738936000000000
 21
-126.990804999999990
  0
LINE
  8
0
  6
CONTINUOUS
 62
256
 10
-116.738936000000000
 20
-86.990804999999995
 11
-122.738936000000000
 21
-86.990804999999995
  0
ARC
  8
0
  6
CONTINUOUS
 62
256
 10
-119.738936000000000
 20
-50.490805000000002
 40
3.000000000000000
 50
0.000000000000000
 51
90.000000000000000
  0
ARC
  8
0
  6
CONTINUOUS
 62
256
 10
-119.738936000000000
 20
-163.560890000000000
 40
2.999999999999993
 50
268.645719999999930
 51
0.000000000000000
  0
LINE
  8
0
  6
CONTINUOUS
 62
256
 10
-122.738936000000000
 20
-166.490804999999990
 11
-122.738936000000000
 21
-47.490805000000002
  0
CIRCLE
  8
0
  6
CONTINUOUS
 62
256
 10
-84.738935999999995
 20
-48.990805000000002
 40
5.000000000000000
  0
CIRCLE
  8
0
  6
CONTINUOUS
 62
256
 10
-84.738935999999995
 20
-48.990805000000002
 40
4.400000000000006
  0
CIRCLE
  8
0
  6
CONTINUOUS
 62
256
 10
38.261063999999998
 20
-48.990805000000002
 40
4.399999999999999
  0
CIRCLE
  8
0
  6
CONTINUOUS
 62
256
 10
38.261063999999998
 20
-48.990805000000002
 40
5.000000000000000
  0
CIRCLE
  8
0
  6
CONTINUOUS
 62
256
 10
38.260652000000000
 20
-124.990804999999990
 40
4.399999999999999
  0
CIRCLE
  8
0
  6
CONTINUOUS
 62
256
 10
38.260652000000000
 20
-124.990804999999990
 40
5.000000000000000
  0
CIRCLE
  8
0
  6
CONTINUOUS
 62
256
 10
-84.739348000000007
 20
-124.990804999999990
 40
4.400000000000006
  0
CIRCLE
  8
0
  6
CONTINUOUS
 62
256
 10
-84.739348000000007
 20
-124.990804999999990
 40
5.000000000000000
  0
ARC
  8
0
  6
CONTINUOUS
 62
256
 10
359.412936000000000
 20
-106.990804999999990
 40
31.999999999999989
 50
241.358543999999990
 51
300.641456000000010
  0
ARC
  8
0
  6
CONTINUOUS
 62
256
 10
377.251178999999980
 20
-137.103877000000010
 40
3.000000000000011
 50
90.999999999999602
 51
120.641455999999930
  0
ARC
  8
0
  6
CONTINUOUS
 62
256
 10
342.636491999999980
 20
-137.708079000000000
 40
3.000000000000002
 50
61.358543999999888
 51
90.999999999999602
  0
ARC
  8
0
  6
CONTINUOUS
 62
256
 10
322.912936000000000
 20
-86.990804999999995
 40
1.000000000000000
 50
270.000000000000000
 51
90.000000000000000
  0
LINE
  8
0
  6
CONTINUOUS
 62
256
 10
315.912936000000000
 20
-85.990804999999995
 11
322.912936000000000
 21
-85.990804999999995
  0
LINE
  8
0
  6
CONTINUOUS
 62
256
 10
315.912936000000000
 20
-87.990804999999995
 11
322.912936000000000
 21
-87.990804999999995
  0
LINE
  8
0
  6
CONTINUOUS
 62
256
 10
330.912936000000000
 20
-85.990804999999995
 11
402.912936000000000
 21
-85.990804999999995
  0
ARC
  8
0
  6
CONTINUOUS
 62
256
 10
330.912936000000000
 20
-86.990804999999995
 40
1.000000000000000
 50
90.000000000000000
 51
270.000000000000000
  0
LINE
  8
0
  6
CONTINUOUS
 62
256
 10
330.912936000000000
 20
-87.990804999999995
 11
402.912936000000000
 21
-87.990804999999995
  0
LINE
  8
0
  6
CONTINUOUS
 62
256
 10
406.512936000000020
 20
-124.490804999999990
 11
402.912936000000000
 21
-124.490804999999990
  0
LINE
  8
0
  6
CONTINUOUS
 62
256
 10
406.912936000000000
 20
-124.090805000000000
 11
406.512936000000020
 21
-124.490804999999990
  0
LINE
  8
0
  6
CONTINUOUS
 62
256
 10
406.912936000000000
 20
-86.990804999999995
 11
406.912936000000000
 21
-124.090805000000000
  0
LINE
  8
0
  6
CONTINUOUS
 62
256
 10
406.512936000000020
 20
-49.490805000000002
 11
402.912936000000000
 21
-49.490805000000002
  0
LINE
  8
0
  6
CONTINUOUS
 62
256
 10
406.912936000000000
 20
-49.890805000000000
 11
406.512936000000020
 21
-49.490805000000002
  0
LINE
  8
0
  6
CONTINUOUS
 62
256
 10
406.912936000000000
 20
-86.990804999999995
 11
406.912936000000000
 21
-49.890805000000000
  0
LINE
  8
0
  6
DASHED
 62
256
 10
391.912936000000000
 20
-131.990804999999990
 11
402.412936000000000
 21
-131.990804999999990
  0
LINE
  8
0
  6
DASHED
 62
256
 10
391.912936000000000
 20
-129.990804999999990
 11
369.912936000000000
 21
-129.990804999999990
  0
LINE
  8
0
  6
DASHED
 62
256
 10
391.912936000000000
 20
-129.240804999999990
 11
326.912936000000000
 21
-129.240804999999990
  0
LINE
  8
0
  6
DASHED
 62
256
 10
369.912936000000000
 20
-129.990804999999990
 11
369.912936000000000
 21
-119.990804999999990
  0
LINE
  8
0
  6
DASHED
 62
256
 10
391.912936000000000
 20
-117.990804999999990
 11
402.412936000000000
 21
-117.990804999999990
  0
LINE
  8
0
  6
DASHED
 62
256
 10
391.912936000000000
 20
-119.990804999999990
 11
369.912936000000000
 21
-119.990804999999990
  0
LINE
  8
0
  6
DASHED
 62
256
 10
391.912936000000000
 20
-117.990804999999990
 11
391.912936000000000
 21
-131.990804999999990
  0
LINE
  8
0
  6
DASHED
 62
256
 10
391.912936000000000
 20
-120.740804999999990
 11
326.912936000000000
 21
-120.740804999999990
  0
LINE
  8
0
  6
CONTINUOUS
 62
256
 10
406.912936000000000
 20
-67.990804999999995
 11
409.912936000000000
 21
-67.990804999999995
  0
ARC
  8
0
  6
CONTINUOUS
 62
256
 10
409.912936000000000
 20
-68.990804999999995
 40
1.000000000000000
 50
0.000000000000000
 51
90.000000000000000
  0
LINE
  8
0
  6
CONTINUOUS
 62
256
 10
410.912936000000000
 20
-104.990804999999990
 11
410.912936000000000
 21
-68.990804999999995
  0
LINE
  8
0
  6
CONTINUOUS
 62
256
 10
402.912936000000000
 20
-133.646764999999990
 11
402.912936000000000
 21
-56.044068000000003
  0
ARC
  8
0
  6
CONTINUOUS
 62
256
 10
409.912936000000000
 20
-104.990804999999990
 40
1.000000000000000
 50
270.000000000000000
 51
0.000000000000000
  0
LINE
  8
0
  6
CONTINUOUS
 62
256
 10
406.912936000000000
 20
-105.990804999999990
 11
409.912936000000000
 21
-105.990804999999990
  0
LINE
  8
0
  6
DASHED
 62
256
 10
391.912936000000000
 20
-55.990805000000002
 11
402.912936000000000
 21
-55.990805000000002
  0
LINE
  8
0
  6
DASHED
 62
256
 10
391.912936000000000
 20
-53.240805000000002
 11
326.912936000000000
 21
-53.240805000000002
  0
LINE
  8
0
  6
DASHED
 62
256
 10
391.912936000000000
 20
-53.990805000000002
 11
369.912936000000000
 21
-53.990805000000002
  0
LINE
  8
0
  6
DASHED
 62
256
 10
391.912936000000000
 20
-41.990805000000002
 11
391.912936000000000
 21
-55.990805000000002
  0
LINE
  8
0
  6
DASHED
 62
256
 10
391.912936000000000
 20
-43.990805000000002
 11
369.912936000000000
 21
-43.990805000000002
  0
LINE
  8
0
  6
DASHED
 62
256
 10
391.912936000000000
 20
-41.990805000000002
 11
402.912936000000000
 21
-41.990805000000002
  0
LINE
  8
0
  6
CONTINUOUS
 62
256
 10
326.912936000000000
 20
-38.990805000000002
 11
402.912936000000000
 21
-40.334845000000001
  0
LINE
  8
0
  6
CONTINUOUS
 62
256
 10
402.912936000000000
 20
-56.044068000000003
 11
402.912936000000000
 21
-40.334845000000001
  0
LINE
  8
0
  6
DASHED
 62
256
 10
391.912936000000000
 20
-44.740805000000002
 11
326.912936000000000
 21
-44.740805000000002
  0
LINE
  8
0
  6
DASHED
 62
256
 10
369.912936000000000
 20
-53.990805000000002
 11
369.912936000000000
 21
-43.990805000000002
  0
LINE
  8
0
  6
DASHED
 62
256
 10
348.912936000000000
 20
-43.990805000000002
 11
348.912936000000000
 21
-53.990805000000002
  0
LINE
  8
0
  6
DASHED
 62
256
 10
348.912936000000000
 20
-53.990805000000002
 11
326.912936000000000
 21
-53.990805000000002
  0
LINE
  8
0
  6
DASHED
 62
256
 10
348.912936000000000
 20
-119.990804999999990
 11
348.912936000000000
 21
-129.990804999999990
  0
LINE
  8
0
  6
DASHED
 62
256
 10
326.912936000000000
 20
-117.990804999999990
 11
316.412936000000000
 21
-117.990804999999990
  0
LINE
  8
0
  6
DASHED
 62
256
 10
348.912936000000000
 20
-119.990804999999990
 11
326.912936000000000
 21
-119.990804999999990
  0
LINE
  8
0
  6
CONTINUOUS
 62
256
 10
326.912936000000000
 20
-134.990804999999990
 11
402.912936000000000
 21
-133.646764999999990
  0
LINE
  8
0
  6
CONTINUOUS
 62
256
 10
326.912936000000000
 20
-134.990804999999990
 11
316.412783999999990
 21
-134.807524000000000
  0
LINE
  8
0
  6
CONTINUOUS
 62
256
 10
316.412783999999990
 20
-134.807524000000000
 11
315.912936000000000
 21
-134.298875000000010
  0
LINE
  8
0
  6
DASHED
 62
256
 10
326.912936000000000
 20
-131.990804999999990
 11
316.412936000000000
 21
-131.990804999999990
  0
LINE
  8
0
  6
DASHED
 62
256
 10
348.912936000000000
 20
-129.990804999999990
 11
326.912936000000000
 21
-129.990804999999990
  0
LINE
  8
0
  6
DASHED
 62
256
 10
326.912936000000000
 20
-117.990804999999990
 11
326.912936000000000
 21
-131.990804999999990
  0
LINE
  8
0
  6
CONTINUOUS
 62
256
 10
312.312935999999980
 20
-124.490804999999990
 11
315.912936000000000
 21
-124.490804999999990
  0
LINE
  8
0
  6
CONTINUOUS
 62
256
 10
311.912936000000000
 20
-124.090805000000000
 11
312.312935999999980
 21
-124.490804999999990
  0
LINE
  8
0
  6
CONTINUOUS
 62
256
 10
311.912936000000000
 20
-86.990804999999995
 11
311.912936000000000
 21
-124.090805000000000
  0
LINE
  8
0
  6
CONTINUOUS
 62
256
 10
315.912936000000000
 20
-134.298875000000010
 11
315.912936000000000
 21
-86.990804999999995
  0
LINE
  8
0
  6
CONTINUOUS
 62
256
 10
308.912936000000000
 20
-105.990804999999990
 11
311.912936000000000
 21
-105.990804999999990
  0
ARC
  8
0
  6
CONTINUOUS
 62
256
 10
308.912936000000000
 20
-104.990804999999990
 40
1.000000000000000
 50
180.000000000000000
 51
270.000000000000000
  0
LINE
  8
0
  6
CONTINUOUS
 62
256
 10
307.912936000000000
 20
-68.990804999999995
 11
307.912936000000000
 21
-104.990804999999990
  0
LINE
  8
0
  6
CONTINUOUS
 62
256
 10
308.912936000000000
 20
-67.990804999999995
 11
311.912936000000000
 21
-67.990804999999995
  0
ARC
  8
0
  6
CONTINUOUS
 62
256
 10
308.912936000000000
 20
-68.990804999999995
 40
1.000000000000000
 50
90.000000000000000
 51
180.000000000000000
  0
LINE
  8
0
  6
CONTINUOUS
 62
256
 10
312.312935999999980
 20
-49.490805000000002
 11
315.912936000000000
 21
-49.490805000000002
  0
LINE
  8
0
  6
CONTINUOUS
 62
256
 10
311.912936000000000
 20
-49.890805000000000
 11
312.312935999999980
 21
-49.490805000000002
  0
LINE
  8
0
  6
CONTINUOUS
 62
256
 10
311.912936000000000
 20
-86.990804999999995
 11
311.912936000000000
 21
-49.890805000000000
  0
LINE
  8
0
  6
CONTINUOUS
 62
256
 10
326.912936000000000
 20
-38.990805000000002
 11
316.412783999999990
 21
-39.174086000000003
  0
LINE
  8
0
  6
CONTINUOUS
 62
256
 10
316.412783999999990
 20
-39.174086000000003
 11
315.912936000000000
 21
-39.682735000000001
  0
LINE
  8
0
  6
CONTINUOUS
 62
256
 10
315.912936000000000
 20
-39.682735000000001
 11
315.912936000000000
 21
-86.990804999999995
  0
LINE
  8
0
  6
DASHED
 62
256
 10
326.912936000000000
 20
-41.990805000000002
 11
315.912936000000000
 21
-41.990805000000002
  0
LINE
  8
0
  6
DASHED
 62
256
 10
348.912936000000000
 20
-43.990805000000002
 11
326.912936000000000
 21
-43.990805000000002
  0
LINE
  8
0
  6
DASHED
 62
256
 10
326.912936000000000
 20
-41.990805000000002
 11
326.912936000000000
 21
-55.990805000000002
  0
LINE
  8
0
  6
CONTINUOUS
 62
256
 10
326.912936000000000
 20
-134.990804999999990
 11
326.912936000000000
 21
-38.990805000000002
  0
LINE
  8
0
  6
DASHED
 62
256
 10
326.912936000000000
 20
-55.990805000000002
 11
315.912936000000000
 21
-55.990805000000002
  0
ARC
  8
0
  6
CONTINUOUS
 62
256
 10
330.524906999999980
 20
-143.863706000000010
 40
26.600000000000016
 50
224.999999999999940
 51
265.307104999999980
  0
ARC
  8
0
  6
CONTINUOUS
 62
256
 10
309.316322000000010
 20
-150.939392000000000
 40
6.600000000000022
 50
188.597082000000030
 51
224.999999999999830
  0
LINE
  8
0
  6
CONTINUOUS
 62
256
 10
304.649417000000030
 20
-155.606297000000010
 11
311.715866000000010
 21
-162.672745999999990
  0
ARC
  8
0
  6
CONTINUOUS
 62
256
 10
388.300966000000020
 20
-143.863706000000010
 40
26.600000000000005
 50
274.414988000000050
 51
314.999999999999940
  0
ARC
  8
0
  6
CONTINUOUS
 62
256
 10
409.509550999999990
 20
-150.939392000000000
 40
6.600000000000017
 50
315.000000000000170
 51
351.402917999999940
  0
LINE
  8
0
  6
CONTINUOUS
 62
256
 10
414.176455999999970
 20
-155.606297000000010
 11
407.110007000000000
 21
-162.672745999999990
  0
ARC
  8
0
  6
CONTINUOUS
 62
256
 10
600.012935999999970
 20
-106.990804999999990
 40
300.600000000000020
 50
180.000000000000000
 51
188.597082000000000
  0
ARC
  8
0
  6
CONTINUOUS
 62
256
 10
118.812935999999990
 20
-106.990804999999990
 40
300.600000000000020
 50
351.402918000000000
 51
0.000000000000000
  0
ENDSEC
  0
EOF
