  0
SECTION
  2
HEADER
  9
$TEXTSIZE
 40
2.5
  9
$ACADVER
  1
AC1009
  9
$DIMASZ
 40
3.863703297614046
  9
$DIMEXE
 40
2.000000000000000
  9
$DIMEXO
 40
1.000000000000000
  9
$DIMLFAC
 40
1.000000000000000
  9
$DIMSCALE
 40
1.000000000000000
  9
$DIMTAD
 70
1
  9
$DIMTFAC
 40
0.625000000000000
  9
$DIMTXT
 40
3.200000047683716
  9
$LUPREC
 70
3
  9
$REGENMODE
 70
1
  9
$TEXTSTYLE
  7
STANDARD1
  0
ENDSEC
  0
SECTION
  2
TABLES
  0
TABLE
  2
LTYPE
 70
4
  0
LTYPE
  2
CONTINUOUS
 70
64
  3
Solid line
 72
65
 73
0
 40
0.0
  0
LTYPE
  2
DASHED
 70
64
  3
-- -- -- -- -- -- -- -- -- -- -- -- -- -- --
 72
65
 73
2
 40
0.75
 49
0.5
 49
-0.25
  0
LTYPE
  2
DASHDOT
 70
64
  3
__ . __ . __ . __ . __ . __ . __ . __ . __ . __
 72
65
 73
4
 40
1.0
 49
0.5
 49
-0.25
 49
0.0
 49
-0.25
  0
LTYPE
  2
DIVIDE
 70
64
  3
__ . . __ . . __ . . __ . . __ . . __ . . __
 72
65
 73
6
 40
1.25
 49
0.5
 49
-0.25
 49
0.0
 49
-0.25
 49
0.0
 49
-0.25
  0
ENDTAB
  0
TABLE
  2
LAYER
 70
2
  0
LAYER
  2
0
 70
64
 62
53
  6
CONTINUOUS
  0
LAYER
  2
1
 70
64
 62
102
  6
CONTINUOUS
  0
ENDTAB
  0
TABLE
  2
STYLE
 70
4
  0
STYLE
  2
STANDARD1
 70
64
 40
0.0
 41
1.0
 50
0.0
 71
0
 42
3.200000047683716
  3
MONOTXT
  4
BIGFONT
  0
STYLE
  2
STANDARD2
 70
68
 40
0.0
 41
1.0
 50
0.0
 71
0
 42
3.200000047683716
  3
MONOTXT
  4
BIGFONT
  0
STYLE
  2
STANDARD3
 70
64
 40
0.0
 41
1.0
 50
0.0
 71
0
 42
3.200000047683716
  3
MONOTXT
  4

  0
STYLE
  2
STANDARD4
 70
68
 40
0.0
 41
1.0
 50
0.0
 71
0
 42
3.200000047683716
  3
MONOTXT
  4

  0
ENDTAB
  0
TABLE
  2
VIEW
 70
0
  0
ENDTAB
  0
ENDSEC
  0
SECTION
  2
BLOCKS
  0
BLOCK
  8
0
  2
ZU_SYM_1
 70
64
 10
0.000000000000000
 20
0.000000000000000
  0
LINE
  8
0
  6
CONTINUOUS
 62
256
 10
1.999999000000000
 20
-1.154699000000000
 11
-0.000002000000000
 21
-2.309398000000000
  0
LINE
  8
0
  6
CONTINUOUS
 62
256
 10
-1.999999000000000
 20
1.154700000000000
 11
0.000002000000000
 21
2.309399000000000
  0
LINE
  8
0
  6
CONTINUOUS
 62
256
 10
-0.000002000000000
 20
-2.309397000000000
 11
-1.999997000000000
 21
-1.154696000000000
  0
LINE
  8
0
  6
CONTINUOUS
 62
256
 10
1.999998000000000
 20
1.154696000000000
 11
0.000002000000000
 21
2.309399000000000
  0
LINE
  8
0
  6
CONTINUOUS
 62
256
 10
1.999998000000000
 20
1.154695000000000
 11
1.999999000000000
 21
-1.154699000000000
  0
LINE
  8
0
  6
CONTINUOUS
 62
256
 10
-1.999998000000000
 20
-1.154696000000000
 11
-1.999999000000000
 21
1.154700000000000
  0
POINT
  8
0
  6
CONTINUOUS
 62
256
 10
0.000000000000000
 20
0.000000000000000
  0
CIRCLE
  8
0
  6
CONTINUOUS
 62
256
 10
0.000000000000000
 20
0.000000000000000
 40
4.249999000000000
  0
ENDBLK
  8
0
  0
BLOCK
  8
0
  2
ZU_SYM_2
 70
64
 10
0.000000000000000
 20
0.000000000000000
  0
LINE
  8
0
  6
CONTINUOUS
 62
256
 10
1.999999000000000
 20
-1.154699000000000
 11
-0.000002000000000
 21
-2.309398000000000
  0
LINE
  8
0
  6
CONTINUOUS
 62
256
 10
-1.999999000000000
 20
1.154700000000000
 11
0.000002000000000
 21
2.309399000000000
  0
LINE
  8
0
  6
CONTINUOUS
 62
256
 10
-0.000002000000000
 20
-2.309397000000000
 11
-1.999997000000000
 21
-1.154696000000000
  0
LINE
  8
0
  6
CONTINUOUS
 62
256
 10
1.999998000000000
 20
1.154696000000000
 11
0.000002000000000
 21
2.309399000000000
  0
LINE
  8
0
  6
CONTINUOUS
 62
256
 10
1.999998000000000
 20
1.154695000000000
 11
1.999999000000000
 21
-1.154699000000000
  0
LINE
  8
0
  6
CONTINUOUS
 62
256
 10
-1.999998000000000
 20
-1.154696000000000
 11
-1.999999000000000
 21
1.154700000000000
  0
POINT
  8
0
  6
CONTINUOUS
 62
256
 10
0.000000000000000
 20
0.000000000000000
  0
CIRCLE
  8
0
  6
CONTINUOUS
 62
256
 10
0.000000000000000
 20
0.000000000000000
 40
4.249999000000000
  0
ENDBLK
  8
0
  0
BLOCK
  8
0
  2
ZU_SYM_3
 70
64
 10
0.000000000000000
 20
0.000000000000000
  0
LINE
  8
0
  6
CONTINUOUS
 62
256
 10
1.999999000000000
 20
-1.154699000000000
 11
-0.000002000000000
 21
-2.309398000000000
  0
LINE
  8
0
  6
CONTINUOUS
 62
256
 10
-1.999999000000000
 20
1.154700000000000
 11
0.000002000000000
 21
2.309399000000000
  0
LINE
  8
0
  6
CONTINUOUS
 62
256
 10
-0.000002000000000
 20
-2.309397000000000
 11
-1.999997000000000
 21
-1.154696000000000
  0
LINE
  8
0
  6
CONTINUOUS
 62
256
 10
1.999998000000000
 20
1.154696000000000
 11
0.000002000000000
 21
2.309399000000000
  0
LINE
  8
0
  6
CONTINUOUS
 62
256
 10
1.999998000000000
 20
1.154695000000000
 11
1.999999000000000
 21
-1.154699000000000
  0
LINE
  8
0
  6
CONTINUOUS
 62
256
 10
-1.999998000000000
 20
-1.154696000000000
 11
-1.999999000000000
 21
1.154700000000000
  0
POINT
  8
0
  6
CONTINUOUS
 62
256
 10
0.000000000000000
 20
0.000000000000000
  0
CIRCLE
  8
0
  6
CONTINUOUS
 62
256
 10
0.000000000000000
 20
0.000000000000000
 40
4.249999000000000
  0
ENDBLK
  8
0
  0
BLOCK
  8
0
  2
ZU_SYM_4
 70
64
 10
0.000000000000000
 20
0.000000000000000
  0
LINE
  8
0
  6
CONTINUOUS
 62
256
 10
1.999999000000000
 20
-1.154699000000000
 11
-0.000002000000000
 21
-2.309398000000000
  0
LINE
  8
0
  6
CONTINUOUS
 62
256
 10
-1.999999000000000
 20
1.154700000000000
 11
0.000002000000000
 21
2.309399000000000
  0
LINE
  8
0
  6
CONTINUOUS
 62
256
 10
-0.000002000000000
 20
-2.309397000000000
 11
-1.999997000000000
 21
-1.154696000000000
  0
LINE
  8
0
  6
CONTINUOUS
 62
256
 10
1.999998000000000
 20
1.154696000000000
 11
0.000002000000000
 21
2.309399000000000
  0
LINE
  8
0
  6
CONTINUOUS
 62
256
 10
1.999998000000000
 20
1.154695000000000
 11
1.999999000000000
 21
-1.154699000000000
  0
LINE
  8
0
  6
CONTINUOUS
 62
256
 10
-1.999998000000000
 20
-1.154696000000000
 11
-1.999999000000000
 21
1.154700000000000
  0
POINT
  8
0
  6
CONTINUOUS
 62
256
 10
0.000000000000000
 20
0.000000000000000
  0
CIRCLE
  8
0
  6
CONTINUOUS
 62
256
 10
0.000000000000000
 20
0.000000000000000
 40
4.249999000000000
  0
ENDBLK
  8
0
  0
ENDSEC
  0
SECTION
  2
ENTITIES
  0
LINE
  8
0
  6
DASHED
 62
256
 10
401.629320000000010
 20
-77.950806999999998
 11
401.629320000000010
 21
-88.950806999999998
  0
LINE
  8
0
  6
DASHED
 62
256
 10
401.629320000000010
 20
-24.950807000000001
 11
401.629320000000010
 21
-13.950806999999999
  0
LINE
  8
0
  6
DASHED
 62
256
 10
410.629320000000010
 20
-88.950806999999998
 11
401.629320000000010
 21
-88.950806999999998
  0
LINE
  8
0
  6
DASHED
 62
256
 10
410.629320000000010
 20
-77.950806999999998
 11
401.629320000000010
 21
-77.950806999999998
  0
LINE
  8
0
  6
DASHED
 62
256
 10
401.629320000000010
 20
-79.450806999999998
 11
383.629320000000010
 21
-79.450806999999998
  0
LINE
  8
0
  6
DASHED
 62
256
 10
401.629320000000010
 20
-87.450806999999998
 11
383.629320000000010
 21
-87.450806999999998
  0
LINE
  8
0
  6
DASHED
 62
256
 10
383.629320000000010
 20
-79.450806999999998
 11
383.629320000000010
 21
-87.450806999999998
  0
LINE
  8
0
  6
DASHED
 62
256
 10
340.629320000000010
 20
-88.950806999999998
 11
331.629320000000010
 21
-88.950806999999998
  0
LINE
  8
0
  6
DASHDOT
 62
256
 10
414.890204999999980
 20
-83.450806999999998
 11
327.374641999999990
 21
-83.450806999999998
  0
LINE
  8
0
  6
DASHED
 62
256
 10
401.629320000000010
 20
-80.100807000000003
 11
340.629320000000010
 21
-80.100807000000003
  0
LINE
  8
0
  6
DASHED
 62
256
 10
401.629320000000010
 20
-86.800807000000006
 11
340.629320000000010
 21
-86.800807000000006
  0
LINE
  8
0
  6
DASHED
 62
256
 10
358.629320000000010
 20
-87.450806999999998
 11
340.629320000000010
 21
-87.450806999999998
  0
LINE
  8
0
  6
DASHED
 62
256
 10
358.629320000000010
 20
-79.450806999999998
 11
340.629320000000010
 21
-79.450806999999998
  0
LINE
  8
0
  6
DASHED
 62
256
 10
340.629320000000010
 20
-77.950806999999998
 11
340.629320000000010
 21
-88.950806999999998
  0
LINE
  8
0
  6
DASHED
 62
256
 10
340.629320000000010
 20
-77.950806999999998
 11
331.629320000000010
 21
-77.950806999999998
  0
ARC
  8
0
  6
CONTINUOUS
 62
256
 10
404.829320000000000
 20
-25.650566999999999
 40
0.199999999999999
 50
90.000000000000000
 51
180.000000000000000
  0
LINE
  8
0
  6
DASHED
 62
256
 10
410.629320000000010
 20
-24.950807000000001
 11
401.629320000000010
 21
-24.950807000000001
  0
LINE
  8
0
  6
DASHED
 62
256
 10
410.629320000000010
 20
-13.950806999999999
 11
401.629320000000010
 21
-13.950806999999999
  0
LINE
  8
0
  6
DASHED
 62
256
 10
401.629320000000010
 20
-23.450807000000001
 11
383.629320000000010
 21
-23.450807000000001
  0
LINE
  8
0
  6
DASHED
 62
256
 10
401.629320000000010
 20
-15.450806999999999
 11
383.629320000000010
 21
-15.450806999999999
  0
LINE
  8
0
  6
DASHED
 62
256
 10
383.629320000000010
 20
-23.450807000000001
 11
383.629320000000010
 21
-15.450806999999999
  0
LINE
  8
0
  6
DASHED
 62
256
 10
358.629320000000010
 20
-23.450807000000001
 11
358.629320000000010
 21
-15.450806999999999
  0
LINE
  8
0
  6
DASHED
 62
256
 10
358.629320000000010
 20
-79.450806999999998
 11
358.629320000000010
 21
-87.450806999999998
  0
LINE
  8
0
  6
DASHED
 62
256
 10
358.629320000000010
 20
-15.450806999999999
 11
340.629320000000010
 21
-15.450806999999999
  0
LINE
  8
0
  6
DASHED
 62
256
 10
358.629320000000010
 20
-23.450807000000001
 11
340.629320000000010
 21
-23.450807000000001
  0
LINE
  8
0
  6
DASHED
 62
256
 10
401.629320000000010
 20
-22.800806999999999
 11
340.629320000000010
 21
-22.800806999999999
  0
LINE
  8
0
  6
DASHED
 62
256
 10
401.629320000000010
 20
-16.100807000000000
 11
340.629320000000010
 21
-16.100807000000000
  0
LINE
  8
0
  6
DASHED
 62
256
 10
340.629320000000010
 20
-24.950807000000001
 11
340.629320000000010
 21
-13.950806999999999
  0
LINE
  8
0
  6
DASHED
 62
256
 10
340.629320000000010
 20
-13.950806999999999
 11
331.629320000000010
 21
-13.950806999999999
  0
LINE
  8
0
  6
DASHDOT
 62
256
 10
414.890204999999980
 20
-19.450807000000001
 11
327.374641999999990
 21
-19.450807000000001
  0
LINE
  8
0
  6
DASHED
 62
256
 10
340.629320000000010
 20
-24.950807000000001
 11
331.629320000000010
 21
-24.950807000000001
  0
LINE
  8
0
  6
DASHDOT
 62
256
 10
321.594274999999980
 20
-51.450806999999998
 11
420.858627000000010
 21
-51.450806999999998
  0
LINE
  8
0
  6
CONTINUOUS
 62
256
 10
400.629320000000010
 20
-90.438412999999997
 11
410.629320000000010
 21
-90.438412999999997
  0
LINE
  8
0
  6
CONTINUOUS
 62
256
 10
400.629320000000010
 20
-12.463201000000000
 11
410.629320000000010
 21
-12.463201000000000
  0
POINT
  8
0
  6
CONTINUOUS
 62
256
 10
326.814147999999990
 20
-21.450873999999999
  0
ARC
  8
0
  6
CONTINUOUS
 62
256
 10
718.629320000000010
 20
-87.450873999999999
 40
400.000000000000000
 50
180.071529999999970
 51
181.431983999999970
  0
ARC
  8
0
  6
CONTINUOUS
 62
256
 10
318.129632000000020
 20
-87.950873999999999
 40
0.500000000000021
 50
0.071530000000043
 51
90.017883000003138
  0
ARC
  8
0
  6
CONTINUOUS
 62
256
 10
318.129320000000010
 20
-86.950873999999999
 40
0.500000000000000
 50
180.000000000000000
 51
270.017883000003170
  0
ARC
  8
0
  6
CONTINUOUS
 62
256
 10
318.129320000000010
 20
-47.950873999999999
 40
0.499999999999998
 50
89.982116999996876
 51
180.000000000000000
  0
ARC
  8
0
  6
CONTINUOUS
 62
256
 10
318.129632000000020
 20
-46.950873999999999
 40
0.499999999999998
 50
269.982116999996830
 51
359.928469999999950
  0
ARC
  8
0
  6
CONTINUOUS
 62
256
 10
718.629320000000010
 20
-47.450873999999999
 40
400.000000000000000
 50
178.568016000000000
 51
179.928470000000000
  0
ARC
  8
0
  6
CONTINUOUS
 62
256
 10
351.129320000000010
 20
280.049126000000000
 40
400.000000000000000
 50
268.568016000000060
 51
269.928470000000000
  0
ARC
  8
0
  6
CONTINUOUS
 62
256
 10
350.629320000000010
 20
-120.450562000000010
 40
0.500000000000013
 50
359.982117000000070
 51
89.928470000001582
  0
ARC
  8
0
  6
CONTINUOUS
 62
256
 10
351.629320000000010
 20
-120.450874000000000
 40
0.500000000000013
 50
179.982117000000130
 51
270.000000000000000
  0
ARC
  8
0
  6
CONTINUOUS
 62
256
 10
390.629320000000010
 20
-120.450874000000000
 40
0.500000000000000
 50
270.000000000000000
 51
0.017882999999877
  0
ARC
  8
0
  6
CONTINUOUS
 62
256
 10
391.629320000000010
 20
-120.450562000000010
 40
0.500000000000007
 50
90.071529999998418
 51
180.017882999999870
  0
ARC
  8
0
  6
CONTINUOUS
 62
256
 10
391.129320000000010
 20
280.049126000000000
 40
400.000000000000000
 50
270.071530000000000
 51
271.431984000000000
  0
ARC
  8
0
  6
CONTINUOUS
 62
256
 10
23.629320000000000
 20
-87.450873999999999
 40
400.000000000000000
 50
358.568016000000060
 51
359.928470000000000
  0
ARC
  8
0
  6
CONTINUOUS
 62
256
 10
23.629320000000000
 20
-47.450873999999999
 40
399.999999999999940
 50
0.053000000000000
 51
1.431984000000000
  0
ARC
  8
0
  6
CONTINUOUS
 62
256
 10
424.129320000000010
 20
-48.068995000000001
 40
0.500000000000000
 50
0.000000000000000
 51
90.017883000003138
  0
ARC
  8
0
  6
CONTINUOUS
 62
256
 10
424.129320000000010
 20
-87.068995000000001
 40
0.499999999999998
 50
269.982116999996830
 51
0.000000000000000
  0
ARC
  8
0
  6
CONTINUOUS
 62
256
 10
424.129008000000000
 20
-88.068995000000001
 40
0.499999999999998
 50
89.982116999996876
 51
179.928469999999950
  0
ARC
  8
0
  6
CONTINUOUS
 62
256
 10
424.129008000000000
 20
-47.068995000000001
 40
0.500000000000021
 50
180.071530000000050
 51
270.017883000003170
  0
ARC
  8
0
  6
CONTINUOUS
 62
256
 10
328.037600000000000
 20
-24.429976000000000
 40
3.000000000000000
 50
90.999999999999602
 51
135.130421000000380
  0
ARC
  8
0
  6
CONTINUOUS
 62
256
 10
326.096964000000010
 20
-26.661159000000001
 40
2.999999999999989
 50
142.837479999999830
 51
224.999999999999740
  0
ARC
  8
0
  6
CONTINUOUS
 62
256
 10
371.129320000000010
 20
-67.450873999999999
 40
53.500000000000014
 50
152.604367999999990
 51
27.395631999999999
  0
ARC
  8
0
  6
CONTINUOUS
 62
256
 10
416.934692999999980
 20
-100.528325000000000
 40
3.000000000000000
 50
144.165806000000030
 51
224.999999999999800
  0
ARC
  8
0
  6
CONTINUOUS
 62
256
 10
416.161675000000000
 20
-108.240589000000000
 40
2.999999999999989
 50
322.837479999999800
 51
44.999999999999808
  0
ARC
  8
0
  6
CONTINUOUS
 62
256
 10
416.934692999999980
 20
-100.528325000000000
 40
3.000000000000000
 50
144.165806000000030
 51
224.999999999999800
  0
ARC
  8
0
  6
CONTINUOUS
 62
256
 10
400.573133999999980
 20
-123.711978000000000
 40
10.000000000000004
 50
91.000000000000156
 51
117.624964000000050
  0
ARC
  8
0
  6
CONTINUOUS
 62
256
 10
341.685504999999980
 20
-123.711978000000000
 40
10.000000000000000
 50
62.375035999999923
 51
88.999999999999858
  0
ARC
  8
0
  6
CONTINUOUS
 62
256
 10
326.096964000000010
 20
-108.240589000000000
 40
3.000000000000014
 50
135.000000000000200
 51
217.162520000000170
  0
ARC
  8
0
  6
CONTINUOUS
 62
256
 10
325.323945999999980
 20
-100.528325000000000
 40
3.000000000000014
 50
315.000000000000230
 51
35.834193999999975
  0
ARC
  8
0
  6
CONTINUOUS
 62
256
 10
328.037600000000000
 20
-110.471773000000000
 40
3.000000000000017
 50
224.869578999999560
 51
269.000000000000340
  0
ARC
  8
0
  6
DASHED
 62
256
 10
414.221039000000020
 20
-24.429976000000000
 40
3.000000000000020
 50
44.869578999999625
 51
89.000000000000412
  0
ARC
  8
0
  6
CONTINUOUS
 62
256
 10
416.161675000000000
 20
-26.661159000000001
 40
3.000000000000012
 50
315.000000000000230
 51
37.162520000000193
  0
ARC
  8
0
  6
CONTINUOUS
 62
256
 10
414.221039000000020
 20
-110.471773000000000
 40
2.999999999999996
 50
270.999999999999660
 51
315.130421000000410
  0
ARC
  8
0
  6
CONTINUOUS
 62
256
 10
343.629320000000010
 20
-39.950873999999999
 40
25.000000000000000
 50
118.685402000000010
 51
174.269825000000000
  0
ARC
  8
0
  6
CONTINUOUS
 62
256
 10
398.629320000000010
 20
-39.950873999999999
 40
24.999999999999979
 50
5.730174999999997
 51
61.314597999999989
  0
ARC
  8
0
  6
CONTINUOUS
 62
256
 10
398.629320000000010
 20
-94.950873999999999
 40
25.000000000000011
 50
275.730175000000030
 51
354.269824999999970
  0
ARC
  8
0
  6
CONTINUOUS
 62
256
 10
343.629320000000010
 20
-94.950873999999999
 40
24.999999999999979
 50
185.730175000000000
 51
264.269825000000080
  0
LINE
  8
0
  6
DASHDOT
 62
256
 10
430.806059000000000
 20
-67.450873999999999
 11
309.583138000000020
 21
-67.450873999999999
  0
LINE
  8
0
  6
CONTINUOUS
 62
256
 10
342.629320000000010
 20
-11.450806999999999
 11
400.629320000000010
 21
-12.463201000000000
  0
LINE
  8
0
  6
CONTINUOUS
 62
256
 10
410.629320000000010
 20
-23.450807000000001
 11
414.229319999999970
 21
-23.450807000000001
  0
LINE
  8
0
  6
CONTINUOUS
 62
256
 10
410.629320000000010
 20
-79.450806999999998
 11
414.229319999999970
 21
-79.450806999999998
  0
LINE
  8
0
  6
CONTINUOUS
 62
256
 10
342.629320000000010
 20
-91.450806999999998
 11
400.629320000000010
 21
-90.438412999999997
  0
LINE
  8
0
  6
CONTINUOUS
 62
256
 10
410.629320000000010
 20
-18.133106000000002
 11
410.629320000000010
 21
-12.463201000000000
  0
LINE
  8
0
  6
CONTINUOUS
 62
256
 10
317.629320000000010
 20
-86.950873999999999
 11
317.629320000000010
 21
-47.950873999999999
  0
LINE
  8
0
  6
CONTINUOUS
 62
256
 10
390.629320000000010
 20
-120.950874000000000
 11
351.629320000000010
 21
-120.950874000000000
  0
LINE
  8
0
  6
CONTINUOUS
 62
256
 10
424.629320000000010
 20
-87.068995000000001
 11
424.629320000000010
 21
-48.068995000000001
  0
LINE
  8
0
  6
CONTINUOUS
 62
256
 10
327.985243000000030
 20
-21.430433000000001
 11
331.629320000000010
 21
-21.366824999999999
  0
LINE
  8
0
  6
CONTINUOUS
 62
256
 10
327.629320000000010
 20
-32.436154999999999
 11
323.975643999999990
 21
-28.782480000000000
  0
LINE
  8
0
  6
CONTINUOUS
 62
256
 10
414.813373000000010
 20
-102.649646000000000
 11
418.282995000000030
 21
-106.119268000000010
  0
LINE
  8
0
  6
CONTINUOUS
 62
256
 10
414.273395999999990
 20
-113.471316000000000
 11
400.398610000000020
 21
-113.713500999999990
  0
LINE
  8
0
  6
CONTINUOUS
 62
256
 10
327.985243000000030
 20
-113.471316000000000
 11
341.860029999999990
 21
-113.713500999999990
  0
LINE
  8
0
  6
CONTINUOUS
 62
256
 10
327.445267000000000
 20
-102.649646000000000
 11
323.975643999999990
 21
-106.119268000000010
  0
LINE
  8
0
  6
CONTINUOUS
 62
256
 10
414.273395999999990
 20
-21.430433000000001
 11
410.629320000000010
 21
-21.366824999999999
  0
LINE
  8
0
  6
CONTINUOUS
 62
256
 10
414.813373000000010
 20
-32.252102999999998
 11
418.282995000000030
 21
-28.782480000000000
  0
LINE
  8
0
  6
CONTINUOUS
 62
256
 10
342.629320000000010
 20
-11.450806999999999
 11
332.129167000000000
 21
-11.634088000000000
  0
LINE
  8
0
  6
CONTINUOUS
 62
256
 10
342.629320000000010
 20
-91.450806999999998
 11
332.129167000000000
 21
-91.267526000000004
  0
LINE
  8
0
  6
CONTINUOUS
 62
256
 10
342.629320000000010
 20
-15.214070000000000
 11
342.629320000000010
 21
-11.450806999999999
  0
LINE
  8
0
  6
CONTINUOUS
 62
256
 10
342.629320000000010
 20
-91.450806999999998
 11
342.629320000000010
 21
-15.214070000000000
  0
LINE
  8
0
  6
CONTINUOUS
 62
256
 10
410.629320000000010
 20
-18.133106000000002
 11
410.629320000000010
 21
-90.438412999999997
  0
LINE
  8
0
  6
DASHED
 62
256
 10
414.229319999999970
 20
-23.450807000000001
 11
414.629320000000010
 21
-23.850807000000000
  0
LINE
  8
0
  6
CONTINUOUS
 62
256
 10
414.629320000000010
 20
-79.050807000000006
 11
414.229319999999970
 21
-79.450806999999998
  0
LINE
  8
0
  6
CONTINUOUS
 62
256
 10
414.629320000000010
 20
-79.050807000000006
 11
414.629320000000010
 21
-23.850807000000000
  0
LINE
  8
0
  6
CONTINUOUS
 62
256
 10
346.129320000000010
 20
-50.950806999999998
 11
410.629320000000010
 21
-50.950806999999998
  0
LINE
  8
0
  6
CONTINUOUS
 62
256
 10
346.129320000000010
 20
-51.950806999999998
 11
410.629320000000010
 21
-51.950806999999998
  0
ARC
  8
0
  6
CONTINUOUS
 62
256
 10
346.129320000000010
 20
-51.450806999999998
 40
0.500000000000000
 50
90.000000000000000
 51
270.000000000000000
  0
LINE
  8
0
  6
CONTINUOUS
 62
256
 10
339.129320000000010
 20
-51.950806999999998
 11
331.629320000000010
 21
-51.950806999999998
  0
ARC
  8
0
  6
CONTINUOUS
 62
256
 10
339.129320000000010
 20
-51.450806999999998
 40
0.500000000000000
 50
270.000000000000000
 51
90.000000000000000
  0
LINE
  8
0
  6
CONTINUOUS
 62
256
 10
339.129320000000010
 20
-50.950806999999998
 11
331.629320000000010
 21
-50.950806999999998
  0
LINE
  8
0
  6
CONTINUOUS
 62
256
 10
323.629320000000010
 20
-37.450806999999998
 11
323.629320000000010
 21
-65.450806999999998
  0
LINE
  8
0
  6
CONTINUOUS
 62
256
 10
324.629320000000010
 20
-66.450806999999998
 11
327.629320000000010
 21
-66.450806999999998
  0
LINE
  8
0
  6
CONTINUOUS
 62
256
 10
324.629320000000010
 20
-36.450806999999998
 11
327.629320000000010
 21
-36.450806999999998
  0
LINE
  8
0
  6
CONTINUOUS
 62
256
 10
418.629320000000010
 20
-65.450806999999998
 11
418.629320000000010
 21
-37.450806999999998
  0
ARC
  8
0
  6
CONTINUOUS
 62
256
 10
417.629320000000010
 20
-37.450806999999998
 40
1.000000000000000
 50
0.000000000000000
 51
90.000000000000000
  0
ARC
  8
0
  6
CONTINUOUS
 62
256
 10
417.629320000000010
 20
-65.450806999999998
 40
1.000000000000000
 50
270.000000000000000
 51
0.000000000000000
  0
ARC
  8
0
  6
CONTINUOUS
 62
256
 10
324.629320000000010
 20
-65.450806999999998
 40
1.000000000000000
 50
180.000000000000000
 51
270.000000000000000
  0
ARC
  8
0
  6
CONTINUOUS
 62
256
 10
324.629320000000010
 20
-37.450806999999998
 40
1.000000000000000
 50
90.000000000000000
 51
180.000000000000000
  0
LINE
  8
0
  6
CONTINUOUS
 62
256
 10
414.629320000000010
 20
-66.450806999999998
 11
417.629320000000010
 21
-66.450806999999998
  0
LINE
  8
0
  6
CONTINUOUS
 62
256
 10
414.629320000000010
 20
-36.450806999999998
 11
417.629320000000010
 21
-36.450806999999998
  0
LINE
  8
0
  6
CONTINUOUS
 62
256
 10
331.629320000000010
 20
-90.758877999999996
 11
332.129167000000000
 21
-91.267526000000004
  0
LINE
  8
0
  6
CONTINUOUS
 62
256
 10
332.129167000000000
 20
-11.634088000000000
 11
331.629320000000010
 21
-12.142737000000000
  0
LINE
  8
0
  6
CONTINUOUS
 62
256
 10
327.629320000000010
 20
-79.050807000000006
 11
328.029319999999980
 21
-79.450806999999998
  0
LINE
  8
0
  6
CONTINUOUS
 62
256
 10
328.029319999999980
 20
-79.450806999999998
 11
331.629320000000010
 21
-79.450806999999998
  0
LINE
  8
0
  6
CONTINUOUS
 62
256
 10
327.629320000000010
 20
-23.850807000000000
 11
328.029319999999980
 21
-23.450807000000001
  0
LINE
  8
0
  6
CONTINUOUS
 62
256
 10
328.029319999999980
 20
-23.450807000000001
 11
331.629320000000010
 21
-23.450807000000001
  0
LINE
  8
0
  6
CONTINUOUS
 62
256
 10
342.629320000000010
 20
-11.442080000000001
 11
342.629320000000010
 21
-14.950806999999999
  0
LINE
  8
0
  6
CONTINUOUS
 62
256
 10
342.629320000000010
 20
-11.442080000000001
 11
342.629320000000010
 21
-91.459535000000002
  0
LINE
  8
0
  6
CONTINUOUS
 62
256
 10
331.629320000000010
 20
-12.142737000000000
 11
331.629320000000010
 21
-90.758877999999996
  0
LINE
  8
0
  6
CONTINUOUS
 62
256
 10
327.629320000000010
 20
-23.850807000000000
 11
327.629320000000010
 21
-79.050807000000006
  0
LINE
  8
0
  6
CONTINUOUS
 62
256
 10
-97.988961000000003
 20
-67.450873999999999
 11
-97.988961000000003
 21
-120.950874000000000
  0
LINE
  8
0
  6
CONTINUOUS
 62
256
 10
-97.988961000000003
 20
-67.450873999999999
 11
-97.988961000000003
 21
-13.950874000000001
  0
POINT
  8
0
  6
CONTINUOUS
 62
256
 10
-79.988961000000003
 20
-121.282520000000010
  0
POINT
  8
0
  6
CONTINUOUS
 62
256
 10
-71.988961000000003
 20
-94.450806999999998
  0
LINE
  8
0
  6
CONTINUOUS
 62
256
 10
-79.988961000000003
 20
-118.229698000000000
 11
-79.988961000000003
 21
-16.617032999999999
  0
LINE
  8
0
  6
CONTINUOUS
 62
256
 10
-97.988961000000003
 20
-120.968329000000000
 11
-83.041318000000004
 21
-121.229241000000000
  0
LINE
  8
0
  6
CONTINUOUS
 62
256
 10
-73.665509000000000
 20
-13.408320000000000
 11
-97.988961000000003
 21
-13.950874000000001
  0
LINE
  8
0
  6
CONTINUOUS
 62
256
 10
-73.488617000000005
 20
-86.450806999999998
 11
-73.488617000000005
 21
-16.450807000000001
  0
LINE
  8
0
  6
CONTINUOUS
 62
256
 10
-74.988915000000006
 20
-95.950873999999999
 11
-76.988961000000003
 21
-95.950873999999999
  0
LINE
  8
0
  6
CONTINUOUS
 62
256
 10
-73.488617000000005
 20
-82.950873999999999
 11
-73.488617000000005
 21
-86.450806999999998
  0
LINE
  8
0
  6
CONTINUOUS
 62
256
 10
39.511383000000002
 20
-91.450806999999998
 11
-44.172089000000000
 21
-91.450806999999998
  0
LINE
  8
0
  6
CONTINUOUS
 62
256
 10
44.511383000000002
 20
-16.450807000000001
 11
44.511383000000002
 21
-86.450806999999998
  0
LINE
  8
0
  6
CONTINUOUS
 62
256
 10
39.511383000000002
 20
-11.450806999999999
 11
-68.488617000000005
 21
-11.450806999999999
  0
LINE
  8
0
  6
CONTINUOUS
 62
256
 10
-44.172089000000000
 20
-91.450806999999998
 11
-76.988961000000003
 21
-91.450806999999998
  0
ARC
  8
0
  6
CONTINUOUS
 62
256
 10
-82.988961000000003
 20
-16.617032999999999
 40
3.000000000000000
 50
0.000000000000000
 51
91.277816000000129
  0
ARC
  8
0
  6
CONTINUOUS
 62
256
 10
-76.988961000000003
 20
-98.950873999999999
 40
3.000000000000000
 50
90.000000000000000
 51
180.000000000000000
  0
ARC
  8
0
  6
CONTINUOUS
 62
256
 10
-76.988961000000003
 20
-94.450806999999998
 40
3.000000000000000
 50
90.000000000000000
 51
180.000000000000000
  0
ARC
  8
0
  6
CONTINUOUS
 62
256
 10
-82.988961000000003
 20
-118.229698000000000
 40
2.999999999999997
 50
269.000000000000110
 51
0.000000000000000
  0
ARC
  8
0
  6
CONTINUOUS
 62
256
 10
-73.732410000000002
 20
-10.409065999999999
 40
3.000000000000000
 50
271.277815999999860
 51
310.955611999999970
  0
ARC
  8
0
  6
CONTINUOUS
 62
256
 10
-68.488617000000005
 20
-86.450806999999998
 40
5.000000000000000
 50
180.000000000000000
 51
270.000000000000000
  0
ARC
  8
0
  6
CONTINUOUS
 62
256
 10
-74.988915000000006
 20
-92.950873999999999
 40
3.000000000000000
 50
270.000000000000000
 51
345.523148999999820
  0
ARC
  8
0
  6
CONTINUOUS
 62
256
 10
-69.179423000000000
 20
-94.450806999999998
 40
3.000000000000000
 50
90.000000000000000
 51
165.523149000000100
  0
ARC
  8
0
  6
CONTINUOUS
 62
256
 10
39.511383000000002
 20
-16.450807000000001
 40
5.000000000000000
 50
0.000000000000000
 51
90.000000000000000
  0
ARC
  8
0
  6
CONTINUOUS
 62
256
 10
39.511383000000002
 20
-86.450806999999998
 40
5.000000000000000
 50
270.000000000000000
 51
0.000000000000000
  0
ARC
  8
0
  6
CONTINUOUS
 62
256
 10
-68.488617000000005
 20
-16.450807000000001
 40
5.000000000000000
 50
90.000000000000000
 51
180.000000000000000
  0
LINE
  8
0
  6
CONTINUOUS
 62
256
 10
-92.988961000000003
 20
-87.450873999999999
 11
-97.988961000000003
 21
-87.450873999999999
  0
LINE
  8
0
  6
CONTINUOUS
 62
256
 10
-92.988961000000003
 20
-47.450873999999999
 11
-97.988961000000003
 21
-47.450873999999999
  0
ARC
  8
0
  6
CONTINUOUS
 62
256
 10
-82.988961000000003
 20
-98.343040000000002
 40
3.000000000000000
 50
270.000000000000000
 51
0.000000000000000
  0
ARC
  8
0
  6
CONTINUOUS
 62
256
 10
-89.988961000000003
 20
-98.343040000000002
 40
3.000000000000000
 50
180.000000000000000
 51
270.000000000000000
  0
ARC
  8
0
  6
CONTINUOUS
 62
256
 10
-84.988961000000003
 20
-106.950874000000000
 40
5.000000000000000
 50
270.000000000000000
 51
0.000000000000000
  0
ARC
  8
0
  6
CONTINUOUS
 62
256
 10
-84.988961000000003
 20
-103.880526000000000
 40
5.000000000000000
 50
270.000000000000000
 51
0.000000000000000
  0
ARC
  8
0
  6
CONTINUOUS
 62
256
 10
-90.988961000000003
 20
-106.880526000000000
 40
2.000000000000000
 50
180.000000000000000
 51
270.000000000000000
  0
ARC
  8
0
  6
CONTINUOUS
 62
256
 10
-89.988961000000003
 20
-114.950874000000000
 40
3.000000000000000
 50
90.000000000000000
 51
180.000000000000000
  0
ARC
  8
0
  6
CONTINUOUS
 62
256
 10
-95.988961000000003
 20
-117.985327000000000
 40
2.999999999999997
 50
269.000000000000110
 51
0.000000000000000
  0
ARC
  8
0
  6
CONTINUOUS
 62
256
 10
-95.988961000000003
 20
-16.916421000000000
 40
3.000000000000000
 50
0.000000000000000
 51
90.999999999999872
  0
ARC
  8
0
  6
CONTINUOUS
 62
256
 10
-82.988961000000003
 20
-36.558708000000003
 40
3.000000000000000
 50
0.000000000000000
 51
90.000000000000000
  0
ARC
  8
0
  6
CONTINUOUS
 62
256
 10
-84.988961000000003
 20
-27.950873999999999
 40
5.000000000000000
 50
0.000000000000000
 51
90.000000000000000
  0
ARC
  8
0
  6
CONTINUOUS
 62
256
 10
-84.988961000000003
 20
-31.021222000000002
 40
5.000000000000000
 50
0.000000000000000
 51
90.000000000000000
  0
ARC
  8
0
  6
CONTINUOUS
 62
256
 10
-90.988961000000003
 20
-28.021222000000002
 40
2.000000000000000
 50
90.000000000000000
 51
180.000000000000000
  0
ARC
  8
0
  6
CONTINUOUS
 62
256
 10
-89.988961000000003
 20
-19.950873999999999
 40
3.000000000000000
 50
180.000000000000000
 51
270.000000000000000
  0
ARC
  8
0
  6
CONTINUOUS
 62
256
 10
-89.988961000000003
 20
-36.558708000000003
 40
3.000000000000000
 50
90.000000000000000
 51
180.000000000000000
  0
LINE
  8
0
  6
CONTINUOUS
 62
256
 10
-82.988961000000003
 20
-101.343040000000000
 11
-89.988961000000003
 21
-101.343040000000000
  0
LINE
  8
0
  6
CONTINUOUS
 62
256
 10
-92.988961000000003
 20
-67.450873999999999
 11
-92.988961000000003
 21
-106.880526000000000
  0
LINE
  8
0
  6
CONTINUOUS
 62
256
 10
-90.988961000000003
 20
-108.880526000000000
 11
-84.988961000000003
 21
-108.880526000000000
  0
LINE
  8
0
  6
CONTINUOUS
 62
256
 10
-89.988961000000003
 20
-111.950874000000000
 11
-84.988961000000003
 21
-111.950874000000000
  0
LINE
  8
0
  6
CONTINUOUS
 62
256
 10
-92.988961000000003
 20
-114.950874000000000
 11
-92.988961000000003
 21
-117.985327000000000
  0
LINE
  8
0
  6
CONTINUOUS
 62
256
 10
-92.988961000000003
 20
-19.950873999999999
 11
-92.988961000000003
 21
-16.916421000000000
  0
LINE
  8
0
  6
CONTINUOUS
 62
256
 10
-90.988961000000003
 20
-26.021222000000002
 11
-84.988961000000003
 21
-26.021222000000002
  0
LINE
  8
0
  6
CONTINUOUS
 62
256
 10
-89.988961000000003
 20
-22.950873999999999
 11
-84.988961000000003
 21
-22.950873999999999
  0
LINE
  8
0
  6
CONTINUOUS
 62
256
 10
-92.988961000000003
 20
-67.450873999999999
 11
-92.988961000000003
 21
-28.021222000000002
  0
LINE
  8
0
  6
CONTINUOUS
 62
256
 10
-82.988961000000003
 20
-33.558708000000003
 11
-89.988961000000003
 21
-33.558708000000003
  0
ARC
  8
0
  6
CONTINUOUS
 62
256
 10
-27.488617000000001
 20
-83.450806999999998
 40
9.000000000000000
 50
351.247071000000060
 51
94.988541999999995
  0
ARC
  8
0
  6
CONTINUOUS
 62
256
 10
-28.488617000000001
 20
-71.994367999999994
 40
2.500000000000000
 50
180.000000000000000
 51
274.988541999999940
  0
LINE
  8
0
  6
CONTINUOUS
 62
256
 10
-30.988617000000001
 20
-30.907246000000001
 11
-30.988617000000001
 21
-71.994367999999994
  0
ARC
  8
0
  6
CONTINUOUS
 62
256
 10
-28.488617000000001
 20
-30.907246000000001
 40
2.500000000000000
 50
85.011458000000047
 51
180.000000000000000
  0
ARC
  8
0
  6
CONTINUOUS
 62
256
 10
-27.488617000000001
 20
-19.450807000000001
 40
9.000000000000000
 50
265.011458000000000
 51
8.752929000000009
  0
ARC
  8
0
  6
CONTINUOUS
 62
256
 10
-54.488858000000000
 20
-15.950500999999999
 40
5.000000000000000
 50
180.000000000000000
 51
0.000000000000000
  0
ARC
  8
0
  6
CONTINUOUS
 62
256
 10
25.511624000000001
 20
-15.950500999999999
 40
5.000000000000000
 50
180.000000000000000
 51
0.000000000000000
  0
ARC
  8
0
  6
CONTINUOUS
 62
256
 10
-54.488858000000000
 20
-86.951113000000007
 40
5.000000000000000
 50
0.000000000000000
 51
180.000000000000000
  0
ARC
  8
0
  6
CONTINUOUS
 62
256
 10
25.511624000000001
 20
-86.951113000000007
 40
5.000000000000000
 50
0.000000000000000
 51
180.000000000000000
  0
LINE
  8
0
  6
CONTINUOUS
 62
256
 10
-73.488617000000005
 20
-16.450807000000001
 11
-73.488617000000005
 21
-86.450806999999998
  0
LINE
  8
0
  6
CONTINUOUS
 62
256
 10
-65.906616999999997
 20
-77.745874000000001
 11
-65.906616999999997
 21
-77.719038999999995
  0
ARC
  8
0
  6
CONTINUOUS
 62
256
 10
-68.488617000000005
 20
-86.450806999999998
 40
5.000000000000000
 50
180.000000000000000
 51
270.000000000000000
  0
LINE
  8
0
  6
CONTINUOUS
 62
256
 10
39.511383000000002
 20
-91.450806999999998
 11
-44.172089000000000
 21
-91.450806999999998
  0
LINE
  8
0
  6
CONTINUOUS
 62
256
 10
44.511383000000002
 20
-16.450807000000001
 11
44.511383000000002
 21
-86.450806999999998
  0
LINE
  8
0
  6
CONTINUOUS
 62
256
 10
39.511383000000002
 20
-11.450806999999999
 11
-68.488617000000005
 21
-11.450806999999999
  0
CIRCLE
  8
0
  6
CONTINUOUS
 62
256
 10
36.511383000000002
 20
-19.450807000000001
 40
5.500000000000000
  0
ARC
  8
0
  6
CONTINUOUS
 62
256
 10
39.511383000000002
 20
-16.450807000000001
 40
5.000000000000000
 50
0.000000000000000
 51
90.000000000000000
  0
ARC
  8
0
  6
CONTINUOUS
 62
256
 10
39.511383000000002
 20
-86.450806999999998
 40
5.000000000000000
 50
270.000000000000000
 51
0.000000000000000
  0
CIRCLE
  8
0
  6
CONTINUOUS
 62
256
 10
36.511383000000002
 20
-83.450806999999998
 40
5.500000000000000
  0
ARC
  8
0
  6
CONTINUOUS
 62
256
 10
-68.488617000000005
 20
-16.450807000000001
 40
5.000000000000000
 50
90.000000000000000
 51
180.000000000000000
  0
CIRCLE
  8
0
  6
CONTINUOUS
 62
256
 10
-65.488617000000005
 20
-83.450806999999998
 40
5.500000000000000
  0
LINE
  8
0
  6
CONTINUOUS
 62
256
 10
-44.172089000000000
 20
-91.450806999999998
 11
-68.488617000000005
 21
-91.450806999999998
  0
CIRCLE
  8
0
  6
CONTINUOUS
 62
256
 10
-65.488617000000005
 20
-19.450807000000001
 40
5.500000000000000
  0
ARC
  8
0
  6
CONTINUOUS
 62
256
 10
4.511383000000000
 20
-51.450806999999998
 40
9.999999999999996
 50
107.457603000000020
 51
72.542396999999980
  0
LINE
  8
0
  6
CONTINUOUS
 62
256
 10
7.511383000000000
 20
-38.650807000000000
 11
7.511383000000000
 21
-41.911414999999998
  0
LINE
  8
0
  6
CONTINUOUS
 62
256
 10
7.511383000000000
 20
-38.650807000000000
 11
1.511383000000000
 21
-38.650807000000000
  0
LINE
  8
0
  6
CONTINUOUS
 62
256
 10
1.511383000000000
 20
-38.650807000000000
 11
1.511383000000000
 21
-41.911414999999998
  0
ARC
  8
0
  6
CONTINUOUS
 62
256
 10
3.188507000000000
 20
-12.450806999999999
 40
1.000000000000000
 50
48.590377999999966
 51
90.000000000000000
  0
ARC
  8
0
  6
CONTINUOUS
 62
256
 10
4.511383000000000
 20
-10.950806999999999
 40
1.000000000000000
 50
228.590377999999960
 51
311.409622000000070
  0
ARC
  8
0
  6
CONTINUOUS
 62
256
 10
5.834259000000000
 20
-12.450806999999999
 40
1.000000000000000
 50
90.000000000000000
 51
131.409622000000010
  0
ARC
  8
0
  6
CONTINUOUS
 62
256
 10
43.511383000000002
 20
-52.773682999999998
 40
1.000000000000000
 50
0.000000000000000
 51
41.409621999999743
  0
ARC
  8
0
  6
CONTINUOUS
 62
256
 10
45.011383000000002
 20
-51.450806999999998
 40
1.000000000000000
 50
138.590378000000240
 51
221.409622000000040
  0
ARC
  8
0
  6
CONTINUOUS
 62
256
 10
43.511383000000002
 20
-50.127930999999997
 40
1.000000000000000
 50
318.590378000000270
 51
0.000000000000000
  0
ARC
  8
0
  6
CONTINUOUS
 62
256
 10
5.834259000000000
 20
-90.450806999999998
 40
1.000000000000002
 50
228.590378000000100
 51
270.000000000000000
  0
ARC
  8
0
  6
CONTINUOUS
 62
256
 10
4.511383000000000
 20
-91.950806999999998
 40
1.000000000000002
 50
48.590378000000101
 51
131.409621999999900
  0
ARC
  8
0
  6
CONTINUOUS
 62
256
 10
3.188507000000000
 20
-90.450806999999998
 40
1.000000000000000
 50
270.000000000000000
 51
311.409621999999900
  0
LINE
  8
0
  6
DASHDOT
 62
256
 10
4.511383000000000
 20
-9.950806999999999
 11
4.511383000000000
 21
-92.950806999999998
  0
LINE
  8
0
  6
DASHDOT
 62
256
 10
46.011383000000002
 20
-51.450806999999998
 11
-36.988616999999998
 21
-51.450806999999998
  0
LINE
  8
0
  6
DASHDOT
 62
256
 10
25.511624000000001
 20
-10.200500999999999
 11
25.511624000000001
 21
-21.700500999999999
  0
LINE
  8
0
  6
DASHDOT
 62
256
 10
31.261624000000001
 20
-15.950500999999999
 11
19.761624000000001
 21
-15.950500999999999
  0
LINE
  8
0
  6
DASHDOT
 62
256
 10
-54.488858000000000
 20
-10.200500999999999
 11
-54.488858000000000
 21
-21.700500999999999
  0
LINE
  8
0
  6
DASHDOT
 62
256
 10
-48.738858000000000
 20
-15.950500999999999
 11
-60.238858000000000
 21
-15.950500999999999
  0
LINE
  8
0
  6
DASHDOT
 62
256
 10
-54.488858000000000
 20
-81.201113000000007
 11
-54.488858000000000
 21
-92.701113000000007
  0
LINE
  8
0
  6
DASHDOT
 62
256
 10
-48.738858000000000
 20
-86.951113000000007
 11
-60.238858000000000
 21
-86.951113000000007
  0
LINE
  8
0
  6
DASHDOT
 62
256
 10
25.511624000000001
 20
-81.201113000000007
 11
25.511624000000001
 21
-92.701113000000007
  0
LINE
  8
0
  6
DASHDOT
 62
256
 10
31.261624000000001
 20
-86.951113000000007
 11
19.761624000000001
 21
-86.951113000000007
  0
LINE
  8
0
  6
DASHDOT
 62
256
 10
36.511383000000002
 20
-74.950806999999998
 11
36.511383000000002
 21
-91.950806999999998
  0
LINE
  8
0
  6
DASHDOT
 62
256
 10
45.011383000000002
 20
-83.450806999999998
 11
28.011382999999999
 21
-83.450806999999998
  0
LINE
  8
0
  6
DASHDOT
 62
256
 10
-65.488617000000005
 20
-74.950806999999998
 11
-65.488617000000005
 21
-91.950806999999998
  0
LINE
  8
0
  6
DASHDOT
 62
256
 10
-56.988616999999998
 20
-83.450806999999998
 11
-73.988617000000005
 21
-83.450806999999998
  0
LINE
  8
0
  6
DASHDOT
 62
256
 10
-65.488617000000005
 20
-9.778682999999999
 11
-65.488617000000005
 21
-27.950807000000001
  0
LINE
  8
0
  6
DASHDOT
 62
256
 10
-56.988616999999998
 20
-19.450807000000001
 11
-73.988617000000005
 21
-19.450807000000001
  0
LINE
  8
0
  6
DASHDOT
 62
256
 10
36.511383000000002
 20
-8.630490999999999
 11
36.511383000000002
 21
-27.950807000000001
  0
LINE
  8
0
  6
DASHDOT
 62
256
 10
45.011383000000002
 20
-19.450807000000001
 11
28.011382999999999
 21
-19.450807000000001
  0
CIRCLE
  8
0
  6
CONTINUOUS
 62
256
 10
-65.488617000000005
 20
-19.450807000000001
 40
4.000000000000000
  0
CIRCLE
  8
0
  6
CONTINUOUS
 62
256
 10
-65.488617000000005
 20
-19.450807000000001
 40
3.450000000000003
  0
CIRCLE
  8
0
  6
CONTINUOUS
 62
256
 10
36.511383000000002
 20
-19.450807000000001
 40
4.000000000000000
  0
CIRCLE
  8
0
  6
CONTINUOUS
 62
256
 10
36.511383000000002
 20
-19.450807000000001
 40
3.450000000000003
  0
CIRCLE
  8
0
  6
CONTINUOUS
 62
256
 10
36.511383000000002
 20
-83.450806999999998
 40
4.000000000000000
  0
CIRCLE
  8
0
  6
CONTINUOUS
 62
256
 10
36.511383000000002
 20
-83.450806999999998
 40
3.450000000000003
  0
CIRCLE
  8
0
  6
CONTINUOUS
 62
256
 10
-65.488617000000005
 20
-83.450806999999998
 40
4.000000000000000
  0
CIRCLE
  8
0
  6
CONTINUOUS
 62
256
 10
-65.488617000000005
 20
-83.450806999999998
 40
3.450000000000003
  0
ARC
  8
0
  6
CONTINUOUS
 62
256
 10
-16.122548999999999
 20
-85.200806999999998
 40
2.499999999999999
 50
171.247071000000120
 51
270.000000000000000
  0
ARC
  8
0
  6
CONTINUOUS
 62
256
 10
-16.122548999999999
 20
-17.700807000000001
 40
2.500000000000000
 50
90.000000000000000
 51
188.752928999999970
  0
CIRCLE
  8
0
  6
CONTINUOUS
 62
256
 10
4.511383000000000
 20
-51.450806999999998
 40
15.000000000000002
  0
INSERT
  8
0
  2
ZU_SYM_1
 10
25.511624000000001
 20
-15.950500999999999
  0
INSERT
  8
0
  2
ZU_SYM_2
 10
25.511624000000001
 20
-86.951113000000007
  0
INSERT
  8
0
  2
ZU_SYM_3
 10
-54.488858000000000
 20
-86.951113000000007
  0
INSERT
  8
0
  2
ZU_SYM_4
 10
-54.488858000000000
 20
-15.950500999999999
  0
LINE
  8
0
  6
CONTINUOUS
 62
256
 10
-65.006617000000006
 20
-73.745874000000001
 11
-65.006617000000006
 21
-73.719038999999995
  0
LINE
  8
0
  6
CONTINUOUS
 62
256
 10
20.511624000000001
 20
-11.850807000000000
 11
20.111623999999999
 21
-11.450806999999999
  0
LINE
  8
0
  6
CONTINUOUS
 62
256
 10
30.511624000000001
 20
-11.850807000000000
 11
30.911624000000000
 21
-11.450806999999999
  0
LINE
  8
0
  6
CONTINUOUS
 62
256
 10
-49.488858000000000
 20
-11.850807000000000
 11
-49.088858000000002
 21
-11.450806999999999
  0
LINE
  8
0
  6
CONTINUOUS
 62
256
 10
-59.488858000000000
 20
-11.850807000000000
 11
-59.888857999999999
 21
-11.450806999999999
  0
LINE
  8
0
  6
CONTINUOUS
 62
256
 10
-59.488858000000000
 20
-91.050807000000006
 11
-59.888857999999999
 21
-91.450806999999998
  0
LINE
  8
0
  6
CONTINUOUS
 62
256
 10
-49.488858000000000
 20
-91.050807000000006
 11
-49.088858000000002
 21
-91.450806999999998
  0
LINE
  8
0
  6
CONTINUOUS
 62
256
 10
20.511624000000001
 20
-91.050807000000006
 11
20.111623999999999
 21
-91.450806999999998
  0
LINE
  8
0
  6
CONTINUOUS
 62
256
 10
30.511624000000001
 20
-91.050807000000006
 11
30.911624000000000
 21
-91.450806999999998
  0
ARC
  8
0
  6
CONTINUOUS
 62
256
 10
-42.488985000000000
 20
-81.950806999999998
 40
5.749999999999997
 50
202.621327999999920
 51
270.000000000000000
  0
ARC
  8
0
  6
CONTINUOUS
 62
256
 10
-54.488858000000000
 20
-86.951113000000007
 40
7.250000000000001
 50
22.621327999999956
 51
90.198222000000001
  0
ARC
  8
0
  6
CONTINUOUS
 62
256
 10
-54.533833000000001
 20
-73.951190999999994
 40
5.749999999999996
 50
220.930714999999960
 51
270.198221999999990
  0
ARC
  8
0
  6
CONTINUOUS
 62
256
 10
-65.488617000000005
 20
-83.450806999999998
 40
8.750000000000005
 50
40.930715000000028
 51
84.062228000000019
  0
ARC
  8
0
  6
CONTINUOUS
 62
256
 10
-63.988616999999998
 20
-69.028602000000006
 40
5.750000000000007
 50
180.000000000000000
 51
264.062228000000000
  0
ARC
  8
0
  6
CONTINUOUS
 62
256
 10
-63.988616999999998
 20
-39.575105000000001
 40
5.749999999999997
 50
112.024313000000060
 51
180.000000000000000
  0
ARC
  8
0
  6
CONTINUOUS
 62
256
 10
-68.488617000000005
 20
-28.450807000000001
 40
6.249999999999996
 50
292.024313000000010
 51
347.552536999999970
  0
ARC
  8
0
  6
CONTINUOUS
 62
256
 10
-56.770688000000000
 20
-31.037338999999999
 40
5.749999999999999
 50
126.958503999999980
 51
167.552537000000030
  0
ARC
  8
0
  6
CONTINUOUS
 62
256
 10
-65.488617000000005
 20
-19.450807000000001
 40
8.750000000000000
 50
306.958504000000000
 51
319.069284999999980
  0
ARC
  8
0
  6
CONTINUOUS
 62
256
 10
-54.533833000000001
 20
-28.950423000000001
 40
5.749999999999999
 50
89.801778000000013
 51
139.069285000000010
  0
ARC
  8
0
  6
CONTINUOUS
 62
256
 10
-54.488858000000000
 20
-15.950500999999999
 40
7.249999999999999
 50
269.801777999999960
 51
337.378671999999990
  0
ARC
  8
0
  6
CONTINUOUS
 62
256
 10
-42.488985000000000
 20
-20.950807000000001
 40
5.750000000000000
 50
90.000000000000000
 51
157.378672000000020
  0
ARC
  8
0
  6
CONTINUOUS
 62
256
 10
34.511383000000002
 20
-33.812213999999997
 40
6.250000000000000
 50
0.000000000000000
 51
82.071858000000034
  0
ARC
  8
0
  6
CONTINUOUS
 62
256
 10
36.511383000000002
 20
-19.450807000000001
 40
8.250000000000000
 50
220.930714999999990
 51
262.071858000000020
  0
ARC
  8
0
  6
CONTINUOUS
 62
256
 10
25.556598999999999
 20
-28.950423000000001
 40
6.250000000000000
 50
40.930715000000006
 51
90.198221999999987
  0
ARC
  8
0
  6
CONTINUOUS
 62
256
 10
25.511624000000001
 20
-15.950500999999999
 40
6.750000000000000
 50
205.030489999999990
 51
270.198221999999990
  0
ARC
  8
0
  6
CONTINUOUS
 62
256
 10
13.732548000000000
 20
-21.450807000000001
 40
6.250000000000002
 50
25.030490000000004
 51
90.000000000000000
  0
LINE
  8
0
  6
CONTINUOUS
 62
256
 10
-42.709781999999997
 20
-15.200806999999999
 11
13.732548000000000
 21
-15.200806999999999
  0
LINE
  8
0
  6
CONTINUOUS
 62
256
 10
-69.738617000000005
 20
-69.089399999999998
 11
-69.738617000000005
 21
-39.359518999999999
  0
LINE
  8
0
  6
CONTINUOUS
 62
256
 10
13.732548000000000
 20
-87.700806999999998
 11
-42.709781999999997
 21
-87.700806999999998
  0
ARC
  8
0
  6
CONTINUOUS
 62
256
 10
13.732548000000000
 20
-81.450806999999998
 40
6.250000000000000
 50
270.000000000000000
 51
334.969510000000070
  0
ARC
  8
0
  6
CONTINUOUS
 62
256
 10
25.511624000000001
 20
-86.951113000000007
 40
6.749999999999998
 50
89.801777999999999
 51
154.969509999999990
  0
ARC
  8
0
  6
CONTINUOUS
 62
256
 10
25.556598999999999
 20
-73.951190999999994
 40
6.250000000000001
 50
269.801778000000010
 51
319.069284999999920
  0
ARC
  8
0
  6
CONTINUOUS
 62
256
 10
36.511383000000002
 20
-83.450806999999998
 40
8.249999999999995
 50
124.030594000000020
 51
139.069285000000040
  0
ARC
  8
0
  6
CONTINUOUS
 62
256
 10
28.396667999999998
 20
-71.434094000000002
 40
6.249999999999999
 50
304.030594000000010
 51
345.438153000000000
  0
ARC
  8
0
  6
CONTINUOUS
 62
256
 10
40.011189999999999
 20
-74.451192000000006
 40
5.750000000000000
 50
117.278576000000030
 51
165.438153000000000
  0
ARC
  8
0
  6
CONTINUOUS
 62
256
 10
34.511383000000002
 20
-63.785727999999999
 40
6.250000000000004
 50
297.278575999999930
 51
0.000000000000000
  0
LINE
  8
0
  6
CONTINUOUS
 62
256
 10
40.761383000000002
 20
-33.812213999999997
 11
40.761383000000002
 21
-63.785727999999999
  0
LINE
  8
0
  6
CONTINUOUS
 62
256
 10
-59.488858000000000
 20
-91.050807000000006
 11
-59.488858000000000
 21
-86.951113000000007
  0
LINE
  8
0
  6
CONTINUOUS
 62
256
 10
-49.488858000000000
 20
-91.050807000000006
 11
-49.488858000000000
 21
-86.951113000000007
  0
LINE
  8
0
  6
CONTINUOUS
 62
256
 10
20.511624000000001
 20
-91.050807000000006
 11
20.511624000000001
 21
-86.951113000000007
  0
LINE
  8
0
  6
CONTINUOUS
 62
256
 10
30.511624000000001
 20
-91.050807000000006
 11
30.511624000000001
 21
-86.951113000000007
  0
LINE
  8
0
  6
CONTINUOUS
 62
256
 10
30.511624000000001
 20
-15.950500999999999
 11
30.511624000000001
 21
-11.850807000000000
  0
LINE
  8
0
  6
CONTINUOUS
 62
256
 10
20.511624000000001
 20
-15.950500999999999
 11
20.511624000000001
 21
-11.850807000000000
  0
LINE
  8
0
  6
CONTINUOUS
 62
256
 10
-49.488858000000000
 20
-15.950500999999999
 11
-49.488858000000000
 21
-11.850807000000000
  0
LINE
  8
0
  6
CONTINUOUS
 62
256
 10
-59.488858000000000
 20
-15.950500999999999
 11
-59.488858000000000
 21
-11.850807000000000
  0
CIRCLE
  8
0
  6
CONTINUOUS
 62
256
 10
4.511383000000000
 20
-51.450806999999998
 40
30.000000000000000
  0
CIRCLE
  8
0
  6
CONTINUOUS
 62
256
 10
4.511383000000000
 20
-51.450806999999998
 40
28.000000000000000
  0
CIRCLE
  8
0
  6
CONTINUOUS
 62
256
 10
4.511383000000000
 20
-51.450806999999998
 40
21.000000000000000
  0
LINE
  8
0
  6
CONTINUOUS
 62
256
 10
-97.988961000000003
 20
-67.450873999999999
 11
-97.988961000000003
 21
-119.950874000000000
  0
LINE
  8
0
  6
CONTINUOUS
 62
256
 10
-97.988961000000003
 20
-67.450873999999999
 11
-97.988961000000003
 21
-14.950874000000001
  0
LINE
  8
0
  6
CONTINUOUS
 62
256
 10
-97.988961000000003
 20
-13.950874000000001
 11
-97.988961000000003
 21
-67.450873999999999
  0
LINE
  8
0
  6
CONTINUOUS
 62
256
 10
-97.988961000000003
 20
-120.950874000000000
 11
-97.988961000000003
 21
-67.450873999999999
  0
LINE
  8
0
  6
CONTINUOUS
 62
256
 10
-97.988961000000003
 20
-119.942147000000010
 11
-97.988961000000003
 21
-67.450873999999999
  0
LINE
  8
0
  6
CONTINUOUS
 62
256
 10
-97.988961000000003
 20
-14.959602000000000
 11
-97.988961000000003
 21
-67.450873999999999
  0
LINE
  8
0
  6
CONTINUOUS
 62
256
 10
-97.988961000000003
 20
-119.950874000000000
 11
-97.988961000000003
 21
-117.700874000000000
  0
LINE
  8
0
  6
CONTINUOUS
 62
256
 10
-97.988961000000003
 20
-14.950874000000001
 11
-97.988961000000003
 21
-119.950874000000000
  0
LINE
  8
0
  6
CONTINUOUS
 62
256
 10
-97.988961000000003
 20
-14.950874000000001
 11
-97.988961000000003
 21
-119.950874000000000
  0
LINE
  8
0
  6
DASHDOT
 62
256
 10
430.806059000000000
 20
-67.450873999999999
 11
309.583138000000020
 21
-67.450873999999999
  0
LINE
  8
0
  6
DASHDOT
 62
256
 10
371.129320000000010
 20
-158.618427000000000
 11
371.129320000000010
 21
-2.570217000000000
  0
LINE
  8
0
  6
DASHDOT
 62
256
 10
-40.718958999999998
 20
-67.450873999999999
 11
-263.773001000000020
 21
-67.450873999999999
  0
LINE
  8
0
  6
CONTINUOUS
 62
256
 10
-97.988961000000003
 20
-16.400874000000002
 11
-97.988961000000003
 21
-14.950874000000001
  0
LINE
  8
0
  6
CONTINUOUS
 62
256
 10
-97.988961000000003
 20
-14.950874000000001
 11
-97.988961000000003
 21
-17.200873999999999
  0
LINE
  8
0
  6
CONTINUOUS
 62
256
 10
-97.988961000000003
 20
-120.950874000000000
 11
-97.988961000000003
 21
-67.450873999999999
  0
LINE
  8
0
  6
CONTINUOUS
 62
256
 10
-97.988961000000003
 20
-67.450873999999999
 11
-97.988961000000003
 21
-13.950874000000001
  0
LINE
  8
0
  6
CONTINUOUS
 62
256
 10
-97.988961000000003
 20
-13.950874000000001
 11
-181.988960999999990
 21
-13.950874000000001
  0
LINE
  8
0
  6
CONTINUOUS
 62
256
 10
-181.988960999999990
 20
-53.450873999999999
 11
-97.988961000000003
 21
-53.450873999999999
  0
LINE
  8
0
  6
CONTINUOUS
 62
256
 10
-181.988960999999990
 20
-47.822839000000002
 11
-97.988961000000003
 21
-47.822839000000002
  0
LINE
  8
0
  6
CONTINUOUS
 62
256
 10
-181.988960999999990
 20
-49.064759000000002
 11
-97.988961000000003
 21
-49.064759000000002
  0
LINE
  8
0
  6
CONTINUOUS
 62
256
 10
-181.988960999999990
 20
-44.612634000000000
 11
-97.988961000000003
 21
-44.612634000000000
  0
LINE
  8
0
  6
CONTINUOUS
 62
256
 10
-181.988960999999990
 20
-43.266233000000000
 11
-97.988961000000003
 21
-43.266233000000000
  0
LINE
  8
0
  6
CONTINUOUS
 62
256
 10
-181.988960999999990
 20
-40.173501999999999
 11
-97.988961000000003
 21
-40.173501999999999
  0
LINE
  8
0
  6
CONTINUOUS
 62
256
 10
-181.988960999999990
 20
-38.694479000000001
 11
-97.988961000000003
 21
-38.694479000000001
  0
LINE
  8
0
  6
CONTINUOUS
 62
256
 10
-181.988960999999990
 20
-35.736483000000000
 11
-97.988961000000003
 21
-35.736483000000000
  0
LINE
  8
0
  6
CONTINUOUS
 62
256
 10
-181.988960999999990
 20
-34.147272999999998
 11
-97.988961000000003
 21
-34.147272999999998
  0
LINE
  8
0
  6
CONTINUOUS
 62
256
 10
-181.988960999999990
 20
-26.408960000000000
 11
-97.988961000000003
 21
-26.408960000000000
  0
LINE
  8
0
  6
CONTINUOUS
 62
256
 10
-181.988960999999990
 20
-21.317792000000001
 11
-97.988961000000003
 21
-21.317792000000001
  0
LINE
  8
0
  6
CONTINUOUS
 62
256
 10
-181.988960999999990
 20
-16.950873999999999
 11
-97.988961000000003
 21
-16.950873999999999
  0
LINE
  8
0
  6
CONTINUOUS
 62
256
 10
-181.988960999999990
 20
-16.450873999999999
 11
-97.988961000000003
 21
-16.450873999999999
  0
LINE
  8
0
  6
CONTINUOUS
 62
256
 10
-181.988960999999990
 20
-8.450874000000001
 11
-237.493806000000010
 21
-8.450874000000001
  0
LINE
  8
0
  6
CONTINUOUS
 62
256
 10
-249.309480000000010
 20
-12.176342000000000
 11
-256.880259000000020
 21
-17.477459000000000
  0
LINE
  8
0
  6
CONTINUOUS
 62
256
 10
-257.988961000000020
 20
-19.607254000000001
 11
-257.988961000000020
 21
-67.450873999999999
  0
ARC
  8
0
  6
CONTINUOUS
 62
256
 10
-255.388960999999990
 20
-19.607254000000001
 40
2.600000000000004
 50
125.000000000000090
 51
180.000000000000000
  0
ARC
  8
0
  6
CONTINUOUS
 62
256
 10
-237.493806000000010
 20
-29.050874000000000
 40
20.600000000000001
 50
90.000000000000000
 51
124.999999999999990
  0
LINE
  8
0
  6
CONTINUOUS
 62
256
 10
-181.988960999999990
 20
-8.450874000000001
 11
-181.988960999999990
 21
-67.450873999999999
  0
LINE
  8
0
  6
CONTINUOUS
 62
256
 10
-192.988960999999990
 20
-18.306953000000000
 11
-194.988960999999990
 21
-19.959595000000000
  0
LINE
  8
0
  6
CONTINUOUS
 62
256
 10
-190.988960999999990
 20
-17.131167999999999
 11
-192.988960999999990
 21
-18.306953000000000
  0
LINE
  8
0
  6
CONTINUOUS
 62
256
 10
-192.988960999999990
 20
-18.306953000000000
 11
-190.988960999999990
 21
-19.959595000000000
  0
LINE
  8
0
  6
CONTINUOUS
 62
256
 10
-194.988960999999990
 20
-17.131167999999999
 11
-192.988960999999990
 21
-18.306953000000000
  0
POLYLINE
  8
0
  6
CONTINUOUS
 62
256
 66
1
 70
1
  0
VERTEX
  8
0
  6
CONTINUOUS
 62
256
 10
-188.288961000000000
 20
-20.123543000000002
  0
VERTEX
  8
0
  6
CONTINUOUS
 62
256
 10
-188.379270182104820
 20
-19.420586489441835
  0
VERTEX
  8
0
  6
CONTINUOUS
 62
256
 10
-188.646727197196950
 20
-18.744644203361862
  0
VERTEX
  8
0
  6
CONTINUOUS
 62
256
 10
-189.081053822178030
 20
-18.121692224741341
  0
VERTEX
  8
0
  6
CONTINUOUS
 62
256
 10
-189.665559128423210
 20
-17.575670248763160
  0
VERTEX
  8
0
  6
CONTINUOUS
 62
256
 10
-190.377780904807880
 20
-17.127561593751512
  0
VERTEX
  8
0
  6
CONTINUOUS
 62
256
 10
-191.190348867884070
 20
-16.794586824016264
  0
VERTEX
  8
0
  6
CONTINUOUS
 62
256
 10
-192.072036486524180
 20
-16.589541973223941
  0
VERTEX
  8
0
  6
CONTINUOUS
 62
256
 10
-192.988960999999990
 20
-16.520306800000011
  0
VERTEX
  8
0
  6
CONTINUOUS
 62
256
 10
-193.905885513475790
 20
-16.589541973223941
  0
VERTEX
  8
0
  6
CONTINUOUS
 62
256
 10
-194.787573132115910
 20
-16.794586824016264
  0
VERTEX
  8
0
  6
CONTINUOUS
 62
256
 10
-195.600141095192100
 20
-17.127561593751512
  0
VERTEX
  8
0
  6
CONTINUOUS
 62
256
 10
-196.312362871576770
 20
-17.575670248763160
  0
VERTEX
  8
0
  6
CONTINUOUS
 62
256
 10
-196.896868177821940
 20
-18.121692224741341
  0
VERTEX
  8
0
  6
CONTINUOUS
 62
256
 10
-197.331194802803030
 20
-18.744644203361862
  0
VERTEX
  8
0
  6
CONTINUOUS
 62
256
 10
-197.598651817895160
 20
-19.420586489441831
  0
VERTEX
  8
0
  6
CONTINUOUS
 62
256
 10
-197.688960999999980
 20
-20.123543000000002
  0
VERTEX
  8
0
  6
CONTINUOUS
 62
256
 10
-197.598651817895160
 20
-20.826499510558168
  0
VERTEX
  8
0
  6
CONTINUOUS
 62
256
 10
-197.331194802803030
 20
-21.502441796638138
  0
VERTEX
  8
0
  6
CONTINUOUS
 62
256
 10
-196.896868177821940
 20
-22.125393775258662
  0
VERTEX
  8
0
  6
CONTINUOUS
 62
256
 10
-196.312362871576770
 20
-22.671415751236839
  0
VERTEX
  8
0
  6
CONTINUOUS
 62
256
 10
-195.600141095192100
 20
-23.119524406248487
  0
VERTEX
  8
0
  6
CONTINUOUS
 62
256
 10
-194.787573132115910
 20
-23.452499175983736
  0
VERTEX
  8
0
  6
CONTINUOUS
 62
256
 10
-193.905885513475790
 20
-23.657544026776062
  0
VERTEX
  8
0
  6
CONTINUOUS
 62
256
 10
-192.988960999999990
 20
-23.726779199999989
  0
VERTEX
  8
0
  6
CONTINUOUS
 62
256
 10
-192.072036486524180
 20
-23.657544026776062
  0
VERTEX
  8
0
  6
CONTINUOUS
 62
256
 10
-191.190348867884070
 20
-23.452499175983739
  0
VERTEX
  8
0
  6
CONTINUOUS
 62
256
 10
-190.377780904807880
 20
-23.119524406248491
  0
VERTEX
  8
0
  6
CONTINUOUS
 62
256
 10
-189.665559128423240
 20
-22.671415751236843
  0
VERTEX
  8
0
  6
CONTINUOUS
 62
256
 10
-189.081053822178030
 20
-22.125393775258662
  0
VERTEX
  8
0
  6
CONTINUOUS
 62
256
 10
-188.646727197196950
 20
-21.502441796638141
  0
VERTEX
  8
0
  6
CONTINUOUS
 62
256
 10
-188.379270182104820
 20
-20.826499510558172
  0
SEQEND
  8
0
  6
CONTINUOUS
 62
256
  0
LINE
  8
0
  6
CONTINUOUS
 62
256
 10
-114.788961000000000
 20
-158.950874000000000
 11
-114.788961000000000
 21
-159.450874000000000
  0
LINE
  8
0
  6
CONTINUOUS
 62
256
 10
-181.988960999999990
 20
-100.754475000000000
 11
-97.988961000000003
 21
-100.754475000000000
  0
LINE
  8
0
  6
CONTINUOUS
 62
256
 10
-181.988960999999990
 20
-99.165265000000005
 11
-97.988961000000003
 21
-99.165265000000005
  0
LINE
  8
0
  6
CONTINUOUS
 62
256
 10
-181.988960999999990
 20
-96.207269999999994
 11
-97.988961000000003
 21
-96.207269999999994
  0
LINE
  8
0
  6
CONTINUOUS
 62
256
 10
-181.988960999999990
 20
-94.728245999999999
 11
-97.988961000000003
 21
-94.728245999999999
  0
LINE
  8
0
  6
CONTINUOUS
 62
256
 10
-181.988960999999990
 20
-91.635515999999996
 11
-97.988961000000003
 21
-91.635515999999996
  0
LINE
  8
0
  6
CONTINUOUS
 62
256
 10
-181.988960999999990
 20
-90.289113999999998
 11
-97.988961000000003
 21
-90.289113999999998
  0
LINE
  8
0
  6
CONTINUOUS
 62
256
 10
-181.988960999999990
 20
-87.078908999999996
 11
-97.988961000000003
 21
-87.078908999999996
  0
LINE
  8
0
  6
CONTINUOUS
 62
256
 10
-189.788961000000000
 20
-121.899204000000000
 11
-189.788961000000000
 21
-138.950874000000000
  0
LINE
  8
0
  6
CONTINUOUS
 62
256
 10
-191.988960999999990
 20
-126.450874000000000
 11
-191.988960999999990
 21
-124.790570000000000
  0
LINE
  8
0
  6
CONTINUOUS
 62
256
 10
-191.988960999999990
 20
-126.450874000000000
 11
-237.493806000000010
 21
-126.450874000000000
  0
ARC
  8
0
  6
CONTINUOUS
 62
256
 10
-188.988960999999990
 20
-124.790570000000000
 40
3.000000000000000
 50
90.000000000000000
 51
180.000000000000000
  0
LINE
  8
0
  6
CONTINUOUS
 62
256
 10
-188.988960999999990
 20
-121.790570000000000
 11
-184.988960999999990
 21
-121.790570000000000
  0
ARC
  8
0
  6
CONTINUOUS
 62
256
 10
-184.988960999999990
 20
-118.790570000000000
 40
3.000000000000000
 50
270.000000000000000
 51
0.000000000000000
  0
LINE
  8
0
  6
CONTINUOUS
 62
256
 10
-181.988960999999990
 20
-118.790570000000000
 11
-181.988960999999990
 21
-67.450873999999999
  0
LINE
  8
0
  6
CONTINUOUS
 62
256
 10
-192.988960999999990
 20
-116.594795000000000
 11
-194.988960999999990
 21
-114.942153000000000
  0
LINE
  8
0
  6
CONTINUOUS
 62
256
 10
-190.988960999999990
 20
-117.770581000000010
 11
-192.988960999999990
 21
-116.594795000000000
  0
LINE
  8
0
  6
CONTINUOUS
 62
256
 10
-192.988960999999990
 20
-116.594795000000000
 11
-190.988960999999990
 21
-114.942153000000000
  0
LINE
  8
0
  6
CONTINUOUS
 62
256
 10
-194.988960999999990
 20
-117.770581000000010
 11
-192.988960999999990
 21
-116.594795000000000
  0
POLYLINE
  8
0
  6
CONTINUOUS
 62
256
 66
1
 70
1
  0
VERTEX
  8
0
  6
CONTINUOUS
 62
256
 10
-188.288961000000000
 20
-114.778205000000000
  0
VERTEX
  8
0
  6
CONTINUOUS
 62
256
 10
-188.379270182104820
 20
-114.075248489441830
  0
VERTEX
  8
0
  6
CONTINUOUS
 62
256
 10
-188.646727197196950
 20
-113.399306203361860
  0
VERTEX
  8
0
  6
CONTINUOUS
 62
256
 10
-189.081053822178030
 20
-112.776354224741340
  0
VERTEX
  8
0
  6
CONTINUOUS
 62
256
 10
-189.665559128423210
 20
-112.230332248763150
  0
VERTEX
  8
0
  6
CONTINUOUS
 62
256
 10
-190.377780904807880
 20
-111.782223593751510
  0
VERTEX
  8
0
  6
CONTINUOUS
 62
256
 10
-191.190348867884070
 20
-111.449248824016250
  0
VERTEX
  8
0
  6
CONTINUOUS
 62
256
 10
-192.072036486524180
 20
-111.244203973223930
  0
VERTEX
  8
0
  6
CONTINUOUS
 62
256
 10
-192.988960999999990
 20
-111.174968800000000
  0
VERTEX
  8
0
  6
CONTINUOUS
 62
256
 10
-193.905885513475790
 20
-111.244203973223930
  0
VERTEX
  8
0
  6
CONTINUOUS
 62
256
 10
-194.787573132115910
 20
-111.449248824016250
  0
VERTEX
  8
0
  6
CONTINUOUS
 62
256
 10
-195.600141095192100
 20
-111.782223593751510
  0
VERTEX
  8
0
  6
CONTINUOUS
 62
256
 10
-196.312362871576770
 20
-112.230332248763150
  0
VERTEX
  8
0
  6
CONTINUOUS
 62
256
 10
-196.896868177821940
 20
-112.776354224741340
  0
VERTEX
  8
0
  6
CONTINUOUS
 62
256
 10
-197.331194802803030
 20
-113.399306203361860
  0
VERTEX
  8
0
  6
CONTINUOUS
 62
256
 10
-197.598651817895160
 20
-114.075248489441830
  0
VERTEX
  8
0
  6
CONTINUOUS
 62
256
 10
-197.688960999999980
 20
-114.778205000000000
  0
VERTEX
  8
0
  6
CONTINUOUS
 62
256
 10
-197.598651817895160
 20
-115.481161510558170
  0
VERTEX
  8
0
  6
CONTINUOUS
 62
256
 10
-197.331194802803030
 20
-116.157103796638140
  0
VERTEX
  8
0
  6
CONTINUOUS
 62
256
 10
-196.896868177821940
 20
-116.780055775258660
  0
VERTEX
  8
0
  6
CONTINUOUS
 62
256
 10
-196.312362871576770
 20
-117.326077751236840
  0
VERTEX
  8
0
  6
CONTINUOUS
 62
256
 10
-195.600141095192100
 20
-117.774186406248490
  0
VERTEX
  8
0
  6
CONTINUOUS
 62
256
 10
-194.787573132115910
 20
-118.107161175983750
  0
VERTEX
  8
0
  6
CONTINUOUS
 62
256
 10
-193.905885513475790
 20
-118.312206026776070
  0
VERTEX
  8
0
  6
CONTINUOUS
 62
256
 10
-192.988960999999990
 20
-118.381441200000000
  0
VERTEX
  8
0
  6
CONTINUOUS
 62
256
 10
-192.072036486524180
 20
-118.312206026776070
  0
VERTEX
  8
0
  6
CONTINUOUS
 62
256
 10
-191.190348867884070
 20
-118.107161175983750
  0
VERTEX
  8
0
  6
CONTINUOUS
 62
256
 10
-190.377780904807880
 20
-117.774186406248490
  0
VERTEX
  8
0
  6
CONTINUOUS
 62
256
 10
-189.665559128423240
 20
-117.326077751236850
  0
VERTEX
  8
0
  6
CONTINUOUS
 62
256
 10
-189.081053822178030
 20
-116.780055775258660
  0
VERTEX
  8
0
  6
CONTINUOUS
 62
256
 10
-188.646727197196950
 20
-116.157103796638140
  0
VERTEX
  8
0
  6
CONTINUOUS
 62
256
 10
-188.379270182104820
 20
-115.481161510558170
  0
SEQEND
  8
0
  6
CONTINUOUS
 62
256
  0
LINE
  8
0
  6
CONTINUOUS
 62
256
 10
-99.788961000000000
 20
-119.950874000000000
 11
-181.988960999999990
 21
-119.950874000000000
  0
LINE
  8
0
  6
CONTINUOUS
 62
256
 10
-182.788961000000000
 20
-158.950874000000000
 11
-182.788961000000000
 21
-159.450874000000000
  0
LINE
  8
0
  6
CONTINUOUS
 62
256
 10
-174.788961000000000
 20
-158.950874000000000
 11
-174.788961000000000
 21
-159.450874000000000
  0
LINE
  8
0
  6
CONTINUOUS
 62
256
 10
-182.788961000000000
 20
-159.450874000000000
 11
-174.788961000000000
 21
-159.450874000000000
  0
ARC
  8
0
  6
CONTINUOUS
 62
256
 10
-188.788961000000000
 20
-157.950874000000000
 40
1.000000000000000
 50
180.000000000000000
 51
270.000000000000000
  0
LINE
  8
0
  6
CONTINUOUS
 62
256
 10
-188.788961000000000
 20
-158.950874000000000
 11
-100.788961000000000
 21
-158.950874000000000
  0
LINE
  8
0
  6
CONTINUOUS
 62
256
 10
-181.988960999999990
 20
-118.450874000000000
 11
-97.988961000000003
 21
-118.450874000000000
  0
LINE
  8
0
  6
CONTINUOUS
 62
256
 10
-181.988960999999990
 20
-117.950874000000000
 11
-97.988961000000003
 21
-117.950874000000000
  0
LINE
  8
0
  6
CONTINUOUS
 62
256
 10
-181.988960999999990
 20
-113.583957000000000
 11
-97.988961000000003
 21
-113.583957000000000
  0
LINE
  8
0
  6
CONTINUOUS
 62
256
 10
-181.988960999999990
 20
-108.492788000000000
 11
-97.988961000000003
 21
-108.492788000000000
  0
LINE
  8
0
  6
CONTINUOUS
 62
256
 10
-257.988961000000020
 20
-115.294494000000000
 11
-257.988961000000020
 21
-67.450873999999999
  0
LINE
  8
0
  6
CONTINUOUS
 62
256
 10
-249.309480000000010
 20
-122.725406000000010
 11
-256.880259000000020
 21
-117.424290000000000
  0
ARC
  8
0
  6
CONTINUOUS
 62
256
 10
-255.388960999999990
 20
-115.294494000000000
 40
2.600000000000023
 50
180.000000000000000
 51
234.999999999999940
  0
ARC
  8
0
  6
CONTINUOUS
 62
256
 10
-237.493806000000010
 20
-105.850874000000000
 40
20.600000000000005
 50
234.999999999999940
 51
270.000000000000000
  0
LINE
  8
0
  6
CONTINUOUS
 62
256
 10
-189.788961000000000
 20
-150.950874000000000
 11
-189.788961000000000
 21
-157.950874000000000
  0
LINE
  8
0
  6
CONTINUOUS
 62
256
 10
-189.788961000000000
 20
-138.950874000000000
 11
-189.788961000000000
 21
-150.950874000000000
  0
LINE
  8
0
  6
CONTINUOUS
 62
256
 10
-189.788961000000000
 20
-124.950874000000000
 11
-99.788961000000000
 21
-124.950874000000000
  0
LINE
  8
0
  6
CONTINUOUS
 62
256
 10
-106.788961000000000
 20
-158.950874000000000
 11
-106.788961000000000
 21
-159.450874000000000
  0
LINE
  8
0
  6
CONTINUOUS
 62
256
 10
-114.788961000000000
 20
-159.450874000000000
 11
-106.788961000000000
 21
-159.450874000000000
  0
LINE
  8
0
  6
CONTINUOUS
 62
256
 10
-181.988960999999990
 20
-85.836989000000003
 11
-97.988961000000003
 21
-85.836989000000003
  0
LINE
  8
0
  6
CONTINUOUS
 62
256
 10
-181.988960999999990
 20
-81.450873999999999
 11
-97.988961000000003
 21
-81.450873999999999
  0
ARC
  8
0
  6
CONTINUOUS
 62
256
 10
-100.788961000000000
 20
-157.950874000000000
 40
1.000000000000000
 50
270.000000000000000
 51
0.000000000000000
  0
LINE
  8
0
  6
CONTINUOUS
 62
256
 10
-99.788961000000000
 20
-119.950874000000000
 11
-99.788961000000000
 21
-157.950874000000000
  0
LINE
  8
0
  6
CONTINUOUS
 62
256
 10
-97.988961000000003
 20
-120.950874000000000
 11
-99.788961000000000
 21
-120.950874000000000
  0
LINE
  8
0
  6
DASHDOT
 62
256
 10
88.581076999999993
 20
-51.450806999999998
 11
125.881077000000000
 21
-51.450806999999998
  0
LINE
  8
0
  6
DASHDOT
 62
256
 10
107.231077000000000
 20
-70.100807000000003
 11
107.231077000000000
 21
-32.800806999999999
  0
LINE
  8
0
  6
CONTINUOUS
 62
256
 10
104.231077000000000
 20
-38.650807000000000
 11
104.231077000000000
 21
-41.911414999999998
  0
LINE
  8
0
  6
CONTINUOUS
 62
256
 10
104.231077000000000
 20
-38.650807000000000
 11
110.231077000000000
 21
-38.650807000000000
  0
ARC
  8
0
  6
CONTINUOUS
 62
256
 10
107.231077000000000
 20
-51.450806999999998
 40
9.999999999999996
 50
107.457603000000010
 51
72.542396999999994
  0
LINE
  8
0
  6
CONTINUOUS
 62
256
 10
110.231077000000000
 20
-38.650807000000000
 11
110.231077000000000
 21
-41.911414999999998
  0
LINE
  8
0
  6
CONTINUOUS
 62
256
 10
208.349087999999990
 20
-41.250807000000002
 11
208.349087999999990
 21
-61.650807000000000
  0
LINE
  8
0
  6
CONTINUOUS
 62
256
 10
208.349087999999990
 20
-61.650807000000000
 11
243.349087999999990
 21
-61.650807000000000
  0
LINE
  8
0
  6
CONTINUOUS
 62
256
 10
208.349087999999990
 20
-41.250807000000002
 11
243.349087999999990
 21
-41.250807000000002
  0
LINE
  8
0
  6
CONTINUOUS
 62
256
 10
273.349087999999990
 20
-37.550806999999999
 11
273.349087999999990
 21
-65.350807000000003
  0
ARC
  8
0
  6
CONTINUOUS
 62
256
 10
272.349087999999990
 20
-37.550806999999999
 40
1.000000000000000
 50
0.000000000000000
 51
90.000000000000000
  0
LINE
  8
0
  6
CONTINUOUS
 62
256
 10
178.349087999999990
 20
-37.550806999999999
 11
178.349087999999990
 21
-65.350807000000003
  0
ARC
  8
0
  6
CONTINUOUS
 62
256
 10
179.349087999999990
 20
-37.550806999999999
 40
1.000000000000000
 50
90.000000000000000
 51
180.000000000000000
  0
LINE
  8
0
  6
CONTINUOUS
 62
256
 10
269.884986000000030
 20
-61.450806999999998
 11
269.884986000000030
 21
-41.450806999999998
  0
LINE
  8
0
  6
CONTINUOUS
 62
256
 10
181.813188999999990
 20
-61.450806999999998
 11
181.813188999999990
 21
-41.450806999999998
  0
LINE
  8
0
  6
CONTINUOUS
 62
256
 10
243.349087999999990
 20
-41.250807000000002
 11
243.349087999999990
 21
-61.650807000000000
  0
LINE
  8
0
  6
CONTINUOUS
 62
256
 10
258.499087999999970
 20
-40.950806999999998
 11
258.499087999999970
 21
-61.950806999999998
  0
LINE
  8
0
  6
CONTINUOUS
 62
256
 10
257.349087999999990
 20
-40.950806999999998
 11
257.349087999999990
 21
-61.950806999999998
  0
LINE
  8
0
  6
CONTINUOUS
 62
256
 10
194.349087999999990
 20
-40.950806999999998
 11
194.349087999999990
 21
-61.950806999999998
  0
LINE
  8
0
  6
CONTINUOUS
 62
256
 10
193.199087999999990
 20
-40.950806999999998
 11
193.199087999999990
 21
-61.950806999999998
  0
ARC
  8
0
  6
CONTINUOUS
 62
256
 10
205.749088000000000
 20
-34.350807000000003
 40
0.399999999999999
 50
90.000000000000000
 51
180.000000000000000
  0
LINE
  8
0
  6
CONTINUOUS
 62
256
 10
205.749088000000000
 20
-33.950806999999998
 11
231.949087999999990
 21
-33.950806999999998
  0
LINE
  8
0
  6
CONTINUOUS
 62
256
 10
205.349087999999990
 20
-36.050806999999999
 11
205.349087999999990
 21
-34.350807000000003
  0
ARC
  8
0
  6
CONTINUOUS
 62
256
 10
231.949087999999990
 20
-34.350807000000003
 40
0.400000000000006
 50
0.000000000000000
 51
90.000000000000000
  0
LINE
  8
0
  6
CONTINUOUS
 62
256
 10
232.349087999999990
 20
-34.350807000000003
 11
232.349087999999990
 21
-35.300806999999999
  0
ARC
  8
0
  6
CONTINUOUS
 62
256
 10
242.949087999999990
 20
-36.100807000000003
 40
0.400000000000006
 50
0.000000000000000
 51
90.000000000000000
  0
LINE
  8
0
  6
CONTINUOUS
 62
256
 10
242.949087999999990
 20
-35.700806999999998
 11
232.749088000000000
 21
-35.700806999999998
  0
ARC
  8
0
  6
CONTINUOUS
 62
256
 10
232.749088000000000
 20
-35.300806999999999
 40
0.400000000000006
 50
180.000000000000000
 51
270.000000000000000
  0
LINE
  8
0
  6
CONTINUOUS
 62
256
 10
193.349087999999990
 20
-36.450806999999998
 11
193.349087999999990
 21
-36.550806999999999
  0
LINE
  8
0
  6
CONTINUOUS
 62
256
 10
193.349087999999990
 20
-36.550806999999999
 11
179.349087999999990
 21
-36.550806999999999
  0
LINE
  8
0
  6
CONTINUOUS
 62
256
 10
258.349087999999990
 20
-36.550806999999999
 11
258.349087999999990
 21
-36.450806999999998
  0
LINE
  8
0
  6
CONTINUOUS
 62
256
 10
272.349087999999990
 20
-36.550806999999999
 11
258.349087999999990
 21
-36.550806999999999
  0
LINE
  8
0
  6
CONTINUOUS
 62
256
 10
243.349087999999990
 20
-36.100807000000003
 11
243.349087999999990
 21
-36.450806999999998
  0
LINE
  8
0
  6
CONTINUOUS
 62
256
 10
258.349087999999990
 20
-36.450806999999998
 11
243.349087999999990
 21
-36.450806999999998
  0
LINE
  8
0
  6
CONTINUOUS
 62
256
 10
193.199087999999990
 20
-41.450806999999998
 11
181.813188999999990
 21
-41.450806999999998
  0
LINE
  8
0
  6
CONTINUOUS
 62
256
 10
208.349087999999990
 20
-41.450806999999998
 11
194.349087999999990
 21
-41.450806999999998
  0
ARC
  8
0
  6
CONTINUOUS
 62
256
 10
204.949087999999990
 20
-36.050806999999999
 40
0.399999999999999
 50
270.000000000000000
 51
0.000000000000000
  0
LINE
  8
0
  6
CONTINUOUS
 62
256
 10
193.349087999999990
 20
-36.450806999999998
 11
204.949087999999990
 21
-36.450806999999998
  0
LINE
  8
0
  6
CONTINUOUS
 62
256
 10
243.349087999999990
 20
-41.450806999999998
 11
257.349087999999990
 21
-41.450806999999998
  0
LINE
  8
0
  6
CONTINUOUS
 62
256
 10
258.499087999999970
 20
-41.450806999999998
 11
269.884986000000030
 21
-41.450806999999998
  0
LINE
  8
0
  6
CONTINUOUS
 62
256
 10
178.349087999999990
 20
-38.650807000000000
 11
273.349087999999990
 21
-38.650807000000000
  0
LINE
  8
0
  6
CONTINUOUS
 62
256
 10
273.349087999999990
 20
-39.450806999999998
 11
269.884986000000030
 21
-41.450806999999998
  0
LINE
  8
0
  6
CONTINUOUS
 62
256
 10
178.349087999999990
 20
-39.450806999999998
 11
181.813188999999990
 21
-41.450806999999998
  0
LINE
  8
0
  6
CONTINUOUS
 62
256
 10
257.349087999999990
 20
-40.950806999999998
 11
258.499087999999970
 21
-40.950806999999998
  0
LINE
  8
0
  6
CONTINUOUS
 62
256
 10
194.349087999999990
 20
-40.950806999999998
 11
193.199087999999990
 21
-40.950806999999998
  0
ARC
  8
0
  6
CONTINUOUS
 62
256
 10
205.749088000000000
 20
-68.550807000000006
 40
0.400000000000006
 50
180.000000000000000
 51
270.000000000000000
  0
LINE
  8
0
  6
CONTINUOUS
 62
256
 10
205.749088000000000
 20
-68.950806999999998
 11
231.949087999999990
 21
-68.950806999999998
  0
LINE
  8
0
  6
CONTINUOUS
 62
256
 10
205.349087999999990
 20
-66.850807000000003
 11
205.349087999999990
 21
-68.550807000000006
  0
ARC
  8
0
  6
CONTINUOUS
 62
256
 10
231.949087999999990
 20
-68.550807000000006
 40
0.400000000000006
 50
270.000000000000000
 51
0.000000000000000
  0
LINE
  8
0
  6
DASHDOT
 62
256
 10
276.349087999999990
 20
-51.450806999999998
 11
173.241511000000000
 21
-51.450806999999998
  0
LINE
  8
0
  6
CONTINUOUS
 62
256
 10
232.349087999999990
 20
-68.550807000000006
 11
232.349087999999990
 21
-67.600807000000003
  0
ARC
  8
0
  6
CONTINUOUS
 62
256
 10
242.949087999999990
 20
-66.800807000000006
 40
0.400000000000006
 50
270.000000000000000
 51
0.000000000000000
  0
LINE
  8
0
  6
CONTINUOUS
 62
256
 10
242.949087999999990
 20
-67.200806999999998
 11
232.749088000000000
 21
-67.200806999999998
  0
ARC
  8
0
  6
CONTINUOUS
 62
256
 10
232.749088000000000
 20
-67.600807000000003
 40
0.400000000000006
 50
90.000000000000000
 51
180.000000000000000
  0
ARC
  8
0
  6
CONTINUOUS
 62
256
 10
179.349087999999990
 20
-65.350807000000003
 40
1.000000000000000
 50
180.000000000000000
 51
270.000000000000000
  0
LINE
  8
0
  6
CONTINUOUS
 62
256
 10
193.349087999999990
 20
-66.450806999999998
 11
193.349087999999990
 21
-66.350807000000003
  0
LINE
  8
0
  6
CONTINUOUS
 62
256
 10
193.349087999999990
 20
-66.350807000000003
 11
179.349087999999990
 21
-66.350807000000003
  0
ARC
  8
0
  6
CONTINUOUS
 62
256
 10
272.349087999999990
 20
-65.350807000000003
 40
1.000000000000000
 50
270.000000000000000
 51
0.000000000000000
  0
LINE
  8
0
  6
CONTINUOUS
 62
256
 10
258.349087999999990
 20
-66.350807000000003
 11
258.349087999999990
 21
-66.450806999999998
  0
LINE
  8
0
  6
CONTINUOUS
 62
256
 10
272.349087999999990
 20
-66.350807000000003
 11
258.349087999999990
 21
-66.350807000000003
  0
LINE
  8
0
  6
CONTINUOUS
 62
256
 10
243.349087999999990
 20
-66.800807000000006
 11
243.349087999999990
 21
-66.450806999999998
  0
LINE
  8
0
  6
CONTINUOUS
 62
256
 10
258.349087999999990
 20
-66.450806999999998
 11
243.349087999999990
 21
-66.450806999999998
  0
LINE
  8
0
  6
CONTINUOUS
 62
256
 10
193.199087999999990
 20
-61.450806999999998
 11
181.813188999999990
 21
-61.450806999999998
  0
LINE
  8
0
  6
CONTINUOUS
 62
256
 10
208.349087999999990
 20
-61.450806999999998
 11
194.349087999999990
 21
-61.450806999999998
  0
ARC
  8
0
  6
CONTINUOUS
 62
256
 10
204.949087999999990
 20
-66.850807000000003
 40
0.400000000000006
 50
0.000000000000000
 51
90.000000000000000
  0
LINE
  8
0
  6
CONTINUOUS
 62
256
 10
193.349087999999990
 20
-66.450806999999998
 11
204.949087999999990
 21
-66.450806999999998
  0
LINE
  8
0
  6
CONTINUOUS
 62
256
 10
243.349087999999990
 20
-61.450806999999998
 11
257.349087999999990
 21
-61.450806999999998
  0
LINE
  8
0
  6
CONTINUOUS
 62
256
 10
258.499087999999970
 20
-61.450806999999998
 11
269.884986000000030
 21
-61.450806999999998
  0
LINE
  8
0
  6
CONTINUOUS
 62
256
 10
273.349087999999990
 20
-63.450806999999998
 11
269.884986000000030
 21
-61.450806999999998
  0
LINE
  8
0
  6
CONTINUOUS
 62
256
 10
178.349087999999990
 20
-63.450806999999998
 11
181.813188999999990
 21
-61.450806999999998
  0
LINE
  8
0
  6
CONTINUOUS
 62
256
 10
257.349087999999990
 20
-61.950806999999998
 11
258.499087999999970
 21
-61.950806999999998
  0
LINE
  8
0
  6
CONTINUOUS
 62
256
 10
194.349087999999990
 20
-61.950806999999998
 11
193.199087999999990
 21
-61.950806999999998
  0
CIRCLE
  8
0
  6
CONTINUOUS
 62
256
 10
107.231077000000000
 20
-51.450806999999998
 40
14.900000000000006
  0
LINE
  8
0
  6
CONTINUOUS
 62
256
 10
341.129320000000010
 20
-124.950874000000000
 11
401.129320000000010
 21
-124.950874000000000
  0
LINE
  8
0
  6
CONTINUOUS
 62
256
 10
-190.222642000000010
 20
-138.950874000000000
 11
-189.371661999999990
 21
-138.950874000000000
  0
LINE
  8
0
  6
CONTINUOUS
 62
256
 10
-190.185713999999990
 20
-150.950874000000000
 11
-189.314798999999990
 21
-150.950874000000000
  0
ARC
  8
0
  6
CONTINUOUS
 62
256
 10
-404.729157999999980
 20
-104.440941000000000
 40
10.797000000000006
 50
224.999999999999940
 51
264.247716999999970
  0
ARC
  8
0
  6
CONTINUOUS
 62
256
 10
-404.729157999999980
 20
-30.460806999999999
 40
10.796999999999999
 50
95.752283000000034
 51
135.000000000000060
  0
ARC
  8
0
  6
CONTINUOUS
 62
256
 10
-348.601645000000020
 20
-30.460806999999999
 40
10.797000000000008
 50
44.999999999999964
 51
84.247716999999980
  0
ARC
  8
0
  6
CONTINUOUS
 62
256
 10
-348.601645000000020
 20
-104.440941000000000
 40
10.797000000000002
 50
275.752282999999980
 51
315.000000000000060
  0
ARC
  8
0
  6
CONTINUOUS
 62
256
 10
-348.601645000000020
 20
-30.460806999999999
 40
20.599999999999994
 50
45.000000000000014
 51
84.247716999999938
  0
ARC
  8
0
  6
CONTINUOUS
 62
256
 10
-404.729157999999980
 20
-30.460806999999999
 40
20.600000000000005
 50
95.752283000000077
 51
135.000000000000000
  0
ARC
  8
0
  6
CONTINUOUS
 62
256
 10
-404.729157999999980
 20
-104.440941000000000
 40
20.599999999999991
 50
225.000000000000000
 51
264.247716999999910
  0
ARC
  8
0
  6
CONTINUOUS
 62
256
 10
-348.601645000000020
 20
-104.440941000000000
 40
20.600000000000001
 50
275.752282999999860
 51
314.999999999999940
  0
LINE
  8
0
  6
CONTINUOUS
 62
256
 10
-346.672902000000020
 20
-124.950874000000000
 11
-340.665400999999970
 21
-124.950874000000000
  0
LINE
  8
0
  6
CONTINUOUS
 62
256
 10
-412.665400999999970
 20
-124.950874000000000
 11
-406.653387000000010
 21
-124.950874000000000
  0
LINE
  8
0
  6
CONTINUOUS
 62
256
 10
-334.035244999999970
 20
-119.007341000000000
 11
-326.576550000000000
 21
-111.548646000000010
  0
LINE
  8
0
  6
DASHDOT
 62
256
 10
-376.665400999999970
 20
0.692741000000000
 11
-376.665400999999970
 21
-166.824856000000010
  0
LINE
  8
0
  6
DASHDOT
 62
256
 10
-438.389131000000020
 20
-67.450873999999999
 11
-313.171172000000010
 21
-67.450873999999999
  0
ARC
  8
0
  6
CONTINUOUS
 62
256
 10
-376.665400999999970
 20
174.149126000000000
 40
300.600000000000020
 50
270.000000000000000
 51
275.752282999999980
  0
ARC
  8
0
  6
CONTINUOUS
 62
256
 10
-723.265401000000000
 20
-67.450873999999999
 40
400.600000000000020
 50
354.256318000000020
 51
0.000000000000000
  0
ARC
  8
0
  6
CONTINUOUS
 62
256
 10
-331.243454999999980
 20
-106.881741000000010
 40
6.600000000000017
 50
315.000000000000170
 51
354.256318000000020
  0
ARC
  8
0
  6
CONTINUOUS
 62
256
 10
-422.087348000000020
 20
-106.881741000000010
 40
6.599999999999973
 50
185.743682000000060
 51
224.999999999999830
  0
ARC
  8
0
  6
CONTINUOUS
 62
256
 10
-30.065401000000001
 20
-67.450873999999999
 40
400.600000000000020
 50
180.000000000000000
 51
185.743681999999980
  0
LINE
  8
0
  6
CONTINUOUS
 62
256
 10
-419.295558000000030
 20
-119.007341000000000
 11
-426.754253000000010
 21
-111.548646000000010
  0
ARC
  8
0
  6
CONTINUOUS
 62
256
 10
-376.665400999999970
 20
174.149126000000000
 40
300.600000000000020
 50
264.247717000000020
 51
270.000000000000000
  0
ARC
  8
0
  6
CONTINUOUS
 62
256
 10
-422.087348000000020
 20
-28.020007000000000
 40
6.600000000000019
 50
135.000000000000140
 51
174.256317999999960
  0
ARC
  8
0
  6
CONTINUOUS
 62
256
 10
-30.065401000000001
 20
-67.450873999999999
 40
400.600000000000080
 50
174.256317999999990
 51
180.000000000000000
  0
LINE
  8
0
  6
CONTINUOUS
 62
256
 10
-419.295558000000030
 20
-15.894406999999999
 11
-426.754253000000010
 21
-23.353102000000000
  0
ARC
  8
0
  6
CONTINUOUS
 62
256
 10
-376.665400999999970
 20
-309.050874000000020
 40
300.600000000000020
 50
90.000000000000000
 51
95.752283000000006
  0
ARC
  8
0
  6
CONTINUOUS
 62
256
 10
-331.243454999999980
 20
-28.020007000000000
 40
6.599999999999973
 50
5.743682000000032
 51
44.999999999999829
  0
ARC
  8
0
  6
CONTINUOUS
 62
256
 10
-723.265401000000000
 20
-67.450873999999999
 40
400.600000000000020
 50
0.000000000000000
 51
5.743682000000000
  0
ARC
  8
0
  6
CONTINUOUS
 62
256
 10
-376.665400999999970
 20
-309.050874000000020
 40
300.600000000000020
 50
84.247716999999994
 51
90.000000000000000
  0
LINE
  8
0
  6
CONTINUOUS
 62
256
 10
-340.967013000000010
 20
-112.075573000000010
 11
-335.079598999999970
 21
-106.188159000000000
  0
ARC
  8
0
  6
CONTINUOUS
 62
256
 10
-723.265401000000000
 20
-67.450873999999999
 40
390.797000000000030
 50
354.582036000000020
 51
0.000000000000000
  0
ARC
  8
0
  6
CONTINUOUS
 62
256
 10
-337.200919000000000
 20
-104.066839000000000
 40
3.000000000000014
 50
315.000000000000230
 51
354.582036000000070
  0
ARC
  8
0
  6
CONTINUOUS
 62
256
 10
-376.665400999999970
 20
174.149126000000000
 40
290.797000000000030
 50
270.000000000000000
 51
275.752282999999980
  0
ARC
  8
0
  6
CONTINUOUS
 62
256
 10
-416.129883000000010
 20
-104.066839000000000
 40
2.999999999999996
 50
185.417963999999930
 51
224.999999999999800
  0
ARC
  8
0
  6
CONTINUOUS
 62
256
 10
-30.065401000000001
 20
-67.450873999999999
 40
390.797000000000030
 50
180.000000000000000
 51
185.417963999999980
  0
LINE
  8
0
  6
CONTINUOUS
 62
256
 10
-412.363789999999990
 20
-112.075573000000010
 11
-418.251203999999970
 21
-106.188159000000000
  0
ARC
  8
0
  6
CONTINUOUS
 62
256
 10
-376.665400999999970
 20
174.149126000000000
 40
290.797000000000030
 50
264.247717000000020
 51
270.000000000000000
  0
ARC
  8
0
  6
CONTINUOUS
 62
256
 10
-416.129883000000010
 20
-30.834909000000000
 40
3.000000000000012
 50
135.000000000000260
 51
174.582036000000020
  0
ARC
  8
0
  6
CONTINUOUS
 62
256
 10
-30.065401000000001
 20
-67.450873999999999
 40
390.797000000000030
 50
174.582035999999990
 51
180.000000000000000
  0
LINE
  8
0
  6
CONTINUOUS
 62
256
 10
-412.363789999999990
 20
-22.826174999999999
 11
-418.251203999999970
 21
-28.713588999999999
  0
ARC
  8
0
  6
CONTINUOUS
 62
256
 10
-376.665400999999970
 20
-309.050874000000020
 40
290.797000000000030
 50
90.000000000000000
 51
95.752283000000006
  0
ARC
  8
0
  6
CONTINUOUS
 62
256
 10
-337.200919000000000
 20
-30.834909000000000
 40
2.999999999999997
 50
5.417963999999999
 51
44.999999999999766
  0
ARC
  8
0
  6
CONTINUOUS
 62
256
 10
-723.265401000000000
 20
-67.450873999999999
 40
390.797000000000030
 50
0.000000000000000
 51
5.417964000000000
  0
LINE
  8
0
  6
CONTINUOUS
 62
256
 10
-340.967013000000010
 20
-22.826174999999999
 11
-335.079598999999970
 21
-28.713588999999999
  0
ARC
  8
0
  6
CONTINUOUS
 62
256
 10
-376.665400999999970
 20
-309.050874000000020
 40
290.797000000000030
 50
84.247716999999994
 51
90.000000000000000
  0
LINE
  8
0
  6
CONTINUOUS
 62
256
 10
-340.665400999999970
 20
-123.450835000000000
 11
-340.665400999999970
 21
-152.317539000000010
  0
LINE
  8
0
  6
CONTINUOUS
 62
256
 10
-412.665400999999970
 20
-123.450835000000000
 11
-412.665400999999970
 21
-152.317539000000010
  0
LINE
  8
0
  6
CONTINUOUS
 62
256
 10
-374.165400999999970
 20
-159.450874000000000
 11
-374.165400999999970
 21
-158.940457000000010
  0
LINE
  8
0
  6
CONTINUOUS
 62
256
 10
-379.165400999999970
 20
-159.450874000000000
 11
-374.165400999999970
 21
-159.450874000000000
  0
LINE
  8
0
  6
CONTINUOUS
 62
256
 10
-379.165400999999970
 20
-159.450874000000000
 11
-379.165400999999970
 21
-158.940457000000010
  0
ARC
  8
0
  6
CONTINUOUS
 62
256
 10
-407.665400999999970
 20
-152.317539000000010
 40
5.000000000000000
 50
180.000000000000000
 51
263.967950999999970
  0
ARC
  8
0
  6
CONTINUOUS
 62
256
 10
-345.665400999999970
 20
-152.317539000000010
 40
5.000000000000002
 50
276.032049000000030
 51
0.000000000000000
  0
ARC
  8
0
  6
CONTINUOUS
 62
256
 10
-376.665400999999970
 20
141.049126000000000
 40
300.000000000000000
 50
263.967951000000030
 51
276.032048999999970
  0
LINE
  8
0
  6
CONTINUOUS
 62
256
 10
-334.035244999999970
 20
-15.894406999999999
 11
-326.576550000000000
 21
-23.353102000000000
  0
LINE
  8
0
  6
CONTINUOUS
 62
256
 10
-337.165400999999970
 20
-13.326854000000001
 11
-337.165400999999970
 21
-12.463201000000000
  0
LINE
  8
0
  6
CONTINUOUS
 62
256
 10
-338.579361000000010
 20
-12.463201000000000
 11
-337.165400999999970
 21
-12.463201000000000
  0
LINE
  8
0
  6
CONTINUOUS
 62
256
 10
-412.984480000000020
 20
-11.587289999999999
 11
-415.665553999999990
 21
-11.634088000000000
  0
LINE
  8
0
  6
CONTINUOUS
 62
256
 10
-415.665553999999990
 20
-11.634088000000000
 11
-416.165400999999970
 21
-12.142737000000000
  0
LINE
  8
0
  6
CONTINUOUS
 62
256
 10
-416.165400999999970
 20
-12.142737000000000
 11
-416.165400999999970
 21
-13.326854000000001
  0
LINE
  8
0
  6
CONTINUOUS
 62
256
 10
-73.489204999999998
 20
133.063481000000000
 11
44.510795000000002
 21
133.063481000000000
  0
LINE
  8
0
  6
CONTINUOUS
 62
256
 10
-23.089205000000000
 20
118.063481000000000
 11
-23.489204999999998
 21
118.463481000000000
  0
LINE
  8
0
  6
CONTINUOUS
 62
256
 10
-23.489204999999998
 20
118.463481000000000
 11
-23.489204999999998
 21
122.063481000000000
  0
LINE
  8
0
  6
CONTINUOUS
 62
256
 10
32.110795000000003
 20
118.063481000000000
 11
32.510795000000002
 21
118.463481000000000
  0
LINE
  8
0
  6
CONTINUOUS
 62
256
 10
32.510795000000002
 20
118.463481000000000
 11
32.510795000000002
 21
122.063481000000000
  0
LINE
  8
0
  6
CONTINUOUS
 62
256
 10
4.510795000000000
 20
122.063481000000000
 11
-72.797275999999997
 21
122.063481000000000
  0
LINE
  8
0
  6
CONTINUOUS
 62
256
 10
32.110795000000003
 20
118.063481000000000
 11
-23.089205000000000
 21
118.063481000000000
  0
LINE
  8
0
  6
CONTINUOUS
 62
256
 10
43.818865000000002
 20
122.063481000000000
 11
4.510795000000000
 21
122.063481000000000
  0
LINE
  8
0
  6
CONTINUOUS
 62
256
 10
-72.797275999999997
 20
122.063481000000000
 11
-73.305925000000002
 21
122.563329000000000
  0
LINE
  8
0
  6
CONTINUOUS
 62
256
 10
44.327514000000001
 20
122.563329000000000
 11
43.818865000000002
 21
122.063481000000000
  0
LINE
  8
0
  6
CONTINUOUS
 62
256
 10
-97.988961000000003
 20
161.563481000000000
 11
-97.988961000000003
 21
108.046026000000000
  0
LINE
  8
0
  6
CONTINUOUS
 62
256
 10
-97.988961000000003
 20
161.563481000000000
 11
-97.988961000000003
 21
215.080936000000010
  0
LINE
  8
0
  6
CONTINUOUS
 62
256
 10
32.110795000000003
 20
205.063481000000000
 11
32.510795000000002
 21
204.663480999999990
  0
LINE
  8
0
  6
CONTINUOUS
 62
256
 10
32.510795000000002
 20
201.063481000000000
 11
32.510795000000002
 21
204.663480999999990
  0
LINE
  8
0
  6
CONTINUOUS
 62
256
 10
-23.089205000000000
 20
205.063481000000000
 11
-23.489204999999998
 21
204.663480999999990
  0
LINE
  8
0
  6
CONTINUOUS
 62
256
 10
-23.089205000000000
 20
205.063481000000000
 11
32.110795000000003
 21
205.063481000000000
  0
LINE
  8
0
  6
CONTINUOUS
 62
256
 10
-23.489204999999998
 20
201.063481000000000
 11
-23.489204999999998
 21
204.663480999999990
  0
LINE
  8
0
  6
CONTINUOUS
 62
256
 10
-72.267762000000005
 20
201.063481000000000
 11
4.510795000000000
 21
201.063481000000000
  0
LINE
  8
0
  6
CONTINUOUS
 62
256
 10
4.510795000000000
 20
201.063481000000000
 11
43.324123000000000
 21
201.063481000000000
  0
LINE
  8
0
  6
CONTINUOUS
 62
256
 10
-73.489616999999996
 20
133.063481000000000
 11
44.511066999999997
 21
133.063481000000000
  0
ARC
  8
0
  6
CONTINUOUS
 62
256
 10
-77.988961000000003
 20
200.063481000000000
 40
2.000000000000000
 50
180.000000000000000
 51
270.000000000000000
  0
ARC
  8
0
  6
CONTINUOUS
 62
256
 10
-77.988961000000003
 20
132.063481000000000
 40
2.000000000000000
 50
90.000000000000000
 51
180.000000000000000
  0
LINE
  8
0
  6
CONTINUOUS
 62
256
 10
-9.489205000000000
 20
209.063481000000000
 11
18.510795000000002
 21
209.063481000000000
  0
LINE
  8
0
  6
CONTINUOUS
 62
256
 10
-10.489205000000000
 20
115.063481000000000
 11
-10.489205000000000
 21
118.063481000000000
  0
LINE
  8
0
  6
CONTINUOUS
 62
256
 10
19.510795000000002
 20
115.063481000000000
 11
19.510795000000002
 21
118.063481000000000
  0
LINE
  8
0
  6
CONTINUOUS
 62
256
 10
18.510795000000002
 20
114.063481000000000
 11
-9.489205000000000
 21
114.063481000000000
  0
ARC
  8
0
  6
CONTINUOUS
 62
256
 10
-9.489205000000000
 20
208.063481000000000
 40
1.000000000000000
 50
90.000000000000000
 51
180.000000000000000
  0
ARC
  8
0
  6
CONTINUOUS
 62
256
 10
18.510795000000002
 20
208.063481000000000
 40
1.000000000000000
 50
0.000000000000000
 51
90.000000000000000
  0
ARC
  8
0
  6
CONTINUOUS
 62
256
 10
18.510795000000002
 20
115.063481000000000
 40
1.000000000000000
 50
270.000000000000000
 51
0.000000000000000
  0
ARC
  8
0
  6
CONTINUOUS
 62
256
 10
-9.489205000000000
 20
115.063481000000000
 40
1.000000000000000
 50
180.000000000000000
 51
270.000000000000000
  0
LINE
  8
0
  6
CONTINUOUS
 62
256
 10
19.510795000000002
 20
205.063481000000000
 11
19.510795000000002
 21
208.063481000000000
  0
LINE
  8
0
  6
CONTINUOUS
 62
256
 10
-10.489205000000000
 20
205.063481000000000
 11
-10.489205000000000
 21
208.063481000000000
  0
ARC
  8
0
  6
CONTINUOUS
 62
256
 10
-237.493806000000010
 20
128.163480999999990
 40
20.600000000000005
 50
234.999999999999940
 51
270.000000000000000
  0
ARC
  8
0
  6
CONTINUOUS
 62
256
 10
-255.388960999999990
 20
118.719860999999990
 40
2.600000000000023
 50
180.000000000000000
 51
234.999999999999940
  0
LINE
  8
0
  6
CONTINUOUS
 62
256
 10
-257.988961000000020
 20
118.719860999999990
 11
-257.988961000000020
 21
161.563481000000000
  0
LINE
  8
0
  6
CONTINUOUS
 62
256
 10
-249.309480000000010
 20
111.288949000000000
 11
-256.880259000000020
 21
116.590065999999990
  0
LINE
  8
0
  6
CONTINUOUS
 62
256
 10
-181.988960999999990
 20
128.259880000000010
 11
-97.988961000000003
 21
128.259880000000010
  0
LINE
  8
0
  6
CONTINUOUS
 62
256
 10
-181.988960999999990
 20
129.849089999999990
 11
-97.988961000000003
 21
129.849089999999990
  0
LINE
  8
0
  6
CONTINUOUS
 62
256
 10
-181.988960999999990
 20
141.563481000000000
 11
-97.988961000000003
 21
141.563481000000000
  0
LINE
  8
0
  6
CONTINUOUS
 62
256
 10
-181.988960999999990
 20
138.725241000000010
 11
-97.988961000000003
 21
138.725241000000010
  0
LINE
  8
0
  6
CONTINUOUS
 62
256
 10
-181.988960999999990
 20
137.378840000000000
 11
-97.988961000000003
 21
137.378840000000000
  0
LINE
  8
0
  6
CONTINUOUS
 62
256
 10
-181.988960999999990
 20
134.286109000000010
 11
-97.988961000000003
 21
134.286109000000010
  0
LINE
  8
0
  6
CONTINUOUS
 62
256
 10
-181.988960999999990
 20
132.807086000000000
 11
-97.988961000000003
 21
132.807086000000000
  0
LINE
  8
0
  6
CONTINUOUS
 62
256
 10
-182.146560999999990
 20
121.523045999999990
 11
-97.988961000000003
 21
121.523045999999990
  0
LINE
  8
0
  6
CONTINUOUS
 62
256
 10
-181.988960999999990
 20
120.521567000000000
 11
-97.988961000000003
 21
120.521567000000000
  0
LINE
  8
0
  6
CONTINUOUS
 62
256
 10
-181.988960999999990
 20
117.058826000000000
 11
-97.988961000000003
 21
117.058826000000000
  0
LINE
  8
0
  6
CONTINUOUS
 62
256
 10
-181.988960999999990
 20
115.430398999999990
 11
-97.988961000000003
 21
115.430398999999990
  0
LINE
  8
0
  6
CONTINUOUS
 62
256
 10
-181.988960999999990
 20
110.563481000000000
 11
-97.988961000000003
 21
110.563481000000000
  0
LINE
  8
0
  6
CONTINUOUS
 62
256
 10
-181.988960999999990
 20
111.063481000000000
 11
-97.988961000000003
 21
111.063481000000000
  0
LINE
  8
0
  6
CONTINUOUS
 62
256
 10
-97.988961000000003
 20
109.063481000000000
 11
-181.988960999999990
 21
109.063481000000000
  0
ARC
  8
0
  6
CONTINUOUS
 62
256
 10
-237.493806000000010
 20
194.963481000000000
 40
20.599999999999994
 50
90.000000000000000
 51
125.000000000000010
  0
ARC
  8
0
  6
CONTINUOUS
 62
256
 10
-255.388960999999990
 20
204.407101000000010
 40
2.599999999999996
 50
125.000000000000210
 51
180.000000000000000
  0
LINE
  8
0
  6
CONTINUOUS
 62
256
 10
-257.988961000000020
 20
204.407101000000010
 11
-257.988961000000020
 21
161.563481000000000
  0
LINE
  8
0
  6
CONTINUOUS
 62
256
 10
-249.309480000000010
 20
211.838012999999990
 11
-256.880259000000020
 21
206.536897000000010
  0
LINE
  8
0
  6
CONTINUOUS
 62
256
 10
-181.988960999999990
 20
194.867082000000010
 11
-97.988961000000003
 21
194.867082000000010
  0
LINE
  8
0
  6
CONTINUOUS
 62
256
 10
-181.988960999999990
 20
193.277872000000000
 11
-97.988961000000003
 21
193.277872000000000
  0
LINE
  8
0
  6
CONTINUOUS
 62
256
 10
-181.988960999999990
 20
181.563481000000000
 11
-97.988961000000003
 21
181.563481000000000
  0
LINE
  8
0
  6
CONTINUOUS
 62
256
 10
-181.988960999999990
 20
184.401721000000010
 11
-97.988961000000003
 21
184.401721000000010
  0
LINE
  8
0
  6
CONTINUOUS
 62
256
 10
-181.988960999999990
 20
185.748122999999990
 11
-97.988961000000003
 21
185.748122999999990
  0
LINE
  8
0
  6
CONTINUOUS
 62
256
 10
-181.988960999999990
 20
188.840854000000010
 11
-97.988961000000003
 21
188.840854000000010
  0
LINE
  8
0
  6
CONTINUOUS
 62
256
 10
-181.988960999999990
 20
190.319876999999990
 11
-97.988961000000003
 21
190.319876999999990
  0
LINE
  8
0
  6
CONTINUOUS
 62
256
 10
-182.146560999999990
 20
201.603917000000000
 11
-97.988961000000003
 21
201.603917000000000
  0
LINE
  8
0
  6
CONTINUOUS
 62
256
 10
-181.988960999999990
 20
202.605394999999990
 11
-97.988961000000003
 21
202.605394999999990
  0
LINE
  8
0
  6
CONTINUOUS
 62
256
 10
-181.988960999999990
 20
206.068137000000010
 11
-97.988961000000003
 21
206.068137000000010
  0
LINE
  8
0
  6
CONTINUOUS
 62
256
 10
-181.988960999999990
 20
207.696564000000000
 11
-97.988961000000003
 21
207.696564000000000
  0
LINE
  8
0
  6
CONTINUOUS
 62
256
 10
-181.988960999999990
 20
212.563481000000000
 11
-97.988961000000003
 21
212.563481000000000
  0
LINE
  8
0
  6
CONTINUOUS
 62
256
 10
-181.988960999999990
 20
212.063481000000000
 11
-97.988961000000003
 21
212.063481000000000
  0
LINE
  8
0
  6
CONTINUOUS
 62
256
 10
-97.988961000000003
 20
214.063481000000000
 11
-181.988960999999990
 21
214.063481000000000
  0
POLYLINE
  8
0
  6
CONTINUOUS
 62
256
 66
1
 70
1
  0
VERTEX
  8
0
  6
CONTINUOUS
 62
256
 10
-188.288961000000000
 20
208.890812000000010
  0
VERTEX
  8
0
  6
CONTINUOUS
 62
256
 10
-188.379270182104820
 20
209.593768510558190
  0
VERTEX
  8
0
  6
CONTINUOUS
 62
256
 10
-188.646727197196950
 20
210.269710796638150
  0
VERTEX
  8
0
  6
CONTINUOUS
 62
256
 10
-189.081053822178030
 20
210.892662775258690
  0
VERTEX
  8
0
  6
CONTINUOUS
 62
256
 10
-189.665559128423210
 20
211.438684751236850
  0
VERTEX
  8
0
  6
CONTINUOUS
 62
256
 10
-190.377780904807880
 20
211.886793406248500
  0
VERTEX
  8
0
  6
CONTINUOUS
 62
256
 10
-191.190348867884070
 20
212.219768175983750
  0
VERTEX
  8
0
  6
CONTINUOUS
 62
256
 10
-192.072036486524180
 20
212.424813026776090
  0
VERTEX
  8
0
  6
CONTINUOUS
 62
256
 10
-192.988960999999990
 20
212.494048200000010
  0
VERTEX
  8
0
  6
CONTINUOUS
 62
256
 10
-193.905885513475790
 20
212.424813026776090
  0
VERTEX
  8
0
  6
CONTINUOUS
 62
256
 10
-194.787573132115910
 20
212.219768175983750
  0
VERTEX
  8
0
  6
CONTINUOUS
 62
256
 10
-195.600141095192100
 20
211.886793406248500
  0
VERTEX
  8
0
  6
CONTINUOUS
 62
256
 10
-196.312362871576770
 20
211.438684751236850
  0
VERTEX
  8
0
  6
CONTINUOUS
 62
256
 10
-196.896868177821940
 20
210.892662775258690
  0
VERTEX
  8
0
  6
CONTINUOUS
 62
256
 10
-197.331194802803030
 20
210.269710796638150
  0
VERTEX
  8
0
  6
CONTINUOUS
 62
256
 10
-197.598651817895160
 20
209.593768510558190
  0
VERTEX
  8
0
  6
CONTINUOUS
 62
256
 10
-197.688960999999980
 20
208.890812000000010
  0
VERTEX
  8
0
  6
CONTINUOUS
 62
256
 10
-197.598651817895160
 20
208.187855489441830
  0
VERTEX
  8
0
  6
CONTINUOUS
 62
256
 10
-197.331194802803030
 20
207.511913203361870
  0
VERTEX
  8
0
  6
CONTINUOUS
 62
256
 10
-196.896868177821940
 20
206.888961224741340
  0
VERTEX
  8
0
  6
CONTINUOUS
 62
256
 10
-196.312362871576770
 20
206.342939248763170
  0
VERTEX
  8
0
  6
CONTINUOUS
 62
256
 10
-195.600141095192100
 20
205.894830593751520
  0
VERTEX
  8
0
  6
CONTINUOUS
 62
256
 10
-194.787573132115910
 20
205.561855824016280
  0
VERTEX
  8
0
  6
CONTINUOUS
 62
256
 10
-193.905885513475790
 20
205.356810973223960
  0
VERTEX
  8
0
  6
CONTINUOUS
 62
256
 10
-192.988960999999990
 20
205.287575800000010
  0
VERTEX
  8
0
  6
CONTINUOUS
 62
256
 10
-192.072036486524180
 20
205.356810973223960
  0
VERTEX
  8
0
  6
CONTINUOUS
 62
256
 10
-191.190348867884070
 20
205.561855824016280
  0
VERTEX
  8
0
  6
CONTINUOUS
 62
256
 10
-190.377780904807880
 20
205.894830593751520
  0
VERTEX
  8
0
  6
CONTINUOUS
 62
256
 10
-189.665559128423240
 20
206.342939248763170
  0
VERTEX
  8
0
  6
CONTINUOUS
 62
256
 10
-189.081053822178030
 20
206.888961224741340
  0
VERTEX
  8
0
  6
CONTINUOUS
 62
256
 10
-188.646727197196950
 20
207.511913203361870
  0
VERTEX
  8
0
  6
CONTINUOUS
 62
256
 10
-188.379270182104820
 20
208.187855489441830
  0
SEQEND
  8
0
  6
CONTINUOUS
 62
256
  0
LINE
  8
0
  6
CONTINUOUS
 62
256
 10
-194.988960999999990
 20
211.883187999999990
 11
-192.988960999999990
 21
210.707402000000000
  0
LINE
  8
0
  6
CONTINUOUS
 62
256
 10
-192.988960999999990
 20
210.707402000000000
 11
-190.988960999999990
 21
209.054761000000010
  0
LINE
  8
0
  6
CONTINUOUS
 62
256
 10
-190.988960999999990
 20
211.883187999999990
 11
-192.988960999999990
 21
210.707402000000000
  0
LINE
  8
0
  6
CONTINUOUS
 62
256
 10
-192.988960999999990
 20
210.707402000000000
 11
-194.988960999999990
 21
209.054761000000010
  0
POLYLINE
  8
0
  6
CONTINUOUS
 62
256
 66
1
 70
1
  0
VERTEX
  8
0
  6
CONTINUOUS
 62
256
 10
-188.288961000000000
 20
114.236149999999990
  0
VERTEX
  8
0
  6
CONTINUOUS
 62
256
 10
-188.379270182104820
 20
114.939106510558160
  0
VERTEX
  8
0
  6
CONTINUOUS
 62
256
 10
-188.646727197196950
 20
115.615048796638130
  0
VERTEX
  8
0
  6
CONTINUOUS
 62
256
 10
-189.081053822178030
 20
116.238000775258660
  0
VERTEX
  8
0
  6
CONTINUOUS
 62
256
 10
-189.665559128423210
 20
116.784022751236850
  0
VERTEX
  8
0
  6
CONTINUOUS
 62
256
 10
-190.377780904807880
 20
117.232131406248480
  0
VERTEX
  8
0
  6
CONTINUOUS
 62
256
 10
-191.190348867884070
 20
117.565106175983740
  0
VERTEX
  8
0
  6
CONTINUOUS
 62
256
 10
-192.072036486524180
 20
117.770151026776060
  0
VERTEX
  8
0
  6
CONTINUOUS
 62
256
 10
-192.988960999999990
 20
117.839386199999990
  0
VERTEX
  8
0
  6
CONTINUOUS
 62
256
 10
-193.905885513475790
 20
117.770151026776060
  0
VERTEX
  8
0
  6
CONTINUOUS
 62
256
 10
-194.787573132115910
 20
117.565106175983740
  0
VERTEX
  8
0
  6
CONTINUOUS
 62
256
 10
-195.600141095192100
 20
117.232131406248480
  0
VERTEX
  8
0
  6
CONTINUOUS
 62
256
 10
-196.312362871576770
 20
116.784022751236850
  0
VERTEX
  8
0
  6
CONTINUOUS
 62
256
 10
-196.896868177821940
 20
116.238000775258660
  0
VERTEX
  8
0
  6
CONTINUOUS
 62
256
 10
-197.331194802803030
 20
115.615048796638130
  0
VERTEX
  8
0
  6
CONTINUOUS
 62
256
 10
-197.598651817895160
 20
114.939106510558160
  0
VERTEX
  8
0
  6
CONTINUOUS
 62
256
 10
-197.688960999999980
 20
114.236149999999990
  0
VERTEX
  8
0
  6
CONTINUOUS
 62
256
 10
-197.598651817895160
 20
113.533193489441830
  0
VERTEX
  8
0
  6
CONTINUOUS
 62
256
 10
-197.331194802803030
 20
112.857251203361860
  0
VERTEX
  8
0
  6
CONTINUOUS
 62
256
 10
-196.896868177821940
 20
112.234299224741330
  0
VERTEX
  8
0
  6
CONTINUOUS
 62
256
 10
-196.312362871576770
 20
111.688277248763160
  0
VERTEX
  8
0
  6
CONTINUOUS
 62
256
 10
-195.600141095192100
 20
111.240168593751510
  0
VERTEX
  8
0
  6
CONTINUOUS
 62
256
 10
-194.787573132115910
 20
110.907193824016250
  0
VERTEX
  8
0
  6
CONTINUOUS
 62
256
 10
-193.905885513475790
 20
110.702148973223930
  0
VERTEX
  8
0
  6
CONTINUOUS
 62
256
 10
-192.988960999999990
 20
110.632913800000000
  0
VERTEX
  8
0
  6
CONTINUOUS
 62
256
 10
-192.072036486524180
 20
110.702148973223930
  0
VERTEX
  8
0
  6
CONTINUOUS
 62
256
 10
-191.190348867884070
 20
110.907193824016250
  0
VERTEX
  8
0
  6
CONTINUOUS
 62
256
 10
-190.377780904807880
 20
111.240168593751510
  0
VERTEX
  8
0
  6
CONTINUOUS
 62
256
 10
-189.665559128423240
 20
111.688277248763140
  0
VERTEX
  8
0
  6
CONTINUOUS
 62
256
 10
-189.081053822178030
 20
112.234299224741330
  0
VERTEX
  8
0
  6
CONTINUOUS
 62
256
 10
-188.646727197196950
 20
112.857251203361860
  0
VERTEX
  8
0
  6
CONTINUOUS
 62
256
 10
-188.379270182104820
 20
113.533193489441830
  0
SEQEND
  8
0
  6
CONTINUOUS
 62
256
  0
LINE
  8
0
  6
CONTINUOUS
 62
256
 10
-194.988960999999990
 20
111.243775000000000
 11
-192.988960999999990
 21
112.419560000000000
  0
LINE
  8
0
  6
CONTINUOUS
 62
256
 10
-192.988960999999990
 20
112.419560000000000
 11
-190.988960999999990
 21
114.072202000000000
  0
LINE
  8
0
  6
CONTINUOUS
 62
256
 10
-190.988960999999990
 20
111.243775000000000
 11
-192.988960999999990
 21
112.419560000000000
  0
LINE
  8
0
  6
CONTINUOUS
 62
256
 10
-192.988960999999990
 20
112.419560000000000
 11
-194.988960999999990
 21
114.072202000000000
  0
LINE
  8
0
  6
CONTINUOUS
 62
256
 10
-181.988960999999990
 20
215.563481000000000
 11
-237.493806000000010
 21
215.563481000000000
  0
LINE
  8
0
  6
CONTINUOUS
 62
256
 10
-181.988960999999990
 20
215.563481000000000
 11
-181.988960999999990
 21
161.563481000000000
  0
LINE
  8
0
  6
CONTINUOUS
 62
256
 10
-181.988960999999990
 20
107.563481000000000
 11
-181.988960999999990
 21
161.563481000000000
  0
LINE
  8
0
  6
CONTINUOUS
 62
256
 10
-181.988960999999990
 20
107.563481000000000
 11
-237.493806000000010
 21
107.563481000000000
  0
LINE
  8
0
  6
CONTINUOUS
 62
256
 10
-97.988961000000003
 20
161.563481000000000
 11
-97.988961000000003
 21
109.063481000000000
  0
LINE
  8
0
  6
CONTINUOUS
 62
256
 10
-97.988961000000003
 20
161.563481000000000
 11
-97.988961000000003
 21
214.063481000000000
  0
LINE
  8
0
  6
CONTINUOUS
 62
256
 10
-73.454706999999999
 20
133.063481000000000
 11
-72.267762000000005
 21
201.063481000000000
  0
LINE
  8
0
  6
CONTINUOUS
 62
256
 10
-74.489768999999995
 20
134.063481000000000
 11
-77.988961000000003
 21
134.063481000000000
  0
LINE
  8
0
  6
CONTINUOUS
 62
256
 10
-77.988961000000003
 20
198.063481000000000
 11
-73.302824999999999
 21
198.063481000000000
  0
LINE
  8
0
  6
DASHDOT
 62
256
 10
-108.812960000000000
 20
161.563481000000000
 11
-61.705852999999998
 21
161.563481000000000
  0
LINE
  8
0
  6
DASHDOT
 62
256
 10
4.510795000000000
 20
111.041588000000000
 11
4.510795000000000
 21
212.122667000000010
  0
ARC
  8
0
  6
CONTINUOUS
 62
256
 10
-74.489768999999995
 20
133.063481000000000
 40
1.000000000000000
 50
0.000000000000000
 51
90.000000000000000
  0
ARC
  8
0
  6
CONTINUOUS
 62
256
 10
-73.302824999999999
 20
199.063481000000000
 40
1.000000000000000
 50
270.000000000000000
 51
358.999999999999830
  0
LINE
  8
0
  6
CONTINUOUS
 62
256
 10
44.511066999999997
 20
133.063481000000000
 11
43.324123000000000
 21
201.063481000000000
  0
LINE
  8
0
  6
CONTINUOUS
 62
256
 10
4.010795000000000
 20
136.563481000000000
 11
4.010795000000000
 21
201.063481000000000
  0
LINE
  8
0
  6
CONTINUOUS
 62
256
 10
5.010795000000000
 20
136.563481000000000
 11
5.010795000000000
 21
201.063481000000000
  0
ARC
  8
0
  6
CONTINUOUS
 62
256
 10
4.510795000000000
 20
136.563481000000000
 40
0.500000000000000
 50
180.000000000000000
 51
0.000000000000000
  0
ARC
  8
0
  6
CONTINUOUS
 62
256
 10
-95.988961000000003
 20
212.097934000000010
 40
3.000000000000000
 50
0.000000000000000
 51
90.999999999999872
  0
ARC
  8
0
  6
CONTINUOUS
 62
256
 10
-90.988961000000003
 20
200.993133000000000
 40
2.000000000000000
 50
90.000000000000000
 51
180.000000000000000
  0
ARC
  8
0
  6
CONTINUOUS
 62
256
 10
-89.988961000000003
 20
209.063481000000000
 40
3.000000000000000
 50
180.000000000000000
 51
270.000000000000000
  0
ARC
  8
0
  6
CONTINUOUS
 62
256
 10
-89.988961000000003
 20
192.455647000000000
 40
3.000000000000000
 50
90.000000000000000
 51
180.000000000000000
  0
LINE
  8
0
  6
CONTINUOUS
 62
256
 10
-92.988961000000003
 20
181.563481000000000
 11
-97.988961000000003
 21
181.563481000000000
  0
LINE
  8
0
  6
CONTINUOUS
 62
256
 10
-92.988961000000003
 20
209.063481000000000
 11
-92.988961000000003
 21
212.097934000000010
  0
LINE
  8
0
  6
CONTINUOUS
 62
256
 10
-92.988961000000003
 20
161.563481000000000
 11
-92.988961000000003
 21
200.993133000000000
  0
ARC
  8
0
  6
CONTINUOUS
 62
256
 10
-89.988961000000003
 20
130.671314999999990
 40
3.000000000000000
 50
180.000000000000000
 51
270.000000000000000
  0
ARC
  8
0
  6
CONTINUOUS
 62
256
 10
-90.988961000000003
 20
122.133830000000000
 40
2.000000000000000
 50
180.000000000000000
 51
270.000000000000000
  0
ARC
  8
0
  6
CONTINUOUS
 62
256
 10
-89.988961000000003
 20
114.063481000000000
 40
3.000000000000000
 50
90.000000000000000
 51
180.000000000000000
  0
ARC
  8
0
  6
CONTINUOUS
 62
256
 10
-95.988961000000003
 20
111.029028000000000
 40
2.999999999999997
 50
269.000000000000110
 51
0.000000000000000
  0
LINE
  8
0
  6
CONTINUOUS
 62
256
 10
-92.988961000000003
 20
141.563481000000000
 11
-97.988961000000003
 21
141.563481000000000
  0
LINE
  8
0
  6
CONTINUOUS
 62
256
 10
-92.988961000000003
 20
161.563481000000000
 11
-92.988961000000003
 21
122.133830000000000
  0
LINE
  8
0
  6
CONTINUOUS
 62
256
 10
-92.988961000000003
 20
114.063481000000000
 11
-92.988961000000003
 21
111.029028000000000
  0
ARC
  8
0
  6
CONTINUOUS
 62
256
 10
-82.988961000000003
 20
130.671314999999990
 40
3.000000000000000
 50
270.000000000000000
 51
0.000000000000000
  0
ARC
  8
0
  6
CONTINUOUS
 62
256
 10
-84.988961000000003
 20
122.063481000000000
 40
5.000000000000000
 50
270.000000000000000
 51
0.000000000000000
  0
ARC
  8
0
  6
CONTINUOUS
 62
256
 10
-84.988961000000003
 20
125.133830000000000
 40
5.000000000000000
 50
270.000000000000000
 51
0.000000000000000
  0
LINE
  8
0
  6
CONTINUOUS
 62
256
 10
-82.988961000000003
 20
127.671315000000010
 11
-89.988961000000003
 21
127.671315000000010
  0
LINE
  8
0
  6
CONTINUOUS
 62
256
 10
-90.988961000000003
 20
120.133830000000000
 11
-84.988961000000003
 21
120.133830000000000
  0
LINE
  8
0
  6
CONTINUOUS
 62
256
 10
-89.988961000000003
 20
117.063481000000000
 11
-84.988961000000003
 21
117.063481000000000
  0
ARC
  8
0
  6
CONTINUOUS
 62
256
 10
-82.988961000000003
 20
192.455647000000000
 40
3.000000000000000
 50
0.000000000000000
 51
90.000000000000000
  0
ARC
  8
0
  6
CONTINUOUS
 62
256
 10
-84.988961000000003
 20
201.063481000000000
 40
5.000000000000000
 50
0.000000000000000
 51
90.000000000000000
  0
ARC
  8
0
  6
CONTINUOUS
 62
256
 10
-84.988961000000003
 20
197.993133000000000
 40
5.000000000000000
 50
0.000000000000000
 51
90.000000000000000
  0
LINE
  8
0
  6
CONTINUOUS
 62
256
 10
-90.988961000000003
 20
202.993133000000000
 11
-84.988961000000003
 21
202.993133000000000
  0
LINE
  8
0
  6
CONTINUOUS
 62
256
 10
-89.988961000000003
 20
206.063481000000000
 11
-84.988961000000003
 21
206.063481000000000
  0
LINE
  8
0
  6
CONTINUOUS
 62
256
 10
-82.988961000000003
 20
195.455647000000000
 11
-89.988961000000003
 21
195.455647000000000
  0
LINE
  8
0
  6
CONTINUOUS
 62
256
 10
-79.988961000000003
 20
110.784657000000000
 11
-79.988961000000003
 21
212.397322000000000
  0
LINE
  8
0
  6
CONTINUOUS
 62
256
 10
-97.988961000000003
 20
108.046026000000000
 11
-83.041318000000004
 21
107.785113999999990
  0
LINE
  8
0
  6
CONTINUOUS
 62
256
 10
-83.055860999999993
 20
215.396576000000010
 11
-97.988961000000003
 21
215.063481000000000
  0
ARC
  8
0
  6
CONTINUOUS
 62
256
 10
-82.988961000000003
 20
212.397322000000000
 40
3.000000000000000
 50
0.000000000000000
 51
91.277816000000129
  0
ARC
  8
0
  6
CONTINUOUS
 62
256
 10
-82.988961000000003
 20
110.784657000000000
 40
2.999999999999997
 50
269.000000000000110
 51
0.000000000000000
  0
LINE
  8
0
  6
CONTINUOUS
 62
256
 10
-73.489204999999998
 20
133.063481000000000
 11
-73.305925000000002
 21
122.563329000000000
  0
LINE
  8
0
  6
CONTINUOUS
 62
256
 10
44.510795000000002
 20
133.063481000000000
 11
44.327514000000001
 21
122.563329000000000
  0
LINE
  8
0
  6
CONTINUOUS
 62
256
 10
5.010795000000000
 20
129.563481000000000
 11
5.010795000000000
 21
122.063481000000000
  0
LINE
  8
0
  6
CONTINUOUS
 62
256
 10
4.010795000000000
 20
129.563481000000000
 11
4.010795000000000
 21
122.063481000000000
  0
ARC
  8
0
  6
CONTINUOUS
 62
256
 10
4.510795000000000
 20
129.563481000000000
 40
0.500000000000000
 50
0.000000000000000
 51
180.000000000000000
  0
LINE
  8
0
  6
DASHDOT
 62
256
 10
-267.924349000000010
 20
161.563481000000000
 11
53.963956000000003
 21
161.563481000000000
  0
TEXT
  8
0
  6
CONTINUOUS
 62
256
 10
469.274047851562500
 20
-205.508666992187500
 40
3.299999952316284
  1
1/1
 50
0.000002504478167
 41
0.850909097352304
  7
STANDARD1
  0
TEXT
  8
0
  6
CONTINUOUS
 62
256
 10
466.856048583984370
 20
-205.508666992187500
 40
3.299999952316284
  1
 
 50
0.000002504478167
 41
1.733333298293026
  7
STANDARD1
  0
TEXT
  8
0
  6
CONTINUOUS
 62
256
 10
453.805419921875000
 20
-205.508666992187500
 40
3.299999952316284
  1
SCALE
 50
0.000002504478167
 41
0.821052645401140
  7
STANDARD1
  0
TEXT
  8
0
  6
CONTINUOUS
 62
256
 10
450.554046630859370
 20
-205.508666992187500
 40
3.299999952316284
  1
 
 50
0.000002504478167
 41
1.733333298293026
  7
STANDARD1
  0
TEXT
  8
0
  6
CONTINUOUS
 62
256
 10
467.991241455078120
 20
-200.208663940429690
 40
3.299999952316284
  1
1/60
 50
0.000002504478167
 41
0.832000075658163
  7
STANDARD1
  0
TEXT
  8
0
  6
CONTINUOUS
 62
256
 10
464.200195312500000
 20
-200.208663940429690
 40
3.299999952316284
  1
ü`
 50
0.000002504478167
 41
1.176000019651471
  7
STANDARD1
  0
TEXT
  8
0
  6
CONTINUOUS
 62
256
 10
450.554046630859370
 20
-200.208663940429690
 40
3.299999952316284
  1
1/7.5
 50
0.000002504478167
 41
0.821052645401140
  7
STANDARD1
  0
TEXT
  8
0
  6
CONTINUOUS
 62
256
 10
450.554046630859370
 20
-194.908660888671870
 40
3.299999952316284
  1
GM-SSYFB-RH
 50
0.000002504478167
 41
0.798139564113939
  7
STANDARD1
  0
TEXT
  8
0
  6
CONTINUOUS
 62
256
 10
456.379425048828120
 20
-189.608673095703120
 40
3.299999952316284
  1
0.1kW
 50
0.000002504478167
 41
0.821052645401140
  7
STANDARD1
  0
TEXT
  8
0
  6
CONTINUOUS
 62
256
 10
450.554046630859370
 20
-189.608673095703120
 40
3.299999952316284
  1
  
 50
0.000002504478167
 41
1.485714400175845
  7
STANDARD1
  0
TEXT
  8
0
  6
CONTINUOUS
 62
256
 10
456.379425048828120
 20
-184.308670043945310
 40
3.299999952316284
  1
SSY10
 50
0.000002504478167
 41
0.821052645401140
  7
STANDARD1
  0
TEXT
  8
0
  6
CONTINUOUS
 62
256
 10
450.554046630859370
 20
-184.308670043945310
 40
3.299999952316284
  1
  
 50
0.000002504478167
 41
1.485714400175845
  7
STANDARD1
  0
ARC
  8
0
  6
CONTINUOUS
 62
256
 10
-411.489961999999990
 20
-63.950873999999999
 40
1.000000000000000
 50
270.000000000000000
 51
354.260829999999540
  0
ARC
  8
0
  6
CONTINUOUS
 62
256
 10
-414.503874000000000
 20
-63.950873999999999
 40
1.000000000000027
 50
174.715267000000240
 51
270.000000000000000
  0
ARC
  8
0
  6
CONTINUOUS
 62
256
 10
-405.957038000000010
 20
-63.950873999999999
 40
1.000000000000019
 50
173.186146000000240
 51
270.000000000000000
  0
LINE
  8
0
  6
CONTINUOUS
 62
256
 10
-414.503874000000000
 20
-64.950873999999999
 11
-411.489961999999990
 21
-64.950873999999999
  0
ARC
  8
0
  6
CONTINUOUS
 62
256
 10
-382.462534000000010
 20
-50.409945000000000
 40
0.999999999999984
 50
210.000000000000510
 51
288.787729000000870
  0
LINE
  8
0
  6
CONTINUOUS
 62
256
 10
-384.853477000000000
 20
-48.268709999999999
 11
-383.328559999999980
 21
-50.909945000000000
  0
ARC
  8
0
  6
CONTINUOUS
 62
256
 10
-383.987452000000020
 20
-47.768709999999999
 40
0.999999999999999
 50
110.405931999999720
 51
210.000000000000510
  0
ARC
  8
0
  6
CONTINUOUS
 62
256
 10
-386.768238000000000
 20
-42.952247999999997
 40
0.999999999999984
 50
210.000000000000510
 51
292.410458000000630
  0
ARC
  8
0
  6
CONTINUOUS
 62
256
 10
-391.046592999999970
 20
-35.541919999999998
 40
0.999999999999984
 50
210.000000000000510
 51
294.260829999998690
  0
LINE
  8
0
  6
CONTINUOUS
 62
256
 10
-389.146156000000020
 20
-40.833571999999997
 11
-387.634262999999980
 21
-43.452247999999997
  0
ARC
  8
0
  6
CONTINUOUS
 62
256
 10
-388.280130999999980
 20
-40.333571999999997
 40
1.000000000000000
 50
113.186146000000120
 51
210.000000000000510
  0
LINE
  8
0
  6
CONTINUOUS
 62
256
 10
-393.419574000000010
 20
-33.431795999999999
 11
-391.912618000000010
 21
-36.041919999999998
  0
ARC
  8
0
  6
CONTINUOUS
 62
256
 10
-392.553548999999980
 20
-32.931795999999999
 40
1.000000000000004
 50
114.715267000000150
 51
210.000000000000510
  0
ARC
  8
0
  6
CONTINUOUS
 62
256
 10
-398.615726000000000
 20
-36.431795999999999
 40
0.999999999999984
 50
30.000000000000544
 51
125.284733000001220
  0
ARC
  8
0
  6
CONTINUOUS
 62
256
 10
-397.108769999999990
 20
-39.041919999999998
 40
1.000000000000004
 50
305.739170000000000
 51
30.000000000000544
  0
ARC
  8
0
  6
CONTINUOUS
 62
256
 10
-402.933251999999980
 20
-63.950873999999999
 40
1.000000000000000
 50
270.000000000000000
 51
352.410458000000010
  0
ARC
  8
0
  6
CONTINUOUS
 62
256
 10
-394.342309000000000
 20
-43.833571999999997
 40
0.999999999999984
 50
30.000000000000544
 51
126.813854000000730
  0
ARC
  8
0
  6
CONTINUOUS
 62
256
 10
-392.830416000000010
 20
-46.452247999999997
 40
0.999999999999987
 50
307.589541999999030
 51
30.000000000000544
  0
ARC
  8
0
  6
CONTINUOUS
 62
256
 10
-397.371681000000020
 20
-63.950873999999999
 40
0.999999999999979
 50
170.405931999999640
 51
270.000000000000000
  0
ARC
  8
0
  6
CONTINUOUS
 62
256
 10
-394.321845000000000
 20
-63.950873999999999
 40
1.000000000000000
 50
270.000000000000000
 51
348.787729000000300
  0
ARC
  8
0
  6
CONTINUOUS
 62
256
 10
-390.049629999999980
 20
-51.268709999999999
 40
0.999999999999984
 50
30.000000000000544
 51
129.594067999999310
  0
ARC
  8
0
  6
CONTINUOUS
 62
256
 10
-388.524712000000020
 20
-53.909945000000000
 40
1.000000000000000
 50
311.212271000000040
 51
30.000000000000544
  0
ARC
  8
0
  6
CONTINUOUS
 62
256
 10
-385.696489999999980
 20
-58.808568999999999
 40
0.999999999999984
 50
30.000000000000544
 51
136.260205000000240
  0
ARC
  8
0
  6
CONTINUOUS
 62
256
 10
-388.665400999999970
 20
-63.950873999999999
 40
0.999999999999974
 50
163.739794999999700
 51
270.000000000000000
  0
ARC
  8
0
  6
CONTINUOUS
 62
256
 10
-385.497162000000000
 20
-63.950873999999999
 40
1.000000000000000
 50
270.000000000000000
 51
338.381728000000520
  0
ARC
  8
0
  6
CONTINUOUS
 62
256
 10
-384.112371000000000
 20
-61.552345000000003
 40
0.999999999999981
 50
321.618271999999310
 51
30.000000000000544
  0
ARC
  8
0
  6
CONTINUOUS
 62
256
 10
-376.665400999999970
 20
-67.450873999999999
 40
39.000000000000000
 50
125.284733000000000
 51
174.715267000000010
  0
ARC
  8
0
  6
CONTINUOUS
 62
256
 10
-376.665400999999970
 20
-67.450873999999999
 40
30.499999999999989
 50
126.813853999999980
 51
173.186146000000010
  0
ARC
  8
0
  6
CONTINUOUS
 62
256
 10
-376.665400999999970
 20
-67.450873999999999
 40
34.000000000000007
 50
125.739170000000040
 51
174.260830000000000
  0
ARC
  8
0
  6
CONTINUOUS
 62
256
 10
-376.665400999999970
 20
-67.450873999999999
 40
25.499999999999996
 50
127.589541999999970
 51
172.410458000000010
  0
ARC
  8
0
  6
CONTINUOUS
 62
256
 10
-376.665400999999970
 20
-67.450873999999999
 40
21.999999999999986
 50
129.594067999999940
 51
170.405932000000010
  0
ARC
  8
0
  6
CONTINUOUS
 62
256
 10
-376.665400999999970
 20
-67.450873999999999
 40
17.000000000000014
 50
131.212271000000020
 51
168.787728999999980
  0
ARC
  8
0
  6
CONTINUOUS
 62
256
 10
-376.665400999999970
 20
-67.450873999999999
 40
13.500000000000000
 50
136.260205000000010
 51
163.739794999999960
  0
ARC
  8
0
  6
CONTINUOUS
 62
256
 10
-376.665400999999970
 20
-67.450873999999999
 40
8.500000000000005
 50
141.618272000000020
 51
158.381728000000040
  0
LINE
  8
0
  6
CONTINUOUS
 62
256
 10
-393.476283000000020
 20
-43.333571999999997
 11
-391.964389999999980
 21
-45.952247999999997
  0
LINE
  8
0
  6
CONTINUOUS
 62
256
 10
-397.749701000000020
 20
-35.931795999999999
 11
-396.242745000000010
 21
-38.541919999999998
  0
LINE
  8
0
  6
CONTINUOUS
 62
256
 10
-389.183604000000000
 20
-50.768709999999999
 11
-387.658686999999990
 21
-53.409945000000000
  0
LINE
  8
0
  6
CONTINUOUS
 62
256
 10
-384.830465000000000
 20
-58.308568999999999
 11
-383.246345000000020
 21
-61.052345000000003
  0
LINE
  8
0
  6
CONTINUOUS
 62
256
 10
-388.665400999999970
 20
-64.950873999999999
 11
-385.497162000000000
 21
-64.950873999999999
  0
LINE
  8
0
  6
CONTINUOUS
 62
256
 10
-397.371681000000020
 20
-64.950873999999999
 11
-394.321845000000000
 21
-64.950873999999999
  0
LINE
  8
0
  6
CONTINUOUS
 62
256
 10
-405.957038000000010
 20
-64.950873999999999
 11
-402.933251999999980
 21
-64.950873999999999
  0
ARC
  8
0
  6
CONTINUOUS
 62
256
 10
-378.050192999999980
 20
-58.052345000000003
 40
0.999999999999984
 50
210.000000000000510
 51
278.381727999998870
  0
ARC
  8
0
  6
CONTINUOUS
 62
256
 10
-376.665400999999970
 20
-67.450873999999999
 40
8.500000000000002
 50
81.618271999999948
 51
98.381728000000052
  0
LINE
  8
0
  6
CONTINUOUS
 62
256
 10
-380.500338000000000
 20
-55.808568999999999
 11
-378.916218000000010
 21
-58.552345000000003
  0
ARC
  8
0
  6
CONTINUOUS
 62
256
 10
-379.634312000000020
 20
-55.308568999999999
 40
1.000000000000004
 50
103.739795000001370
 51
210.000000000000510
  0
ARC
  8
0
  6
CONTINUOUS
 62
256
 10
-359.008958000000010
 20
-63.950873999999999
 40
1.000000000000016
 50
191.212270999999730
 51
270.000000000000000
  0
LINE
  8
0
  6
CONTINUOUS
 62
256
 10
-355.959121999999980
 20
-64.950873999999999
 11
-359.008958000000010
 21
-64.950873999999999
  0
ARC
  8
0
  6
CONTINUOUS
 62
256
 10
-355.959121999999980
 20
-63.950873999999999
 40
1.000000000000000
 50
270.000000000000000
 51
9.594068000000362
  0
ARC
  8
0
  6
CONTINUOUS
 62
256
 10
-350.397550000000020
 20
-63.950873999999999
 40
0.999999999999990
 50
187.589541999999990
 51
270.000000000000000
  0
LINE
  8
0
  6
CONTINUOUS
 62
256
 10
-347.373763999999990
 20
-64.950873999999999
 11
-350.397550000000020
 21
-64.950873999999999
  0
ARC
  8
0
  6
CONTINUOUS
 62
256
 10
-347.373763999999990
 20
-63.950873999999999
 40
1.000000000000000
 50
270.000000000000000
 51
6.813853999999752
  0
ARC
  8
0
  6
CONTINUOUS
 62
256
 10
-341.840841000000010
 20
-63.950873999999999
 40
0.999999999999978
 50
185.739170000000430
 51
270.000000000000000
  0
LINE
  8
0
  6
CONTINUOUS
 62
256
 10
-338.826929000000010
 20
-64.950873999999999
 11
-341.840841000000010
 21
-64.950873999999999
  0
ARC
  8
0
  6
CONTINUOUS
 62
256
 10
-338.826929000000010
 20
-63.950873999999999
 40
1.000000000000000
 50
270.000000000000000
 51
5.284732999999778
  0
ARC
  8
0
  6
CONTINUOUS
 62
256
 10
-358.988494000000000
 20
-43.833571999999997
 40
1.000000000000011
 50
53.186145999999269
 51
149.999999999999460
  0
LINE
  8
0
  6
CONTINUOUS
 62
256
 10
-359.854518999999980
 20
-43.333571999999997
 11
-361.366412000000030
 21
-45.952247999999997
  0
ARC
  8
0
  6
CONTINUOUS
 62
256
 10
-360.500386999999990
 20
-46.452247999999997
 40
0.999999999999984
 50
149.999999999999460
 51
232.410458000000890
  0
ARC
  8
0
  6
CONTINUOUS
 62
256
 10
-354.715076000000010
 20
-36.431795999999999
 40
1.000000000000011
 50
54.715266999998782
 51
149.999999999999460
  0
LINE
  8
0
  6
CONTINUOUS
 62
256
 10
-355.581101999999990
 20
-35.931795999999999
 11
-357.088057999999990
 21
-38.541919999999998
  0
ARC
  8
0
  6
CONTINUOUS
 62
256
 10
-356.222032000000010
 20
-39.041919999999998
 40
0.999999999999984
 50
149.999999999999460
 51
234.260830000000000
  0
ARC
  8
0
  6
CONTINUOUS
 62
256
 10
-369.218432000000010
 20
-61.552345000000003
 40
0.999999999999984
 50
149.999999999999460
 51
218.381728000000690
  0
LINE
  8
0
  6
CONTINUOUS
 62
256
 10
-368.500338000000000
 20
-58.308568999999999
 11
-370.084456999999990
 21
-61.052345000000003
  0
ARC
  8
0
  6
CONTINUOUS
 62
256
 10
-364.806090999999980
 20
-53.909945000000000
 40
0.999999999999984
 50
149.999999999999460
 51
228.787728999999960
  0
LINE
  8
0
  6
CONTINUOUS
 62
256
 10
-364.147198000000000
 20
-50.768709999999999
 11
-365.672116000000020
 21
-53.409945000000000
  0
ARC
  8
0
  6
CONTINUOUS
 62
256
 10
-363.281173000000020
 20
-51.268709999999999
 40
0.999999999999988
 50
50.405932000000682
 51
149.999999999999460
  0
ARC
  8
0
  6
CONTINUOUS
 62
256
 10
-367.833640000000000
 20
-63.950873999999999
 40
1.000000000000013
 50
201.618271999999450
 51
270.000000000000000
  0
ARC
  8
0
  6
CONTINUOUS
 62
256
 10
-376.665400999999970
 20
-67.450873999999999
 40
8.500000000000016
 50
21.618271999999980
 51
38.381727999999960
  0
ARC
  8
0
  6
CONTINUOUS
 62
256
 10
-367.634312000000020
 20
-58.808568999999999
 40
1.000000000000005
 50
43.739794999999773
 51
149.999999999999460
  0
LINE
  8
0
  6
CONTINUOUS
 62
256
 10
-364.665400999999970
 20
-64.950873999999999
 11
-367.833640000000000
 21
-64.950873999999999
  0
ARC
  8
0
  6
CONTINUOUS
 62
256
 10
-364.665400999999970
 20
-63.950873999999999
 40
1.000000000000000
 50
270.000000000000000
 51
16.260205000000280
  0
ARC
  8
0
  6
CONTINUOUS
 62
256
 10
-376.665400999999970
 20
-67.450873999999999
 40
13.499999999999988
 50
16.260205000000006
 51
43.739795000000001
  0
ARC
  8
0
  6
CONTINUOUS
 62
256
 10
-376.665400999999970
 20
-67.450873999999999
 40
16.999999999999993
 50
11.212271000000010
 51
48.787728999999985
  0
ARC
  8
0
  6
CONTINUOUS
 62
256
 10
-376.665400999999970
 20
-67.450873999999999
 40
21.999999999999979
 50
9.594068000000020
 51
50.405932000000057
  0
ARC
  8
0
  6
CONTINUOUS
 62
256
 10
-376.665400999999970
 20
-67.450873999999999
 40
30.499999999999986
 50
6.813854000000005
 51
53.186146000000036
  0
ARC
  8
0
  6
CONTINUOUS
 62
256
 10
-376.665400999999970
 20
-67.450873999999999
 40
25.500000000000011
 50
7.589541999999985
 51
52.410458000000027
  0
ARC
  8
0
  6
CONTINUOUS
 62
256
 10
-376.665400999999970
 20
-67.450873999999999
 40
34.000000000000028
 50
5.739170000000004
 51
54.260829999999970
  0
ARC
  8
0
  6
CONTINUOUS
 62
256
 10
-376.665400999999970
 20
-67.450873999999999
 40
38.999999999999986
 50
5.284733000000007
 51
54.715266999999990
  0
ARC
  8
0
  6
CONTINUOUS
 62
256
 10
-365.050672000000020
 20
-40.333571999999997
 40
0.999999999999984
 50
329.999999999999490
 51
66.813853999999878
  0
LINE
  8
0
  6
CONTINUOUS
 62
256
 10
-364.184645999999990
 20
-40.833571999999997
 11
-365.696538999999970
 21
-43.452247999999997
  0
ARC
  8
0
  6
CONTINUOUS
 62
256
 10
-366.562565000000010
 20
-42.952247999999997
 40
1.000000000000003
 50
247.589541999999370
 51
329.999999999999490
  0
ARC
  8
0
  6
CONTINUOUS
 62
256
 10
-360.777254000000030
 20
-32.931795999999999
 40
0.999999999999984
 50
329.999999999999490
 51
65.284732999999861
  0
LINE
  8
0
  6
CONTINUOUS
 62
256
 10
-359.911228999999990
 20
-33.431795999999999
 11
-361.418184999999990
 21
-36.041919999999998
  0
ARC
  8
0
  6
CONTINUOUS
 62
256
 10
-362.284209999999970
 20
-35.541919999999998
 40
0.999999999999992
 50
245.739170000001340
 51
329.999999999999490
  0
ARC
  8
0
  6
CONTINUOUS
 62
256
 10
-375.280610000000020
 20
-58.052345000000003
 40
0.999999999999998
 50
261.618272000001130
 51
329.999999999999490
  0
LINE
  8
0
  6
CONTINUOUS
 62
256
 10
-372.830465000000000
 20
-55.808568999999999
 11
-374.414583999999990
 21
-58.552345000000003
  0
ARC
  8
0
  6
CONTINUOUS
 62
256
 10
-370.868268000000000
 20
-50.409945000000000
 40
1.000000000000004
 50
251.212270999999130
 51
329.999999999999490
  0
LINE
  8
0
  6
CONTINUOUS
 62
256
 10
-368.477325000000010
 20
-48.268709999999999
 11
-370.002243000000020
 21
-50.909945000000000
  0
ARC
  8
0
  6
CONTINUOUS
 62
256
 10
-369.343350999999980
 20
-47.768709999999999
 40
0.999999999999984
 50
329.999999999999490
 51
69.594068000000291
  0
ARC
  8
0
  6
CONTINUOUS
 62
256
 10
-373.696489999999980
 20
-55.308568999999999
 40
0.999999999999984
 50
329.999999999999490
 51
76.260204999998635
  0
ARC
  8
0
  6
CONTINUOUS
 62
256
 10
-376.665400999999970
 20
-67.450873999999999
 40
13.499999999999996
 50
76.260205000000070
 51
103.739794999999940
  0
ARC
  8
0
  6
CONTINUOUS
 62
256
 10
-376.665400999999970
 20
-67.450873999999999
 40
16.999999999999993
 50
71.212271000000044
 51
108.787728999999960
  0
ARC
  8
0
  6
CONTINUOUS
 62
256
 10
-376.665400999999970
 20
-67.450873999999999
 40
21.999999999999996
 50
69.594067999999993
 51
110.405932000000020
  0
ARC
  8
0
  6
CONTINUOUS
 62
256
 10
-376.665400999999970
 20
-67.450873999999999
 40
30.500000000000004
 50
66.813853999999992
 51
113.186146000000010
  0
ARC
  8
0
  6
CONTINUOUS
 62
256
 10
-376.665400999999970
 20
-67.450873999999999
 40
25.500000000000007
 50
67.589541999999966
 51
112.410458000000050
  0
ARC
  8
0
  6
CONTINUOUS
 62
256
 10
-376.665400999999970
 20
-67.450873999999999
 40
34.000000000000000
 50
65.739169999999987
 51
114.260830000000010
  0
ARC
  8
0
  6
CONTINUOUS
 62
256
 10
-376.665400999999970
 20
-67.450873999999999
 40
38.999999999999993
 50
65.284733000000031
 51
114.715266999999980
  0
LINE
  8
0
  6
CONTINUOUS
 62
256
 10
-405.957038000000010
 20
-69.950873999999999
 11
-402.933251999999980
 21
-69.950873999999999
  0
LINE
  8
0
  6
CONTINUOUS
 62
256
 10
-397.371681000000020
 20
-69.950873999999999
 11
-394.321845000000000
 21
-69.950873999999999
  0
LINE
  8
0
  6
CONTINUOUS
 62
256
 10
-388.665400999999970
 20
-69.950873999999999
 11
-385.497162000000000
 21
-69.950873999999999
  0
LINE
  8
0
  6
CONTINUOUS
 62
256
 10
-384.830465000000000
 20
-76.593179000000006
 11
-383.246345000000020
 21
-73.849402999999995
  0
LINE
  8
0
  6
CONTINUOUS
 62
256
 10
-389.183604000000000
 20
-84.133037999999999
 11
-387.658686999999990
 21
-81.491803000000004
  0
LINE
  8
0
  6
CONTINUOUS
 62
256
 10
-397.749701000000020
 20
-98.969953000000004
 11
-396.242745000000010
 21
-96.359827999999993
  0
LINE
  8
0
  6
CONTINUOUS
 62
256
 10
-414.503874000000000
 20
-69.950873999999999
 11
-411.489961999999990
 21
-69.950873999999999
  0
LINE
  8
0
  6
CONTINUOUS
 62
256
 10
-393.476283000000020
 20
-91.568175999999994
 11
-391.964389999999980
 21
-88.949500000000000
  0
ARC
  8
0
  6
CONTINUOUS
 62
256
 10
-376.665400999999970
 20
-67.450873999999999
 40
8.500000000000016
 50
201.618271999999960
 51
218.381727999999950
  0
ARC
  8
0
  6
CONTINUOUS
 62
256
 10
-376.665400999999970
 20
-67.450873999999999
 40
13.499999999999989
 50
196.260205000000010
 51
223.739794999999960
  0
ARC
  8
0
  6
CONTINUOUS
 62
256
 10
-376.665400999999970
 20
-67.450873999999999
 40
16.999999999999993
 50
191.212271000000020
 51
228.787728999999980
  0
ARC
  8
0
  6
CONTINUOUS
 62
256
 10
-376.665400999999970
 20
-67.450873999999999
 40
21.999999999999975
 50
189.594067999999960
 51
230.405932000000060
  0
ARC
  8
0
  6
CONTINUOUS
 62
256
 10
-376.665400999999970
 20
-67.450873999999999
 40
25.500000000000011
 50
187.589541999999990
 51
232.410458000000030
  0
ARC
  8
0
  6
CONTINUOUS
 62
256
 10
-376.665400999999970
 20
-67.450873999999999
 40
34.000000000000028
 50
185.739169999999970
 51
234.260829999999970
  0
ARC
  8
0
  6
CONTINUOUS
 62
256
 10
-376.665400999999970
 20
-67.450873999999999
 40
30.499999999999986
 50
186.813853999999990
 51
233.186146000000040
  0
ARC
  8
0
  6
CONTINUOUS
 62
256
 10
-376.665400999999970
 20
-67.450873999999999
 40
38.999999999999986
 50
185.284732999999990
 51
234.715266999999980
  0
ARC
  8
0
  6
CONTINUOUS
 62
256
 10
-384.112371000000000
 20
-73.349402999999995
 40
0.999999999999984
 50
329.999999999999490
 51
38.381728000001026
  0
ARC
  8
0
  6
CONTINUOUS
 62
256
 10
-385.497162000000000
 20
-70.950873999999999
 40
1.000000000000013
 50
21.618271999999475
 51
90.000000000000000
  0
ARC
  8
0
  6
CONTINUOUS
 62
256
 10
-388.665400999999970
 20
-70.950873999999999
 40
1.000000000000000
 50
90.000000000000000
 51
196.260205000000670
  0
ARC
  8
0
  6
CONTINUOUS
 62
256
 10
-385.696489999999980
 20
-76.093179000000006
 40
1.000000000000005
 50
223.739794999999760
 51
329.999999999999490
  0
ARC
  8
0
  6
CONTINUOUS
 62
256
 10
-388.524712000000020
 20
-80.991803000000004
 40
0.999999999999984
 50
329.999999999999490
 51
48.787728999999715
  0
ARC
  8
0
  6
CONTINUOUS
 62
256
 10
-390.049629999999980
 20
-83.633037999999999
 40
0.999999999999988
 50
230.405932000000690
 51
329.999999999999490
  0
ARC
  8
0
  6
CONTINUOUS
 62
256
 10
-394.321845000000000
 20
-70.950873999999999
 40
1.000000000000016
 50
11.212270999999729
 51
90.000000000000000
  0
ARC
  8
0
  6
CONTINUOUS
 62
256
 10
-397.371681000000020
 20
-70.950873999999999
 40
1.000000000000000
 50
90.000000000000000
 51
189.594067999999960
  0
ARC
  8
0
  6
CONTINUOUS
 62
256
 10
-405.957038000000010
 20
-70.950873999999999
 40
1.000000000000000
 50
90.000000000000000
 51
186.813853999999760
  0
ARC
  8
0
  6
CONTINUOUS
 62
256
 10
-392.830416000000010
 20
-88.449500000000000
 40
0.999999999999984
 50
329.999999999999490
 51
52.410458000001171
  0
ARC
  8
0
  6
CONTINUOUS
 62
256
 10
-394.342309000000000
 20
-91.068175999999994
 40
1.000000000000011
 50
233.186145999999270
 51
329.999999999999490
  0
ARC
  8
0
  6
CONTINUOUS
 62
256
 10
-402.933251999999980
 20
-70.950873999999999
 40
0.999999999999990
 50
7.589541999999997
 51
90.000000000000000
  0
ARC
  8
0
  6
CONTINUOUS
 62
256
 10
-414.503874000000000
 20
-70.950873999999999
 40
1.000000000000000
 50
90.000000000000000
 51
185.284732999999760
  0
ARC
  8
0
  6
CONTINUOUS
 62
256
 10
-411.489961999999990
 20
-70.950873999999999
 40
0.999999999999978
 50
5.739170000000447
 51
90.000000000000000
  0
ARC
  8
0
  6
CONTINUOUS
 62
256
 10
-397.108769999999990
 20
-95.859827999999993
 40
0.999999999999984
 50
329.999999999999490
 51
54.260829999999778
  0
ARC
  8
0
  6
CONTINUOUS
 62
256
 10
-398.615726000000000
 20
-98.469953000000004
 40
1.000000000000016
 50
234.715266999999020
 51
329.999999999999490
  0
CIRCLE
  8
0
  6
CONTINUOUS
 62
256
 10
-376.665400999999970
 20
-67.450873999999999
 40
5.000000000000000
  0
ARC
  8
0
  6
CONTINUOUS
 62
256
 10
-392.553548999999980
 20
-101.969953000000000
 40
0.999999999999984
 50
149.999999999999460
 51
245.284732999999870
  0
LINE
  8
0
  6
CONTINUOUS
 62
256
 10
-393.419574000000010
 20
-101.469953000000000
 11
-391.912618000000010
 21
-98.859827999999993
  0
ARC
  8
0
  6
CONTINUOUS
 62
256
 10
-376.665400999999970
 20
-67.450873999999999
 40
39.000000000000014
 50
245.284732999999960
 51
294.715266999999980
  0
ARC
  8
0
  6
CONTINUOUS
 62
256
 10
-376.665400999999970
 20
-67.450873999999999
 40
34.000000000000000
 50
245.739170000000000
 51
294.260830000000000
  0
ARC
  8
0
  6
CONTINUOUS
 62
256
 10
-376.665400999999970
 20
-67.450873999999999
 40
25.500000000000007
 50
247.589541999999940
 51
292.410458000000010
  0
ARC
  8
0
  6
CONTINUOUS
 62
256
 10
-376.665400999999970
 20
-67.450873999999999
 40
30.499999999999996
 50
246.813853999999990
 51
293.186146000000010
  0
ARC
  8
0
  6
CONTINUOUS
 62
256
 10
-388.280130999999980
 20
-94.568175999999994
 40
0.999999999999984
 50
149.999999999999460
 51
246.813853999999880
  0
LINE
  8
0
  6
CONTINUOUS
 62
256
 10
-389.146156000000020
 20
-94.068175999999994
 11
-387.634262999999980
 21
-91.449500000000000
  0
ARC
  8
0
  6
CONTINUOUS
 62
256
 10
-376.665400999999970
 20
-67.450873999999999
 40
21.999999999999996
 50
249.594067999999990
 51
290.405932000000010
  0
ARC
  8
0
  6
CONTINUOUS
 62
256
 10
-391.046592999999970
 20
-99.359827999999993
 40
0.999999999999992
 50
65.739170000001337
 51
149.999999999999460
  0
ARC
  8
0
  6
CONTINUOUS
 62
256
 10
-386.768238000000000
 20
-91.949500000000000
 40
1.000000000000009
 50
67.589541999999554
 51
149.999999999999460
  0
ARC
  8
0
  6
CONTINUOUS
 62
256
 10
-383.987452000000020
 20
-87.133037999999999
 40
0.999999999999984
 50
149.999999999999460
 51
249.594068000000160
  0
ARC
  8
0
  6
CONTINUOUS
 62
256
 10
-376.665400999999970
 20
-67.450873999999999
 40
16.999999999999993
 50
251.212271000000040
 51
288.787728999999960
  0
LINE
  8
0
  6
CONTINUOUS
 62
256
 10
-384.853477000000000
 20
-86.633037999999999
 11
-383.328559999999980
 21
-83.991803000000004
  0
ARC
  8
0
  6
CONTINUOUS
 62
256
 10
-382.462534000000010
 20
-84.491803000000004
 40
1.000000000000010
 50
71.212270999999262
 51
149.999999999999460
  0
ARC
  8
0
  6
CONTINUOUS
 62
256
 10
-376.665400999999970
 20
-67.450873999999999
 40
13.500000000000004
 50
256.260205000000040
 51
283.739794999999960
  0
ARC
  8
0
  6
CONTINUOUS
 62
256
 10
-379.634312000000020
 20
-79.593179000000006
 40
0.999999999999984
 50
149.999999999999460
 51
256.260204999998730
  0
LINE
  8
0
  6
CONTINUOUS
 62
256
 10
-380.500338000000000
 20
-79.093179000000006
 11
-378.916218000000010
 21
-76.349402999999995
  0
ARC
  8
0
  6
CONTINUOUS
 62
256
 10
-373.696489999999980
 20
-79.593179000000006
 40
1.000000000000011
 50
283.739795000001270
 51
30.000000000000544
  0
ARC
  8
0
  6
CONTINUOUS
 62
256
 10
-376.665400999999970
 20
-67.450873999999999
 40
8.500000000000002
 50
261.618271999999930
 51
278.381728000000070
  0
ARC
  8
0
  6
CONTINUOUS
 62
256
 10
-378.050192999999980
 20
-76.849402999999995
 40
0.999999999999998
 50
81.618272000001099
 51
149.999999999999460
  0
ARC
  8
0
  6
CONTINUOUS
 62
256
 10
-369.343350999999980
 20
-87.133037999999999
 40
0.999999999999993
 50
290.405931999999840
 51
30.000000000000544
  0
LINE
  8
0
  6
CONTINUOUS
 62
256
 10
-368.477325000000010
 20
-86.633037999999999
 11
-370.002243000000020
 21
-83.991803000000004
  0
ARC
  8
0
  6
CONTINUOUS
 62
256
 10
-370.868268000000000
 20
-84.491803000000004
 40
0.999999999999984
 50
30.000000000000544
 51
108.787729000000750
  0
LINE
  8
0
  6
CONTINUOUS
 62
256
 10
-372.830465000000000
 20
-79.093179000000006
 11
-374.414583999999990
 21
-76.349402999999995
  0
ARC
  8
0
  6
CONTINUOUS
 62
256
 10
-375.280610000000020
 20
-76.849402999999995
 40
0.999999999999984
 50
30.000000000000544
 51
98.381727999998901
  0
ARC
  8
0
  6
CONTINUOUS
 62
256
 10
-362.284209999999970
 20
-99.359827999999993
 40
0.999999999999984
 50
30.000000000000544
 51
114.260829999998650
  0
LINE
  8
0
  6
CONTINUOUS
 62
256
 10
-359.911228999999990
 20
-101.469953000000000
 11
-361.418184999999990
 21
-98.859827999999993
  0
ARC
  8
0
  6
CONTINUOUS
 62
256
 10
-360.777254000000030
 20
-101.969953000000000
 40
1.000000000000004
 50
294.715267000000150
 51
30.000000000000544
  0
ARC
  8
0
  6
CONTINUOUS
 62
256
 10
-366.562565000000010
 20
-91.949500000000000
 40
0.999999999999984
 50
30.000000000000544
 51
112.410458000000460
  0
LINE
  8
0
  6
CONTINUOUS
 62
256
 10
-364.184645999999990
 20
-94.068175999999994
 11
-365.696538999999970
 21
-91.449500000000000
  0
ARC
  8
0
  6
CONTINUOUS
 62
256
 10
-365.050672000000020
 20
-94.568175999999994
 40
1.000000000000000
 50
293.186146000000120
 51
30.000000000000544
  0
ARC
  8
0
  6
CONTINUOUS
 62
256
 10
-376.665400999999970
 20
-67.450873999999999
 40
39.000000000000000
 50
305.284733000000020
 51
354.715266999999980
  0
ARC
  8
0
  6
CONTINUOUS
 62
256
 10
-376.665400999999970
 20
-67.450873999999999
 40
33.999999999999986
 50
305.739169999999940
 51
354.260830000000000
  0
ARC
  8
0
  6
CONTINUOUS
 62
256
 10
-376.665400999999970
 20
-67.450873999999999
 40
25.499999999999986
 50
307.589541999999990
 51
352.410458000000010
  0
ARC
  8
0
  6
CONTINUOUS
 62
256
 10
-376.665400999999970
 20
-67.450873999999999
 40
30.500000000000014
 50
306.813854000000050
 51
353.186146000000010
  0
ARC
  8
0
  6
CONTINUOUS
 62
256
 10
-376.665400999999970
 20
-67.450873999999999
 40
21.999999999999986
 50
309.594067999999940
 51
350.405932000000010
  0
ARC
  8
0
  6
CONTINUOUS
 62
256
 10
-376.665400999999970
 20
-67.450873999999999
 40
17.000000000000014
 50
311.212270999999990
 51
348.787729000000010
  0
ARC
  8
0
  6
CONTINUOUS
 62
256
 10
-376.665400999999970
 20
-67.450873999999999
 40
13.500000000000004
 50
316.260204999999980
 51
343.739794999999960
  0
ARC
  8
0
  6
CONTINUOUS
 62
256
 10
-364.665400999999970
 20
-70.950873999999999
 40
0.999999999999976
 50
343.739794999999330
 51
90.000000000000000
  0
LINE
  8
0
  6
CONTINUOUS
 62
256
 10
-364.665400999999970
 20
-69.950873999999999
 11
-367.833640000000000
 21
-69.950873999999999
  0
ARC
  8
0
  6
CONTINUOUS
 62
256
 10
-367.634312000000020
 20
-76.093179000000006
 40
0.999999999999984
 50
210.000000000000510
 51
316.260205000000270
  0
ARC
  8
0
  6
CONTINUOUS
 62
256
 10
-376.665400999999970
 20
-67.450873999999999
 40
8.500000000000005
 50
321.618272000000050
 51
338.381728000000010
  0
ARC
  8
0
  6
CONTINUOUS
 62
256
 10
-367.833640000000000
 20
-70.950873999999999
 40
1.000000000000000
 50
90.000000000000000
 51
158.381728000000550
  0
ARC
  8
0
  6
CONTINUOUS
 62
256
 10
-363.281173000000020
 20
-83.633037999999999
 40
0.999999999999984
 50
210.000000000000510
 51
309.594067999999310
  0
LINE
  8
0
  6
CONTINUOUS
 62
256
 10
-364.147198000000000
 20
-84.133037999999999
 11
-365.672116000000020
 21
-81.491803000000004
  0
ARC
  8
0
  6
CONTINUOUS
 62
256
 10
-364.806090999999980
 20
-80.991803000000004
 40
1.000000000000006
 50
131.212270999999760
 51
210.000000000000510
  0
LINE
  8
0
  6
CONTINUOUS
 62
256
 10
-368.500338000000000
 20
-76.593179000000006
 11
-370.084456999999990
 21
-73.849402999999995
  0
ARC
  8
0
  6
CONTINUOUS
 62
256
 10
-369.218432000000010
 20
-73.349402999999995
 40
0.999999999999985
 50
141.618271999999000
 51
210.000000000000510
  0
ARC
  8
0
  6
CONTINUOUS
 62
256
 10
-356.222032000000010
 20
-95.859827999999993
 40
0.999999999999998
 50
125.739170000000210
 51
210.000000000000510
  0
LINE
  8
0
  6
CONTINUOUS
 62
256
 10
-355.581101999999990
 20
-98.969953000000004
 11
-357.088057999999990
 21
-96.359827999999993
  0
ARC
  8
0
  6
CONTINUOUS
 62
256
 10
-354.715076000000010
 20
-98.469953000000004
 40
0.999999999999984
 50
210.000000000000510
 51
305.284733000000980
  0
ARC
  8
0
  6
CONTINUOUS
 62
256
 10
-360.500386999999990
 20
-88.449500000000000
 40
0.999999999999993
 50
127.589541999998830
 51
210.000000000000510
  0
LINE
  8
0
  6
CONTINUOUS
 62
256
 10
-359.854518999999980
 20
-91.568175999999994
 11
-361.366412000000030
 21
-88.949500000000000
  0
ARC
  8
0
  6
CONTINUOUS
 62
256
 10
-358.988494000000000
 20
-91.068175999999994
 40
0.999999999999984
 50
210.000000000000510
 51
306.813854000000730
  0
ARC
  8
0
  6
CONTINUOUS
 62
256
 10
-338.826929000000010
 20
-70.950873999999999
 40
1.000000000000027
 50
354.715267000000210
 51
90.000000000000000
  0
LINE
  8
0
  6
CONTINUOUS
 62
256
 10
-338.826929000000010
 20
-69.950873999999999
 11
-341.840841000000010
 21
-69.950873999999999
  0
ARC
  8
0
  6
CONTINUOUS
 62
256
 10
-341.840841000000010
 20
-70.950873999999999
 40
1.000000000000000
 50
90.000000000000000
 51
174.260829999999570
  0
ARC
  8
0
  6
CONTINUOUS
 62
256
 10
-347.373763999999990
 20
-70.950873999999999
 40
1.000000000000019
 50
353.186146000000240
 51
90.000000000000000
  0
LINE
  8
0
  6
CONTINUOUS
 62
256
 10
-347.373763999999990
 20
-69.950873999999999
 11
-350.397550000000020
 21
-69.950873999999999
  0
ARC
  8
0
  6
CONTINUOUS
 62
256
 10
-350.397550000000020
 20
-70.950873999999999
 40
1.000000000000000
 50
90.000000000000000
 51
172.410458000000010
  0
ARC
  8
0
  6
CONTINUOUS
 62
256
 10
-355.959121999999980
 20
-70.950873999999999
 40
0.999999999999978
 50
350.405932000000010
 51
90.000000000000000
  0
LINE
  8
0
  6
CONTINUOUS
 62
256
 10
-355.959121999999980
 20
-69.950873999999999
 11
-359.008958000000010
 21
-69.950873999999999
  0
ARC
  8
0
  6
CONTINUOUS
 62
256
 10
-359.008958000000010
 20
-70.950873999999999
 40
1.000000000000000
 50
90.000000000000000
 51
168.787729000000270
  0
LINE
  8
0
  6
CONTINUOUS
 62
256
 10
328.499163000000010
 20
-15.894406999999999
 11
321.040467999999980
 21
-23.353102000000000
  0
ARC
  8
0
  6
CONTINUOUS
 62
256
 10
717.729320000000030
 20
-67.450873999999999
 40
400.600000000000080
 50
174.256317999999990
 51
180.000000000000000
  0
ARC
  8
0
  6
CONTINUOUS
 62
256
 10
325.707373000000020
 20
-28.020007000000000
 40
6.600000000000019
 50
135.000000000000140
 51
174.256317999999960
  0
ARC
  8
0
  6
CONTINUOUS
 62
256
 10
717.729320000000030
 20
-67.450873999999999
 40
400.600000000000020
 50
180.000000000000000
 51
185.743681999999980
  0
ARC
  8
0
  6
CONTINUOUS
 62
256
 10
325.707373000000020
 20
-106.881741000000010
 40
6.599999999999973
 50
185.743682000000060
 51
224.999999999999830
  0
LINE
  8
0
  6
CONTINUOUS
 62
256
 10
328.499163000000010
 20
-119.007341000000000
 11
321.040467999999980
 21
-111.548646000000010
  0
ARC
  8
0
  6
CONTINUOUS
 62
256
 10
343.065563000000000
 20
-104.440941000000000
 40
20.599999999999991
 50
225.000000000000000
 51
247.340456999999990
  0
ARC
  8
0
  6
CONTINUOUS
 62
256
 10
399.193076000000020
 20
-104.440941000000000
 40
20.600000000000009
 50
292.659543000000040
 51
314.999999999999940
  0
ARC
  8
0
  6
CONTINUOUS
 62
256
 10
416.551267000000000
 20
-106.881741000000010
 40
6.600000000000017
 50
315.000000000000170
 51
354.256318000000020
  0
LINE
  8
0
  6
CONTINUOUS
 62
256
 10
413.759476000000010
 20
-119.007341000000000
 11
421.218170999999980
 21
-111.548646000000010
  0
ARC
  8
0
  6
CONTINUOUS
 62
256
 10
24.529319999999998
 20
-67.450873999999999
 40
400.600000000000020
 50
354.256318000000020
 51
0.000000000000000
  0
ARC
  8
0
  6
CONTINUOUS
 62
256
 10
24.529319999999998
 20
-67.450873999999999
 40
400.600000000000020
 50
0.000000000000000
 51
5.743682000000000
  0
LINE
  8
0
  6
CONTINUOUS
 62
256
 10
413.759476000000010
 20
-15.894406999999999
 11
421.218170999999980
 21
-23.353102000000000
  0
ARC
  8
0
  6
CONTINUOUS
 62
256
 10
416.551267000000000
 20
-28.020007000000000
 40
6.599999999999973
 50
5.743682000000032
 51
44.999999999999829
  0
ARC
  8
0
  6
CONTINUOUS
 62
256
 10
399.193076000000020
 20
-30.460806999999999
 40
20.599999999999994
 50
45.000000000000014
 51
56.278439999999975
  0
ARC
  8
0
  6
CONTINUOUS
 62
256
 10
371.129320000000010
 20
-309.050874000000020
 40
300.600000000000020
 50
84.247716999999994
 51
90.000000000000000
  0
ARC
  8
0
  6
CONTINUOUS
 62
256
 10
371.129320000000010
 20
-309.050874000000020
 40
300.600000000000020
 50
90.000000000000000
 51
95.752283000000006
  0
ARC
  8
0
  6
CONTINUOUS
 62
256
 10
343.065563000000000
 20
-30.460806999999999
 40
20.600000000000005
 50
95.752283000000077
 51
113.624686000000030
  0
ARC
  8
0
  6
CONTINUOUS
 62
256
 10
399.193076000000020
 20
-30.460806999999999
 40
20.600000000000009
 50
60.887981999999965
 51
84.247716999999938
  0
ARC
  8
0
  6
CONTINUOUS
 62
256
 10
343.065563000000000
 20
-30.460806999999999
 40
20.600000000000009
 50
123.721560000000030
 51
135.000000000000000
  0
LINE
  8
0
  6
CONTINUOUS
 62
256
 10
335.129320000000010
 20
-118.461510000000000
 11
335.129320000000010
 21
-152.317539000000010
  0
LINE
  8
0
  6
CONTINUOUS
 62
256
 10
335.129320000000010
 20
-124.950874000000000
 11
341.141333999999970
 21
-124.950874000000000
  0
ARC
  8
0
  6
CONTINUOUS
 62
256
 10
371.129320000000010
 20
141.049126000000000
 40
300.000000000000000
 50
263.967951000000030
 51
276.032048999999970
  0
ARC
  8
0
  6
CONTINUOUS
 62
256
 10
340.129320000000010
 20
-152.317539000000010
 40
5.000000000000000
 50
180.000000000000000
 51
263.967950999999970
  0
LINE
  8
0
  6
CONTINUOUS
 62
256
 10
368.629320000000010
 20
-159.450874000000000
 11
368.629320000000010
 21
-158.940457000000010
  0
LINE
  8
0
  6
CONTINUOUS
 62
256
 10
368.629320000000010
 20
-159.450874000000000
 11
373.629320000000010
 21
-159.450874000000000
  0
LINE
  8
0
  6
CONTINUOUS
 62
256
 10
373.629320000000010
 20
-159.450874000000000
 11
373.629320000000010
 21
-158.940457000000010
  0
ARC
  8
0
  6
CONTINUOUS
 62
256
 10
402.129320000000010
 20
-152.317539000000010
 40
5.000000000000002
 50
276.032049000000030
 51
0.000000000000000
  0
LINE
  8
0
  6
CONTINUOUS
 62
256
 10
407.129320000000010
 20
-118.461510000000000
 11
407.129320000000010
 21
-152.317539000000010
  0
LINE
  8
0
  6
CONTINUOUS
 62
256
 10
401.121819000000020
 20
-124.950874000000000
 11
407.129320000000010
 21
-124.950874000000000
  0
ENDSEC
  0
EOF
