  0
SECTION
  2
HEADER
  9
$TEXTSIZE
 40
2.5
  9
$ACADVER
  1
AC1009
  9
$DIMASZ
 40
3.863703297614046
  9
$DIMEXE
 40
2.000000000000000
  9
$DIMEXO
 40
1.000000000000000
  9
$DIMLFAC
 40
1.000000000000000
  9
$DIMSCALE
 40
1.000000000000000
  9
$DIMTAD
 70
1
  9
$DIMTFAC
 40
0.625000000000000
  9
$DIMTXT
 40
3.200000047683716
  9
$LUPREC
 70
3
  9
$REGENMODE
 70
1
  9
$TEXTSTYLE
  7
STANDARD1
  0
ENDSEC
  0
SECTION
  2
TABLES
  0
TABLE
  2
LTYPE
 70
4
  0
LTYPE
  2
CONTINUOUS
 70
64
  3
Solid line
 72
65
 73
0
 40
0.0
  0
LTYPE
  2
DASHED
 70
64
  3
-- -- -- -- -- -- -- -- -- -- -- -- -- -- --
 72
65
 73
2
 40
0.75
 49
0.5
 49
-0.25
  0
LTYPE
  2
DASHDOT
 70
64
  3
__ . __ . __ . __ . __ . __ . __ . __ . __ . __
 72
65
 73
4
 40
1.0
 49
0.5
 49
-0.25
 49
0.0
 49
-0.25
  0
LTYPE
  2
DIVIDE
 70
64
  3
__ . . __ . . __ . . __ . . __ . . __ . . __
 72
65
 73
6
 40
1.25
 49
0.5
 49
-0.25
 49
0.0
 49
-0.25
 49
0.0
 49
-0.25
  0
ENDTAB
  0
TABLE
  2
LAYER
 70
2
  0
LAYER
  2
0
 70
64
 62
53
  6
CONTINUOUS
  0
LAYER
  2
1
 70
64
 62
102
  6
CONTINUOUS
  0
ENDTAB
  0
TABLE
  2
STYLE
 70
4
  0
STYLE
  2
STANDARD1
 70
64
 40
0.0
 41
1.0
 50
0.0
 71
0
 42
3.200000047683716
  3
MONOTXT
  4
BIGFONT
  0
STYLE
  2
STANDARD2
 70
68
 40
0.0
 41
1.0
 50
0.0
 71
0
 42
3.200000047683716
  3
MONOTXT
  4
BIGFONT
  0
STYLE
  2
STANDARD3
 70
64
 40
0.0
 41
1.0
 50
0.0
 71
0
 42
3.200000047683716
  3
MONOTXT
  4

  0
STYLE
  2
STANDARD4
 70
68
 40
0.0
 41
1.0
 50
0.0
 71
0
 42
3.200000047683716
  3
MONOTXT
  4

  0
ENDTAB
  0
TABLE
  2
VIEW
 70
0
  0
ENDTAB
  0
ENDSEC
  0
SECTION
  2
BLOCKS
  0
BLOCK
  8
0
  2
ZU_SYM_1
 70
64
 10
0.000000000000000
 20
0.000000000000000
  0
CIRCLE
  8
0
  6
CONTINUOUS
 62
256
 10
0.000000000000000
 20
0.000000000000000
 40
4.249999000000000
  0
POINT
  8
0
  6
CONTINUOUS
 62
256
 10
0.000000000000000
 20
0.000000000000000
  0
LINE
  8
0
  6
CONTINUOUS
 62
256
 10
-1.999998000000000
 20
-1.154696000000000
 11
-1.999999000000000
 21
1.154700000000000
  0
LINE
  8
0
  6
CONTINUOUS
 62
256
 10
1.999998000000000
 20
1.154695000000000
 11
1.999999000000000
 21
-1.154699000000000
  0
LINE
  8
0
  6
CONTINUOUS
 62
256
 10
1.999998000000000
 20
1.154696000000000
 11
0.000002000000000
 21
2.309399000000000
  0
LINE
  8
0
  6
CONTINUOUS
 62
256
 10
-0.000002000000000
 20
-2.309397000000000
 11
-1.999997000000000
 21
-1.154696000000000
  0
LINE
  8
0
  6
CONTINUOUS
 62
256
 10
-1.999999000000000
 20
1.154700000000000
 11
0.000002000000000
 21
2.309399000000000
  0
LINE
  8
0
  6
CONTINUOUS
 62
256
 10
1.999999000000000
 20
-1.154699000000000
 11
-0.000002000000000
 21
-2.309398000000000
  0
ENDBLK
  8
0
  0
BLOCK
  8
0
  2
ZU_SYM_2
 70
64
 10
0.000000000000000
 20
0.000000000000000
  0
CIRCLE
  8
0
  6
CONTINUOUS
 62
256
 10
0.000000000000000
 20
0.000000000000000
 40
4.249999000000000
  0
POINT
  8
0
  6
CONTINUOUS
 62
256
 10
0.000000000000000
 20
0.000000000000000
  0
LINE
  8
0
  6
CONTINUOUS
 62
256
 10
-1.999998000000000
 20
-1.154696000000000
 11
-1.999999000000000
 21
1.154700000000000
  0
LINE
  8
0
  6
CONTINUOUS
 62
256
 10
1.999998000000000
 20
1.154695000000000
 11
1.999999000000000
 21
-1.154699000000000
  0
LINE
  8
0
  6
CONTINUOUS
 62
256
 10
1.999998000000000
 20
1.154696000000000
 11
0.000002000000000
 21
2.309399000000000
  0
LINE
  8
0
  6
CONTINUOUS
 62
256
 10
-0.000002000000000
 20
-2.309397000000000
 11
-1.999997000000000
 21
-1.154696000000000
  0
LINE
  8
0
  6
CONTINUOUS
 62
256
 10
-1.999999000000000
 20
1.154700000000000
 11
0.000002000000000
 21
2.309399000000000
  0
LINE
  8
0
  6
CONTINUOUS
 62
256
 10
1.999999000000000
 20
-1.154699000000000
 11
-0.000002000000000
 21
-2.309398000000000
  0
ENDBLK
  8
0
  0
BLOCK
  8
0
  2
ZU_SYM_3
 70
64
 10
0.000000000000000
 20
0.000000000000000
  0
CIRCLE
  8
0
  6
CONTINUOUS
 62
256
 10
0.000000000000000
 20
0.000000000000000
 40
4.249999000000000
  0
POINT
  8
0
  6
CONTINUOUS
 62
256
 10
0.000000000000000
 20
0.000000000000000
  0
LINE
  8
0
  6
CONTINUOUS
 62
256
 10
-1.999998000000000
 20
-1.154696000000000
 11
-1.999999000000000
 21
1.154700000000000
  0
LINE
  8
0
  6
CONTINUOUS
 62
256
 10
1.999998000000000
 20
1.154695000000000
 11
1.999999000000000
 21
-1.154699000000000
  0
LINE
  8
0
  6
CONTINUOUS
 62
256
 10
1.999998000000000
 20
1.154696000000000
 11
0.000002000000000
 21
2.309399000000000
  0
LINE
  8
0
  6
CONTINUOUS
 62
256
 10
-0.000002000000000
 20
-2.309397000000000
 11
-1.999997000000000
 21
-1.154696000000000
  0
LINE
  8
0
  6
CONTINUOUS
 62
256
 10
-1.999999000000000
 20
1.154700000000000
 11
0.000002000000000
 21
2.309399000000000
  0
LINE
  8
0
  6
CONTINUOUS
 62
256
 10
1.999999000000000
 20
-1.154699000000000
 11
-0.000002000000000
 21
-2.309398000000000
  0
ENDBLK
  8
0
  0
BLOCK
  8
0
  2
ZU_SYM_4
 70
64
 10
0.000000000000000
 20
0.000000000000000
  0
CIRCLE
  8
0
  6
CONTINUOUS
 62
256
 10
0.000000000000000
 20
0.000000000000000
 40
4.249999000000000
  0
POINT
  8
0
  6
CONTINUOUS
 62
256
 10
0.000000000000000
 20
0.000000000000000
  0
LINE
  8
0
  6
CONTINUOUS
 62
256
 10
-1.999998000000000
 20
-1.154696000000000
 11
-1.999999000000000
 21
1.154700000000000
  0
LINE
  8
0
  6
CONTINUOUS
 62
256
 10
1.999998000000000
 20
1.154695000000000
 11
1.999999000000000
 21
-1.154699000000000
  0
LINE
  8
0
  6
CONTINUOUS
 62
256
 10
1.999998000000000
 20
1.154696000000000
 11
0.000002000000000
 21
2.309399000000000
  0
LINE
  8
0
  6
CONTINUOUS
 62
256
 10
-0.000002000000000
 20
-2.309397000000000
 11
-1.999997000000000
 21
-1.154696000000000
  0
LINE
  8
0
  6
CONTINUOUS
 62
256
 10
-1.999999000000000
 20
1.154700000000000
 11
0.000002000000000
 21
2.309399000000000
  0
LINE
  8
0
  6
CONTINUOUS
 62
256
 10
1.999999000000000
 20
-1.154699000000000
 11
-0.000002000000000
 21
-2.309398000000000
  0
ENDBLK
  8
0
  0
ENDSEC
  0
SECTION
  2
ENTITIES
  0
LINE
  8
0
  6
CONTINUOUS
 62
256
 10
-428.423436999999980
 20
-154.868828000000010
 11
-428.423436999999980
 21
-156.368867999999990
  0
LINE
  8
0
  6
CONTINUOUS
 62
256
 10
331.667043999999980
 20
-149.879504000000000
 11
331.667043999999980
 21
-156.368867999999990
  0
LINE
  8
0
  6
CONTINUOUS
 62
256
 10
370.167043999999980
 20
-190.868867999999990
 11
370.167043999999980
 21
-190.358451000000000
  0
LINE
  8
0
  6
CONTINUOUS
 62
256
 10
365.167043999999980
 20
-190.868867999999990
 11
370.167043999999980
 21
-190.868867999999990
  0
LINE
  8
0
  6
CONTINUOUS
 62
256
 10
365.167043999999980
 20
-190.868867999999990
 11
365.167043999999980
 21
-190.358451000000000
  0
ARC
  8
0
  6
CONTINUOUS
 62
256
 10
336.667043999999980
 20
-183.735533000000000
 40
5.000000000000000
 50
180.000000000000000
 51
263.967950999999970
  0
ARC
  8
0
  6
CONTINUOUS
 62
256
 10
367.667043999999980
 20
109.631131999999990
 40
300.000000000000000
 50
263.967951000000030
 51
276.032048999999970
  0
ARC
  8
0
  6
CONTINUOUS
 62
256
 10
398.667043999999980
 20
-183.735533000000000
 40
5.000000000000002
 50
276.032049000000030
 51
0.000000000000000
  0
LINE
  8
0
  6
CONTINUOUS
 62
256
 10
403.667043999999980
 20
-156.368867999999990
 11
403.667043999999980
 21
-183.735533000000000
  0
LINE
  8
0
  6
CONTINUOUS
 62
256
 10
397.655030000000010
 20
-156.368867999999990
 11
403.667043999999980
 21
-156.368867999999990
  0
LINE
  8
0
  6
CONTINUOUS
 62
256
 10
403.667043999999980
 20
-149.879504000000000
 11
403.667043999999980
 21
-156.368867999999990
  0
LINE
  8
0
  6
CONTINUOUS
 62
256
 10
331.667043999999980
 20
-156.368867999999990
 11
331.667043999999980
 21
-183.735533000000000
  0
LINE
  8
0
  6
CONTINUOUS
 62
256
 10
331.667043999999980
 20
-156.368867999999990
 11
337.674545000000020
 21
-156.368867999999990
  0
ARC
  8
0
  6
CONTINUOUS
 62
256
 10
339.603287000000020
 20
-61.878799999999998
 40
20.600000000000012
 50
123.721560000000030
 51
135.000000000000000
  0
ARC
  8
0
  6
CONTINUOUS
 62
256
 10
395.730800999999990
 20
-61.878799999999998
 40
20.600000000000012
 50
60.887981999999965
 51
84.247716999999938
  0
ARC
  8
0
  6
CONTINUOUS
 62
256
 10
714.267044000000060
 20
-98.868868000000006
 40
400.600000000000020
 50
180.000000000000000
 51
185.743681999999980
  0
ARC
  8
0
  6
CONTINUOUS
 62
256
 10
322.245096999999990
 20
-138.299735000000000
 40
6.599999999999971
 50
185.743681999999920
 51
224.999999999999830
  0
LINE
  8
0
  6
CONTINUOUS
 62
256
 10
325.036887999999980
 20
-150.425334999999990
 11
317.578192000000000
 21
-142.966638999999990
  0
ARC
  8
0
  6
CONTINUOUS
 62
256
 10
339.603287000000020
 20
-135.858935000000000
 40
20.599999999999991
 50
225.000000000000000
 51
247.340456999999990
  0
ARC
  8
0
  6
CONTINUOUS
 62
256
 10
395.730800999999990
 20
-135.858935000000000
 40
20.599999999999994
 50
292.659543000000040
 51
315.000000000000000
  0
ARC
  8
0
  6
CONTINUOUS
 62
256
 10
413.088991000000020
 20
-138.299735000000000
 40
6.600000000000017
 50
315.000000000000170
 51
354.256318000000020
  0
LINE
  8
0
  6
CONTINUOUS
 62
256
 10
410.297199999999980
 20
-150.425334999999990
 11
417.755895000000010
 21
-142.966638999999990
  0
ARC
  8
0
  6
CONTINUOUS
 62
256
 10
21.067043999999999
 20
-98.868868000000006
 40
400.600000000000020
 50
354.256318000000020
 51
0.000000000000000
  0
ARC
  8
0
  6
CONTINUOUS
 62
256
 10
21.067043999999999
 20
-98.868868000000006
 40
400.600000000000020
 50
0.000000000000000
 51
5.743682000000000
  0
ARC
  8
0
  6
CONTINUOUS
 62
256
 10
413.088991000000020
 20
-59.438001000000000
 40
6.599999999999972
 50
5.743682000000001
 51
44.999999999999829
  0
ARC
  8
0
  6
CONTINUOUS
 62
256
 10
395.730800999999990
 20
-61.878799999999998
 40
20.599999999999994
 50
45.000000000000014
 51
56.278439999999982
  0
LINE
  8
0
  6
CONTINUOUS
 62
256
 10
410.297199999999980
 20
-47.312401000000001
 11
417.755895000000010
 21
-54.771096000000000
  0
ARC
  8
0
  6
CONTINUOUS
 62
256
 10
367.667043999999980
 20
-340.468867999999990
 40
300.600000000000020
 50
84.247716999999994
 51
90.000000000000000
  0
ARC
  8
0
  6
CONTINUOUS
 62
256
 10
367.667043999999980
 20
-340.468867999999990
 40
300.600000000000020
 50
90.000000000000000
 51
95.752283000000006
  0
ARC
  8
0
  6
CONTINUOUS
 62
256
 10
339.603287000000020
 20
-61.878799999999998
 40
20.600000000000009
 50
95.752283000000077
 51
113.624686000000030
  0
LINE
  8
0
  6
CONTINUOUS
 62
256
 10
325.036887999999980
 20
-47.312401000000001
 11
317.578192000000000
 21
-54.771096000000000
  0
ARC
  8
0
  6
CONTINUOUS
 62
256
 10
714.267044000000060
 20
-98.868868000000006
 40
400.600000000000080
 50
174.256317999999990
 51
180.000000000000000
  0
ARC
  8
0
  6
CONTINUOUS
 62
256
 10
322.245096999999990
 20
-59.438001000000000
 40
6.600000000000017
 50
135.000000000000170
 51
174.256317999999940
  0
TEXT
  8
0
  6
CONTINUOUS
 62
256
 10
442.601776123046870
 20
-191.232376098632810
 40
3.299999952316284
  1
  
 50
0.000002504478167
 41
1.702857141037180
  7
STANDARD1
  0
TEXT
  8
0
  6
CONTINUOUS
 62
256
 10
448.427154541015620
 20
-191.232376098632810
 40
3.299999952316284
  1
SSY11
 50
0.000002504478167
 41
0.863157975217372
  7
STANDARD1
  0
TEXT
  8
0
  6
CONTINUOUS
 62
256
 10
442.601776123046870
 20
-196.532379150390630
 40
3.299999952316284
  1
  
 50
0.000002504478167
 41
1.702857141037180
  7
STANDARD1
  0
TEXT
  8
0
  6
CONTINUOUS
 62
256
 10
448.427154541015620
 20
-196.532379150390630
 40
3.299999952316284
  1
0.2kW
 50
0.000002504478167
 41
0.863157975217372
  7
STANDARD1
  0
TEXT
  8
0
  6
CONTINUOUS
 62
256
 10
442.601776123046870
 20
-201.832366943359370
 40
3.299999952316284
  1
GM-SSYFB-RH
 50
0.000002504478167
 41
0.818604707818706
  7
STANDARD1
  0
TEXT
  8
0
  6
CONTINUOUS
 62
256
 10
442.601776123046870
 20
-207.132369995117190
 40
3.299999952316284
  1
1/7.5
 50
0.000002504478167
 41
0.863157975217372
  7
STANDARD1
  0
TEXT
  8
0
  6
CONTINUOUS
 62
256
 10
456.247924804687500
 20
-207.132369995117190
 40
3.299999952316284
  1
ü`
 50
0.000002504478167
 41
1.415999991715556
  7
STANDARD1
  0
TEXT
  8
0
  6
CONTINUOUS
 62
256
 10
460.038970947265620
 20
-207.132369995117190
 40
3.299999952316284
  1
1/30
 50
0.000002504478167
 41
0.885333389388191
  7
STANDARD1
  0
TEXT
  8
0
  6
CONTINUOUS
 62
256
 10
442.601776123046870
 20
-212.432373046875000
 40
3.299999952316284
  1
 
 50
0.000002504478167
 41
2.306666620777106
  7
STANDARD1
  0
TEXT
  8
0
  6
CONTINUOUS
 62
256
 10
445.853149414062500
 20
-212.432373046875000
 40
3.299999952316284
  1
SCALE
 50
0.000002504478167
 41
0.863157975217372
  7
STANDARD1
  0
TEXT
  8
0
  6
CONTINUOUS
 62
256
 10
458.903778076171870
 20
-212.432373046875000
 40
3.299999952316284
  1
 
 50
0.000002504478167
 41
2.306666620777106
  7
STANDARD1
  0
TEXT
  8
0
  6
CONTINUOUS
 62
256
 10
461.321777343750000
 20
-212.432373046875000
 40
3.299999952316284
  1
1/1
 50
0.000002504478167
 41
0.927272693168360
  7
STANDARD1
  0
LINE
  8
0
  6
CONTINUOUS
 62
256
 10
-81.916983000000002
 20
94.778304000000006
 11
-80.730037999999993
 21
162.778303999999990
  0
LINE
  8
0
  6
CONTINUOUS
 62
256
 10
-82.952044999999998
 20
95.778304000000006
 11
-86.451237000000006
 21
95.778304000000006
  0
LINE
  8
0
  6
CONTINUOUS
 62
256
 10
-86.451237000000006
 20
159.778303999999990
 11
-81.765101000000001
 21
159.778303999999990
  0
LINE
  8
0
  6
DASHDOT
 62
256
 10
-117.275236000000010
 20
123.278304000000010
 11
-70.168128999999993
 21
123.278304000000010
  0
LINE
  8
0
  6
DASHDOT
 62
256
 10
-3.951481000000000
 20
72.756410000000002
 11
-3.951481000000000
 21
173.837490000000000
  0
ARC
  8
0
  6
CONTINUOUS
 62
256
 10
-82.952044999999998
 20
94.778304000000006
 40
1.000000000000000
 50
0.000000000000000
 51
90.000000000000000
  0
ARC
  8
0
  6
CONTINUOUS
 62
256
 10
-81.765101000000001
 20
160.778303999999990
 40
1.000000000000000
 50
270.000000000000000
 51
358.999999999999830
  0
LINE
  8
0
  6
CONTINUOUS
 62
256
 10
36.048791000000001
 20
94.778304000000006
 11
34.861846999999997
 21
162.778303999999990
  0
LINE
  8
0
  6
CONTINUOUS
 62
256
 10
-4.451481000000000
 20
98.278304000000006
 11
-4.451481000000000
 21
162.778303999999990
  0
LINE
  8
0
  6
CONTINUOUS
 62
256
 10
-3.451481000000000
 20
98.278304000000006
 11
-3.451481000000000
 21
162.778303999999990
  0
ARC
  8
0
  6
CONTINUOUS
 62
256
 10
-3.951481000000000
 20
98.278304000000006
 40
0.500000000000000
 50
180.000000000000000
 51
0.000000000000000
  0
ARC
  8
0
  6
CONTINUOUS
 62
256
 10
-104.451237000000010
 20
173.812757000000000
 40
3.000000000000000
 50
0.000000000000000
 51
90.999999999999872
  0
ARC
  8
0
  6
CONTINUOUS
 62
256
 10
-99.451237000000006
 20
162.707955000000000
 40
2.000000000000000
 50
90.000000000000000
 51
180.000000000000000
  0
ARC
  8
0
  6
CONTINUOUS
 62
256
 10
-98.451237000000006
 20
170.778303999999990
 40
3.000000000000000
 50
180.000000000000000
 51
270.000000000000000
  0
ARC
  8
0
  6
CONTINUOUS
 62
256
 10
-98.451237000000006
 20
154.170469000000000
 40
3.000000000000000
 50
90.000000000000000
 51
180.000000000000000
  0
LINE
  8
0
  6
CONTINUOUS
 62
256
 10
-101.451237000000010
 20
143.278303999999990
 11
-106.451237000000010
 21
143.278303999999990
  0
LINE
  8
0
  6
CONTINUOUS
 62
256
 10
-101.451237000000010
 20
170.778303999999990
 11
-101.451237000000010
 21
173.812757000000000
  0
LINE
  8
0
  6
CONTINUOUS
 62
256
 10
-101.451237000000010
 20
123.278304000000010
 11
-101.451237000000010
 21
162.707955000000000
  0
ARC
  8
0
  6
CONTINUOUS
 62
256
 10
-98.451237000000006
 20
92.386138000000003
 40
3.000000000000000
 50
180.000000000000000
 51
270.000000000000000
  0
ARC
  8
0
  6
CONTINUOUS
 62
256
 10
-99.451237000000006
 20
83.848652000000001
 40
2.000000000000000
 50
180.000000000000000
 51
270.000000000000000
  0
ARC
  8
0
  6
CONTINUOUS
 62
256
 10
-98.451237000000006
 20
75.778304000000006
 40
3.000000000000000
 50
90.000000000000000
 51
180.000000000000000
  0
ARC
  8
0
  6
CONTINUOUS
 62
256
 10
-104.451237000000010
 20
72.743849999999995
 40
2.999999999999997
 50
269.000000000000110
 51
0.000000000000000
  0
LINE
  8
0
  6
CONTINUOUS
 62
256
 10
-101.451237000000010
 20
103.278304000000010
 11
-106.451237000000010
 21
103.278304000000010
  0
LINE
  8
0
  6
CONTINUOUS
 62
256
 10
-101.451237000000010
 20
123.278304000000010
 11
-101.451237000000010
 21
83.848652000000001
  0
LINE
  8
0
  6
CONTINUOUS
 62
256
 10
-101.451237000000010
 20
75.778304000000006
 11
-101.451237000000010
 21
72.743849999999995
  0
ARC
  8
0
  6
CONTINUOUS
 62
256
 10
-91.451237000000006
 20
92.386138000000003
 40
3.000000000000000
 50
270.000000000000000
 51
0.000000000000000
  0
ARC
  8
0
  6
CONTINUOUS
 62
256
 10
-93.451237000000006
 20
83.778304000000006
 40
5.000000000000000
 50
270.000000000000000
 51
0.000000000000000
  0
ARC
  8
0
  6
CONTINUOUS
 62
256
 10
-93.451237000000006
 20
86.848652000000001
 40
5.000000000000000
 50
270.000000000000000
 51
0.000000000000000
  0
LINE
  8
0
  6
CONTINUOUS
 62
256
 10
-91.451237000000006
 20
89.386138000000003
 11
-98.451237000000006
 21
89.386138000000003
  0
LINE
  8
0
  6
CONTINUOUS
 62
256
 10
-99.451237000000006
 20
81.848652000000001
 11
-93.451237000000006
 21
81.848652000000001
  0
LINE
  8
0
  6
CONTINUOUS
 62
256
 10
-98.451237000000006
 20
78.778304000000006
 11
-93.451237000000006
 21
78.778304000000006
  0
ARC
  8
0
  6
CONTINUOUS
 62
256
 10
-91.451237000000006
 20
154.170469000000000
 40
3.000000000000000
 50
0.000000000000000
 51
90.000000000000000
  0
ARC
  8
0
  6
CONTINUOUS
 62
256
 10
-93.451237000000006
 20
162.778303999999990
 40
5.000000000000000
 50
0.000000000000000
 51
90.000000000000000
  0
ARC
  8
0
  6
CONTINUOUS
 62
256
 10
-93.451237000000006
 20
159.707955000000000
 40
5.000000000000000
 50
0.000000000000000
 51
90.000000000000000
  0
LINE
  8
0
  6
CONTINUOUS
 62
256
 10
-99.451237000000006
 20
164.707955000000000
 11
-93.451237000000006
 21
164.707955000000000
  0
LINE
  8
0
  6
CONTINUOUS
 62
256
 10
-98.451237000000006
 20
167.778303999999990
 11
-93.451237000000006
 21
167.778303999999990
  0
LINE
  8
0
  6
CONTINUOUS
 62
256
 10
-91.451237000000006
 20
157.170469000000000
 11
-98.451237000000006
 21
157.170469000000000
  0
LINE
  8
0
  6
CONTINUOUS
 62
256
 10
-88.451237000000006
 20
72.499478999999994
 11
-88.451237000000006
 21
174.112144000000000
  0
LINE
  8
0
  6
CONTINUOUS
 62
256
 10
-106.451237000000010
 20
69.760847999999996
 11
-91.503594000000007
 21
69.499936000000005
  0
LINE
  8
0
  6
CONTINUOUS
 62
256
 10
-91.518136999999996
 20
177.111398000000010
 11
-106.451237000000010
 21
176.778303999999990
  0
ARC
  8
0
  6
CONTINUOUS
 62
256
 10
-91.451237000000006
 20
174.112144000000000
 40
3.000000000000000
 50
0.000000000000000
 51
91.277816000000129
  0
ARC
  8
0
  6
CONTINUOUS
 62
256
 10
-91.451237000000006
 20
72.499478999999994
 40
2.999999999999997
 50
269.000000000000110
 51
0.000000000000000
  0
LINE
  8
0
  6
CONTINUOUS
 62
256
 10
-81.951481000000001
 20
94.778304000000006
 11
-81.768199999999993
 21
84.278150999999994
  0
LINE
  8
0
  6
CONTINUOUS
 62
256
 10
36.048518999999999
 20
94.778304000000006
 11
35.865237999999998
 21
84.278150999999994
  0
LINE
  8
0
  6
CONTINUOUS
 62
256
 10
-3.451481000000000
 20
91.278304000000006
 11
-3.451481000000000
 21
83.778304000000006
  0
LINE
  8
0
  6
CONTINUOUS
 62
256
 10
-4.451481000000000
 20
91.278304000000006
 11
-4.451481000000000
 21
83.778304000000006
  0
ARC
  8
0
  6
CONTINUOUS
 62
256
 10
-3.951481000000000
 20
91.278304000000006
 40
0.500000000000000
 50
0.000000000000000
 51
180.000000000000000
  0
LINE
  8
0
  6
CONTINUOUS
 62
256
 10
-106.451237000000010
 20
123.278304000000010
 11
-106.451237000000010
 21
69.760847999999996
  0
LINE
  8
0
  6
CONTINUOUS
 62
256
 10
-106.451237000000010
 20
123.278304000000010
 11
-106.451237000000010
 21
176.795759000000000
  0
LINE
  8
0
  6
CONTINUOUS
 62
256
 10
23.648519000000000
 20
166.778303999999990
 11
24.048518999999999
 21
166.378304000000010
  0
LINE
  8
0
  6
CONTINUOUS
 62
256
 10
24.048518999999999
 20
162.778303999999990
 11
24.048518999999999
 21
166.378304000000010
  0
LINE
  8
0
  6
CONTINUOUS
 62
256
 10
-31.551480999999999
 20
166.778303999999990
 11
-31.951481000000001
 21
166.378304000000010
  0
LINE
  8
0
  6
CONTINUOUS
 62
256
 10
-31.551480999999999
 20
166.778303999999990
 11
23.648519000000000
 21
166.778303999999990
  0
LINE
  8
0
  6
CONTINUOUS
 62
256
 10
-31.951481000000001
 20
162.778303999999990
 11
-31.951481000000001
 21
166.378304000000010
  0
LINE
  8
0
  6
CONTINUOUS
 62
256
 10
-80.730037999999993
 20
162.778303999999990
 11
-3.951481000000000
 21
162.778303999999990
  0
LINE
  8
0
  6
CONTINUOUS
 62
256
 10
-3.951481000000000
 20
162.778303999999990
 11
34.861846999999997
 21
162.778303999999990
  0
LINE
  8
0
  6
CONTINUOUS
 62
256
 10
-81.951892999999998
 20
94.778304000000006
 11
36.048791000000001
 21
94.778304000000006
  0
ARC
  8
0
  6
CONTINUOUS
 62
256
 10
-86.451237000000006
 20
161.778303999999990
 40
2.000000000000000
 50
180.000000000000000
 51
270.000000000000000
  0
ARC
  8
0
  6
CONTINUOUS
 62
256
 10
-86.451237000000006
 20
93.778304000000006
 40
2.000000000000000
 50
90.000000000000000
 51
180.000000000000000
  0
LINE
  8
0
  6
CONTINUOUS
 62
256
 10
-17.951481000000001
 20
170.778303999999990
 11
10.048519000000001
 21
170.778303999999990
  0
LINE
  8
0
  6
CONTINUOUS
 62
256
 10
-18.951481000000001
 20
76.778304000000006
 11
-18.951481000000001
 21
79.778304000000006
  0
LINE
  8
0
  6
CONTINUOUS
 62
256
 10
11.048519000000001
 20
76.778304000000006
 11
11.048519000000001
 21
79.778304000000006
  0
LINE
  8
0
  6
CONTINUOUS
 62
256
 10
10.048519000000001
 20
75.778304000000006
 11
-17.951481000000001
 21
75.778304000000006
  0
ARC
  8
0
  6
CONTINUOUS
 62
256
 10
-17.951481000000001
 20
169.778303999999990
 40
1.000000000000000
 50
90.000000000000000
 51
180.000000000000000
  0
ARC
  8
0
  6
CONTINUOUS
 62
256
 10
10.048519000000001
 20
169.778303999999990
 40
1.000000000000000
 50
0.000000000000000
 51
90.000000000000000
  0
ARC
  8
0
  6
CONTINUOUS
 62
256
 10
10.048519000000001
 20
76.778304000000006
 40
1.000000000000000
 50
270.000000000000000
 51
0.000000000000000
  0
ARC
  8
0
  6
CONTINUOUS
 62
256
 10
-17.951481000000001
 20
76.778304000000006
 40
1.000000000000000
 50
180.000000000000000
 51
270.000000000000000
  0
LINE
  8
0
  6
CONTINUOUS
 62
256
 10
11.048519000000001
 20
166.778303999999990
 11
11.048519000000001
 21
169.778303999999990
  0
LINE
  8
0
  6
CONTINUOUS
 62
256
 10
-18.951481000000001
 20
166.778303999999990
 11
-18.951481000000001
 21
169.778303999999990
  0
LINE
  8
0
  6
CONTINUOUS
 62
256
 10
-81.259551999999999
 20
83.778304000000006
 11
-81.768199999999993
 21
84.278150999999994
  0
LINE
  8
0
  6
CONTINUOUS
 62
256
 10
35.865237999999998
 20
84.278150999999994
 11
35.356589000000000
 21
83.778304000000006
  0
LINE
  8
0
  6
CONTINUOUS
 62
256
 10
-81.951481000000001
 20
94.778304000000006
 11
36.048518999999999
 21
94.778304000000006
  0
LINE
  8
0
  6
CONTINUOUS
 62
256
 10
-31.551480999999999
 20
79.778304000000006
 11
-31.951481000000001
 21
80.178303999999997
  0
LINE
  8
0
  6
CONTINUOUS
 62
256
 10
-31.951481000000001
 20
80.178303999999997
 11
-31.951481000000001
 21
83.778304000000006
  0
LINE
  8
0
  6
CONTINUOUS
 62
256
 10
23.648519000000000
 20
79.778304000000006
 11
24.048518999999999
 21
80.178303999999997
  0
LINE
  8
0
  6
CONTINUOUS
 62
256
 10
24.048518999999999
 20
80.178303999999997
 11
24.048518999999999
 21
83.778304000000006
  0
LINE
  8
0
  6
CONTINUOUS
 62
256
 10
-3.951481000000000
 20
83.778304000000006
 11
-81.259551999999999
 21
83.778304000000006
  0
LINE
  8
0
  6
CONTINUOUS
 62
256
 10
23.648519000000000
 20
79.778304000000006
 11
-31.551480999999999
 21
79.778304000000006
  0
LINE
  8
0
  6
CONTINUOUS
 62
256
 10
35.356589000000000
 20
83.778304000000006
 11
-3.951481000000000
 21
83.778304000000006
  0
LINE
  8
0
  6
DASHDOT
 62
256
 10
-298.834255999999980
 20
123.278304000000010
 11
44.052159000000003
 21
123.278304000000010
  0
LINE
  8
0
  6
CONTINUOUS
 62
256
 10
-106.451237000000010
 20
123.278304000000010
 11
-106.451237000000010
 21
175.778303999999990
  0
LINE
  8
0
  6
CONTINUOUS
 62
256
 10
-106.451237000000010
 20
123.278304000000010
 11
-106.451237000000010
 21
70.778304000000006
  0
LINE
  8
0
  6
CONTINUOUS
 62
256
 10
-190.451236999999990
 20
69.278304000000006
 11
-267.956081999999980
 21
69.278304000000006
  0
LINE
  8
0
  6
CONTINUOUS
 62
256
 10
-190.451236999999990
 20
69.278304000000006
 11
-190.451236999999990
 21
123.278304000000010
  0
LINE
  8
0
  6
CONTINUOUS
 62
256
 10
-190.451236999999990
 20
177.278303999999990
 11
-190.451236999999990
 21
123.278304000000010
  0
LINE
  8
0
  6
CONTINUOUS
 62
256
 10
-190.451236999999990
 20
177.278303999999990
 11
-267.956081999999980
 21
177.278303999999990
  0
LINE
  8
0
  6
CONTINUOUS
 62
256
 10
-106.451237000000010
 20
175.778303999999990
 11
-190.451236999999990
 21
175.778303999999990
  0
LINE
  8
0
  6
CONTINUOUS
 62
256
 10
-190.451236999999990
 20
173.778303999999990
 11
-106.451237000000010
 21
173.778303999999990
  0
LINE
  8
0
  6
CONTINUOUS
 62
256
 10
-190.451236999999990
 20
174.278303999999990
 11
-106.451237000000010
 21
174.278303999999990
  0
LINE
  8
0
  6
CONTINUOUS
 62
256
 10
-190.451236999999990
 20
169.411385999999990
 11
-106.451237000000010
 21
169.411385999999990
  0
LINE
  8
0
  6
CONTINUOUS
 62
256
 10
-190.451236999999990
 20
167.782959000000010
 11
-106.451237000000010
 21
167.782959000000010
  0
LINE
  8
0
  6
CONTINUOUS
 62
256
 10
-190.451236999999990
 20
164.320217000000010
 11
-106.451237000000010
 21
164.320217000000010
  0
LINE
  8
0
  6
CONTINUOUS
 62
256
 10
-190.608836999999990
 20
163.318738999999990
 11
-106.451237000000010
 21
163.318738999999990
  0
LINE
  8
0
  6
CONTINUOUS
 62
256
 10
-190.451236999999990
 20
152.034698999999990
 11
-106.451237000000010
 21
152.034698999999990
  0
LINE
  8
0
  6
CONTINUOUS
 62
256
 10
-190.451236999999990
 20
150.555676000000010
 11
-106.451237000000010
 21
150.555676000000010
  0
LINE
  8
0
  6
CONTINUOUS
 62
256
 10
-190.451236999999990
 20
147.462944999999990
 11
-106.451237000000010
 21
147.462944999999990
  0
LINE
  8
0
  6
CONTINUOUS
 62
256
 10
-190.451236999999990
 20
146.116543000000010
 11
-106.451237000000010
 21
146.116543000000010
  0
LINE
  8
0
  6
CONTINUOUS
 62
256
 10
-190.451236999999990
 20
143.278303999999990
 11
-106.451237000000010
 21
143.278303999999990
  0
LINE
  8
0
  6
CONTINUOUS
 62
256
 10
-190.451236999999990
 20
154.992695000000000
 11
-106.451237000000010
 21
154.992695000000000
  0
LINE
  8
0
  6
CONTINUOUS
 62
256
 10
-190.451236999999990
 20
156.581904000000010
 11
-106.451237000000010
 21
156.581904000000010
  0
LINE
  8
0
  6
CONTINUOUS
 62
256
 10
-106.451237000000010
 20
70.778304000000006
 11
-190.451236999999990
 21
70.778304000000006
  0
LINE
  8
0
  6
CONTINUOUS
 62
256
 10
-190.451236999999990
 20
72.778304000000006
 11
-106.451237000000010
 21
72.778304000000006
  0
LINE
  8
0
  6
CONTINUOUS
 62
256
 10
-190.451236999999990
 20
72.278304000000006
 11
-106.451237000000010
 21
72.278304000000006
  0
LINE
  8
0
  6
CONTINUOUS
 62
256
 10
-190.451236999999990
 20
77.145221000000006
 11
-106.451237000000010
 21
77.145221000000006
  0
LINE
  8
0
  6
CONTINUOUS
 62
256
 10
-190.451236999999990
 20
78.773647999999994
 11
-106.451237000000010
 21
78.773647999999994
  0
LINE
  8
0
  6
CONTINUOUS
 62
256
 10
-190.451236999999990
 20
82.236390000000000
 11
-106.451237000000010
 21
82.236390000000000
  0
LINE
  8
0
  6
CONTINUOUS
 62
256
 10
-190.608836999999990
 20
83.237868000000006
 11
-106.451237000000010
 21
83.237868000000006
  0
LINE
  8
0
  6
CONTINUOUS
 62
256
 10
-190.451236999999990
 20
94.521907999999996
 11
-106.451237000000010
 21
94.521907999999996
  0
LINE
  8
0
  6
CONTINUOUS
 62
256
 10
-190.451236999999990
 20
96.000930999999994
 11
-106.451237000000010
 21
96.000930999999994
  0
LINE
  8
0
  6
CONTINUOUS
 62
256
 10
-190.451236999999990
 20
99.093661999999995
 11
-106.451237000000010
 21
99.093661999999995
  0
LINE
  8
0
  6
CONTINUOUS
 62
256
 10
-190.451236999999990
 20
100.440064000000010
 11
-106.451237000000010
 21
100.440064000000010
  0
LINE
  8
0
  6
CONTINUOUS
 62
256
 10
-190.451236999999990
 20
103.278304000000010
 11
-106.451237000000010
 21
103.278304000000010
  0
LINE
  8
0
  6
CONTINUOUS
 62
256
 10
-190.451236999999990
 20
91.563912000000002
 11
-106.451237000000010
 21
91.563912000000002
  0
LINE
  8
0
  6
CONTINUOUS
 62
256
 10
-190.451236999999990
 20
89.974703000000005
 11
-106.451237000000010
 21
89.974703000000005
  0
LINE
  8
0
  6
CONTINUOUS
 62
256
 10
-201.451236999999990
 20
74.134382000000002
 11
-203.451236999999990
 21
75.787024000000002
  0
LINE
  8
0
  6
CONTINUOUS
 62
256
 10
-199.451236999999990
 20
72.958596999999997
 11
-201.451236999999990
 21
74.134382000000002
  0
LINE
  8
0
  6
CONTINUOUS
 62
256
 10
-201.451236999999990
 20
74.134382000000002
 11
-199.451236999999990
 21
75.787024000000002
  0
LINE
  8
0
  6
CONTINUOUS
 62
256
 10
-203.451236999999990
 20
72.958596999999997
 11
-201.451236999999990
 21
74.134382000000002
  0
POLYLINE
  8
0
  6
CONTINUOUS
 62
256
 66
1
 70
1
  0
VERTEX
  8
0
  6
CONTINUOUS
 62
256
 10
-196.751237000000000
 20
75.950973000000005
  0
VERTEX
  8
0
  6
CONTINUOUS
 62
256
 10
-196.841546182104820
 20
76.653929510558172
  0
VERTEX
  8
0
  6
CONTINUOUS
 62
256
 10
-197.109003197196960
 20
77.329871796638145
  0
VERTEX
  8
0
  6
CONTINUOUS
 62
256
 10
-197.543329822178040
 20
77.952823775258665
  0
VERTEX
  8
0
  6
CONTINUOUS
 62
256
 10
-198.127835128423210
 20
78.498845751236843
  0
VERTEX
  8
0
  6
CONTINUOUS
 62
256
 10
-198.840056904807880
 20
78.946954406248494
  0
VERTEX
  8
0
  6
CONTINUOUS
 62
256
 10
-199.652624867884070
 20
79.279929175983753
  0
VERTEX
  8
0
  6
CONTINUOUS
 62
256
 10
-200.534312486524190
 20
79.484974026776072
  0
VERTEX
  8
0
  6
CONTINUOUS
 62
256
 10
-201.451236999999990
 20
79.554209200000003
  0
VERTEX
  8
0
  6
CONTINUOUS
 62
256
 10
-202.368161513475800
 20
79.484974026776072
  0
VERTEX
  8
0
  6
CONTINUOUS
 62
256
 10
-203.249849132115910
 20
79.279929175983753
  0
VERTEX
  8
0
  6
CONTINUOUS
 62
256
 10
-204.062417095192100
 20
78.946954406248494
  0
VERTEX
  8
0
  6
CONTINUOUS
 62
256
 10
-204.774638871576770
 20
78.498845751236843
  0
VERTEX
  8
0
  6
CONTINUOUS
 62
256
 10
-205.359144177821950
 20
77.952823775258665
  0
VERTEX
  8
0
  6
CONTINUOUS
 62
256
 10
-205.793470802803030
 20
77.329871796638145
  0
VERTEX
  8
0
  6
CONTINUOUS
 62
256
 10
-206.060927817895160
 20
76.653929510558172
  0
VERTEX
  8
0
  6
CONTINUOUS
 62
256
 10
-206.151236999999980
 20
75.950973000000005
  0
VERTEX
  8
0
  6
CONTINUOUS
 62
256
 10
-206.060927817895160
 20
75.248016489441838
  0
VERTEX
  8
0
  6
CONTINUOUS
 62
256
 10
-205.793470802803030
 20
74.572074203361865
  0
VERTEX
  8
0
  6
CONTINUOUS
 62
256
 10
-205.359144177821950
 20
73.949122224741345
  0
VERTEX
  8
0
  6
CONTINUOUS
 62
256
 10
-204.774638871576770
 20
73.403100248763167
  0
VERTEX
  8
0
  6
CONTINUOUS
 62
256
 10
-204.062417095192100
 20
72.954991593751515
  0
VERTEX
  8
0
  6
CONTINUOUS
 62
256
 10
-203.249849132115910
 20
72.622016824016271
  0
VERTEX
  8
0
  6
CONTINUOUS
 62
256
 10
-202.368161513475800
 20
72.416971973223937
  0
VERTEX
  8
0
  6
CONTINUOUS
 62
256
 10
-201.451236999999990
 20
72.347736800000007
  0
VERTEX
  8
0
  6
CONTINUOUS
 62
256
 10
-200.534312486524190
 20
72.416971973223937
  0
VERTEX
  8
0
  6
CONTINUOUS
 62
256
 10
-199.652624867884070
 20
72.622016824016256
  0
VERTEX
  8
0
  6
CONTINUOUS
 62
256
 10
-198.840056904807880
 20
72.954991593751515
  0
VERTEX
  8
0
  6
CONTINUOUS
 62
256
 10
-198.127835128423240
 20
73.403100248763167
  0
VERTEX
  8
0
  6
CONTINUOUS
 62
256
 10
-197.543329822178040
 20
73.949122224741345
  0
VERTEX
  8
0
  6
CONTINUOUS
 62
256
 10
-197.109003197196960
 20
74.572074203361865
  0
VERTEX
  8
0
  6
CONTINUOUS
 62
256
 10
-196.841546182104820
 20
75.248016489441838
  0
SEQEND
  8
0
  6
CONTINUOUS
 62
256
  0
LINE
  8
0
  6
CONTINUOUS
 62
256
 10
-201.451236999999990
 20
172.422225000000000
 11
-203.451236999999990
 21
170.769583000000010
  0
LINE
  8
0
  6
CONTINUOUS
 62
256
 10
-199.451236999999990
 20
173.598009999999990
 11
-201.451236999999990
 21
172.422225000000000
  0
LINE
  8
0
  6
CONTINUOUS
 62
256
 10
-201.451236999999990
 20
172.422225000000000
 11
-199.451236999999990
 21
170.769583000000010
  0
LINE
  8
0
  6
CONTINUOUS
 62
256
 10
-203.451236999999990
 20
173.598009999999990
 11
-201.451236999999990
 21
172.422225000000000
  0
POLYLINE
  8
0
  6
CONTINUOUS
 62
256
 66
1
 70
1
  0
VERTEX
  8
0
  6
CONTINUOUS
 62
256
 10
-196.751237000000000
 20
170.605634000000010
  0
VERTEX
  8
0
  6
CONTINUOUS
 62
256
 10
-196.841546182104820
 20
171.308590510558190
  0
VERTEX
  8
0
  6
CONTINUOUS
 62
256
 10
-197.109003197196960
 20
171.984532796638150
  0
VERTEX
  8
0
  6
CONTINUOUS
 62
256
 10
-197.543329822178040
 20
172.607484775258680
  0
VERTEX
  8
0
  6
CONTINUOUS
 62
256
 10
-198.127835128423210
 20
173.153506751236850
  0
VERTEX
  8
0
  6
CONTINUOUS
 62
256
 10
-198.840056904807880
 20
173.601615406248500
  0
VERTEX
  8
0
  6
CONTINUOUS
 62
256
 10
-199.652624867884070
 20
173.934590175983740
  0
VERTEX
  8
0
  6
CONTINUOUS
 62
256
 10
-200.534312486524190
 20
174.139635026776090
  0
VERTEX
  8
0
  6
CONTINUOUS
 62
256
 10
-201.451236999999990
 20
174.208870200000010
  0
VERTEX
  8
0
  6
CONTINUOUS
 62
256
 10
-202.368161513475800
 20
174.139635026776090
  0
VERTEX
  8
0
  6
CONTINUOUS
 62
256
 10
-203.249849132115910
 20
173.934590175983740
  0
VERTEX
  8
0
  6
CONTINUOUS
 62
256
 10
-204.062417095192100
 20
173.601615406248500
  0
VERTEX
  8
0
  6
CONTINUOUS
 62
256
 10
-204.774638871576770
 20
173.153506751236850
  0
VERTEX
  8
0
  6
CONTINUOUS
 62
256
 10
-205.359144177821950
 20
172.607484775258680
  0
VERTEX
  8
0
  6
CONTINUOUS
 62
256
 10
-205.793470802803030
 20
171.984532796638150
  0
VERTEX
  8
0
  6
CONTINUOUS
 62
256
 10
-206.060927817895160
 20
171.308590510558190
  0
VERTEX
  8
0
  6
CONTINUOUS
 62
256
 10
-206.151236999999980
 20
170.605634000000010
  0
VERTEX
  8
0
  6
CONTINUOUS
 62
256
 10
-206.060927817895160
 20
169.902677489441830
  0
VERTEX
  8
0
  6
CONTINUOUS
 62
256
 10
-205.793470802803030
 20
169.226735203361870
  0
VERTEX
  8
0
  6
CONTINUOUS
 62
256
 10
-205.359144177821950
 20
168.603783224741330
  0
VERTEX
  8
0
  6
CONTINUOUS
 62
256
 10
-204.774638871576770
 20
168.057761248763170
  0
VERTEX
  8
0
  6
CONTINUOUS
 62
256
 10
-204.062417095192100
 20
167.609652593751520
  0
VERTEX
  8
0
  6
CONTINUOUS
 62
256
 10
-203.249849132115910
 20
167.276677824016280
  0
VERTEX
  8
0
  6
CONTINUOUS
 62
256
 10
-202.368161513475800
 20
167.071632973223960
  0
VERTEX
  8
0
  6
CONTINUOUS
 62
256
 10
-201.451236999999990
 20
167.002397800000010
  0
VERTEX
  8
0
  6
CONTINUOUS
 62
256
 10
-200.534312486524190
 20
167.071632973223960
  0
VERTEX
  8
0
  6
CONTINUOUS
 62
256
 10
-199.652624867884070
 20
167.276677824016280
  0
VERTEX
  8
0
  6
CONTINUOUS
 62
256
 10
-198.840056904807880
 20
167.609652593751520
  0
VERTEX
  8
0
  6
CONTINUOUS
 62
256
 10
-198.127835128423240
 20
168.057761248763170
  0
VERTEX
  8
0
  6
CONTINUOUS
 62
256
 10
-197.543329822178040
 20
168.603783224741330
  0
VERTEX
  8
0
  6
CONTINUOUS
 62
256
 10
-197.109003197196960
 20
169.226735203361870
  0
VERTEX
  8
0
  6
CONTINUOUS
 62
256
 10
-196.841546182104820
 20
169.902677489441830
  0
SEQEND
  8
0
  6
CONTINUOUS
 62
256
  0
LINE
  8
0
  6
CONTINUOUS
 62
256
 10
-279.771755999999980
 20
173.552836000000010
 11
-287.342535000000000
 21
168.251719000000010
  0
LINE
  8
0
  6
CONTINUOUS
 62
256
 10
-288.451236999999990
 20
166.121924000000010
 11
-288.451236999999990
 21
123.278304000000010
  0
ARC
  8
0
  6
CONTINUOUS
 62
256
 10
-285.851237000000030
 20
166.121924000000010
 40
2.599999999999996
 50
125.000000000000210
 51
180.000000000000000
  0
ARC
  8
0
  6
CONTINUOUS
 62
256
 10
-267.956081999999980
 20
156.678304000000000
 40
20.599999999999994
 50
90.000000000000000
 51
125.000000000000010
  0
LINE
  8
0
  6
CONTINUOUS
 62
256
 10
-279.771755999999980
 20
73.003771000000000
 11
-287.342535000000000
 21
78.304888000000005
  0
LINE
  8
0
  6
CONTINUOUS
 62
256
 10
-288.451236999999990
 20
80.434683000000007
 11
-288.451236999999990
 21
123.278304000000010
  0
ARC
  8
0
  6
CONTINUOUS
 62
256
 10
-285.851237000000030
 20
80.434683000000007
 40
2.600000000000023
 50
180.000000000000000
 51
234.999999999999940
  0
ARC
  8
0
  6
CONTINUOUS
 62
256
 10
-267.956081999999980
 20
89.878304000000000
 40
20.600000000000001
 50
235.000000000000030
 51
270.000000000000000
  0
LINE
  8
0
  6
CONTINUOUS
 62
256
 10
-430.509478000000000
 20
-43.881194999999998
 11
-431.923436999999980
 21
-43.881194999999998
  0
LINE
  8
0
  6
CONTINUOUS
 62
256
 10
-431.923436999999980
 20
-44.744847999999998
 11
-431.923436999999980
 21
-43.881194999999998
  0
LINE
  8
0
  6
CONTINUOUS
 62
256
 10
-352.923436999999980
 20
-43.560730000000000
 11
-352.923436999999980
 21
-44.744847999999998
  0
LINE
  8
0
  6
CONTINUOUS
 62
256
 10
-353.423285000000020
 20
-43.052081999999999
 11
-352.923436999999980
 21
-43.560730000000000
  0
LINE
  8
0
  6
CONTINUOUS
 62
256
 10
-356.104357999999990
 20
-43.005282999999999
 11
-353.423285000000020
 21
-43.052081999999999
  0
LINE
  8
0
  6
CONTINUOUS
 62
256
 10
-428.423436999999980
 20
-156.368867999999990
 11
-422.415935999999990
 21
-156.368867999999990
  0
LINE
  8
0
  6
CONTINUOUS
 62
256
 10
-356.423436999999980
 20
-154.868828000000010
 11
-356.423436999999980
 21
-156.368867999999990
  0
LINE
  8
0
  6
CONTINUOUS
 62
256
 10
-362.435451000000000
 20
-156.368867999999990
 11
-356.423436999999980
 21
-156.368867999999990
  0
ARC
  8
0
  6
CONTINUOUS
 62
256
 10
-347.001489999999990
 20
-59.438001000000000
 40
6.599999999999972
 50
5.743682000000001
 51
44.999999999999829
  0
ARC
  8
0
  6
CONTINUOUS
 62
256
 10
-739.023436999999940
 20
-98.868868000000006
 40
400.600000000000020
 50
0.000000000000000
 51
5.743682000000000
  0
ARC
  8
0
  6
CONTINUOUS
 62
256
 10
-364.359680000000030
 20
-61.878799999999998
 40
20.599999999999994
 50
45.000000000000014
 51
84.247716999999938
  0
LINE
  8
0
  6
CONTINUOUS
 62
256
 10
-349.793280999999980
 20
-47.312401000000001
 11
-342.334585000000000
 21
-54.771096000000000
  0
ARC
  8
0
  6
CONTINUOUS
 62
256
 10
-392.423436999999980
 20
-340.468867999999990
 40
300.600000000000020
 50
84.247716999999994
 51
90.000000000000000
  0
ARC
  8
0
  6
CONTINUOUS
 62
256
 10
-437.845384000000020
 20
-59.438001000000000
 40
6.600000000000017
 50
135.000000000000170
 51
174.256317999999940
  0
ARC
  8
0
  6
CONTINUOUS
 62
256
 10
-45.823436999999998
 20
-98.868868000000006
 40
400.600000000000080
 50
174.256317999999990
 51
180.000000000000000
  0
ARC
  8
0
  6
CONTINUOUS
 62
256
 10
-420.487193999999990
 20
-61.878799999999998
 40
20.600000000000009
 50
95.752283000000077
 51
135.000000000000000
  0
LINE
  8
0
  6
CONTINUOUS
 62
256
 10
-435.053592999999980
 20
-47.312401000000001
 11
-442.512288000000010
 21
-54.771096000000000
  0
ARC
  8
0
  6
CONTINUOUS
 62
256
 10
-392.423436999999980
 20
-340.468867999999990
 40
300.600000000000020
 50
90.000000000000000
 51
95.752283000000006
  0
ARC
  8
0
  6
CONTINUOUS
 62
256
 10
-437.845384000000020
 20
-138.299735000000000
 40
6.599999999999971
 50
185.743681999999920
 51
224.999999999999830
  0
ARC
  8
0
  6
CONTINUOUS
 62
256
 10
-45.823436999999998
 20
-98.868868000000006
 40
400.600000000000020
 50
180.000000000000000
 51
185.743681999999980
  0
ARC
  8
0
  6
CONTINUOUS
 62
256
 10
-420.487193999999990
 20
-135.858935000000000
 40
20.599999999999991
 50
225.000000000000000
 51
264.247716999999910
  0
LINE
  8
0
  6
CONTINUOUS
 62
256
 10
-435.053592999999980
 20
-150.425334999999990
 11
-442.512288000000010
 21
-142.966638999999990
  0
ARC
  8
0
  6
CONTINUOUS
 62
256
 10
-392.423436999999980
 20
142.731132000000000
 40
300.600000000000020
 50
264.247717000000020
 51
270.000000000000000
  0
ARC
  8
0
  6
CONTINUOUS
 62
256
 10
-392.423436999999980
 20
142.731132000000000
 40
290.797000000000030
 50
270.000000000000000
 51
275.752282999999980
  0
LINE
  8
0
  6
CONTINUOUS
 62
256
 10
-356.725048000000020
 20
-143.493567000000010
 11
-350.837634999999980
 21
-137.606153000000010
  0
ARC
  8
0
  6
CONTINUOUS
 62
256
 10
-364.359680000000030
 20
-135.858935000000000
 40
10.796999999999988
 50
275.752283000000030
 51
315.000000000000000
  0
ARC
  8
0
  6
CONTINUOUS
 62
256
 10
-392.423436999999980
 20
142.731132000000000
 40
300.600000000000020
 50
270.000000000000000
 51
275.752282999999980
  0
LINE
  8
0
  6
CONTINUOUS
 62
256
 10
-349.793280999999980
 20
-150.425334999999990
 11
-342.334585000000000
 21
-142.966638999999990
  0
ARC
  8
0
  6
CONTINUOUS
 62
256
 10
-364.359680000000030
 20
-135.858935000000000
 40
20.599999999999991
 50
275.752282999999860
 51
315.000000000000000
  0
ARC
  8
0
  6
CONTINUOUS
 62
256
 10
-392.423436999999980
 20
-340.468867999999990
 40
290.797000000000030
 50
84.998350000000002
 51
90.000000000000000
  0
LINE
  8
0
  6
CONTINUOUS
 62
256
 10
-354.177939999999980
 20
-56.791277000000001
 11
-350.837634999999980
 21
-60.131582000000002
  0
ARC
  8
0
  6
CONTINUOUS
 62
256
 10
-368.883639000000020
 20
-71.496977000000001
 40
20.797000000000008
 50
44.999999999999972
 51
84.998349999999959
  0
ARC
  8
0
  6
CONTINUOUS
 62
256
 10
-739.023436999999940
 20
-98.868868000000006
 40
390.797000000000030
 50
0.000000000000000
 51
5.417964000000000
  0
ARC
  8
0
  6
CONTINUOUS
 62
256
 10
-352.958955000000000
 20
-62.252903000000003
 40
2.999999999999997
 50
5.417964000000066
 51
44.999999999999808
  0
ARC
  8
0
  6
CONTINUOUS
 62
256
 10
-392.423436999999980
 20
-340.468867999999990
 40
290.797000000000030
 50
90.000000000000000
 51
95.001649999999998
  0
LINE
  8
0
  6
CONTINUOUS
 62
256
 10
-430.668933999999980
 20
-56.791277000000001
 11
-434.009238999999980
 21
-60.131582000000002
  0
ARC
  8
0
  6
CONTINUOUS
 62
256
 10
-415.963235000000000
 20
-71.496977000000001
 40
20.797000000000001
 50
95.001650000000041
 51
135.000000000000030
  0
ARC
  8
0
  6
CONTINUOUS
 62
256
 10
-45.823436999999998
 20
-98.868868000000006
 40
390.797000000000030
 50
174.582035999999990
 51
180.000000000000000
  0
ARC
  8
0
  6
CONTINUOUS
 62
256
 10
-431.887919000000010
 20
-62.252903000000003
 40
3.000000000000014
 50
135.000000000000200
 51
174.582035999999930
  0
ARC
  8
0
  6
CONTINUOUS
 62
256
 10
-392.423436999999980
 20
142.731132000000000
 40
290.797000000000030
 50
264.998350000000070
 51
270.000000000000000
  0
LINE
  8
0
  6
CONTINUOUS
 62
256
 10
-430.668933999999980
 20
-140.946458000000010
 11
-434.009238999999980
 21
-137.606153000000010
  0
ARC
  8
0
  6
CONTINUOUS
 62
256
 10
-415.963235000000000
 20
-126.240758000000000
 40
20.797000000000015
 50
225.000000000000000
 51
264.998350000000070
  0
ARC
  8
0
  6
CONTINUOUS
 62
256
 10
-45.823436999999998
 20
-98.868868000000006
 40
390.797000000000030
 50
180.000000000000000
 51
185.417964000000010
  0
ARC
  8
0
  6
CONTINUOUS
 62
256
 10
-431.887919000000010
 20
-135.484833000000010
 40
2.999999999999998
 50
185.417964000000180
 51
224.999999999999630
  0
ARC
  8
0
  6
CONTINUOUS
 62
256
 10
-352.958955000000000
 20
-135.484833000000010
 40
3.000000000000004
 50
315.000000000000340
 51
354.582035999999790
  0
ARC
  8
0
  6
CONTINUOUS
 62
256
 10
-739.023436999999940
 20
-98.868868000000006
 40
390.797000000000030
 50
354.582036000000020
 51
0.000000000000000
  0
ARC
  8
0
  6
CONTINUOUS
 62
256
 10
-347.001489999999990
 20
-138.299735000000000
 40
6.600000000000017
 50
315.000000000000170
 51
354.256318000000020
  0
ARC
  8
0
  6
CONTINUOUS
 62
256
 10
-739.023436999999940
 20
-98.868868000000006
 40
400.600000000000020
 50
354.256318000000020
 51
0.000000000000000
  0
ARC
  8
0
  6
CONTINUOUS
 62
256
 10
-427.247997000000000
 20
-95.368868000000006
 40
1.000000000000000
 50
270.000000000000000
 51
354.260829999999540
  0
ARC
  8
0
  6
CONTINUOUS
 62
256
 10
-430.261909000000000
 20
-95.368868000000006
 40
1.000000000000027
 50
174.715267000000240
 51
270.000000000000000
  0
ARC
  8
0
  6
CONTINUOUS
 62
256
 10
-421.715074000000020
 20
-95.368868000000006
 40
1.000000000000019
 50
173.186146000000240
 51
270.000000000000000
  0
LINE
  8
0
  6
CONTINUOUS
 62
256
 10
-430.261909000000000
 20
-96.368868000000006
 11
-427.247997000000000
 21
-96.368868000000006
  0
ARC
  8
0
  6
CONTINUOUS
 62
256
 10
-398.220570000000010
 20
-81.827939000000001
 40
0.999999999999984
 50
210.000000000000510
 51
288.787729000000750
  0
LINE
  8
0
  6
CONTINUOUS
 62
256
 10
-400.611513000000000
 20
-79.686704000000006
 11
-399.086594999999990
 21
-82.327939000000001
  0
ARC
  8
0
  6
CONTINUOUS
 62
256
 10
-399.745488000000020
 20
-79.186704000000006
 40
0.999999999999993
 50
110.405931999999860
 51
210.000000000000510
  0
ARC
  8
0
  6
CONTINUOUS
 62
256
 10
-402.526274000000000
 20
-74.370240999999993
 40
0.999999999999984
 50
210.000000000000510
 51
292.410458000000400
  0
ARC
  8
0
  6
CONTINUOUS
 62
256
 10
-406.804627999999980
 20
-66.959913999999998
 40
0.999999999999984
 50
210.000000000000510
 51
294.260829999998690
  0
LINE
  8
0
  6
CONTINUOUS
 62
256
 10
-404.904192000000020
 20
-72.251565999999997
 11
-403.392298999999980
 21
-74.870240999999993
  0
ARC
  8
0
  6
CONTINUOUS
 62
256
 10
-404.038166999999990
 20
-71.751565999999997
 40
1.000000000000000
 50
113.186146000000120
 51
210.000000000000510
  0
LINE
  8
0
  6
CONTINUOUS
 62
256
 10
-409.177610000000020
 20
-64.849789000000001
 11
-407.670654000000010
 21
-67.459913999999998
  0
ARC
  8
0
  6
CONTINUOUS
 62
256
 10
-408.311583999999980
 20
-64.349789000000001
 40
1.000000000000004
 50
114.715267000000150
 51
210.000000000000510
  0
ARC
  8
0
  6
CONTINUOUS
 62
256
 10
-414.373762000000000
 20
-67.849789000000001
 40
0.999999999999984
 50
30.000000000000544
 51
125.284733000000970
  0
ARC
  8
0
  6
CONTINUOUS
 62
256
 10
-412.866806000000000
 20
-70.459913999999998
 40
0.999999999999998
 50
305.739170000000230
 51
30.000000000000544
  0
ARC
  8
0
  6
CONTINUOUS
 62
256
 10
-418.691287999999990
 20
-95.368868000000006
 40
1.000000000000000
 50
270.000000000000000
 51
352.410458000000010
  0
ARC
  8
0
  6
CONTINUOUS
 62
256
 10
-410.100344000000010
 20
-75.251565999999997
 40
0.999999999999984
 50
30.000000000000544
 51
126.813854000000730
  0
ARC
  8
0
  6
CONTINUOUS
 62
256
 10
-408.588451000000020
 20
-77.870240999999993
 40
0.999999999999993
 50
307.589541999998800
 51
30.000000000000544
  0
ARC
  8
0
  6
CONTINUOUS
 62
256
 10
-413.129715999999970
 20
-95.368868000000006
 40
0.999999999999978
 50
170.405932000000040
 51
270.000000000000000
  0
ARC
  8
0
  6
CONTINUOUS
 62
256
 10
-410.079881000000000
 20
-95.368868000000006
 40
1.000000000000000
 50
270.000000000000000
 51
348.787729000000300
  0
ARC
  8
0
  6
CONTINUOUS
 62
256
 10
-405.807665999999980
 20
-82.686704000000006
 40
0.999999999999984
 50
30.000000000000544
 51
129.594067999999310
  0
ARC
  8
0
  6
CONTINUOUS
 62
256
 10
-404.282748000000030
 20
-85.327939000000001
 40
1.000000000000006
 50
311.212270999999760
 51
30.000000000000544
  0
ARC
  8
0
  6
CONTINUOUS
 62
256
 10
-401.454525999999990
 20
-90.226562999999999
 40
0.999999999999984
 50
30.000000000000544
 51
136.260205000000240
  0
ARC
  8
0
  6
CONTINUOUS
 62
256
 10
-404.423436999999980
 20
-95.368868000000006
 40
0.999999999999976
 50
163.739794999999330
 51
270.000000000000000
  0
ARC
  8
0
  6
CONTINUOUS
 62
256
 10
-401.255198000000010
 20
-95.368868000000006
 40
1.000000000000000
 50
270.000000000000000
 51
338.381728000000520
  0
ARC
  8
0
  6
CONTINUOUS
 62
256
 10
-399.870406000000000
 20
-92.970337999999998
 40
0.999999999999985
 50
321.618271999998970
 51
30.000000000000544
  0
ARC
  8
0
  6
CONTINUOUS
 62
256
 10
-392.423436999999980
 20
-98.868868000000006
 40
39.000000000000000
 50
125.284733000000000
 51
174.715267000000010
  0
ARC
  8
0
  6
CONTINUOUS
 62
256
 10
-392.423436999999980
 20
-98.868868000000006
 40
30.499999999999982
 50
126.813853999999980
 51
173.186145999999980
  0
ARC
  8
0
  6
CONTINUOUS
 62
256
 10
-392.423436999999980
 20
-98.868868000000006
 40
34.000000000000007
 50
125.739170000000040
 51
174.260830000000000
  0
ARC
  8
0
  6
CONTINUOUS
 62
256
 10
-392.423436999999980
 20
-98.868868000000006
 40
25.499999999999996
 50
127.589541999999970
 51
172.410458000000010
  0
ARC
  8
0
  6
CONTINUOUS
 62
256
 10
-392.423436999999980
 20
-98.868868000000006
 40
21.999999999999986
 50
129.594067999999940
 51
170.405931999999980
  0
ARC
  8
0
  6
CONTINUOUS
 62
256
 10
-392.423436999999980
 20
-98.868868000000006
 40
17.000000000000014
 50
131.212271000000020
 51
168.787728999999980
  0
ARC
  8
0
  6
CONTINUOUS
 62
256
 10
-392.423436999999980
 20
-98.868868000000006
 40
13.500000000000004
 50
136.260205000000010
 51
163.739794999999960
  0
ARC
  8
0
  6
CONTINUOUS
 62
256
 10
-392.423436999999980
 20
-98.868868000000006
 40
8.500000000000005
 50
141.618272000000020
 51
158.381728000000040
  0
LINE
  8
0
  6
CONTINUOUS
 62
256
 10
-409.234319000000030
 20
-74.751565999999997
 11
-407.722425999999980
 21
-77.370240999999993
  0
LINE
  8
0
  6
CONTINUOUS
 62
256
 10
-413.507737000000020
 20
-67.349789000000001
 11
-412.000781000000020
 21
-69.959913999999998
  0
LINE
  8
0
  6
CONTINUOUS
 62
256
 10
-404.941640000000010
 20
-82.186704000000006
 11
-403.416721999999990
 21
-84.827939000000001
  0
LINE
  8
0
  6
CONTINUOUS
 62
256
 10
-400.588500000000010
 20
-89.726562999999999
 11
-399.004381000000020
 21
-92.470337999999998
  0
LINE
  8
0
  6
CONTINUOUS
 62
256
 10
-404.423436999999980
 20
-96.368868000000006
 11
-401.255198000000010
 21
-96.368868000000006
  0
LINE
  8
0
  6
CONTINUOUS
 62
256
 10
-413.129715999999970
 20
-96.368868000000006
 11
-410.079881000000000
 21
-96.368868000000006
  0
LINE
  8
0
  6
CONTINUOUS
 62
256
 10
-421.715074000000020
 20
-96.368868000000006
 11
-418.691287999999990
 21
-96.368868000000006
  0
ARC
  8
0
  6
CONTINUOUS
 62
256
 10
-393.808227999999990
 20
-89.470337999999998
 40
0.999999999999984
 50
210.000000000000510
 51
278.381727999998870
  0
ARC
  8
0
  6
CONTINUOUS
 62
256
 10
-392.423436999999980
 20
-98.868868000000006
 40
8.500000000000002
 50
81.618271999999948
 51
98.381728000000052
  0
LINE
  8
0
  6
CONTINUOUS
 62
256
 10
-396.258373000000010
 20
-87.226562999999999
 11
-394.674254000000020
 21
-89.970337999999998
  0
ARC
  8
0
  6
CONTINUOUS
 62
256
 10
-395.392348000000030
 20
-86.726562999999999
 40
1.000000000000011
 50
103.739795000001280
 51
210.000000000000510
  0
ARC
  8
0
  6
CONTINUOUS
 62
256
 10
-374.766993000000010
 20
-95.368868000000006
 40
1.000000000000016
 50
191.212270999999730
 51
270.000000000000000
  0
LINE
  8
0
  6
CONTINUOUS
 62
256
 10
-371.717157999999980
 20
-96.368868000000006
 11
-374.766993000000010
 21
-96.368868000000006
  0
ARC
  8
0
  6
CONTINUOUS
 62
256
 10
-371.717157999999980
 20
-95.368868000000006
 40
1.000000000000000
 50
270.000000000000000
 51
9.594067999999961
  0
ARC
  8
0
  6
CONTINUOUS
 62
256
 10
-366.155586000000030
 20
-95.368868000000006
 40
0.999999999999990
 50
187.589541999999990
 51
270.000000000000000
  0
LINE
  8
0
  6
CONTINUOUS
 62
256
 10
-363.131800000000000
 20
-96.368868000000006
 11
-366.155586000000030
 21
-96.368868000000006
  0
ARC
  8
0
  6
CONTINUOUS
 62
256
 10
-363.131800000000000
 20
-95.368868000000006
 40
1.000000000000000
 50
270.000000000000000
 51
6.813853999999752
  0
ARC
  8
0
  6
CONTINUOUS
 62
256
 10
-357.598877000000020
 20
-95.368868000000006
 40
0.999999999999978
 50
185.739170000000430
 51
270.000000000000000
  0
LINE
  8
0
  6
CONTINUOUS
 62
256
 10
-354.584964000000010
 20
-96.368868000000006
 11
-357.598877000000020
 21
-96.368868000000006
  0
ARC
  8
0
  6
CONTINUOUS
 62
256
 10
-354.584964000000010
 20
-95.368868000000006
 40
1.000000000000000
 50
270.000000000000000
 51
5.284732999999778
  0
ARC
  8
0
  6
CONTINUOUS
 62
256
 10
-374.746530000000010
 20
-75.251565999999997
 40
1.000000000000011
 50
53.186145999999269
 51
149.999999999999460
  0
LINE
  8
0
  6
CONTINUOUS
 62
256
 10
-375.612554999999990
 20
-74.751565999999997
 11
-377.124447999999970
 21
-77.370240999999993
  0
ARC
  8
0
  6
CONTINUOUS
 62
256
 10
-376.258422999999990
 20
-77.870240999999993
 40
0.999999999999984
 50
149.999999999999460
 51
232.410458000001200
  0
ARC
  8
0
  6
CONTINUOUS
 62
256
 10
-370.473112000000010
 20
-67.849789000000001
 40
1.000000000000016
 50
54.715266999999017
 51
149.999999999999460
  0
LINE
  8
0
  6
CONTINUOUS
 62
256
 10
-371.339136999999990
 20
-67.349789000000001
 11
-372.846093000000000
 21
-69.959913999999998
  0
ARC
  8
0
  6
CONTINUOUS
 62
256
 10
-371.980068000000020
 20
-70.459913999999998
 40
0.999999999999984
 50
149.999999999999460
 51
234.260829999999740
  0
ARC
  8
0
  6
CONTINUOUS
 62
256
 10
-384.976468000000010
 20
-92.970337999999998
 40
0.999999999999984
 50
149.999999999999460
 51
218.381728000001000
  0
LINE
  8
0
  6
CONTINUOUS
 62
256
 10
-384.258373000000010
 20
-89.726562999999999
 11
-385.842492999999990
 21
-92.470337999999998
  0
ARC
  8
0
  6
CONTINUOUS
 62
256
 10
-380.564125999999990
 20
-85.327939000000001
 40
0.999999999999984
 50
149.999999999999460
 51
228.787728999999730
  0
LINE
  8
0
  6
CONTINUOUS
 62
256
 10
-379.905234000000010
 20
-82.186704000000006
 11
-381.430152000000020
 21
-84.827939000000001
  0
ARC
  8
0
  6
CONTINUOUS
 62
256
 10
-379.039207999999970
 20
-82.686704000000006
 40
0.999999999999988
 50
50.405932000000682
 51
149.999999999999460
  0
ARC
  8
0
  6
CONTINUOUS
 62
256
 10
-383.591676000000010
 20
-95.368868000000006
 40
1.000000000000013
 50
201.618271999999450
 51
270.000000000000000
  0
ARC
  8
0
  6
CONTINUOUS
 62
256
 10
-392.423436999999980
 20
-98.868868000000006
 40
8.500000000000016
 50
21.618271999999980
 51
38.381727999999960
  0
ARC
  8
0
  6
CONTINUOUS
 62
256
 10
-383.392348000000030
 20
-90.226562999999999
 40
1.000000000000005
 50
43.739794999999773
 51
149.999999999999460
  0
LINE
  8
0
  6
CONTINUOUS
 62
256
 10
-380.423436999999980
 20
-96.368868000000006
 11
-383.591676000000010
 21
-96.368868000000006
  0
ARC
  8
0
  6
CONTINUOUS
 62
256
 10
-380.423436999999980
 20
-95.368868000000006
 40
1.000000000000000
 50
270.000000000000000
 51
16.260205000000671
  0
ARC
  8
0
  6
CONTINUOUS
 62
256
 10
-392.423436999999980
 20
-98.868868000000006
 40
13.499999999999989
 50
16.260205000000035
 51
43.739795000000001
  0
ARC
  8
0
  6
CONTINUOUS
 62
256
 10
-392.423436999999980
 20
-98.868868000000006
 40
16.999999999999993
 50
11.212271000000010
 51
48.787728999999970
  0
ARC
  8
0
  6
CONTINUOUS
 62
256
 10
-392.423436999999980
 20
-98.868868000000006
 40
21.999999999999979
 50
9.594068000000020
 51
50.405932000000064
  0
ARC
  8
0
  6
CONTINUOUS
 62
256
 10
-392.423436999999980
 20
-98.868868000000006
 40
30.499999999999986
 50
6.813854000000005
 51
53.186146000000029
  0
ARC
  8
0
  6
CONTINUOUS
 62
256
 10
-392.423436999999980
 20
-98.868868000000006
 40
25.500000000000011
 50
7.589541999999985
 51
52.410458000000027
  0
ARC
  8
0
  6
CONTINUOUS
 62
256
 10
-392.423436999999980
 20
-98.868868000000006
 40
33.999999999999972
 50
5.739170000000013
 51
54.260829999999984
  0
ARC
  8
0
  6
CONTINUOUS
 62
256
 10
-392.423436999999980
 20
-98.868868000000006
 40
38.999999999999986
 50
5.284733000000007
 51
54.715266999999990
  0
ARC
  8
0
  6
CONTINUOUS
 62
256
 10
-380.808707000000030
 20
-71.751565999999997
 40
0.999999999999984
 50
329.999999999999490
 51
66.813853999999878
  0
LINE
  8
0
  6
CONTINUOUS
 62
256
 10
-379.942681999999990
 20
-72.251565999999997
 11
-381.454574999999980
 21
-74.870240999999993
  0
ARC
  8
0
  6
CONTINUOUS
 62
256
 10
-382.320600000000010
 20
-74.370240999999993
 40
1.000000000000009
 50
247.589541999999540
 51
329.999999999999490
  0
ARC
  8
0
  6
CONTINUOUS
 62
256
 10
-376.535289999999970
 20
-64.349789000000001
 40
0.999999999999984
 50
329.999999999999490
 51
65.284732999999861
  0
LINE
  8
0
  6
CONTINUOUS
 62
256
 10
-375.669264000000000
 20
-64.849789000000001
 11
-377.176220000000000
 21
-67.459913999999998
  0
ARC
  8
0
  6
CONTINUOUS
 62
256
 10
-378.042245999999980
 20
-66.959913999999998
 40
0.999999999999992
 50
245.739170000001340
 51
329.999999999999490
  0
ARC
  8
0
  6
CONTINUOUS
 62
256
 10
-391.038644999999970
 20
-89.470337999999998
 40
0.999999999999998
 50
261.618272000001130
 51
329.999999999999490
  0
LINE
  8
0
  6
CONTINUOUS
 62
256
 10
-388.588500000000010
 20
-87.226562999999999
 11
-390.172619999999990
 21
-89.970337999999998
  0
ARC
  8
0
  6
CONTINUOUS
 62
256
 10
-386.626304000000000
 20
-81.827939000000001
 40
1.000000000000010
 50
251.212270999999220
 51
329.999999999999490
  0
LINE
  8
0
  6
CONTINUOUS
 62
256
 10
-384.235361000000010
 20
-79.686704000000006
 11
-385.760279000000030
 21
-82.327939000000001
  0
ARC
  8
0
  6
CONTINUOUS
 62
256
 10
-385.101385999999990
 20
-79.186704000000006
 40
0.999999999999984
 50
329.999999999999490
 51
69.594068000000149
  0
ARC
  8
0
  6
CONTINUOUS
 62
256
 10
-389.454525999999990
 20
-86.726562999999999
 40
0.999999999999984
 50
329.999999999999490
 51
76.260204999998734
  0
ARC
  8
0
  6
CONTINUOUS
 62
256
 10
-392.423436999999980
 20
-98.868868000000006
 40
13.499999999999989
 50
76.260205000000056
 51
103.739794999999940
  0
ARC
  8
0
  6
CONTINUOUS
 62
256
 10
-392.423436999999980
 20
-98.868868000000006
 40
16.999999999999993
 50
71.212271000000044
 51
108.787728999999960
  0
ARC
  8
0
  6
CONTINUOUS
 62
256
 10
-392.423436999999980
 20
-98.868868000000006
 40
21.999999999999996
 50
69.594067999999993
 51
110.405932000000020
  0
ARC
  8
0
  6
CONTINUOUS
 62
256
 10
-392.423436999999980
 20
-98.868868000000006
 40
30.499999999999996
 50
66.813853999999992
 51
113.186146000000020
  0
ARC
  8
0
  6
CONTINUOUS
 62
256
 10
-392.423436999999980
 20
-98.868868000000006
 40
25.500000000000007
 50
67.589541999999966
 51
112.410458000000050
  0
ARC
  8
0
  6
CONTINUOUS
 62
256
 10
-392.423436999999980
 20
-98.868868000000006
 40
34.000000000000000
 50
65.739169999999987
 51
114.260830000000010
  0
ARC
  8
0
  6
CONTINUOUS
 62
256
 10
-392.423436999999980
 20
-98.868868000000006
 40
38.999999999999993
 50
65.284733000000031
 51
114.715266999999980
  0
LINE
  8
0
  6
CONTINUOUS
 62
256
 10
-421.715074000000020
 20
-101.368868000000010
 11
-418.691287999999990
 21
-101.368868000000010
  0
LINE
  8
0
  6
CONTINUOUS
 62
256
 10
-413.129715999999970
 20
-101.368868000000010
 11
-410.079881000000000
 21
-101.368868000000010
  0
LINE
  8
0
  6
CONTINUOUS
 62
256
 10
-404.423436999999980
 20
-101.368868000000010
 11
-401.255198000000010
 21
-101.368868000000010
  0
LINE
  8
0
  6
CONTINUOUS
 62
256
 10
-400.588500000000010
 20
-108.011173000000000
 11
-399.004381000000020
 21
-105.267397000000000
  0
LINE
  8
0
  6
CONTINUOUS
 62
256
 10
-404.941640000000010
 20
-115.551032000000010
 11
-403.416721999999990
 21
-112.909796000000000
  0
LINE
  8
0
  6
CONTINUOUS
 62
256
 10
-413.507737000000020
 20
-130.387946000000000
 11
-412.000781000000020
 21
-127.777822000000000
  0
LINE
  8
0
  6
CONTINUOUS
 62
256
 10
-430.261909000000000
 20
-101.368868000000010
 11
-427.247997000000000
 21
-101.368868000000010
  0
LINE
  8
0
  6
CONTINUOUS
 62
256
 10
-409.234319000000030
 20
-122.986170000000000
 11
-407.722425999999980
 21
-120.367493999999990
  0
ARC
  8
0
  6
CONTINUOUS
 62
256
 10
-392.423436999999980
 20
-98.868868000000006
 40
8.500000000000016
 50
201.618271999999960
 51
218.381727999999950
  0
ARC
  8
0
  6
CONTINUOUS
 62
256
 10
-392.423436999999980
 20
-98.868868000000006
 40
13.499999999999989
 50
196.260205000000010
 51
223.739794999999990
  0
ARC
  8
0
  6
CONTINUOUS
 62
256
 10
-392.423436999999980
 20
-98.868868000000006
 40
16.999999999999989
 50
191.212270999999960
 51
228.787728999999960
  0
ARC
  8
0
  6
CONTINUOUS
 62
256
 10
-392.423436999999980
 20
-98.868868000000006
 40
21.999999999999975
 50
189.594067999999960
 51
230.405932000000060
  0
ARC
  8
0
  6
CONTINUOUS
 62
256
 10
-392.423436999999980
 20
-98.868868000000006
 40
25.500000000000011
 50
187.589541999999990
 51
232.410458000000030
  0
ARC
  8
0
  6
CONTINUOUS
 62
256
 10
-392.423436999999980
 20
-98.868868000000006
 40
33.999999999999972
 50
185.739169999999970
 51
234.260829999999970
  0
ARC
  8
0
  6
CONTINUOUS
 62
256
 10
-392.423436999999980
 20
-98.868868000000006
 40
30.499999999999986
 50
186.813853999999990
 51
233.186146000000040
  0
ARC
  8
0
  6
CONTINUOUS
 62
256
 10
-392.423436999999980
 20
-98.868868000000006
 40
38.999999999999986
 50
185.284732999999990
 51
234.715266999999980
  0
ARC
  8
0
  6
CONTINUOUS
 62
256
 10
-399.870406000000000
 20
-104.767397000000000
 40
0.999999999999984
 50
329.999999999999490
 51
38.381728000001026
  0
ARC
  8
0
  6
CONTINUOUS
 62
256
 10
-401.255198000000010
 20
-102.368868000000010
 40
1.000000000000013
 50
21.618271999999475
 51
90.000000000000000
  0
ARC
  8
0
  6
CONTINUOUS
 62
256
 10
-404.423436999999980
 20
-102.368868000000010
 40
1.000000000000000
 50
90.000000000000000
 51
196.260205000000670
  0
ARC
  8
0
  6
CONTINUOUS
 62
256
 10
-401.454525999999990
 20
-107.511173000000000
 40
1.000000000000005
 50
223.739794999999760
 51
329.999999999999490
  0
ARC
  8
0
  6
CONTINUOUS
 62
256
 10
-404.282748000000030
 20
-112.409796000000000
 40
0.999999999999984
 50
329.999999999999490
 51
48.787728999999715
  0
ARC
  8
0
  6
CONTINUOUS
 62
256
 10
-405.807665999999980
 20
-115.051032000000010
 40
0.999999999999988
 50
230.405932000000690
 51
329.999999999999490
  0
ARC
  8
0
  6
CONTINUOUS
 62
256
 10
-410.079881000000000
 20
-102.368868000000010
 40
1.000000000000016
 50
11.212270999999729
 51
90.000000000000000
  0
ARC
  8
0
  6
CONTINUOUS
 62
256
 10
-413.129715999999970
 20
-102.368868000000010
 40
1.000000000000000
 50
90.000000000000000
 51
189.594067999999960
  0
ARC
  8
0
  6
CONTINUOUS
 62
256
 10
-421.715074000000020
 20
-102.368868000000010
 40
1.000000000000000
 50
90.000000000000000
 51
186.813853999999760
  0
ARC
  8
0
  6
CONTINUOUS
 62
256
 10
-408.588451000000020
 20
-119.867493999999990
 40
0.999999999999984
 50
329.999999999999490
 51
52.410458000001171
  0
ARC
  8
0
  6
CONTINUOUS
 62
256
 10
-410.100344000000010
 20
-122.486170000000000
 40
1.000000000000011
 50
233.186145999999270
 51
329.999999999999490
  0
ARC
  8
0
  6
CONTINUOUS
 62
256
 10
-418.691287999999990
 20
-102.368868000000010
 40
0.999999999999990
 50
7.589541999999997
 51
90.000000000000000
  0
ARC
  8
0
  6
CONTINUOUS
 62
256
 10
-430.261909000000000
 20
-102.368868000000010
 40
1.000000000000000
 50
90.000000000000000
 51
185.284732999999760
  0
ARC
  8
0
  6
CONTINUOUS
 62
256
 10
-427.247997000000000
 20
-102.368868000000010
 40
0.999999999999978
 50
5.739170000000447
 51
90.000000000000000
  0
ARC
  8
0
  6
CONTINUOUS
 62
256
 10
-412.866806000000000
 20
-127.277822000000000
 40
0.999999999999984
 50
329.999999999999490
 51
54.260829999999778
  0
ARC
  8
0
  6
CONTINUOUS
 62
256
 10
-414.373762000000000
 20
-129.887946000000000
 40
1.000000000000016
 50
234.715266999999020
 51
329.999999999999490
  0
CIRCLE
  8
0
  6
CONTINUOUS
 62
256
 10
-392.423436999999980
 20
-98.868868000000006
 40
5.000000000000000
  0
ARC
  8
0
  6
CONTINUOUS
 62
256
 10
-408.311583999999980
 20
-133.387946000000000
 40
0.999999999999984
 50
149.999999999999460
 51
245.284732999999870
  0
LINE
  8
0
  6
CONTINUOUS
 62
256
 10
-409.177610000000020
 20
-132.887946000000000
 11
-407.670654000000010
 21
-130.277821999999990
  0
ARC
  8
0
  6
CONTINUOUS
 62
256
 10
-392.423436999999980
 20
-98.868868000000006
 40
39.000000000000000
 50
245.284732999999960
 51
294.715266999999980
  0
ARC
  8
0
  6
CONTINUOUS
 62
256
 10
-392.423436999999980
 20
-98.868868000000006
 40
34.000000000000000
 50
245.739170000000000
 51
294.260830000000000
  0
ARC
  8
0
  6
CONTINUOUS
 62
256
 10
-392.423436999999980
 20
-98.868868000000006
 40
25.500000000000007
 50
247.589541999999940
 51
292.410458000000010
  0
ARC
  8
0
  6
CONTINUOUS
 62
256
 10
-392.423436999999980
 20
-98.868868000000006
 40
30.499999999999996
 50
246.813853999999990
 51
293.186146000000010
  0
ARC
  8
0
  6
CONTINUOUS
 62
256
 10
-404.038166999999990
 20
-125.986170000000000
 40
0.999999999999984
 50
149.999999999999460
 51
246.813853999999880
  0
LINE
  8
0
  6
CONTINUOUS
 62
256
 10
-404.904192000000020
 20
-125.486170000000000
 11
-403.392298999999980
 21
-122.867493999999990
  0
ARC
  8
0
  6
CONTINUOUS
 62
256
 10
-392.423436999999980
 20
-98.868868000000006
 40
21.999999999999996
 50
249.594067999999990
 51
290.405932000000010
  0
ARC
  8
0
  6
CONTINUOUS
 62
256
 10
-406.804627999999980
 20
-130.777821999999990
 40
0.999999999999992
 50
65.739170000001337
 51
149.999999999999460
  0
ARC
  8
0
  6
CONTINUOUS
 62
256
 10
-402.526274000000000
 20
-123.367493999999990
 40
1.000000000000009
 50
67.589541999999554
 51
149.999999999999460
  0
ARC
  8
0
  6
CONTINUOUS
 62
256
 10
-399.745488000000020
 20
-118.551032000000010
 40
0.999999999999984
 50
149.999999999999460
 51
249.594068000000160
  0
ARC
  8
0
  6
CONTINUOUS
 62
256
 10
-392.423436999999980
 20
-98.868868000000006
 40
16.999999999999993
 50
251.212271000000040
 51
288.787728999999960
  0
LINE
  8
0
  6
CONTINUOUS
 62
256
 10
-400.611513000000000
 20
-118.051032000000010
 11
-399.086594999999990
 21
-115.409796000000000
  0
ARC
  8
0
  6
CONTINUOUS
 62
256
 10
-398.220570000000010
 20
-115.909796000000000
 40
1.000000000000010
 50
71.212270999999262
 51
149.999999999999460
  0
ARC
  8
0
  6
CONTINUOUS
 62
256
 10
-392.423436999999980
 20
-98.868868000000006
 40
13.499999999999989
 50
256.260205000000040
 51
283.739794999999960
  0
ARC
  8
0
  6
CONTINUOUS
 62
256
 10
-395.392348000000030
 20
-111.011173000000000
 40
0.999999999999984
 50
149.999999999999460
 51
256.260204999998730
  0
LINE
  8
0
  6
CONTINUOUS
 62
256
 10
-396.258373000000010
 20
-110.511173000000000
 11
-394.674254000000020
 21
-107.767397000000000
  0
ARC
  8
0
  6
CONTINUOUS
 62
256
 10
-389.454525999999990
 20
-111.011173000000000
 40
1.000000000000011
 50
283.739795000001270
 51
30.000000000000544
  0
ARC
  8
0
  6
CONTINUOUS
 62
256
 10
-392.423436999999980
 20
-98.868868000000006
 40
8.500000000000002
 50
261.618271999999930
 51
278.381728000000070
  0
ARC
  8
0
  6
CONTINUOUS
 62
256
 10
-393.808227999999990
 20
-108.267397000000000
 40
0.999999999999998
 50
81.618272000001099
 51
149.999999999999460
  0
ARC
  8
0
  6
CONTINUOUS
 62
256
 10
-385.101385999999990
 20
-118.551032000000010
 40
0.999999999999993
 50
290.405931999999840
 51
30.000000000000544
  0
LINE
  8
0
  6
CONTINUOUS
 62
256
 10
-384.235361000000010
 20
-118.051032000000010
 11
-385.760279000000030
 21
-115.409796000000000
  0
ARC
  8
0
  6
CONTINUOUS
 62
256
 10
-386.626304000000000
 20
-115.909796000000000
 40
0.999999999999984
 50
30.000000000000544
 51
108.787729000000750
  0
LINE
  8
0
  6
CONTINUOUS
 62
256
 10
-388.588500000000010
 20
-110.511173000000000
 11
-390.172619999999990
 21
-107.767397000000000
  0
ARC
  8
0
  6
CONTINUOUS
 62
256
 10
-391.038644999999970
 20
-108.267397000000000
 40
0.999999999999984
 50
30.000000000000544
 51
98.381727999998901
  0
ARC
  8
0
  6
CONTINUOUS
 62
256
 10
-378.042245999999980
 20
-130.777821999999990
 40
0.999999999999984
 50
30.000000000000544
 51
114.260829999998650
  0
LINE
  8
0
  6
CONTINUOUS
 62
256
 10
-375.669264000000000
 20
-132.887946000000000
 11
-377.176220000000000
 21
-130.277821999999990
  0
ARC
  8
0
  6
CONTINUOUS
 62
256
 10
-376.535289999999970
 20
-133.387946000000000
 40
1.000000000000004
 50
294.715267000000150
 51
30.000000000000544
  0
ARC
  8
0
  6
CONTINUOUS
 62
256
 10
-382.320600000000010
 20
-123.367493999999990
 40
0.999999999999984
 50
30.000000000000544
 51
112.410458000000460
  0
LINE
  8
0
  6
CONTINUOUS
 62
256
 10
-379.942681999999990
 20
-125.486170000000000
 11
-381.454574999999980
 21
-122.867493999999990
  0
ARC
  8
0
  6
CONTINUOUS
 62
256
 10
-380.808707000000030
 20
-125.986170000000000
 40
1.000000000000000
 50
293.186146000000120
 51
30.000000000000544
  0
ARC
  8
0
  6
CONTINUOUS
 62
256
 10
-392.423436999999980
 20
-98.868868000000006
 40
39.000000000000014
 50
305.284733000000020
 51
354.715266999999980
  0
ARC
  8
0
  6
CONTINUOUS
 62
256
 10
-392.423436999999980
 20
-98.868868000000006
 40
33.999999999999986
 50
305.739169999999940
 51
354.260830000000000
  0
ARC
  8
0
  6
CONTINUOUS
 62
256
 10
-392.423436999999980
 20
-98.868868000000006
 40
25.499999999999996
 50
307.589541999999990
 51
352.410458000000010
  0
ARC
  8
0
  6
CONTINUOUS
 62
256
 10
-392.423436999999980
 20
-98.868868000000006
 40
30.499999999999982
 50
306.813853999999990
 51
353.186146000000010
  0
ARC
  8
0
  6
CONTINUOUS
 62
256
 10
-392.423436999999980
 20
-98.868868000000006
 40
21.999999999999986
 50
309.594067999999940
 51
350.405932000000010
  0
ARC
  8
0
  6
CONTINUOUS
 62
256
 10
-392.423436999999980
 20
-98.868868000000006
 40
17.000000000000014
 50
311.212270999999990
 51
348.787729000000010
  0
ARC
  8
0
  6
CONTINUOUS
 62
256
 10
-392.423436999999980
 20
-98.868868000000006
 40
13.500000000000004
 50
316.260204999999980
 51
343.739794999999960
  0
ARC
  8
0
  6
CONTINUOUS
 62
256
 10
-380.423436999999980
 20
-102.368868000000010
 40
0.999999999999976
 50
343.739794999999330
 51
90.000000000000000
  0
LINE
  8
0
  6
CONTINUOUS
 62
256
 10
-380.423436999999980
 20
-101.368868000000010
 11
-383.591676000000010
 21
-101.368868000000010
  0
ARC
  8
0
  6
CONTINUOUS
 62
256
 10
-383.392348000000030
 20
-107.511173000000000
 40
0.999999999999984
 50
210.000000000000510
 51
316.260205000000270
  0
ARC
  8
0
  6
CONTINUOUS
 62
256
 10
-392.423436999999980
 20
-98.868868000000006
 40
8.500000000000005
 50
321.618272000000050
 51
338.381728000000010
  0
ARC
  8
0
  6
CONTINUOUS
 62
256
 10
-383.591676000000010
 20
-102.368868000000010
 40
1.000000000000000
 50
90.000000000000000
 51
158.381728000000550
  0
ARC
  8
0
  6
CONTINUOUS
 62
256
 10
-379.039207999999970
 20
-115.051032000000010
 40
0.999999999999984
 50
210.000000000000510
 51
309.594067999999310
  0
LINE
  8
0
  6
CONTINUOUS
 62
256
 10
-379.905234000000010
 20
-115.551032000000010
 11
-381.430152000000020
 21
-112.909796000000000
  0
ARC
  8
0
  6
CONTINUOUS
 62
256
 10
-380.564125999999990
 20
-112.409796000000000
 40
1.000000000000006
 50
131.212270999999760
 51
210.000000000000510
  0
LINE
  8
0
  6
CONTINUOUS
 62
256
 10
-384.258373000000010
 20
-108.011173000000000
 11
-385.842492999999990
 21
-105.267397000000000
  0
ARC
  8
0
  6
CONTINUOUS
 62
256
 10
-384.976468000000010
 20
-104.767397000000000
 40
0.999999999999985
 50
141.618271999999000
 51
210.000000000000510
  0
ARC
  8
0
  6
CONTINUOUS
 62
256
 10
-371.980068000000020
 20
-127.277822000000000
 40
0.999999999999998
 50
125.739170000000210
 51
210.000000000000510
  0
LINE
  8
0
  6
CONTINUOUS
 62
256
 10
-371.339136999999990
 20
-130.387946000000000
 11
-372.846093000000000
 21
-127.777822000000000
  0
ARC
  8
0
  6
CONTINUOUS
 62
256
 10
-370.473112000000010
 20
-129.887946000000000
 40
0.999999999999984
 50
210.000000000000510
 51
305.284733000000980
  0
ARC
  8
0
  6
CONTINUOUS
 62
256
 10
-376.258422999999990
 20
-119.867493999999990
 40
0.999999999999993
 50
127.589541999998830
 51
210.000000000000510
  0
LINE
  8
0
  6
CONTINUOUS
 62
256
 10
-375.612554999999990
 20
-122.986170000000000
 11
-377.124447999999970
 21
-120.367493999999990
  0
ARC
  8
0
  6
CONTINUOUS
 62
256
 10
-374.746530000000010
 20
-122.486170000000000
 40
0.999999999999984
 50
210.000000000000510
 51
306.813854000000730
  0
ARC
  8
0
  6
CONTINUOUS
 62
256
 10
-354.584964000000010
 20
-102.368868000000010
 40
1.000000000000027
 50
354.715267000000210
 51
90.000000000000000
  0
LINE
  8
0
  6
CONTINUOUS
 62
256
 10
-354.584964000000010
 20
-101.368868000000010
 11
-357.598877000000020
 21
-101.368868000000010
  0
ARC
  8
0
  6
CONTINUOUS
 62
256
 10
-357.598877000000020
 20
-102.368868000000010
 40
1.000000000000000
 50
90.000000000000000
 51
174.260829999999570
  0
ARC
  8
0
  6
CONTINUOUS
 62
256
 10
-363.131800000000000
 20
-102.368868000000010
 40
1.000000000000019
 50
353.186146000000240
 51
90.000000000000000
  0
LINE
  8
0
  6
CONTINUOUS
 62
256
 10
-363.131800000000000
 20
-101.368868000000010
 11
-366.155586000000030
 21
-101.368868000000010
  0
ARC
  8
0
  6
CONTINUOUS
 62
256
 10
-366.155586000000030
 20
-102.368868000000010
 40
1.000000000000000
 50
90.000000000000000
 51
172.410458000000010
  0
ARC
  8
0
  6
CONTINUOUS
 62
256
 10
-371.717157999999980
 20
-102.368868000000010
 40
0.999999999999978
 50
350.405932000000010
 51
90.000000000000000
  0
LINE
  8
0
  6
CONTINUOUS
 62
256
 10
-371.717157999999980
 20
-101.368868000000010
 11
-374.766993000000010
 21
-101.368868000000010
  0
ARC
  8
0
  6
CONTINUOUS
 62
256
 10
-374.766993000000010
 20
-102.368868000000010
 40
1.000000000000000
 50
90.000000000000000
 51
168.787729000000270
  0
ARC
  8
0
  6
CONTINUOUS
 62
256
 10
-392.423436999999980
 20
109.631131999999990
 40
300.000000000000000
 50
263.967951000000030
 51
276.032048999999970
  0
ARC
  8
0
  6
CONTINUOUS
 62
256
 10
-361.423436999999980
 20
-183.735533000000000
 40
5.000000000000002
 50
276.032049000000030
 51
0.000000000000000
  0
ARC
  8
0
  6
CONTINUOUS
 62
256
 10
-423.423436999999980
 20
-183.735533000000000
 40
5.000000000000000
 50
180.000000000000000
 51
263.967950999999970
  0
LINE
  8
0
  6
CONTINUOUS
 62
256
 10
-394.923436999999980
 20
-190.868867999999990
 11
-394.923436999999980
 21
-190.358451000000000
  0
LINE
  8
0
  6
CONTINUOUS
 62
256
 10
-394.923436999999980
 20
-190.868867999999990
 11
-389.923436999999980
 21
-190.868867999999990
  0
LINE
  8
0
  6
CONTINUOUS
 62
256
 10
-389.923436999999980
 20
-190.868867999999990
 11
-389.923436999999980
 21
-190.358451000000000
  0
LINE
  8
0
  6
CONTINUOUS
 62
256
 10
-428.423436999999980
 20
-156.368867999999990
 11
-428.423436999999980
 21
-183.735533000000000
  0
LINE
  8
0
  6
CONTINUOUS
 62
256
 10
-356.423436999999980
 20
-156.368867999999990
 11
-356.423436999999980
 21
-183.735533000000000
  0
LINE
  8
0
  6
DASHDOT
 62
256
 10
-454.147167000000020
 20
-98.868868000000006
 11
-328.929208000000020
 21
-98.868868000000006
  0
LINE
  8
0
  6
DASHDOT
 62
256
 10
-392.423436999999980
 20
-35.628380999999997
 11
-392.423436999999980
 21
-193.373259999999990
  0
LINE
  8
0
  6
CONTINUOUS
 62
256
 10
-198.684918000000010
 20
-170.368867999999990
 11
-197.833937999999990
 21
-170.368867999999990
  0
LINE
  8
0
  6
CONTINUOUS
 62
256
 10
-198.647989000000000
 20
-182.368867999999990
 11
-197.777075000000000
 21
-182.368867999999990
  0
CIRCLE
  8
0
  6
CONTINUOUS
 62
256
 10
88.768800999999996
 20
-82.868801000000005
 40
14.900000000000006
  0
LINE
  8
0
  6
CONTINUOUS
 62
256
 10
175.886811999999990
 20
-93.368801000000005
 11
174.736811999999990
 21
-93.368801000000005
  0
LINE
  8
0
  6
CONTINUOUS
 62
256
 10
238.886811999999990
 20
-93.368801000000005
 11
240.036812000000000
 21
-93.368801000000005
  0
LINE
  8
0
  6
CONTINUOUS
 62
256
 10
159.886811999999990
 20
-94.868801000000005
 11
163.350912999999990
 21
-92.868801000000005
  0
LINE
  8
0
  6
CONTINUOUS
 62
256
 10
254.886811999999990
 20
-94.868801000000005
 11
251.422710000000000
 21
-92.868801000000005
  0
LINE
  8
0
  6
CONTINUOUS
 62
256
 10
240.036812000000000
 20
-92.868801000000005
 11
251.422710000000000
 21
-92.868801000000005
  0
LINE
  8
0
  6
CONTINUOUS
 62
256
 10
224.886811999999990
 20
-92.868801000000005
 11
238.886811999999990
 21
-92.868801000000005
  0
LINE
  8
0
  6
CONTINUOUS
 62
256
 10
174.886811999999990
 20
-97.868801000000005
 11
186.486811999999990
 21
-97.868801000000005
  0
ARC
  8
0
  6
CONTINUOUS
 62
256
 10
186.486811999999990
 20
-98.268800999999996
 40
0.400000000000006
 50
0.000000000000000
 51
90.000000000000000
  0
LINE
  8
0
  6
CONTINUOUS
 62
256
 10
189.886811999999990
 20
-92.868801000000005
 11
175.886811999999990
 21
-92.868801000000005
  0
LINE
  8
0
  6
CONTINUOUS
 62
256
 10
174.736811999999990
 20
-92.868801000000005
 11
163.350912999999990
 21
-92.868801000000005
  0
LINE
  8
0
  6
CONTINUOUS
 62
256
 10
239.886811999999990
 20
-97.868801000000005
 11
224.886811999999990
 21
-97.868801000000005
  0
LINE
  8
0
  6
CONTINUOUS
 62
256
 10
224.886811999999990
 20
-98.218800999999999
 11
224.886811999999990
 21
-97.868801000000005
  0
LINE
  8
0
  6
CONTINUOUS
 62
256
 10
253.886811999999990
 20
-97.768800999999996
 11
239.886811999999990
 21
-97.768800999999996
  0
LINE
  8
0
  6
CONTINUOUS
 62
256
 10
239.886811999999990
 20
-97.768800999999996
 11
239.886811999999990
 21
-97.868801000000005
  0
ARC
  8
0
  6
CONTINUOUS
 62
256
 10
253.886811999999990
 20
-96.768800999999996
 40
1.000000000000000
 50
270.000000000000000
 51
0.000000000000000
  0
LINE
  8
0
  6
CONTINUOUS
 62
256
 10
174.886811999999990
 20
-97.768800999999996
 11
160.886811999999990
 21
-97.768800999999996
  0
LINE
  8
0
  6
CONTINUOUS
 62
256
 10
174.886811999999990
 20
-97.868801000000005
 11
174.886811999999990
 21
-97.768800999999996
  0
ARC
  8
0
  6
CONTINUOUS
 62
256
 10
160.886811999999990
 20
-96.768800999999996
 40
1.000000000000000
 50
180.000000000000000
 51
270.000000000000000
  0
ARC
  8
0
  6
CONTINUOUS
 62
256
 10
214.286812000000000
 20
-99.018800999999996
 40
0.400000000000006
 50
90.000000000000000
 51
180.000000000000000
  0
LINE
  8
0
  6
CONTINUOUS
 62
256
 10
224.486811999999990
 20
-98.618801000000005
 11
214.286812000000000
 21
-98.618801000000005
  0
ARC
  8
0
  6
CONTINUOUS
 62
256
 10
224.486811999999990
 20
-98.218800999999999
 40
0.400000000000006
 50
270.000000000000000
 51
0.000000000000000
  0
LINE
  8
0
  6
CONTINUOUS
 62
256
 10
213.886811999999990
 20
-99.968800999999999
 11
213.886811999999990
 21
-99.018800999999996
  0
LINE
  8
0
  6
DASHDOT
 62
256
 10
257.886812000000020
 20
-82.868801000000005
 11
154.779235000000000
 21
-82.868801000000005
  0
ARC
  8
0
  6
CONTINUOUS
 62
256
 10
213.486811999999990
 20
-99.968800999999999
 40
0.400000000000006
 50
270.000000000000000
 51
0.000000000000000
  0
LINE
  8
0
  6
CONTINUOUS
 62
256
 10
186.886811999999990
 20
-98.268800999999996
 11
186.886811999999990
 21
-99.968800999999999
  0
LINE
  8
0
  6
CONTINUOUS
 62
256
 10
187.286812000000000
 20
-100.368801000000000
 11
213.486811999999990
 21
-100.368801000000000
  0
ARC
  8
0
  6
CONTINUOUS
 62
256
 10
187.286812000000000
 20
-99.968800999999999
 40
0.400000000000006
 50
180.000000000000000
 51
270.000000000000000
  0
LINE
  8
0
  6
CONTINUOUS
 62
256
 10
175.886811999999990
 20
-72.368801000000005
 11
174.736811999999990
 21
-72.368801000000005
  0
LINE
  8
0
  6
CONTINUOUS
 62
256
 10
238.886811999999990
 20
-72.368801000000005
 11
240.036812000000000
 21
-72.368801000000005
  0
LINE
  8
0
  6
CONTINUOUS
 62
256
 10
159.886811999999990
 20
-70.868801000000005
 11
163.350912999999990
 21
-72.868801000000005
  0
LINE
  8
0
  6
CONTINUOUS
 62
256
 10
254.886811999999990
 20
-70.868801000000005
 11
251.422710000000000
 21
-72.868801000000005
  0
LINE
  8
0
  6
CONTINUOUS
 62
256
 10
159.886811999999990
 20
-70.068800999999993
 11
254.886811999999990
 21
-70.068800999999993
  0
LINE
  8
0
  6
CONTINUOUS
 62
256
 10
240.036812000000000
 20
-72.868801000000005
 11
251.422710000000000
 21
-72.868801000000005
  0
LINE
  8
0
  6
CONTINUOUS
 62
256
 10
224.886811999999990
 20
-72.868801000000005
 11
238.886811999999990
 21
-72.868801000000005
  0
LINE
  8
0
  6
CONTINUOUS
 62
256
 10
174.886811999999990
 20
-67.868801000000005
 11
186.486811999999990
 21
-67.868801000000005
  0
ARC
  8
0
  6
CONTINUOUS
 62
256
 10
186.486811999999990
 20
-67.468800999999999
 40
0.400000000000006
 50
270.000000000000000
 51
0.000000000000000
  0
LINE
  8
0
  6
CONTINUOUS
 62
256
 10
189.886811999999990
 20
-72.868801000000005
 11
175.886811999999990
 21
-72.868801000000005
  0
LINE
  8
0
  6
CONTINUOUS
 62
256
 10
174.736811999999990
 20
-72.868801000000005
 11
163.350912999999990
 21
-72.868801000000005
  0
LINE
  8
0
  6
CONTINUOUS
 62
256
 10
239.886811999999990
 20
-67.868801000000005
 11
224.886811999999990
 21
-67.868801000000005
  0
LINE
  8
0
  6
CONTINUOUS
 62
256
 10
224.886811999999990
 20
-67.518800999999996
 11
224.886811999999990
 21
-67.868801000000005
  0
LINE
  8
0
  6
CONTINUOUS
 62
256
 10
253.886811999999990
 20
-67.968800999999999
 11
239.886811999999990
 21
-67.968800999999999
  0
LINE
  8
0
  6
CONTINUOUS
 62
256
 10
239.886811999999990
 20
-67.968800999999999
 11
239.886811999999990
 21
-67.868801000000005
  0
LINE
  8
0
  6
CONTINUOUS
 62
256
 10
174.886811999999990
 20
-67.968800999999999
 11
160.886811999999990
 21
-67.968800999999999
  0
LINE
  8
0
  6
CONTINUOUS
 62
256
 10
174.886811999999990
 20
-67.868801000000005
 11
174.886811999999990
 21
-67.968800999999999
  0
ARC
  8
0
  6
CONTINUOUS
 62
256
 10
214.286812000000000
 20
-66.718800999999999
 40
0.400000000000006
 50
180.000000000000000
 51
270.000000000000000
  0
LINE
  8
0
  6
CONTINUOUS
 62
256
 10
224.486811999999990
 20
-67.118801000000005
 11
214.286812000000000
 21
-67.118801000000005
  0
ARC
  8
0
  6
CONTINUOUS
 62
256
 10
224.486811999999990
 20
-67.518800999999996
 40
0.400000000000006
 50
0.000000000000000
 51
90.000000000000000
  0
LINE
  8
0
  6
CONTINUOUS
 62
256
 10
213.886811999999990
 20
-65.768800999999996
 11
213.886811999999990
 21
-66.718800999999999
  0
ARC
  8
0
  6
CONTINUOUS
 62
256
 10
213.486811999999990
 20
-65.768800999999996
 40
0.400000000000006
 50
0.000000000000000
 51
90.000000000000000
  0
LINE
  8
0
  6
CONTINUOUS
 62
256
 10
186.886811999999990
 20
-67.468800999999999
 11
186.886811999999990
 21
-65.768800999999996
  0
LINE
  8
0
  6
CONTINUOUS
 62
256
 10
187.286812000000000
 20
-65.368801000000005
 11
213.486811999999990
 21
-65.368801000000005
  0
ARC
  8
0
  6
CONTINUOUS
 62
256
 10
187.286812000000000
 20
-65.768800999999996
 40
0.400000000000006
 50
90.000000000000000
 51
180.000000000000000
  0
LINE
  8
0
  6
CONTINUOUS
 62
256
 10
174.736811999999990
 20
-72.368801000000005
 11
174.736811999999990
 21
-93.368801000000005
  0
LINE
  8
0
  6
CONTINUOUS
 62
256
 10
175.886811999999990
 20
-72.368801000000005
 11
175.886811999999990
 21
-93.368801000000005
  0
LINE
  8
0
  6
CONTINUOUS
 62
256
 10
238.886811999999990
 20
-72.368801000000005
 11
238.886811999999990
 21
-93.368801000000005
  0
LINE
  8
0
  6
CONTINUOUS
 62
256
 10
240.036812000000000
 20
-72.368801000000005
 11
240.036812000000000
 21
-93.368801000000005
  0
LINE
  8
0
  6
CONTINUOUS
 62
256
 10
224.886811999999990
 20
-72.668801000000002
 11
224.886811999999990
 21
-93.068800999999993
  0
LINE
  8
0
  6
CONTINUOUS
 62
256
 10
163.350912999999990
 20
-92.868801000000005
 11
163.350912999999990
 21
-72.868801000000005
  0
LINE
  8
0
  6
CONTINUOUS
 62
256
 10
251.422710000000000
 20
-92.868801000000005
 11
251.422710000000000
 21
-72.868801000000005
  0
ARC
  8
0
  6
CONTINUOUS
 62
256
 10
160.886811999999990
 20
-68.968800999999999
 40
1.000000000000000
 50
90.000000000000000
 51
180.000000000000000
  0
LINE
  8
0
  6
CONTINUOUS
 62
256
 10
159.886811999999990
 20
-68.968800999999999
 11
159.886811999999990
 21
-96.768800999999996
  0
ARC
  8
0
  6
CONTINUOUS
 62
256
 10
253.886811999999990
 20
-68.968800999999999
 40
1.000000000000000
 50
0.000000000000000
 51
90.000000000000000
  0
LINE
  8
0
  6
CONTINUOUS
 62
256
 10
254.886811999999990
 20
-68.968800999999999
 11
254.886811999999990
 21
-96.768800999999996
  0
LINE
  8
0
  6
CONTINUOUS
 62
256
 10
189.886811999999990
 20
-72.668801000000002
 11
224.886811999999990
 21
-72.668801000000002
  0
LINE
  8
0
  6
CONTINUOUS
 62
256
 10
189.886811999999990
 20
-93.068800999999993
 11
224.886811999999990
 21
-93.068800999999993
  0
LINE
  8
0
  6
CONTINUOUS
 62
256
 10
189.886811999999990
 20
-72.668801000000002
 11
189.886811999999990
 21
-93.068800999999993
  0
LINE
  8
0
  6
CONTINUOUS
 62
256
 10
91.768800999999996
 20
-70.068800999999993
 11
91.768800999999996
 21
-73.329408999999998
  0
ARC
  8
0
  6
CONTINUOUS
 62
256
 10
88.768800999999996
 20
-82.868801000000005
 40
9.999999999999996
 50
107.457603000000010
 51
72.542396999999994
  0
LINE
  8
0
  6
CONTINUOUS
 62
256
 10
85.768800999999996
 20
-70.068800999999993
 11
91.768800999999996
 21
-70.068800999999993
  0
LINE
  8
0
  6
CONTINUOUS
 62
256
 10
85.768800999999996
 20
-70.068800999999993
 11
85.768800999999996
 21
-73.329408999999998
  0
LINE
  8
0
  6
DASHDOT
 62
256
 10
88.768800999999996
 20
-101.518801000000000
 11
88.768800999999996
 21
-64.218800999999999
  0
LINE
  8
0
  6
DASHDOT
 62
256
 10
70.118801000000005
 20
-82.868801000000005
 11
107.418801000000000
 21
-82.868801000000005
  0
LINE
  8
0
  6
CONTINUOUS
 62
256
 10
-106.451237000000010
 20
-152.368867999999990
 11
-108.251237000000000
 21
-152.368867999999990
  0
LINE
  8
0
  6
CONTINUOUS
 62
256
 10
-115.251237000000000
 20
-190.368867999999990
 11
-115.251237000000000
 21
-190.868867999999990
  0
LINE
  8
0
  6
CONTINUOUS
 62
256
 10
-123.251237000000000
 20
-190.368867999999990
 11
-123.251237000000000
 21
-190.868867999999990
  0
LINE
  8
0
  6
CONTINUOUS
 62
256
 10
-123.251237000000000
 20
-190.868867999999990
 11
-115.251237000000000
 21
-190.868867999999990
  0
ARC
  8
0
  6
CONTINUOUS
 62
256
 10
-109.251237000000000
 20
-189.368867999999990
 40
1.000000000000000
 50
270.000000000000000
 51
0.000000000000000
  0
LINE
  8
0
  6
CONTINUOUS
 62
256
 10
-108.251237000000000
 20
-151.368867999999990
 11
-108.251237000000000
 21
-189.368867999999990
  0
LINE
  8
0
  6
CONTINUOUS
 62
256
 10
-190.451236999999990
 20
-112.868868000000010
 11
-106.451237000000010
 21
-112.868868000000010
  0
LINE
  8
0
  6
CONTINUOUS
 62
256
 10
-198.251237000000000
 20
-182.368867999999990
 11
-198.251237000000000
 21
-189.368867999999990
  0
LINE
  8
0
  6
CONTINUOUS
 62
256
 10
-198.251237000000000
 20
-153.317197999999990
 11
-198.251237000000000
 21
-170.368867999999990
  0
LINE
  8
0
  6
CONTINUOUS
 62
256
 10
-198.251237000000000
 20
-170.368867999999990
 11
-198.251237000000000
 21
-182.368867999999990
  0
LINE
  8
0
  6
CONTINUOUS
 62
256
 10
-190.451236999999990
 20
-132.172469000000010
 11
-106.451237000000010
 21
-132.172469000000010
  0
LINE
  8
0
  6
CONTINUOUS
 62
256
 10
-190.451236999999990
 20
-130.583259000000000
 11
-106.451237000000010
 21
-130.583259000000000
  0
LINE
  8
0
  6
CONTINUOUS
 62
256
 10
-190.451236999999990
 20
-127.625263000000000
 11
-106.451237000000010
 21
-127.625263000000000
  0
LINE
  8
0
  6
CONTINUOUS
 62
256
 10
-190.451236999999990
 20
-126.146240000000010
 11
-106.451237000000010
 21
-126.146240000000010
  0
LINE
  8
0
  6
CONTINUOUS
 62
256
 10
-190.451236999999990
 20
-123.053509000000010
 11
-106.451237000000010
 21
-123.053509000000010
  0
LINE
  8
0
  6
CONTINUOUS
 62
256
 10
-190.451236999999990
 20
-121.707106999999990
 11
-106.451237000000010
 21
-121.707106999999990
  0
LINE
  8
0
  6
CONTINUOUS
 62
256
 10
-190.451236999999990
 20
-118.496902000000010
 11
-106.451237000000010
 21
-118.496902000000010
  0
LINE
  8
0
  6
CONTINUOUS
 62
256
 10
-190.451236999999990
 20
-117.254983000000000
 11
-106.451237000000010
 21
-117.254983000000000
  0
LINE
  8
0
  6
CONTINUOUS
 62
256
 10
-198.251237000000000
 20
-156.368867999999990
 11
-108.251237000000000
 21
-156.368867999999990
  0
LINE
  8
0
  6
CONTINUOUS
 62
256
 10
-200.451236999999990
 20
-157.868867999999990
 11
-200.451236999999990
 21
-156.208564000000000
  0
LINE
  8
0
  6
CONTINUOUS
 62
256
 10
-200.451236999999990
 20
-157.868867999999990
 11
-267.956081999999980
 21
-157.868867999999990
  0
ARC
  8
0
  6
CONTINUOUS
 62
256
 10
-197.451236999999990
 20
-156.208564000000000
 40
3.000000000000000
 50
90.000000000000000
 51
180.000000000000000
  0
LINE
  8
0
  6
CONTINUOUS
 62
256
 10
-197.451236999999990
 20
-153.208564000000000
 11
-193.451236999999990
 21
-153.208564000000000
  0
ARC
  8
0
  6
CONTINUOUS
 62
256
 10
-193.451236999999990
 20
-150.208564000000000
 40
3.000000000000000
 50
270.000000000000000
 51
0.000000000000000
  0
LINE
  8
0
  6
CONTINUOUS
 62
256
 10
-190.451236999999990
 20
-150.208564000000000
 11
-190.451236999999990
 21
-98.868868000000006
  0
LINE
  8
0
  6
CONTINUOUS
 62
256
 10
-201.451236999999990
 20
-148.012789000000000
 11
-203.451236999999990
 21
-146.360147000000010
  0
LINE
  8
0
  6
CONTINUOUS
 62
256
 10
-199.451236999999990
 20
-149.188573999999990
 11
-201.451236999999990
 21
-148.012789000000000
  0
LINE
  8
0
  6
CONTINUOUS
 62
256
 10
-201.451236999999990
 20
-148.012789000000000
 11
-199.451236999999990
 21
-146.360147000000010
  0
LINE
  8
0
  6
CONTINUOUS
 62
256
 10
-203.451236999999990
 20
-149.188573999999990
 11
-201.451236999999990
 21
-148.012789000000000
  0
POLYLINE
  8
0
  6
CONTINUOUS
 62
256
 66
1
 70
1
  0
VERTEX
  8
0
  6
CONTINUOUS
 62
256
 10
-196.751237000000000
 20
-146.196199000000010
  0
VERTEX
  8
0
  6
CONTINUOUS
 62
256
 10
-196.841546182104820
 20
-145.493242489441830
  0
VERTEX
  8
0
  6
CONTINUOUS
 62
256
 10
-197.109003197196960
 20
-144.817300203361870
  0
VERTEX
  8
0
  6
CONTINUOUS
 62
256
 10
-197.543329822178040
 20
-144.194348224741330
  0
VERTEX
  8
0
  6
CONTINUOUS
 62
256
 10
-198.127835128423210
 20
-143.648326248763170
  0
VERTEX
  8
0
  6
CONTINUOUS
 62
256
 10
-198.840056904807880
 20
-143.200217593751520
  0
VERTEX
  8
0
  6
CONTINUOUS
 62
256
 10
-199.652624867884070
 20
-142.867242824016270
  0
VERTEX
  8
0
  6
CONTINUOUS
 62
256
 10
-200.534312486524190
 20
-142.662197973223930
  0
VERTEX
  8
0
  6
CONTINUOUS
 62
256
 10
-201.451236999999990
 20
-142.592962800000010
  0
VERTEX
  8
0
  6
CONTINUOUS
 62
256
 10
-202.368161513475800
 20
-142.662197973223930
  0
VERTEX
  8
0
  6
CONTINUOUS
 62
256
 10
-203.249849132115910
 20
-142.867242824016270
  0
VERTEX
  8
0
  6
CONTINUOUS
 62
256
 10
-204.062417095192100
 20
-143.200217593751520
  0
VERTEX
  8
0
  6
CONTINUOUS
 62
256
 10
-204.774638871576770
 20
-143.648326248763170
  0
VERTEX
  8
0
  6
CONTINUOUS
 62
256
 10
-205.359144177821950
 20
-144.194348224741330
  0
VERTEX
  8
0
  6
CONTINUOUS
 62
256
 10
-205.793470802803030
 20
-144.817300203361870
  0
VERTEX
  8
0
  6
CONTINUOUS
 62
256
 10
-206.060927817895160
 20
-145.493242489441830
  0
VERTEX
  8
0
  6
CONTINUOUS
 62
256
 10
-206.151236999999980
 20
-146.196199000000010
  0
VERTEX
  8
0
  6
CONTINUOUS
 62
256
 10
-206.060927817895160
 20
-146.899155510558190
  0
VERTEX
  8
0
  6
CONTINUOUS
 62
256
 10
-205.793470802803030
 20
-147.575097796638150
  0
VERTEX
  8
0
  6
CONTINUOUS
 62
256
 10
-205.359144177821950
 20
-148.198049775258680
  0
VERTEX
  8
0
  6
CONTINUOUS
 62
256
 10
-204.774638871576770
 20
-148.744071751236850
  0
VERTEX
  8
0
  6
CONTINUOUS
 62
256
 10
-204.062417095192100
 20
-149.192180406248500
  0
VERTEX
  8
0
  6
CONTINUOUS
 62
256
 10
-203.249849132115910
 20
-149.525155175983740
  0
VERTEX
  8
0
  6
CONTINUOUS
 62
256
 10
-202.368161513475800
 20
-149.730200026776060
  0
VERTEX
  8
0
  6
CONTINUOUS
 62
256
 10
-201.451236999999990
 20
-149.799435200000000
  0
VERTEX
  8
0
  6
CONTINUOUS
 62
256
 10
-200.534312486524190
 20
-149.730200026776060
  0
VERTEX
  8
0
  6
CONTINUOUS
 62
256
 10
-199.652624867884070
 20
-149.525155175983740
  0
VERTEX
  8
0
  6
CONTINUOUS
 62
256
 10
-198.840056904807880
 20
-149.192180406248500
  0
VERTEX
  8
0
  6
CONTINUOUS
 62
256
 10
-198.127835128423240
 20
-148.744071751236850
  0
VERTEX
  8
0
  6
CONTINUOUS
 62
256
 10
-197.543329822178040
 20
-148.198049775258680
  0
VERTEX
  8
0
  6
CONTINUOUS
 62
256
 10
-197.109003197196960
 20
-147.575097796638150
  0
VERTEX
  8
0
  6
CONTINUOUS
 62
256
 10
-196.841546182104820
 20
-146.899155510558190
  0
SEQEND
  8
0
  6
CONTINUOUS
 62
256
  0
LINE
  8
0
  6
CONTINUOUS
 62
256
 10
-108.251237000000000
 20
-151.368867999999990
 11
-190.451236999999990
 21
-151.368867999999990
  0
LINE
  8
0
  6
CONTINUOUS
 62
256
 10
-191.251237000000000
 20
-190.368867999999990
 11
-191.251237000000000
 21
-190.868867999999990
  0
LINE
  8
0
  6
CONTINUOUS
 62
256
 10
-183.251237000000000
 20
-190.368867999999990
 11
-183.251237000000000
 21
-190.868867999999990
  0
LINE
  8
0
  6
CONTINUOUS
 62
256
 10
-191.251237000000000
 20
-190.868867999999990
 11
-183.251237000000000
 21
-190.868867999999990
  0
ARC
  8
0
  6
CONTINUOUS
 62
256
 10
-197.251237000000000
 20
-189.368867999999990
 40
1.000000000000000
 50
180.000000000000000
 51
270.000000000000000
  0
LINE
  8
0
  6
CONTINUOUS
 62
256
 10
-197.251237000000000
 20
-190.368867999999990
 11
-109.251237000000000
 21
-190.368867999999990
  0
LINE
  8
0
  6
CONTINUOUS
 62
256
 10
-190.451236999999990
 20
-149.868867999999990
 11
-106.451237000000010
 21
-149.868867999999990
  0
LINE
  8
0
  6
CONTINUOUS
 62
256
 10
-190.451236999999990
 20
-149.368867999999990
 11
-106.451237000000010
 21
-149.368867999999990
  0
LINE
  8
0
  6
CONTINUOUS
 62
256
 10
-190.451236999999990
 20
-145.001949999999990
 11
-106.451237000000010
 21
-145.001949999999990
  0
LINE
  8
0
  6
CONTINUOUS
 62
256
 10
-190.451236999999990
 20
-139.910782000000010
 11
-106.451237000000010
 21
-139.910782000000010
  0
LINE
  8
0
  6
CONTINUOUS
 62
256
 10
-288.451236999999990
 20
-146.712488000000010
 11
-288.451236999999990
 21
-98.868868000000006
  0
LINE
  8
0
  6
CONTINUOUS
 62
256
 10
-279.771755999999980
 20
-154.143400000000010
 11
-287.342535000000000
 21
-148.842283000000010
  0
ARC
  8
0
  6
CONTINUOUS
 62
256
 10
-285.851237000000030
 20
-146.712488000000010
 40
2.600000000000023
 50
180.000000000000000
 51
234.999999999999770
  0
ARC
  8
0
  6
CONTINUOUS
 62
256
 10
-267.956081999999980
 20
-137.268868000000000
 40
20.599999999999991
 50
235.000000000000000
 51
270.000000000000000
  0
LINE
  8
0
  6
CONTINUOUS
 62
256
 10
-106.451237000000010
 20
-45.368867999999999
 11
-190.451236999999990
 21
-45.368867999999999
  0
LINE
  8
0
  6
CONTINUOUS
 62
256
 10
-190.451236999999990
 20
-84.868868000000006
 11
-106.451237000000010
 21
-84.868868000000006
  0
LINE
  8
0
  6
CONTINUOUS
 62
256
 10
-190.451236999999990
 20
-79.240832999999995
 11
-106.451237000000010
 21
-79.240832999999995
  0
LINE
  8
0
  6
CONTINUOUS
 62
256
 10
-190.451236999999990
 20
-80.482753000000002
 11
-106.451237000000010
 21
-80.482753000000002
  0
LINE
  8
0
  6
CONTINUOUS
 62
256
 10
-190.451236999999990
 20
-74.684225999999995
 11
-106.451237000000010
 21
-74.684225999999995
  0
LINE
  8
0
  6
CONTINUOUS
 62
256
 10
-190.451236999999990
 20
-71.591494999999995
 11
-106.451237000000010
 21
-71.591494999999995
  0
LINE
  8
0
  6
CONTINUOUS
 62
256
 10
-190.451236999999990
 20
-70.112471999999997
 11
-106.451237000000010
 21
-70.112471999999997
  0
LINE
  8
0
  6
CONTINUOUS
 62
256
 10
-190.451236999999990
 20
-67.154477000000000
 11
-106.451237000000010
 21
-67.154477000000000
  0
LINE
  8
0
  6
CONTINUOUS
 62
256
 10
-190.451236999999990
 20
-65.565267000000006
 11
-106.451237000000010
 21
-65.565267000000006
  0
LINE
  8
0
  6
CONTINUOUS
 62
256
 10
-190.451236999999990
 20
-57.826954000000001
 11
-106.451237000000010
 21
-57.826954000000001
  0
LINE
  8
0
  6
CONTINUOUS
 62
256
 10
-190.451236999999990
 20
-52.735785000000000
 11
-106.451237000000010
 21
-52.735785000000000
  0
LINE
  8
0
  6
CONTINUOUS
 62
256
 10
-190.451236999999990
 20
-48.368867999999999
 11
-106.451237000000010
 21
-48.368867999999999
  0
LINE
  8
0
  6
CONTINUOUS
 62
256
 10
-190.451236999999990
 20
-47.868867999999999
 11
-106.451237000000010
 21
-47.868867999999999
  0
LINE
  8
0
  6
CONTINUOUS
 62
256
 10
-190.451236999999990
 20
-39.868867999999999
 11
-267.956081999999980
 21
-39.868867999999999
  0
LINE
  8
0
  6
CONTINUOUS
 62
256
 10
-279.771755999999980
 20
-43.594335999999998
 11
-287.342535000000000
 21
-48.895451999999999
  0
LINE
  8
0
  6
CONTINUOUS
 62
256
 10
-288.451236999999990
 20
-51.025247999999998
 11
-288.451236999999990
 21
-98.868868000000006
  0
ARC
  8
0
  6
CONTINUOUS
 62
256
 10
-285.851237000000030
 20
-51.025247999999998
 40
2.600000000000001
 50
125.000000000000110
 51
180.000000000000000
  0
ARC
  8
0
  6
CONTINUOUS
 62
256
 10
-267.956081999999980
 20
-60.468868000000001
 40
20.600000000000001
 50
90.000000000000000
 51
124.999999999999990
  0
LINE
  8
0
  6
CONTINUOUS
 62
256
 10
-190.451236999999990
 20
-39.868867999999999
 11
-190.451236999999990
 21
-98.868868000000006
  0
LINE
  8
0
  6
CONTINUOUS
 62
256
 10
-201.451236999999990
 20
-49.724947000000000
 11
-203.451236999999990
 21
-51.377588000000003
  0
LINE
  8
0
  6
CONTINUOUS
 62
256
 10
-199.451236999999990
 20
-48.549160999999998
 11
-201.451236999999990
 21
-49.724947000000000
  0
LINE
  8
0
  6
CONTINUOUS
 62
256
 10
-201.451236999999990
 20
-49.724947000000000
 11
-199.451236999999990
 21
-51.377588000000003
  0
LINE
  8
0
  6
CONTINUOUS
 62
256
 10
-203.451236999999990
 20
-48.549160999999998
 11
-201.451236999999990
 21
-49.724947000000000
  0
POLYLINE
  8
0
  6
CONTINUOUS
 62
256
 66
1
 70
1
  0
VERTEX
  8
0
  6
CONTINUOUS
 62
256
 10
-196.751237000000000
 20
-51.541536999999998
  0
VERTEX
  8
0
  6
CONTINUOUS
 62
256
 10
-196.841546182104820
 20
-50.838580489441831
  0
VERTEX
  8
0
  6
CONTINUOUS
 62
256
 10
-197.109003197196960
 20
-50.162638203361858
  0
VERTEX
  8
0
  6
CONTINUOUS
 62
256
 10
-197.543329822178040
 20
-49.539686224741338
  0
VERTEX
  8
0
  6
CONTINUOUS
 62
256
 10
-198.127835128423210
 20
-48.993664248763160
  0
VERTEX
  8
0
  6
CONTINUOUS
 62
256
 10
-198.840056904807880
 20
-48.545555593751509
  0
VERTEX
  8
0
  6
CONTINUOUS
 62
256
 10
-199.652624867884070
 20
-48.212580824016264
  0
VERTEX
  8
0
  6
CONTINUOUS
 62
256
 10
-200.534312486524190
 20
-48.007535973223938
  0
VERTEX
  8
0
  6
CONTINUOUS
 62
256
 10
-201.451236999999990
 20
-47.938300800000007
  0
VERTEX
  8
0
  6
CONTINUOUS
 62
256
 10
-202.368161513475800
 20
-48.007535973223938
  0
VERTEX
  8
0
  6
CONTINUOUS
 62
256
 10
-203.249849132115910
 20
-48.212580824016264
  0
VERTEX
  8
0
  6
CONTINUOUS
 62
256
 10
-204.062417095192100
 20
-48.545555593751509
  0
VERTEX
  8
0
  6
CONTINUOUS
 62
256
 10
-204.774638871576770
 20
-48.993664248763160
  0
VERTEX
  8
0
  6
CONTINUOUS
 62
256
 10
-205.359144177821950
 20
-49.539686224741338
  0
VERTEX
  8
0
  6
CONTINUOUS
 62
256
 10
-205.793470802803030
 20
-50.162638203361858
  0
VERTEX
  8
0
  6
CONTINUOUS
 62
256
 10
-206.060927817895160
 20
-50.838580489441831
  0
VERTEX
  8
0
  6
CONTINUOUS
 62
256
 10
-206.151236999999980
 20
-51.541536999999998
  0
VERTEX
  8
0
  6
CONTINUOUS
 62
256
 10
-206.060927817895160
 20
-52.244493510558165
  0
VERTEX
  8
0
  6
CONTINUOUS
 62
256
 10
-205.793470802803030
 20
-52.920435796638138
  0
VERTEX
  8
0
  6
CONTINUOUS
 62
256
 10
-205.359144177821950
 20
-53.543387775258658
  0
VERTEX
  8
0
  6
CONTINUOUS
 62
256
 10
-204.774638871576770
 20
-54.089409751236836
  0
VERTEX
  8
0
  6
CONTINUOUS
 62
256
 10
-204.062417095192100
 20
-54.537518406248488
  0
VERTEX
  8
0
  6
CONTINUOUS
 62
256
 10
-203.249849132115910
 20
-54.870493175983732
  0
VERTEX
  8
0
  6
CONTINUOUS
 62
256
 10
-202.368161513475800
 20
-55.075538026776059
  0
VERTEX
  8
0
  6
CONTINUOUS
 62
256
 10
-201.451236999999990
 20
-55.144773199999989
  0
VERTEX
  8
0
  6
CONTINUOUS
 62
256
 10
-200.534312486524190
 20
-55.075538026776059
  0
VERTEX
  8
0
  6
CONTINUOUS
 62
256
 10
-199.652624867884070
 20
-54.870493175983732
  0
VERTEX
  8
0
  6
CONTINUOUS
 62
256
 10
-198.840056904807880
 20
-54.537518406248488
  0
VERTEX
  8
0
  6
CONTINUOUS
 62
256
 10
-198.127835128423240
 20
-54.089409751236836
  0
VERTEX
  8
0
  6
CONTINUOUS
 62
256
 10
-197.543329822178040
 20
-53.543387775258658
  0
VERTEX
  8
0
  6
CONTINUOUS
 62
256
 10
-197.109003197196960
 20
-52.920435796638138
  0
VERTEX
  8
0
  6
CONTINUOUS
 62
256
 10
-196.841546182104820
 20
-52.244493510558165
  0
SEQEND
  8
0
  6
CONTINUOUS
 62
256
  0
LINE
  8
0
  6
CONTINUOUS
 62
256
 10
-106.451237000000010
 20
-98.868868000000006
 11
-106.451237000000010
 21
-45.368867999999999
  0
LINE
  8
0
  6
CONTINUOUS
 62
256
 10
-106.451237000000010
 20
-152.368867999999990
 11
-106.451237000000010
 21
-98.868868000000006
  0
LINE
  8
0
  6
CONTINUOUS
 62
256
 10
-106.451237000000010
 20
-46.368867999999999
 11
-106.451237000000010
 21
-48.618867999999999
  0
LINE
  8
0
  6
CONTINUOUS
 62
256
 10
-106.451237000000010
 20
-47.818868000000002
 11
-106.451237000000010
 21
-46.368867999999999
  0
LINE
  8
0
  6
DASHDOT
 62
256
 10
-54.312955000000002
 20
-98.868868000000006
 11
-299.447547999999980
 21
-98.868868000000006
  0
LINE
  8
0
  6
DASHDOT
 62
256
 10
367.667043999999980
 20
-193.503525999999990
 11
367.667043999999980
 21
-33.988210000000002
  0
LINE
  8
0
  6
DASHDOT
 62
256
 10
427.343782999999970
 20
-98.868868000000006
 11
306.120861999999990
 21
-98.868868000000006
  0
CIRCLE
  8
0
  6
CONTINUOUS
 62
256
 10
-3.950893000000000
 20
-82.868801000000005
 40
30.000000000000000
  0
CIRCLE
  8
0
  6
CONTINUOUS
 62
256
 10
-3.950893000000000
 20
-82.868801000000005
 40
28.000000000000000
  0
CIRCLE
  8
0
  6
CONTINUOUS
 62
256
 10
-3.950893000000000
 20
-82.868801000000005
 40
21.000000000000000
  0
LINE
  8
0
  6
CONTINUOUS
 62
256
 10
12.049348000000000
 20
-43.268801000000003
 11
11.649348000000000
 21
-42.868800999999998
  0
LINE
  8
0
  6
CONTINUOUS
 62
256
 10
22.049347999999998
 20
-43.268801000000003
 11
22.449348000000001
 21
-42.868800999999998
  0
LINE
  8
0
  6
CONTINUOUS
 62
256
 10
-57.951132999999999
 20
-43.268801000000003
 11
-57.551133000000000
 21
-42.868800999999998
  0
LINE
  8
0
  6
CONTINUOUS
 62
256
 10
-67.951132999999999
 20
-43.268801000000003
 11
-68.351133000000004
 21
-42.868800999999998
  0
LINE
  8
0
  6
CONTINUOUS
 62
256
 10
-67.951132999999999
 20
-122.468801000000000
 11
-68.351133000000004
 21
-122.868801000000000
  0
LINE
  8
0
  6
CONTINUOUS
 62
256
 10
-57.951132999999999
 20
-122.468801000000000
 11
-57.551133000000000
 21
-122.868801000000000
  0
LINE
  8
0
  6
CONTINUOUS
 62
256
 10
12.049348000000000
 20
-122.468801000000000
 11
11.649348000000000
 21
-122.868801000000000
  0
LINE
  8
0
  6
CONTINUOUS
 62
256
 10
22.049347999999998
 20
-122.468801000000000
 11
22.449348000000001
 21
-122.868801000000000
  0
ARC
  8
0
  6
CONTINUOUS
 62
256
 10
-50.951261000000002
 20
-113.368801000000000
 40
5.750000000000003
 50
202.621328000000060
 51
270.000000000000000
  0
ARC
  8
0
  6
CONTINUOUS
 62
256
 10
-62.951132999999999
 20
-118.369107000000000
 40
7.250000000000001
 50
22.621327999999956
 51
90.198222000000001
  0
ARC
  8
0
  6
CONTINUOUS
 62
256
 10
-62.996108999999997
 20
-105.369185000000000
 40
5.750000000000002
 50
220.930714999999940
 51
270.198221999999990
  0
ARC
  8
0
  6
CONTINUOUS
 62
256
 10
-73.950892999999994
 20
-114.868801000000000
 40
8.750000000000005
 50
40.930715000000028
 51
84.062228000000019
  0
ARC
  8
0
  6
CONTINUOUS
 62
256
 10
-72.450892999999994
 20
-100.446596000000000
 40
5.750000000000000
 50
180.000000000000000
 51
264.062228000000060
  0
ARC
  8
0
  6
CONTINUOUS
 62
256
 10
-72.450892999999994
 20
-70.993098000000003
 40
5.750000000000002
 50
112.024312999999980
 51
180.000000000000000
  0
ARC
  8
0
  6
CONTINUOUS
 62
256
 10
-76.950892999999994
 20
-59.868800999999998
 40
6.249999999999999
 50
292.024313000000010
 51
347.552536999999920
  0
ARC
  8
0
  6
CONTINUOUS
 62
256
 10
-65.232963999999996
 20
-62.455333000000003
 40
5.749999999999999
 50
126.958503999999980
 51
167.552537000000000
  0
ARC
  8
0
  6
CONTINUOUS
 62
256
 10
-73.950892999999994
 20
-50.868800999999998
 40
8.750000000000002
 50
306.958504000000000
 51
319.069284999999980
  0
ARC
  8
0
  6
CONTINUOUS
 62
256
 10
-62.996108999999997
 20
-60.368417000000001
 40
5.750000000000003
 50
89.801778000000013
 51
139.069285000000040
  0
ARC
  8
0
  6
CONTINUOUS
 62
256
 10
-62.951132999999999
 20
-47.368493999999998
 40
7.249999999999996
 50
269.801777999999960
 51
337.378671999999990
  0
ARC
  8
0
  6
CONTINUOUS
 62
256
 10
-50.951261000000002
 20
-52.368800999999998
 40
5.750000000000000
 50
90.000000000000000
 51
157.378672000000020
  0
ARC
  8
0
  6
CONTINUOUS
 62
256
 10
26.049106999999999
 20
-65.230206999999993
 40
6.250000000000000
 50
0.000000000000000
 51
82.071857999999992
  0
ARC
  8
0
  6
CONTINUOUS
 62
256
 10
28.049106999999999
 20
-50.868800999999998
 40
8.249999999999998
 50
220.930714999999960
 51
262.071858000000020
  0
ARC
  8
0
  6
CONTINUOUS
 62
256
 10
17.094322999999999
 20
-60.368417000000001
 40
6.249999999999997
 50
40.930714999999985
 51
90.198221999999987
  0
ARC
  8
0
  6
CONTINUOUS
 62
256
 10
17.049347999999998
 20
-47.368493999999998
 40
6.750000000000001
 50
205.030490000000010
 51
270.198221999999990
  0
ARC
  8
0
  6
CONTINUOUS
 62
256
 10
5.270272000000000
 20
-52.868800999999998
 40
6.250000000000000
 50
25.030490000000011
 51
90.000000000000000
  0
LINE
  8
0
  6
CONTINUOUS
 62
256
 10
-51.172058000000000
 20
-46.618800999999998
 11
5.270272000000000
 21
-46.618800999999998
  0
LINE
  8
0
  6
CONTINUOUS
 62
256
 10
-78.200892999999994
 20
-100.507394000000010
 11
-78.200892999999994
 21
-70.777512999999999
  0
LINE
  8
0
  6
CONTINUOUS
 62
256
 10
5.270272000000000
 20
-119.118801000000000
 11
-51.172058000000000
 21
-119.118801000000000
  0
ARC
  8
0
  6
CONTINUOUS
 62
256
 10
5.270272000000000
 20
-112.868801000000000
 40
6.250000000000000
 50
270.000000000000000
 51
334.969510000000070
  0
ARC
  8
0
  6
CONTINUOUS
 62
256
 10
17.049347999999998
 20
-118.369107000000000
 40
6.749999999999998
 50
89.801777999999999
 51
154.969509999999990
  0
ARC
  8
0
  6
CONTINUOUS
 62
256
 10
17.094322999999999
 20
-105.369185000000000
 40
6.250000000000001
 50
269.801778000000010
 51
319.069284999999920
  0
ARC
  8
0
  6
CONTINUOUS
 62
256
 10
28.049106999999999
 20
-114.868801000000000
 40
8.249999999999995
 50
124.030594000000020
 51
139.069285000000040
  0
ARC
  8
0
  6
CONTINUOUS
 62
256
 10
19.934391999999999
 20
-102.852087000000000
 40
6.249999999999999
 50
304.030594000000010
 51
345.438153000000000
  0
ARC
  8
0
  6
CONTINUOUS
 62
256
 10
31.548914000000000
 20
-105.869186000000000
 40
5.749999999999999
 50
117.278576000000000
 51
165.438153000000030
  0
ARC
  8
0
  6
CONTINUOUS
 62
256
 10
26.049106999999999
 20
-95.203721999999999
 40
6.249999999999997
 50
297.278575999999990
 51
0.000000000000000
  0
LINE
  8
0
  6
CONTINUOUS
 62
256
 10
32.299106999999999
 20
-65.230206999999993
 11
32.299106999999999
 21
-95.203721999999999
  0
LINE
  8
0
  6
CONTINUOUS
 62
256
 10
-67.951132999999999
 20
-122.468801000000000
 11
-67.951132999999999
 21
-118.369107000000000
  0
LINE
  8
0
  6
CONTINUOUS
 62
256
 10
-57.951132999999999
 20
-122.468801000000000
 11
-57.951132999999999
 21
-118.369107000000000
  0
LINE
  8
0
  6
CONTINUOUS
 62
256
 10
12.049348000000000
 20
-122.468801000000000
 11
12.049348000000000
 21
-118.369107000000000
  0
LINE
  8
0
  6
CONTINUOUS
 62
256
 10
22.049347999999998
 20
-122.468801000000000
 11
22.049347999999998
 21
-118.369107000000000
  0
LINE
  8
0
  6
CONTINUOUS
 62
256
 10
22.049347999999998
 20
-47.368493999999998
 11
22.049347999999998
 21
-43.268801000000003
  0
LINE
  8
0
  6
CONTINUOUS
 62
256
 10
12.049348000000000
 20
-47.368493999999998
 11
12.049348000000000
 21
-43.268801000000003
  0
LINE
  8
0
  6
CONTINUOUS
 62
256
 10
-57.951132999999999
 20
-47.368493999999998
 11
-57.951132999999999
 21
-43.268801000000003
  0
LINE
  8
0
  6
CONTINUOUS
 62
256
 10
-67.951132999999999
 20
-47.368493999999998
 11
-67.951132999999999
 21
-43.268801000000003
  0
LINE
  8
0
  6
CONTINUOUS
 62
256
 10
-73.468892999999994
 20
-105.163867999999990
 11
-73.468892999999994
 21
-105.137033000000000
  0
ARC
  8
0
  6
CONTINUOUS
 62
256
 10
-5.273769000000000
 20
-43.868800999999998
 40
1.000000000000002
 50
48.590378000000101
 51
90.000000000000000
  0
ARC
  8
0
  6
CONTINUOUS
 62
256
 10
-3.950893000000000
 20
-42.368800999999998
 40
1.000000000000002
 50
228.590378000000070
 51
311.409621999999900
  0
ARC
  8
0
  6
CONTINUOUS
 62
256
 10
-2.628017000000000
 20
-43.868800999999998
 40
1.000000000000000
 50
90.000000000000000
 51
131.409621999999900
  0
ARC
  8
0
  6
CONTINUOUS
 62
256
 10
35.049106999999999
 20
-84.191676000000001
 40
1.000000000000000
 50
0.000000000000000
 51
41.409622000000049
  0
ARC
  8
0
  6
CONTINUOUS
 62
256
 10
36.549106999999999
 20
-82.868801000000005
 40
1.000000000000005
 50
138.590377999999960
 51
221.409622000000040
  0
ARC
  8
0
  6
CONTINUOUS
 62
256
 10
35.049106999999999
 20
-81.545924999999997
 40
1.000000000000005
 50
318.590377999999930
 51
0.000000000000000
  0
ARC
  8
0
  6
CONTINUOUS
 62
256
 10
-2.628017000000000
 20
-121.868801000000000
 40
1.000000000000002
 50
228.590378000000100
 51
270.000000000000000
  0
ARC
  8
0
  6
CONTINUOUS
 62
256
 10
-3.950893000000000
 20
-123.368801000000000
 40
1.000000000000002
 50
48.590378000000101
 51
131.409621999999930
  0
ARC
  8
0
  6
CONTINUOUS
 62
256
 10
-5.273769000000000
 20
-121.868801000000000
 40
1.000000000000000
 50
270.000000000000000
 51
311.409621999999900
  0
LINE
  8
0
  6
DASHDOT
 62
256
 10
-3.950893000000000
 20
-41.368800999999998
 11
-3.950893000000000
 21
-124.368801000000000
  0
LINE
  8
0
  6
DASHDOT
 62
256
 10
37.549106999999999
 20
-82.868801000000005
 11
-45.450893000000001
 21
-82.868801000000005
  0
LINE
  8
0
  6
DASHDOT
 62
256
 10
17.049347999999998
 20
-41.618493999999998
 11
17.049347999999998
 21
-53.118493999999998
  0
LINE
  8
0
  6
DASHDOT
 62
256
 10
22.799347999999998
 20
-47.368493999999998
 11
11.299348000000000
 21
-47.368493999999998
  0
LINE
  8
0
  6
DASHDOT
 62
256
 10
-62.951132999999999
 20
-41.618493999999998
 11
-62.951132999999999
 21
-53.118493999999998
  0
LINE
  8
0
  6
DASHDOT
 62
256
 10
-57.201132999999999
 20
-47.368493999999998
 11
-68.701132999999999
 21
-47.368493999999998
  0
LINE
  8
0
  6
DASHDOT
 62
256
 10
-62.951132999999999
 20
-112.619107000000000
 11
-62.951132999999999
 21
-124.119107000000000
  0
LINE
  8
0
  6
DASHDOT
 62
256
 10
-57.201132999999999
 20
-118.369107000000000
 11
-68.701132999999999
 21
-118.369107000000000
  0
LINE
  8
0
  6
DASHDOT
 62
256
 10
17.049347999999998
 20
-112.619107000000000
 11
17.049347999999998
 21
-124.119107000000000
  0
LINE
  8
0
  6
DASHDOT
 62
256
 10
22.799347999999998
 20
-118.369107000000000
 11
11.299348000000000
 21
-118.369107000000000
  0
LINE
  8
0
  6
DASHDOT
 62
256
 10
28.049106999999999
 20
-106.368801000000000
 11
28.049106999999999
 21
-123.368801000000000
  0
LINE
  8
0
  6
DASHDOT
 62
256
 10
36.549106999999999
 20
-114.868801000000000
 11
19.549106999999999
 21
-114.868801000000000
  0
LINE
  8
0
  6
DASHDOT
 62
256
 10
-73.950892999999994
 20
-106.368801000000000
 11
-73.950892999999994
 21
-123.368801000000000
  0
LINE
  8
0
  6
DASHDOT
 62
256
 10
-65.450892999999994
 20
-114.868801000000000
 11
-82.450892999999994
 21
-114.868801000000000
  0
LINE
  8
0
  6
DASHDOT
 62
256
 10
-73.950892999999994
 20
-41.196677000000001
 11
-73.950892999999994
 21
-59.368800999999998
  0
LINE
  8
0
  6
DASHDOT
 62
256
 10
-65.450892999999994
 20
-50.868800999999998
 11
-82.450892999999994
 21
-50.868800999999998
  0
LINE
  8
0
  6
DASHDOT
 62
256
 10
28.049106999999999
 20
-40.048484000000002
 11
28.049106999999999
 21
-59.368800999999998
  0
LINE
  8
0
  6
DASHDOT
 62
256
 10
36.549106999999999
 20
-50.868800999999998
 11
19.549106999999999
 21
-50.868800999999998
  0
CIRCLE
  8
0
  6
CONTINUOUS
 62
256
 10
-73.950892999999994
 20
-50.868800999999998
 40
4.000000000000000
  0
CIRCLE
  8
0
  6
CONTINUOUS
 62
256
 10
-73.950892999999994
 20
-50.868800999999998
 40
3.450000000000003
  0
CIRCLE
  8
0
  6
CONTINUOUS
 62
256
 10
28.049106999999999
 20
-50.868800999999998
 40
4.000000000000000
  0
CIRCLE
  8
0
  6
CONTINUOUS
 62
256
 10
28.049106999999999
 20
-50.868800999999998
 40
3.449999999999999
  0
CIRCLE
  8
0
  6
CONTINUOUS
 62
256
 10
28.049106999999999
 20
-114.868801000000000
 40
4.000000000000000
  0
CIRCLE
  8
0
  6
CONTINUOUS
 62
256
 10
28.049106999999999
 20
-114.868801000000000
 40
3.449999999999999
  0
CIRCLE
  8
0
  6
CONTINUOUS
 62
256
 10
-73.950892999999994
 20
-114.868801000000000
 40
4.000000000000000
  0
CIRCLE
  8
0
  6
CONTINUOUS
 62
256
 10
-73.950892999999994
 20
-114.868801000000000
 40
3.450000000000003
  0
ARC
  8
0
  6
CONTINUOUS
 62
256
 10
-24.584824999999999
 20
-116.618801000000000
 40
2.499999999999999
 50
171.247071000000120
 51
270.000000000000000
  0
ARC
  8
0
  6
CONTINUOUS
 62
256
 10
-24.584824999999999
 20
-49.118800999999998
 40
2.500000000000000
 50
90.000000000000000
 51
188.752929000000050
  0
CIRCLE
  8
0
  6
CONTINUOUS
 62
256
 10
-3.950893000000000
 20
-82.868801000000005
 40
15.000000000000000
  0
INSERT
  8
0
  2
ZU_SYM_1
 10
17.049347999999998
 20
-47.368493999999998
  0
INSERT
  8
0
  2
ZU_SYM_2
 10
17.049347999999998
 20
-118.369107000000000
  0
INSERT
  8
0
  2
ZU_SYM_3
 10
-62.951132999999999
 20
-118.369107000000000
  0
INSERT
  8
0
  2
ZU_SYM_4
 10
-62.951132999999999
 20
-47.368493999999998
  0
POINT
  8
0
  6
CONTINUOUS
 62
256
 10
-88.451237000000006
 20
-152.700514000000000
  0
POINT
  8
0
  6
CONTINUOUS
 62
256
 10
-80.451237000000006
 20
-125.868801000000000
  0
LINE
  8
0
  6
CONTINUOUS
 62
256
 10
-88.451237000000006
 20
-149.647692000000010
 11
-88.451237000000006
 21
-48.035026999999999
  0
LINE
  8
0
  6
CONTINUOUS
 62
256
 10
-106.451237000000010
 20
-152.386323000000000
 11
-91.503594000000007
 21
-152.647234999999990
  0
LINE
  8
0
  6
CONTINUOUS
 62
256
 10
-82.127785000000003
 20
-44.826314000000004
 11
-106.451237000000010
 21
-45.368867999999999
  0
LINE
  8
0
  6
CONTINUOUS
 62
256
 10
-81.950892999999994
 20
-117.868801000000000
 11
-81.950892999999994
 21
-47.868800999999998
  0
LINE
  8
0
  6
CONTINUOUS
 62
256
 10
-83.451190999999994
 20
-127.368868000000010
 11
-85.451237000000006
 21
-127.368868000000010
  0
LINE
  8
0
  6
CONTINUOUS
 62
256
 10
-81.950892999999994
 20
-114.368868000000010
 11
-81.950892999999994
 21
-117.868801000000000
  0
LINE
  8
0
  6
CONTINUOUS
 62
256
 10
31.049106999999999
 20
-122.868801000000000
 11
-52.634365000000003
 21
-122.868801000000000
  0
LINE
  8
0
  6
CONTINUOUS
 62
256
 10
36.049106999999999
 20
-47.868800999999998
 11
36.049106999999999
 21
-117.868801000000000
  0
LINE
  8
0
  6
CONTINUOUS
 62
256
 10
31.049106999999999
 20
-42.868800999999998
 11
-76.950892999999994
 21
-42.868800999999998
  0
LINE
  8
0
  6
CONTINUOUS
 62
256
 10
-52.634365000000003
 20
-122.868801000000000
 11
-85.451237000000006
 21
-122.868801000000000
  0
ARC
  8
0
  6
CONTINUOUS
 62
256
 10
-91.451237000000006
 20
-48.035026999999999
 40
3.000000000000000
 50
0.000000000000000
 51
91.277816000000129
  0
ARC
  8
0
  6
CONTINUOUS
 62
256
 10
-85.451237000000006
 20
-130.368867999999990
 40
3.000000000000000
 50
90.000000000000000
 51
180.000000000000000
  0
ARC
  8
0
  6
CONTINUOUS
 62
256
 10
-85.451237000000006
 20
-125.868801000000000
 40
3.000000000000000
 50
90.000000000000000
 51
180.000000000000000
  0
ARC
  8
0
  6
CONTINUOUS
 62
256
 10
-91.451237000000006
 20
-149.647692000000010
 40
3.000000000000011
 50
269.000000000000110
 51
0.000000000000000
  0
ARC
  8
0
  6
CONTINUOUS
 62
256
 10
-82.194686000000004
 20
-41.827060000000003
 40
3.000000000000000
 50
271.277815999999860
 51
310.955611999999970
  0
ARC
  8
0
  6
CONTINUOUS
 62
256
 10
-76.950892999999994
 20
-117.868801000000000
 40
5.000000000000000
 50
180.000000000000000
 51
270.000000000000000
  0
ARC
  8
0
  6
CONTINUOUS
 62
256
 10
-83.451190999999994
 20
-124.368868000000010
 40
3.000000000000000
 50
270.000000000000000
 51
345.523148999999820
  0
ARC
  8
0
  6
CONTINUOUS
 62
256
 10
-77.641699000000003
 20
-125.868801000000000
 40
3.000000000000000
 50
90.000000000000000
 51
165.523149000000100
  0
ARC
  8
0
  6
CONTINUOUS
 62
256
 10
31.049106999999999
 20
-47.868800999999998
 40
5.000000000000000
 50
0.000000000000000
 51
90.000000000000000
  0
ARC
  8
0
  6
CONTINUOUS
 62
256
 10
31.049106999999999
 20
-117.868801000000000
 40
5.000000000000000
 50
270.000000000000000
 51
0.000000000000000
  0
ARC
  8
0
  6
CONTINUOUS
 62
256
 10
-76.950892999999994
 20
-47.868800999999998
 40
5.000000000000000
 50
90.000000000000000
 51
180.000000000000000
  0
LINE
  8
0
  6
CONTINUOUS
 62
256
 10
-101.451237000000010
 20
-118.868868000000010
 11
-106.451237000000010
 21
-118.868868000000010
  0
LINE
  8
0
  6
CONTINUOUS
 62
256
 10
-101.451237000000010
 20
-78.868868000000006
 11
-106.451237000000010
 21
-78.868868000000006
  0
ARC
  8
0
  6
CONTINUOUS
 62
256
 10
-91.451237000000006
 20
-129.761034000000000
 40
3.000000000000000
 50
270.000000000000000
 51
0.000000000000000
  0
ARC
  8
0
  6
CONTINUOUS
 62
256
 10
-98.451237000000006
 20
-129.761034000000000
 40
3.000000000000000
 50
180.000000000000000
 51
270.000000000000000
  0
ARC
  8
0
  6
CONTINUOUS
 62
256
 10
-93.451237000000006
 20
-138.368867999999990
 40
5.000000000000000
 50
270.000000000000000
 51
0.000000000000000
  0
ARC
  8
0
  6
CONTINUOUS
 62
256
 10
-93.451237000000006
 20
-135.298519000000000
 40
5.000000000000000
 50
270.000000000000000
 51
0.000000000000000
  0
ARC
  8
0
  6
CONTINUOUS
 62
256
 10
-99.451237000000006
 20
-138.298519000000000
 40
2.000000000000000
 50
180.000000000000000
 51
270.000000000000000
  0
ARC
  8
0
  6
CONTINUOUS
 62
256
 10
-98.451237000000006
 20
-146.368867999999990
 40
3.000000000000000
 50
90.000000000000000
 51
180.000000000000000
  0
ARC
  8
0
  6
CONTINUOUS
 62
256
 10
-104.451237000000010
 20
-149.403321000000010
 40
3.000000000000011
 50
269.000000000000110
 51
0.000000000000000
  0
ARC
  8
0
  6
CONTINUOUS
 62
256
 10
-104.451237000000010
 20
-48.334415000000000
 40
3.000000000000000
 50
0.000000000000000
 51
90.999999999999872
  0
ARC
  8
0
  6
CONTINUOUS
 62
256
 10
-91.451237000000006
 20
-67.976702000000003
 40
3.000000000000000
 50
0.000000000000000
 51
90.000000000000000
  0
ARC
  8
0
  6
CONTINUOUS
 62
256
 10
-93.451237000000006
 20
-59.368867999999999
 40
5.000000000000000
 50
0.000000000000000
 51
90.000000000000000
  0
ARC
  8
0
  6
CONTINUOUS
 62
256
 10
-93.451237000000006
 20
-62.439216000000002
 40
5.000000000000000
 50
0.000000000000000
 51
90.000000000000000
  0
ARC
  8
0
  6
CONTINUOUS
 62
256
 10
-99.451237000000006
 20
-59.439216000000002
 40
2.000000000000000
 50
90.000000000000000
 51
180.000000000000000
  0
ARC
  8
0
  6
CONTINUOUS
 62
256
 10
-98.451237000000006
 20
-51.368867999999999
 40
3.000000000000000
 50
180.000000000000000
 51
270.000000000000000
  0
ARC
  8
0
  6
CONTINUOUS
 62
256
 10
-98.451237000000006
 20
-67.976702000000003
 40
3.000000000000000
 50
90.000000000000000
 51
180.000000000000000
  0
LINE
  8
0
  6
CONTINUOUS
 62
256
 10
-91.451237000000006
 20
-132.761034000000000
 11
-98.451237000000006
 21
-132.761034000000000
  0
LINE
  8
0
  6
CONTINUOUS
 62
256
 10
-101.451237000000010
 20
-98.868868000000006
 11
-101.451237000000010
 21
-138.298519000000000
  0
LINE
  8
0
  6
CONTINUOUS
 62
256
 10
-99.451237000000006
 20
-140.298519000000000
 11
-93.451237000000006
 21
-140.298519000000000
  0
LINE
  8
0
  6
CONTINUOUS
 62
256
 10
-98.451237000000006
 20
-143.368867999999990
 11
-93.451237000000006
 21
-143.368867999999990
  0
LINE
  8
0
  6
CONTINUOUS
 62
256
 10
-101.451237000000010
 20
-146.368867999999990
 11
-101.451237000000010
 21
-149.403321000000010
  0
LINE
  8
0
  6
CONTINUOUS
 62
256
 10
-101.451237000000010
 20
-51.368867999999999
 11
-101.451237000000010
 21
-48.334415000000000
  0
LINE
  8
0
  6
CONTINUOUS
 62
256
 10
-99.451237000000006
 20
-57.439216000000002
 11
-93.451237000000006
 21
-57.439216000000002
  0
LINE
  8
0
  6
CONTINUOUS
 62
256
 10
-98.451237000000006
 20
-54.368867999999999
 11
-93.451237000000006
 21
-54.368867999999999
  0
LINE
  8
0
  6
CONTINUOUS
 62
256
 10
-101.451237000000010
 20
-98.868868000000006
 11
-101.451237000000010
 21
-59.439216000000002
  0
LINE
  8
0
  6
CONTINUOUS
 62
256
 10
-91.451237000000006
 20
-64.976702000000003
 11
-98.451237000000006
 21
-64.976702000000003
  0
ARC
  8
0
  6
CONTINUOUS
 62
256
 10
-35.950893000000001
 20
-114.868801000000000
 40
9.000000000000000
 50
351.247071000000060
 51
94.988541999999995
  0
ARC
  8
0
  6
CONTINUOUS
 62
256
 10
-36.950893000000001
 20
-103.412361000000000
 40
2.500000000000000
 50
180.000000000000000
 51
274.988541999999940
  0
LINE
  8
0
  6
CONTINUOUS
 62
256
 10
-39.450893000000001
 20
-62.325240000000001
 11
-39.450893000000001
 21
-103.412361000000000
  0
ARC
  8
0
  6
CONTINUOUS
 62
256
 10
-36.950893000000001
 20
-62.325240000000001
 40
2.500000000000003
 50
85.011458000000061
 51
180.000000000000000
  0
ARC
  8
0
  6
CONTINUOUS
 62
256
 10
-35.950893000000001
 20
-50.868800999999998
 40
9.000000000000002
 50
265.011458000000000
 51
8.752928999999986
  0
ARC
  8
0
  6
CONTINUOUS
 62
256
 10
-62.951132999999999
 20
-47.368493999999998
 40
5.000000000000000
 50
180.000000000000000
 51
0.000000000000000
  0
ARC
  8
0
  6
CONTINUOUS
 62
256
 10
17.049347999999998
 20
-47.368493999999998
 40
5.000000000000000
 50
180.000000000000000
 51
0.000000000000000
  0
ARC
  8
0
  6
CONTINUOUS
 62
256
 10
-62.951132999999999
 20
-118.369107000000000
 40
5.000000000000000
 50
0.000000000000000
 51
180.000000000000000
  0
ARC
  8
0
  6
CONTINUOUS
 62
256
 10
17.049347999999998
 20
-118.369107000000000
 40
5.000000000000000
 50
0.000000000000000
 51
180.000000000000000
  0
LINE
  8
0
  6
CONTINUOUS
 62
256
 10
-81.950892999999994
 20
-47.868800999999998
 11
-81.950892999999994
 21
-117.868801000000000
  0
LINE
  8
0
  6
CONTINUOUS
 62
256
 10
-74.368893000000000
 20
-109.163867999999990
 11
-74.368893000000000
 21
-109.137033000000000
  0
ARC
  8
0
  6
CONTINUOUS
 62
256
 10
-76.950892999999994
 20
-117.868801000000000
 40
5.000000000000000
 50
180.000000000000000
 51
270.000000000000000
  0
LINE
  8
0
  6
CONTINUOUS
 62
256
 10
31.049106999999999
 20
-122.868801000000000
 11
-52.634365000000003
 21
-122.868801000000000
  0
LINE
  8
0
  6
CONTINUOUS
 62
256
 10
36.049106999999999
 20
-47.868800999999998
 11
36.049106999999999
 21
-117.868801000000000
  0
LINE
  8
0
  6
CONTINUOUS
 62
256
 10
31.049106999999999
 20
-42.868800999999998
 11
-76.950892999999994
 21
-42.868800999999998
  0
CIRCLE
  8
0
  6
CONTINUOUS
 62
256
 10
28.049106999999999
 20
-50.868800999999998
 40
5.500000000000000
  0
ARC
  8
0
  6
CONTINUOUS
 62
256
 10
31.049106999999999
 20
-47.868800999999998
 40
5.000000000000000
 50
0.000000000000000
 51
90.000000000000000
  0
ARC
  8
0
  6
CONTINUOUS
 62
256
 10
31.049106999999999
 20
-117.868801000000000
 40
5.000000000000000
 50
270.000000000000000
 51
0.000000000000000
  0
CIRCLE
  8
0
  6
CONTINUOUS
 62
256
 10
28.049106999999999
 20
-114.868801000000000
 40
5.500000000000000
  0
ARC
  8
0
  6
CONTINUOUS
 62
256
 10
-76.950892999999994
 20
-47.868800999999998
 40
5.000000000000000
 50
90.000000000000000
 51
180.000000000000000
  0
CIRCLE
  8
0
  6
CONTINUOUS
 62
256
 10
-73.950892999999994
 20
-114.868801000000000
 40
5.500000000000000
  0
LINE
  8
0
  6
CONTINUOUS
 62
256
 10
-52.634365000000003
 20
-122.868801000000000
 11
-76.950892999999994
 21
-122.868801000000000
  0
CIRCLE
  8
0
  6
CONTINUOUS
 62
256
 10
-73.950892999999994
 20
-50.868800999999998
 40
5.500000000000000
  0
ARC
  8
0
  6
CONTINUOUS
 62
256
 10
-3.950893000000000
 20
-82.868801000000005
 40
9.999999999999996
 50
107.457603000000020
 51
72.542396999999994
  0
LINE
  8
0
  6
CONTINUOUS
 62
256
 10
-0.950893000000000
 20
-70.068800999999993
 11
-0.950893000000000
 21
-73.329408999999998
  0
LINE
  8
0
  6
CONTINUOUS
 62
256
 10
-0.950893000000000
 20
-70.068800999999993
 11
-6.950893000000000
 21
-70.068800999999993
  0
LINE
  8
0
  6
CONTINUOUS
 62
256
 10
-6.950893000000000
 20
-70.068800999999993
 11
-6.950893000000000
 21
-73.329408999999998
  0
LINE
  8
0
  6
CONTINUOUS
 62
256
 10
-106.451237000000010
 20
-98.868868000000006
 11
-106.451237000000010
 21
-45.368867999999999
  0
LINE
  8
0
  6
CONTINUOUS
 62
256
 10
-106.451237000000010
 20
-152.368867999999990
 11
-106.451237000000010
 21
-98.868868000000006
  0
LINE
  8
0
  6
DASHED
 62
256
 10
398.167043999999980
 20
-56.368800999999998
 11
398.167043999999980
 21
-45.368800999999998
  0
LINE
  8
0
  6
DASHED
 62
256
 10
398.167043999999980
 20
-109.368801000000000
 11
398.167043999999980
 21
-120.368801000000000
  0
LINE
  8
0
  6
DASHED
 62
256
 10
355.167043999999980
 20
-110.868801000000000
 11
355.167043999999980
 21
-118.868801000000000
  0
LINE
  8
0
  6
DASHED
 62
256
 10
337.167043999999980
 20
-56.368800999999998
 11
328.167043999999980
 21
-56.368800999999998
  0
LINE
  8
0
  6
DASHDOT
 62
256
 10
411.427929000000010
 20
-50.868800999999998
 11
323.912366000000020
 21
-50.868800999999998
  0
LINE
  8
0
  6
DASHED
 62
256
 10
337.167043999999980
 20
-45.368800999999998
 11
328.167043999999980
 21
-45.368800999999998
  0
LINE
  8
0
  6
DASHED
 62
256
 10
337.167043999999980
 20
-56.368800999999998
 11
337.167043999999980
 21
-45.368800999999998
  0
LINE
  8
0
  6
DASHED
 62
256
 10
398.167043999999980
 20
-47.518801000000003
 11
337.167043999999980
 21
-47.518801000000003
  0
LINE
  8
0
  6
DASHED
 62
256
 10
398.167043999999980
 20
-54.218800999999999
 11
337.167043999999980
 21
-54.218800999999999
  0
LINE
  8
0
  6
DASHED
 62
256
 10
355.167043999999980
 20
-54.868800999999998
 11
337.167043999999980
 21
-54.868800999999998
  0
LINE
  8
0
  6
DASHED
 62
256
 10
355.167043999999980
 20
-46.868800999999998
 11
337.167043999999980
 21
-46.868800999999998
  0
LINE
  8
0
  6
DASHED
 62
256
 10
355.167043999999980
 20
-54.868800999999998
 11
355.167043999999980
 21
-46.868800999999998
  0
LINE
  8
0
  6
DASHED
 62
256
 10
380.167043999999980
 20
-54.868800999999998
 11
380.167043999999980
 21
-46.868800999999998
  0
LINE
  8
0
  6
DASHED
 62
256
 10
398.167043999999980
 20
-46.868800999999998
 11
380.167043999999980
 21
-46.868800999999998
  0
LINE
  8
0
  6
DASHED
 62
256
 10
398.167043999999980
 20
-54.868800999999998
 11
380.167043999999980
 21
-54.868800999999998
  0
LINE
  8
0
  6
DASHED
 62
256
 10
407.167043999999980
 20
-45.368800999999998
 11
398.167043999999980
 21
-45.368800999999998
  0
LINE
  8
0
  6
DASHED
 62
256
 10
407.167043999999980
 20
-56.368800999999998
 11
398.167043999999980
 21
-56.368800999999998
  0
ARC
  8
0
  6
CONTINUOUS
 62
256
 10
401.367044000000020
 20
-57.068559999999998
 40
0.200000000000003
 50
90.000000000000000
 51
180.000000000000000
  0
LINE
  8
0
  6
DASHED
 62
256
 10
337.167043999999980
 20
-109.368801000000000
 11
328.167043999999980
 21
-109.368801000000000
  0
LINE
  8
0
  6
DASHED
 62
256
 10
337.167043999999980
 20
-109.368801000000000
 11
337.167043999999980
 21
-120.368801000000000
  0
LINE
  8
0
  6
DASHED
 62
256
 10
355.167043999999980
 20
-110.868801000000000
 11
337.167043999999980
 21
-110.868801000000000
  0
LINE
  8
0
  6
DASHED
 62
256
 10
355.167043999999980
 20
-118.868801000000000
 11
337.167043999999980
 21
-118.868801000000000
  0
LINE
  8
0
  6
DASHED
 62
256
 10
398.167043999999980
 20
-118.218801000000000
 11
337.167043999999980
 21
-118.218801000000000
  0
LINE
  8
0
  6
DASHED
 62
256
 10
398.167043999999980
 20
-111.518801000000000
 11
337.167043999999980
 21
-111.518801000000000
  0
LINE
  8
0
  6
DASHDOT
 62
256
 10
411.427929000000010
 20
-114.868801000000000
 11
323.912366000000020
 21
-114.868801000000000
  0
LINE
  8
0
  6
DASHED
 62
256
 10
337.167043999999980
 20
-120.368801000000000
 11
328.167043999999980
 21
-120.368801000000000
  0
LINE
  8
0
  6
DASHED
 62
256
 10
380.167043999999980
 20
-110.868801000000000
 11
380.167043999999980
 21
-118.868801000000000
  0
LINE
  8
0
  6
DASHED
 62
256
 10
398.167043999999980
 20
-118.868801000000000
 11
380.167043999999980
 21
-118.868801000000000
  0
LINE
  8
0
  6
DASHED
 62
256
 10
398.167043999999980
 20
-110.868801000000000
 11
380.167043999999980
 21
-110.868801000000000
  0
LINE
  8
0
  6
DASHED
 62
256
 10
407.167043999999980
 20
-109.368801000000000
 11
398.167043999999980
 21
-109.368801000000000
  0
LINE
  8
0
  6
DASHED
 62
256
 10
407.167043999999980
 20
-120.368801000000000
 11
398.167043999999980
 21
-120.368801000000000
  0
LINE
  8
0
  6
CONTINUOUS
 62
256
 10
324.167043999999980
 20
-110.468801000000000
 11
324.567044000000010
 21
-110.868801000000000
  0
LINE
  8
0
  6
CONTINUOUS
 62
256
 10
324.567044000000010
 20
-110.868801000000000
 11
328.167043999999980
 21
-110.868801000000000
  0
LINE
  8
0
  6
CONTINUOUS
 62
256
 10
324.167043999999980
 20
-55.268801000000003
 11
324.567044000000010
 21
-54.868800999999998
  0
LINE
  8
0
  6
CONTINUOUS
 62
256
 10
324.567044000000010
 20
-54.868800999999998
 11
328.167043999999980
 21
-54.868800999999998
  0
LINE
  8
0
  6
CONTINUOUS
 62
256
 10
339.167043999999980
 20
-42.860073000000000
 11
339.167043999999980
 21
-46.368800999999998
  0
LINE
  8
0
  6
CONTINUOUS
 62
256
 10
339.167043999999980
 20
-42.860073000000000
 11
339.167043999999980
 21
-122.877528000000000
  0
LINE
  8
0
  6
CONTINUOUS
 62
256
 10
328.167043999999980
 20
-43.560730000000000
 11
328.167043999999980
 21
-122.176871000000010
  0
LINE
  8
0
  6
CONTINUOUS
 62
256
 10
324.167043999999980
 20
-55.268801000000003
 11
324.167043999999980
 21
-110.468801000000000
  0
LINE
  8
0
  6
CONTINUOUS
 62
256
 10
328.167043999999980
 20
-122.176871000000010
 11
328.666892000000020
 21
-122.685520000000000
  0
LINE
  8
0
  6
CONTINUOUS
 62
256
 10
328.666892000000020
 20
-43.052081999999999
 11
328.167043999999980
 21
-43.560730000000000
  0
LINE
  8
0
  6
CONTINUOUS
 62
256
 10
339.167043999999980
 20
-46.632064000000000
 11
339.167043999999980
 21
-42.868800999999998
  0
LINE
  8
0
  6
CONTINUOUS
 62
256
 10
339.167043999999980
 20
-122.868801000000000
 11
339.167043999999980
 21
-46.632064000000000
  0
LINE
  8
0
  6
CONTINUOUS
 62
256
 10
407.167043999999980
 20
-49.551099000000001
 11
407.167043999999980
 21
-121.856407000000000
  0
LINE
  8
0
  6
DASHED
 62
256
 10
410.767044000000000
 20
-54.868800999999998
 11
411.167043999999980
 21
-55.268801000000003
  0
LINE
  8
0
  6
CONTINUOUS
 62
256
 10
411.167043999999980
 20
-110.468801000000000
 11
410.767044000000000
 21
-110.868801000000000
  0
LINE
  8
0
  6
CONTINUOUS
 62
256
 10
411.167043999999980
 20
-110.468801000000000
 11
411.167043999999980
 21
-55.268801000000003
  0
LINE
  8
0
  6
CONTINUOUS
 62
256
 10
342.667043999999980
 20
-82.368801000000005
 11
407.167043999999980
 21
-82.368801000000005
  0
LINE
  8
0
  6
CONTINUOUS
 62
256
 10
342.667043999999980
 20
-83.368801000000005
 11
407.167043999999980
 21
-83.368801000000005
  0
ARC
  8
0
  6
CONTINUOUS
 62
256
 10
342.667043999999980
 20
-82.868801000000005
 40
0.500000000000000
 50
90.000000000000000
 51
270.000000000000000
  0
LINE
  8
0
  6
CONTINUOUS
 62
256
 10
335.667043999999980
 20
-83.368801000000005
 11
328.167043999999980
 21
-83.368801000000005
  0
ARC
  8
0
  6
CONTINUOUS
 62
256
 10
335.667043999999980
 20
-82.868801000000005
 40
0.500000000000000
 50
270.000000000000000
 51
90.000000000000000
  0
LINE
  8
0
  6
CONTINUOUS
 62
256
 10
335.667043999999980
 20
-82.368801000000005
 11
328.167043999999980
 21
-82.368801000000005
  0
LINE
  8
0
  6
CONTINUOUS
 62
256
 10
320.167043999999980
 20
-68.868801000000005
 11
320.167043999999980
 21
-96.868801000000005
  0
LINE
  8
0
  6
CONTINUOUS
 62
256
 10
321.167043999999980
 20
-97.868801000000005
 11
324.167043999999980
 21
-97.868801000000005
  0
LINE
  8
0
  6
CONTINUOUS
 62
256
 10
321.167043999999980
 20
-67.868801000000005
 11
324.167043999999980
 21
-67.868801000000005
  0
LINE
  8
0
  6
CONTINUOUS
 62
256
 10
415.167043999999980
 20
-96.868801000000005
 11
415.167043999999980
 21
-68.868801000000005
  0
ARC
  8
0
  6
CONTINUOUS
 62
256
 10
414.167043999999980
 20
-68.868801000000005
 40
1.000000000000000
 50
0.000000000000000
 51
90.000000000000000
  0
ARC
  8
0
  6
CONTINUOUS
 62
256
 10
414.167043999999980
 20
-96.868801000000005
 40
1.000000000000000
 50
270.000000000000000
 51
0.000000000000000
  0
ARC
  8
0
  6
CONTINUOUS
 62
256
 10
321.167043999999980
 20
-96.868801000000005
 40
1.000000000000000
 50
180.000000000000000
 51
270.000000000000000
  0
ARC
  8
0
  6
CONTINUOUS
 62
256
 10
321.167043999999980
 20
-68.868801000000005
 40
1.000000000000000
 50
90.000000000000000
 51
180.000000000000000
  0
LINE
  8
0
  6
CONTINUOUS
 62
256
 10
411.167043999999980
 20
-97.868801000000005
 11
414.167043999999980
 21
-97.868801000000005
  0
LINE
  8
0
  6
CONTINUOUS
 62
256
 10
411.167043999999980
 20
-67.868801000000005
 11
414.167043999999980
 21
-67.868801000000005
  0
LINE
  8
0
  6
CONTINUOUS
 62
256
 10
337.667043999999980
 20
-156.368867999999990
 11
397.667043999999980
 21
-156.368867999999990
  0
LINE
  8
0
  6
DASHDOT
 62
256
 10
318.131999000000010
 20
-82.868801000000005
 11
417.396350999999980
 21
-82.868801000000005
  0
LINE
  8
0
  6
CONTINUOUS
 62
256
 10
397.167043999999980
 20
-121.856407000000000
 11
407.167043999999980
 21
-121.856407000000000
  0
LINE
  8
0
  6
CONTINUOUS
 62
256
 10
397.167043999999980
 20
-43.881194999999998
 11
407.167043999999980
 21
-43.881194999999998
  0
POINT
  8
0
  6
CONTINUOUS
 62
256
 10
323.351872000000010
 20
-52.868867999999999
  0
ARC
  8
0
  6
CONTINUOUS
 62
256
 10
715.167044000000030
 20
-118.868868000000010
 40
400.000000000000000
 50
180.071529999999970
 51
181.431983999999970
  0
ARC
  8
0
  6
CONTINUOUS
 62
256
 10
314.667355999999980
 20
-119.368868000000010
 40
0.500000000000021
 50
0.071530000000043
 51
90.017883000003138
  0
ARC
  8
0
  6
CONTINUOUS
 62
256
 10
314.667043999999980
 20
-118.368868000000010
 40
0.500000000000000
 50
180.000000000000000
 51
270.017883000003170
  0
ARC
  8
0
  6
CONTINUOUS
 62
256
 10
314.667043999999980
 20
-79.368868000000006
 40
0.499999999999998
 50
89.982116999996876
 51
180.000000000000000
  0
ARC
  8
0
  6
CONTINUOUS
 62
256
 10
314.667355999999980
 20
-78.368868000000006
 40
0.499999999999998
 50
269.982116999996830
 51
359.928469999999950
  0
ARC
  8
0
  6
CONTINUOUS
 62
256
 10
715.167044000000030
 20
-78.868868000000006
 40
400.000000000000000
 50
178.568016000000000
 51
179.928470000000000
  0
ARC
  8
0
  6
CONTINUOUS
 62
256
 10
347.667043999999980
 20
248.631132000000010
 40
400.000000000000000
 50
268.568016000000060
 51
269.928470000000000
  0
ARC
  8
0
  6
CONTINUOUS
 62
256
 10
347.167043999999980
 20
-151.868556000000010
 40
0.500000000000013
 50
359.982117000000070
 51
89.928470000001582
  0
ARC
  8
0
  6
CONTINUOUS
 62
256
 10
348.167043999999980
 20
-151.868867999999990
 40
0.500000000000013
 50
179.982117000000130
 51
270.000000000000000
  0
ARC
  8
0
  6
CONTINUOUS
 62
256
 10
387.167043999999980
 20
-151.868867999999990
 40
0.500000000000000
 50
270.000000000000000
 51
0.017882999999877
  0
ARC
  8
0
  6
CONTINUOUS
 62
256
 10
388.167043999999980
 20
-151.868556000000010
 40
0.499999999999993
 50
90.071529999998418
 51
180.017882999999870
  0
ARC
  8
0
  6
CONTINUOUS
 62
256
 10
387.667043999999980
 20
248.631132000000010
 40
400.000000000000000
 50
270.071530000000000
 51
271.431984000000000
  0
ARC
  8
0
  6
CONTINUOUS
 62
256
 10
20.167044000000001
 20
-118.868868000000010
 40
400.000000000000000
 50
358.568016000000060
 51
359.928470000000000
  0
ARC
  8
0
  6
CONTINUOUS
 62
256
 10
20.167044000000001
 20
-78.868868000000006
 40
399.999999999999940
 50
0.053000000000000
 51
1.431984000000000
  0
ARC
  8
0
  6
CONTINUOUS
 62
256
 10
420.667043999999980
 20
-79.486987999999997
 40
0.500000000000000
 50
0.000000000000000
 51
90.017883000003138
  0
ARC
  8
0
  6
CONTINUOUS
 62
256
 10
420.667043999999980
 20
-118.486988000000000
 40
0.499999999999998
 50
269.982116999996830
 51
0.000000000000000
  0
ARC
  8
0
  6
CONTINUOUS
 62
256
 10
420.666732000000020
 20
-119.486988000000000
 40
0.499999999999998
 50
89.982116999996876
 51
179.928469999999950
  0
ARC
  8
0
  6
CONTINUOUS
 62
256
 10
420.666732000000020
 20
-78.486987999999997
 40
0.500000000000021
 50
180.071530000000050
 51
270.017883000003170
  0
ARC
  8
0
  6
CONTINUOUS
 62
256
 10
324.575325000000020
 20
-55.847968999999999
 40
2.999999999999996
 50
90.999999999999602
 51
135.130421000000440
  0
ARC
  8
0
  6
CONTINUOUS
 62
256
 10
322.634688999999980
 20
-58.079152999999998
 40
2.999999999999989
 50
142.837479999999830
 51
224.999999999999800
  0
ARC
  8
0
  6
CONTINUOUS
 62
256
 10
367.667043999999980
 20
-98.868868000000006
 40
53.500000000000014
 50
152.604367999999990
 51
27.395631999999999
  0
ARC
  8
0
  6
CONTINUOUS
 62
256
 10
413.472417000000010
 20
-131.946318999999990
 40
3.000000000000008
 50
144.165805999999800
 51
224.999999999999630
  0
ARC
  8
0
  6
CONTINUOUS
 62
256
 10
412.699399000000030
 20
-139.658582000000000
 40
2.999999999999989
 50
322.837479999999800
 51
44.999999999999616
  0
ARC
  8
0
  6
CONTINUOUS
 62
256
 10
413.472417000000010
 20
-131.946318999999990
 40
3.000000000000008
 50
144.165805999999800
 51
224.999999999999630
  0
ARC
  8
0
  6
CONTINUOUS
 62
256
 10
397.110858000000010
 20
-155.129972000000010
 40
9.999999999999989
 50
91.000000000000156
 51
117.624964000000080
  0
ARC
  8
0
  6
CONTINUOUS
 62
256
 10
338.223230000000000
 20
-155.129972000000010
 40
10.000000000000000
 50
62.375035999999923
 51
88.999999999999858
  0
ARC
  8
0
  6
CONTINUOUS
 62
256
 10
322.634688999999980
 20
-139.658582000000000
 40
3.000000000000004
 50
135.000000000000370
 51
217.162520000000170
  0
ARC
  8
0
  6
CONTINUOUS
 62
256
 10
321.861671000000000
 20
-131.946318999999990
 40
3.000000000000004
 50
315.000000000000340
 51
35.834194000000196
  0
ARC
  8
0
  6
CONTINUOUS
 62
256
 10
324.575325000000020
 20
-141.889766000000010
 40
3.000000000000027
 50
224.869578999999760
 51
269.000000000000340
  0
ARC
  8
0
  6
DASHED
 62
256
 10
410.758762999999990
 20
-55.847968999999999
 40
3.000000000000022
 50
44.869578999999668
 51
89.000000000000398
  0
ARC
  8
0
  6
CONTINUOUS
 62
256
 10
412.699399000000030
 20
-58.079152999999998
 40
3.000000000000014
 50
315.000000000000230
 51
37.162520000000193
  0
ARC
  8
0
  6
CONTINUOUS
 62
256
 10
410.758762999999990
 20
-141.889766000000010
 40
3.000000000000011
 50
270.999999999999600
 51
315.130421000000180
  0
ARC
  8
0
  6
CONTINUOUS
 62
256
 10
340.167043999999980
 20
-71.368868000000006
 40
25.000000000000000
 50
118.685402000000010
 51
174.269825000000000
  0
ARC
  8
0
  6
CONTINUOUS
 62
256
 10
395.167043999999980
 20
-71.368868000000006
 40
24.999999999999979
 50
5.730175000000014
 51
61.314597999999989
  0
ARC
  8
0
  6
CONTINUOUS
 62
256
 10
395.167043999999980
 20
-126.368868000000010
 40
24.999999999999996
 50
275.730175000000030
 51
354.269825000000030
  0
ARC
  8
0
  6
CONTINUOUS
 62
256
 10
340.167043999999980
 20
-126.368868000000010
 40
24.999999999999979
 50
185.730175000000000
 51
264.269825000000080
  0
LINE
  8
0
  6
DASHDOT
 62
256
 10
427.343782999999970
 20
-98.868868000000006
 11
306.120861999999990
 21
-98.868868000000006
  0
LINE
  8
0
  6
CONTINUOUS
 62
256
 10
339.167043999999980
 20
-42.868800999999998
 11
397.167043999999980
 21
-43.881194999999998
  0
LINE
  8
0
  6
CONTINUOUS
 62
256
 10
407.167043999999980
 20
-54.868800999999998
 11
410.767044000000000
 21
-54.868800999999998
  0
LINE
  8
0
  6
CONTINUOUS
 62
256
 10
407.167043999999980
 20
-110.868801000000000
 11
410.767044000000000
 21
-110.868801000000000
  0
LINE
  8
0
  6
CONTINUOUS
 62
256
 10
339.167043999999980
 20
-122.868801000000000
 11
397.167043999999980
 21
-121.856407000000000
  0
LINE
  8
0
  6
CONTINUOUS
 62
256
 10
407.167043999999980
 20
-49.551099000000001
 11
407.167043999999980
 21
-43.881194999999998
  0
LINE
  8
0
  6
CONTINUOUS
 62
256
 10
314.167043999999980
 20
-118.368868000000010
 11
314.167043999999980
 21
-79.368868000000006
  0
LINE
  8
0
  6
CONTINUOUS
 62
256
 10
387.167043999999980
 20
-152.368867999999990
 11
348.167043999999980
 21
-152.368867999999990
  0
LINE
  8
0
  6
CONTINUOUS
 62
256
 10
421.167043999999980
 20
-118.486988000000000
 11
421.167043999999980
 21
-79.486987999999997
  0
LINE
  8
0
  6
CONTINUOUS
 62
256
 10
324.522966999999990
 20
-52.848426000000003
 11
328.167043999999980
 21
-52.784818999999999
  0
LINE
  8
0
  6
CONTINUOUS
 62
256
 10
324.167043999999980
 20
-63.854149000000000
 11
320.513368000000010
 21
-60.200473000000002
  0
LINE
  8
0
  6
CONTINUOUS
 62
256
 10
411.351096999999980
 20
-134.067639000000010
 11
414.820719999999990
 21
-137.537262000000000
  0
LINE
  8
0
  6
CONTINUOUS
 62
256
 10
410.811120000000020
 20
-144.889309000000000
 11
396.936333999999990
 21
-145.131495000000000
  0
LINE
  8
0
  6
CONTINUOUS
 62
256
 10
324.522966999999990
 20
-144.889309000000000
 11
338.397754000000020
 21
-145.131495000000000
  0
LINE
  8
0
  6
CONTINUOUS
 62
256
 10
323.982991000000030
 20
-134.067639000000010
 11
320.513368000000010
 21
-137.537262000000000
  0
LINE
  8
0
  6
CONTINUOUS
 62
256
 10
410.811120000000020
 20
-52.848426000000003
 11
407.167043999999980
 21
-52.784818999999999
  0
LINE
  8
0
  6
CONTINUOUS
 62
256
 10
411.351096999999980
 20
-63.670096000000001
 11
414.820719999999990
 21
-60.200473000000002
  0
LINE
  8
0
  6
CONTINUOUS
 62
256
 10
339.167043999999980
 20
-42.868800999999998
 11
328.666892000000020
 21
-43.052081999999999
  0
LINE
  8
0
  6
CONTINUOUS
 62
256
 10
339.167043999999980
 20
-122.868801000000000
 11
328.666892000000020
 21
-122.685520000000000
  0
ENDSEC
  0
EOF
