  0
SECTION
  2
HEADER
  9
$TEXTSIZE
 40
2.5
  9
$ACADVER
  1
AC1009
  9
$DIMASZ
 40
3.863703297614046
  9
$DIMEXE
 40
2.000000000000000
  9
$DIMEXO
 40
1.000000000000000
  9
$DIMLFAC
 40
1.000000000000000
  9
$DIMSCALE
 40
1.000000000000000
  9
$DIMTAD
 70
1
  9
$DIMTFAC
 40
0.625000000000000
  9
$DIMTXT
 40
3.200000047683716
  9
$LUPREC
 70
3
  9
$REGENMODE
 70
1
  9
$TEXTSTYLE
  7
STANDARD1
  0
ENDSEC
  0
SECTION
  2
TABLES
  0
TABLE
  2
LTYPE
 70
4
  0
LTYPE
  2
CONTINUOUS
 70
64
  3
Solid line
 72
65
 73
0
 40
0.0
  0
LTYPE
  2
DASHED
 70
64
  3
-- -- -- -- -- -- -- -- -- -- -- -- -- -- --
 72
65
 73
2
 40
0.75
 49
0.5
 49
-0.25
  0
LTYPE
  2
DASHDOT
 70
64
  3
__ . __ . __ . __ . __ . __ . __ . __ . __ . __
 72
65
 73
4
 40
1.0
 49
0.5
 49
-0.25
 49
0.0
 49
-0.25
  0
LTYPE
  2
DIVIDE
 70
64
  3
__ . . __ . . __ . . __ . . __ . . __ . . __
 72
65
 73
6
 40
1.25
 49
0.5
 49
-0.25
 49
0.0
 49
-0.25
 49
0.0
 49
-0.25
  0
ENDTAB
  0
TABLE
  2
LAYER
 70
6
  0
LAYER
  2
0
 70
64
 62
53
  6
CONTINUOUS
  0
LAYER
  2
1
 70
64
 62
102
  6
CONTINUOUS
  0
LAYER
  2
2
 70
64
 62
4
  6
CONTINUOUS
  0
LAYER
  2
3
 70
64
 62
7
  6
CONTINUOUS
  0
LAYER
  2
4
 70
64
 62
42
  6
CONTINUOUS
  0
LAYER
  2
5
 70
64
 62
102
  6
CONTINUOUS
  0
ENDTAB
  0
TABLE
  2
STYLE
 70
4
  0
STYLE
  2
STANDARD1
 70
64
 40
0.0
 41
1.0
 50
0.0
 71
0
 42
3.200000047683716
  3
MONOTXT
  4
BIGFONT
  0
STYLE
  2
STANDARD2
 70
68
 40
0.0
 41
1.0
 50
0.0
 71
0
 42
3.200000047683716
  3
MONOTXT
  4
BIGFONT
  0
STYLE
  2
STANDARD3
 70
64
 40
0.0
 41
1.0
 50
0.0
 71
0
 42
3.200000047683716
  3
MONOTXT
  4

  0
STYLE
  2
STANDARD4
 70
68
 40
0.0
 41
1.0
 50
0.0
 71
0
 42
3.200000047683716
  3
MONOTXT
  4

  0
ENDTAB
  0
TABLE
  2
VIEW
 70
0
  0
ENDTAB
  0
ENDSEC
  0
SECTION
  2
BLOCKS
  0
BLOCK
  8
0
  2
ZU_SYM_1
 70
64
 10
0.000000000000000
 20
0.000000000000000
  0
LINE
  8
0
  6
CONTINUOUS
 62
256
 10
1.999999000000000
 20
-1.154699000000000
 11
-0.000002000000000
 21
-2.309398000000000
  0
LINE
  8
0
  6
CONTINUOUS
 62
256
 10
-1.999999000000000
 20
1.154700000000000
 11
0.000002000000000
 21
2.309399000000000
  0
LINE
  8
0
  6
CONTINUOUS
 62
256
 10
-0.000002000000000
 20
-2.309397000000000
 11
-1.999997000000000
 21
-1.154696000000000
  0
LINE
  8
0
  6
CONTINUOUS
 62
256
 10
1.999998000000000
 20
1.154696000000000
 11
0.000002000000000
 21
2.309399000000000
  0
LINE
  8
0
  6
CONTINUOUS
 62
256
 10
1.999998000000000
 20
1.154695000000000
 11
1.999999000000000
 21
-1.154699000000000
  0
LINE
  8
0
  6
CONTINUOUS
 62
256
 10
-1.999998000000000
 20
-1.154696000000000
 11
-1.999999000000000
 21
1.154700000000000
  0
POINT
  8
0
  6
CONTINUOUS
 62
256
 10
0.000000000000000
 20
0.000000000000000
  0
CIRCLE
  8
0
  6
CONTINUOUS
 62
256
 10
0.000000000000000
 20
0.000000000000000
 40
4.249999000000000
  0
ENDBLK
  8
0
  0
BLOCK
  8
0
  2
ZU_SYM_2
 70
64
 10
0.000000000000000
 20
0.000000000000000
  0
LINE
  8
0
  6
CONTINUOUS
 62
256
 10
1.999999000000000
 20
-1.154699000000000
 11
-0.000002000000000
 21
-2.309398000000000
  0
LINE
  8
0
  6
CONTINUOUS
 62
256
 10
-1.999999000000000
 20
1.154700000000000
 11
0.000002000000000
 21
2.309399000000000
  0
LINE
  8
0
  6
CONTINUOUS
 62
256
 10
-0.000002000000000
 20
-2.309397000000000
 11
-1.999997000000000
 21
-1.154696000000000
  0
LINE
  8
0
  6
CONTINUOUS
 62
256
 10
1.999998000000000
 20
1.154696000000000
 11
0.000002000000000
 21
2.309399000000000
  0
LINE
  8
0
  6
CONTINUOUS
 62
256
 10
1.999998000000000
 20
1.154695000000000
 11
1.999999000000000
 21
-1.154699000000000
  0
LINE
  8
0
  6
CONTINUOUS
 62
256
 10
-1.999998000000000
 20
-1.154696000000000
 11
-1.999999000000000
 21
1.154700000000000
  0
POINT
  8
0
  6
CONTINUOUS
 62
256
 10
0.000000000000000
 20
0.000000000000000
  0
CIRCLE
  8
0
  6
CONTINUOUS
 62
256
 10
0.000000000000000
 20
0.000000000000000
 40
4.249999000000000
  0
ENDBLK
  8
0
  0
BLOCK
  8
0
  2
ZU_SYM_3
 70
64
 10
0.000000000000000
 20
0.000000000000000
  0
LINE
  8
0
  6
CONTINUOUS
 62
256
 10
1.999999000000000
 20
-1.154699000000000
 11
-0.000002000000000
 21
-2.309398000000000
  0
LINE
  8
0
  6
CONTINUOUS
 62
256
 10
-1.999999000000000
 20
1.154700000000000
 11
0.000002000000000
 21
2.309399000000000
  0
LINE
  8
0
  6
CONTINUOUS
 62
256
 10
-0.000002000000000
 20
-2.309397000000000
 11
-1.999997000000000
 21
-1.154696000000000
  0
LINE
  8
0
  6
CONTINUOUS
 62
256
 10
1.999998000000000
 20
1.154696000000000
 11
0.000002000000000
 21
2.309399000000000
  0
LINE
  8
0
  6
CONTINUOUS
 62
256
 10
1.999998000000000
 20
1.154695000000000
 11
1.999999000000000
 21
-1.154699000000000
  0
LINE
  8
0
  6
CONTINUOUS
 62
256
 10
-1.999998000000000
 20
-1.154696000000000
 11
-1.999999000000000
 21
1.154700000000000
  0
POINT
  8
0
  6
CONTINUOUS
 62
256
 10
0.000000000000000
 20
0.000000000000000
  0
CIRCLE
  8
0
  6
CONTINUOUS
 62
256
 10
0.000000000000000
 20
0.000000000000000
 40
4.249999000000000
  0
ENDBLK
  8
0
  0
BLOCK
  8
0
  2
ZU_SYM_4
 70
64
 10
0.000000000000000
 20
0.000000000000000
  0
LINE
  8
0
  6
CONTINUOUS
 62
256
 10
1.999999000000000
 20
-1.154699000000000
 11
-0.000002000000000
 21
-2.309398000000000
  0
LINE
  8
0
  6
CONTINUOUS
 62
256
 10
-1.999999000000000
 20
1.154700000000000
 11
0.000002000000000
 21
2.309399000000000
  0
LINE
  8
0
  6
CONTINUOUS
 62
256
 10
-0.000002000000000
 20
-2.309397000000000
 11
-1.999997000000000
 21
-1.154696000000000
  0
LINE
  8
0
  6
CONTINUOUS
 62
256
 10
1.999998000000000
 20
1.154696000000000
 11
0.000002000000000
 21
2.309399000000000
  0
LINE
  8
0
  6
CONTINUOUS
 62
256
 10
1.999998000000000
 20
1.154695000000000
 11
1.999999000000000
 21
-1.154699000000000
  0
LINE
  8
0
  6
CONTINUOUS
 62
256
 10
-1.999998000000000
 20
-1.154696000000000
 11
-1.999999000000000
 21
1.154700000000000
  0
POINT
  8
0
  6
CONTINUOUS
 62
256
 10
0.000000000000000
 20
0.000000000000000
  0
CIRCLE
  8
0
  6
CONTINUOUS
 62
256
 10
0.000000000000000
 20
0.000000000000000
 40
4.249999000000000
  0
ENDBLK
  8
0
  0
ENDSEC
  0
SECTION
  2
ENTITIES
  0
TEXT
  8
0
  6
CONTINUOUS
 62
256
 10
499.002532958984370
 20
-218.746032714843750
 40
3.299999952316284
  1
1/1
 50
0.000002504478167
 41
0.850909097352304
  7
STANDARD1
  0
TEXT
  8
0
  6
CONTINUOUS
 62
256
 10
496.584533691406250
 20
-218.746032714843750
 40
3.299999952316284
  1
 
 50
0.000002504478167
 41
1.733333298293026
  7
STANDARD1
  0
TEXT
  8
0
  6
CONTINUOUS
 62
256
 10
483.533905029296870
 20
-218.746032714843750
 40
3.299999952316284
  1
SCALE
 50
0.000002504478167
 41
0.821052645401140
  7
STANDARD1
  0
TEXT
  8
0
  6
CONTINUOUS
 62
256
 10
480.282531738281250
 20
-218.746032714843750
 40
3.299999952316284
  1
 
 50
0.000002504478167
 41
1.733333298293026
  7
STANDARD1
  0
TEXT
  8
0
  6
CONTINUOUS
 62
256
 10
495.145721435546870
 20
-213.446029663085940
 40
3.299999952316284
  1
1/60
 50
0.000002504478167
 41
0.832000075658163
  7
STANDARD1
  0
TEXT
  8
0
  6
CONTINUOUS
 62
256
 10
491.354705810546870
 20
-213.446029663085940
 40
3.299999952316284
  1
ü`
 50
0.000002504478167
 41
1.176000019651471
  7
STANDARD1
  0
TEXT
  8
0
  6
CONTINUOUS
 62
256
 10
480.282531738281250
 20
-213.446029663085940
 40
3.299999952316284
  1
1/40
 50
0.000002504478167
 41
0.832000075658163
  7
STANDARD1
  0
TEXT
  8
0
  6
CONTINUOUS
 62
256
 10
480.282531738281250
 20
-208.146026611328120
 40
3.299999952316284
  1
GM-SSYFB-RH
 50
0.000002504478167
 41
0.798139564113939
  7
STANDARD1
  0
TEXT
  8
0
  6
CONTINUOUS
 62
256
 10
486.107910156250000
 20
-202.846038818359370
 40
3.299999952316284
  1
0.2kW
 50
0.000002504478167
 41
0.821052645401140
  7
STANDARD1
  0
TEXT
  8
0
  6
CONTINUOUS
 62
256
 10
480.282531738281250
 20
-202.846038818359370
 40
3.299999952316284
  1
  
 50
0.000002504478167
 41
1.485714400175845
  7
STANDARD1
  0
TEXT
  8
0
  6
CONTINUOUS
 62
256
 10
486.107910156250000
 20
-197.546035766601560
 40
3.299999952316284
  1
SSY12
 50
0.000002504478167
 41
0.821052645401140
  7
STANDARD1
  0
TEXT
  8
0
  6
CONTINUOUS
 62
256
 10
480.282531738281250
 20
-197.546035766601560
 40
3.299999952316284
  1
  
 50
0.000002504478167
 41
1.485714400175845
  7
STANDARD1
  0
LINE
  8
0
  6
CONTINUOUS
 62
256
 10
421.266975000000000
 20
-74.151096999999993
 11
349.267321999999980
 21
-74.151096999999993
  0
ARC
  8
0
  6
CONTINUOUS
 62
256
 10
349.267321999999980
 20
-73.151096999999993
 40
1.000000000000000
 50
90.000000000000000
 51
270.000000000000000
  0
LINE
  8
0
  6
CONTINUOUS
 62
256
 10
421.266975000000000
 20
-72.151096999999993
 11
349.267321999999980
 21
-72.151096999999993
  0
LINE
  8
0
  6
CONTINUOUS
 62
256
 10
334.267321999999980
 20
-74.151096999999993
 11
341.267321999999980
 21
-74.151096999999993
  0
LINE
  8
0
  6
CONTINUOUS
 62
256
 10
334.267321999999980
 20
-72.151096999999993
 11
341.267321999999980
 21
-72.151096999999993
  0
ARC
  8
0
  6
CONTINUOUS
 62
256
 10
341.267321999999980
 20
-73.151096999999993
 40
1.000000000000000
 50
270.000000000000000
 51
90.000000000000000
  0
ARC
  8
0
  6
CONTINUOUS
 62
256
 10
357.766975000000000
 20
260.348903000000010
 40
400.000000000000000
 50
268.865247000000010
 51
269.928470000000000
  0
ARC
  8
0
  6
CONTINUOUS
 62
256
 10
357.266975000000000
 20
-140.150785000000010
 40
0.500000000000013
 50
359.982117000000070
 51
89.928470000001582
  0
ARC
  8
0
  6
CONTINUOUS
 62
256
 10
358.266975000000000
 20
-140.151096999999990
 40
0.500000000000013
 50
179.982117000000130
 51
270.000000000000000
  0
ARC
  8
0
  6
CONTINUOUS
 62
256
 10
397.266975000000000
 20
-140.151096999999990
 40
0.500000000000000
 50
270.000000000000000
 51
0.017882999999877
  0
ARC
  8
0
  6
CONTINUOUS
 62
256
 10
398.266975000000000
 20
-140.150785000000010
 40
0.499999999999993
 50
90.071529999998418
 51
180.017882999999870
  0
ARC
  8
0
  6
CONTINUOUS
 62
256
 10
397.766975000000000
 20
260.348903000000010
 40
400.000000000000000
 50
270.071530000000000
 51
271.134752999999990
  0
ARC
  8
0
  6
CONTINUOUS
 62
256
 10
405.193430999999980
 20
-114.577554000000010
 40
25.000000000000011
 50
271.134752999999990
 51
358.865247000000010
  0
ARC
  8
0
  6
CONTINUOUS
 62
256
 10
30.266974999999999
 20
-107.151096999999990
 40
400.000000000000000
 50
358.865247000000010
 51
359.928470000000000
  0
ARC
  8
0
  6
CONTINUOUS
 62
256
 10
430.766662999999990
 20
-107.651096999999990
 40
0.499999999999998
 50
89.982116999996876
 51
179.928469999999950
  0
ARC
  8
0
  6
CONTINUOUS
 62
256
 10
430.766975000000000
 20
-106.651096999999990
 40
0.499999999999998
 50
269.982116999996830
 51
0.000000000000000
  0
ARC
  8
0
  6
CONTINUOUS
 62
256
 10
430.766975000000000
 20
-67.651096999999993
 40
0.500000000000000
 50
0.000000000000000
 51
90.017883000003138
  0
ARC
  8
0
  6
CONTINUOUS
 62
256
 10
430.766662999999990
 20
-66.651096999999993
 40
0.500000000000021
 50
180.071530000000050
 51
270.017883000003170
  0
ARC
  8
0
  6
CONTINUOUS
 62
256
 10
30.266974999999999
 20
-67.151096999999993
 40
400.000000000000000
 50
0.071529999999999
 51
1.134753000000000
  0
ARC
  8
0
  6
CONTINUOUS
 62
256
 10
405.193430999999980
 20
-59.724640999999998
 40
25.000000000000025
 50
1.134752999999996
 51
36.588057000000020
  0
ARC
  8
0
  6
CONTINUOUS
 62
256
 10
350.340517999999970
 20
-59.724640999999998
 40
24.999999999999986
 50
143.411942999999980
 51
178.865247000000010
  0
ARC
  8
0
  6
CONTINUOUS
 62
256
 10
725.266975000000000
 20
-67.151096999999993
 40
400.000000000000000
 50
178.865247000000010
 51
179.947000000000000
  0
ARC
  8
0
  6
CONTINUOUS
 62
256
 10
725.266975000000000
 20
-107.151096999999990
 40
400.000000000000000
 50
180.071529999999970
 51
181.134752999999960
  0
ARC
  8
0
  6
CONTINUOUS
 62
256
 10
324.766975000000000
 20
-67.769217999999995
 40
0.499999999999998
 50
89.982116999996876
 51
180.000000000000000
  0
ARC
  8
0
  6
CONTINUOUS
 62
256
 10
324.767287000000010
 20
-66.769217999999995
 40
0.499999999999998
 50
269.982116999996830
 51
359.928469999999950
  0
ARC
  8
0
  6
CONTINUOUS
 62
256
 10
324.766975000000000
 20
-106.769218000000000
 40
0.500000000000000
 50
180.000000000000000
 51
270.017883000003170
  0
ARC
  8
0
  6
CONTINUOUS
 62
256
 10
324.767287000000010
 20
-107.769218000000000
 40
0.500000000000021
 50
0.071530000000043
 51
90.017883000003138
  0
ARC
  8
0
  6
CONTINUOUS
 62
256
 10
350.340517999999970
 20
-114.577554000000010
 40
25.000000000000025
 50
181.134752999999960
 51
268.865247000000010
  0
ARC
  8
0
  6
CONTINUOUS
 62
256
 10
332.756445999999980
 20
-127.798764000000010
 40
2.999999999999989
 50
136.999999999999830
 51
216.938979000000270
  0
ARC
  8
0
  6
CONTINUOUS
 62
256
 10
337.119307999999990
 20
-132.161626000000010
 40
3.000000000000007
 50
233.061021000000010
 51
270.000000000000000
  0
ARC
  8
0
  6
CONTINUOUS
 62
256
 10
418.414642000000010
 20
-132.161626000000010
 40
3.000000000000000
 50
270.000000000000000
 51
306.938978999999960
  0
ARC
  8
0
  6
CONTINUOUS
 62
256
 10
422.777503000000020
 20
-127.798764000000010
 40
2.999999999999985
 50
323.061020999999700
 51
43.000000000000192
  0
ARC
  8
0
  6
DASHED
 62
256
 10
331.809367000000010
 20
-120.016707000000000
 40
2.999999999999989
 50
316.999999999999830
 51
341.546318999999810
  0
ARC
  8
0
  6
DASHED
 62
256
 10
352.557581000000030
 20
-145.432625000000000
 40
9.999999999999986
 50
66.609337000000096
 51
88.999999999999858
  0
ARC
  8
0
  6
CONTINUOUS
 62
256
 10
402.976367999999980
 20
-145.432625000000000
 40
9.999999999999989
 50
91.000000000000156
 51
102.905208999999810
  0
ARC
  8
0
  6
CONTINUOUS
 62
256
 10
423.724582000000000
 20
-120.016707000000000
 40
3.000000000000016
 50
176.581472000000130
 51
223.000000000000170
  0
ARC
  8
0
  6
CONTINUOUS
 62
256
 10
377.766975000000000
 20
-87.151096999999993
 40
53.499999999999972
 50
164.284144000000000
 51
215.601638999999980
  0
LINE
  8
0
  6
CONTINUOUS
 62
256
 10
431.266975000000000
 20
-106.651096999999990
 11
431.266975000000000
 21
-67.651096999999993
  0
LINE
  8
0
  6
CONTINUOUS
 62
256
 10
324.266975000000000
 20
-106.769218000000000
 11
324.266975000000000
 21
-67.769217999999995
  0
LINE
  8
0
  6
CONTINUOUS
 62
256
 10
358.266975000000000
 20
-140.651096999999990
 11
397.266975000000000
 21
-140.651096999999990
  0
LINE
  8
0
  6
CONTINUOUS
 62
256
 10
334.003428999999980
 20
-122.062702000000000
 11
330.562385000000010
 21
-125.752769000000000
  0
LINE
  8
0
  6
CONTINUOUS
 62
256
 10
337.119307999999990
 20
-135.161626000000010
 11
352.732104999999990
 21
-135.434147999999990
  0
LINE
  8
0
  6
CONTINUOUS
 62
256
 10
418.414642000000010
 20
-135.161626000000010
 11
402.801844000000020
 21
-135.434147999999990
  0
LINE
  8
0
  6
CONTINUOUS
 62
256
 10
421.530521000000020
 20
-122.062702000000000
 11
424.971564000000000
 21
-125.752769000000000
  0
ARC
  8
0
  6
CONTINUOUS
 62
256
 10
377.766975000000000
 20
-87.151096999999993
 40
53.499999999999986
 50
324.398360999999970
 51
15.715855999999999
  0
ARC
  8
0
  6
CONTINUOUS
 62
256
 10
377.766975000000000
 20
-87.151096999999993
 40
53.500000000000007
 50
219.242768999999980
 51
322.325973999999970
  0
LINE
  8
0
  6
CONTINUOUS
 62
256
 10
334.266975000000000
 20
-110.651096999999990
 11
330.666974999999980
 21
-110.651096999999990
  0
LINE
  8
0
  6
CONTINUOUS
 62
256
 10
334.266975000000000
 20
-35.651097000000000
 11
330.666974999999980
 21
-35.651097000000000
  0
LINE
  8
0
  6
CONTINUOUS
 62
256
 10
330.666974999999980
 20
-110.651096999999990
 11
330.266975000000000
 21
-110.251097000000000
  0
LINE
  8
0
  6
CONTINUOUS
 62
256
 10
330.266975000000000
 20
-73.151096999999993
 11
330.266975000000000
 21
-110.251097000000000
  0
LINE
  8
0
  6
CONTINUOUS
 62
256
 10
334.766822999999990
 20
-120.959543000000000
 11
334.266975000000000
 21
-120.450895000000000
  0
LINE
  8
0
  6
CONTINUOUS
 62
256
 10
334.266975000000000
 20
-73.151096999999993
 11
334.266975000000000
 21
-120.450895000000000
  0
LINE
  8
0
  6
CONTINUOUS
 62
256
 10
330.666974999999980
 20
-35.651097000000000
 11
330.266975000000000
 21
-36.051096999999999
  0
LINE
  8
0
  6
CONTINUOUS
 62
256
 10
334.266975000000000
 20
-73.151096999999993
 11
334.266975000000000
 21
-25.851299999999998
  0
LINE
  8
0
  6
CONTINUOUS
 62
256
 10
334.766822999999990
 20
-25.342651000000000
 11
334.266975000000000
 21
-25.851299999999998
  0
LINE
  8
0
  6
CONTINUOUS
 62
256
 10
345.266975000000000
 20
-25.159369999999999
 11
334.766822999999990
 21
-25.342651000000000
  0
LINE
  8
0
  6
CONTINUOUS
 62
256
 10
424.866975000000020
 20
-35.651097000000000
 11
425.266975000000000
 21
-36.051096999999999
  0
LINE
  8
0
  6
CONTINUOUS
 62
256
 10
421.266975000000000
 20
-35.651097000000000
 11
424.866975000000020
 21
-35.651097000000000
  0
LINE
  8
0
  6
CONTINUOUS
 62
256
 10
424.866975000000020
 20
-110.651096999999990
 11
425.266975000000000
 21
-110.251097000000000
  0
LINE
  8
0
  6
CONTINUOUS
 62
256
 10
421.266975000000000
 20
-110.651096999999990
 11
424.866975000000020
 21
-110.651096999999990
  0
LINE
  8
0
  6
CONTINUOUS
 62
256
 10
345.266975000000000
 20
-25.146303000000000
 11
421.266975000000000
 21
-26.490342999999999
  0
LINE
  8
0
  6
CONTINUOUS
 62
256
 10
330.266975000000000
 20
-73.151096999999993
 11
330.266975000000000
 21
-36.051096999999999
  0
LINE
  8
0
  6
CONTINUOUS
 62
256
 10
330.266975000000000
 20
-54.151097000000000
 11
327.266975000000000
 21
-54.151097000000000
  0
ARC
  8
0
  6
CONTINUOUS
 62
256
 10
327.266975000000000
 20
-55.151097000000000
 40
1.000000000000000
 50
90.000000000000000
 51
180.000000000000000
  0
LINE
  8
0
  6
CONTINUOUS
 62
256
 10
326.266975000000000
 20
-55.151097000000000
 11
326.266975000000000
 21
-91.151096999999993
  0
LINE
  8
0
  6
CONTINUOUS
 62
256
 10
330.266975000000000
 20
-92.151096999999993
 11
327.266975000000000
 21
-92.151096999999993
  0
ARC
  8
0
  6
CONTINUOUS
 62
256
 10
327.266975000000000
 20
-91.151096999999993
 40
1.000000000000000
 50
180.000000000000000
 51
270.000000000000000
  0
LINE
  8
0
  6
CONTINUOUS
 62
256
 10
345.266975000000000
 20
-121.142824000000000
 11
334.766822999999990
 21
-120.959543000000000
  0
LINE
  8
0
  6
CONTINUOUS
 62
256
 10
345.266975000000000
 20
-121.163758000000000
 11
421.266975000000000
 21
-119.819717999999990
  0
LINE
  8
0
  6
CONTINUOUS
 62
256
 10
421.266975000000000
 20
-41.007866000000000
 11
421.266975000000000
 21
-119.828445000000000
  0
LINE
  8
0
  6
CONTINUOUS
 62
256
 10
421.266975000000000
 20
-26.481210999999998
 11
421.266975000000000
 21
-41.007866000000000
  0
LINE
  8
0
  6
CONTINUOUS
 62
256
 10
425.266975000000000
 20
-73.151096999999993
 11
425.266975000000000
 21
-110.251097000000000
  0
ARC
  8
0
  6
CONTINUOUS
 62
256
 10
428.266975000000000
 20
-91.151096999999993
 40
1.000000000000000
 50
270.000000000000000
 51
0.000000000000000
  0
LINE
  8
0
  6
CONTINUOUS
 62
256
 10
429.266975000000000
 20
-55.151097000000000
 11
429.266975000000000
 21
-91.151096999999993
  0
LINE
  8
0
  6
CONTINUOUS
 62
256
 10
428.266975000000000
 20
-92.151096999999993
 11
425.266975000000000
 21
-92.151096999999993
  0
LINE
  8
0
  6
CONTINUOUS
 62
256
 10
425.266975000000000
 20
-73.151096999999993
 11
425.266975000000000
 21
-36.051096999999999
  0
ARC
  8
0
  6
CONTINUOUS
 62
256
 10
428.266975000000000
 20
-55.151097000000000
 40
1.000000000000000
 50
0.000000000000000
 51
90.000000000000000
  0
LINE
  8
0
  6
CONTINUOUS
 62
256
 10
428.266975000000000
 20
-54.151097000000000
 11
425.266975000000000
 21
-54.151097000000000
  0
LINE
  8
0
  6
DASHED
 62
256
 10
345.266975000000000
 20
-42.155164999999997
 11
334.266975000000000
 21
-42.155164999999997
  0
LINE
  8
0
  6
DASHED
 62
256
 10
345.266975000000000
 20
-42.155164999999997
 11
345.266975000000000
 21
-28.155165000000000
  0
LINE
  8
0
  6
DASHED
 62
256
 10
345.266975000000000
 20
-28.155165000000000
 11
334.266975000000000
 21
-28.155165000000000
  0
LINE
  8
0
  6
DASHED
 62
256
 10
367.266975000000000
 20
-30.155165000000000
 11
345.266975000000000
 21
-30.155165000000000
  0
LINE
  8
0
  6
DASHED
 62
256
 10
410.266975000000000
 20
-30.905165000000000
 11
345.266975000000000
 21
-30.905165000000000
  0
LINE
  8
0
  6
DASHED
 62
256
 10
410.266975000000000
 20
-27.854026999999999
 11
410.266975000000000
 21
-42.456302999999998
  0
LINE
  8
0
  6
DASHED
 62
256
 10
388.266975000000000
 20
-30.155165000000000
 11
388.266975000000000
 21
-40.155164999999997
  0
LINE
  8
0
  6
DASHED
 62
256
 10
410.266975000000000
 20
-30.155165000000000
 11
388.266975000000000
 21
-30.155165000000000
  0
LINE
  8
0
  6
DASHED
 62
256
 10
410.266975000000000
 20
-40.155164999999997
 11
388.266975000000000
 21
-40.155164999999997
  0
LINE
  8
0
  6
DASHED
 62
256
 10
410.266975000000000
 20
-27.854026999999999
 11
421.266975000000000
 21
-28.142071999999999
  0
LINE
  8
0
  6
DASHED
 62
256
 10
410.266975000000000
 20
-42.456302999999998
 11
421.266975000000000
 21
-42.168258000000002
  0
LINE
  8
0
  6
DASHED
 62
256
 10
410.266975000000000
 20
-39.405164999999997
 11
345.266975000000000
 21
-39.405164999999997
  0
LINE
  8
0
  6
DASHED
 62
256
 10
367.266975000000000
 20
-40.155164999999997
 11
345.266975000000000
 21
-40.155164999999997
  0
LINE
  8
0
  6
DASHED
 62
256
 10
367.266975000000000
 20
-40.155164999999997
 11
367.266975000000000
 21
-30.155165000000000
  0
LINE
  8
0
  6
CONTINUOUS
 62
256
 10
345.266975000000000
 20
-25.146303000000000
 11
345.266975000000000
 21
-121.155030000000000
  0
LINE
  8
0
  6
DASHED
 62
256
 10
345.266975000000000
 20
-104.147029000000000
 11
334.266975000000000
 21
-104.147029000000000
  0
LINE
  8
0
  6
DASHED
 62
256
 10
345.266975000000000
 20
-104.147029000000000
 11
345.266975000000000
 21
-118.147029000000000
  0
LINE
  8
0
  6
DASHED
 62
256
 10
367.266975000000000
 20
-116.147029000000000
 11
345.266975000000000
 21
-116.147029000000000
  0
LINE
  8
0
  6
DASHED
 62
256
 10
345.266975000000000
 20
-118.147029000000000
 11
334.266975000000000
 21
-118.147029000000000
  0
LINE
  8
0
  6
DASHED
 62
256
 10
410.266975000000000
 20
-106.897029000000000
 11
345.266975000000000
 21
-106.897029000000000
  0
LINE
  8
0
  6
DASHED
 62
256
 10
410.266975000000000
 20
-115.397029000000000
 11
345.266975000000000
 21
-115.397029000000000
  0
LINE
  8
0
  6
DASHED
 62
256
 10
410.266975000000000
 20
-103.845890999999990
 11
410.266975000000000
 21
-118.448167000000000
  0
LINE
  8
0
  6
DASHED
 62
256
 10
410.266975000000000
 20
-106.147029000000000
 11
388.266975000000000
 21
-106.147029000000000
  0
LINE
  8
0
  6
DASHED
 62
256
 10
388.266975000000000
 20
-116.147029000000000
 11
388.266975000000000
 21
-106.147029000000000
  0
LINE
  8
0
  6
DASHED
 62
256
 10
410.266975000000000
 20
-116.147029000000000
 11
388.266975000000000
 21
-116.147029000000000
  0
LINE
  8
0
  6
DASHED
 62
256
 10
410.266975000000000
 20
-103.845890999999990
 11
421.266975000000000
 21
-104.133936000000010
  0
LINE
  8
0
  6
DASHED
 62
256
 10
410.266975000000000
 20
-118.448167000000000
 11
421.266975000000000
 21
-118.160122000000000
  0
LINE
  8
0
  6
DASHED
 62
256
 10
367.266975000000000
 20
-106.147029000000000
 11
345.266975000000000
 21
-106.147029000000000
  0
LINE
  8
0
  6
DASHED
 62
256
 10
367.266975000000000
 20
-106.147029000000000
 11
367.266975000000000
 21
-116.147029000000000
  0
LINE
  8
0
  6
DASHDOT
 62
256
 10
332.222106000000000
 20
-35.155372000000000
 11
423.545290000000020
 21
-35.154856000000002
  0
LINE
  8
0
  6
DASHDOT
 62
256
 10
332.222106000000000
 20
-111.146823000000000
 11
423.545290000000020
 21
-111.147339000000000
  0
LINE
  8
0
  6
DASHDOT
 62
256
 10
438.473864999999990
 20
-87.151096999999993
 11
312.555593999999990
 21
-87.151096999999993
  0
LINE
  8
0
  6
CONTINUOUS
 62
256
 10
-121.675381000000000
 20
-87.151231999999993
 11
-121.675381000000000
 21
-33.651232000000000
  0
LINE
  8
0
  6
CONTINUOUS
 62
256
 10
-121.675381000000000
 20
-87.151231999999993
 11
-121.675381000000000
 21
-140.651231999999990
  0
LINE
  8
0
  6
CONTINUOUS
 62
256
 10
35.824375000000003
 20
-32.151232000000000
 11
35.824375000000003
 21
-114.151231999999990
  0
ARC
  8
0
  6
CONTINUOUS
 62
256
 10
28.824375000000000
 20
-32.151232000000000
 40
7.000000000000004
 50
0.000000000000000
 51
90.000000000000000
  0
LINE
  8
0
  6
CONTINUOUS
 62
256
 10
-89.175624999999997
 20
-25.151232000000000
 11
28.824375000000000
 21
-25.151232000000000
  0
LINE
  8
0
  6
CONTINUOUS
 62
256
 10
-100.792381000000010
 20
-121.151231999999990
 11
28.824375000000000
 21
-121.151231999999990
  0
LINE
  8
0
  6
CONTINUOUS
 62
256
 10
-96.175624999999997
 20
-32.151232000000000
 11
-96.175624999999997
 21
-77.647299000000004
  0
ARC
  8
0
  6
CONTINUOUS
 62
256
 10
-89.175624999999997
 20
-32.151232000000000
 40
7.000000000000000
 50
90.000000000000000
 51
180.000000000000000
  0
ARC
  8
0
  6
CONTINUOUS
 62
256
 10
28.824375000000000
 20
-114.151231999999990
 40
7.000000000000000
 50
270.000000000000000
 51
0.000000000000000
  0
ARC
  8
0
  6
CONTINUOUS
 62
256
 10
-89.175624999999997
 20
-114.151231999999990
 40
7.000000000000000
 50
180.000000000000000
 51
270.000000000000000
  0
LINE
  8
0
  6
CONTINUOUS
 62
256
 10
-96.175624999999997
 20
-114.151231999999990
 11
-96.175624999999997
 21
-77.647299000000004
  0
LINE
  8
0
  6
CONTINUOUS
 62
256
 10
-98.789974000000001
 20
-33.151907999999999
 11
-121.675381000000000
 21
-33.651699000000001
  0
LINE
  8
0
  6
DASHDOT
 62
256
 10
-132.499380000000000
 20
-87.151231999999993
 11
-86.581711999999996
 21
-87.151231999999993
  0
ARC
  8
0
  6
CONTINUOUS
 62
256
 10
-100.675381000000000
 20
-124.151231999999990
 40
3.000000000000000
 50
90.000000000000000
 51
180.000000000000000
  0
ARC
  8
0
  6
CONTINUOUS
 62
256
 10
-98.856875000000002
 20
-30.152653999999998
 40
3.000000000000000
 50
271.277815999999860
 51
348.471355000000020
  0
LINE
  8
0
  6
CONTINUOUS
 62
256
 10
-116.675381000000000
 20
-107.151231999999990
 11
-121.675381000000000
 21
-107.151231999999990
  0
LINE
  8
0
  6
CONTINUOUS
 62
256
 10
-121.675381000000000
 20
-140.668687000000010
 11
-106.727738000000000
 21
-140.929599000000000
  0
ARC
  8
0
  6
CONTINUOUS
 62
256
 10
-106.675381000000000
 20
-137.930056000000010
 40
3.000000000000011
 50
269.000000000000110
 51
0.000000000000000
  0
ARC
  8
0
  6
CONTINUOUS
 62
256
 10
-106.675381000000000
 20
-118.043398000000000
 40
3.000000000000000
 50
270.000000000000000
 51
0.000000000000000
  0
ARC
  8
0
  6
CONTINUOUS
 62
256
 10
-113.675381000000000
 20
-118.043398000000000
 40
3.000000000000000
 50
180.000000000000000
 51
270.000000000000000
  0
ARC
  8
0
  6
CONTINUOUS
 62
256
 10
-108.675381000000000
 20
-126.651231999999990
 40
5.000000000000000
 50
270.000000000000000
 51
0.000000000000000
  0
ARC
  8
0
  6
CONTINUOUS
 62
256
 10
-108.675381000000000
 20
-123.580884000000000
 40
5.000000000000000
 50
270.000000000000000
 51
0.000000000000000
  0
ARC
  8
0
  6
CONTINUOUS
 62
256
 10
-114.675381000000000
 20
-126.580884000000000
 40
2.000000000000000
 50
180.000000000000000
 51
270.000000000000000
  0
ARC
  8
0
  6
CONTINUOUS
 62
256
 10
-113.675381000000000
 20
-134.651231999999990
 40
3.000000000000000
 50
90.000000000000000
 51
180.000000000000000
  0
ARC
  8
0
  6
CONTINUOUS
 62
256
 10
-119.675381000000000
 20
-137.685685000000010
 40
3.000000000000011
 50
269.000000000000110
 51
0.000000000000000
  0
LINE
  8
0
  6
CONTINUOUS
 62
256
 10
-106.675381000000000
 20
-121.043398000000000
 11
-113.675381000000000
 21
-121.043398000000000
  0
LINE
  8
0
  6
CONTINUOUS
 62
256
 10
-116.675381000000000
 20
-87.151231999999993
 11
-116.675381000000000
 21
-126.580884000000000
  0
LINE
  8
0
  6
CONTINUOUS
 62
256
 10
-114.675381000000000
 20
-128.580884000000000
 11
-108.675381000000000
 21
-128.580884000000000
  0
LINE
  8
0
  6
CONTINUOUS
 62
256
 10
-113.675381000000000
 20
-131.651231999999990
 11
-108.675381000000000
 21
-131.651231999999990
  0
LINE
  8
0
  6
CONTINUOUS
 62
256
 10
-116.675381000000000
 20
-134.651231999999990
 11
-116.675381000000000
 21
-137.685685000000010
  0
LINE
  8
0
  6
CONTINUOUS
 62
256
 10
-116.675381000000000
 20
-67.151231999999993
 11
-121.675381000000000
 21
-67.151231999999993
  0
LINE
  8
0
  6
CONTINUOUS
 62
256
 10
-103.675381000000000
 20
-137.930056000000010
 11
-103.675381000000000
 21
-36.317391000000001
  0
ARC
  8
0
  6
CONTINUOUS
 62
256
 10
-106.675381000000000
 20
-36.317391000000001
 40
3.000000000000000
 50
0.000000000000000
 51
91.277816000000129
  0
ARC
  8
0
  6
CONTINUOUS
 62
256
 10
-119.675381000000000
 20
-36.616779000000001
 40
3.000000000000000
 50
0.000000000000000
 51
90.999999999999872
  0
ARC
  8
0
  6
CONTINUOUS
 62
256
 10
-106.675381000000000
 20
-56.259065999999997
 40
3.000000000000000
 50
0.000000000000000
 51
90.000000000000000
  0
ARC
  8
0
  6
CONTINUOUS
 62
256
 10
-108.675381000000000
 20
-47.651232000000000
 40
5.000000000000000
 50
0.000000000000000
 51
90.000000000000000
  0
ARC
  8
0
  6
CONTINUOUS
 62
256
 10
-108.675381000000000
 20
-50.721581000000000
 40
5.000000000000000
 50
0.000000000000000
 51
90.000000000000000
  0
ARC
  8
0
  6
CONTINUOUS
 62
256
 10
-114.675381000000000
 20
-47.721581000000000
 40
2.000000000000000
 50
90.000000000000000
 51
180.000000000000000
  0
ARC
  8
0
  6
CONTINUOUS
 62
256
 10
-113.675381000000000
 20
-39.651232000000000
 40
3.000000000000000
 50
180.000000000000000
 51
270.000000000000000
  0
ARC
  8
0
  6
CONTINUOUS
 62
256
 10
-113.675381000000000
 20
-56.259065999999997
 40
3.000000000000000
 50
90.000000000000000
 51
180.000000000000000
  0
LINE
  8
0
  6
CONTINUOUS
 62
256
 10
-116.675381000000000
 20
-39.651232000000000
 11
-116.675381000000000
 21
-36.616779000000001
  0
LINE
  8
0
  6
CONTINUOUS
 62
256
 10
-114.675381000000000
 20
-45.721581000000000
 11
-108.675381000000000
 21
-45.721581000000000
  0
LINE
  8
0
  6
CONTINUOUS
 62
256
 10
-113.675381000000000
 20
-42.651232000000000
 11
-108.675381000000000
 21
-42.651232000000000
  0
LINE
  8
0
  6
CONTINUOUS
 62
256
 10
-116.675381000000000
 20
-87.151231999999993
 11
-116.675381000000000
 21
-47.721581000000000
  0
LINE
  8
0
  6
CONTINUOUS
 62
256
 10
-106.675381000000000
 20
-53.259065999999997
 11
-113.675381000000000
 21
-53.259065999999997
  0
ARC
  8
0
  6
CONTINUOUS
 62
256
 10
-10.443574999999999
 20
-120.151231999999990
 40
1.000000000000000
 50
209.999999999999970
 51
270.000000000000000
  0
ARC
  8
0
  6
CONTINUOUS
 62
256
 10
-13.907676000000000
 20
-120.151231999999990
 40
1.000000000000000
 50
270.000000000000000
 51
330.000000000000060
  0
ARC
  8
0
  6
CONTINUOUS
 62
256
 10
-12.175625000000000
 20
-121.151231999999990
 40
1.000000000000000
 50
29.999999999999986
 51
150.000000000000030
  0
ARC
  8
0
  6
CONTINUOUS
 62
256
 10
34.824375000000003
 20
-71.419180999999995
 40
0.999999999999996
 50
300.000000000000110
 51
0.000000000000000
  0
ARC
  8
0
  6
CONTINUOUS
 62
256
 10
34.824375000000003
 20
-74.883283000000006
 40
1.000000000000000
 50
0.000000000000000
 51
59.999999999999865
  0
ARC
  8
0
  6
CONTINUOUS
 62
256
 10
35.824375000000003
 20
-73.151231999999993
 40
0.999999999999996
 50
120.000000000000140
 51
239.999999999999830
  0
ARC
  8
0
  6
CONTINUOUS
 62
256
 10
-13.907676000000000
 20
-26.151232000000000
 40
1.000000000000000
 50
29.999999999999986
 51
90.000000000000000
  0
ARC
  8
0
  6
CONTINUOUS
 62
256
 10
-10.443574999999999
 20
-26.151232000000000
 40
1.000000000000000
 50
90.000000000000000
 51
150.000000000000030
  0
ARC
  8
0
  6
CONTINUOUS
 62
256
 10
-12.175625000000000
 20
-25.151232000000000
 40
1.000000000000000
 50
209.999999999999970
 51
330.000000000000000
  0
ARC
  8
0
  6
CONTINUOUS
 62
256
 10
13.324647000000001
 20
-115.151535000000000
 40
4.999999999999998
 50
0.000000000000000
 51
180.000000000000000
  0
ARC
  8
0
  6
CONTINUOUS
 62
256
 10
-74.175816999999995
 20
-115.151231999999990
 40
5.000000000000000
 50
0.000000000000000
 51
180.000000000000000
  0
ARC
  8
0
  6
CONTINUOUS
 62
256
 10
-74.175816999999995
 20
-31.151232000000000
 40
5.000000000000000
 50
180.000000000000000
 51
0.000000000000000
  0
ARC
  8
0
  6
CONTINUOUS
 62
256
 10
13.324647000000001
 20
-31.151232000000000
 40
5.000000000000000
 50
180.000000000000000
 51
0.000000000000000
  0
LINE
  8
0
  6
CONTINUOUS
 62
256
 10
-89.175624999999997
 20
-25.151232000000000
 11
28.824375000000000
 21
-25.151232000000000
  0
LINE
  8
0
  6
CONTINUOUS
 62
256
 10
35.824375000000003
 20
-32.151232000000000
 11
35.824375000000003
 21
-114.151231999999990
  0
CIRCLE
  8
0
  6
CONTINUOUS
 62
256
 10
25.824375000000000
 20
-35.151232000000000
 40
7.000000000000004
  0
CIRCLE
  8
0
  6
CONTINUOUS
 62
256
 10
25.824375000000000
 20
-111.151231999999990
 40
7.000000000000004
  0
LINE
  8
0
  6
CONTINUOUS
 62
256
 10
-89.175624999999997
 20
-121.151231999999990
 11
28.824375000000000
 21
-121.151231999999990
  0
CIRCLE
  8
0
  6
CONTINUOUS
 62
256
 10
-86.175624999999997
 20
-35.151232000000000
 40
7.000000000000000
  0
CIRCLE
  8
0
  6
CONTINUOUS
 62
256
 10
-86.175624999999997
 20
-111.151231999999990
 40
7.000000000000000
  0
ARC
  8
0
  6
CONTINUOUS
 62
256
 10
-89.175624999999997
 20
-32.151232000000000
 40
7.000000000000000
 50
90.000000000000000
 51
180.000000000000000
  0
ARC
  8
0
  6
CONTINUOUS
 62
256
 10
28.824375000000000
 20
-32.151232000000000
 40
7.000000000000004
 50
0.000000000000000
 51
90.000000000000000
  0
ARC
  8
0
  6
CONTINUOUS
 62
256
 10
28.824375000000000
 20
-114.151231999999990
 40
7.000000000000000
 50
270.000000000000000
 51
0.000000000000000
  0
ARC
  8
0
  6
CONTINUOUS
 62
256
 10
-89.175624999999997
 20
-114.151231999999990
 40
7.000000000000000
 50
180.000000000000000
 51
270.000000000000000
  0
LINE
  8
0
  6
CONTINUOUS
 62
256
 10
15.562471000000000
 20
-117.596436000000000
 11
15.592141000000000
 21
-117.626105999999990
  0
LINE
  8
0
  6
CONTINUOUS
 62
256
 10
-96.175624999999997
 20
-32.151232000000000
 11
-96.175624999999997
 21
-114.151231999999990
  0
ARC
  8
0
  6
CONTINUOUS
 62
256
 10
-12.175625000000000
 20
-73.151231999999993
 40
12.500000000000000
 50
108.662925000000000
 51
71.337074999999999
  0
LINE
  8
0
  6
CONTINUOUS
 62
256
 10
-8.175625000000000
 20
-57.351232000000003
 11
-8.175625000000000
 21
-61.308512999999998
  0
LINE
  8
0
  6
CONTINUOUS
 62
256
 10
-16.175625000000000
 20
-57.351232000000003
 11
-8.175625000000000
 21
-57.351232000000003
  0
LINE
  8
0
  6
CONTINUOUS
 62
256
 10
-16.175625000000000
 20
-57.351232000000003
 11
-16.175625000000000
 21
-61.308512999999998
  0
CIRCLE
  8
0
  6
CONTINUOUS
 62
256
 10
-86.175624999999997
 20
-111.151231999999990
 40
5.000000000000000
  0
CIRCLE
  8
0
  6
CONTINUOUS
 62
256
 10
25.824375000000000
 20
-111.151231999999990
 40
5.000000000000000
  0
CIRCLE
  8
0
  6
CONTINUOUS
 62
256
 10
25.824375000000000
 20
-35.151232000000000
 40
5.000000000000000
  0
CIRCLE
  8
0
  6
CONTINUOUS
 62
256
 10
-86.175624999999997
 20
-35.151232000000000
 40
5.000000000000000
  0
CIRCLE
  8
0
  6
CONTINUOUS
 62
256
 10
-86.175624999999997
 20
-111.151231999999990
 40
4.400000000000006
  0
CIRCLE
  8
0
  6
CONTINUOUS
 62
256
 10
25.824375000000000
 20
-111.151231999999990
 40
4.400000000000002
  0
CIRCLE
  8
0
  6
CONTINUOUS
 62
256
 10
25.824375000000000
 20
-35.151232000000000
 40
4.400000000000002
  0
CIRCLE
  8
0
  6
CONTINUOUS
 62
256
 10
-86.175624999999997
 20
-35.151232000000000
 40
4.400000000000006
  0
POINT
  8
0
  6
DASHDOT
 62
256
 10
-12.175625000000000
 20
-73.151231999999993
  0
LINE
  8
0
  6
DASHDOT
 62
256
 10
-12.175625000000000
 20
-29.651232000000000
 11
-12.175625000000000
 21
-116.651231999999990
  0
LINE
  8
0
  6
DASHDOT
 62
256
 10
31.324375000000000
 20
-73.151231999999993
 11
-55.675624999999997
 21
-73.151231999999993
  0
LINE
  8
0
  6
DASHDOT
 62
256
 10
25.824375000000000
 20
-25.151232000000000
 11
25.824375000000000
 21
-45.151232000000000
  0
LINE
  8
0
  6
DASHDOT
 62
256
 10
35.824375000000003
 20
-35.151232000000000
 11
15.824375000000000
 21
-35.151232000000000
  0
LINE
  8
0
  6
DASHDOT
 62
256
 10
13.324647000000001
 20
-25.401232000000000
 11
13.324647000000001
 21
-36.901232000000000
  0
LINE
  8
0
  6
DASHDOT
 62
256
 10
19.074646999999999
 20
-31.151232000000000
 11
7.574647000000000
 21
-31.151232000000000
  0
LINE
  8
0
  6
DASHDOT
 62
256
 10
25.824375000000000
 20
-101.151231999999990
 11
25.824375000000000
 21
-121.151231999999990
  0
LINE
  8
0
  6
DASHDOT
 62
256
 10
35.824375000000003
 20
-111.151231999999990
 11
15.824375000000000
 21
-111.151231999999990
  0
LINE
  8
0
  6
DASHDOT
 62
256
 10
13.324647000000001
 20
-109.401231999999990
 11
13.324647000000001
 21
-120.901231999999990
  0
LINE
  8
0
  6
DASHDOT
 62
256
 10
19.074646999999999
 20
-115.151231999999990
 11
7.574647000000000
 21
-115.151231999999990
  0
LINE
  8
0
  6
DASHDOT
 62
256
 10
-74.175816999999995
 20
-109.401231999999990
 11
-74.175816999999995
 21
-120.901231999999990
  0
LINE
  8
0
  6
DASHDOT
 62
256
 10
-68.425816999999995
 20
-115.151231999999990
 11
-79.925816999999995
 21
-115.151231999999990
  0
LINE
  8
0
  6
DASHDOT
 62
256
 10
-86.175624999999997
 20
-101.151231999999990
 11
-86.175624999999997
 21
-121.151231999999990
  0
LINE
  8
0
  6
DASHDOT
 62
256
 10
-76.175624999999997
 20
-111.151231999999990
 11
-96.175624999999997
 21
-111.151231999999990
  0
LINE
  8
0
  6
DASHDOT
 62
256
 10
-86.175624999999997
 20
-25.151232000000000
 11
-86.175624999999997
 21
-45.151232000000000
  0
LINE
  8
0
  6
DASHDOT
 62
256
 10
-76.175624999999997
 20
-35.151232000000000
 11
-96.175624999999997
 21
-35.151232000000000
  0
LINE
  8
0
  6
DASHDOT
 62
256
 10
-74.175816999999995
 20
-25.401232000000000
 11
-74.175816999999995
 21
-36.901232000000000
  0
LINE
  8
0
  6
DASHDOT
 62
256
 10
-68.425816999999995
 20
-31.151232000000000
 11
-79.925816999999995
 21
-31.151232000000000
  0
ARC
  8
0
  6
CONTINUOUS
 62
256
 10
-35.177709000000000
 20
-34.901232000000000
 40
4.500000000000000
 50
90.000000000000000
 51
180.954974000000020
  0
ARC
  8
0
  6
CONTINUOUS
 62
256
 10
-35.177709000000000
 20
-111.401231999999990
 40
4.499999999999996
 50
179.045025999999980
 51
270.000000000000000
  0
INSERT
  8
0
  2
ZU_SYM_1
 10
-74.175816999999995
 20
-31.151232000000000
  0
INSERT
  8
0
  2
ZU_SYM_2
 10
13.324647000000001
 20
-31.151232000000000
  0
INSERT
  8
0
  2
ZU_SYM_3
 10
13.324647000000001
 20
-115.151231999999990
  0
INSERT
  8
0
  2
ZU_SYM_4
 10
-74.175816999999995
 20
-115.151231999999990
  0
CIRCLE
  8
0
  6
CONTINUOUS
 62
256
 10
-12.175625000000000
 20
-73.151231999999993
 40
19.000000000000000
  0
LINE
  8
0
  6
CONTINUOUS
 62
256
 10
-79.175816999999995
 20
-25.551231999999999
 11
-79.575817000000001
 21
-25.151232000000000
  0
LINE
  8
0
  6
CONTINUOUS
 62
256
 10
-69.175816999999995
 20
-25.551231999999999
 11
-68.775817000000004
 21
-25.151232000000000
  0
LINE
  8
0
  6
CONTINUOUS
 62
256
 10
8.324647000000001
 20
-25.551231999999999
 11
7.924647000000000
 21
-25.151232000000000
  0
LINE
  8
0
  6
CONTINUOUS
 62
256
 10
18.324646999999999
 20
-25.551231999999999
 11
18.724647000000001
 21
-25.151232000000000
  0
LINE
  8
0
  6
CONTINUOUS
 62
256
 10
18.324646999999999
 20
-120.751232000000000
 11
18.724647000000001
 21
-121.151231999999990
  0
LINE
  8
0
  6
CONTINUOUS
 62
256
 10
8.324647000000001
 20
-120.751232000000000
 11
7.924647000000000
 21
-121.151231999999990
  0
LINE
  8
0
  6
CONTINUOUS
 62
256
 10
-69.175816999999995
 20
-120.751232000000000
 11
-68.775817000000004
 21
-121.151231999999990
  0
LINE
  8
0
  6
CONTINUOUS
 62
256
 10
-79.175816999999995
 20
-120.751232000000000
 11
-79.575817000000001
 21
-121.151231999999990
  0
ARC
  8
0
  6
CONTINUOUS
 62
256
 10
-49.675624999999997
 20
-50.142896000000000
 40
4.500000000000003
 50
91.910213000000027
 51
180.000000000000000
  0
ARC
  8
0
  6
CONTINUOUS
 62
256
 10
-49.675624999999997
 20
-96.159567999999993
 40
4.500000000000000
 50
180.000000000000000
 51
268.089786999999940
  0
ARC
  8
0
  6
CONTINUOUS
 62
256
 10
-62.366838000000001
 20
-36.151232000000000
 40
5.750000000000000
 50
90.000000000000000
 51
155.282845000000040
  0
ARC
  8
0
  6
CONTINUOUS
 62
256
 10
-85.175624999999997
 20
-58.060048000000002
 40
5.750000000000006
 50
114.625327000000040
 51
180.000000000000000
  0
ARC
  8
0
  6
CONTINUOUS
 62
256
 10
-85.175624999999997
 20
-94.681562999999997
 40
5.750000000000000
 50
180.000000000000000
 51
266.525398999999990
  0
ARC
  8
0
  6
CONTINUOUS
 62
256
 10
-62.366838000000001
 20
-110.151231999999990
 40
5.750000000000001
 50
204.717154999999960
 51
270.000000000000000
  0
ARC
  8
0
  6
CONTINUOUS
 62
256
 10
-86.175624999999997
 20
-111.151231999999990
 40
10.750000000000007
 50
30.497126000000016
 51
86.525399000000021
  0
ARC
  8
0
  6
CONTINUOUS
 62
256
 10
-71.958324000000005
 20
-102.777562000000000
 40
5.749999999999995
 50
210.497126000000010
 51
260.178665999999960
  0
ARC
  8
0
  6
CONTINUOUS
 62
256
 10
-74.175816999999995
 20
-115.587040000000000
 40
7.249999999999999
 50
24.717154999999952
 51
80.178666000000021
  0
LINE
  8
0
  6
CONTINUOUS
 62
256
 10
-90.925624999999997
 20
-58.060048000000002
 11
-90.925624999999997
 21
-94.681562999999997
  0
ARC
  8
0
  6
CONTINUOUS
 62
256
 10
-90.175816999999995
 20
-47.151423999999999
 40
6.249999999999998
 50
294.625327000000030
 51
347.568851999999990
  0
ARC
  8
0
  6
CONTINUOUS
 62
256
 10
-86.175624999999997
 20
-35.151232000000000
 40
10.749999999999998
 50
297.890690999999950
 51
329.502874000000020
  0
ARC
  8
0
  6
CONTINUOUS
 62
256
 10
-78.457153000000005
 20
-49.734619000000002
 40
5.750000000000001
 50
117.890691000000060
 51
167.568851999999990
  0
ARC
  8
0
  6
CONTINUOUS
 62
256
 10
-71.958324000000005
 20
-43.524901999999997
 40
5.749999999999999
 50
99.821334000000050
 51
149.502873999999990
  0
ARC
  8
0
  6
CONTINUOUS
 62
256
 10
-74.175816999999995
 20
-30.715423999999999
 40
7.250000000000003
 50
279.821333999999980
 51
335.282845000000070
  0
ARC
  8
0
  6
CONTINUOUS
 62
256
 10
-50.175624999999997
 20
-35.151232000000000
 40
10.499999999999998
 50
271.910213000000000
 51
0.954974000000015
  0
LINE
  8
0
  6
CONTINUOUS
 62
256
 10
-54.175624999999997
 20
-96.159567999999993
 11
-54.175624999999997
 21
-50.142896000000000
  0
ARC
  8
0
  6
CONTINUOUS
 62
256
 10
-50.175624999999997
 20
-111.151231999999990
 40
10.500000000000002
 50
359.045026000000010
 51
88.089786999999987
  0
ARC
  8
0
  6
CONTINUOUS
 62
256
 10
13.824567000000000
 20
-30.715423999999999
 40
6.749999999999999
 50
207.167967999999970
 51
260.178666000000020
  0
ARC
  8
0
  6
CONTINUOUS
 62
256
 10
11.607073000000000
 20
-43.524901999999997
 40
6.249999999999997
 50
30.497125999999994
 51
80.178666000000007
  0
ARC
  8
0
  6
CONTINUOUS
 62
256
 10
25.824375000000000
 20
-35.151232000000000
 40
10.249999999999998
 50
210.497126000000010
 51
264.784090999999990
  0
ARC
  8
0
  6
CONTINUOUS
 62
256
 10
24.324375000000000
 20
-51.582909000000001
 40
6.250000000000000
 50
0.000000000000000
 51
84.784091000000004
  0
LINE
  8
0
  6
CONTINUOUS
 62
256
 10
30.574375000000000
 20
-88.485775000000004
 11
30.574375000000000
 21
-51.582909000000001
  0
ARC
  8
0
  6
CONTINUOUS
 62
256
 10
24.324375000000000
 20
-88.485775000000004
 40
6.249999999999994
 50
297.280644000000000
 51
0.000000000000000
  0
ARC
  8
0
  6
CONTINUOUS
 62
256
 10
29.824566999999998
 20
-99.151039999999995
 40
5.749999999999996
 50
117.280644000000040
 51
167.568851999999990
  0
ARC
  8
0
  6
CONTINUOUS
 62
256
 10
18.105902000000000
 20
-96.567845000000005
 40
6.249999999999996
 50
297.890691000000000
 51
347.568851999999940
  0
ARC
  8
0
  6
CONTINUOUS
 62
256
 10
25.824375000000000
 20
-111.151231999999990
 40
10.250000000000004
 50
117.890691000000000
 51
149.502873999999990
  0
ARC
  8
0
  6
CONTINUOUS
 62
256
 10
11.607073000000000
 20
-102.777562000000000
 40
6.249999999999995
 50
279.821333999999980
 51
329.502873999999960
  0
ARC
  8
0
  6
CONTINUOUS
 62
256
 10
13.824567000000000
 20
-115.587040000000000
 40
6.750000000000006
 50
99.821333999999979
 51
152.832031999999940
  0
ARC
  8
0
  6
CONTINUOUS
 62
256
 10
2.258833000000000
 20
-109.651231999999990
 40
6.250000000000000
 50
270.000000000000000
 51
332.832032000000030
  0
LINE
  8
0
  6
CONTINUOUS
 62
256
 10
-62.366838000000001
 20
-115.901231999999990
 11
2.258833000000000
 21
-115.901231999999990
  0
LINE
  8
0
  6
CONTINUOUS
 62
256
 10
2.258833000000000
 20
-30.401232000000000
 11
-62.366838000000001
 21
-30.401232000000000
  0
ARC
  8
0
  6
CONTINUOUS
 62
256
 10
2.258833000000000
 20
-36.651232000000000
 40
6.250000000000001
 50
27.167968000000013
 51
90.000000000000000
  0
CIRCLE
  8
0
  6
CONTINUOUS
 62
256
 10
-12.175625000000000
 20
-73.151231999999993
 40
39.250000000000000
  0
LINE
  8
0
  6
CONTINUOUS
 62
256
 10
-69.175816999999995
 20
-31.151232000000000
 11
-69.175816999999995
 21
-25.551231999999999
  0
LINE
  8
0
  6
CONTINUOUS
 62
256
 10
8.324647000000001
 20
-120.751232000000000
 11
8.324647000000001
 21
-115.151231999999990
  0
LINE
  8
0
  6
CONTINUOUS
 62
256
 10
18.324646999999999
 20
-120.751232000000000
 11
18.324646999999999
 21
-115.151231999999990
  0
LINE
  8
0
  6
CONTINUOUS
 62
256
 10
-79.175816999999995
 20
-120.751232000000000
 11
-79.175816999999995
 21
-115.151231999999990
  0
LINE
  8
0
  6
CONTINUOUS
 62
256
 10
-69.175816999999995
 20
-120.751232000000000
 11
-69.175816999999995
 21
-115.151231999999990
  0
LINE
  8
0
  6
CONTINUOUS
 62
256
 10
-79.175816999999995
 20
-31.151232000000000
 11
-79.175816999999995
 21
-25.551231999999999
  0
LINE
  8
0
  6
CONTINUOUS
 62
256
 10
8.324647000000001
 20
-31.151232000000000
 11
8.324647000000001
 21
-25.551231999999999
  0
LINE
  8
0
  6
CONTINUOUS
 62
256
 10
18.324646999999999
 20
-31.151232000000000
 11
18.324646999999999
 21
-25.551231999999999
  0
CIRCLE
  8
0
  6
CONTINUOUS
 62
256
 10
-12.175625000000000
 20
-73.151231999999993
 40
37.500000000000000
  0
CIRCLE
  8
0
  6
CONTINUOUS
 62
256
 10
-12.175625000000000
 20
-73.151231999999993
 40
25.000000000000000
  0
LINE
  8
0
  6
CONTINUOUS
 62
256
 10
-121.675381000000000
 20
-33.651232000000000
 11
-121.675381000000000
 21
-140.651231999999990
  0
LINE
  8
0
  6
DASHDOT
 62
256
 10
-309.412388000000020
 20
-87.151231999999993
 11
-90.675381000000002
 21
-87.151231999999993
  0
LINE
  8
0
  6
DASHDOT
 62
256
 10
377.766975000000000
 20
-16.698162000000000
 11
377.766975000000000
 21
-177.123391000000000
  0
LINE
  8
0
  6
DASHDOT
 62
256
 10
317.226279999999970
 20
-73.151096999999993
 11
435.789384999999980
 21
-73.151096999999993
  0
POLYLINE
  8
0
  6
CONTINUOUS
 62
256
 66
1
 70
1
  0
VERTEX
  8
0
  6
CONTINUOUS
 62
256
 10
-211.975381000000000
 20
-39.823900999999999
  0
VERTEX
  8
0
  6
CONTINUOUS
 62
256
 10
-212.065690182104820
 20
-39.120944489441833
  0
VERTEX
  8
0
  6
CONTINUOUS
 62
256
 10
-212.333147197196950
 20
-38.445002203361859
  0
VERTEX
  8
0
  6
CONTINUOUS
 62
256
 10
-212.767473822178030
 20
-37.822050224741339
  0
VERTEX
  8
0
  6
CONTINUOUS
 62
256
 10
-213.351979128423210
 20
-37.276028248763161
  0
VERTEX
  8
0
  6
CONTINUOUS
 62
256
 10
-214.064200904807880
 20
-36.827919593751510
  0
VERTEX
  8
0
  6
CONTINUOUS
 62
256
 10
-214.876768867884070
 20
-36.494944824016265
  0
VERTEX
  8
0
  6
CONTINUOUS
 62
256
 10
-215.758456486524180
 20
-36.289899973223939
  0
VERTEX
  8
0
  6
CONTINUOUS
 62
256
 10
-216.675380999999990
 20
-36.220664800000009
  0
VERTEX
  8
0
  6
CONTINUOUS
 62
256
 10
-217.592305513475790
 20
-36.289899973223939
  0
VERTEX
  8
0
  6
CONTINUOUS
 62
256
 10
-218.473993132115910
 20
-36.494944824016265
  0
VERTEX
  8
0
  6
CONTINUOUS
 62
256
 10
-219.286561095192100
 20
-36.827919593751510
  0
VERTEX
  8
0
  6
CONTINUOUS
 62
256
 10
-219.998782871576760
 20
-37.276028248763161
  0
VERTEX
  8
0
  6
CONTINUOUS
 62
256
 10
-220.583288177821940
 20
-37.822050224741339
  0
VERTEX
  8
0
  6
CONTINUOUS
 62
256
 10
-221.017614802803020
 20
-38.445002203361859
  0
VERTEX
  8
0
  6
CONTINUOUS
 62
256
 10
-221.285071817895160
 20
-39.120944489441833
  0
VERTEX
  8
0
  6
CONTINUOUS
 62
256
 10
-221.375380999999980
 20
-39.823900999999999
  0
VERTEX
  8
0
  6
CONTINUOUS
 62
256
 10
-221.285071817895160
 20
-40.526857510558166
  0
VERTEX
  8
0
  6
CONTINUOUS
 62
256
 10
-221.017614802803020
 20
-41.202799796638139
  0
VERTEX
  8
0
  6
CONTINUOUS
 62
256
 10
-220.583288177821940
 20
-41.825751775258659
  0
VERTEX
  8
0
  6
CONTINUOUS
 62
256
 10
-219.998782871576760
 20
-42.371773751236837
  0
VERTEX
  8
0
  6
CONTINUOUS
 62
256
 10
-219.286561095192100
 20
-42.819882406248489
  0
VERTEX
  8
0
  6
CONTINUOUS
 62
256
 10
-218.473993132115910
 20
-43.152857175983733
  0
VERTEX
  8
0
  6
CONTINUOUS
 62
256
 10
-217.592305513475790
 20
-43.357902026776060
  0
VERTEX
  8
0
  6
CONTINUOUS
 62
256
 10
-216.675380999999990
 20
-43.427137199999990
  0
VERTEX
  8
0
  6
CONTINUOUS
 62
256
 10
-215.758456486524180
 20
-43.357902026776060
  0
VERTEX
  8
0
  6
CONTINUOUS
 62
256
 10
-214.876768867884070
 20
-43.152857175983733
  0
VERTEX
  8
0
  6
CONTINUOUS
 62
256
 10
-214.064200904807880
 20
-42.819882406248489
  0
VERTEX
  8
0
  6
CONTINUOUS
 62
256
 10
-213.351979128423240
 20
-42.371773751236837
  0
VERTEX
  8
0
  6
CONTINUOUS
 62
256
 10
-212.767473822178030
 20
-41.825751775258659
  0
VERTEX
  8
0
  6
CONTINUOUS
 62
256
 10
-212.333147197196950
 20
-41.202799796638139
  0
VERTEX
  8
0
  6
CONTINUOUS
 62
256
 10
-212.065690182104820
 20
-40.526857510558166
  0
SEQEND
  8
0
  6
CONTINUOUS
 62
256
  0
LINE
  8
0
  6
CONTINUOUS
 62
256
 10
-218.675380999999990
 20
-36.831525999999997
 11
-216.675380999999990
 21
-38.007311000000001
  0
LINE
  8
0
  6
CONTINUOUS
 62
256
 10
-216.675380999999990
 20
-38.007311000000001
 11
-214.675380999999990
 21
-39.659953000000002
  0
LINE
  8
0
  6
CONTINUOUS
 62
256
 10
-214.675380999999990
 20
-36.831525999999997
 11
-216.675380999999990
 21
-38.007311000000001
  0
LINE
  8
0
  6
CONTINUOUS
 62
256
 10
-216.675380999999990
 20
-38.007311000000001
 11
-218.675380999999990
 21
-39.659953000000002
  0
LINE
  8
0
  6
CONTINUOUS
 62
256
 10
-205.675380999999990
 20
-28.151232000000000
 11
-205.675380999999990
 21
-87.151231999999993
  0
ARC
  8
0
  6
CONTINUOUS
 62
256
 10
-283.180226000000000
 20
-48.751232000000002
 40
20.600000000000001
 50
90.000000000000000
 51
124.999999999999990
  0
ARC
  8
0
  6
CONTINUOUS
 62
256
 10
-301.075380999999990
 20
-39.307611999999999
 40
2.600000000000001
 50
125.000000000000110
 51
180.000000000000000
  0
LINE
  8
0
  6
CONTINUOUS
 62
256
 10
-303.675381000000020
 20
-39.307611999999999
 11
-303.675381000000020
 21
-87.151231999999993
  0
LINE
  8
0
  6
CONTINUOUS
 62
256
 10
-294.995900000000010
 20
-31.876700000000000
 11
-302.566679000000020
 21
-37.177816999999997
  0
LINE
  8
0
  6
CONTINUOUS
 62
256
 10
-205.675380999999990
 20
-28.151232000000000
 11
-283.180226000000000
 21
-28.151232000000000
  0
LINE
  8
0
  6
CONTINUOUS
 62
256
 10
-205.675380999999990
 20
-36.151232000000000
 11
-121.675381000000000
 21
-36.151232000000000
  0
LINE
  8
0
  6
CONTINUOUS
 62
256
 10
-205.675380999999990
 20
-36.651232000000000
 11
-121.675381000000000
 21
-36.651232000000000
  0
LINE
  8
0
  6
CONTINUOUS
 62
256
 10
-205.675380999999990
 20
-41.018149999999999
 11
-121.675381000000000
 21
-41.018149999999999
  0
LINE
  8
0
  6
CONTINUOUS
 62
256
 10
-205.675380999999990
 20
-46.109318000000002
 11
-121.675381000000000
 21
-46.109318000000002
  0
LINE
  8
0
  6
CONTINUOUS
 62
256
 10
-205.675380999999990
 20
-53.847631000000000
 11
-121.675381000000000
 21
-53.847631000000000
  0
LINE
  8
0
  6
CONTINUOUS
 62
256
 10
-205.675380999999990
 20
-55.436841000000001
 11
-121.675381000000000
 21
-55.436841000000001
  0
LINE
  8
0
  6
CONTINUOUS
 62
256
 10
-205.675380999999990
 20
-58.394837000000003
 11
-121.675381000000000
 21
-58.394837000000003
  0
LINE
  8
0
  6
CONTINUOUS
 62
256
 10
-205.675380999999990
 20
-59.873860000000001
 11
-121.675381000000000
 21
-59.873860000000001
  0
LINE
  8
0
  6
CONTINUOUS
 62
256
 10
-205.675380999999990
 20
-62.966591000000001
 11
-121.675381000000000
 21
-62.966591000000001
  0
LINE
  8
0
  6
CONTINUOUS
 62
256
 10
-205.675380999999990
 20
-64.312991999999994
 11
-121.675381000000000
 21
-64.312991999999994
  0
LINE
  8
0
  6
CONTINUOUS
 62
256
 10
-205.675380999999990
 20
-68.765117000000004
 11
-121.675381000000000
 21
-68.765117000000004
  0
LINE
  8
0
  6
CONTINUOUS
 62
256
 10
-205.675380999999990
 20
-67.523196999999996
 11
-121.675381000000000
 21
-67.523196999999996
  0
LINE
  8
0
  6
CONTINUOUS
 62
256
 10
-205.675380999999990
 20
-73.151231999999993
 11
-121.675381000000000
 21
-73.151231999999993
  0
LINE
  8
0
  6
CONTINUOUS
 62
256
 10
-121.675381000000000
 20
-33.651232000000000
 11
-205.675380999999990
 21
-33.651232000000000
  0
ARC
  8
0
  6
CONTINUOUS
 62
256
 10
-283.180226000000000
 20
-125.551232000000000
 40
20.599999999999991
 50
235.000000000000000
 51
270.000000000000000
  0
ARC
  8
0
  6
CONTINUOUS
 62
256
 10
-301.075380999999990
 20
-134.994852000000010
 40
2.600000000000023
 50
180.000000000000000
 51
234.999999999999770
  0
LINE
  8
0
  6
CONTINUOUS
 62
256
 10
-294.995900000000010
 20
-142.425763999999990
 11
-302.566679000000020
 21
-137.124648000000010
  0
LINE
  8
0
  6
CONTINUOUS
 62
256
 10
-303.675381000000020
 20
-134.994852000000010
 11
-303.675381000000020
 21
-87.151231999999993
  0
LINE
  8
0
  6
CONTINUOUS
 62
256
 10
-205.675380999999990
 20
-128.193146000000010
 11
-121.675381000000000
 21
-128.193146000000010
  0
LINE
  8
0
  6
CONTINUOUS
 62
256
 10
-205.675380999999990
 20
-133.284314999999990
 11
-121.675381000000000
 21
-133.284314999999990
  0
LINE
  8
0
  6
CONTINUOUS
 62
256
 10
-205.675380999999990
 20
-137.651231999999990
 11
-121.675381000000000
 21
-137.651231999999990
  0
LINE
  8
0
  6
CONTINUOUS
 62
256
 10
-205.675380999999990
 20
-138.151231999999990
 11
-121.675381000000000
 21
-138.151231999999990
  0
LINE
  8
0
  6
CONTINUOUS
 62
256
 10
-212.475381000000000
 20
-178.651231999999990
 11
-124.475381000000000
 21
-178.651231999999990
  0
ARC
  8
0
  6
CONTINUOUS
 62
256
 10
-212.475381000000000
 20
-177.651231999999990
 40
1.000000000000000
 50
180.000000000000000
 51
270.000000000000000
  0
LINE
  8
0
  6
CONTINUOUS
 62
256
 10
-206.475381000000000
 20
-179.151231999999990
 11
-198.475381000000000
 21
-179.151231999999990
  0
LINE
  8
0
  6
CONTINUOUS
 62
256
 10
-138.475381000000000
 20
-179.151231999999990
 11
-130.475381000000000
 21
-179.151231999999990
  0
LINE
  8
0
  6
CONTINUOUS
 62
256
 10
-138.475381000000000
 20
-178.651231999999990
 11
-138.475381000000000
 21
-179.151231999999990
  0
LINE
  8
0
  6
CONTINUOUS
 62
256
 10
-198.475381000000000
 20
-178.651231999999990
 11
-198.475381000000000
 21
-179.151231999999990
  0
LINE
  8
0
  6
CONTINUOUS
 62
256
 10
-206.475381000000000
 20
-178.651231999999990
 11
-206.475381000000000
 21
-179.151231999999990
  0
LINE
  8
0
  6
CONTINUOUS
 62
256
 10
-123.475381000000000
 20
-139.651231999999990
 11
-205.675380999999990
 21
-139.651231999999990
  0
POLYLINE
  8
0
  6
CONTINUOUS
 62
256
 66
1
 70
1
  0
VERTEX
  8
0
  6
CONTINUOUS
 62
256
 10
-211.975381000000000
 20
-134.478563000000010
  0
VERTEX
  8
0
  6
CONTINUOUS
 62
256
 10
-212.065690182104820
 20
-133.775606489441830
  0
VERTEX
  8
0
  6
CONTINUOUS
 62
256
 10
-212.333147197196950
 20
-133.099664203361870
  0
VERTEX
  8
0
  6
CONTINUOUS
 62
256
 10
-212.767473822178030
 20
-132.476712224741330
  0
VERTEX
  8
0
  6
CONTINUOUS
 62
256
 10
-213.351979128423210
 20
-131.930690248763170
  0
VERTEX
  8
0
  6
CONTINUOUS
 62
256
 10
-214.064200904807880
 20
-131.482581593751520
  0
VERTEX
  8
0
  6
CONTINUOUS
 62
256
 10
-214.876768867884070
 20
-131.149606824016270
  0
VERTEX
  8
0
  6
CONTINUOUS
 62
256
 10
-215.758456486524180
 20
-130.944561973223930
  0
VERTEX
  8
0
  6
CONTINUOUS
 62
256
 10
-216.675380999999990
 20
-130.875326800000010
  0
VERTEX
  8
0
  6
CONTINUOUS
 62
256
 10
-217.592305513475790
 20
-130.944561973223930
  0
VERTEX
  8
0
  6
CONTINUOUS
 62
256
 10
-218.473993132115910
 20
-131.149606824016270
  0
VERTEX
  8
0
  6
CONTINUOUS
 62
256
 10
-219.286561095192100
 20
-131.482581593751520
  0
VERTEX
  8
0
  6
CONTINUOUS
 62
256
 10
-219.998782871576760
 20
-131.930690248763170
  0
VERTEX
  8
0
  6
CONTINUOUS
 62
256
 10
-220.583288177821940
 20
-132.476712224741330
  0
VERTEX
  8
0
  6
CONTINUOUS
 62
256
 10
-221.017614802803020
 20
-133.099664203361870
  0
VERTEX
  8
0
  6
CONTINUOUS
 62
256
 10
-221.285071817895160
 20
-133.775606489441830
  0
VERTEX
  8
0
  6
CONTINUOUS
 62
256
 10
-221.375380999999980
 20
-134.478563000000010
  0
VERTEX
  8
0
  6
CONTINUOUS
 62
256
 10
-221.285071817895160
 20
-135.181519510558190
  0
VERTEX
  8
0
  6
CONTINUOUS
 62
256
 10
-221.017614802803020
 20
-135.857461796638150
  0
VERTEX
  8
0
  6
CONTINUOUS
 62
256
 10
-220.583288177821940
 20
-136.480413775258680
  0
VERTEX
  8
0
  6
CONTINUOUS
 62
256
 10
-219.998782871576760
 20
-137.026435751236850
  0
VERTEX
  8
0
  6
CONTINUOUS
 62
256
 10
-219.286561095192100
 20
-137.474544406248500
  0
VERTEX
  8
0
  6
CONTINUOUS
 62
256
 10
-218.473993132115910
 20
-137.807519175983740
  0
VERTEX
  8
0
  6
CONTINUOUS
 62
256
 10
-217.592305513475790
 20
-138.012564026776060
  0
VERTEX
  8
0
  6
CONTINUOUS
 62
256
 10
-216.675380999999990
 20
-138.081799200000010
  0
VERTEX
  8
0
  6
CONTINUOUS
 62
256
 10
-215.758456486524180
 20
-138.012564026776060
  0
VERTEX
  8
0
  6
CONTINUOUS
 62
256
 10
-214.876768867884070
 20
-137.807519175983740
  0
VERTEX
  8
0
  6
CONTINUOUS
 62
256
 10
-214.064200904807880
 20
-137.474544406248500
  0
VERTEX
  8
0
  6
CONTINUOUS
 62
256
 10
-213.351979128423240
 20
-137.026435751236850
  0
VERTEX
  8
0
  6
CONTINUOUS
 62
256
 10
-212.767473822178030
 20
-136.480413775258680
  0
VERTEX
  8
0
  6
CONTINUOUS
 62
256
 10
-212.333147197196950
 20
-135.857461796638150
  0
VERTEX
  8
0
  6
CONTINUOUS
 62
256
 10
-212.065690182104820
 20
-135.181519510558190
  0
SEQEND
  8
0
  6
CONTINUOUS
 62
256
  0
LINE
  8
0
  6
CONTINUOUS
 62
256
 10
-218.675380999999990
 20
-137.470938999999990
 11
-216.675380999999990
 21
-136.295153000000000
  0
LINE
  8
0
  6
CONTINUOUS
 62
256
 10
-216.675380999999990
 20
-136.295153000000000
 11
-214.675380999999990
 21
-134.642512000000010
  0
LINE
  8
0
  6
CONTINUOUS
 62
256
 10
-214.675380999999990
 20
-137.470938999999990
 11
-216.675380999999990
 21
-136.295153000000000
  0
LINE
  8
0
  6
CONTINUOUS
 62
256
 10
-216.675380999999990
 20
-136.295153000000000
 11
-218.675380999999990
 21
-134.642512000000010
  0
LINE
  8
0
  6
CONTINUOUS
 62
256
 10
-205.675380999999990
 20
-138.490928000000000
 11
-205.675380999999990
 21
-87.151231999999993
  0
ARC
  8
0
  6
CONTINUOUS
 62
256
 10
-208.675380999999990
 20
-138.490928000000000
 40
3.000000000000000
 50
270.000000000000000
 51
0.000000000000000
  0
LINE
  8
0
  6
CONTINUOUS
 62
256
 10
-212.675380999999990
 20
-141.490928000000000
 11
-208.675380999999990
 21
-141.490928000000000
  0
ARC
  8
0
  6
CONTINUOUS
 62
256
 10
-212.675380999999990
 20
-144.490928000000000
 40
3.000000000000000
 50
90.000000000000000
 51
180.000000000000000
  0
LINE
  8
0
  6
CONTINUOUS
 62
256
 10
-215.675380999999990
 20
-146.151231999999990
 11
-283.180226000000000
 21
-146.151231999999990
  0
LINE
  8
0
  6
CONTINUOUS
 62
256
 10
-215.675380999999990
 20
-146.151231999999990
 11
-215.675380999999990
 21
-144.490928000000000
  0
LINE
  8
0
  6
CONTINUOUS
 62
256
 10
-213.475381000000000
 20
-144.651231999999990
 11
-123.475381000000000
 21
-144.651231999999990
  0
LINE
  8
0
  6
CONTINUOUS
 62
256
 10
-205.675380999999990
 20
-101.151231999999990
 11
-121.675381000000000
 21
-101.151231999999990
  0
LINE
  8
0
  6
CONTINUOUS
 62
256
 10
-205.675380999999990
 20
-105.537347000000000
 11
-121.675381000000000
 21
-105.537347000000000
  0
LINE
  8
0
  6
CONTINUOUS
 62
256
 10
-205.675380999999990
 20
-106.779267000000000
 11
-121.675381000000000
 21
-106.779267000000000
  0
LINE
  8
0
  6
CONTINUOUS
 62
256
 10
-205.675380999999990
 20
-109.989472000000010
 11
-121.675381000000000
 21
-109.989472000000010
  0
LINE
  8
0
  6
CONTINUOUS
 62
256
 10
-205.675380999999990
 20
-111.335874000000000
 11
-121.675381000000000
 21
-111.335874000000000
  0
LINE
  8
0
  6
CONTINUOUS
 62
256
 10
-205.675380999999990
 20
-114.428605000000000
 11
-121.675381000000000
 21
-114.428605000000000
  0
LINE
  8
0
  6
CONTINUOUS
 62
256
 10
-205.675380999999990
 20
-115.907628000000000
 11
-121.675381000000000
 21
-115.907628000000000
  0
LINE
  8
0
  6
CONTINUOUS
 62
256
 10
-205.675380999999990
 20
-118.865623000000000
 11
-121.675381000000000
 21
-118.865623000000000
  0
LINE
  8
0
  6
CONTINUOUS
 62
256
 10
-205.675380999999990
 20
-120.454832999999990
 11
-121.675381000000000
 21
-120.454832999999990
  0
LINE
  8
0
  6
CONTINUOUS
 62
256
 10
-213.475381000000000
 20
-158.651231999999990
 11
-213.475381000000000
 21
-170.651231999999990
  0
LINE
  8
0
  6
CONTINUOUS
 62
256
 10
-213.475381000000000
 20
-141.599561999999990
 11
-213.475381000000000
 21
-158.651231999999990
  0
LINE
  8
0
  6
CONTINUOUS
 62
256
 10
-213.475381000000000
 20
-170.651231999999990
 11
-213.475381000000000
 21
-177.651231999999990
  0
LINE
  8
0
  6
CONTINUOUS
 62
256
 10
-123.475381000000000
 20
-139.651231999999990
 11
-123.475381000000000
 21
-177.651231999999990
  0
ARC
  8
0
  6
CONTINUOUS
 62
256
 10
-124.475381000000000
 20
-177.651231999999990
 40
1.000000000000000
 50
270.000000000000000
 51
0.000000000000000
  0
LINE
  8
0
  6
CONTINUOUS
 62
256
 10
-130.475381000000000
 20
-178.651231999999990
 11
-130.475381000000000
 21
-179.151231999999990
  0
LINE
  8
0
  6
CONTINUOUS
 62
256
 10
-121.675381000000000
 20
-140.651231999999990
 11
-123.475381000000000
 21
-140.651231999999990
  0
LINE
  8
0
  6
CONTINUOUS
 62
256
 10
270.088568000000010
 20
-85.655164999999997
 11
270.088568000000010
 21
-60.655107000000001
  0
LINE
  8
0
  6
CONTINUOUS
 62
256
 10
174.016568000000010
 20
-85.655164999999997
 11
174.016568000000010
 21
-60.655107000000001
  0
LINE
  8
0
  6
CONTINUOUS
 62
256
 10
208.552568000000010
 20
-85.855165000000000
 11
208.552568000000010
 21
-60.455165000000001
  0
LINE
  8
0
  6
CONTINUOUS
 62
256
 10
235.552568000000010
 20
-85.855165000000000
 11
235.552568000000010
 21
-60.455165000000001
  0
LINE
  8
0
  6
CONTINUOUS
 62
256
 10
252.902568000000000
 20
-86.255165000000005
 11
252.902568000000000
 21
-60.055165000000002
  0
LINE
  8
0
  6
CONTINUOUS
 62
256
 10
251.552568000000010
 20
-86.255165000000005
 11
251.552568000000010
 21
-60.055165000000002
  0
LINE
  8
0
  6
CONTINUOUS
 62
256
 10
192.552568000000010
 20
-86.255165000000005
 11
192.552568000000010
 21
-60.055165000000002
  0
LINE
  8
0
  6
CONTINUOUS
 62
256
 10
191.202568000000010
 20
-86.255165000000005
 11
191.202568000000010
 21
-60.055165000000002
  0
LINE
  8
0
  6
CONTINUOUS
 62
256
 10
252.902568000000000
 20
-86.255165000000005
 11
251.552568000000010
 21
-86.255165000000005
  0
ARC
  8
0
  6
CONTINUOUS
 62
256
 10
171.552568000000010
 20
-91.155164999999997
 40
1.000000000000000
 50
180.000000000000000
 51
270.000000000000000
  0
LINE
  8
0
  6
CONTINUOUS
 62
256
 10
171.552568000000010
 20
-92.155164999999997
 11
187.152568000000000
 21
-92.155164999999997
  0
ARC
  8
0
  6
CONTINUOUS
 62
256
 10
199.152542000000010
 20
-93.555165000000002
 40
0.399999999999992
 50
359.999929999999490
 51
90.000000000000000
  0
LINE
  8
0
  6
CONTINUOUS
 62
256
 10
187.952568000000010
 20
-93.155164999999997
 11
199.152542000000010
 21
-93.155164999999997
  0
LINE
  8
0
  6
CONTINUOUS
 62
256
 10
199.552539999999990
 20
-95.255165000000005
 11
199.552541999999990
 21
-93.555166000000000
  0
LINE
  8
0
  6
CONTINUOUS
 62
256
 10
230.152568000000000
 20
-95.655164999999997
 11
199.952540000000000
 21
-95.655164999999997
  0
ARC
  8
0
  6
CONTINUOUS
 62
256
 10
230.952568000000010
 20
-93.805165000000002
 40
0.400000000000006
 50
90.000000000000000
 51
180.000000000000000
  0
LINE
  8
0
  6
CONTINUOUS
 62
256
 10
242.552568000000010
 20
-93.405164999999997
 11
230.952568000000010
 21
-93.405164999999997
  0
ARC
  8
0
  6
CONTINUOUS
 62
256
 10
199.952540000000000
 20
-95.255165000000005
 40
0.399999999999992
 50
179.999929999999470
 51
270.000000000000000
  0
ARC
  8
0
  6
CONTINUOUS
 62
256
 10
230.152568000000000
 20
-95.255165000000005
 40
0.400000000000006
 50
270.000000000000000
 51
0.000000000000000
  0
ARC
  8
0
  6
CONTINUOUS
 62
256
 10
272.552568000000010
 20
-91.155164999999997
 40
1.000000000000000
 50
270.000000000000000
 51
0.000000000000000
  0
LINE
  8
0
  6
CONTINUOUS
 62
256
 10
230.552568000000010
 20
-95.255165000000005
 11
230.552568000000010
 21
-93.805165000000002
  0
ARC
  8
0
  6
CONTINUOUS
 62
256
 10
256.952567999999990
 20
-92.555165000000002
 40
0.400000000000006
 50
90.000000000000000
 51
180.000000000000000
  0
ARC
  8
0
  6
CONTINUOUS
 62
256
 10
256.152567999999970
 20
-92.755165000000005
 40
0.400000000000006
 50
270.000000000000000
 51
0.000000000000000
  0
LINE
  8
0
  6
CONTINUOUS
 62
256
 10
242.552568000000010
 20
-93.405164999999997
 11
242.552568000000010
 21
-93.155164999999997
  0
ARC
  8
0
  6
CONTINUOUS
 62
256
 10
187.952568000000010
 20
-92.755165000000005
 40
0.400000000000006
 50
180.000000000000000
 51
270.000000000000000
  0
ARC
  8
0
  6
CONTINUOUS
 62
256
 10
187.152568000000000
 20
-92.555165000000002
 40
0.400000000000006
 50
0.000000000000000
 51
90.000000000000000
  0
LINE
  8
0
  6
CONTINUOUS
 62
256
 10
256.152567999999970
 20
-93.155164999999997
 11
242.552568000000010
 21
-93.155164999999997
  0
LINE
  8
0
  6
CONTINUOUS
 62
256
 10
256.552568000000010
 20
-92.555165000000002
 11
256.552568000000010
 21
-92.755165000000005
  0
LINE
  8
0
  6
CONTINUOUS
 62
256
 10
187.552568000000010
 20
-92.555165000000002
 11
187.552568000000010
 21
-92.755165000000005
  0
LINE
  8
0
  6
CONTINUOUS
 62
256
 10
272.552568000000010
 20
-92.155164999999997
 11
256.952567999999990
 21
-92.155164999999997
  0
LINE
  8
0
  6
CONTINUOUS
 62
256
 10
273.552568000000010
 20
-87.655164999999997
 11
270.088465999999980
 21
-85.655164999999997
  0
LINE
  8
0
  6
CONTINUOUS
 62
256
 10
270.088568000000010
 20
-85.655164999999997
 11
252.902568000000000
 21
-85.655164999999997
  0
LINE
  8
0
  6
CONTINUOUS
 62
256
 10
251.552568000000010
 20
-85.655164999999997
 11
235.552568000000010
 21
-85.655164999999997
  0
LINE
  8
0
  6
CONTINUOUS
 62
256
 10
235.552568000000010
 20
-85.855165000000000
 11
208.552568000000010
 21
-85.855165000000000
  0
LINE
  8
0
  6
CONTINUOUS
 62
256
 10
192.552568000000010
 20
-85.655164999999997
 11
208.552568000000010
 21
-85.655164999999997
  0
LINE
  8
0
  6
CONTINUOUS
 62
256
 10
174.016669000000010
 20
-85.655164999999997
 11
191.202568000000010
 21
-85.655164999999997
  0
LINE
  8
0
  6
CONTINUOUS
 62
256
 10
191.202568000000010
 20
-86.255165000000005
 11
192.552568000000010
 21
-86.255165000000005
  0
LINE
  8
0
  6
CONTINUOUS
 62
256
 10
170.552568000000010
 20
-87.655164999999997
 11
174.016669000000010
 21
-85.655164999999997
  0
LINE
  8
0
  6
DASHDOT
 62
256
 10
278.286684999999980
 20
-73.155164999999997
 11
164.602183000000000
 21
-73.155164999999997
  0
ARC
  8
0
  6
CONTINUOUS
 62
256
 10
199.152542000000010
 20
-52.755164999999998
 40
0.399999999999999
 50
270.000000000000000
 51
0.000069999999513
  0
LINE
  8
0
  6
CONTINUOUS
 62
256
 10
187.952568000000010
 20
-53.155164999999997
 11
199.152542000000010
 21
-53.155164999999997
  0
LINE
  8
0
  6
CONTINUOUS
 62
256
 10
199.552539999999990
 20
-51.055166000000000
 11
199.552541999999990
 21
-52.755164999999998
  0
LINE
  8
0
  6
CONTINUOUS
 62
256
 10
230.152568000000000
 20
-50.655164999999997
 11
199.952540000000000
 21
-50.655164999999997
  0
ARC
  8
0
  6
CONTINUOUS
 62
256
 10
230.952568000000010
 20
-52.505164999999998
 40
0.400000000000006
 50
180.000000000000000
 51
270.000000000000000
  0
LINE
  8
0
  6
CONTINUOUS
 62
256
 10
242.552568000000010
 20
-52.905164999999997
 11
230.952568000000010
 21
-52.905164999999997
  0
ARC
  8
0
  6
CONTINUOUS
 62
256
 10
199.952540000000000
 20
-51.055165000000002
 40
0.399999999999999
 50
90.000000000000000
 51
180.000069999999510
  0
ARC
  8
0
  6
CONTINUOUS
 62
256
 10
230.152568000000000
 20
-51.055165000000002
 40
0.400000000000006
 50
0.000000000000000
 51
90.000000000000000
  0
ARC
  8
0
  6
CONTINUOUS
 62
256
 10
272.552568000000010
 20
-55.155164999999997
 40
1.000000000000000
 50
0.000000000000000
 51
90.000000000000000
  0
ARC
  8
0
  6
CONTINUOUS
 62
256
 10
171.552568000000010
 20
-55.155164999999997
 40
1.000000000000000
 50
90.000000000000000
 51
180.000000000000000
  0
LINE
  8
0
  6
CONTINUOUS
 62
256
 10
273.552568000000010
 20
-58.655164999999997
 11
270.088465999999980
 21
-60.655164999999997
  0
LINE
  8
0
  6
CONTINUOUS
 62
256
 10
170.552568000000010
 20
-58.655164999999997
 11
174.016669000000010
 21
-60.655164999999997
  0
LINE
  8
0
  6
CONTINUOUS
 62
256
 10
235.552568000000010
 20
-60.455165000000001
 11
208.552568000000010
 21
-60.455165000000001
  0
LINE
  8
0
  6
CONTINUOUS
 62
256
 10
230.552568000000010
 20
-51.055165000000002
 11
230.552568000000010
 21
-52.505164999999998
  0
LINE
  8
0
  6
CONTINUOUS
 62
256
 10
174.016669000000010
 20
-60.655164999999997
 11
191.202568000000010
 21
-60.655164999999997
  0
LINE
  8
0
  6
CONTINUOUS
 62
256
 10
191.202568000000010
 20
-60.055165000000002
 11
192.552568000000010
 21
-60.055165000000002
  0
LINE
  8
0
  6
CONTINUOUS
 62
256
 10
192.552568000000010
 20
-60.655164999999997
 11
208.552568000000010
 21
-60.655164999999997
  0
LINE
  8
0
  6
CONTINUOUS
 62
256
 10
251.552568000000010
 20
-60.655164999999997
 11
235.552568000000010
 21
-60.655164999999997
  0
LINE
  8
0
  6
CONTINUOUS
 62
256
 10
252.902568000000000
 20
-60.055165000000002
 11
251.552568000000010
 21
-60.055165000000002
  0
ARC
  8
0
  6
CONTINUOUS
 62
256
 10
256.952567999999990
 20
-53.755164999999998
 40
0.399999999999977
 50
180.000000000000000
 51
270.000000000000000
  0
ARC
  8
0
  6
CONTINUOUS
 62
256
 10
256.152567999999970
 20
-53.555165000000002
 40
0.399999999999977
 50
0.000000000000000
 51
90.000000000000000
  0
LINE
  8
0
  6
CONTINUOUS
 62
256
 10
242.552568000000010
 20
-52.905164999999997
 11
242.552568000000010
 21
-53.155164999999997
  0
ARC
  8
0
  6
CONTINUOUS
 62
256
 10
187.952568000000010
 20
-53.555165000000002
 40
0.399999999999999
 50
90.000000000000000
 51
180.000000000000000
  0
ARC
  8
0
  6
CONTINUOUS
 62
256
 10
187.152568000000000
 20
-53.755164999999998
 40
0.399999999999999
 50
270.000000000000000
 51
0.000000000000000
  0
LINE
  8
0
  6
CONTINUOUS
 62
256
 10
270.088568000000010
 20
-60.655164999999997
 11
252.902568000000000
 21
-60.655164999999997
  0
LINE
  8
0
  6
CONTINUOUS
 62
256
 10
256.152567999999970
 20
-53.155164999999997
 11
242.552568000000010
 21
-53.155164999999997
  0
LINE
  8
0
  6
CONTINUOUS
 62
256
 10
256.552568000000010
 20
-53.755164999999998
 11
256.552568000000010
 21
-53.555165000000002
  0
LINE
  8
0
  6
CONTINUOUS
 62
256
 10
187.552568000000010
 20
-53.755164999999998
 11
187.552568000000010
 21
-53.555165000000002
  0
LINE
  8
0
  6
CONTINUOUS
 62
256
 10
273.552568000000010
 20
-91.155164999999997
 11
273.552568000000010
 21
-55.155164999999997
  0
LINE
  8
0
  6
CONTINUOUS
 62
256
 10
272.552568000000010
 20
-54.155164999999997
 11
256.952567999999990
 21
-54.155164999999997
  0
LINE
  8
0
  6
CONTINUOUS
 62
256
 10
170.552568000000010
 20
-91.155164999999997
 11
170.552568000000010
 21
-55.155164999999997
  0
LINE
  8
0
  6
CONTINUOUS
 62
256
 10
171.552568000000010
 20
-54.155164999999997
 11
187.152568000000000
 21
-54.155164999999997
  0
LINE
  8
0
  6
CONTINUOUS
 62
256
 10
273.552568000000010
 20
-57.355165000000000
 11
170.552568000000010
 21
-57.355165000000000
  0
ARC
  8
0
  6
CONTINUOUS
 62
256
 10
98.366935999999995
 20
-73.155164999999997
 40
12.500000000000002
 50
108.662925000000020
 51
71.337074999999999
  0
LINE
  8
0
  6
CONTINUOUS
 62
256
 10
102.366936000000000
 20
-57.355165000000000
 11
102.366936000000000
 21
-61.312446000000001
  0
LINE
  8
0
  6
CONTINUOUS
 62
256
 10
94.366935999999995
 20
-57.355165000000000
 11
94.366935999999995
 21
-61.312446000000001
  0
LINE
  8
0
  6
CONTINUOUS
 62
256
 10
94.366935999999995
 20
-57.355165000000000
 11
102.366936000000000
 21
-57.355165000000000
  0
LINE
  8
0
  6
DASHDOT
 62
256
 10
69.997534999999999
 20
-73.155164999999997
 11
127.825388000000000
 21
-73.155164999999997
  0
LINE
  8
0
  6
DASHDOT
 62
256
 10
98.366935999999995
 20
-42.928049000000001
 11
98.366935999999995
 21
-101.936063000000000
  0
CIRCLE
  8
0
  6
CONTINUOUS
 62
256
 10
98.366935999999995
 20
-73.155164999999997
 40
19.000000000000000
  0
LINE
  8
0
  6
CONTINUOUS
 62
256
 10
347.766975000000000
 20
-144.651231999999990
 11
407.766975000000000
 21
-144.651231999999990
  0
LINE
  8
0
  6
CONTINUOUS
 62
256
 10
-213.872133999999990
 20
-170.651231999999990
 11
-213.001218999999990
 21
-170.651231999999990
  0
LINE
  8
0
  6
CONTINUOUS
 62
256
 10
-213.909062000000010
 20
-158.651231999999990
 11
-213.058082000000010
 21
-158.651231999999990
  0
LINE
  8
0
  6
DASHDOT
 62
256
 10
-406.707128000000010
 20
-23.910744999999999
 11
-406.707128000000010
 21
-181.655624999999990
  0
LINE
  8
0
  6
DASHDOT
 62
256
 10
-468.430858000000000
 20
-87.151231999999993
 11
-343.212898999999990
 21
-87.151231999999993
  0
LINE
  8
0
  6
CONTINUOUS
 62
256
 10
-370.707128000000010
 20
-144.651231999999990
 11
-370.707128000000010
 21
-172.017897000000000
  0
LINE
  8
0
  6
CONTINUOUS
 62
256
 10
-442.707128000000010
 20
-144.651231999999990
 11
-442.707128000000010
 21
-172.017897000000000
  0
LINE
  8
0
  6
CONTINUOUS
 62
256
 10
-404.207128000000010
 20
-179.151231999999990
 11
-404.207128000000010
 21
-178.640815000000000
  0
LINE
  8
0
  6
CONTINUOUS
 62
256
 10
-409.207128000000010
 20
-179.151231999999990
 11
-404.207128000000010
 21
-179.151231999999990
  0
LINE
  8
0
  6
CONTINUOUS
 62
256
 10
-409.207128000000010
 20
-179.151231999999990
 11
-409.207128000000010
 21
-178.640815000000000
  0
ARC
  8
0
  6
CONTINUOUS
 62
256
 10
-437.707128000000010
 20
-172.017897000000000
 40
5.000000000000000
 50
180.000000000000000
 51
263.967950999999970
  0
ARC
  8
0
  6
CONTINUOUS
 62
256
 10
-375.707128000000010
 20
-172.017897000000000
 40
5.000000000000002
 50
276.032049000000030
 51
0.000000000000000
  0
ARC
  8
0
  6
CONTINUOUS
 62
256
 10
-406.707128000000010
 20
121.348768000000010
 40
300.000000000000000
 50
263.967951000000030
 51
276.032048999999970
  0
ARC
  8
0
  6
CONTINUOUS
 62
256
 10
-389.050683999999990
 20
-90.651231999999993
 40
1.000000000000000
 50
90.000000000000000
 51
168.787729000000270
  0
LINE
  8
0
  6
CONTINUOUS
 62
256
 10
-386.000849000000020
 20
-89.651231999999993
 11
-389.050683999999990
 21
-89.651231999999993
  0
ARC
  8
0
  6
CONTINUOUS
 62
256
 10
-386.000849000000020
 20
-90.651231999999993
 40
0.999999999999978
 50
350.405932000000010
 51
90.000000000000000
  0
ARC
  8
0
  6
CONTINUOUS
 62
256
 10
-380.439277000000000
 20
-90.651231999999993
 40
1.000000000000000
 50
90.000000000000000
 51
172.410458000000010
  0
LINE
  8
0
  6
CONTINUOUS
 62
256
 10
-377.415490999999970
 20
-89.651231999999993
 11
-380.439277000000000
 21
-89.651231999999993
  0
ARC
  8
0
  6
CONTINUOUS
 62
256
 10
-377.415490999999970
 20
-90.651231999999993
 40
1.000000000000019
 50
353.186146000000240
 51
90.000000000000000
  0
ARC
  8
0
  6
CONTINUOUS
 62
256
 10
-371.882567999999990
 20
-90.651231999999993
 40
1.000000000000000
 50
90.000000000000000
 51
174.260829999999570
  0
LINE
  8
0
  6
CONTINUOUS
 62
256
 10
-368.868654999999990
 20
-89.651231999999993
 11
-371.882567999999990
 21
-89.651231999999993
  0
ARC
  8
0
  6
CONTINUOUS
 62
256
 10
-368.868654999999990
 20
-90.651231999999993
 40
1.000000000000027
 50
354.715267000000210
 51
90.000000000000000
  0
ARC
  8
0
  6
CONTINUOUS
 62
256
 10
-389.030219999999990
 20
-110.768534000000000
 40
0.999999999999984
 50
210.000000000000510
 51
306.813854000000730
  0
LINE
  8
0
  6
CONTINUOUS
 62
256
 10
-389.896246000000020
 20
-111.268534000000000
 11
-391.408139000000010
 21
-108.649857999999990
  0
ARC
  8
0
  6
CONTINUOUS
 62
256
 10
-390.542112999999970
 20
-108.149857999999990
 40
0.999999999999993
 50
127.589541999998830
 51
210.000000000000510
  0
ARC
  8
0
  6
CONTINUOUS
 62
256
 10
-384.756802999999990
 20
-118.170311000000000
 40
0.999999999999984
 50
210.000000000000510
 51
305.284733000000980
  0
LINE
  8
0
  6
CONTINUOUS
 62
256
 10
-385.622828000000030
 20
-118.670311000000000
 11
-387.129783999999970
 21
-116.060186000000000
  0
ARC
  8
0
  6
CONTINUOUS
 62
256
 10
-386.263758999999990
 20
-115.560186000000000
 40
0.999999999999998
 50
125.739170000000210
 51
210.000000000000510
  0
ARC
  8
0
  6
CONTINUOUS
 62
256
 10
-399.260158999999990
 20
-93.049761000000004
 40
0.999999999999985
 50
141.618271999999000
 51
210.000000000000510
  0
LINE
  8
0
  6
CONTINUOUS
 62
256
 10
-398.542063999999980
 20
-96.293537000000001
 11
-400.126184000000020
 21
-93.549761000000004
  0
ARC
  8
0
  6
CONTINUOUS
 62
256
 10
-394.847817000000020
 20
-100.692161000000000
 40
1.000000000000006
 50
131.212270999999760
 51
210.000000000000510
  0
LINE
  8
0
  6
CONTINUOUS
 62
256
 10
-394.188924999999980
 20
-103.833395999999990
 11
-395.713843000000000
 21
-101.192161000000000
  0
ARC
  8
0
  6
CONTINUOUS
 62
256
 10
-393.322899000000010
 20
-103.333395999999990
 40
0.999999999999984
 50
210.000000000000510
 51
309.594067999999310
  0
ARC
  8
0
  6
CONTINUOUS
 62
256
 10
-397.875366999999980
 20
-90.651231999999993
 40
1.000000000000000
 50
90.000000000000000
 51
158.381728000000550
  0
ARC
  8
0
  6
CONTINUOUS
 62
256
 10
-406.707128000000010
 20
-87.151231999999993
 40
8.500000000000005
 50
321.618272000000050
 51
338.381728000000010
  0
ARC
  8
0
  6
CONTINUOUS
 62
256
 10
-397.676039000000000
 20
-95.793537000000001
 40
0.999999999999984
 50
210.000000000000510
 51
316.260205000000270
  0
LINE
  8
0
  6
CONTINUOUS
 62
256
 10
-394.707128000000010
 20
-89.651231999999993
 11
-397.875366999999980
 21
-89.651231999999993
  0
ARC
  8
0
  6
CONTINUOUS
 62
256
 10
-394.707128000000010
 20
-90.651231999999993
 40
0.999999999999976
 50
343.739794999999330
 51
90.000000000000000
  0
ARC
  8
0
  6
CONTINUOUS
 62
256
 10
-406.707128000000010
 20
-87.151231999999993
 40
13.500000000000004
 50
316.260204999999980
 51
343.739794999999960
  0
ARC
  8
0
  6
CONTINUOUS
 62
256
 10
-406.707128000000010
 20
-87.151231999999993
 40
17.000000000000014
 50
311.212270999999990
 51
348.787729000000010
  0
ARC
  8
0
  6
CONTINUOUS
 62
256
 10
-406.707128000000010
 20
-87.151231999999993
 40
21.999999999999986
 50
309.594067999999940
 51
350.405932000000010
  0
ARC
  8
0
  6
CONTINUOUS
 62
256
 10
-406.707128000000010
 20
-87.151231999999993
 40
30.500000000000014
 50
306.813854000000050
 51
353.186146000000010
  0
ARC
  8
0
  6
CONTINUOUS
 62
256
 10
-406.707128000000010
 20
-87.151231999999993
 40
25.499999999999986
 50
307.589541999999990
 51
352.410458000000010
  0
ARC
  8
0
  6
CONTINUOUS
 62
256
 10
-406.707128000000010
 20
-87.151231999999993
 40
33.999999999999986
 50
305.739169999999940
 51
354.260830000000000
  0
ARC
  8
0
  6
CONTINUOUS
 62
256
 10
-406.707128000000010
 20
-87.151231999999993
 40
39.000000000000000
 50
305.284733000000020
 51
354.715266999999980
  0
ARC
  8
0
  6
CONTINUOUS
 62
256
 10
-395.092398000000000
 20
-114.268534000000000
 40
1.000000000000000
 50
293.186146000000120
 51
30.000000000000544
  0
LINE
  8
0
  6
CONTINUOUS
 62
256
 10
-394.226373000000020
 20
-113.768534000000000
 11
-395.738266000000010
 21
-111.149857999999990
  0
ARC
  8
0
  6
CONTINUOUS
 62
256
 10
-396.604290999999990
 20
-111.649857999999990
 40
0.999999999999984
 50
30.000000000000544
 51
112.410458000000460
  0
ARC
  8
0
  6
CONTINUOUS
 62
256
 10
-390.818981000000010
 20
-121.670311000000000
 40
1.000000000000004
 50
294.715267000000150
 51
30.000000000000544
  0
LINE
  8
0
  6
CONTINUOUS
 62
256
 10
-389.952954999999970
 20
-121.170311000000000
 11
-391.459910999999980
 21
-118.560186000000000
  0
ARC
  8
0
  6
CONTINUOUS
 62
256
 10
-392.325937000000010
 20
-119.060186000000000
 40
0.999999999999984
 50
30.000000000000544
 51
114.260829999998650
  0
ARC
  8
0
  6
CONTINUOUS
 62
256
 10
-405.322336000000010
 20
-96.549761000000004
 40
0.999999999999984
 50
30.000000000000544
 51
98.381727999998901
  0
LINE
  8
0
  6
CONTINUOUS
 62
256
 10
-402.872190999999990
 20
-98.793537000000001
 11
-404.456311000000030
 21
-96.049761000000004
  0
ARC
  8
0
  6
CONTINUOUS
 62
256
 10
-400.909994999999980
 20
-104.192161000000000
 40
0.999999999999984
 50
30.000000000000544
 51
108.787729000000750
  0
LINE
  8
0
  6
CONTINUOUS
 62
256
 10
-398.519051999999990
 20
-106.333395999999990
 11
-400.043970000000000
 21
-103.692161000000000
  0
ARC
  8
0
  6
CONTINUOUS
 62
256
 10
-399.385077000000020
 20
-106.833395999999990
 40
0.999999999999993
 50
290.405931999999840
 51
30.000000000000544
  0
ARC
  8
0
  6
CONTINUOUS
 62
256
 10
-408.091919000000020
 20
-96.549761000000004
 40
0.999999999999998
 50
81.618272000001099
 51
149.999999999999460
  0
ARC
  8
0
  6
CONTINUOUS
 62
256
 10
-406.707128000000010
 20
-87.151231999999993
 40
8.500000000000002
 50
261.618271999999930
 51
278.381728000000070
  0
ARC
  8
0
  6
CONTINUOUS
 62
256
 10
-403.738217000000020
 20
-99.293537000000001
 40
1.000000000000011
 50
283.739795000001270
 51
30.000000000000544
  0
LINE
  8
0
  6
CONTINUOUS
 62
256
 10
-410.542063999999980
 20
-98.793537000000001
 11
-408.957945000000000
 21
-96.049761000000004
  0
ARC
  8
0
  6
CONTINUOUS
 62
256
 10
-409.676039000000000
 20
-99.293537000000001
 40
0.999999999999984
 50
149.999999999999460
 51
256.260204999998730
  0
ARC
  8
0
  6
CONTINUOUS
 62
256
 10
-406.707128000000010
 20
-87.151231999999993
 40
13.500000000000004
 50
256.260205000000040
 51
283.739794999999960
  0
ARC
  8
0
  6
CONTINUOUS
 62
256
 10
-412.504260999999990
 20
-104.192161000000000
 40
1.000000000000010
 50
71.212270999999262
 51
149.999999999999460
  0
LINE
  8
0
  6
CONTINUOUS
 62
256
 10
-414.895203999999980
 20
-106.333395999999990
 11
-413.370286000000020
 21
-103.692161000000000
  0
ARC
  8
0
  6
CONTINUOUS
 62
256
 10
-406.707128000000010
 20
-87.151231999999993
 40
16.999999999999993
 50
251.212271000000040
 51
288.787728999999960
  0
ARC
  8
0
  6
CONTINUOUS
 62
256
 10
-414.029179000000000
 20
-106.833395999999990
 40
0.999999999999984
 50
149.999999999999460
 51
249.594068000000160
  0
ARC
  8
0
  6
CONTINUOUS
 62
256
 10
-416.809963999999980
 20
-111.649857999999990
 40
1.000000000000009
 50
67.589541999999554
 51
149.999999999999460
  0
ARC
  8
0
  6
CONTINUOUS
 62
256
 10
-421.088319000000010
 20
-119.060186000000000
 40
0.999999999999992
 50
65.739170000001337
 51
149.999999999999460
  0
ARC
  8
0
  6
CONTINUOUS
 62
256
 10
-406.707128000000010
 20
-87.151231999999993
 40
21.999999999999996
 50
249.594067999999990
 51
290.405932000000010
  0
LINE
  8
0
  6
CONTINUOUS
 62
256
 10
-419.187883000000000
 20
-113.768534000000000
 11
-417.675990000000010
 21
-111.149857999999990
  0
ARC
  8
0
  6
CONTINUOUS
 62
256
 10
-418.321857000000020
 20
-114.268534000000000
 40
0.999999999999984
 50
149.999999999999460
 51
246.813853999999880
  0
ARC
  8
0
  6
CONTINUOUS
 62
256
 10
-406.707128000000010
 20
-87.151231999999993
 40
30.499999999999996
 50
246.813853999999990
 51
293.186146000000010
  0
ARC
  8
0
  6
CONTINUOUS
 62
256
 10
-406.707128000000010
 20
-87.151231999999993
 40
25.500000000000007
 50
247.589541999999940
 51
292.410458000000010
  0
ARC
  8
0
  6
CONTINUOUS
 62
256
 10
-406.707128000000010
 20
-87.151231999999993
 40
34.000000000000000
 50
245.739170000000000
 51
294.260830000000000
  0
ARC
  8
0
  6
CONTINUOUS
 62
256
 10
-406.707128000000010
 20
-87.151231999999993
 40
39.000000000000014
 50
245.284732999999960
 51
294.715266999999980
  0
LINE
  8
0
  6
CONTINUOUS
 62
256
 10
-423.461300999999990
 20
-121.170311000000000
 11
-421.954344999999990
 21
-118.560186000000000
  0
ARC
  8
0
  6
CONTINUOUS
 62
256
 10
-422.595275000000020
 20
-121.670311000000000
 40
0.999999999999984
 50
149.999999999999460
 51
245.284732999999870
  0
CIRCLE
  8
0
  6
CONTINUOUS
 62
256
 10
-406.707128000000010
 20
-87.151231999999993
 40
5.000000000000000
  0
ARC
  8
0
  6
CONTINUOUS
 62
256
 10
-428.657452999999980
 20
-118.170311000000000
 40
1.000000000000016
 50
234.715266999999020
 51
329.999999999999490
  0
ARC
  8
0
  6
CONTINUOUS
 62
256
 10
-427.150496999999970
 20
-115.560186000000000
 40
0.999999999999984
 50
329.999999999999490
 51
54.260829999999778
  0
ARC
  8
0
  6
CONTINUOUS
 62
256
 10
-441.531687999999970
 20
-90.651231999999993
 40
0.999999999999978
 50
5.739170000000447
 51
90.000000000000000
  0
ARC
  8
0
  6
CONTINUOUS
 62
256
 10
-444.545599999999980
 20
-90.651231999999993
 40
1.000000000000000
 50
90.000000000000000
 51
185.284732999999760
  0
ARC
  8
0
  6
CONTINUOUS
 62
256
 10
-432.974979000000020
 20
-90.651231999999993
 40
0.999999999999990
 50
7.589541999999997
 51
90.000000000000000
  0
ARC
  8
0
  6
CONTINUOUS
 62
256
 10
-424.384034999999980
 20
-110.768534000000000
 40
1.000000000000011
 50
233.186145999999270
 51
329.999999999999490
  0
ARC
  8
0
  6
CONTINUOUS
 62
256
 10
-422.872142000000000
 20
-108.149857999999990
 40
0.999999999999984
 50
329.999999999999490
 51
52.410458000001171
  0
ARC
  8
0
  6
CONTINUOUS
 62
256
 10
-435.998764999999990
 20
-90.651231999999993
 40
1.000000000000000
 50
90.000000000000000
 51
186.813853999999760
  0
ARC
  8
0
  6
CONTINUOUS
 62
256
 10
-427.413407000000010
 20
-90.651231999999993
 40
1.000000000000000
 50
90.000000000000000
 51
189.594067999999960
  0
ARC
  8
0
  6
CONTINUOUS
 62
256
 10
-424.363570999999980
 20
-90.651231999999993
 40
1.000000000000016
 50
11.212270999999729
 51
90.000000000000000
  0
ARC
  8
0
  6
CONTINUOUS
 62
256
 10
-420.091356000000020
 20
-103.333395999999990
 40
0.999999999999988
 50
230.405932000000690
 51
329.999999999999490
  0
ARC
  8
0
  6
CONTINUOUS
 62
256
 10
-418.566439000000000
 20
-100.692161000000000
 40
0.999999999999984
 50
329.999999999999490
 51
48.787728999999715
  0
ARC
  8
0
  6
CONTINUOUS
 62
256
 10
-415.738217000000020
 20
-95.793537000000001
 40
1.000000000000005
 50
223.739794999999760
 51
329.999999999999490
  0
ARC
  8
0
  6
CONTINUOUS
 62
256
 10
-418.707128000000010
 20
-90.651231999999993
 40
1.000000000000000
 50
90.000000000000000
 51
196.260205000000670
  0
ARC
  8
0
  6
CONTINUOUS
 62
256
 10
-415.538888999999980
 20
-90.651231999999993
 40
1.000000000000013
 50
21.618271999999475
 51
90.000000000000000
  0
ARC
  8
0
  6
CONTINUOUS
 62
256
 10
-414.154096999999980
 20
-93.049761000000004
 40
0.999999999999984
 50
329.999999999999490
 51
38.381728000001026
  0
ARC
  8
0
  6
CONTINUOUS
 62
256
 10
-406.707128000000010
 20
-87.151231999999993
 40
38.999999999999986
 50
185.284732999999990
 51
234.715266999999980
  0
ARC
  8
0
  6
CONTINUOUS
 62
256
 10
-406.707128000000010
 20
-87.151231999999993
 40
30.499999999999986
 50
186.813853999999990
 51
233.186146000000040
  0
ARC
  8
0
  6
CONTINUOUS
 62
256
 10
-406.707128000000010
 20
-87.151231999999993
 40
34.000000000000028
 50
185.739169999999970
 51
234.260829999999970
  0
ARC
  8
0
  6
CONTINUOUS
 62
256
 10
-406.707128000000010
 20
-87.151231999999993
 40
25.500000000000011
 50
187.589541999999990
 51
232.410458000000030
  0
ARC
  8
0
  6
CONTINUOUS
 62
256
 10
-406.707128000000010
 20
-87.151231999999993
 40
21.999999999999975
 50
189.594067999999960
 51
230.405932000000060
  0
ARC
  8
0
  6
CONTINUOUS
 62
256
 10
-406.707128000000010
 20
-87.151231999999993
 40
16.999999999999993
 50
191.212271000000020
 51
228.787728999999980
  0
ARC
  8
0
  6
CONTINUOUS
 62
256
 10
-406.707128000000010
 20
-87.151231999999993
 40
13.499999999999989
 50
196.260205000000010
 51
223.739794999999960
  0
ARC
  8
0
  6
CONTINUOUS
 62
256
 10
-406.707128000000010
 20
-87.151231999999993
 40
8.500000000000016
 50
201.618271999999960
 51
218.381727999999950
  0
LINE
  8
0
  6
CONTINUOUS
 62
256
 10
-423.518010000000000
 20
-111.268534000000000
 11
-422.006117000000020
 21
-108.649857999999990
  0
LINE
  8
0
  6
CONTINUOUS
 62
256
 10
-444.545599999999980
 20
-89.651231999999993
 11
-441.531687999999970
 21
-89.651231999999993
  0
LINE
  8
0
  6
CONTINUOUS
 62
256
 10
-427.791428000000000
 20
-118.670311000000000
 11
-426.284471999999990
 21
-116.060186000000000
  0
LINE
  8
0
  6
CONTINUOUS
 62
256
 10
-419.225330999999980
 20
-103.833395999999990
 11
-417.700413000000030
 21
-101.192161000000000
  0
LINE
  8
0
  6
CONTINUOUS
 62
256
 10
-414.872190999999990
 20
-96.293537000000001
 11
-413.288072000000000
 21
-93.549761000000004
  0
LINE
  8
0
  6
CONTINUOUS
 62
256
 10
-418.707128000000010
 20
-89.651231999999993
 11
-415.538888999999980
 21
-89.651231999999993
  0
LINE
  8
0
  6
CONTINUOUS
 62
256
 10
-427.413407000000010
 20
-89.651231999999993
 11
-424.363570999999980
 21
-89.651231999999993
  0
LINE
  8
0
  6
CONTINUOUS
 62
256
 10
-435.998764999999990
 20
-89.651231999999993
 11
-432.974979000000020
 21
-89.651231999999993
  0
ARC
  8
0
  6
CONTINUOUS
 62
256
 10
-406.707128000000010
 20
-87.151231999999993
 40
38.999999999999993
 50
65.284733000000031
 51
114.715266999999980
  0
ARC
  8
0
  6
CONTINUOUS
 62
256
 10
-406.707128000000010
 20
-87.151231999999993
 40
34.000000000000000
 50
65.739169999999987
 51
114.260830000000010
  0
ARC
  8
0
  6
CONTINUOUS
 62
256
 10
-406.707128000000010
 20
-87.151231999999993
 40
25.500000000000007
 50
67.589541999999966
 51
112.410458000000050
  0
ARC
  8
0
  6
CONTINUOUS
 62
256
 10
-406.707128000000010
 20
-87.151231999999993
 40
30.500000000000004
 50
66.813853999999992
 51
113.186146000000010
  0
ARC
  8
0
  6
CONTINUOUS
 62
256
 10
-406.707128000000010
 20
-87.151231999999993
 40
21.999999999999996
 50
69.594067999999993
 51
110.405932000000020
  0
ARC
  8
0
  6
CONTINUOUS
 62
256
 10
-406.707128000000010
 20
-87.151231999999993
 40
16.999999999999993
 50
71.212271000000044
 51
108.787728999999960
  0
ARC
  8
0
  6
CONTINUOUS
 62
256
 10
-406.707128000000010
 20
-87.151231999999993
 40
13.500000000000004
 50
76.260205000000070
 51
103.739794999999930
  0
ARC
  8
0
  6
CONTINUOUS
 62
256
 10
-403.738217000000020
 20
-75.008927000000000
 40
0.999999999999984
 50
329.999999999999490
 51
76.260204999998734
  0
ARC
  8
0
  6
CONTINUOUS
 62
256
 10
-399.385077000000020
 20
-67.469067999999993
 40
0.999999999999984
 50
329.999999999999490
 51
69.594068000000149
  0
LINE
  8
0
  6
CONTINUOUS
 62
256
 10
-398.519051999999990
 20
-67.969067999999993
 11
-400.043970000000000
 21
-70.610303000000002
  0
ARC
  8
0
  6
CONTINUOUS
 62
256
 10
-400.909994999999980
 20
-70.110303000000002
 40
1.000000000000010
 50
251.212270999999220
 51
329.999999999999490
  0
LINE
  8
0
  6
CONTINUOUS
 62
256
 10
-402.872190999999990
 20
-75.508927000000000
 11
-404.456311000000030
 21
-78.252702999999997
  0
ARC
  8
0
  6
CONTINUOUS
 62
256
 10
-405.322336000000010
 20
-77.752702999999997
 40
0.999999999999998
 50
261.618272000001130
 51
329.999999999999490
  0
ARC
  8
0
  6
CONTINUOUS
 62
256
 10
-392.325937000000010
 20
-55.242277999999999
 40
0.999999999999992
 50
245.739170000001340
 51
329.999999999999490
  0
LINE
  8
0
  6
CONTINUOUS
 62
256
 10
-389.952954999999970
 20
-53.132154000000000
 11
-391.459910999999980
 21
-55.742277999999999
  0
ARC
  8
0
  6
CONTINUOUS
 62
256
 10
-390.818981000000010
 20
-52.632154000000000
 40
0.999999999999984
 50
329.999999999999490
 51
65.284732999999861
  0
ARC
  8
0
  6
CONTINUOUS
 62
256
 10
-396.604290999999990
 20
-62.652605999999999
 40
1.000000000000003
 50
247.589541999999370
 51
329.999999999999490
  0
LINE
  8
0
  6
CONTINUOUS
 62
256
 10
-394.226373000000020
 20
-60.533929999999998
 11
-395.738266000000010
 21
-63.152605999999999
  0
ARC
  8
0
  6
CONTINUOUS
 62
256
 10
-395.092398000000000
 20
-60.033929999999998
 40
0.999999999999984
 50
329.999999999999490
 51
66.813853999999878
  0
ARC
  8
0
  6
CONTINUOUS
 62
256
 10
-406.707128000000010
 20
-87.151231999999993
 40
38.999999999999986
 50
5.284733000000007
 51
54.715266999999990
  0
ARC
  8
0
  6
CONTINUOUS
 62
256
 10
-406.707128000000010
 20
-87.151231999999993
 40
34.000000000000028
 50
5.739170000000004
 51
54.260829999999970
  0
ARC
  8
0
  6
CONTINUOUS
 62
256
 10
-406.707128000000010
 20
-87.151231999999993
 40
25.500000000000011
 50
7.589541999999985
 51
52.410458000000027
  0
ARC
  8
0
  6
CONTINUOUS
 62
256
 10
-406.707128000000010
 20
-87.151231999999993
 40
30.499999999999986
 50
6.813854000000005
 51
53.186146000000036
  0
ARC
  8
0
  6
CONTINUOUS
 62
256
 10
-406.707128000000010
 20
-87.151231999999993
 40
21.999999999999979
 50
9.594068000000020
 51
50.405932000000043
  0
ARC
  8
0
  6
CONTINUOUS
 62
256
 10
-406.707128000000010
 20
-87.151231999999993
 40
16.999999999999993
 50
11.212271000000010
 51
48.787728999999970
  0
ARC
  8
0
  6
CONTINUOUS
 62
256
 10
-406.707128000000010
 20
-87.151231999999993
 40
13.499999999999989
 50
16.260205000000035
 51
43.739795000000001
  0
ARC
  8
0
  6
CONTINUOUS
 62
256
 10
-394.707128000000010
 20
-83.651231999999993
 40
1.000000000000000
 50
270.000000000000000
 51
16.260205000000671
  0
LINE
  8
0
  6
CONTINUOUS
 62
256
 10
-394.707128000000010
 20
-84.651231999999993
 11
-397.875366999999980
 21
-84.651231999999993
  0
ARC
  8
0
  6
CONTINUOUS
 62
256
 10
-397.676039000000000
 20
-78.508927000000000
 40
1.000000000000005
 50
43.739794999999773
 51
149.999999999999460
  0
ARC
  8
0
  6
CONTINUOUS
 62
256
 10
-406.707128000000010
 20
-87.151231999999993
 40
8.500000000000016
 50
21.618271999999980
 51
38.381727999999960
  0
ARC
  8
0
  6
CONTINUOUS
 62
256
 10
-397.875366999999980
 20
-83.651231999999993
 40
1.000000000000013
 50
201.618271999999450
 51
270.000000000000000
  0
ARC
  8
0
  6
CONTINUOUS
 62
256
 10
-393.322899000000010
 20
-70.969067999999993
 40
0.999999999999988
 50
50.405932000000682
 51
149.999999999999460
  0
LINE
  8
0
  6
CONTINUOUS
 62
256
 10
-394.188924999999980
 20
-70.469067999999993
 11
-395.713843000000000
 21
-73.110303000000002
  0
ARC
  8
0
  6
CONTINUOUS
 62
256
 10
-394.847817000000020
 20
-73.610303000000002
 40
0.999999999999984
 50
149.999999999999460
 51
228.787728999999730
  0
LINE
  8
0
  6
CONTINUOUS
 62
256
 10
-398.542063999999980
 20
-78.008927000000000
 11
-400.126184000000020
 21
-80.752702999999997
  0
ARC
  8
0
  6
CONTINUOUS
 62
256
 10
-399.260158999999990
 20
-81.252702999999997
 40
0.999999999999984
 50
149.999999999999460
 51
218.381728000001000
  0
ARC
  8
0
  6
CONTINUOUS
 62
256
 10
-386.263758999999990
 20
-58.742277999999999
 40
0.999999999999984
 50
149.999999999999460
 51
234.260829999999740
  0
LINE
  8
0
  6
CONTINUOUS
 62
256
 10
-385.622828000000030
 20
-55.632154000000000
 11
-387.129783999999970
 21
-58.242277999999999
  0
ARC
  8
0
  6
CONTINUOUS
 62
256
 10
-384.756802999999990
 20
-56.132154000000000
 40
1.000000000000016
 50
54.715266999999017
 51
149.999999999999460
  0
ARC
  8
0
  6
CONTINUOUS
 62
256
 10
-390.542112999999970
 20
-66.152606000000006
 40
0.999999999999984
 50
149.999999999999460
 51
232.410458000001200
  0
LINE
  8
0
  6
CONTINUOUS
 62
256
 10
-389.896246000000020
 20
-63.033929999999998
 11
-391.408139000000010
 21
-65.652606000000006
  0
ARC
  8
0
  6
CONTINUOUS
 62
256
 10
-389.030219999999990
 20
-63.533929999999998
 40
1.000000000000011
 50
53.186145999999269
 51
149.999999999999460
  0
ARC
  8
0
  6
CONTINUOUS
 62
256
 10
-368.868654999999990
 20
-83.651231999999993
 40
1.000000000000000
 50
270.000000000000000
 51
5.284732999999778
  0
LINE
  8
0
  6
CONTINUOUS
 62
256
 10
-368.868654999999990
 20
-84.651231999999993
 11
-371.882567999999990
 21
-84.651231999999993
  0
ARC
  8
0
  6
CONTINUOUS
 62
256
 10
-371.882567999999990
 20
-83.651231999999993
 40
0.999999999999978
 50
185.739170000000430
 51
270.000000000000000
  0
ARC
  8
0
  6
CONTINUOUS
 62
256
 10
-377.415490999999970
 20
-83.651231999999993
 40
1.000000000000000
 50
270.000000000000000
 51
6.813853999999752
  0
LINE
  8
0
  6
CONTINUOUS
 62
256
 10
-377.415490999999970
 20
-84.651231999999993
 11
-380.439277000000000
 21
-84.651231999999993
  0
ARC
  8
0
  6
CONTINUOUS
 62
256
 10
-380.439277000000000
 20
-83.651231999999993
 40
0.999999999999990
 50
187.589541999999990
 51
270.000000000000000
  0
ARC
  8
0
  6
CONTINUOUS
 62
256
 10
-386.000849000000020
 20
-83.651231999999993
 40
1.000000000000000
 50
270.000000000000000
 51
9.594067999999961
  0
LINE
  8
0
  6
CONTINUOUS
 62
256
 10
-386.000849000000020
 20
-84.651231999999993
 11
-389.050683999999990
 21
-84.651231999999993
  0
ARC
  8
0
  6
CONTINUOUS
 62
256
 10
-389.050683999999990
 20
-83.651231999999993
 40
1.000000000000016
 50
191.212270999999730
 51
270.000000000000000
  0
ARC
  8
0
  6
CONTINUOUS
 62
256
 10
-409.676039000000000
 20
-75.008927000000000
 40
1.000000000000011
 50
103.739795000001280
 51
210.000000000000510
  0
LINE
  8
0
  6
CONTINUOUS
 62
256
 10
-410.542063999999980
 20
-75.508927000000000
 11
-408.957945000000000
 21
-78.252702999999997
  0
ARC
  8
0
  6
CONTINUOUS
 62
256
 10
-406.707128000000010
 20
-87.151231999999993
 40
8.500000000000002
 50
81.618271999999948
 51
98.381728000000052
  0
ARC
  8
0
  6
CONTINUOUS
 62
256
 10
-408.091919000000020
 20
-77.752702999999997
 40
0.999999999999984
 50
210.000000000000510
 51
278.381727999998870
  0
LINE
  8
0
  6
CONTINUOUS
 62
256
 10
-435.998764999999990
 20
-84.651231999999993
 11
-432.974979000000020
 21
-84.651231999999993
  0
LINE
  8
0
  6
CONTINUOUS
 62
256
 10
-427.413407000000010
 20
-84.651231999999993
 11
-424.363570999999980
 21
-84.651231999999993
  0
LINE
  8
0
  6
CONTINUOUS
 62
256
 10
-418.707128000000010
 20
-84.651231999999993
 11
-415.538888999999980
 21
-84.651231999999993
  0
LINE
  8
0
  6
CONTINUOUS
 62
256
 10
-414.872190999999990
 20
-78.008927000000000
 11
-413.288072000000000
 21
-80.752702999999997
  0
LINE
  8
0
  6
CONTINUOUS
 62
256
 10
-419.225330999999980
 20
-70.469067999999993
 11
-417.700413000000030
 21
-73.110303000000002
  0
LINE
  8
0
  6
CONTINUOUS
 62
256
 10
-427.791428000000000
 20
-55.632154000000000
 11
-426.284471999999990
 21
-58.242277999999999
  0
LINE
  8
0
  6
CONTINUOUS
 62
256
 10
-423.518010000000000
 20
-63.033929999999998
 11
-422.006117000000020
 21
-65.652606000000006
  0
ARC
  8
0
  6
CONTINUOUS
 62
256
 10
-406.707128000000010
 20
-87.151231999999993
 40
8.500000000000005
 50
141.618272000000020
 51
158.381728000000040
  0
ARC
  8
0
  6
CONTINUOUS
 62
256
 10
-406.707128000000010
 20
-87.151231999999993
 40
13.500000000000004
 50
136.260205000000010
 51
163.739794999999960
  0
ARC
  8
0
  6
CONTINUOUS
 62
256
 10
-406.707128000000010
 20
-87.151231999999993
 40
17.000000000000014
 50
131.212271000000020
 51
168.787728999999980
  0
ARC
  8
0
  6
CONTINUOUS
 62
256
 10
-406.707128000000010
 20
-87.151231999999993
 40
21.999999999999986
 50
129.594067999999940
 51
170.405931999999980
  0
ARC
  8
0
  6
CONTINUOUS
 62
256
 10
-406.707128000000010
 20
-87.151231999999993
 40
25.499999999999996
 50
127.589541999999970
 51
172.410458000000010
  0
ARC
  8
0
  6
CONTINUOUS
 62
256
 10
-406.707128000000010
 20
-87.151231999999993
 40
34.000000000000007
 50
125.739170000000040
 51
174.260830000000000
  0
ARC
  8
0
  6
CONTINUOUS
 62
256
 10
-406.707128000000010
 20
-87.151231999999993
 40
30.499999999999989
 50
126.813853999999980
 51
173.186145999999980
  0
ARC
  8
0
  6
CONTINUOUS
 62
256
 10
-406.707128000000010
 20
-87.151231999999993
 40
39.000000000000000
 50
125.284733000000000
 51
174.715267000000010
  0
ARC
  8
0
  6
CONTINUOUS
 62
256
 10
-414.154096999999980
 20
-81.252702999999997
 40
0.999999999999985
 50
321.618271999998970
 51
30.000000000000544
  0
ARC
  8
0
  6
CONTINUOUS
 62
256
 10
-415.538888999999980
 20
-83.651231999999993
 40
1.000000000000000
 50
270.000000000000000
 51
338.381728000000520
  0
ARC
  8
0
  6
CONTINUOUS
 62
256
 10
-418.707128000000010
 20
-83.651231999999993
 40
0.999999999999976
 50
163.739794999999330
 51
270.000000000000000
  0
ARC
  8
0
  6
CONTINUOUS
 62
256
 10
-415.738217000000020
 20
-78.508927000000000
 40
0.999999999999984
 50
30.000000000000544
 51
136.260205000000240
  0
ARC
  8
0
  6
CONTINUOUS
 62
256
 10
-418.566439000000000
 20
-73.610303000000002
 40
1.000000000000006
 50
311.212270999999760
 51
30.000000000000544
  0
ARC
  8
0
  6
CONTINUOUS
 62
256
 10
-420.091356000000020
 20
-70.969067999999993
 40
0.999999999999984
 50
30.000000000000544
 51
129.594067999999310
  0
ARC
  8
0
  6
CONTINUOUS
 62
256
 10
-424.363570999999980
 20
-83.651231999999993
 40
1.000000000000000
 50
270.000000000000000
 51
348.787729000000300
  0
ARC
  8
0
  6
CONTINUOUS
 62
256
 10
-427.413407000000010
 20
-83.651231999999993
 40
0.999999999999978
 50
170.405932000000040
 51
270.000000000000000
  0
ARC
  8
0
  6
CONTINUOUS
 62
256
 10
-422.872142000000000
 20
-66.152606000000006
 40
0.999999999999993
 50
307.589541999998800
 51
30.000000000000544
  0
ARC
  8
0
  6
CONTINUOUS
 62
256
 10
-424.384034999999980
 20
-63.533929999999998
 40
0.999999999999984
 50
30.000000000000544
 51
126.813854000000730
  0
ARC
  8
0
  6
CONTINUOUS
 62
256
 10
-432.974979000000020
 20
-83.651231999999993
 40
1.000000000000000
 50
270.000000000000000
 51
352.410458000000010
  0
ARC
  8
0
  6
CONTINUOUS
 62
256
 10
-427.150496999999970
 20
-58.742277999999999
 40
1.000000000000004
 50
305.739170000000000
 51
30.000000000000544
  0
ARC
  8
0
  6
CONTINUOUS
 62
256
 10
-428.657452999999980
 20
-56.132154000000000
 40
0.999999999999984
 50
30.000000000000544
 51
125.284733000000970
  0
ARC
  8
0
  6
CONTINUOUS
 62
256
 10
-422.595275000000020
 20
-52.632154000000000
 40
1.000000000000004
 50
114.715267000000150
 51
210.000000000000510
  0
LINE
  8
0
  6
CONTINUOUS
 62
256
 10
-423.461300999999990
 20
-53.132154000000000
 11
-421.954344999999990
 21
-55.742277999999999
  0
ARC
  8
0
  6
CONTINUOUS
 62
256
 10
-418.321857000000020
 20
-60.033929999999998
 40
1.000000000000000
 50
113.186146000000120
 51
210.000000000000510
  0
LINE
  8
0
  6
CONTINUOUS
 62
256
 10
-419.187883000000000
 20
-60.533929999999998
 11
-417.675990000000010
 21
-63.152605999999999
  0
ARC
  8
0
  6
CONTINUOUS
 62
256
 10
-421.088319000000010
 20
-55.242277999999999
 40
0.999999999999984
 50
210.000000000000510
 51
294.260829999998690
  0
ARC
  8
0
  6
CONTINUOUS
 62
256
 10
-416.809963999999980
 20
-62.652605999999999
 40
0.999999999999984
 50
210.000000000000510
 51
292.410458000000630
  0
ARC
  8
0
  6
CONTINUOUS
 62
256
 10
-414.029179000000000
 20
-67.469067999999993
 40
0.999999999999993
 50
110.405931999999860
 51
210.000000000000510
  0
LINE
  8
0
  6
CONTINUOUS
 62
256
 10
-414.895203999999980
 20
-67.969067999999993
 11
-413.370286000000020
 21
-70.610303000000002
  0
ARC
  8
0
  6
CONTINUOUS
 62
256
 10
-412.504260999999990
 20
-70.110303000000002
 40
0.999999999999984
 50
210.000000000000510
 51
288.787729000000750
  0
LINE
  8
0
  6
CONTINUOUS
 62
256
 10
-444.545599999999980
 20
-84.651231999999993
 11
-441.531687999999970
 21
-84.651231999999993
  0
ARC
  8
0
  6
CONTINUOUS
 62
256
 10
-435.998764999999990
 20
-83.651231999999993
 40
1.000000000000019
 50
173.186146000000240
 51
270.000000000000000
  0
ARC
  8
0
  6
CONTINUOUS
 62
256
 10
-444.545599999999980
 20
-83.651231999999993
 40
1.000000000000027
 50
174.715267000000240
 51
270.000000000000000
  0
ARC
  8
0
  6
CONTINUOUS
 62
256
 10
-441.531687999999970
 20
-83.651231999999993
 40
1.000000000000000
 50
270.000000000000000
 51
354.260829999999540
  0
ARC
  8
0
  6
CONTINUOUS
 62
256
 10
-753.307128000000030
 20
-87.151231999999993
 40
400.600000000000020
 50
354.256318000000020
 51
0.000000000000000
  0
ARC
  8
0
  6
CONTINUOUS
 62
256
 10
-361.285181000000020
 20
-126.582099000000000
 40
6.600000000000017
 50
315.000000000000170
 51
354.256318000000020
  0
ARC
  8
0
  6
CONTINUOUS
 62
256
 10
-753.307128000000030
 20
-87.151231999999993
 40
390.797000000000030
 50
354.582036000000020
 51
0.000000000000000
  0
ARC
  8
0
  6
CONTINUOUS
 62
256
 10
-367.242645999999980
 20
-123.767197000000000
 40
3.000000000000014
 50
315.000000000000230
 51
354.582036000000070
  0
ARC
  8
0
  6
CONTINUOUS
 62
256
 10
-446.171609999999990
 20
-123.767197000000000
 40
2.999999999999996
 50
185.417963999999930
 51
224.999999999999800
  0
ARC
  8
0
  6
CONTINUOUS
 62
256
 10
-60.107128000000003
 20
-87.151231999999993
 40
390.797000000000030
 50
180.000000000000000
 51
185.417963999999980
  0
ARC
  8
0
  6
CONTINUOUS
 62
256
 10
-430.246925999999970
 20
-114.523123000000000
 40
20.797000000000015
 50
225.000000000000000
 51
264.998350000000070
  0
LINE
  8
0
  6
CONTINUOUS
 62
256
 10
-444.952625000000010
 20
-129.228822000000010
 11
-448.292930000000010
 21
-125.888516999999990
  0
ARC
  8
0
  6
CONTINUOUS
 62
256
 10
-406.707128000000010
 20
154.448768000000000
 40
290.797000000000030
 50
264.998350000000070
 51
270.000000000000000
  0
ARC
  8
0
  6
CONTINUOUS
 62
256
 10
-446.171609999999990
 20
-50.535266999999997
 40
3.000000000000014
 50
135.000000000000200
 51
174.582035999999930
  0
ARC
  8
0
  6
CONTINUOUS
 62
256
 10
-60.107128000000003
 20
-87.151231999999993
 40
390.797000000000030
 50
174.582035999999990
 51
180.000000000000000
  0
ARC
  8
0
  6
CONTINUOUS
 62
256
 10
-430.246925999999970
 20
-59.779342000000000
 40
20.797000000000001
 50
95.001650000000041
 51
135.000000000000030
  0
LINE
  8
0
  6
CONTINUOUS
 62
256
 10
-444.952625000000010
 20
-45.073642000000000
 11
-448.292930000000010
 21
-48.413947000000000
  0
ARC
  8
0
  6
CONTINUOUS
 62
256
 10
-406.707128000000010
 20
-328.751232000000020
 40
290.797000000000030
 50
90.000000000000000
 51
95.001649999999998
  0
ARC
  8
0
  6
CONTINUOUS
 62
256
 10
-367.242645999999980
 20
-50.535266999999997
 40
2.999999999999997
 50
5.417964000000066
 51
44.999999999999808
  0
ARC
  8
0
  6
CONTINUOUS
 62
256
 10
-753.307128000000030
 20
-87.151231999999993
 40
390.797000000000030
 50
0.000000000000000
 51
5.417964000000000
  0
ARC
  8
0
  6
CONTINUOUS
 62
256
 10
-383.167329999999990
 20
-59.779342000000000
 40
20.797000000000008
 50
44.999999999999972
 51
84.998349999999959
  0
LINE
  8
0
  6
CONTINUOUS
 62
256
 10
-368.461630000000010
 20
-45.073642000000000
 11
-365.121325000000010
 21
-48.413947000000000
  0
ARC
  8
0
  6
CONTINUOUS
 62
256
 10
-406.707128000000010
 20
-328.751232000000020
 40
290.797000000000030
 50
84.998350000000002
 51
90.000000000000000
  0
ARC
  8
0
  6
CONTINUOUS
 62
256
 10
-378.643371000000000
 20
-124.141299000000000
 40
20.599999999999991
 50
275.752282999999860
 51
315.000000000000000
  0
LINE
  8
0
  6
CONTINUOUS
 62
256
 10
-364.076972000000010
 20
-138.707698999999990
 11
-356.618275999999980
 21
-131.249004000000010
  0
ARC
  8
0
  6
CONTINUOUS
 62
256
 10
-406.707128000000010
 20
154.448768000000000
 40
300.600000000000020
 50
270.000000000000000
 51
275.752282999999980
  0
ARC
  8
0
  6
CONTINUOUS
 62
256
 10
-378.643371000000000
 20
-124.141299000000000
 40
10.796999999999988
 50
275.752283000000030
 51
315.000000000000000
  0
LINE
  8
0
  6
CONTINUOUS
 62
256
 10
-371.008738999999990
 20
-131.775931000000010
 11
-365.121325000000010
 21
-125.888516999999990
  0
ARC
  8
0
  6
CONTINUOUS
 62
256
 10
-406.707128000000010
 20
154.448768000000000
 40
290.797000000000030
 50
270.000000000000000
 51
275.752282999999980
  0
ARC
  8
0
  6
CONTINUOUS
 62
256
 10
-406.707128000000010
 20
154.448768000000000
 40
300.600000000000020
 50
264.247717000000020
 51
270.000000000000000
  0
LINE
  8
0
  6
CONTINUOUS
 62
256
 10
-449.337284000000010
 20
-138.707698999999990
 11
-456.795978999999990
 21
-131.249004000000010
  0
ARC
  8
0
  6
CONTINUOUS
 62
256
 10
-434.770884000000020
 20
-124.141299000000000
 40
20.599999999999991
 50
225.000000000000000
 51
264.247716999999910
  0
ARC
  8
0
  6
CONTINUOUS
 62
256
 10
-60.107128000000003
 20
-87.151231999999993
 40
400.600000000000020
 50
180.000000000000000
 51
185.743681999999980
  0
ARC
  8
0
  6
CONTINUOUS
 62
256
 10
-452.129075000000000
 20
-126.582099000000000
 40
6.599999999999973
 50
185.743682000000060
 51
224.999999999999830
  0
ARC
  8
0
  6
CONTINUOUS
 62
256
 10
-406.707128000000010
 20
-328.751232000000020
 40
300.600000000000020
 50
90.000000000000000
 51
95.752283000000006
  0
LINE
  8
0
  6
CONTINUOUS
 62
256
 10
-449.337284000000010
 20
-35.594765000000002
 11
-456.795978999999990
 21
-43.053460000000001
  0
ARC
  8
0
  6
CONTINUOUS
 62
256
 10
-434.770884000000020
 20
-50.161164999999997
 40
20.600000000000005
 50
95.752283000000077
 51
135.000000000000000
  0
ARC
  8
0
  6
CONTINUOUS
 62
256
 10
-60.107128000000003
 20
-87.151231999999993
 40
400.600000000000080
 50
174.256317999999990
 51
180.000000000000000
  0
ARC
  8
0
  6
CONTINUOUS
 62
256
 10
-452.129075000000000
 20
-47.720365000000001
 40
6.600000000000017
 50
135.000000000000170
 51
174.256317999999940
  0
ARC
  8
0
  6
CONTINUOUS
 62
256
 10
-406.707128000000010
 20
-328.751232000000020
 40
300.600000000000020
 50
84.247716999999994
 51
90.000000000000000
  0
LINE
  8
0
  6
CONTINUOUS
 62
256
 10
-364.076972000000010
 20
-35.594765000000002
 11
-356.618275999999980
 21
-43.053460000000001
  0
ARC
  8
0
  6
CONTINUOUS
 62
256
 10
-378.643371000000000
 20
-50.161164999999997
 40
20.599999999999994
 50
45.000000000000014
 51
84.247716999999938
  0
ARC
  8
0
  6
CONTINUOUS
 62
256
 10
-753.307128000000030
 20
-87.151231999999993
 40
400.600000000000020
 50
0.000000000000000
 51
5.743682000000000
  0
ARC
  8
0
  6
CONTINUOUS
 62
256
 10
-361.285181000000020
 20
-47.720365000000001
 40
6.599999999999972
 50
5.743682000000001
 51
44.999999999999829
  0
LINE
  8
0
  6
CONTINUOUS
 62
256
 10
-376.719141999999980
 20
-144.651231999999990
 11
-370.707128000000010
 21
-144.651231999999990
  0
LINE
  8
0
  6
CONTINUOUS
 62
256
 10
-370.707128000000010
 20
-143.151193000000010
 11
-370.707128000000010
 21
-144.651231999999990
  0
LINE
  8
0
  6
CONTINUOUS
 62
256
 10
-442.707128000000010
 20
-143.151193000000010
 11
-442.707128000000010
 21
-144.651231999999990
  0
LINE
  8
0
  6
CONTINUOUS
 62
256
 10
-442.707128000000010
 20
-144.651231999999990
 11
-436.699627000000020
 21
-144.651231999999990
  0
LINE
  8
0
  6
CONTINUOUS
 62
256
 10
-453.807127999999980
 20
-35.651232000000000
 11
-454.207128000000010
 21
-36.051231999999999
  0
LINE
  8
0
  6
CONTINUOUS
 62
256
 10
-450.207128000000010
 20
-35.651232000000000
 11
-453.807127999999980
 21
-35.651232000000000
  0
LINE
  8
0
  6
CONTINUOUS
 62
256
 10
-454.207128000000010
 20
-40.464609000000003
 11
-454.207128000000010
 21
-36.051231999999999
  0
LINE
  8
0
  6
CONTINUOUS
 62
256
 10
-374.207128000000010
 20
-25.146438000000000
 11
-450.207128000000010
 21
-26.490478000000000
  0
LINE
  8
0
  6
CONTINUOUS
 62
256
 10
-450.207128000000010
 20
-26.481345999999998
 11
-450.207128000000010
 21
-36.464609000000003
  0
LINE
  8
0
  6
CONTINUOUS
 62
256
 10
-363.207128000000010
 20
-36.464609000000003
 11
-363.207128000000010
 21
-25.851434999999999
  0
LINE
  8
0
  6
CONTINUOUS
 62
256
 10
-363.706976000000000
 20
-25.342786000000000
 11
-363.207128000000010
 21
-25.851434999999999
  0
LINE
  8
0
  6
CONTINUOUS
 62
256
 10
-374.207128000000010
 20
-25.159504999999999
 11
-363.706976000000000
 21
-25.342786000000000
  0
LINE
  8
0
  6
CONTINUOUS
 62
256
 10
-374.207128000000010
 20
-25.146438000000000
 11
-374.207128000000010
 21
-30.044511000000000
  0
LINE
  8
0
  6
CONTINUOUS
 62
256
 10
-363.207128000000010
 20
-35.651232000000000
 11
-359.607127999999990
 21
-35.651232000000000
  0
LINE
  8
0
  6
CONTINUOUS
 62
256
 10
-359.607127999999990
 20
-35.651232000000000
 11
-359.207128000000010
 21
-36.051231999999999
  0
LINE
  8
0
  6
CONTINUOUS
 62
256
 10
-359.207128000000010
 20
-40.464609000000003
 11
-359.207128000000010
 21
-36.051231999999999
  0
LINE
  8
0
  6
DASHDOT
 62
256
 10
-314.696398999999990
 20
129.510617999999990
 11
45.166888999999998
 21
129.510617999999990
  0
LINE
  8
0
  6
DASHDOT
 62
256
 10
-132.499380000000000
 20
129.510617999999990
 11
-85.392273000000003
 21
129.510617999999990
  0
LINE
  8
0
  6
CONTINUOUS
 62
256
 10
-205.675380999999990
 20
75.510617999999994
 11
-283.180226000000000
 21
75.510617999999994
  0
LINE
  8
0
  6
CONTINUOUS
 62
256
 10
-205.675380999999990
 20
75.510617999999994
 11
-205.675380999999990
 21
129.510617999999990
  0
LINE
  8
0
  6
CONTINUOUS
 62
256
 10
-205.675380999999990
 20
183.510617999999990
 11
-205.675380999999990
 21
129.510617999999990
  0
LINE
  8
0
  6
CONTINUOUS
 62
256
 10
-205.675380999999990
 20
183.510617999999990
 11
-283.180226000000000
 21
183.510617999999990
  0
LINE
  8
0
  6
CONTINUOUS
 62
256
 10
-121.675381000000000
 20
182.010617999999990
 11
-205.675380999999990
 21
182.010617999999990
  0
LINE
  8
0
  6
CONTINUOUS
 62
256
 10
-205.675380999999990
 20
180.010617999999990
 11
-121.675381000000000
 21
180.010617999999990
  0
LINE
  8
0
  6
CONTINUOUS
 62
256
 10
-205.675380999999990
 20
180.510617999999990
 11
-121.675381000000000
 21
180.510617999999990
  0
LINE
  8
0
  6
CONTINUOUS
 62
256
 10
-205.675380999999990
 20
175.643700999999990
 11
-121.675381000000000
 21
175.643700999999990
  0
LINE
  8
0
  6
CONTINUOUS
 62
256
 10
-205.675380999999990
 20
174.015273000000010
 11
-121.675381000000000
 21
174.015273000000010
  0
LINE
  8
0
  6
CONTINUOUS
 62
256
 10
-205.675380999999990
 20
170.552532000000010
 11
-121.675381000000000
 21
170.552532000000010
  0
LINE
  8
0
  6
CONTINUOUS
 62
256
 10
-205.832980999999990
 20
169.551053000000000
 11
-121.675381000000000
 21
169.551053000000000
  0
LINE
  8
0
  6
CONTINUOUS
 62
256
 10
-205.675380999999990
 20
158.267012999999990
 11
-121.675381000000000
 21
158.267012999999990
  0
LINE
  8
0
  6
CONTINUOUS
 62
256
 10
-205.675380999999990
 20
156.787990000000010
 11
-121.675381000000000
 21
156.787990000000010
  0
LINE
  8
0
  6
CONTINUOUS
 62
256
 10
-205.675380999999990
 20
153.695258999999990
 11
-121.675381000000000
 21
153.695258999999990
  0
LINE
  8
0
  6
CONTINUOUS
 62
256
 10
-205.675380999999990
 20
152.348858000000010
 11
-121.675381000000000
 21
152.348858000000010
  0
LINE
  8
0
  6
CONTINUOUS
 62
256
 10
-205.675380999999990
 20
149.510617999999990
 11
-121.675381000000000
 21
149.510617999999990
  0
LINE
  8
0
  6
CONTINUOUS
 62
256
 10
-205.675380999999990
 20
161.225009000000000
 11
-121.675381000000000
 21
161.225009000000000
  0
LINE
  8
0
  6
CONTINUOUS
 62
256
 10
-205.675380999999990
 20
162.814219000000010
 11
-121.675381000000000
 21
162.814219000000010
  0
LINE
  8
0
  6
CONTINUOUS
 62
256
 10
-121.675381000000000
 20
77.010617999999994
 11
-205.675380999999990
 21
77.010617999999994
  0
LINE
  8
0
  6
CONTINUOUS
 62
256
 10
-205.675380999999990
 20
79.010617999999994
 11
-121.675381000000000
 21
79.010617999999994
  0
LINE
  8
0
  6
CONTINUOUS
 62
256
 10
-205.675380999999990
 20
78.510617999999994
 11
-121.675381000000000
 21
78.510617999999994
  0
LINE
  8
0
  6
CONTINUOUS
 62
256
 10
-205.675380999999990
 20
83.377534999999995
 11
-121.675381000000000
 21
83.377534999999995
  0
LINE
  8
0
  6
CONTINUOUS
 62
256
 10
-205.675380999999990
 20
85.005961999999997
 11
-121.675381000000000
 21
85.005961999999997
  0
LINE
  8
0
  6
CONTINUOUS
 62
256
 10
-205.675380999999990
 20
88.468704000000002
 11
-121.675381000000000
 21
88.468704000000002
  0
LINE
  8
0
  6
CONTINUOUS
 62
256
 10
-205.832980999999990
 20
89.470183000000006
 11
-121.675381000000000
 21
89.470183000000006
  0
LINE
  8
0
  6
CONTINUOUS
 62
256
 10
-205.675380999999990
 20
100.754222000000000
 11
-121.675381000000000
 21
100.754222000000000
  0
LINE
  8
0
  6
CONTINUOUS
 62
256
 10
-205.675380999999990
 20
102.233245999999990
 11
-121.675381000000000
 21
102.233245999999990
  0
LINE
  8
0
  6
CONTINUOUS
 62
256
 10
-205.675380999999990
 20
105.325976999999990
 11
-121.675381000000000
 21
105.325976999999990
  0
LINE
  8
0
  6
CONTINUOUS
 62
256
 10
-205.675380999999990
 20
106.672377999999990
 11
-121.675381000000000
 21
106.672377999999990
  0
LINE
  8
0
  6
CONTINUOUS
 62
256
 10
-205.675380999999990
 20
109.510617999999990
 11
-121.675381000000000
 21
109.510617999999990
  0
LINE
  8
0
  6
CONTINUOUS
 62
256
 10
-205.675380999999990
 20
97.796227000000002
 11
-121.675381000000000
 21
97.796227000000002
  0
LINE
  8
0
  6
CONTINUOUS
 62
256
 10
-205.675380999999990
 20
96.207016999999993
 11
-121.675381000000000
 21
96.207016999999993
  0
LINE
  8
0
  6
CONTINUOUS
 62
256
 10
-216.675380999999990
 20
80.366697000000002
 11
-218.675380999999990
 21
82.019339000000002
  0
LINE
  8
0
  6
CONTINUOUS
 62
256
 10
-214.675380999999990
 20
79.190911000000000
 11
-216.675380999999990
 21
80.366697000000002
  0
LINE
  8
0
  6
CONTINUOUS
 62
256
 10
-216.675380999999990
 20
80.366697000000002
 11
-214.675380999999990
 21
82.019339000000002
  0
LINE
  8
0
  6
CONTINUOUS
 62
256
 10
-218.675380999999990
 20
79.190911000000000
 11
-216.675380999999990
 21
80.366697000000002
  0
POLYLINE
  8
0
  6
CONTINUOUS
 62
256
 66
1
 70
1
  0
VERTEX
  8
0
  6
CONTINUOUS
 62
256
 10
-211.975381000000000
 20
82.183287000000007
  0
VERTEX
  8
0
  6
CONTINUOUS
 62
256
 10
-212.065690182104820
 20
82.886243510558174
  0
VERTEX
  8
0
  6
CONTINUOUS
 62
256
 10
-212.333147197196950
 20
83.562185796638147
  0
VERTEX
  8
0
  6
CONTINUOUS
 62
256
 10
-212.767473822178030
 20
84.185137775258667
  0
VERTEX
  8
0
  6
CONTINUOUS
 62
256
 10
-213.351979128423210
 20
84.731159751236845
  0
VERTEX
  8
0
  6
CONTINUOUS
 62
256
 10
-214.064200904807880
 20
85.179268406248497
  0
VERTEX
  8
0
  6
CONTINUOUS
 62
256
 10
-214.876768867884070
 20
85.512243175983755
  0
VERTEX
  8
0
  6
CONTINUOUS
 62
256
 10
-215.758456486524180
 20
85.717288026776075
  0
VERTEX
  8
0
  6
CONTINUOUS
 62
256
 10
-216.675380999999990
 20
85.786523200000005
  0
VERTEX
  8
0
  6
CONTINUOUS
 62
256
 10
-217.592305513475790
 20
85.717288026776075
  0
VERTEX
  8
0
  6
CONTINUOUS
 62
256
 10
-218.473993132115910
 20
85.512243175983755
  0
VERTEX
  8
0
  6
CONTINUOUS
 62
256
 10
-219.286561095192100
 20
85.179268406248497
  0
VERTEX
  8
0
  6
CONTINUOUS
 62
256
 10
-219.998782871576760
 20
84.731159751236845
  0
VERTEX
  8
0
  6
CONTINUOUS
 62
256
 10
-220.583288177821940
 20
84.185137775258667
  0
VERTEX
  8
0
  6
CONTINUOUS
 62
256
 10
-221.017614802803020
 20
83.562185796638147
  0
VERTEX
  8
0
  6
CONTINUOUS
 62
256
 10
-221.285071817895160
 20
82.886243510558174
  0
VERTEX
  8
0
  6
CONTINUOUS
 62
256
 10
-221.375380999999980
 20
82.183287000000007
  0
VERTEX
  8
0
  6
CONTINUOUS
 62
256
 10
-221.285071817895160
 20
81.480330489441840
  0
VERTEX
  8
0
  6
CONTINUOUS
 62
256
 10
-221.017614802803020
 20
80.804388203361867
  0
VERTEX
  8
0
  6
CONTINUOUS
 62
256
 10
-220.583288177821940
 20
80.181436224741347
  0
VERTEX
  8
0
  6
CONTINUOUS
 62
256
 10
-219.998782871576760
 20
79.635414248763169
  0
VERTEX
  8
0
  6
CONTINUOUS
 62
256
 10
-219.286561095192100
 20
79.187305593751518
  0
VERTEX
  8
0
  6
CONTINUOUS
 62
256
 10
-218.473993132115910
 20
78.854330824016273
  0
VERTEX
  8
0
  6
CONTINUOUS
 62
256
 10
-217.592305513475790
 20
78.649285973223940
  0
VERTEX
  8
0
  6
CONTINUOUS
 62
256
 10
-216.675380999999990
 20
78.580050800000009
  0
VERTEX
  8
0
  6
CONTINUOUS
 62
256
 10
-215.758456486524180
 20
78.649285973223940
  0
VERTEX
  8
0
  6
CONTINUOUS
 62
256
 10
-214.876768867884070
 20
78.854330824016259
  0
VERTEX
  8
0
  6
CONTINUOUS
 62
256
 10
-214.064200904807880
 20
79.187305593751518
  0
VERTEX
  8
0
  6
CONTINUOUS
 62
256
 10
-213.351979128423240
 20
79.635414248763169
  0
VERTEX
  8
0
  6
CONTINUOUS
 62
256
 10
-212.767473822178030
 20
80.181436224741347
  0
VERTEX
  8
0
  6
CONTINUOUS
 62
256
 10
-212.333147197196950
 20
80.804388203361867
  0
VERTEX
  8
0
  6
CONTINUOUS
 62
256
 10
-212.065690182104820
 20
81.480330489441840
  0
SEQEND
  8
0
  6
CONTINUOUS
 62
256
  0
LINE
  8
0
  6
CONTINUOUS
 62
256
 10
-216.675380999999990
 20
178.654539000000000
 11
-218.675380999999990
 21
177.001897000000010
  0
LINE
  8
0
  6
CONTINUOUS
 62
256
 10
-214.675380999999990
 20
179.830323999999990
 11
-216.675380999999990
 21
178.654539000000000
  0
LINE
  8
0
  6
CONTINUOUS
 62
256
 10
-216.675380999999990
 20
178.654539000000000
 11
-214.675380999999990
 21
177.001897000000010
  0
LINE
  8
0
  6
CONTINUOUS
 62
256
 10
-218.675380999999990
 20
179.830323999999990
 11
-216.675380999999990
 21
178.654539000000000
  0
POLYLINE
  8
0
  6
CONTINUOUS
 62
256
 66
1
 70
1
  0
VERTEX
  8
0
  6
CONTINUOUS
 62
256
 10
-211.975381000000000
 20
176.837949000000010
  0
VERTEX
  8
0
  6
CONTINUOUS
 62
256
 10
-212.065690182104820
 20
177.540905510558190
  0
VERTEX
  8
0
  6
CONTINUOUS
 62
256
 10
-212.333147197196950
 20
178.216847796638150
  0
VERTEX
  8
0
  6
CONTINUOUS
 62
256
 10
-212.767473822178030
 20
178.839799775258680
  0
VERTEX
  8
0
  6
CONTINUOUS
 62
256
 10
-213.351979128423210
 20
179.385821751236850
  0
VERTEX
  8
0
  6
CONTINUOUS
 62
256
 10
-214.064200904807880
 20
179.833930406248500
  0
VERTEX
  8
0
  6
CONTINUOUS
 62
256
 10
-214.876768867884070
 20
180.166905175983740
  0
VERTEX
  8
0
  6
CONTINUOUS
 62
256
 10
-215.758456486524180
 20
180.371950026776090
  0
VERTEX
  8
0
  6
CONTINUOUS
 62
256
 10
-216.675380999999990
 20
180.441185200000010
  0
VERTEX
  8
0
  6
CONTINUOUS
 62
256
 10
-217.592305513475790
 20
180.371950026776090
  0
VERTEX
  8
0
  6
CONTINUOUS
 62
256
 10
-218.473993132115910
 20
180.166905175983740
  0
VERTEX
  8
0
  6
CONTINUOUS
 62
256
 10
-219.286561095192100
 20
179.833930406248500
  0
VERTEX
  8
0
  6
CONTINUOUS
 62
256
 10
-219.998782871576760
 20
179.385821751236850
  0
VERTEX
  8
0
  6
CONTINUOUS
 62
256
 10
-220.583288177821940
 20
178.839799775258680
  0
VERTEX
  8
0
  6
CONTINUOUS
 62
256
 10
-221.017614802803020
 20
178.216847796638150
  0
VERTEX
  8
0
  6
CONTINUOUS
 62
256
 10
-221.285071817895160
 20
177.540905510558190
  0
VERTEX
  8
0
  6
CONTINUOUS
 62
256
 10
-221.375380999999980
 20
176.837949000000010
  0
VERTEX
  8
0
  6
CONTINUOUS
 62
256
 10
-221.285071817895160
 20
176.134992489441830
  0
VERTEX
  8
0
  6
CONTINUOUS
 62
256
 10
-221.017614802803020
 20
175.459050203361870
  0
VERTEX
  8
0
  6
CONTINUOUS
 62
256
 10
-220.583288177821940
 20
174.836098224741330
  0
VERTEX
  8
0
  6
CONTINUOUS
 62
256
 10
-219.998782871576760
 20
174.290076248763170
  0
VERTEX
  8
0
  6
CONTINUOUS
 62
256
 10
-219.286561095192100
 20
173.841967593751520
  0
VERTEX
  8
0
  6
CONTINUOUS
 62
256
 10
-218.473993132115910
 20
173.508992824016270
  0
VERTEX
  8
0
  6
CONTINUOUS
 62
256
 10
-217.592305513475790
 20
173.303947973223960
  0
VERTEX
  8
0
  6
CONTINUOUS
 62
256
 10
-216.675380999999990
 20
173.234712800000010
  0
VERTEX
  8
0
  6
CONTINUOUS
 62
256
 10
-215.758456486524180
 20
173.303947973223960
  0
VERTEX
  8
0
  6
CONTINUOUS
 62
256
 10
-214.876768867884070
 20
173.508992824016270
  0
VERTEX
  8
0
  6
CONTINUOUS
 62
256
 10
-214.064200904807880
 20
173.841967593751520
  0
VERTEX
  8
0
  6
CONTINUOUS
 62
256
 10
-213.351979128423240
 20
174.290076248763170
  0
VERTEX
  8
0
  6
CONTINUOUS
 62
256
 10
-212.767473822178030
 20
174.836098224741330
  0
VERTEX
  8
0
  6
CONTINUOUS
 62
256
 10
-212.333147197196950
 20
175.459050203361870
  0
VERTEX
  8
0
  6
CONTINUOUS
 62
256
 10
-212.065690182104820
 20
176.134992489441830
  0
SEQEND
  8
0
  6
CONTINUOUS
 62
256
  0
LINE
  8
0
  6
CONTINUOUS
 62
256
 10
-294.995900000000010
 20
179.785149999999990
 11
-302.566679000000020
 21
174.484033000000010
  0
LINE
  8
0
  6
CONTINUOUS
 62
256
 10
-303.675381000000020
 20
172.354238000000010
 11
-303.675381000000020
 21
129.510617999999990
  0
ARC
  8
0
  6
CONTINUOUS
 62
256
 10
-301.075380999999990
 20
172.354238000000010
 40
2.599999999999996
 50
125.000000000000210
 51
180.000000000000000
  0
ARC
  8
0
  6
CONTINUOUS
 62
256
 10
-283.180226000000000
 20
162.910618000000000
 40
20.599999999999994
 50
90.000000000000000
 51
125.000000000000010
  0
LINE
  8
0
  6
CONTINUOUS
 62
256
 10
-294.995900000000010
 20
79.236086000000000
 11
-302.566679000000020
 21
84.537201999999994
  0
LINE
  8
0
  6
CONTINUOUS
 62
256
 10
-303.675381000000020
 20
86.666998000000007
 11
-303.675381000000020
 21
129.510617999999990
  0
ARC
  8
0
  6
CONTINUOUS
 62
256
 10
-301.075380999999990
 20
86.666998000000007
 40
2.600000000000023
 50
180.000000000000000
 51
234.999999999999940
  0
ARC
  8
0
  6
CONTINUOUS
 62
256
 10
-283.180226000000000
 20
96.110618000000002
 40
20.600000000000001
 50
235.000000000000030
 51
270.000000000000000
  0
LINE
  8
0
  6
CONTINUOUS
 62
256
 10
25.324618999999998
 20
86.010617999999994
 11
25.324618999999998
 21
82.410617999999999
  0
LINE
  8
0
  6
CONTINUOUS
 62
256
 10
-49.675381000000002
 20
86.010617999999994
 11
-49.675381000000002
 21
82.410617999999999
  0
LINE
  8
0
  6
CONTINUOUS
 62
256
 10
-12.175381000000000
 20
82.010617999999994
 11
24.924619000000000
 21
82.010617999999994
  0
LINE
  8
0
  6
CONTINUOUS
 62
256
 10
-49.275381000000003
 20
82.010617999999994
 11
-12.175381000000000
 21
82.010617999999994
  0
LINE
  8
0
  6
CONTINUOUS
 62
256
 10
-12.175381000000000
 20
86.010617999999994
 11
-95.474723999999995
 21
86.010617999999994
  0
LINE
  8
0
  6
CONTINUOUS
 62
256
 10
-96.175381000000002
 20
97.010617999999994
 11
-12.175381000000000
 21
97.010617999999994
  0
LINE
  8
0
  6
CONTINUOUS
 62
256
 10
-12.175381000000000
 20
86.010617999999994
 11
35.132416999999997
 21
86.010617999999994
  0
LINE
  8
0
  6
CONTINUOUS
 62
256
 10
-12.175381000000000
 20
97.010617999999994
 11
35.833074000000003
 21
97.010617999999994
  0
LINE
  8
0
  6
CONTINUOUS
 62
256
 10
25.324618999999998
 20
82.410617999999999
 11
24.924619000000000
 21
82.010617999999994
  0
LINE
  8
0
  6
CONTINUOUS
 62
256
 10
-49.675381000000002
 20
82.410617999999999
 11
-49.275381000000003
 21
82.010617999999994
  0
LINE
  8
0
  6
CONTINUOUS
 62
256
 10
-96.166652999999997
 20
97.010617999999994
 11
-95.983372000000003
 21
86.510465999999994
  0
LINE
  8
0
  6
CONTINUOUS
 62
256
 10
35.824345999999998
 20
97.010617999999994
 11
35.641064999999998
 21
86.510465999999994
  0
LINE
  8
0
  6
CONTINUOUS
 62
256
 10
35.641064999999998
 20
86.510465999999994
 11
35.132416999999997
 21
86.010617999999994
  0
LINE
  8
0
  6
CONTINUOUS
 62
256
 10
-95.474723999999995
 20
86.010617999999994
 11
-95.983372000000003
 21
86.510465999999994
  0
LINE
  8
0
  6
CONTINUOUS
 62
256
 10
-31.175381000000002
 20
177.010617999999990
 11
-31.175381000000002
 21
180.010617999999990
  0
LINE
  8
0
  6
CONTINUOUS
 62
256
 10
6.824619000000000
 20
177.010617999999990
 11
6.824619000000000
 21
180.010617999999990
  0
ARC
  8
0
  6
CONTINUOUS
 62
256
 10
5.824619000000000
 20
180.010617999999990
 40
1.000000000000000
 50
0.000000000000000
 51
90.000000000000000
  0
ARC
  8
0
  6
CONTINUOUS
 62
256
 10
-30.175381000000002
 20
180.010617999999990
 40
1.000000000000000
 50
90.000000000000000
 51
180.000000000000000
  0
ARC
  8
0
  6
CONTINUOUS
 62
256
 10
5.824619000000000
 20
79.010617999999994
 40
1.000000000000000
 50
270.000000000000000
 51
0.000000000000000
  0
ARC
  8
0
  6
CONTINUOUS
 62
256
 10
-30.175381000000002
 20
79.010617999999994
 40
1.000000000000000
 50
180.000000000000000
 51
270.000000000000000
  0
LINE
  8
0
  6
CONTINUOUS
 62
256
 10
-30.175381000000002
 20
78.010617999999994
 11
5.824619000000000
 21
78.010617999999994
  0
LINE
  8
0
  6
CONTINUOUS
 62
256
 10
6.824619000000000
 20
79.010617999999994
 11
6.824619000000000
 21
82.010617999999994
  0
LINE
  8
0
  6
CONTINUOUS
 62
256
 10
-31.175381000000002
 20
79.010617999999994
 11
-31.175381000000002
 21
82.010617999999994
  0
LINE
  8
0
  6
CONTINUOUS
 62
256
 10
-30.175381000000002
 20
181.010617999999990
 11
5.824619000000000
 21
181.010617999999990
  0
ARC
  8
0
  6
CONTINUOUS
 62
256
 10
-12.175381000000000
 20
93.010617999999994
 40
1.000000000000000
 50
0.000000000000000
 51
180.000000000000000
  0
LINE
  8
0
  6
CONTINUOUS
 62
256
 10
-13.175381000000000
 20
93.010617999999994
 11
-13.175381000000000
 21
86.010617999999994
  0
LINE
  8
0
  6
CONTINUOUS
 62
256
 10
-11.175381000000000
 20
93.010617999999994
 11
-11.175381000000000
 21
86.010617999999994
  0
ARC
  8
0
  6
CONTINUOUS
 62
256
 10
-12.175381000000000
 20
101.010617999999990
 40
1.000000000000000
 50
180.000000000000000
 51
0.000000000000000
  0
LINE
  8
0
  6
CONTINUOUS
 62
256
 10
-11.175381000000000
 20
101.010617999999990
 11
-11.175381000000000
 21
173.010617999999990
  0
LINE
  8
0
  6
CONTINUOUS
 62
256
 10
-13.175381000000000
 20
101.010617999999990
 11
-13.175381000000000
 21
173.010617999999990
  0
ARC
  8
0
  6
CONTINUOUS
 62
256
 10
-101.675381000000000
 20
98.010617999999994
 40
2.000000000000000
 50
90.000000000000000
 51
180.000000000000000
  0
ARC
  8
0
  6
CONTINUOUS
 62
256
 10
-101.675381000000000
 20
173.510617999999990
 40
2.000000000000000
 50
180.000000000000000
 51
270.000000000000000
  0
LINE
  8
0
  6
CONTINUOUS
 62
256
 10
-121.675381000000000
 20
129.510617999999990
 11
-121.675381000000000
 21
183.010617999999990
  0
LINE
  8
0
  6
CONTINUOUS
 62
256
 10
-121.675381000000000
 20
129.510617999999990
 11
-121.675381000000000
 21
76.010617999999994
  0
LINE
  8
0
  6
CONTINUOUS
 62
256
 10
-96.175381000000002
 20
97.010617999999994
 11
35.824618999999998
 21
97.010617999999994
  0
LINE
  8
0
  6
CONTINUOUS
 62
256
 10
-49.275381000000003
 20
177.010617999999990
 11
24.924619000000000
 21
177.010617999999990
  0
LINE
  8
0
  6
CONTINUOUS
 62
256
 10
-49.675381000000002
 20
173.010617999999990
 11
-49.675381000000002
 21
176.610617999999990
  0
LINE
  8
0
  6
CONTINUOUS
 62
256
 10
-12.175381000000000
 20
173.010617999999990
 11
-94.729410000000001
 21
173.010617999999990
  0
LINE
  8
0
  6
CONTINUOUS
 62
256
 10
-12.175381000000000
 20
173.010617999999990
 11
33.824717000000000
 21
173.010617999999990
  0
LINE
  8
0
  6
CONTINUOUS
 62
256
 10
-49.275381000000003
 20
177.010617999999990
 11
-49.675381000000002
 21
176.610617999999990
  0
LINE
  8
0
  6
CONTINUOUS
 62
256
 10
25.324618999999998
 20
173.010617999999990
 11
25.324618999999998
 21
176.610617999999990
  0
LINE
  8
0
  6
CONTINUOUS
 62
256
 10
24.924619000000000
 20
177.010617999999990
 11
25.324618999999998
 21
176.610617999999990
  0
LINE
  8
0
  6
CONTINUOUS
 62
256
 10
33.824717000000000
 20
173.010617999999990
 11
34.334484000000003
 21
172.510813000000010
  0
LINE
  8
0
  6
CONTINUOUS
 62
256
 10
-106.675381000000000
 20
163.402784000000000
 11
-113.675381000000000
 21
163.402784000000000
  0
LINE
  8
0
  6
CONTINUOUS
 62
256
 10
-116.675381000000000
 20
129.510617999999990
 11
-116.675381000000000
 21
168.940270000000000
  0
LINE
  8
0
  6
CONTINUOUS
 62
256
 10
-113.675381000000000
 20
174.010617999999990
 11
-108.675381000000000
 21
174.010617999999990
  0
LINE
  8
0
  6
CONTINUOUS
 62
256
 10
-114.675381000000000
 20
170.940270000000000
 11
-108.675381000000000
 21
170.940270000000000
  0
LINE
  8
0
  6
CONTINUOUS
 62
256
 10
-116.675381000000000
 20
177.010617999999990
 11
-116.675381000000000
 21
180.045071000000010
  0
ARC
  8
0
  6
CONTINUOUS
 62
256
 10
-113.675381000000000
 20
160.402784000000000
 40
3.000000000000000
 50
90.000000000000000
 51
180.000000000000000
  0
ARC
  8
0
  6
CONTINUOUS
 62
256
 10
-113.675381000000000
 20
177.010617999999990
 40
3.000000000000000
 50
180.000000000000000
 51
270.000000000000000
  0
ARC
  8
0
  6
CONTINUOUS
 62
256
 10
-114.675381000000000
 20
168.940270000000000
 40
2.000000000000000
 50
90.000000000000000
 51
180.000000000000000
  0
ARC
  8
0
  6
CONTINUOUS
 62
256
 10
-108.675381000000000
 20
165.940270000000000
 40
5.000000000000000
 50
0.000000000000000
 51
90.000000000000000
  0
ARC
  8
0
  6
CONTINUOUS
 62
256
 10
-108.675381000000000
 20
169.010617999999990
 40
5.000000000000000
 50
0.000000000000000
 51
90.000000000000000
  0
ARC
  8
0
  6
CONTINUOUS
 62
256
 10
-106.675381000000000
 20
160.402784000000000
 40
3.000000000000000
 50
0.000000000000000
 51
90.000000000000000
  0
ARC
  8
0
  6
CONTINUOUS
 62
256
 10
-119.675381000000000
 20
180.045071000000010
 40
3.000000000000000
 50
0.000000000000000
 51
90.999999999999872
  0
ARC
  8
0
  6
CONTINUOUS
 62
256
 10
-106.675381000000000
 20
180.344459000000000
 40
3.000000000000000
 50
0.000000000000000
 51
91.277816000000129
  0
LINE
  8
0
  6
CONTINUOUS
 62
256
 10
-103.675381000000000
 20
78.731793999999994
 11
-103.675381000000000
 21
180.344459000000000
  0
LINE
  8
0
  6
CONTINUOUS
 62
256
 10
-116.675381000000000
 20
149.510617999999990
 11
-121.675381000000000
 21
149.510617999999990
  0
LINE
  8
0
  6
CONTINUOUS
 62
256
 10
-116.675381000000000
 20
82.010617999999994
 11
-116.675381000000000
 21
78.976164999999995
  0
LINE
  8
0
  6
CONTINUOUS
 62
256
 10
-113.675381000000000
 20
85.010617999999994
 11
-108.675381000000000
 21
85.010617999999994
  0
LINE
  8
0
  6
CONTINUOUS
 62
256
 10
-114.675381000000000
 20
88.080966000000004
 11
-108.675381000000000
 21
88.080966000000004
  0
LINE
  8
0
  6
CONTINUOUS
 62
256
 10
-116.675381000000000
 20
129.510617999999990
 11
-116.675381000000000
 21
90.080966000000004
  0
LINE
  8
0
  6
CONTINUOUS
 62
256
 10
-106.675381000000000
 20
95.618452000000005
 11
-113.675381000000000
 21
95.618452000000005
  0
ARC
  8
0
  6
CONTINUOUS
 62
256
 10
-119.675381000000000
 20
78.976164999999995
 40
2.999999999999997
 50
269.000000000000110
 51
0.000000000000000
  0
ARC
  8
0
  6
CONTINUOUS
 62
256
 10
-113.675381000000000
 20
82.010617999999994
 40
3.000000000000000
 50
90.000000000000000
 51
180.000000000000000
  0
ARC
  8
0
  6
CONTINUOUS
 62
256
 10
-114.675381000000000
 20
90.080966000000004
 40
2.000000000000000
 50
180.000000000000000
 51
270.000000000000000
  0
ARC
  8
0
  6
CONTINUOUS
 62
256
 10
-108.675381000000000
 20
93.080966000000004
 40
5.000000000000000
 50
270.000000000000000
 51
0.000000000000000
  0
ARC
  8
0
  6
CONTINUOUS
 62
256
 10
-108.675381000000000
 20
90.010617999999994
 40
5.000000000000000
 50
270.000000000000000
 51
0.000000000000000
  0
ARC
  8
0
  6
CONTINUOUS
 62
256
 10
-113.675381000000000
 20
98.618452000000005
 40
3.000000000000000
 50
180.000000000000000
 51
270.000000000000000
  0
ARC
  8
0
  6
CONTINUOUS
 62
256
 10
-106.675381000000000
 20
98.618452000000005
 40
3.000000000000000
 50
270.000000000000000
 51
0.000000000000000
  0
LINE
  8
0
  6
CONTINUOUS
 62
256
 10
-121.675381000000000
 20
75.993162999999996
 11
-106.727738000000000
 21
75.732251000000005
  0
LINE
  8
0
  6
CONTINUOUS
 62
256
 10
-116.675381000000000
 20
109.510617999999990
 11
-121.675381000000000
 21
109.510617999999990
  0
LINE
  8
0
  6
CONTINUOUS
 62
256
 10
-106.529644000000000
 20
183.340916999999990
 11
-121.675381000000000
 21
183.010151000000010
  0
ARC
  8
0
  6
CONTINUOUS
 62
256
 10
-106.675381000000000
 20
78.731793999999994
 40
2.999999999999997
 50
269.000000000000110
 51
0.000000000000000
  0
LINE
  8
0
  6
CONTINUOUS
 62
256
 10
-98.156032999999994
 20
100.010617999999990
 11
-101.675381000000000
 21
100.010617999999990
  0
LINE
  8
0
  6
CONTINUOUS
 62
256
 10
-96.665902000000003
 20
171.510617999999990
 11
-101.675381000000000
 21
171.510617999999990
  0
ARC
  8
0
  6
CONTINUOUS
 62
256
 10
-96.665902000000003
 20
173.510617999999990
 40
2.000000000000000
 50
270.000000000000000
 51
345.522488000000240
  0
LINE
  8
0
  6
CONTINUOUS
 62
256
 10
-96.156423000000004
 20
97.971152000000004
 11
-94.666291000000001
 21
173.471151999999990
  0
LINE
  8
0
  6
CONTINUOUS
 62
256
 10
-94.666291000000001
 20
173.471151999999990
 11
-94.665512000000007
 21
173.510617999999990
  0
ARC
  8
0
  6
CONTINUOUS
 62
256
 10
-98.156032999999994
 20
98.010617999999994
 40
2.000000000000001
 50
358.869308999999990
 51
90.000000000000000
  0
LINE
  8
0
  6
CONTINUOUS
 62
256
 10
-96.175381000000002
 20
97.010617999999994
 11
-96.156423000000004
 21
97.971152000000004
  0
LINE
  8
0
  6
CONTINUOUS
 62
256
 10
34.334484000000003
 20
172.510813000000010
 11
35.824618999999998
 21
97.010617999999994
  0
LINE
  8
0
  6
DASHDOT
 62
256
 10
-12.175381000000000
 20
75.321095000000000
 11
-12.175381000000000
 21
183.530624999999990
  0
LINE
  8
0
  6
DASHDOT
 62
256
 10
-130.405225000000000
 20
129.510617999999990
 11
-77.343712999999994
 21
129.510617999999990
  0
LINE
  8
0
  6
CONTINUOUS
 62
256
 10
330.266975000000000
 20
-40.464609000000003
 11
327.678123000000030
 21
-43.053460000000001
  0
ARC
  8
0
  6
CONTINUOUS
 62
256
 10
332.345028000000010
 20
-47.720365000000001
 40
6.600000000000017
 50
135.000000000000170
 51
174.256317999999940
  0
ARC
  8
0
  6
CONTINUOUS
 62
256
 10
724.366975000000020
 20
-87.151231999999993
 40
400.600000000000080
 50
174.256317999999990
 51
180.000000000000000
  0
ARC
  8
0
  6
CONTINUOUS
 62
256
 10
724.366975000000020
 20
-87.151231999999993
 40
400.600000000000020
 50
180.000000000000000
 51
185.743681999999980
  0
ARC
  8
0
  6
CONTINUOUS
 62
256
 10
332.345028000000010
 20
-126.582099000000000
 40
6.599999999999973
 50
185.743682000000060
 51
224.999999999999830
  0
LINE
  8
0
  6
CONTINUOUS
 62
256
 10
335.136819000000000
 20
-138.707698999999990
 11
327.678123000000030
 21
-131.249004000000010
  0
ARC
  8
0
  6
CONTINUOUS
 62
256
 10
349.703217999999990
 20
-124.141299000000000
 40
20.599999999999991
 50
225.000000000000000
 51
247.340456999999990
  0
LINE
  8
0
  6
CONTINUOUS
 62
256
 10
341.766975000000000
 20
-144.651231999999990
 11
347.774475999999990
 21
-144.651231999999990
  0
LINE
  8
0
  6
CONTINUOUS
 62
256
 10
341.766975000000000
 20
-143.151193000000010
 11
341.766975000000000
 21
-144.651231999999990
  0
LINE
  8
0
  6
CONTINUOUS
 62
256
 10
341.766975000000000
 20
-138.061471000000010
 11
341.766975000000000
 21
-172.017897000000000
  0
ARC
  8
0
  6
CONTINUOUS
 62
256
 10
377.766975000000000
 20
121.348768000000010
 40
300.000000000000000
 50
263.967951000000030
 51
276.032048999999970
  0
ARC
  8
0
  6
CONTINUOUS
 62
256
 10
346.766975000000000
 20
-172.017897000000000
 40
5.000000000000000
 50
180.000000000000000
 51
263.967950999999970
  0
LINE
  8
0
  6
CONTINUOUS
 62
256
 10
375.266975000000000
 20
-179.151231999999990
 11
375.266975000000000
 21
-178.640815000000000
  0
LINE
  8
0
  6
CONTINUOUS
 62
256
 10
375.266975000000000
 20
-179.151231999999990
 11
380.266975000000000
 21
-179.151231999999990
  0
LINE
  8
0
  6
CONTINUOUS
 62
256
 10
380.266975000000000
 20
-179.151231999999990
 11
380.266975000000000
 21
-178.640815000000000
  0
ARC
  8
0
  6
CONTINUOUS
 62
256
 10
408.766975000000000
 20
-172.017897000000000
 40
5.000000000000002
 50
276.032049000000030
 51
0.000000000000000
  0
LINE
  8
0
  6
CONTINUOUS
 62
256
 10
413.766975000000000
 20
-138.061471000000010
 11
413.766975000000000
 21
-172.017897000000000
  0
LINE
  8
0
  6
CONTINUOUS
 62
256
 10
413.766975000000000
 20
-143.151193000000010
 11
413.766975000000000
 21
-144.651231999999990
  0
LINE
  8
0
  6
CONTINUOUS
 62
256
 10
407.754960999999980
 20
-144.651231999999990
 11
413.766975000000000
 21
-144.651231999999990
  0
ARC
  8
0
  6
CONTINUOUS
 62
256
 10
405.830731000000010
 20
-124.141299000000000
 40
20.599999999999994
 50
292.659543000000040
 51
315.000000000000000
  0
LINE
  8
0
  6
CONTINUOUS
 62
256
 10
420.397131000000000
 20
-138.707698999999990
 11
427.855825999999980
 21
-131.249004000000010
  0
ARC
  8
0
  6
CONTINUOUS
 62
256
 10
423.188921999999990
 20
-126.582099000000000
 40
6.600000000000017
 50
315.000000000000170
 51
354.256318000000020
  0
ARC
  8
0
  6
CONTINUOUS
 62
256
 10
31.166975000000001
 20
-87.151231999999993
 40
400.600000000000020
 50
354.256318000000020
 51
0.000000000000000
  0
ARC
  8
0
  6
CONTINUOUS
 62
256
 10
31.166975000000001
 20
-87.151231999999993
 40
400.600000000000020
 50
0.000000000000000
 51
5.743682000000000
  0
ARC
  8
0
  6
CONTINUOUS
 62
256
 10
423.188921999999990
 20
-47.720365000000001
 40
6.599999999999972
 50
5.743682000000001
 51
44.999999999999829
  0
LINE
  8
0
  6
CONTINUOUS
 62
256
 10
425.266975000000000
 20
-40.464609000000003
 11
427.855825999999980
 21
-43.053460000000001
  0
ENDSEC
  0
EOF
