  0
SECTION
  2
HEADER
  9
$TEXTSIZE
 40
2.5
  9
$ACADVER
  1
AC1009
  9
$DIMASZ
 40
3.863703297614046
  9
$DIMEXE
 40
2.000000000000000
  9
$DIMEXO
 40
1.000000000000000
  9
$DIMLFAC
 40
1.000000000000000
  9
$DIMSCALE
 40
1.000000000000000
  9
$DIMTAD
 70
1
  9
$DIMTFAC
 40
0.625000000000000
  9
$DIMTXT
 40
3.200000047683716
  9
$LUPREC
 70
3
  9
$REGENMODE
 70
1
  9
$TEXTSTYLE
  7
STANDARD1
  0
ENDSEC
  0
SECTION
  2
TABLES
  0
TABLE
  2
LTYPE
 70
4
  0
LTYPE
  2
CONTINUOUS
 70
64
  3
Solid line
 72
65
 73
0
 40
0.0
  0
LTYPE
  2
DASHED
 70
64
  3
-- -- -- -- -- -- -- -- -- -- -- -- -- -- --
 72
65
 73
2
 40
0.75
 49
0.5
 49
-0.25
  0
LTYPE
  2
DASHDOT
 70
64
  3
__ . __ . __ . __ . __ . __ . __ . __ . __ . __
 72
65
 73
4
 40
1.0
 49
0.5
 49
-0.25
 49
0.0
 49
-0.25
  0
LTYPE
  2
DIVIDE
 70
64
  3
__ . . __ . . __ . . __ . . __ . . __ . . __
 72
65
 73
6
 40
1.25
 49
0.5
 49
-0.25
 49
0.0
 49
-0.25
 49
0.0
 49
-0.25
  0
ENDTAB
  0
TABLE
  2
LAYER
 70
2
  0
LAYER
  2
0
 70
64
 62
53
  6
CONTINUOUS
  0
LAYER
  2
1
 70
64
 62
102
  6
CONTINUOUS
  0
ENDTAB
  0
TABLE
  2
STYLE
 70
4
  0
STYLE
  2
STANDARD1
 70
64
 40
0.0
 41
1.0
 50
0.0
 71
0
 42
3.200000047683716
  3
MONOTXT
  4
BIGFONT
  0
STYLE
  2
STANDARD2
 70
68
 40
0.0
 41
1.0
 50
0.0
 71
0
 42
3.200000047683716
  3
MONOTXT
  4
BIGFONT
  0
STYLE
  2
STANDARD3
 70
64
 40
0.0
 41
1.0
 50
0.0
 71
0
 42
3.200000047683716
  3
MONOTXT
  4

  0
STYLE
  2
STANDARD4
 70
68
 40
0.0
 41
1.0
 50
0.0
 71
0
 42
3.200000047683716
  3
MONOTXT
  4

  0
ENDTAB
  0
TABLE
  2
VIEW
 70
0
  0
ENDTAB
  0
ENDSEC
  0
SECTION
  2
BLOCKS
  0
BLOCK
  8
0
  2
ZU_SYM_1
 70
64
 10
0.000000000000000
 20
0.000000000000000
  0
LINE
  8
0
  6
CONTINUOUS
 62
256
 10
1.999999000000000
 20
-1.154699000000000
 11
-0.000002000000000
 21
-2.309398000000000
  0
LINE
  8
0
  6
CONTINUOUS
 62
256
 10
-1.999999000000000
 20
1.154700000000000
 11
0.000002000000000
 21
2.309399000000000
  0
LINE
  8
0
  6
CONTINUOUS
 62
256
 10
-0.000002000000000
 20
-2.309397000000000
 11
-1.999997000000000
 21
-1.154696000000000
  0
LINE
  8
0
  6
CONTINUOUS
 62
256
 10
1.999998000000000
 20
1.154696000000000
 11
0.000002000000000
 21
2.309399000000000
  0
LINE
  8
0
  6
CONTINUOUS
 62
256
 10
1.999998000000000
 20
1.154695000000000
 11
1.999999000000000
 21
-1.154699000000000
  0
LINE
  8
0
  6
CONTINUOUS
 62
256
 10
-1.999998000000000
 20
-1.154696000000000
 11
-1.999999000000000
 21
1.154700000000000
  0
POINT
  8
0
  6
CONTINUOUS
 62
256
 10
0.000000000000000
 20
0.000000000000000
  0
CIRCLE
  8
0
  6
CONTINUOUS
 62
256
 10
0.000000000000000
 20
0.000000000000000
 40
4.249999000000000
  0
ENDBLK
  8
0
  0
BLOCK
  8
0
  2
ZU_SYM_2
 70
64
 10
0.000000000000000
 20
0.000000000000000
  0
LINE
  8
0
  6
CONTINUOUS
 62
256
 10
1.999999000000000
 20
-1.154699000000000
 11
-0.000002000000000
 21
-2.309398000000000
  0
LINE
  8
0
  6
CONTINUOUS
 62
256
 10
-1.999999000000000
 20
1.154700000000000
 11
0.000002000000000
 21
2.309399000000000
  0
LINE
  8
0
  6
CONTINUOUS
 62
256
 10
-0.000002000000000
 20
-2.309397000000000
 11
-1.999997000000000
 21
-1.154696000000000
  0
LINE
  8
0
  6
CONTINUOUS
 62
256
 10
1.999998000000000
 20
1.154696000000000
 11
0.000002000000000
 21
2.309399000000000
  0
LINE
  8
0
  6
CONTINUOUS
 62
256
 10
1.999998000000000
 20
1.154695000000000
 11
1.999999000000000
 21
-1.154699000000000
  0
LINE
  8
0
  6
CONTINUOUS
 62
256
 10
-1.999998000000000
 20
-1.154696000000000
 11
-1.999999000000000
 21
1.154700000000000
  0
POINT
  8
0
  6
CONTINUOUS
 62
256
 10
0.000000000000000
 20
0.000000000000000
  0
CIRCLE
  8
0
  6
CONTINUOUS
 62
256
 10
0.000000000000000
 20
0.000000000000000
 40
4.249999000000000
  0
ENDBLK
  8
0
  0
BLOCK
  8
0
  2
ZU_SYM_3
 70
64
 10
0.000000000000000
 20
0.000000000000000
  0
LINE
  8
0
  6
CONTINUOUS
 62
256
 10
1.999999000000000
 20
-1.154699000000000
 11
-0.000002000000000
 21
-2.309398000000000
  0
LINE
  8
0
  6
CONTINUOUS
 62
256
 10
-1.999999000000000
 20
1.154700000000000
 11
0.000002000000000
 21
2.309399000000000
  0
LINE
  8
0
  6
CONTINUOUS
 62
256
 10
-0.000002000000000
 20
-2.309397000000000
 11
-1.999997000000000
 21
-1.154696000000000
  0
LINE
  8
0
  6
CONTINUOUS
 62
256
 10
1.999998000000000
 20
1.154696000000000
 11
0.000002000000000
 21
2.309399000000000
  0
LINE
  8
0
  6
CONTINUOUS
 62
256
 10
1.999998000000000
 20
1.154695000000000
 11
1.999999000000000
 21
-1.154699000000000
  0
LINE
  8
0
  6
CONTINUOUS
 62
256
 10
-1.999998000000000
 20
-1.154696000000000
 11
-1.999999000000000
 21
1.154700000000000
  0
POINT
  8
0
  6
CONTINUOUS
 62
256
 10
0.000000000000000
 20
0.000000000000000
  0
CIRCLE
  8
0
  6
CONTINUOUS
 62
256
 10
0.000000000000000
 20
0.000000000000000
 40
4.249999000000000
  0
ENDBLK
  8
0
  0
BLOCK
  8
0
  2
ZU_SYM_4
 70
64
 10
0.000000000000000
 20
0.000000000000000
  0
LINE
  8
0
  6
CONTINUOUS
 62
256
 10
1.999999000000000
 20
-1.154699000000000
 11
-0.000002000000000
 21
-2.309398000000000
  0
LINE
  8
0
  6
CONTINUOUS
 62
256
 10
-1.999999000000000
 20
1.154700000000000
 11
0.000002000000000
 21
2.309399000000000
  0
LINE
  8
0
  6
CONTINUOUS
 62
256
 10
-0.000002000000000
 20
-2.309397000000000
 11
-1.999997000000000
 21
-1.154696000000000
  0
LINE
  8
0
  6
CONTINUOUS
 62
256
 10
1.999998000000000
 20
1.154696000000000
 11
0.000002000000000
 21
2.309399000000000
  0
LINE
  8
0
  6
CONTINUOUS
 62
256
 10
1.999998000000000
 20
1.154695000000000
 11
1.999999000000000
 21
-1.154699000000000
  0
LINE
  8
0
  6
CONTINUOUS
 62
256
 10
-1.999998000000000
 20
-1.154696000000000
 11
-1.999999000000000
 21
1.154700000000000
  0
POINT
  8
0
  6
CONTINUOUS
 62
256
 10
0.000000000000000
 20
0.000000000000000
  0
CIRCLE
  8
0
  6
CONTINUOUS
 62
256
 10
0.000000000000000
 20
0.000000000000000
 40
4.249999000000000
  0
ENDBLK
  8
0
  0
ENDSEC
  0
SECTION
  2
ENTITIES
  0
LINE
  8
0
  6
DASHED
 62
256
 10
365.086335000000020
 20
-74.468718999999993
 11
354.086335000000020
 21
-74.468718999999993
  0
LINE
  8
0
  6
CONTINUOUS
 62
256
 10
365.086335000000020
 20
-153.468718999999990
 11
365.086335000000020
 21
-57.468719000000000
  0
LINE
  8
0
  6
DASHED
 62
256
 10
365.086335000000020
 20
-60.468719000000000
 11
365.086335000000020
 21
-74.468718999999993
  0
LINE
  8
0
  6
DASHED
 62
256
 10
387.086335000000020
 20
-62.468719000000000
 11
365.086335000000020
 21
-62.468719000000000
  0
LINE
  8
0
  6
DASHED
 62
256
 10
365.086335000000020
 20
-60.468719000000000
 11
354.086335000000020
 21
-60.468719000000000
  0
LINE
  8
0
  6
CONTINUOUS
 62
256
 10
354.086335000000020
 20
-58.160648000000002
 11
354.086335000000020
 21
-105.468718999999990
  0
LINE
  8
0
  6
CONTINUOUS
 62
256
 10
354.586182000000010
 20
-57.652000000000001
 11
354.086335000000020
 21
-58.160648000000002
  0
LINE
  8
0
  6
CONTINUOUS
 62
256
 10
365.086335000000020
 20
-57.468719000000000
 11
354.586182000000010
 21
-57.652000000000001
  0
LINE
  8
0
  6
CONTINUOUS
 62
256
 10
350.086335000000020
 20
-105.468718999999990
 11
350.086335000000020
 21
-68.368718999999999
  0
LINE
  8
0
  6
CONTINUOUS
 62
256
 10
350.086335000000020
 20
-68.368718999999999
 11
350.486335000000000
 21
-67.968718999999993
  0
LINE
  8
0
  6
CONTINUOUS
 62
256
 10
350.486335000000000
 20
-67.968718999999993
 11
354.086335000000020
 21
-67.968718999999993
  0
ARC
  8
0
  6
CONTINUOUS
 62
256
 10
347.086335000000020
 20
-87.468718999999993
 40
1.000000000000000
 50
90.000000000000000
 51
180.000000000000000
  0
LINE
  8
0
  6
CONTINUOUS
 62
256
 10
347.086335000000020
 20
-86.468718999999993
 11
350.086335000000020
 21
-86.468718999999993
  0
LINE
  8
0
  6
CONTINUOUS
 62
256
 10
346.086335000000020
 20
-87.468718999999993
 11
346.086335000000020
 21
-123.468718999999990
  0
ARC
  8
0
  6
CONTINUOUS
 62
256
 10
347.086335000000020
 20
-123.468718999999990
 40
1.000000000000000
 50
180.000000000000000
 51
270.000000000000000
  0
LINE
  8
0
  6
CONTINUOUS
 62
256
 10
347.086335000000020
 20
-124.468718999999990
 11
350.086335000000020
 21
-124.468718999999990
  0
LINE
  8
0
  6
CONTINUOUS
 62
256
 10
354.086335000000020
 20
-152.776789000000010
 11
354.086335000000020
 21
-105.468718999999990
  0
LINE
  8
0
  6
CONTINUOUS
 62
256
 10
350.086335000000020
 20
-105.468718999999990
 11
350.086335000000020
 21
-142.568718999999990
  0
LINE
  8
0
  6
CONTINUOUS
 62
256
 10
350.086335000000020
 20
-142.568718999999990
 11
350.486335000000000
 21
-142.968718999999990
  0
LINE
  8
0
  6
CONTINUOUS
 62
256
 10
350.486335000000000
 20
-142.968718999999990
 11
354.086335000000020
 21
-142.968718999999990
  0
LINE
  8
0
  6
DASHED
 62
256
 10
365.086335000000020
 20
-136.468718999999990
 11
365.086335000000020
 21
-150.468718999999990
  0
LINE
  8
0
  6
DASHED
 62
256
 10
387.086335000000020
 20
-148.468718999999990
 11
365.086335000000020
 21
-148.468718999999990
  0
LINE
  8
0
  6
DASHED
 62
256
 10
365.086335000000020
 20
-150.468718999999990
 11
354.586335000000020
 21
-150.468718999999990
  0
LINE
  8
0
  6
CONTINUOUS
 62
256
 10
354.586182000000010
 20
-153.285438000000000
 11
354.086335000000020
 21
-152.776789000000010
  0
LINE
  8
0
  6
CONTINUOUS
 62
256
 10
365.086335000000020
 20
-153.468718999999990
 11
354.586182000000010
 21
-153.285438000000000
  0
LINE
  8
0
  6
CONTINUOUS
 62
256
 10
365.086335000000020
 20
-153.468718999999990
 11
441.086335000000020
 21
-152.124678999999990
  0
LINE
  8
0
  6
DASHED
 62
256
 10
387.086335000000020
 20
-138.468718999999990
 11
365.086335000000020
 21
-138.468718999999990
  0
LINE
  8
0
  6
DASHED
 62
256
 10
365.086335000000020
 20
-136.468718999999990
 11
354.586335000000020
 21
-136.468718999999990
  0
LINE
  8
0
  6
DASHED
 62
256
 10
387.086335000000020
 20
-138.468718999999990
 11
387.086335000000020
 21
-148.468718999999990
  0
LINE
  8
0
  6
DASHED
 62
256
 10
387.086335000000020
 20
-72.468718999999993
 11
365.086335000000020
 21
-72.468718999999993
  0
LINE
  8
0
  6
DASHED
 62
256
 10
387.086335000000020
 20
-62.468719000000000
 11
387.086335000000020
 21
-72.468718999999993
  0
LINE
  8
0
  6
DASHED
 62
256
 10
408.086335000000020
 20
-72.468718999999993
 11
408.086335000000020
 21
-62.468719000000000
  0
LINE
  8
0
  6
DASHED
 62
256
 10
430.086335000000020
 20
-63.218719000000000
 11
365.086335000000020
 21
-63.218719000000000
  0
LINE
  8
0
  6
CONTINUOUS
 62
256
 10
441.086335000000020
 20
-74.521981999999994
 11
441.086335000000020
 21
-58.812759000000000
  0
LINE
  8
0
  6
CONTINUOUS
 62
256
 10
365.086335000000020
 20
-57.468719000000000
 11
441.086335000000020
 21
-58.812759000000000
  0
LINE
  8
0
  6
DASHED
 62
256
 10
430.086335000000020
 20
-60.468719000000000
 11
441.086335000000020
 21
-60.468719000000000
  0
LINE
  8
0
  6
DASHED
 62
256
 10
430.086335000000020
 20
-62.468719000000000
 11
408.086335000000020
 21
-62.468719000000000
  0
LINE
  8
0
  6
DASHED
 62
256
 10
430.086335000000020
 20
-60.468719000000000
 11
430.086335000000020
 21
-74.468718999999993
  0
LINE
  8
0
  6
DASHED
 62
256
 10
430.086335000000020
 20
-72.468718999999993
 11
408.086335000000020
 21
-72.468718999999993
  0
LINE
  8
0
  6
DASHED
 62
256
 10
430.086335000000020
 20
-71.718718999999993
 11
365.086335000000020
 21
-71.718718999999993
  0
LINE
  8
0
  6
DASHED
 62
256
 10
430.086335000000020
 20
-74.468718999999993
 11
441.086335000000020
 21
-74.468718999999993
  0
LINE
  8
0
  6
CONTINUOUS
 62
256
 10
445.086335000000020
 20
-124.468718999999990
 11
448.086335000000020
 21
-124.468718999999990
  0
ARC
  8
0
  6
CONTINUOUS
 62
256
 10
448.086335000000020
 20
-123.468718999999990
 40
1.000000000000000
 50
270.000000000000000
 51
0.000000000000000
  0
LINE
  8
0
  6
CONTINUOUS
 62
256
 10
441.086335000000020
 20
-152.124678999999990
 11
441.086335000000020
 21
-74.521981999999994
  0
LINE
  8
0
  6
CONTINUOUS
 62
256
 10
449.086335000000020
 20
-123.468718999999990
 11
449.086335000000020
 21
-87.468718999999993
  0
ARC
  8
0
  6
CONTINUOUS
 62
256
 10
448.086335000000020
 20
-87.468718999999993
 40
1.000000000000000
 50
0.000000000000000
 51
90.000000000000000
  0
LINE
  8
0
  6
CONTINUOUS
 62
256
 10
445.086335000000020
 20
-86.468718999999993
 11
448.086335000000020
 21
-86.468718999999993
  0
LINE
  8
0
  6
DASHED
 62
256
 10
430.086335000000020
 20
-139.218718999999990
 11
365.086335000000020
 21
-139.218718999999990
  0
LINE
  8
0
  6
DASHED
 62
256
 10
430.086335000000020
 20
-136.468718999999990
 11
430.086335000000020
 21
-150.468718999999990
  0
LINE
  8
0
  6
DASHED
 62
256
 10
430.086335000000020
 20
-138.468718999999990
 11
408.086335000000020
 21
-138.468718999999990
  0
LINE
  8
0
  6
DASHED
 62
256
 10
430.086335000000020
 20
-136.468718999999990
 11
440.586335000000020
 21
-136.468718999999990
  0
LINE
  8
0
  6
DASHED
 62
256
 10
408.086335000000020
 20
-148.468718999999990
 11
408.086335000000020
 21
-138.468718999999990
  0
LINE
  8
0
  6
DASHED
 62
256
 10
430.086335000000020
 20
-147.718718999999990
 11
365.086335000000020
 21
-147.718718999999990
  0
LINE
  8
0
  6
DASHED
 62
256
 10
430.086335000000020
 20
-148.468718999999990
 11
408.086335000000020
 21
-148.468718999999990
  0
LINE
  8
0
  6
DASHED
 62
256
 10
430.086335000000020
 20
-150.468718999999990
 11
440.586335000000020
 21
-150.468718999999990
  0
LINE
  8
0
  6
CONTINUOUS
 62
256
 10
445.086335000000020
 20
-105.468718999999990
 11
445.086335000000020
 21
-68.368718999999999
  0
LINE
  8
0
  6
CONTINUOUS
 62
256
 10
445.086335000000020
 20
-68.368718999999999
 11
444.686334999999990
 21
-67.968718999999993
  0
LINE
  8
0
  6
CONTINUOUS
 62
256
 10
444.686334999999990
 20
-67.968718999999993
 11
441.086335000000020
 21
-67.968718999999993
  0
LINE
  8
0
  6
CONTINUOUS
 62
256
 10
445.086335000000020
 20
-105.468718999999990
 11
445.086335000000020
 21
-142.568718999999990
  0
LINE
  8
0
  6
CONTINUOUS
 62
256
 10
445.086335000000020
 20
-142.568718999999990
 11
444.686334999999990
 21
-142.968718999999990
  0
LINE
  8
0
  6
CONTINUOUS
 62
256
 10
444.686334999999990
 20
-142.968718999999990
 11
441.086335000000020
 21
-142.968718999999990
  0
LINE
  8
0
  6
CONTINUOUS
 62
256
 10
-137.500051000000010
 20
-184.968718999999990
 11
-137.500051000000010
 21
-65.968718999999993
  0
ARC
  8
0
  6
CONTINUOUS
 62
256
 10
441.534921999999990
 20
-75.372103999999993
 40
6.600000000000017
 50
44.999999999999829
 51
57.446096999999860
  0
LINE
  8
0
  6
CONTINUOUS
 62
256
 10
452.349853999999990
 20
-76.853227000000004
 11
446.201826999999980
 21
-70.705200000000005
  0
ARC
  8
0
  6
CONTINUOUS
 62
256
 10
447.682949000000010
 20
-81.520131000000006
 40
6.600000000000019
 50
8.597081999999919
 51
44.999999999999829
  0
ARC
  8
0
  6
CONTINUOUS
 62
256
 10
156.986335000000000
 20
-125.468718999999990
 40
300.600000000000020
 50
3.788899999999998
 51
8.597081999999999
  0
ARC
  8
0
  6
CONTINUOUS
 62
256
 10
156.986335000000000
 20
-125.468718999999990
 40
300.600000000000020
 50
0.000000000000000
 51
3.305129000000000
  0
ARC
  8
0
  6
CONTINUOUS
 62
256
 10
156.986335000000000
 20
-125.468718999999990
 40
300.600000000000020
 50
356.694870999999980
 51
0.000000000000000
  0
LINE
  8
0
  6
CONTINUOUS
 62
256
 10
446.201826999999980
 20
-180.232238000000000
 11
452.599242000000000
 21
-173.834823000000000
  0
ARC
  8
0
  6
CONTINUOUS
 62
256
 10
447.682949000000010
 20
-169.417306000000000
 40
6.600000000000017
 50
315.000000000000170
 51
351.402917999999940
  0
ARC
  8
0
  6
CONTINUOUS
 62
256
 10
156.986335000000000
 20
-125.468718999999990
 40
300.600000000000020
 50
351.402918000000000
 51
356.211099999999990
  0
LINE
  8
0
  6
CONTINUOUS
 62
256
 10
367.586335000000020
 20
-188.968718999999990
 11
427.586335000000020
 21
-188.968718999999990
  0
ARC
  8
0
  6
CONTINUOUS
 62
256
 10
347.489719999999980
 20
-169.417306000000000
 40
6.600000000000022
 50
188.597082000000030
 51
224.999999999999830
  0
LINE
  8
0
  6
CONTINUOUS
 62
256
 10
342.822815999999990
 20
-174.084211000000010
 11
348.970843000000000
 21
-180.232238000000000
  0
ARC
  8
0
  6
CONTINUOUS
 62
256
 10
638.186334999999990
 20
-125.468718999999990
 40
300.600000000000020
 50
183.788899999999980
 51
188.597082000000000
  0
ARC
  8
0
  6
CONTINUOUS
 62
256
 10
638.186334999999990
 20
-125.468718999999990
 40
300.600000000000020
 50
180.000000000000000
 51
183.305128999999970
  0
ARC
  8
0
  6
CONTINUOUS
 62
256
 10
638.186334999999990
 20
-125.468718999999990
 40
300.600000000000020
 50
176.694871000000010
 51
180.000000000000000
  0
ARC
  8
0
  6
CONTINUOUS
 62
256
 10
353.637746999999990
 20
-75.372103999999993
 40
6.600000000000007
 50
122.553903000000150
 51
135.000000000000170
  0
LINE
  8
0
  6
CONTINUOUS
 62
256
 10
342.822815999999990
 20
-76.853227000000004
 11
348.970843000000000
 21
-70.705200000000005
  0
ARC
  8
0
  6
CONTINUOUS
 62
256
 10
347.489719999999980
 20
-81.520131000000006
 40
6.600000000000017
 50
135.000000000000170
 51
171.402918000000080
  0
ARC
  8
0
  6
CONTINUOUS
 62
256
 10
638.186334999999990
 20
-125.468718999999990
 40
300.600000000000020
 50
171.402918000000000
 51
176.211099999999990
  0
LINE
  8
0
  6
CONTINUOUS
 62
256
 10
369.086335000000020
 20
-106.468718999999990
 11
441.086335000000020
 21
-106.468718999999990
  0
ARC
  8
0
  6
CONTINUOUS
 62
256
 10
369.086335000000020
 20
-105.468718999999990
 40
1.000000000000000
 50
90.000000000000000
 51
270.000000000000000
  0
LINE
  8
0
  6
CONTINUOUS
 62
256
 10
369.086335000000020
 20
-104.468718999999990
 11
441.086335000000020
 21
-104.468718999999990
  0
LINE
  8
0
  6
CONTINUOUS
 62
256
 10
354.086335000000020
 20
-106.468718999999990
 11
361.086335000000020
 21
-106.468718999999990
  0
LINE
  8
0
  6
CONTINUOUS
 62
256
 10
354.086335000000020
 20
-104.468718999999990
 11
361.086335000000020
 21
-104.468718999999990
  0
ARC
  8
0
  6
CONTINUOUS
 62
256
 10
361.086335000000020
 20
-105.468718999999990
 40
1.000000000000000
 50
270.000000000000000
 51
90.000000000000000
  0
ARC
  8
0
  6
CONTINUOUS
 62
256
 10
380.809890000000000
 20
-156.185993000000000
 40
3.000000000000002
 50
61.358543999999888
 51
90.999999999999602
  0
ARC
  8
0
  6
CONTINUOUS
 62
256
 10
415.424577000000000
 20
-155.581791000000010
 40
3.000000000000011
 50
90.999999999999602
 51
120.641455999999930
  0
ARC
  8
0
  6
CONTINUOUS
 62
256
 10
397.586335000000020
 20
-125.468718999999990
 40
31.999999999999989
 50
241.358543999999990
 51
300.641456000000010
  0
LINE
  8
0
  6
CONTINUOUS
 62
256
 10
-137.500051000000010
 20
-184.968718999999990
 11
-137.500051000000010
 21
-65.968718999999993
  0
ARC
  8
0
  6
CONTINUOUS
 62
256
 10
-134.500051000000010
 20
-182.038804000000000
 40
2.999999999999992
 50
268.645720000000150
 51
0.000000000000000
  0
ARC
  8
0
  6
CONTINUOUS
 62
256
 10
-134.500051000000010
 20
-68.968718999999993
 40
3.000000000000000
 50
0.000000000000000
 51
90.000000000000000
  0
LINE
  8
0
  6
CONTINUOUS
 62
256
 10
-131.500051000000010
 20
-105.468718999999990
 11
-137.500051000000010
 21
-105.468718999999990
  0
LINE
  8
0
  6
CONTINUOUS
 62
256
 10
-131.500051000000010
 20
-145.468718999999990
 11
-137.500051000000010
 21
-145.468718999999990
  0
CIRCLE
  8
0
  6
CONTINUOUS
 62
256
 10
-99.500462999999996
 20
-143.468718999999990
 40
5.000000000000000
  0
CIRCLE
  8
0
  6
CONTINUOUS
 62
256
 10
-99.500462999999996
 20
-143.468718999999990
 40
4.400000000000006
  0
CIRCLE
  8
0
  6
CONTINUOUS
 62
256
 10
23.499537000000000
 20
-143.468718999999990
 40
5.000000000000000
  0
CIRCLE
  8
0
  6
CONTINUOUS
 62
256
 10
23.499537000000000
 20
-143.468718999999990
 40
4.400000000000002
  0
CIRCLE
  8
0
  6
CONTINUOUS
 62
256
 10
23.499949000000001
 20
-67.468718999999993
 40
5.000000000000000
  0
CIRCLE
  8
0
  6
CONTINUOUS
 62
256
 10
23.499949000000001
 20
-67.468718999999993
 40
4.399999999999999
  0
CIRCLE
  8
0
  6
CONTINUOUS
 62
256
 10
-99.500050999999999
 20
-67.468718999999993
 40
4.400000000000006
  0
CIRCLE
  8
0
  6
CONTINUOUS
 62
256
 10
-99.500050999999999
 20
-67.468718999999993
 40
5.000000000000000
  0
CIRCLE
  8
0
  6
CONTINUOUS
 62
256
 10
-14.500050999999999
 20
-105.468718999999990
 40
37.500000000000000
  0
CIRCLE
  8
0
  6
CONTINUOUS
 62
256
 10
-14.500050999999999
 20
-105.468718999999990
 40
25.000000000000000
  0
ARC
  8
0
  6
CONTINUOUS
 62
256
 10
-37.002066999999997
 20
-67.218718999999993
 40
4.500000000000000
 50
90.000000000000000
 51
180.924166000000100
  0
ARC
  8
0
  6
CONTINUOUS
 62
256
 10
-37.002066999999997
 20
-143.718718999999990
 40
4.499999999999999
 50
179.075834000000070
 51
270.000000000000000
  0
LINE
  8
0
  6
DASHDOT
 62
256
 10
23.499949000000001
 20
-57.468719000000000
 11
23.499949000000001
 21
-77.468718999999993
  0
LINE
  8
0
  6
DASHDOT
 62
256
 10
33.499949000000001
 20
-67.468718999999993
 11
13.499949000000001
 21
-67.468718999999993
  0
LINE
  8
0
  6
DASHDOT
 62
256
 10
23.499949000000001
 20
-133.468718999999990
 11
23.499949000000001
 21
-153.468718999999990
  0
LINE
  8
0
  6
DASHDOT
 62
256
 10
33.499949000000001
 20
-143.468718999999990
 11
13.499949000000001
 21
-143.468718999999990
  0
LINE
  8
0
  6
DASHDOT
 62
256
 10
-99.500050999999999
 20
-133.468718999999990
 11
-99.500050999999999
 21
-153.468718999999990
  0
LINE
  8
0
  6
DASHDOT
 62
256
 10
-89.500050999999999
 20
-143.468718999999990
 11
-109.500051000000000
 21
-143.468718999999990
  0
LINE
  8
0
  6
DASHDOT
 62
256
 10
-99.500050999999999
 20
-57.468719000000000
 11
-99.500050999999999
 21
-77.468718999999993
  0
LINE
  8
0
  6
DASHDOT
 62
256
 10
-89.500050999999999
 20
-67.468718999999993
 11
-109.500051000000000
 21
-67.468718999999993
  0
INSERT
  8
0
  2
ZU_SYM_1
 10
11.000221000000000
 20
-63.468415999999998
  0
INSERT
  8
0
  2
ZU_SYM_2
 10
11.000221000000000
 20
-147.469021000000000
  0
INSERT
  8
0
  2
ZU_SYM_3
 10
-87.000050999999999
 20
-147.468718999999990
  0
INSERT
  8
0
  2
ZU_SYM_4
 10
-87.000050999999999
 20
-63.468719000000000
  0
CIRCLE
  8
0
  6
CONTINUOUS
 62
256
 10
-14.500050999999999
 20
-105.468718999999990
 40
19.000000000000000
  0
CIRCLE
  8
0
  6
CONTINUOUS
 62
256
 10
105.542328000000000
 20
-105.468718999999990
 40
19.000000000000000
  0
LINE
  8
0
  6
DASHDOT
 62
256
 10
105.542328000000000
 20
-75.241602999999998
 11
105.542328000000000
 21
-134.249616000000000
  0
LINE
  8
0
  6
DASHDOT
 62
256
 10
77.172926000000004
 20
-105.468718999999990
 11
135.000779999999990
 21
-105.468718999999990
  0
LINE
  8
0
  6
CONTINUOUS
 62
256
 10
287.263959000000000
 20
-117.968718999999990
 11
287.263959000000000
 21
-92.968660000000000
  0
LINE
  8
0
  6
CONTINUOUS
 62
256
 10
191.191959000000000
 20
-117.968718999999990
 11
191.191959000000000
 21
-92.968660000000000
  0
LINE
  8
0
  6
CONTINUOUS
 62
256
 10
225.727959000000000
 20
-118.168719000000000
 11
225.727959000000000
 21
-92.768719000000004
  0
LINE
  8
0
  6
CONTINUOUS
 62
256
 10
252.727959000000000
 20
-118.168719000000000
 11
252.727959000000000
 21
-92.768719000000004
  0
LINE
  8
0
  6
CONTINUOUS
 62
256
 10
270.077959000000020
 20
-118.568719000000000
 11
270.077959000000020
 21
-92.368718999999999
  0
LINE
  8
0
  6
CONTINUOUS
 62
256
 10
268.727959000000000
 20
-118.568719000000000
 11
268.727959000000000
 21
-92.368718999999999
  0
LINE
  8
0
  6
CONTINUOUS
 62
256
 10
209.727959000000000
 20
-118.568719000000000
 11
209.727959000000000
 21
-92.368718999999999
  0
LINE
  8
0
  6
CONTINUOUS
 62
256
 10
208.377959000000000
 20
-118.568719000000000
 11
208.377959000000000
 21
-92.368718999999999
  0
LINE
  8
0
  6
CONTINUOUS
 62
256
 10
270.077959000000020
 20
-118.568719000000000
 11
268.727959000000000
 21
-118.568719000000000
  0
ARC
  8
0
  6
CONTINUOUS
 62
256
 10
188.727959000000000
 20
-123.468718999999990
 40
1.000000000000000
 50
180.000000000000000
 51
270.000000000000000
  0
LINE
  8
0
  6
CONTINUOUS
 62
256
 10
188.727959000000000
 20
-124.468718999999990
 11
204.327958999999990
 21
-124.468718999999990
  0
ARC
  8
0
  6
CONTINUOUS
 62
256
 10
216.327933000000000
 20
-125.868719000000000
 40
0.399999999999992
 50
359.999929999999490
 51
90.000000000000000
  0
LINE
  8
0
  6
CONTINUOUS
 62
256
 10
205.127959000000000
 20
-125.468718999999990
 11
216.327933000000000
 21
-125.468718999999990
  0
LINE
  8
0
  6
CONTINUOUS
 62
256
 10
216.727931000000010
 20
-127.568718000000000
 11
216.727933000000010
 21
-125.868719000000000
  0
LINE
  8
0
  6
CONTINUOUS
 62
256
 10
247.327958999999990
 20
-127.968718999999990
 11
217.127930999999990
 21
-127.968718999999990
  0
ARC
  8
0
  6
CONTINUOUS
 62
256
 10
248.127959000000000
 20
-126.118719000000000
 40
0.400000000000006
 50
90.000000000000000
 51
180.000000000000000
  0
LINE
  8
0
  6
CONTINUOUS
 62
256
 10
259.727959000000000
 20
-125.718718999999990
 11
248.127959000000000
 21
-125.718718999999990
  0
ARC
  8
0
  6
CONTINUOUS
 62
256
 10
217.127930999999990
 20
-127.568719000000000
 40
0.399999999999992
 50
179.999929999999470
 51
270.000000000000000
  0
ARC
  8
0
  6
CONTINUOUS
 62
256
 10
247.327958999999990
 20
-127.568719000000000
 40
0.400000000000006
 50
270.000000000000000
 51
0.000000000000000
  0
ARC
  8
0
  6
CONTINUOUS
 62
256
 10
289.727959000000000
 20
-123.468718999999990
 40
1.000000000000000
 50
270.000000000000000
 51
0.000000000000000
  0
LINE
  8
0
  6
CONTINUOUS
 62
256
 10
247.727959000000000
 20
-127.568719000000000
 11
247.727959000000000
 21
-126.118719000000000
  0
ARC
  8
0
  6
CONTINUOUS
 62
256
 10
274.127958999999980
 20
-124.868719000000000
 40
0.400000000000006
 50
90.000000000000000
 51
180.000000000000000
  0
ARC
  8
0
  6
CONTINUOUS
 62
256
 10
273.327959000000020
 20
-125.068719000000000
 40
0.400000000000006
 50
270.000000000000000
 51
0.000000000000000
  0
LINE
  8
0
  6
CONTINUOUS
 62
256
 10
259.727959000000000
 20
-125.718718999999990
 11
259.727959000000000
 21
-125.468718999999990
  0
ARC
  8
0
  6
CONTINUOUS
 62
256
 10
205.127959000000000
 20
-125.068719000000000
 40
0.400000000000006
 50
180.000000000000000
 51
270.000000000000000
  0
ARC
  8
0
  6
CONTINUOUS
 62
256
 10
204.327958999999990
 20
-124.868719000000000
 40
0.400000000000006
 50
0.000000000000000
 51
90.000000000000000
  0
LINE
  8
0
  6
CONTINUOUS
 62
256
 10
273.327959000000020
 20
-125.468718999999990
 11
259.727959000000000
 21
-125.468718999999990
  0
LINE
  8
0
  6
CONTINUOUS
 62
256
 10
273.727959000000000
 20
-124.868719000000000
 11
273.727959000000000
 21
-125.068719000000000
  0
LINE
  8
0
  6
CONTINUOUS
 62
256
 10
204.727959000000000
 20
-124.868719000000000
 11
204.727959000000000
 21
-125.068719000000000
  0
LINE
  8
0
  6
CONTINUOUS
 62
256
 10
289.727959000000000
 20
-124.468718999999990
 11
274.127958999999980
 21
-124.468718999999990
  0
LINE
  8
0
  6
CONTINUOUS
 62
256
 10
290.727959000000000
 20
-119.968718999999990
 11
287.263856999999970
 21
-117.968718999999990
  0
LINE
  8
0
  6
CONTINUOUS
 62
256
 10
287.263959000000000
 20
-117.968718999999990
 11
270.077959000000020
 21
-117.968718999999990
  0
LINE
  8
0
  6
CONTINUOUS
 62
256
 10
268.727959000000000
 20
-117.968718999999990
 11
252.727959000000000
 21
-117.968718999999990
  0
LINE
  8
0
  6
CONTINUOUS
 62
256
 10
252.727959000000000
 20
-118.168719000000000
 11
225.727959000000000
 21
-118.168719000000000
  0
LINE
  8
0
  6
CONTINUOUS
 62
256
 10
209.727959000000000
 20
-117.968718999999990
 11
225.727959000000000
 21
-117.968718999999990
  0
LINE
  8
0
  6
CONTINUOUS
 62
256
 10
191.192061000000000
 20
-117.968718999999990
 11
208.377959000000000
 21
-117.968718999999990
  0
LINE
  8
0
  6
CONTINUOUS
 62
256
 10
208.377959000000000
 20
-118.568719000000000
 11
209.727959000000000
 21
-118.568719000000000
  0
LINE
  8
0
  6
CONTINUOUS
 62
256
 10
187.727959000000000
 20
-119.968718999999990
 11
191.192061000000000
 21
-117.968718999999990
  0
LINE
  8
0
  6
DASHDOT
 62
256
 10
295.462076000000020
 20
-105.468718999999990
 11
181.777573999999990
 21
-105.468718999999990
  0
ARC
  8
0
  6
CONTINUOUS
 62
256
 10
216.327933000000000
 20
-85.068719000000002
 40
0.400000000000006
 50
270.000000000000000
 51
0.000070000000531
  0
LINE
  8
0
  6
CONTINUOUS
 62
256
 10
205.127959000000000
 20
-85.468718999999993
 11
216.327933000000000
 21
-85.468718999999993
  0
LINE
  8
0
  6
CONTINUOUS
 62
256
 10
216.727931000000010
 20
-83.368718999999999
 11
216.727933000000010
 21
-85.068718000000004
  0
LINE
  8
0
  6
CONTINUOUS
 62
256
 10
247.327958999999990
 20
-82.968718999999993
 11
217.127930999999990
 21
-82.968718999999993
  0
ARC
  8
0
  6
CONTINUOUS
 62
256
 10
248.127959000000000
 20
-84.818719000000002
 40
0.400000000000006
 50
180.000000000000000
 51
270.000000000000000
  0
LINE
  8
0
  6
CONTINUOUS
 62
256
 10
259.727959000000000
 20
-85.218718999999993
 11
248.127959000000000
 21
-85.218718999999993
  0
ARC
  8
0
  6
CONTINUOUS
 62
256
 10
217.127930999999990
 20
-83.368718999999999
 40
0.400000000000006
 50
90.000000000000000
 51
180.000070000000530
  0
ARC
  8
0
  6
CONTINUOUS
 62
256
 10
247.327958999999990
 20
-83.368718999999999
 40
0.400000000000006
 50
0.000000000000000
 51
90.000000000000000
  0
ARC
  8
0
  6
CONTINUOUS
 62
256
 10
289.727959000000000
 20
-87.468718999999993
 40
1.000000000000000
 50
0.000000000000000
 51
90.000000000000000
  0
ARC
  8
0
  6
CONTINUOUS
 62
256
 10
188.727959000000000
 20
-87.468718999999993
 40
1.000000000000000
 50
90.000000000000000
 51
180.000000000000000
  0
LINE
  8
0
  6
CONTINUOUS
 62
256
 10
290.727959000000000
 20
-90.968718999999993
 11
287.263856999999970
 21
-92.968718999999993
  0
LINE
  8
0
  6
CONTINUOUS
 62
256
 10
187.727959000000000
 20
-90.968718999999993
 11
191.192061000000000
 21
-92.968718999999993
  0
LINE
  8
0
  6
CONTINUOUS
 62
256
 10
252.727959000000000
 20
-92.768719000000004
 11
225.727959000000000
 21
-92.768719000000004
  0
LINE
  8
0
  6
CONTINUOUS
 62
256
 10
247.727959000000000
 20
-83.368718999999999
 11
247.727959000000000
 21
-84.818719000000002
  0
LINE
  8
0
  6
CONTINUOUS
 62
256
 10
191.192061000000000
 20
-92.968718999999993
 11
208.377959000000000
 21
-92.968718999999993
  0
LINE
  8
0
  6
CONTINUOUS
 62
256
 10
208.377959000000000
 20
-92.368718999999999
 11
209.727959000000000
 21
-92.368718999999999
  0
LINE
  8
0
  6
CONTINUOUS
 62
256
 10
209.727959000000000
 20
-92.968718999999993
 11
225.727959000000000
 21
-92.968718999999993
  0
LINE
  8
0
  6
CONTINUOUS
 62
256
 10
268.727959000000000
 20
-92.968718999999993
 11
252.727959000000000
 21
-92.968718999999993
  0
LINE
  8
0
  6
CONTINUOUS
 62
256
 10
270.077959000000020
 20
-92.368718999999999
 11
268.727959000000000
 21
-92.368718999999999
  0
ARC
  8
0
  6
CONTINUOUS
 62
256
 10
274.127958999999980
 20
-86.068719000000002
 40
0.399999999999977
 50
180.000000000000000
 51
270.000000000000000
  0
ARC
  8
0
  6
CONTINUOUS
 62
256
 10
273.327959000000020
 20
-85.868718999999999
 40
0.399999999999977
 50
0.000000000000000
 51
90.000000000000000
  0
LINE
  8
0
  6
CONTINUOUS
 62
256
 10
259.727959000000000
 20
-85.218718999999993
 11
259.727959000000000
 21
-85.468718999999993
  0
ARC
  8
0
  6
CONTINUOUS
 62
256
 10
205.127959000000000
 20
-85.868718999999999
 40
0.400000000000006
 50
90.000000000000000
 51
180.000000000000000
  0
ARC
  8
0
  6
CONTINUOUS
 62
256
 10
204.327958999999990
 20
-86.068719000000002
 40
0.400000000000006
 50
270.000000000000000
 51
0.000000000000000
  0
LINE
  8
0
  6
CONTINUOUS
 62
256
 10
287.263959000000000
 20
-92.968718999999993
 11
270.077959000000020
 21
-92.968718999999993
  0
LINE
  8
0
  6
CONTINUOUS
 62
256
 10
273.327959000000020
 20
-85.468718999999993
 11
259.727959000000000
 21
-85.468718999999993
  0
LINE
  8
0
  6
CONTINUOUS
 62
256
 10
273.727959000000000
 20
-86.068719000000002
 11
273.727959000000000
 21
-85.868718999999999
  0
LINE
  8
0
  6
CONTINUOUS
 62
256
 10
204.727959000000000
 20
-86.068719000000002
 11
204.727959000000000
 21
-85.868718999999999
  0
LINE
  8
0
  6
CONTINUOUS
 62
256
 10
290.727959000000000
 20
-123.468718999999990
 11
290.727959000000000
 21
-87.468718999999993
  0
LINE
  8
0
  6
CONTINUOUS
 62
256
 10
289.727959000000000
 20
-86.468718999999993
 11
274.127958999999980
 21
-86.468718999999993
  0
LINE
  8
0
  6
CONTINUOUS
 62
256
 10
187.727959000000000
 20
-123.468718999999990
 11
187.727959000000000
 21
-87.468718999999993
  0
LINE
  8
0
  6
CONTINUOUS
 62
256
 10
188.727959000000000
 20
-86.468718999999993
 11
204.327958999999990
 21
-86.468718999999993
  0
LINE
  8
0
  6
CONTINUOUS
 62
256
 10
290.727959000000000
 20
-89.668718999999996
 11
187.727959000000000
 21
-89.668718999999996
  0
ARC
  8
0
  6
CONTINUOUS
 62
256
 10
105.542328000000000
 20
-105.468718999999990
 40
12.500000000000002
 50
108.662925000000020
 51
71.337074999999999
  0
LINE
  8
0
  6
CONTINUOUS
 62
256
 10
109.542328000000000
 20
-89.668718999999996
 11
109.542328000000000
 21
-93.626000000000005
  0
LINE
  8
0
  6
CONTINUOUS
 62
256
 10
101.542328000000000
 20
-89.668718999999996
 11
101.542328000000000
 21
-93.626000000000005
  0
LINE
  8
0
  6
CONTINUOUS
 62
256
 10
101.542328000000000
 20
-89.668718999999996
 11
109.542328000000000
 21
-89.668718999999996
  0
LINE
  8
0
  6
CONTINUOUS
 62
256
 10
-242.828002000000000
 20
-202.968718999999990
 11
-241.919131999999990
 21
-202.968718999999990
  0
LINE
  8
0
  6
CONTINUOUS
 62
256
 10
-242.881464999999990
 20
-214.968718999999990
 11
-241.705281000000010
 21
-214.968718999999990
  0
POINT
  8
0
  6
CONTINUOUS
 62
256
 10
442.976576000000020
 20
-162.373678000000010
  0
POINT
  8
0
  6
CONTINUOUS
 62
256
 10
352.333432000000020
 20
-175.468718999999990
  0
ARC
  8
0
  6
CONTINUOUS
 62
256
 10
353.061759000000000
 20
-173.481126999999990
 40
1.999999999999993
 50
230.053221999999810
 51
268.999999999999830
  0
LINE
  8
0
  6
CONTINUOUS
 62
256
 10
353.026854000000010
 20
-175.480822999999990
 11
365.117228000000010
 21
-175.691860999999990
  0
ARC
  8
0
  6
CONTINUOUS
 62
256
 10
364.942703999999990
 20
-185.690338000000000
 40
9.999999999999989
 50
61.539724000000142
 51
88.999999999999858
  0
POINT
  8
0
  6
CONTINUOUS
 62
256
 10
442.839238000000020
 20
-175.468718999999990
  0
ARC
  8
0
  6
CONTINUOUS
 62
256
 10
442.110909999999990
 20
-173.481126999999990
 40
1.999999999999998
 50
271.000000000000110
 51
309.946778000000170
  0
LINE
  8
0
  6
CONTINUOUS
 62
256
 10
442.145815000000030
 20
-175.480822999999990
 11
430.055440999999970
 21
-175.691860999999990
  0
ARC
  8
0
  6
CONTINUOUS
 62
256
 10
430.229964999999990
 20
-185.690338000000000
 40
9.999999999999989
 50
91.000000000000156
 51
118.460275999999850
  0
POINT
  8
0
  6
CONTINUOUS
 62
256
 10
346.012630000000000
 20
-82.380295000000004
  0
POINT
  8
0
  6
CONTINUOUS
 62
256
 10
346.012630000000000
 20
-168.557143000000000
  0
ARC
  8
0
  6
CONTINUOUS
 62
256
 10
348.615535000000020
 20
-168.782664000000010
 40
2.000000000000016
 50
135.000000000000000
 51
216.786788999999740
  0
ARC
  8
0
  6
CONTINUOUS
 62
256
 10
456.586335000000020
 20
-105.968718999999990
 40
0.500000000000000
 50
0.000000000000000
 51
90.000000000000000
  0
ARC
  8
0
  6
CONTINUOUS
 62
256
 10
455.061333999999990
 20
-104.968718999999990
 40
0.500000000000028
 50
182.934025000000020
 51
270.000000000000000
  0
ARC
  8
0
  6
CONTINUOUS
 62
256
 10
455.061333999999990
 20
-145.968718999999990
 40
0.500000000000000
 50
90.000000000000000
 51
177.065974999999950
  0
LINE
  8
0
  6
CONTINUOUS
 62
256
 10
397.586335000000020
 20
-184.968718999999990
 11
417.086335000000020
 21
-184.968718999999990
  0
ARC
  8
0
  6
CONTINUOUS
 62
256
 10
417.086335000000020
 20
-184.468718999999990
 40
0.500000000000000
 50
270.000000000000000
 51
0.000000000000000
  0
LINE
  8
0
  6
CONTINUOUS
 62
256
 10
417.586335000000020
 20
-184.468718999999990
 11
417.586335000000020
 21
-182.943717999999990
  0
ARC
  8
0
  6
CONTINUOUS
 62
256
 10
418.086335000000020
 20
-182.943717999999990
 40
0.499999999999999
 50
92.934025000000204
 51
180.000000000000000
  0
ARC
  8
0
  6
CONTINUOUS
 62
256
 10
446.969186999999980
 20
-162.123649000000000
 40
3.000000000000010
 50
143.414967999999850
 51
224.999999999999630
  0
LINE
  8
0
  6
CONTINUOUS
 62
256
 10
447.971347999999980
 20
-167.368450999999990
 11
444.847867000000010
 21
-164.244969000000000
  0
POINT
  8
0
  6
CONTINUOUS
 62
256
 10
449.160039999999980
 20
-168.557143000000000
  0
ARC
  8
0
  6
CONTINUOUS
 62
256
 10
446.557135000000020
 20
-168.782664000000010
 40
2.000000000000010
 50
323.213211000000230
 51
45.000000000000000
  0
POINT
  8
0
  6
CONTINUOUS
 62
256
 10
440.674758000000000
 20
-177.042424000000010
  0
POINT
  8
0
  6
CONTINUOUS
 62
256
 10
449.160039999999980
 20
-82.380295000000004
  0
POINT
  8
0
  6
CONTINUOUS
 62
256
 10
449.160039999999980
 20
-82.380295000000004
  0
ARC
  8
0
  6
CONTINUOUS
 62
256
 10
446.557135000000020
 20
-82.154773000000006
 40
2.000000000000006
 50
315.000000000000280
 51
36.786788999999757
  0
ARC
  8
0
  6
CONTINUOUS
 62
256
 10
446.969186999999980
 20
-162.123649000000000
 40
3.000000000000010
 50
143.414967999999850
 51
224.999999999999630
  0
LINE
  8
0
  6
CONTINUOUS
 62
256
 10
447.971347999999980
 20
-167.368450999999990
 11
444.847867000000010
 21
-164.244969000000000
  0
POINT
  8
0
  6
CONTINUOUS
 62
256
 10
449.160039999999980
 20
-168.557143000000000
  0
ARC
  8
0
  6
CONTINUOUS
 62
256
 10
446.557135000000020
 20
-168.782664000000010
 40
2.000000000000010
 50
323.213211000000230
 51
45.000000000000000
  0
POINT
  8
0
  6
CONTINUOUS
 62
256
 10
440.674758000000000
 20
-177.042424000000010
  0
ARC
  8
0
  6
CONTINUOUS
 62
256
 10
348.203483000000010
 20
-162.123649000000000
 40
3.000000000000004
 50
315.000000000000340
 51
36.585032000000176
  0
LINE
  8
0
  6
CONTINUOUS
 62
256
 10
347.201321000000010
 20
-167.368450999999990
 11
350.324802999999970
 21
-164.244969000000000
  0
POINT
  8
0
  6
CONTINUOUS
 62
256
 10
346.012630000000000
 20
-168.557143000000000
  0
ARC
  8
0
  6
CONTINUOUS
 62
256
 10
348.615535000000020
 20
-168.782664000000010
 40
2.000000000000016
 50
135.000000000000000
 51
216.786788999999740
  0
ARC
  8
0
  6
CONTINUOUS
 62
256
 10
348.615535000000020
 20
-82.154773000000006
 40
2.000000000000010
 50
143.213211000000260
 51
224.999999999999690
  0
POINT
  8
0
  6
CONTINUOUS
 62
256
 10
346.012630000000000
 20
-82.380295000000004
  0
LINE
  8
0
  6
CONTINUOUS
 62
256
 10
338.086335000000020
 20
-125.468718999999990
 11
338.086335000000020
 21
-144.968718999999990
  0
ARC
  8
0
  6
CONTINUOUS
 62
256
 10
338.586335000000020
 20
-144.968718999999990
 40
0.500000000000000
 50
180.000000000000000
 51
270.000000000000000
  0
LINE
  8
0
  6
CONTINUOUS
 62
256
 10
338.586335000000020
 20
-145.468718999999990
 11
340.111335999999990
 21
-145.468718999999990
  0
ARC
  8
0
  6
CONTINUOUS
 62
256
 10
340.111335999999990
 20
-145.968718999999990
 40
0.500000000000028
 50
2.934025000000031
 51
90.000000000000000
  0
ARC
  8
0
  6
CONTINUOUS
 62
256
 10
740.086334999999960
 20
-125.468718999999990
 40
400.000000000000000
 50
182.934025000000020
 51
184.114344999999960
  0
LINE
  8
0
  6
CONTINUOUS
 62
256
 10
397.586335000000020
 20
-184.968718999999990
 11
378.086335000000020
 21
-184.968718999999990
  0
ARC
  8
0
  6
CONTINUOUS
 62
256
 10
378.086335000000020
 20
-184.468718999999990
 40
0.500000000000000
 50
180.000000000000000
 51
270.000000000000000
  0
LINE
  8
0
  6
CONTINUOUS
 62
256
 10
377.586335000000020
 20
-184.468718999999990
 11
377.586335000000020
 21
-182.943717999999990
  0
ARC
  8
0
  6
CONTINUOUS
 62
256
 10
377.086335000000020
 20
-182.943717999999990
 40
0.500000000000000
 50
0.000000000000000
 51
87.065974999999796
  0
ARC
  8
0
  6
CONTINUOUS
 62
256
 10
397.586335000000020
 20
217.031281000000010
 40
399.999999999999940
 50
265.885654999999990
 51
267.065974999999980
  0
ARC
  8
0
  6
CONTINUOUS
 62
256
 10
371.039879999999980
 20
-152.015174000000000
 40
30.000000000000018
 50
184.114344999999960
 51
265.885655000000040
  0
LINE
  8
0
  6
CONTINUOUS
 62
256
 10
457.086335000000020
 20
-125.468718999999990
 11
457.086335000000020
 21
-144.968718999999990
  0
ARC
  8
0
  6
CONTINUOUS
 62
256
 10
456.586335000000020
 20
-144.968718999999990
 40
0.500000000000000
 50
270.000000000000000
 51
0.000000000000000
  0
LINE
  8
0
  6
CONTINUOUS
 62
256
 10
456.586335000000020
 20
-145.468718999999990
 11
455.061333999999990
 21
-145.468718999999990
  0
ARC
  8
0
  6
CONTINUOUS
 62
256
 10
455.061333999999990
 20
-145.968718999999990
 40
0.500000000000000
 50
90.000000000000000
 51
177.065974999999950
  0
ARC
  8
0
  6
CONTINUOUS
 62
256
 10
55.086334999999998
 20
-125.468718999999990
 40
399.999999999999940
 50
355.885654999999990
 51
357.065974999999980
  0
LINE
  8
0
  6
CONTINUOUS
 62
256
 10
397.586335000000020
 20
-184.968718999999990
 11
417.086335000000020
 21
-184.968718999999990
  0
ARC
  8
0
  6
CONTINUOUS
 62
256
 10
417.086335000000020
 20
-184.468718999999990
 40
0.500000000000000
 50
270.000000000000000
 51
0.000000000000000
  0
LINE
  8
0
  6
CONTINUOUS
 62
256
 10
417.586335000000020
 20
-184.468718999999990
 11
417.586335000000020
 21
-182.943717999999990
  0
ARC
  8
0
  6
CONTINUOUS
 62
256
 10
418.086335000000020
 20
-182.943717999999990
 40
0.499999999999999
 50
92.934025000000204
 51
180.000000000000000
  0
ARC
  8
0
  6
CONTINUOUS
 62
256
 10
397.586335000000020
 20
217.031281000000010
 40
400.000000000000000
 50
272.934025000000020
 51
274.114345000000010
  0
ARC
  8
0
  6
CONTINUOUS
 62
256
 10
424.132789000000000
 20
-152.015174000000000
 40
29.999999999999989
 50
274.114344999999960
 51
355.885654999999990
  0
LINE
  8
0
  6
CONTINUOUS
 62
256
 10
457.086335000000020
 20
-125.468718999999990
 11
457.086335000000020
 21
-105.968718999999990
  0
ARC
  8
0
  6
CONTINUOUS
 62
256
 10
456.586335000000020
 20
-105.968718999999990
 40
0.500000000000000
 50
0.000000000000000
 51
90.000000000000000
  0
LINE
  8
0
  6
CONTINUOUS
 62
256
 10
456.586335000000020
 20
-105.468718999999990
 11
455.061333999999990
 21
-105.468718999999990
  0
ARC
  8
0
  6
CONTINUOUS
 62
256
 10
455.061333999999990
 20
-104.968718999999990
 40
0.500000000000028
 50
182.934025000000020
 51
270.000000000000000
  0
ARC
  8
0
  6
CONTINUOUS
 62
256
 10
55.086334999999998
 20
-125.468718999999990
 40
400.000000000000000
 50
2.934025000000001
 51
4.114344999999999
  0
ARC
  8
0
  6
CONTINUOUS
 62
256
 10
340.111335999999990
 20
-104.968718999999990
 40
0.500000000000000
 50
270.000000000000000
 51
357.065974999999980
  0
ARC
  8
0
  6
CONTINUOUS
 62
256
 10
338.586335000000020
 20
-105.968718999999990
 40
0.500000000000000
 50
90.000000000000000
 51
180.000000000000000
  0
ARC
  8
0
  6
CONTINUOUS
 62
256
 10
740.086334999999960
 20
-125.468718999999990
 40
400.000000000000060
 50
175.885655000000010
 51
177.065975000000010
  0
LINE
  8
0
  6
CONTINUOUS
 62
256
 10
338.586335000000020
 20
-105.468718999999990
 11
340.111335999999990
 21
-105.468718999999990
  0
LINE
  8
0
  6
CONTINUOUS
 62
256
 10
338.086335000000020
 20
-125.468718999999990
 11
338.086335000000020
 21
-105.968718999999990
  0
LINE
  8
0
  6
DASHDOT
 62
256
 10
443.048403000000010
 20
-67.468718999999993
 11
351.510365999999980
 21
-67.468718999999993
  0
LINE
  8
0
  6
DASHDOT
 62
256
 10
442.516206000000010
 20
-143.468718999999990
 11
352.574761000000020
 21
-143.468718999999990
  0
ARC
  8
0
  6
CONTINUOUS
 62
256
 10
424.132789000000000
 20
-98.922263999999998
 40
30.000000000000018
 50
4.114344999999991
 51
45.697099999999999
  0
ARC
  8
0
  6
CONTINUOUS
 62
256
 10
371.039879999999980
 20
-98.922263999999998
 40
30.000000000000000
 50
134.302900000000020
 51
175.885655000000010
  0
LINE
  8
0
  6
CONTINUOUS
 62
256
 10
347.201321000000010
 20
-83.568987000000007
 11
350.086335000000020
 21
-86.453999999999994
  0
LINE
  8
0
  6
CONTINUOUS
 62
256
 10
447.971347999999980
 20
-83.568987000000007
 11
445.086335000000020
 21
-86.453999999999994
  0
ARC
  8
0
  6
CONTINUOUS
 62
256
 10
397.586335000000020
 20
-125.468718999999990
 40
58.499999999999986
 50
151.683631999999990
 51
28.316368000000015
  0
LINE
  8
0
  6
CONTINUOUS
 62
256
 10
-131.500051000000010
 20
-68.968718999999993
 11
-131.500051000000010
 21
-70.372411000000000
  0
LINE
  8
0
  6
CONTINUOUS
 62
256
 10
-131.500051000000010
 20
-83.283987999999994
 11
-131.500051000000010
 21
-125.468718999999990
  0
LINE
  8
0
  6
CONTINUOUS
 62
256
 10
-131.500051000000010
 20
-167.653449999999990
 11
-131.500051000000010
 21
-125.468718999999990
  0
LINE
  8
0
  6
CONTINUOUS
 62
256
 10
-131.500051000000010
 20
-182.038804000000000
 11
-131.500051000000010
 21
-180.565025999999990
  0
LINE
  8
0
  6
CONTINUOUS
 62
256
 10
-118.500051000000000
 20
-182.346137000000000
 11
-118.500051000000000
 21
-68.968718999999993
  0
LINE
  8
0
  6
CONTINUOUS
 62
256
 10
-113.978291000000000
 20
-65.968718999999993
 11
-137.500051000000010
 21
-65.968718999999993
  0
LINE
  8
0
  6
CONTINUOUS
 62
256
 10
-109.500051000000000
 20
-125.468718999999990
 11
-109.500051000000000
 21
-146.468718999999990
  0
LINE
  8
0
  6
CONTINUOUS
 62
256
 10
-109.500051000000000
 20
-64.468718999999993
 11
-109.500051000000000
 21
-125.468718999999990
  0
LINE
  8
0
  6
DASHDOT
 62
256
 10
-87.500050999999999
 20
-143.468718999999990
 11
-111.500051000000000
 21
-143.468718999999990
  0
LINE
  8
0
  6
DASHDOT
 62
256
 10
-99.500050999999999
 20
-131.468718999999990
 11
-99.500050999999999
 21
-155.468718999999990
  0
LINE
  8
0
  6
DASHDOT
 62
256
 10
-87.500050999999999
 20
-67.468718999999993
 11
-111.500051000000000
 21
-67.468718999999993
  0
LINE
  8
0
  6
DASHDOT
 62
256
 10
-99.500050999999999
 20
-55.468719000000000
 11
-99.500050999999999
 21
-79.468718999999993
  0
LINE
  8
0
  6
CONTINUOUS
 62
256
 10
-102.500051000000000
 20
-57.468719000000000
 11
26.499949000000001
 21
-57.468719000000000
  0
LINE
  8
0
  6
DASHDOT
 62
256
 10
-99.500050999999999
 20
-55.468719000000000
 11
-99.500050999999999
 21
-79.468718999999993
  0
LINE
  8
0
  6
DASHDOT
 62
256
 10
35.499949000000001
 20
-67.468718999999993
 11
11.499949000000001
 21
-67.468718999999993
  0
LINE
  8
0
  6
DASHDOT
 62
256
 10
23.499949000000001
 20
-55.468719000000000
 11
23.499949000000001
 21
-79.468718999999993
  0
LINE
  8
0
  6
DASHDOT
 62
256
 10
35.499949000000001
 20
-143.468718999999990
 11
11.499949000000001
 21
-143.468718999999990
  0
LINE
  8
0
  6
DASHDOT
 62
256
 10
23.499949000000001
 20
-131.468718999999990
 11
23.499949000000001
 21
-155.468718999999990
  0
LINE
  8
0
  6
CONTINUOUS
 62
256
 10
33.499949000000001
 20
-64.468718999999993
 11
33.499949000000001
 21
-146.468718999999990
  0
LINE
  8
0
  6
DASHDOT
 62
256
 10
37.000360999999998
 20
-67.468718999999993
 11
10.000361000000000
 21
-67.468718999999993
  0
LINE
  8
0
  6
CONTINUOUS
 62
256
 10
-115.500051000000000
 20
-153.468718999999990
 11
26.499949000000001
 21
-153.468718999999990
  0
LINE
  8
0
  6
CONTINUOUS
 62
256
 10
-137.500051000000010
 20
-184.968718999999990
 11
-121.570955000000000
 21
-185.345299000000010
  0
LINE
  8
0
  6
CONTINUOUS
 62
256
 10
-112.000051000000000
 20
-156.471905999999990
 11
-115.500051000000000
 21
-156.471905999999990
  0
ARC
  8
0
  6
CONTINUOUS
 62
256
 10
-115.500051000000000
 20
-156.468718999999990
 40
3.000000000000000
 50
90.000000000000000
 51
180.000000000000000
  0
ARC
  8
0
  6
CONTINUOUS
 62
256
 10
-121.500051000000000
 20
-68.968718999999993
 40
3.000000000000000
 50
0.000000000000000
 51
90.000000000000000
  0
ARC
  8
0
  6
CONTINUOUS
 62
256
 10
-113.978291000000000
 20
-60.968719000000000
 40
4.999999999999993
 50
270.000000000000000
 51
343.042237000000000
  0
ARC
  8
0
  6
CONTINUOUS
 62
256
 10
-102.500051000000000
 20
-64.468718999999993
 40
7.000000000000000
 50
90.000000000000000
 51
180.000000000000000
  0
ARC
  8
0
  6
CONTINUOUS
 62
256
 10
-112.000051000000000
 20
-154.471905999999990
 40
2.000000000000000
 50
270.000000000000000
 51
336.461659000000400
  0
ARC
  8
0
  6
CONTINUOUS
 62
256
 10
-107.416086000000010
 20
-156.468718999999990
 40
3.000000000000000
 50
90.000000000000000
 51
156.461659000000110
  0
ARC
  8
0
  6
CONTINUOUS
 62
256
 10
-115.500051000000000
 20
-159.471905999999990
 40
3.000000000000000
 50
90.000000000000000
 51
180.000000000000000
  0
ARC
  8
0
  6
CONTINUOUS
 62
256
 10
-121.500051000000000
 20
-182.346137000000000
 40
2.999999999999993
 50
268.645719999999930
 51
0.000000000000000
  0
ARC
  8
0
  6
CONTINUOUS
 62
256
 10
-102.500051000000000
 20
-146.468718999999990
 40
7.000000000000000
 50
180.000000000000000
 51
270.000000000000000
  0
ARC
  8
0
  6
CONTINUOUS
 62
256
 10
-102.500051000000000
 20
-146.468718999999990
 40
7.000000000000000
 50
180.000000000000000
 51
270.000000000000000
  0
ARC
  8
0
  6
CONTINUOUS
 62
256
 10
26.499949000000001
 20
-64.468718999999993
 40
7.000000000000000
 50
0.000000000000000
 51
90.000000000000000
  0
ARC
  8
0
  6
CONTINUOUS
 62
256
 10
26.499949000000001
 20
-146.468718999999990
 40
7.000000000000000
 50
270.000000000000000
 51
0.000000000000000
  0
ARC
  8
0
  6
CONTINUOUS
 62
256
 10
26.499949000000001
 20
-64.468718999999993
 40
7.000000000000000
 50
0.000000000000000
 51
90.000000000000000
  0
POINT
  8
0
  6
CONTINUOUS
 62
256
 10
-14.500050999999999
 20
-105.468718999999990
  0
ARC
  8
0
  6
CONTINUOUS
 62
256
 10
-128.500051000000010
 20
-161.469986000000010
 40
3.000000000000000
 50
180.000000000000000
 51
270.000000000000000
  0
ARC
  8
0
  6
CONTINUOUS
 62
256
 10
-128.500051000000010
 20
-89.467451999999994
 40
3.000000000000000
 50
90.000000000000000
 51
180.000000000000000
  0
ARC
  8
0
  6
CONTINUOUS
 62
256
 10
-128.500051000000010
 20
-83.283987999999994
 40
3.000000000000000
 50
90.000000000000000
 51
180.000000000000000
  0
ARC
  8
0
  6
CONTINUOUS
 62
256
 10
-128.500051000000010
 20
-70.372411000000000
 40
3.000000000000000
 50
180.000000000000000
 51
270.000000000000000
  0
ARC
  8
0
  6
CONTINUOUS
 62
256
 10
-128.500051000000010
 20
-180.565025999999990
 40
3.000000000000000
 50
90.000000000000000
 51
180.000000000000000
  0
ARC
  8
0
  6
CONTINUOUS
 62
256
 10
-128.500051000000010
 20
-167.653449999999990
 40
3.000000000000000
 50
180.000000000000000
 51
270.000000000000000
  0
LINE
  8
0
  6
CONTINUOUS
 62
256
 10
-128.500051000000010
 20
-80.283987999999994
 11
-123.500051000000000
 21
-80.283987999999994
  0
LINE
  8
0
  6
CONTINUOUS
 62
256
 10
-128.500051000000010
 20
-73.372411000000000
 11
-123.500051000000000
 21
-73.372411000000000
  0
LINE
  8
0
  6
CONTINUOUS
 62
256
 10
-128.500051000000010
 20
-86.467451999999994
 11
-121.500051000000000
 21
-86.467451999999994
  0
LINE
  8
0
  6
CONTINUOUS
 62
256
 10
-128.500051000000010
 20
-164.469986000000010
 11
-121.500051000000000
 21
-164.469986000000010
  0
LINE
  8
0
  6
CONTINUOUS
 62
256
 10
-128.500051000000010
 20
-170.653449999999990
 11
-123.500051000000000
 21
-170.653449999999990
  0
LINE
  8
0
  6
CONTINUOUS
 62
256
 10
-128.500051000000010
 20
-177.565025999999990
 11
-123.500051000000000
 21
-177.565025999999990
  0
ARC
  8
0
  6
CONTINUOUS
 62
256
 10
-123.500051000000000
 20
-78.372411000000000
 40
5.000000000000000
 50
0.000000000000000
 51
90.000000000000000
  0
ARC
  8
0
  6
CONTINUOUS
 62
256
 10
-123.500051000000000
 20
-85.283987999999994
 40
5.000000000000000
 50
0.000000000000000
 51
90.000000000000000
  0
ARC
  8
0
  6
CONTINUOUS
 62
256
 10
-123.500051000000000
 20
-165.653449999999990
 40
5.000000000000000
 50
270.000000000000000
 51
0.000000000000000
  0
ARC
  8
0
  6
CONTINUOUS
 62
256
 10
-123.500051000000000
 20
-172.565025999999990
 40
5.000000000000000
 50
270.000000000000000
 51
0.000000000000000
  0
ARC
  8
0
  6
CONTINUOUS
 62
256
 10
-121.500051000000000
 20
-89.467451999999994
 40
3.000000000000000
 50
0.000000000000000
 51
90.000000000000000
  0
ARC
  8
0
  6
CONTINUOUS
 62
256
 10
-121.500051000000000
 20
-161.469986000000010
 40
3.000000000000000
 50
270.000000000000000
 51
0.000000000000000
  0
LINE
  8
0
  6
DASHDOT
 62
256
 10
37.662244000000001
 20
-105.468718999999990
 11
-63.567362000000003
 21
-105.468718999999990
  0
CIRCLE
  8
0
  6
CONTINUOUS
 62
256
 10
-99.500050999999999
 20
-67.468718999999993
 40
7.000000000000000
  0
CIRCLE
  8
0
  6
CONTINUOUS
 62
256
 10
23.499949000000001
 20
-67.468718999999993
 40
7.000000000000000
  0
CIRCLE
  8
0
  6
CONTINUOUS
 62
256
 10
23.499949000000001
 20
-143.468718999999990
 40
7.000000000000000
  0
POINT
  8
0
  6
DASHDOT
 62
256
 10
-14.499639000000000
 20
-105.468718999999990
  0
LINE
  8
0
  6
DASHDOT
 62
256
 10
-14.500050999999999
 20
-55.153101999999997
 11
-14.500050999999999
 21
-156.612229000000010
  0
LINE
  8
0
  6
CONTINUOUS
 62
256
 10
-102.500051000000000
 20
-57.468719000000000
 11
26.499949000000001
 21
-57.468719000000000
  0
ARC
  8
0
  6
CONTINUOUS
 62
256
 10
-102.500051000000000
 20
-64.468718999999993
 40
7.000000000000000
 50
90.000000000000000
 51
180.000000000000000
  0
ARC
  8
0
  6
CONTINUOUS
 62
256
 10
26.499949000000001
 20
-64.468718999999993
 40
7.000000000000000
 50
0.000000000000000
 51
90.000000000000000
  0
LINE
  8
0
  6
CONTINUOUS
 62
256
 10
33.499949000000001
 20
-64.468718999999993
 11
33.499949000000001
 21
-146.468718999999990
  0
ARC
  8
0
  6
CONTINUOUS
 62
256
 10
26.499949000000001
 20
-146.468718999999990
 40
7.000000000000000
 50
270.000000000000000
 51
0.000000000000000
  0
ARC
  8
0
  6
CONTINUOUS
 62
256
 10
26.499949000000001
 20
-64.468718999999993
 40
7.000000000000000
 50
0.000000000000000
 51
90.000000000000000
  0
POINT
  8
0
  6
CONTINUOUS
 62
256
 10
-14.499639000000000
 20
-105.468718999999990
  0
LINE
  8
0
  6
DASHDOT
 62
256
 10
18.000221000000000
 20
-63.468415999999998
 11
1.467655000000000
 21
-63.468415999999998
  0
LINE
  8
0
  6
DASHDOT
 62
256
 10
11.000221000000000
 20
-56.468415999999998
 11
11.000221000000000
 21
-70.468416000000005
  0
LINE
  8
0
  6
DASHDOT
 62
256
 10
-94.000050999999999
 20
-63.468719000000000
 11
-78.539576999999994
 21
-63.468719000000000
  0
LINE
  8
0
  6
DASHDOT
 62
256
 10
-87.000050999999999
 20
-70.468718999999993
 11
-87.000050999999999
 21
-56.468719000000000
  0
LINE
  8
0
  6
DASHDOT
 62
256
 10
3.592287000000000
 20
-147.469021000000000
 11
18.000221000000000
 21
-147.469021000000000
  0
LINE
  8
0
  6
DASHDOT
 62
256
 10
11.000221000000000
 20
-154.469021000000000
 11
11.000221000000000
 21
-140.469021000000000
  0
CIRCLE
  8
0
  6
CONTINUOUS
 62
256
 10
-99.500050999999999
 20
-143.468718999999990
 40
7.000000000000000
  0
ARC
  8
0
  6
CONTINUOUS
 62
256
 10
-87.000050999999999
 20
-147.468718999999990
 40
5.000000000000000
 50
0.000000000000000
 51
180.000000000000000
  0
LINE
  8
0
  6
DASHDOT
 62
256
 10
-79.500050999999999
 20
-147.468718999999990
 11
-94.500050999999999
 21
-147.468718999999990
  0
LINE
  8
0
  6
DASHDOT
 62
256
 10
-87.000050999999999
 20
-139.968718999999990
 11
-87.000050999999999
 21
-154.968718999999990
  0
ARC
  8
0
  6
CONTINUOUS
 62
256
 10
-102.500051000000000
 20
-146.468718999999990
 40
7.000000000000000
 50
180.000000000000000
 51
270.000000000000000
  0
LINE
  8
0
  6
CONTINUOUS
 62
256
 10
-102.500051000000000
 20
-153.468718999999990
 11
26.499949000000001
 21
-153.468718999999990
  0
LINE
  8
0
  6
CONTINUOUS
 62
256
 10
-109.500051000000000
 20
-64.468718999999993
 11
-109.500051000000000
 21
-146.468718999999990
  0
ARC
  8
0
  6
CONTINUOUS
 62
256
 10
-102.500051000000000
 20
-146.468718999999990
 40
7.000000000000000
 50
180.000000000000000
 51
270.000000000000000
  0
ARC
  8
0
  6
CONTINUOUS
 62
256
 10
-87.000050999999999
 20
-63.468719000000000
 40
5.000000000000000
 50
180.000000000000000
 51
0.000000000000000
  0
ARC
  8
0
  6
CONTINUOUS
 62
256
 10
11.000221000000000
 20
-63.468415999999998
 40
5.000000000000000
 50
180.000000000000000
 51
0.000000000000000
  0
ARC
  8
0
  6
CONTINUOUS
 62
256
 10
11.000221000000000
 20
-147.469021000000000
 40
5.000000000000000
 50
0.000000000000000
 51
180.000000000000000
  0
ARC
  8
0
  6
CONTINUOUS
 62
256
 10
-16.232102000000001
 20
-152.468718999999990
 40
1.000000000000000
 50
270.000000000000000
 51
330.000000000000000
  0
ARC
  8
0
  6
CONTINUOUS
 62
256
 10
-14.500050999999999
 20
-153.468718999999990
 40
1.000000000000000
 50
29.999999999999986
 51
150.000000000000030
  0
ARC
  8
0
  6
CONTINUOUS
 62
256
 10
-12.768000000000001
 20
-152.468718999999990
 40
1.000000000000000
 50
209.999999999999970
 51
270.000000000000000
  0
ARC
  8
0
  6
CONTINUOUS
 62
256
 10
32.499949000000001
 20
-107.200770000000010
 40
1.000000000000000
 50
0.000000000000000
 51
59.999999999999865
  0
ARC
  8
0
  6
CONTINUOUS
 62
256
 10
33.499949000000001
 20
-105.468718999999990
 40
0.999999999999996
 50
120.000000000000140
 51
239.999999999999830
  0
ARC
  8
0
  6
CONTINUOUS
 62
256
 10
32.499949000000001
 20
-103.736667999999990
 40
0.999999999999996
 50
300.000000000000110
 51
0.000000000000000
  0
ARC
  8
0
  6
CONTINUOUS
 62
256
 10
-12.768000000000001
 20
-58.468719000000000
 40
1.000000000000000
 50
90.000000000000000
 51
150.000000000000030
  0
ARC
  8
0
  6
CONTINUOUS
 62
256
 10
-14.500050999999999
 20
-57.468719000000000
 40
1.000000000000000
 50
209.999999999999970
 51
330.000000000000000
  0
ARC
  8
0
  6
CONTINUOUS
 62
256
 10
-16.232102000000001
 20
-58.468719000000000
 40
1.000000000000000
 50
29.999999999999986
 51
90.000000000000000
  0
CIRCLE
  8
0
  6
CONTINUOUS
 62
256
 10
-14.500050999999999
 20
-105.468718999999990
 40
39.250000000000000
  0
LINE
  8
0
  6
CONTINUOUS
 62
256
 10
28.249949000000001
 20
-120.803354000000000
 11
28.249949000000001
 21
-83.900396000000001
  0
ARC
  8
0
  6
CONTINUOUS
 62
256
 10
21.999949000000001
 20
-83.900396000000001
 40
6.250000000000000
 50
0.000000000000000
 51
84.784091000000018
  0
ARC
  8
0
  6
CONTINUOUS
 62
256
 10
23.499949000000001
 20
-67.468718999999993
 40
10.249999999999996
 50
212.751952999999960
 51
264.784090999999990
  0
ARC
  8
0
  6
CONTINUOUS
 62
256
 10
9.623109000000000
 20
-76.395270999999994
 40
6.250000000000001
 50
32.751952999999986
 51
83.919151999999997
  0
ARC
  8
0
  6
CONTINUOUS
 62
256
 10
11.000221000000000
 20
-63.468415999999998
 40
6.750000000000001
 50
205.030471000000030
 51
263.919152000000000
  0
ARC
  8
0
  6
CONTINUOUS
 62
256
 10
-0.778856000000000
 20
-68.968718999999993
 40
6.249999999999996
 50
25.030470999999942
 51
90.000000000000000
  0
LINE
  8
0
  6
CONTINUOUS
 62
256
 10
-0.778856000000000
 20
-62.718719000000000
 11
-75.000050999999999
 21
-62.718719000000000
  0
LINE
  8
0
  6
CONTINUOUS
 62
256
 10
-75.000050999999999
 20
-148.218718999999990
 11
-0.778856000000000
 21
-148.218718999999990
  0
ARC
  8
0
  6
CONTINUOUS
 62
256
 10
-0.778856000000000
 20
-141.968718999999990
 40
6.250000000000000
 50
270.000000000000000
 51
334.969529000000080
  0
ARC
  8
0
  6
CONTINUOUS
 62
256
 10
11.000221000000000
 20
-147.469021000000000
 40
6.750000000000004
 50
96.080848000000003
 51
154.969529000000050
  0
ARC
  8
0
  6
CONTINUOUS
 62
256
 10
9.623109000000000
 20
-134.542167000000010
 40
6.250000000000008
 50
276.080848000000000
 51
327.248046999999990
  0
ARC
  8
0
  6
CONTINUOUS
 62
256
 10
23.499949000000001
 20
-143.468718999999990
 40
10.250000000000005
 50
117.891356999999970
 51
147.248046999999990
  0
ARC
  8
0
  6
CONTINUOUS
 62
256
 10
15.781307000000000
 20
-128.885422000000010
 40
6.249999999999996
 50
297.891357000000030
 51
347.568351000000060
  0
ARC
  8
0
  6
CONTINUOUS
 62
256
 10
27.499949000000001
 20
-131.468718999999990
 40
5.750000000000001
 50
117.279613000000000
 51
167.568350999999890
  0
ARC
  8
0
  6
CONTINUOUS
 62
256
 10
21.999949000000001
 20
-120.803354000000000
 40
6.250000000000000
 50
297.279612999999980
 51
0.000000000000000
  0
LINE
  8
0
  6
CONTINUOUS
 62
256
 10
-92.000050999999999
 20
-153.068718999999990
 11
-92.000050999999999
 21
-147.468718999999990
  0
LINE
  8
0
  6
CONTINUOUS
 62
256
 10
-82.000050999999999
 20
-153.068718999999990
 11
-82.000050999999999
 21
-147.468718999999990
  0
LINE
  8
0
  6
CONTINUOUS
 62
256
 10
6.000221000000000
 20
-153.068718999999990
 11
6.000221000000000
 21
-147.469021000000000
  0
LINE
  8
0
  6
CONTINUOUS
 62
256
 10
16.000221000000000
 20
-153.068718999999990
 11
16.000221000000000
 21
-147.469021000000000
  0
LINE
  8
0
  6
CONTINUOUS
 62
256
 10
6.000221000000000
 20
-63.468415999999998
 11
6.000221000000000
 21
-57.868718999999999
  0
LINE
  8
0
  6
CONTINUOUS
 62
256
 10
16.000221000000000
 20
-63.468415999999998
 11
16.000221000000000
 21
-57.868718999999999
  0
LINE
  8
0
  6
CONTINUOUS
 62
256
 10
-92.000050999999999
 20
-63.468719000000000
 11
-92.000050999999999
 21
-57.868718999999999
  0
LINE
  8
0
  6
CONTINUOUS
 62
256
 10
-82.000050999999999
 20
-63.468719000000000
 11
-82.000050999999999
 21
-57.868718999999999
  0
ARC
  8
0
  6
CONTINUOUS
 62
256
 10
-52.500050999999999
 20
-143.468718999999990
 40
11.000000000000000
 50
359.075834000000040
 51
88.151427999999981
  0
ARC
  8
0
  6
CONTINUOUS
 62
256
 10
-52.000050999999999
 20
-127.976786000000000
 40
4.500000000000000
 50
180.000000000000000
 51
268.151427999999950
  0
LINE
  8
0
  6
CONTINUOUS
 62
256
 10
-56.500050999999999
 20
-127.976786000000000
 11
-56.500050999999999
 21
-82.960651999999996
  0
ARC
  8
0
  6
CONTINUOUS
 62
256
 10
-52.000050999999999
 20
-82.960651999999996
 40
4.500000000000004
 50
91.848572000000033
 51
180.000000000000000
  0
ARC
  8
0
  6
CONTINUOUS
 62
256
 10
-52.500050999999999
 20
-67.468718999999993
 40
10.999999999999996
 50
271.848571999999990
 51
0.924165999999979
  0
LINE
  8
0
  6
CONTINUOUS
 62
256
 10
-104.250051000000000
 20
-90.377431000000001
 11
-104.250051000000000
 21
-126.999050000000000
  0
ARC
  8
0
  6
CONTINUOUS
 62
256
 10
-103.500051000000000
 20
-79.468718999999993
 40
6.250000000000007
 50
294.624318000000020
 51
347.568350999999950
  0
ARC
  8
0
  6
CONTINUOUS
 62
256
 10
-91.781408999999996
 20
-82.052015999999995
 40
5.750000000000005
 50
117.891357000000040
 51
167.568351000000040
  0
ARC
  8
0
  6
CONTINUOUS
 62
256
 10
-99.500050999999999
 20
-67.468718999999993
 40
10.749999999999998
 50
297.891356999999970
 51
327.246577000000000
  0
ARC
  8
0
  6
CONTINUOUS
 62
256
 10
-85.623441000000000
 20
-76.395627000000005
 40
5.750000000000005
 50
96.078625000000017
 51
147.246576999999970
  0
ARC
  8
0
  6
CONTINUOUS
 62
256
 10
-87.000050999999999
 20
-63.468719000000000
 40
7.249999999999997
 50
276.078624999999990
 51
337.380134999999940
  0
ARC
  8
0
  6
CONTINUOUS
 62
256
 10
-75.000050999999999
 20
-68.468718999999993
 40
5.750000000000000
 50
90.000000000000000
 51
157.380135000000000
  0
ARC
  8
0
  6
CONTINUOUS
 62
256
 10
-87.000050999999999
 20
-147.468718999999990
 40
7.250000000000003
 50
22.619865000000118
 51
83.921374999999998
  0
ARC
  8
0
  6
CONTINUOUS
 62
256
 10
-85.623441000000000
 20
-134.541811000000000
 40
5.749999999999993
 50
212.753422999999880
 51
263.921375000000010
  0
ARC
  8
0
  6
CONTINUOUS
 62
256
 10
-99.500050999999999
 20
-143.468718999999990
 40
10.750000000000012
 50
32.753423000000033
 51
86.525399000000021
  0
ARC
  8
0
  6
CONTINUOUS
 62
256
 10
-75.000050999999999
 20
-142.468718999999990
 40
5.750000000000009
 50
202.619865000000120
 51
270.000000000000000
  0
ARC
  8
0
  6
CONTINUOUS
 62
256
 10
-98.500050999999999
 20
-126.999050000000000
 40
5.750000000000000
 50
180.000000000000000
 51
266.525398999999990
  0
ARC
  8
0
  6
CONTINUOUS
 62
256
 10
-98.500050999999999
 20
-90.377431000000001
 40
5.749999999999995
 50
114.624317999999950
 51
180.000000000000000
  0
LINE
  8
0
  6
CONTINUOUS
 62
256
 10
-92.000050999999999
 20
-153.068718999999990
 11
-92.400051000000005
 21
-153.468718999999990
  0
LINE
  8
0
  6
CONTINUOUS
 62
256
 10
-82.000050999999999
 20
-153.068718999999990
 11
-81.600050999999993
 21
-153.468718999999990
  0
LINE
  8
0
  6
CONTINUOUS
 62
256
 10
6.000221000000000
 20
-153.068718999999990
 11
5.600221000000000
 21
-153.468718999999990
  0
LINE
  8
0
  6
CONTINUOUS
 62
256
 10
16.000221000000000
 20
-153.068718999999990
 11
16.400220999999998
 21
-153.468718999999990
  0
LINE
  8
0
  6
CONTINUOUS
 62
256
 10
6.000221000000000
 20
-57.868718999999999
 11
5.600221000000000
 21
-57.468719000000000
  0
LINE
  8
0
  6
CONTINUOUS
 62
256
 10
16.000221000000000
 20
-57.868718999999999
 11
16.400220999999998
 21
-57.468719000000000
  0
LINE
  8
0
  6
CONTINUOUS
 62
256
 10
-92.000050999999999
 20
-57.868718999999999
 11
-92.400051000000005
 21
-57.468719000000000
  0
LINE
  8
0
  6
CONTINUOUS
 62
256
 10
-82.000050999999999
 20
-57.868718999999999
 11
-81.600050999999993
 21
-57.468719000000000
  0
ARC
  8
0
  6
CONTINUOUS
 62
256
 10
-14.500050999999999
 20
-105.468718999999990
 40
12.500000000000000
 50
108.662925000000000
 51
71.337074999999999
  0
LINE
  8
0
  6
CONTINUOUS
 62
256
 10
-10.500050999999999
 20
-89.668718999999996
 11
-10.500050999999999
 21
-93.626000000000005
  0
LINE
  8
0
  6
CONTINUOUS
 62
256
 10
-18.500050999999999
 20
-89.668718999999996
 11
-10.500050999999999
 21
-89.668718999999996
  0
LINE
  8
0
  6
CONTINUOUS
 62
256
 10
-18.500050999999999
 20
-89.668718999999996
 11
-18.500050999999999
 21
-93.626000000000005
  0
LINE
  8
0
  6
DASHDOT
 62
256
 10
-93.594395000000006
 20
-125.468718999999990
 11
-341.129287999999970
 21
-125.468718999999990
  0
LINE
  8
0
  6
DASHDOT
 62
256
 10
397.586335000000020
 20
-226.190310000000010
 11
397.586335000000020
 21
-51.525182000000001
  0
LINE
  8
0
  6
DASHDOT
 62
256
 10
332.960726000000020
 20
-125.468718999999990
 11
460.960508000000000
 21
-125.468718999999990
  0
LINE
  8
0
  6
DASHDOT
 62
256
 10
458.566785999999980
 20
-105.468718999999990
 11
335.557501000000000
 21
-105.468718999999990
  0
ARC
  8
0
  6
CONTINUOUS
 62
256
 10
-334.900051000000020
 20
-73.025514000000001
 40
2.600000000000007
 50
125.000000000000040
 51
180.000000000000000
  0
LINE
  8
0
  6
CONTINUOUS
 62
256
 10
-326.665603999999970
 20
-64.085678000000001
 11
-336.391349999999990
 21
-70.895719000000000
  0
ARC
  8
0
  6
CONTINUOUS
 62
256
 10
-315.194075000000000
 20
-80.468718999999993
 40
20.000000000000000
 50
90.000000000000000
 51
125.000000000000040
  0
LINE
  8
0
  6
CONTINUOUS
 62
256
 10
-337.500050999999980
 20
-125.468718999999990
 11
-337.500050999999980
 21
-73.025514000000001
  0
LINE
  8
0
  6
CONTINUOUS
 62
256
 10
-234.500051000000010
 20
-60.468719000000000
 11
-315.194075000000000
 21
-60.468719000000000
  0
LINE
  8
0
  6
CONTINUOUS
 62
256
 10
-167.500051000000010
 20
-65.968718999999993
 11
-137.500051000000010
 21
-65.968718999999993
  0
LINE
  8
0
  6
CONTINUOUS
 62
256
 10
-234.500051000000010
 20
-68.468718999999993
 11
-137.500051000000010
 21
-68.468718999999993
  0
LINE
  8
0
  6
CONTINUOUS
 62
256
 10
-234.500051000000010
 20
-69.468718999999993
 11
-137.500051000000010
 21
-69.468718999999993
  0
LINE
  8
0
  6
CONTINUOUS
 62
256
 10
-234.500051000000010
 20
-70.468718999999993
 11
-137.500051000000010
 21
-70.468718999999993
  0
LINE
  8
0
  6
CONTINUOUS
 62
256
 10
-234.500051000000010
 20
-125.468718999999990
 11
-234.500051000000010
 21
-60.468719000000000
  0
LINE
  8
0
  6
CONTINUOUS
 62
256
 10
-234.500051000000010
 20
-75.153184999999993
 11
-137.500051000000010
 21
-75.153184999999993
  0
LINE
  8
0
  6
CONTINUOUS
 62
256
 10
-234.500051000000010
 20
-80.102931999999996
 11
-137.500051000000010
 21
-80.102931999999996
  0
LINE
  8
0
  6
CONTINUOUS
 62
256
 10
-234.500051000000010
 20
-110.468718999999990
 11
-137.500051000000010
 21
-110.468718999999990
  0
LINE
  8
0
  6
CONTINUOUS
 62
256
 10
-234.500051000000010
 20
-106.095457000000000
 11
-137.500051000000010
 21
-106.095457000000000
  0
LINE
  8
0
  6
CONTINUOUS
 62
256
 10
-234.500051000000010
 20
-104.829218999999990
 11
-137.500051000000010
 21
-104.829218999999990
  0
LINE
  8
0
  6
CONTINUOUS
 62
256
 10
-234.500051000000010
 20
-100.638665000000000
 11
-137.500051000000010
 21
-100.638665000000000
  0
LINE
  8
0
  6
CONTINUOUS
 62
256
 10
-234.500051000000010
 20
-99.276785000000004
 11
-137.500051000000010
 21
-99.276785000000004
  0
LINE
  8
0
  6
CONTINUOUS
 62
256
 10
-234.500051000000010
 20
-95.186284999999998
 11
-137.500051000000010
 21
-95.186284999999998
  0
LINE
  8
0
  6
CONTINUOUS
 62
256
 10
-234.500051000000010
 20
-93.717927000000003
 11
-137.500051000000010
 21
-93.717927000000003
  0
LINE
  8
0
  6
CONTINUOUS
 62
256
 10
-234.500051000000010
 20
-89.754182000000000
 11
-137.500051000000010
 21
-89.754182000000000
  0
LINE
  8
0
  6
CONTINUOUS
 62
256
 10
-234.500051000000010
 20
-88.149534000000003
 11
-137.500051000000010
 21
-88.149534000000003
  0
LINE
  8
0
  6
CONTINUOUS
 62
256
 10
-245.500051000000010
 20
-71.728604000000004
 11
-247.500051000000010
 21
-73.381245000000007
  0
LINE
  8
0
  6
CONTINUOUS
 62
256
 10
-243.500051000000010
 20
-70.552818000000002
 11
-245.500051000000010
 21
-71.728604000000004
  0
LINE
  8
0
  6
CONTINUOUS
 62
256
 10
-245.500051000000010
 20
-71.728604000000004
 11
-243.500051000000010
 21
-73.381245000000007
  0
LINE
  8
0
  6
CONTINUOUS
 62
256
 10
-247.500051000000010
 20
-70.552818000000002
 11
-245.500051000000010
 21
-71.728604000000004
  0
POLYLINE
  8
0
  6
CONTINUOUS
 62
256
 66
1
 70
1
  0
VERTEX
  8
0
  6
CONTINUOUS
 62
256
 10
-240.800051000000020
 20
-73.545193999999995
  0
VERTEX
  8
0
  6
CONTINUOUS
 62
256
 10
-240.890360182104840
 20
-72.842237489441828
  0
VERTEX
  8
0
  6
CONTINUOUS
 62
256
 10
-241.157817197196980
 20
-72.166295203361855
  0
VERTEX
  8
0
  6
CONTINUOUS
 62
256
 10
-241.592143822178060
 20
-71.543343224741335
  0
VERTEX
  8
0
  6
CONTINUOUS
 62
256
 10
-242.176649128423240
 20
-70.997321248763143
  0
VERTEX
  8
0
  6
CONTINUOUS
 62
256
 10
-242.888870904807900
 20
-70.549212593751506
  0
VERTEX
  8
0
  6
CONTINUOUS
 62
256
 10
-243.701438867884090
 20
-70.216237824016247
  0
VERTEX
  8
0
  6
CONTINUOUS
 62
256
 10
-244.583126486524210
 20
-70.011192973223928
  0
VERTEX
  8
0
  6
CONTINUOUS
 62
256
 10
-245.500051000000010
 20
-69.941957799999997
  0
VERTEX
  8
0
  6
CONTINUOUS
 62
256
 10
-246.416975513475820
 20
-70.011192973223928
  0
VERTEX
  8
0
  6
CONTINUOUS
 62
256
 10
-247.298663132115930
 20
-70.216237824016247
  0
VERTEX
  8
0
  6
CONTINUOUS
 62
256
 10
-248.111231095192120
 20
-70.549212593751506
  0
VERTEX
  8
0
  6
CONTINUOUS
 62
256
 10
-248.823452871576790
 20
-70.997321248763143
  0
VERTEX
  8
0
  6
CONTINUOUS
 62
256
 10
-249.407958177821970
 20
-71.543343224741335
  0
VERTEX
  8
0
  6
CONTINUOUS
 62
256
 10
-249.842284802803050
 20
-72.166295203361855
  0
VERTEX
  8
0
  6
CONTINUOUS
 62
256
 10
-250.109741817895180
 20
-72.842237489441828
  0
VERTEX
  8
0
  6
CONTINUOUS
 62
256
 10
-250.200051000000000
 20
-73.545193999999995
  0
VERTEX
  8
0
  6
CONTINUOUS
 62
256
 10
-250.109741817895180
 20
-74.248150510558162
  0
VERTEX
  8
0
  6
CONTINUOUS
 62
256
 10
-249.842284802803050
 20
-74.924092796638135
  0
VERTEX
  8
0
  6
CONTINUOUS
 62
256
 10
-249.407958177821970
 20
-75.547044775258655
  0
VERTEX
  8
0
  6
CONTINUOUS
 62
256
 10
-248.823452871576790
 20
-76.093066751236833
  0
VERTEX
  8
0
  6
CONTINUOUS
 62
256
 10
-248.111231095192120
 20
-76.541175406248485
  0
VERTEX
  8
0
  6
CONTINUOUS
 62
256
 10
-247.298663132115930
 20
-76.874150175983743
  0
VERTEX
  8
0
  6
CONTINUOUS
 62
256
 10
-246.416975513475820
 20
-77.079195026776063
  0
VERTEX
  8
0
  6
CONTINUOUS
 62
256
 10
-245.500051000000010
 20
-77.148430199999993
  0
VERTEX
  8
0
  6
CONTINUOUS
 62
256
 10
-244.583126486524210
 20
-77.079195026776063
  0
VERTEX
  8
0
  6
CONTINUOUS
 62
256
 10
-243.701438867884090
 20
-76.874150175983743
  0
VERTEX
  8
0
  6
CONTINUOUS
 62
256
 10
-242.888870904807900
 20
-76.541175406248485
  0
VERTEX
  8
0
  6
CONTINUOUS
 62
256
 10
-242.176649128423260
 20
-76.093066751236847
  0
VERTEX
  8
0
  6
CONTINUOUS
 62
256
 10
-241.592143822178060
 20
-75.547044775258655
  0
VERTEX
  8
0
  6
CONTINUOUS
 62
256
 10
-241.157817197196980
 20
-74.924092796638135
  0
VERTEX
  8
0
  6
CONTINUOUS
 62
256
 10
-240.890360182104840
 20
-74.248150510558162
  0
SEQEND
  8
0
  6
CONTINUOUS
 62
256
  0
LINE
  8
0
  6
CONTINUOUS
 62
256
 10
-234.500051000000010
 20
-65.968718999999993
 11
-137.500051000000010
 21
-65.968718999999993
  0
LINE
  8
0
  6
CONTINUOUS
 62
256
 10
-242.300051000000000
 20
-202.968718999999990
 11
-242.300051000000000
 21
-187.196573000000000
  0
LINE
  8
0
  6
CONTINUOUS
 62
256
 10
-152.300051000000000
 20
-188.968718999999990
 11
-242.300051000000000
 21
-188.968718999999990
  0
LINE
  8
0
  6
CONTINUOUS
 62
256
 10
-152.300051000000000
 20
-188.968718999999990
 11
-152.300051000000000
 21
-183.968718999999990
  0
LINE
  8
0
  6
CONTINUOUS
 62
256
 10
-152.300051000000000
 20
-183.968718999999990
 11
-234.500051000000010
 21
-183.968718999999990
  0
LINE
  8
0
  6
CONTINUOUS
 62
256
 10
-241.300051000000000
 20
-222.968718999999990
 11
-153.300051000000000
 21
-222.968718999999990
  0
ARC
  8
0
  6
CONTINUOUS
 62
256
 10
-241.300051000000000
 20
-221.968718999999990
 40
1.000000000000000
 50
180.000000000000000
 51
270.000000000000000
  0
LINE
  8
0
  6
CONTINUOUS
 62
256
 10
-242.300051000000000
 20
-188.968718999999990
 11
-152.300051000000000
 21
-188.968718999999990
  0
LINE
  8
0
  6
CONTINUOUS
 62
256
 10
-152.300051000000000
 20
-188.968718999999990
 11
-152.300051000000000
 21
-221.968718999999990
  0
ARC
  8
0
  6
CONTINUOUS
 62
256
 10
-153.300051000000000
 20
-221.968718999999990
 40
1.000000000000000
 50
270.000000000000000
 51
0.000000000000000
  0
LINE
  8
0
  6
CONTINUOUS
 62
256
 10
-167.300051000000000
 20
-223.468718999999990
 11
-159.300051000000000
 21
-223.468718999999990
  0
LINE
  8
0
  6
CONTINUOUS
 62
256
 10
-235.300051000000000
 20
-223.468718999999990
 11
-227.300051000000000
 21
-223.468718999999990
  0
LINE
  8
0
  6
CONTINUOUS
 62
256
 10
-159.300051000000000
 20
-222.968718999999990
 11
-159.300051000000000
 21
-223.468718999999990
  0
LINE
  8
0
  6
CONTINUOUS
 62
256
 10
-167.300051000000000
 20
-222.968718999999990
 11
-167.300051000000000
 21
-223.468718999999990
  0
LINE
  8
0
  6
CONTINUOUS
 62
256
 10
-227.300051000000000
 20
-222.968718999999990
 11
-227.300051000000000
 21
-223.468718999999990
  0
LINE
  8
0
  6
CONTINUOUS
 62
256
 10
-235.300051000000000
 20
-222.968718999999990
 11
-235.300051000000000
 21
-223.468718999999990
  0
LINE
  8
0
  6
CONTINUOUS
 62
256
 10
-232.800051000000000
 20
-222.968718999999990
 11
-232.800051000000000
 21
-223.468718999999990
  0
LINE
  8
0
  6
CONTINUOUS
 62
256
 10
-161.800051000000000
 20
-222.968718999999990
 11
-161.800051000000000
 21
-223.468718999999990
  0
LINE
  8
0
  6
CONTINUOUS
 62
256
 10
-241.500051000000010
 20
-187.087940000000000
 11
-237.500051000000010
 21
-187.087940000000000
  0
LINE
  8
0
  6
CONTINUOUS
 62
256
 10
-337.500050999999980
 20
-125.468718999999990
 11
-337.500050999999980
 21
-177.911924000000000
  0
LINE
  8
0
  6
CONTINUOUS
 62
256
 10
-234.500051000000010
 20
-125.468718999999990
 11
-234.500051000000010
 21
-184.087940000000000
  0
ARC
  8
0
  6
CONTINUOUS
 62
256
 10
-241.500051000000010
 20
-190.087940000000000
 40
3.000000000000000
 50
90.000000000000000
 51
180.000000000000000
  0
ARC
  8
0
  6
CONTINUOUS
 62
256
 10
-237.500051000000010
 20
-184.087940000000000
 40
3.000000000000000
 50
270.000000000000000
 51
0.000000000000000
  0
LINE
  8
0
  6
CONTINUOUS
 62
256
 10
-234.500051000000010
 20
-140.468718999999990
 11
-137.500051000000010
 21
-140.468718999999990
  0
LINE
  8
0
  6
CONTINUOUS
 62
256
 10
-234.500051000000010
 20
-144.841981000000000
 11
-137.500051000000010
 21
-144.841981000000000
  0
LINE
  8
0
  6
CONTINUOUS
 62
256
 10
-234.500051000000010
 20
-146.108218999999990
 11
-137.500051000000010
 21
-146.108218999999990
  0
LINE
  8
0
  6
CONTINUOUS
 62
256
 10
-234.500051000000010
 20
-150.298772000000010
 11
-137.500051000000010
 21
-150.298772000000010
  0
LINE
  8
0
  6
CONTINUOUS
 62
256
 10
-234.500051000000010
 20
-151.660653000000000
 11
-137.500051000000010
 21
-151.660653000000000
  0
LINE
  8
0
  6
CONTINUOUS
 62
256
 10
-234.500051000000010
 20
-155.751152999999990
 11
-137.500051000000010
 21
-155.751152999999990
  0
LINE
  8
0
  6
CONTINUOUS
 62
256
 10
-234.500051000000010
 20
-157.219511000000010
 11
-137.500051000000010
 21
-157.219511000000010
  0
LINE
  8
0
  6
CONTINUOUS
 62
256
 10
-234.500051000000010
 20
-161.183256000000000
 11
-137.500051000000010
 21
-161.183256000000000
  0
LINE
  8
0
  6
CONTINUOUS
 62
256
 10
-234.500051000000010
 20
-162.787904000000000
 11
-137.500051000000010
 21
-162.787904000000000
  0
LINE
  8
0
  6
CONTINUOUS
 62
256
 10
-234.500051000000010
 20
-170.834506000000000
 11
-137.500051000000010
 21
-170.834506000000000
  0
LINE
  8
0
  6
CONTINUOUS
 62
256
 10
-234.500051000000010
 20
-180.468718999999990
 11
-137.500051000000010
 21
-180.468718999999990
  0
LINE
  8
0
  6
CONTINUOUS
 62
256
 10
-234.500051000000010
 20
-181.468718999999990
 11
-137.500051000000010
 21
-181.468718999999990
  0
LINE
  8
0
  6
CONTINUOUS
 62
256
 10
-234.500051000000010
 20
-182.468718999999990
 11
-137.500051000000010
 21
-182.468718999999990
  0
LINE
  8
0
  6
CONTINUOUS
 62
256
 10
-245.500051000000010
 20
-179.208834000000000
 11
-247.500051000000010
 21
-177.556192000000010
  0
LINE
  8
0
  6
CONTINUOUS
 62
256
 10
-243.500051000000010
 20
-180.384618999999990
 11
-245.500051000000010
 21
-179.208834000000000
  0
LINE
  8
0
  6
CONTINUOUS
 62
256
 10
-152.300051000000000
 20
-184.968718999999990
 11
-137.500051000000010
 21
-184.968718999999990
  0
ARC
  8
0
  6
CONTINUOUS
 62
256
 10
-315.194075000000000
 20
-170.468718999999990
 40
19.999999999999996
 50
234.999999999999940
 51
270.000000000000000
  0
LINE
  8
0
  6
CONTINUOUS
 62
256
 10
-245.500051000000010
 20
-179.208834000000000
 11
-243.500051000000010
 21
-177.556192000000010
  0
LINE
  8
0
  6
CONTINUOUS
 62
256
 10
-247.500051000000010
 20
-180.384618999999990
 11
-245.500051000000010
 21
-179.208834000000000
  0
POLYLINE
  8
0
  6
CONTINUOUS
 62
256
 66
1
 70
1
  0
VERTEX
  8
0
  6
CONTINUOUS
 62
256
 10
-240.800051000000020
 20
-177.392244000000010
  0
VERTEX
  8
0
  6
CONTINUOUS
 62
256
 10
-240.890360182104840
 20
-176.689287489441820
  0
VERTEX
  8
0
  6
CONTINUOUS
 62
256
 10
-241.157817197196980
 20
-176.013345203361870
  0
VERTEX
  8
0
  6
CONTINUOUS
 62
256
 10
-241.592143822178060
 20
-175.390393224741330
  0
VERTEX
  8
0
  6
CONTINUOUS
 62
256
 10
-242.176649128423240
 20
-174.844371248763170
  0
VERTEX
  8
0
  6
CONTINUOUS
 62
256
 10
-242.888870904807900
 20
-174.396262593751520
  0
VERTEX
  8
0
  6
CONTINUOUS
 62
256
 10
-243.701438867884090
 20
-174.063287824016270
  0
VERTEX
  8
0
  6
CONTINUOUS
 62
256
 10
-244.583126486524210
 20
-173.858242973223920
  0
VERTEX
  8
0
  6
CONTINUOUS
 62
256
 10
-245.500051000000010
 20
-173.789007800000010
  0
VERTEX
  8
0
  6
CONTINUOUS
 62
256
 10
-246.416975513475820
 20
-173.858242973223920
  0
VERTEX
  8
0
  6
CONTINUOUS
 62
256
 10
-247.298663132115930
 20
-174.063287824016270
  0
VERTEX
  8
0
  6
CONTINUOUS
 62
256
 10
-248.111231095192120
 20
-174.396262593751520
  0
VERTEX
  8
0
  6
CONTINUOUS
 62
256
 10
-248.823452871576790
 20
-174.844371248763170
  0
VERTEX
  8
0
  6
CONTINUOUS
 62
256
 10
-249.407958177821970
 20
-175.390393224741330
  0
VERTEX
  8
0
  6
CONTINUOUS
 62
256
 10
-249.842284802803050
 20
-176.013345203361870
  0
VERTEX
  8
0
  6
CONTINUOUS
 62
256
 10
-250.109741817895180
 20
-176.689287489441820
  0
VERTEX
  8
0
  6
CONTINUOUS
 62
256
 10
-250.200051000000000
 20
-177.392244000000010
  0
VERTEX
  8
0
  6
CONTINUOUS
 62
256
 10
-250.109741817895180
 20
-178.095200510558190
  0
VERTEX
  8
0
  6
CONTINUOUS
 62
256
 10
-249.842284802803050
 20
-178.771142796638150
  0
VERTEX
  8
0
  6
CONTINUOUS
 62
256
 10
-249.407958177821970
 20
-179.394094775258680
  0
VERTEX
  8
0
  6
CONTINUOUS
 62
256
 10
-248.823452871576790
 20
-179.940116751236840
  0
VERTEX
  8
0
  6
CONTINUOUS
 62
256
 10
-248.111231095192120
 20
-180.388225406248490
  0
VERTEX
  8
0
  6
CONTINUOUS
 62
256
 10
-247.298663132115930
 20
-180.721200175983740
  0
VERTEX
  8
0
  6
CONTINUOUS
 62
256
 10
-246.416975513475820
 20
-180.926245026776060
  0
VERTEX
  8
0
  6
CONTINUOUS
 62
256
 10
-245.500051000000010
 20
-180.995480200000000
  0
VERTEX
  8
0
  6
CONTINUOUS
 62
256
 10
-244.583126486524210
 20
-180.926245026776060
  0
VERTEX
  8
0
  6
CONTINUOUS
 62
256
 10
-243.701438867884090
 20
-180.721200175983740
  0
VERTEX
  8
0
  6
CONTINUOUS
 62
256
 10
-242.888870904807900
 20
-180.388225406248490
  0
VERTEX
  8
0
  6
CONTINUOUS
 62
256
 10
-242.176649128423260
 20
-179.940116751236840
  0
VERTEX
  8
0
  6
CONTINUOUS
 62
256
 10
-241.592143822178060
 20
-179.394094775258680
  0
VERTEX
  8
0
  6
CONTINUOUS
 62
256
 10
-241.157817197196980
 20
-178.771142796638150
  0
VERTEX
  8
0
  6
CONTINUOUS
 62
256
 10
-240.890360182104840
 20
-178.095200510558190
  0
SEQEND
  8
0
  6
CONTINUOUS
 62
256
  0
LINE
  8
0
  6
CONTINUOUS
 62
256
 10
-244.500051000000010
 20
-190.468718999999990
 11
-315.194075000000000
 21
-190.468718999999990
  0
ARC
  8
0
  6
CONTINUOUS
 62
256
 10
-334.900051000000020
 20
-177.911924000000000
 40
2.600000000000023
 50
180.000000000000000
 51
234.999999999999770
  0
LINE
  8
0
  6
CONTINUOUS
 62
256
 10
-326.665603999999970
 20
-186.851760000000010
 11
-336.391349999999990
 21
-180.041719000000000
  0
LINE
  8
0
  6
CONTINUOUS
 62
256
 10
-244.500051000000010
 20
-190.468718999999990
 11
-244.500051000000010
 21
-190.087940000000000
  0
LINE
  8
0
  6
CONTINUOUS
 62
256
 10
-234.500051000000010
 20
-175.784253000000010
 11
-137.500051000000010
 21
-175.784253000000010
  0
LINE
  8
0
  6
CONTINUOUS
 62
256
 10
-242.300051000000000
 20
-202.968718999999990
 11
-242.300051000000000
 21
-214.968718999999990
  0
LINE
  8
0
  6
CONTINUOUS
 62
256
 10
-242.300051000000000
 20
-214.968718999999990
 11
-242.300051000000000
 21
-221.968718999999990
  0
TEXT
  8
0
  6
CONTINUOUS
 62
256
 10
495.227142333984380
 20
-246.010406494140620
 40
3.299999952316284
  1
1/1
 50
0.000002504478167
 41
0.850909097352304
  7
STANDARD1
  0
TEXT
  8
0
  6
CONTINUOUS
 62
256
 10
492.809143066406250
 20
-246.010406494140620
 40
3.299999952316284
  1
 
 50
0.000002504478167
 41
1.733333298293026
  7
STANDARD1
  0
TEXT
  8
0
  6
CONTINUOUS
 62
256
 10
479.758514404296870
 20
-246.010406494140620
 40
3.299999952316284
  1
SCALE
 50
0.000002504478167
 41
0.821052645401140
  7
STANDARD1
  0
TEXT
  8
0
  6
CONTINUOUS
 62
256
 10
476.507141113281250
 20
-246.010406494140620
 40
3.299999952316284
  1
 
 50
0.000002504478167
 41
1.733333298293026
  7
STANDARD1
  0
TEXT
  8
0
  6
CONTINUOUS
 62
256
 10
493.944335937500000
 20
-240.710403442382810
 40
3.299999952316284
  1
1/30
 50
0.000002504478167
 41
0.832000075658163
  7
STANDARD1
  0
TEXT
  8
0
  6
CONTINUOUS
 62
256
 10
490.153289794921870
 20
-240.710403442382810
 40
3.299999952316284
  1
ü`
 50
0.000002504478167
 41
1.176000019651471
  7
STANDARD1
  0
TEXT
  8
0
  6
CONTINUOUS
 62
256
 10
476.507141113281250
 20
-240.710403442382810
 40
3.299999952316284
  1
1/7.5
 50
0.000002504478167
 41
0.821052645401140
  7
STANDARD1
  0
TEXT
  8
0
  6
CONTINUOUS
 62
256
 10
476.507141113281250
 20
-235.410400390625000
 40
3.299999952316284
  1
GM-SSYFB-RH
 50
0.000002504478167
 41
0.798139564113939
  7
STANDARD1
  0
TEXT
  8
0
  6
CONTINUOUS
 62
256
 10
482.332519531250000
 20
-230.110412597656250
 40
3.299999952316284
  1
0.4kW
 50
0.000002504478167
 41
0.821052645401140
  7
STANDARD1
  0
TEXT
  8
0
  6
CONTINUOUS
 62
256
 10
476.507141113281250
 20
-230.110412597656250
 40
3.299999952316284
  1
  
 50
0.000002504478167
 41
1.485714400175845
  7
STANDARD1
  0
TEXT
  8
0
  6
CONTINUOUS
 62
256
 10
482.332519531250000
 20
-224.810409545898440
 40
3.299999952316284
  1
SSY13
 50
0.000002504478167
 41
0.821052645401140
  7
STANDARD1
  0
TEXT
  8
0
  6
CONTINUOUS
 62
256
 10
476.507141113281250
 20
-224.810409545898440
 40
3.299999952316284
  1
  
 50
0.000002504478167
 41
1.485714400175845
  7
STANDARD1
  0
ARC
  8
0
  6
CONTINUOUS
 62
256
 10
-701.430371000000040
 20
-125.468718999999990
 40
289.396999999999990
 50
0.000000000000000
 51
7.897989000000000
  0
ARC
  8
0
  6
CONTINUOUS
 62
256
 10
-420.721593999999980
 20
-86.527201000000005
 40
5.999999999999990
 50
7.897989000000010
 51
45.000000000000192
  0
ARC
  8
0
  6
CONTINUOUS
 62
256
 10
-410.733757000000030
 20
-81.520131000000006
 40
6.600000000000019
 50
8.597081999999919
 51
44.999999999999829
  0
ARC
  8
0
  6
CONTINUOUS
 62
256
 10
-432.107557999999980
 20
-121.468718999999990
 40
1.500000000000004
 50
187.928142000000150
 51
270.000000000000000
  0
ARC
  8
0
  6
CONTINUOUS
 62
256
 10
-460.830371000000010
 20
-125.468718999999990
 40
33.500000000000007
 50
7.180755999999994
 51
52.819243999999983
  0
ARC
  8
0
  6
CONTINUOUS
 62
256
 10
-460.830371000000010
 20
-125.468718999999990
 40
42.999999999999979
 50
5.531071999999997
 51
54.468927999999977
  0
ARC
  8
0
  6
CONTINUOUS
 62
256
 10
-460.830371000000010
 20
-125.468718999999990
 40
36.999999999999979
 50
5.963570000000011
 51
54.036430000000010
  0
ARC
  8
0
  6
CONTINUOUS
 62
256
 10
-443.004863000000000
 20
-102.594033000000000
 40
1.500000000000025
 50
150.000000000000540
 51
232.071857999999280
  0
ARC
  8
0
  6
CONTINUOUS
 62
256
 10
-441.491761999999990
 20
-99.973264999999998
 40
1.499999999999994
 50
52.819243999999927
 51
150.000000000000540
  0
ARC
  8
0
  6
CONTINUOUS
 62
256
 10
-438.220447999999980
 20
-94.307181999999997
 40
1.499999999999975
 50
149.999999999999460
 51
234.036429999999170
  0
LINE
  8
0
  6
CONTINUOUS
 62
256
 10
-444.303901000000000
 20
-101.844033000000000
 11
-442.790799999999990
 21
-99.223264999999998
  0
LINE
  8
0
  6
CONTINUOUS
 62
256
 10
-439.519485999999970
 20
-93.557181999999997
 11
-438.011917999999980
 21
-90.945999000000000
  0
ARC
  8
0
  6
CONTINUOUS
 62
256
 10
-436.712879999999980
 20
-91.695999000000000
 40
1.499999999999989
 50
54.468928000000517
 51
149.999999999999460
  0
ARC
  8
0
  6
CONTINUOUS
 62
256
 10
-473.240777999999980
 20
-95.973264999999998
 40
1.499999999999989
 50
112.819243999999050
 51
210.000000000000510
  0
LINE
  8
0
  6
CONTINUOUS
 62
256
 10
-474.539815999999970
 20
-96.723264999999998
 11
-473.026715000000020
 21
-99.344032999999996
  0
ARC
  8
0
  6
CONTINUOUS
 62
256
 10
-476.512092000000000
 20
-90.307181999999997
 40
1.499999999999975
 50
210.000000000000510
 51
294.036429999999600
  0
LINE
  8
0
  6
CONTINUOUS
 62
256
 10
-479.318696999999990
 20
-88.445999000000000
 11
-477.811129999999990
 21
-91.057181999999997
  0
ARC
  8
0
  6
CONTINUOUS
 62
256
 10
-478.019658999999990
 20
-87.695999000000000
 40
1.500000000000002
 50
114.468927999999780
 51
210.000000000000510
  0
ARC
  8
0
  6
CONTINUOUS
 62
256
 10
-471.727675999999970
 20
-98.594032999999996
 40
1.499999999999975
 50
210.000000000000510
 51
292.071857999999110
  0
ARC
  8
0
  6
CONTINUOUS
 62
256
 10
-460.830371000000010
 20
-125.468718999999990
 40
33.500000000000000
 50
67.180756000000002
 51
112.819244000000000
  0
ARC
  8
0
  6
CONTINUOUS
 62
256
 10
-460.830371000000010
 20
-125.468718999999990
 40
43.000000000000007
 50
65.531071999999980
 51
114.468928000000030
  0
ARC
  8
0
  6
CONTINUOUS
 62
256
 10
-460.830371000000010
 20
-125.468718999999990
 40
37.000000000000000
 50
65.963570000000033
 51
114.036429999999970
  0
ARC
  8
0
  6
CONTINUOUS
 62
256
 10
-460.830371000000010
 20
-125.468718999999990
 40
27.499999999999989
 50
67.928142000000008
 51
112.071857999999980
  0
ARC
  8
0
  6
CONTINUOUS
 62
256
 10
-449.933066000000000
 20
-98.594032999999996
 40
1.499999999999998
 50
247.928142000000830
 51
329.999999999999490
  0
ARC
  8
0
  6
CONTINUOUS
 62
256
 10
-448.419964999999990
 20
-95.973264999999998
 40
1.499999999999975
 50
329.999999999999490
 51
67.180756000000954
  0
ARC
  8
0
  6
CONTINUOUS
 62
256
 10
-445.148650999999970
 20
-90.307181999999997
 40
1.499999999999999
 50
245.963570000000350
 51
329.999999999999490
  0
LINE
  8
0
  6
CONTINUOUS
 62
256
 10
-448.634028000000000
 20
-99.344032999999996
 11
-447.120926999999990
 21
-96.723264999999998
  0
LINE
  8
0
  6
CONTINUOUS
 62
256
 10
-443.849612999999980
 20
-91.057181999999997
 11
-442.342044999999980
 21
-88.445999000000000
  0
ARC
  8
0
  6
CONTINUOUS
 62
256
 10
-443.641082999999980
 20
-87.695999000000000
 40
1.499999999999975
 50
329.999999999999490
 51
65.531072000000222
  0
ARC
  8
0
  6
CONTINUOUS
 62
256
 10
-480.168980999999970
 20
-99.973264999999998
 40
1.499999999999975
 50
30.000000000000544
 51
127.180756000000090
  0
LINE
  8
0
  6
CONTINUOUS
 62
256
 10
-478.869942999999980
 20
-99.223264999999998
 11
-477.356841999999970
 21
-101.844033000000000
  0
ARC
  8
0
  6
CONTINUOUS
 62
256
 10
-483.440294999999990
 20
-94.307181999999997
 40
1.500000000000007
 50
305.963570000000860
 51
29.999999999999456
  0
LINE
  8
0
  6
CONTINUOUS
 62
256
 10
-483.648823999999990
 20
-90.945999000000000
 11
-482.141257000000000
 21
-93.557181999999997
  0
ARC
  8
0
  6
CONTINUOUS
 62
256
 10
-484.947862999999980
 20
-91.695999000000000
 40
1.500000000000025
 50
29.999999999999456
 51
125.531071999999480
  0
ARC
  8
0
  6
CONTINUOUS
 62
256
 10
-478.655880000000020
 20
-102.594033000000000
 40
1.500000000000018
 50
307.928142000000720
 51
29.999999999999456
  0
ARC
  8
0
  6
CONTINUOUS
 62
256
 10
-460.830371000000010
 20
-125.468718999999990
 40
33.500000000000007
 50
127.180756000000020
 51
172.819244000000000
  0
ARC
  8
0
  6
CONTINUOUS
 62
256
 10
-460.830371000000010
 20
-125.468718999999990
 40
43.000000000000014
 50
125.531072000000020
 51
174.468928000000010
  0
ARC
  8
0
  6
CONTINUOUS
 62
256
 10
-460.830371000000010
 20
-125.468718999999990
 40
37.000000000000000
 50
125.963569999999990
 51
174.036430000000000
  0
ARC
  8
0
  6
CONTINUOUS
 62
256
 10
-460.830371000000010
 20
-125.468718999999990
 40
27.500000000000004
 50
127.928141999999990
 51
172.071857999999990
  0
ARC
  8
0
  6
CONTINUOUS
 62
256
 10
-489.553184999999980
 20
-121.468718999999990
 40
1.500000000000000
 50
270.000000000000000
 51
352.071857999999850
  0
ARC
  8
0
  6
CONTINUOUS
 62
256
 10
-492.579387000000000
 20
-121.468718999999990
 40
1.500000000000028
 50
172.819243999999910
 51
270.000000000000000
  0
ARC
  8
0
  6
CONTINUOUS
 62
256
 10
-499.122014999999980
 20
-121.468718999999990
 40
1.500000000000000
 50
270.000000000000000
 51
354.036430000000220
  0
LINE
  8
0
  6
CONTINUOUS
 62
256
 10
-489.553184999999980
 20
-122.968718999999990
 11
-492.579387000000000
 21
-122.968718999999990
  0
LINE
  8
0
  6
CONTINUOUS
 62
256
 10
-499.122014999999980
 20
-122.968718999999990
 11
-502.137151000000020
 21
-122.968718999999990
  0
ARC
  8
0
  6
CONTINUOUS
 62
256
 10
-502.137151000000020
 20
-121.468718999999990
 40
1.499999999999979
 50
174.468927999999720
 51
270.000000000000000
  0
ARC
  8
0
  6
CONTINUOUS
 62
256
 10
-480.168980999999970
 20
-150.964172999999990
 40
1.499999999999994
 50
232.819243999999940
 51
329.999999999999490
  0
LINE
  8
0
  6
CONTINUOUS
 62
256
 10
-478.869942999999980
 20
-151.714172999999990
 11
-477.356841999999970
 21
-149.093404999999990
  0
ARC
  8
0
  6
CONTINUOUS
 62
256
 10
-483.440294999999990
 20
-156.630255000000010
 40
1.499999999999975
 50
329.999999999999490
 51
54.036429999999186
  0
ARC
  8
0
  6
CONTINUOUS
 62
256
 10
-478.655880000000020
 20
-148.343404999999990
 40
1.499999999999975
 50
329.999999999999490
 51
52.071857999999288
  0
ARC
  8
0
  6
CONTINUOUS
 62
256
 10
-460.830371000000010
 20
-125.468718999999990
 40
33.500000000000000
 50
187.180755999999970
 51
232.819244000000000
  0
ARC
  8
0
  6
CONTINUOUS
 62
256
 10
-460.830371000000010
 20
-125.468718999999990
 40
42.999999999999979
 50
185.531071999999990
 51
234.468927999999950
  0
ARC
  8
0
  6
CONTINUOUS
 62
256
 10
-460.830371000000010
 20
-125.468718999999990
 40
36.999999999999979
 50
185.963569999999980
 51
234.036429999999970
  0
ARC
  8
0
  6
CONTINUOUS
 62
256
 10
-460.830371000000010
 20
-125.468718999999990
 40
27.499999999999986
 50
187.928142000000010
 51
232.071858000000050
  0
ARC
  8
0
  6
CONTINUOUS
 62
256
 10
-489.553184999999980
 20
-129.468718999999990
 40
1.500000000000004
 50
7.928142000000149
 51
90.000000000000000
  0
ARC
  8
0
  6
CONTINUOUS
 62
256
 10
-492.579387000000000
 20
-129.468718999999990
 40
1.500000000000000
 50
90.000000000000000
 51
187.180755999999550
  0
ARC
  8
0
  6
CONTINUOUS
 62
256
 10
-499.122014999999980
 20
-129.468718999999990
 40
1.500000000000012
 50
5.963569999999792
 51
90.000000000000000
  0
LINE
  8
0
  6
CONTINUOUS
 62
256
 10
-489.553184999999980
 20
-127.968718999999990
 11
-492.579387000000000
 21
-127.968718999999990
  0
LINE
  8
0
  6
CONTINUOUS
 62
256
 10
-499.122014999999980
 20
-127.968718999999990
 11
-502.137151000000020
 21
-127.968718999999990
  0
ARC
  8
0
  6
CONTINUOUS
 62
256
 10
-502.137151000000020
 20
-129.468718999999990
 40
1.500000000000000
 50
90.000000000000000
 51
185.531071999999710
  0
ARC
  8
0
  6
CONTINUOUS
 62
256
 10
-473.240777999999980
 20
-154.964172999999990
 40
1.500000000000025
 50
150.000000000000540
 51
247.180756000001140
  0
LINE
  8
0
  6
CONTINUOUS
 62
256
 10
-474.539815999999970
 20
-154.214172999999990
 11
-473.026715000000020
 21
-151.593404999999990
  0
ARC
  8
0
  6
CONTINUOUS
 62
256
 10
-471.727675999999970
 20
-152.343404999999990
 40
1.499999999999998
 50
67.928142000000889
 51
150.000000000000540
  0
ARC
  8
0
  6
CONTINUOUS
 62
256
 10
-460.830371000000010
 20
-125.468718999999990
 40
33.500000000000007
 50
247.180756000000030
 51
292.819244000000030
  0
ARC
  8
0
  6
CONTINUOUS
 62
256
 10
-460.830371000000010
 20
-125.468718999999990
 40
27.499999999999989
 50
247.928142000000040
 51
292.071857999999960
  0
ARC
  8
0
  6
CONTINUOUS
 62
256
 10
-449.933066000000000
 20
-152.343404999999990
 40
1.499999999999975
 50
30.000000000000544
 51
112.071857999999120
  0
ARC
  8
0
  6
CONTINUOUS
 62
256
 10
-448.419964999999990
 20
-154.964172999999990
 40
1.499999999999976
 50
292.819243999999230
 51
30.000000000000544
  0
LINE
  8
0
  6
CONTINUOUS
 62
256
 10
-448.634028000000000
 20
-151.593404999999990
 11
-447.120926999999990
 21
-154.214172999999990
  0
ARC
  8
0
  6
CONTINUOUS
 62
256
 10
-460.830371000000010
 20
-125.468718999999990
 40
33.500000000000000
 50
307.180755999999920
 51
352.819244000000030
  0
ARC
  8
0
  6
CONTINUOUS
 62
256
 10
-460.830371000000010
 20
-125.468718999999990
 40
36.999999999999993
 50
305.963570000000000
 51
354.036429999999940
  0
ARC
  8
0
  6
CONTINUOUS
 62
256
 10
-438.220447999999980
 20
-156.630255000000010
 40
1.500000000000007
 50
125.963570000000810
 51
210.000000000000510
  0
ARC
  8
0
  6
CONTINUOUS
 62
256
 10
-441.491761999999990
 20
-150.964172999999990
 40
1.499999999999975
 50
210.000000000000510
 51
307.180756000000090
  0
ARC
  8
0
  6
CONTINUOUS
 62
256
 10
-460.830371000000010
 20
-125.468718999999990
 40
27.500000000000014
 50
307.928141999999980
 51
352.071858000000020
  0
ARC
  8
0
  6
CONTINUOUS
 62
256
 10
-432.107557999999980
 20
-129.468718999999990
 40
1.500000000000000
 50
90.000000000000000
 51
172.071857999999850
  0
LINE
  8
0
  6
CONTINUOUS
 62
256
 10
-444.303901000000000
 20
-149.093404999999990
 11
-442.790799999999990
 21
-151.714172999999990
  0
ARC
  8
0
  6
CONTINUOUS
 62
256
 10
-443.004863000000000
 20
-148.343404999999990
 40
1.500000000000018
 50
127.928142000000730
 51
210.000000000000510
  0
CIRCLE
  8
0
  6
CONTINUOUS
 62
256
 10
-460.830371000000010
 20
-125.468718999999990
 40
5.000000000000000
  0
ARC
  8
0
  6
CONTINUOUS
 62
256
 10
-452.783694000000030
 20
-131.405972999999990
 40
1.500000000000009
 50
143.578177999999610
 51
210.000000000000510
  0
ARC
  8
0
  6
CONTINUOUS
 62
256
 10
-451.665219999999980
 20
-129.468718999999990
 40
1.500000000000000
 50
90.000000000000000
 51
156.421822000000110
  0
ARC
  8
0
  6
CONTINUOUS
 62
256
 10
-446.295475000000010
 20
-142.643898000000010
 40
1.499999999999975
 50
210.000000000000510
 51
310.240347999999810
  0
ARC
  8
0
  6
CONTINUOUS
 62
256
 10
-448.461054999999990
 20
-129.468718999999990
 40
1.500000000000028
 50
342.079787000000070
 51
90.000000000000000
  0
ARC
  8
0
  6
CONTINUOUS
 62
256
 10
-441.745037000000020
 20
-129.468718999999990
 40
1.500000000000000
 50
90.000000000000000
 51
168.162995999999680
  0
ARC
  8
0
  6
CONTINUOUS
 62
256
 10
-447.823601999999990
 20
-139.997104000000010
 40
1.499999999999989
 50
131.837003999999810
 51
210.000000000000510
  0
ARC
  8
0
  6
CONTINUOUS
 62
256
 10
-438.688782000000000
 20
-129.468718999999990
 40
1.500000000000012
 50
349.759651999999790
 51
90.000000000000000
  0
ARC
  8
0
  6
CONTINUOUS
 62
256
 10
-451.181610999999980
 20
-134.180861999999990
 40
1.499999999999975
 50
210.000000000000510
 51
317.920212999999420
  0
LINE
  8
0
  6
CONTINUOUS
 62
256
 10
-449.122640999999990
 20
-140.747104000000010
 11
-447.594513000000010
 21
-143.393898000000010
  0
ARC
  8
0
  6
CONTINUOUS
 62
256
 10
-460.830371000000010
 20
-125.468718999999990
 40
14.500000000000012
 50
317.920213000000050
 51
342.079787000000070
  0
LINE
  8
0
  6
CONTINUOUS
 62
256
 10
-448.461054999999990
 20
-127.968718999999990
 11
-451.665219999999980
 21
-127.968718999999990
  0
LINE
  8
0
  6
CONTINUOUS
 62
256
 10
-438.688782000000000
 20
-127.968718999999990
 11
-441.745037000000020
 21
-127.968718999999990
  0
LINE
  8
0
  6
CONTINUOUS
 62
256
 10
-454.082732000000020
 20
-132.155972999999990
 11
-452.480649000000030
 21
-134.930861999999990
  0
ARC
  8
0
  6
CONTINUOUS
 62
256
 10
-460.830371000000010
 20
-125.468718999999990
 40
24.000000000000004
 50
310.240347999999980
 51
349.759652000000020
  0
ARC
  8
0
  6
CONTINUOUS
 62
256
 10
-460.830371000000010
 20
-125.468718999999990
 40
8.499999999999989
 50
323.578177999999920
 51
336.421821999999910
  0
ARC
  8
0
  6
CONTINUOUS
 62
256
 10
-463.550928000000000
 20
-138.180861999999990
 40
1.500000000000025
 50
150.000000000000540
 51
257.920213000000730
  0
LINE
  8
0
  6
CONTINUOUS
 62
256
 10
-464.849965999999990
 20
-137.430861999999990
 11
-463.247884000000000
 21
-134.655972999999990
  0
ARC
  8
0
  6
CONTINUOUS
 62
256
 10
-461.948845000000010
 20
-135.405972999999990
 40
1.500000000000001
 50
83.578178000000747
 51
150.000000000000540
  0
ARC
  8
0
  6
CONTINUOUS
 62
256
 10
-460.830371000000010
 20
-125.468718999999990
 40
8.500000000000007
 50
263.578177999999980
 51
276.421822000000020
  0
ARC
  8
0
  6
CONTINUOUS
 62
256
 10
-459.711897000000020
 20
-135.405972999999990
 40
1.500000000000025
 50
29.999999999999456
 51
96.421821999999253
  0
LINE
  8
0
  6
CONTINUOUS
 62
256
 10
-458.412859000000030
 20
-134.655972999999990
 11
-456.810775999999980
 21
-137.430861999999990
  0
ARC
  8
0
  6
CONTINUOUS
 62
256
 10
-458.109815000000030
 20
-138.180861999999990
 40
1.499999999999989
 50
282.079786999999270
 51
29.999999999999456
  0
ARC
  8
0
  6
CONTINUOUS
 62
256
 10
-460.830371000000010
 20
-125.468718999999990
 40
14.499999999999986
 50
257.920212999999990
 51
282.079786999999950
  0
ARC
  8
0
  6
CONTINUOUS
 62
256
 10
-468.437065000000020
 20
-146.643898000000010
 40
1.499999999999975
 50
149.999999999999460
 51
250.240347999999300
  0
LINE
  8
0
  6
CONTINUOUS
 62
256
 10
-469.736103000000010
 20
-145.893898000000010
 11
-468.207974999999980
 21
-143.247104000000010
  0
ARC
  8
0
  6
CONTINUOUS
 62
256
 10
-466.908936999999980
 20
-143.997104000000010
 40
1.500000000000007
 50
71.837003999999709
 51
149.999999999999460
  0
ARC
  8
0
  6
CONTINUOUS
 62
256
 10
-460.830371000000010
 20
-125.468718999999990
 40
17.999999999999996
 50
251.837003999999980
 51
288.162995999999960
  0
ARC
  8
0
  6
CONTINUOUS
 62
256
 10
-454.751805999999990
 20
-143.997104000000010
 40
1.500000000000025
 50
29.999999999999456
 51
108.162996000000290
  0
LINE
  8
0
  6
CONTINUOUS
 62
256
 10
-453.452767999999990
 20
-143.247104000000010
 11
-451.924640000000010
 21
-145.893898000000010
  0
ARC
  8
0
  6
CONTINUOUS
 62
256
 10
-453.223678000000010
 20
-146.643898000000010
 40
1.500000000000012
 50
289.759652000000640
 51
30.000000000000544
  0
ARC
  8
0
  6
CONTINUOUS
 62
256
 10
-460.830371000000010
 20
-125.468718999999990
 40
23.999999999999993
 50
250.240348000000010
 51
289.759652000000020
  0
ARC
  8
0
  6
CONTINUOUS
 62
256
 10
-463.550928000000000
 20
-112.756576000000000
 40
1.499999999999989
 50
102.079786999999230
 51
210.000000000000510
  0
LINE
  8
0
  6
CONTINUOUS
 62
256
 10
-464.849965999999990
 20
-113.506576000000000
 11
-463.247884000000000
 21
-116.281465000000000
  0
ARC
  8
0
  6
CONTINUOUS
 62
256
 10
-461.948845000000010
 20
-115.531465000000000
 40
1.499999999999975
 50
210.000000000000510
 51
276.421821999999220
  0
ARC
  8
0
  6
CONTINUOUS
 62
256
 10
-460.830371000000010
 20
-125.468718999999990
 40
8.500000000000007
 50
83.578177999999994
 51
96.421822000000020
  0
ARC
  8
0
  6
CONTINUOUS
 62
256
 10
-459.711897000000020
 20
-115.531465000000000
 40
1.500000000000001
 50
263.578178000000780
 51
329.999999999999490
  0
LINE
  8
0
  6
CONTINUOUS
 62
256
 10
-458.412859000000030
 20
-116.281465000000000
 11
-456.810775999999980
 21
-113.506576000000000
  0
ARC
  8
0
  6
CONTINUOUS
 62
256
 10
-458.109815000000030
 20
-112.756576000000000
 40
1.499999999999975
 50
329.999999999999490
 51
77.920213000000771
  0
ARC
  8
0
  6
CONTINUOUS
 62
256
 10
-460.830371000000010
 20
-125.468718999999990
 40
14.500000000000002
 50
77.920213000000032
 51
102.079786999999980
  0
ARC
  8
0
  6
CONTINUOUS
 62
256
 10
-468.437065000000020
 20
-104.293539999999990
 40
1.500000000000012
 50
109.759652000000680
 51
210.000000000000510
  0
LINE
  8
0
  6
CONTINUOUS
 62
256
 10
-469.736103000000010
 20
-105.043539999999990
 11
-468.207974999999980
 21
-107.690333999999990
  0
ARC
  8
0
  6
CONTINUOUS
 62
256
 10
-466.908936999999980
 20
-106.940333999999990
 40
1.499999999999975
 50
210.000000000000510
 51
288.162996000000310
  0
ARC
  8
0
  6
CONTINUOUS
 62
256
 10
-460.830371000000010
 20
-125.468718999999990
 40
17.999999999999996
 50
71.837004000000007
 51
108.162996000000010
  0
ARC
  8
0
  6
CONTINUOUS
 62
256
 10
-454.751805999999990
 20
-106.940333999999990
 40
1.500000000000007
 50
251.837003999999720
 51
329.999999999999490
  0
LINE
  8
0
  6
CONTINUOUS
 62
256
 10
-453.452767999999990
 20
-107.690333999999990
 11
-451.924640000000010
 21
-105.043539999999990
  0
ARC
  8
0
  6
CONTINUOUS
 62
256
 10
-453.223678000000010
 20
-104.293539999999990
 40
1.499999999999975
 50
329.999999999999490
 51
70.240347999999329
  0
ARC
  8
0
  6
CONTINUOUS
 62
256
 10
-460.830371000000010
 20
-125.468718999999990
 40
23.999999999999993
 50
70.240348000000012
 51
109.759651999999990
  0
ARC
  8
0
  6
CONTINUOUS
 62
256
 10
-470.479131000000000
 20
-116.756576000000000
 40
1.499999999999975
 50
30.000000000000544
 51
137.920212999999820
  0
LINE
  8
0
  6
CONTINUOUS
 62
256
 10
-469.180093000000000
 20
-116.006576000000000
 11
-467.578011000000000
 21
-118.781465000000000
  0
ARC
  8
0
  6
CONTINUOUS
 62
256
 10
-468.877049000000000
 20
-119.531465000000000
 40
1.500000000000000
 50
323.578178000000040
 51
30.000000000000544
  0
ARC
  8
0
  6
CONTINUOUS
 62
256
 10
-460.830371000000010
 20
-125.468718999999990
 40
8.499999999999989
 50
143.578177999999950
 51
156.421821999999930
  0
ARC
  8
0
  6
CONTINUOUS
 62
256
 10
-469.995522999999990
 20
-121.468718999999990
 40
1.500000000000000
 50
270.000000000000000
 51
336.421821999999620
  0
LINE
  8
0
  6
CONTINUOUS
 62
256
 10
-469.995522999999990
 20
-122.968718999999990
 11
-473.199687999999980
 21
-122.968718999999990
  0
ARC
  8
0
  6
CONTINUOUS
 62
256
 10
-473.199687999999980
 20
-121.468718999999990
 40
1.500000000000024
 50
162.079787000000550
 51
270.000000000000000
  0
ARC
  8
0
  6
CONTINUOUS
 62
256
 10
-460.830371000000010
 20
-125.468718999999990
 40
14.500000000000012
 50
137.920213000000070
 51
162.079787000000070
  0
ARC
  8
0
  6
CONTINUOUS
 62
256
 10
-475.365268000000010
 20
-108.293539999999990
 40
1.500000000000025
 50
29.999999999999456
 51
130.240347999999780
  0
LINE
  8
0
  6
CONTINUOUS
 62
256
 10
-474.066230000000020
 20
-107.543539999999990
 11
-472.538101999999980
 21
-110.190333999999990
  0
ARC
  8
0
  6
CONTINUOUS
 62
256
 10
-473.837139999999980
 20
-110.940333999999990
 40
1.499999999999989
 50
311.837003999999810
 51
29.999999999999456
  0
ARC
  8
0
  6
CONTINUOUS
 62
256
 10
-460.830371000000010
 20
-125.468718999999990
 40
17.999999999999989
 50
131.837003999999920
 51
168.162995999999990
  0
ARC
  8
0
  6
CONTINUOUS
 62
256
 10
-479.915706000000000
 20
-121.468718999999990
 40
1.500000000000000
 50
270.000000000000000
 51
348.162996000000190
  0
LINE
  8
0
  6
CONTINUOUS
 62
256
 10
-479.915706000000000
 20
-122.968718999999990
 11
-482.971961000000020
 21
-122.968718999999990
  0
ARC
  8
0
  6
CONTINUOUS
 62
256
 10
-482.971961000000020
 20
-121.468718999999990
 40
1.500000000000009
 50
169.759652000000300
 51
270.000000000000000
  0
ARC
  8
0
  6
CONTINUOUS
 62
256
 10
-460.830371000000010
 20
-125.468718999999990
 40
24.000000000000004
 50
130.240347999999980
 51
169.759651999999960
  0
ARC
  8
0
  6
CONTINUOUS
 62
256
 10
-470.479131000000000
 20
-134.180861999999990
 40
1.500000000000003
 50
222.079787000000580
 51
329.999999999999490
  0
LINE
  8
0
  6
CONTINUOUS
 62
256
 10
-469.180093000000000
 20
-134.930861999999990
 11
-467.578011000000000
 21
-132.155972999999990
  0
ARC
  8
0
  6
CONTINUOUS
 62
256
 10
-468.877049000000000
 20
-131.405972999999990
 40
1.499999999999975
 50
329.999999999999490
 51
36.421822000000404
  0
ARC
  8
0
  6
CONTINUOUS
 62
256
 10
-460.830371000000010
 20
-125.468718999999990
 40
8.499999999999991
 50
203.578178000000070
 51
216.421822000000050
  0
ARC
  8
0
  6
CONTINUOUS
 62
256
 10
-469.995522999999990
 20
-129.468718999999990
 40
1.499999999999979
 50
23.578177999999905
 51
90.000000000000000
  0
LINE
  8
0
  6
CONTINUOUS
 62
256
 10
-469.995522999999990
 20
-127.968718999999990
 11
-473.199687999999980
 21
-127.968718999999990
  0
ARC
  8
0
  6
CONTINUOUS
 62
256
 10
-473.199687999999980
 20
-129.468718999999990
 40
1.500000000000000
 50
90.000000000000000
 51
197.920212999999960
  0
ARC
  8
0
  6
CONTINUOUS
 62
256
 10
-460.830371000000010
 20
-125.468718999999990
 40
14.500000000000011
 50
197.920212999999930
 51
222.079786999999930
  0
ARC
  8
0
  6
CONTINUOUS
 62
256
 10
-475.365268000000010
 20
-142.643898000000010
 40
1.499999999999991
 50
229.759652000000220
 51
329.999999999999490
  0
LINE
  8
0
  6
CONTINUOUS
 62
256
 10
-474.066230000000020
 20
-143.393898000000010
 11
-472.538101999999980
 21
-140.747104000000010
  0
ARC
  8
0
  6
CONTINUOUS
 62
256
 10
-473.837139999999980
 20
-139.997104000000010
 40
1.499999999999975
 50
329.999999999999490
 51
48.162996000000220
  0
ARC
  8
0
  6
CONTINUOUS
 62
256
 10
-460.830371000000010
 20
-125.468718999999990
 40
17.999999999999972
 50
191.837003999999980
 51
228.162996000000080
  0
ARC
  8
0
  6
CONTINUOUS
 62
256
 10
-479.915706000000000
 20
-129.468718999999990
 40
1.500000000000000
 50
11.837004000000336
 51
90.000000000000000
  0
LINE
  8
0
  6
CONTINUOUS
 62
256
 10
-479.915706000000000
 20
-127.968718999999990
 11
-482.971961000000020
 21
-127.968718999999990
  0
ARC
  8
0
  6
CONTINUOUS
 62
256
 10
-482.971961000000020
 20
-129.468718999999990
 40
1.500000000000000
 50
90.000000000000000
 51
190.240348000000240
  0
ARC
  8
0
  6
CONTINUOUS
 62
256
 10
-460.830371000000010
 20
-125.468718999999990
 40
23.999999999999993
 50
190.240347999999980
 51
229.759652000000020
  0
ARC
  8
0
  6
CONTINUOUS
 62
256
 10
-448.461054999999990
 20
-121.468718999999990
 40
1.500000000000000
 50
270.000000000000000
 51
17.920212999999450
  0
LINE
  8
0
  6
CONTINUOUS
 62
256
 10
-448.461054999999990
 20
-122.968718999999990
 11
-451.665219999999980
 21
-122.968718999999990
  0
ARC
  8
0
  6
CONTINUOUS
 62
256
 10
-451.665219999999980
 20
-121.468718999999990
 40
1.499999999999984
 50
203.578178000000380
 51
270.000000000000000
  0
ARC
  8
0
  6
CONTINUOUS
 62
256
 10
-460.830371000000010
 20
-125.468718999999990
 40
8.499999999999991
 50
23.578178000000058
 51
36.421822000000063
  0
ARC
  8
0
  6
CONTINUOUS
 62
256
 10
-452.783694000000030
 20
-119.531465000000000
 40
1.499999999999975
 50
149.999999999999460
 51
216.421821999999960
  0
LINE
  8
0
  6
CONTINUOUS
 62
256
 10
-454.082732000000020
 20
-118.781465000000000
 11
-452.480649000000030
 21
-116.006576000000000
  0
ARC
  8
0
  6
CONTINUOUS
 62
256
 10
-451.181610999999980
 20
-116.756576000000000
 40
1.499999999999994
 50
42.079787000000181
 51
150.000000000000540
  0
ARC
  8
0
  6
CONTINUOUS
 62
256
 10
-460.830371000000010
 20
-125.468718999999990
 40
14.500000000000014
 50
17.920213000000000
 51
42.079786999999946
  0
ARC
  8
0
  6
CONTINUOUS
 62
256
 10
-438.688782000000000
 20
-121.468718999999990
 40
1.500000000000000
 50
270.000000000000000
 51
10.240347999999715
  0
LINE
  8
0
  6
CONTINUOUS
 62
256
 10
-438.688782000000000
 20
-122.968718999999990
 11
-441.745037000000020
 21
-122.968718999999990
  0
ARC
  8
0
  6
CONTINUOUS
 62
256
 10
-441.745037000000020
 20
-121.468718999999990
 40
1.499999999999997
 50
191.837003999999810
 51
270.000000000000000
  0
ARC
  8
0
  6
CONTINUOUS
 62
256
 10
-460.830371000000010
 20
-125.468718999999990
 40
17.999999999999975
 50
11.837004000000027
 51
48.162996000000071
  0
ARC
  8
0
  6
CONTINUOUS
 62
256
 10
-447.823601999999990
 20
-110.940333999999990
 40
1.499999999999975
 50
149.999999999999460
 51
228.162996000000190
  0
LINE
  8
0
  6
CONTINUOUS
 62
256
 10
-449.122640999999990
 20
-110.190333999999990
 11
-447.594513000000010
 21
-107.543539999999990
  0
ARC
  8
0
  6
CONTINUOUS
 62
256
 10
-446.295475000000010
 20
-108.293539999999990
 40
1.499999999999991
 50
49.759652000000230
 51
150.000000000000540
  0
ARC
  8
0
  6
CONTINUOUS
 62
256
 10
-460.830371000000010
 20
-125.468718999999990
 40
23.999999999999993
 50
10.240347999999988
 51
49.759652000000010
  0
ARC
  8
0
  6
CONTINUOUS
 62
256
 10
-429.081356000000030
 20
-121.468718999999990
 40
1.500000000000000
 50
270.000000000000000
 51
7.180756000000089
  0
LINE
  8
0
  6
CONTINUOUS
 62
256
 10
-429.081356000000030
 20
-122.968718999999990
 11
-432.107557999999980
 21
-122.968718999999990
  0
ARC
  8
0
  6
CONTINUOUS
 62
256
 10
-422.538726999999990
 20
-121.468718999999990
 40
1.500000000000012
 50
185.963569999999780
 51
270.000000000000000
  0
LINE
  8
0
  6
CONTINUOUS
 62
256
 10
-419.523592000000010
 20
-122.968718999999990
 11
-422.538726999999990
 21
-122.968718999999990
  0
LINE
  8
0
  6
CONTINUOUS
 62
256
 10
-483.648823999999990
 20
-159.991439000000010
 11
-482.141257000000000
 21
-157.380255000000010
  0
ARC
  8
0
  6
CONTINUOUS
 62
256
 10
-484.947862999999980
 20
-159.241439000000010
 40
1.499999999999989
 50
234.468928000000520
 51
329.999999999999490
  0
ARC
  8
0
  6
CONTINUOUS
 62
256
 10
-476.512092000000000
 20
-160.630255000000010
 40
1.499999999999986
 50
65.963570000000146
 51
149.999999999999460
  0
LINE
  8
0
  6
CONTINUOUS
 62
256
 10
-479.318696999999990
 20
-162.491439000000010
 11
-477.811129999999990
 21
-159.880255000000010
  0
ARC
  8
0
  6
CONTINUOUS
 62
256
 10
-478.019658999999990
 20
-163.241439000000010
 40
1.499999999999975
 50
149.999999999999460
 51
245.531072000000020
  0
ARC
  8
0
  6
CONTINUOUS
 62
256
 10
-460.830371000000010
 20
-125.468718999999990
 40
42.999999999999993
 50
245.531071999999970
 51
294.468927999999950
  0
ARC
  8
0
  6
CONTINUOUS
 62
256
 10
-460.830371000000010
 20
-125.468718999999990
 40
37.000000000000000
 50
245.963569999999950
 51
294.036429999999940
  0
ARC
  8
0
  6
CONTINUOUS
 62
256
 10
-445.148650999999970
 20
-160.630255000000010
 40
1.500000000000025
 50
29.999999999999456
 51
114.036429999999850
  0
LINE
  8
0
  6
CONTINUOUS
 62
256
 10
-443.849612999999980
 20
-159.880255000000010
 11
-442.342044999999980
 21
-162.491439000000010
  0
ARC
  8
0
  6
CONTINUOUS
 62
256
 10
-443.641082999999980
 20
-163.241439000000010
 40
1.499999999999989
 50
294.468928000000010
 51
29.999999999999456
  0
ARC
  8
0
  6
CONTINUOUS
 62
256
 10
-460.830371000000010
 20
-125.468718999999990
 40
43.000000000000021
 50
305.531071999999990
 51
354.468928000000010
  0
ARC
  8
0
  6
CONTINUOUS
 62
256
 10
-436.712879999999980
 20
-159.241439000000010
 40
1.499999999999975
 50
210.000000000000510
 51
305.531071999999480
  0
ARC
  8
0
  6
CONTINUOUS
 62
256
 10
-422.538726999999990
 20
-129.468718999999990
 40
1.500000000000000
 50
90.000000000000000
 51
174.036430000000220
  0
ARC
  8
0
  6
CONTINUOUS
 62
256
 10
-429.081356000000030
 20
-129.468718999999990
 40
1.500000000000026
 50
352.819244000000480
 51
90.000000000000000
  0
LINE
  8
0
  6
CONTINUOUS
 62
256
 10
-429.081356000000030
 20
-127.968718999999990
 11
-432.107557999999980
 21
-127.968718999999990
  0
LINE
  8
0
  6
CONTINUOUS
 62
256
 10
-439.519485999999970
 20
-157.380255000000010
 11
-438.011917999999980
 21
-159.991439000000010
  0
LINE
  8
0
  6
CONTINUOUS
 62
256
 10
-419.523592000000010
 20
-127.968718999999990
 11
-422.538726999999990
 21
-127.968718999999990
  0
ARC
  8
0
  6
CONTINUOUS
 62
256
 10
-460.830371000000010
 20
-125.468718999999990
 40
27.499999999999986
 50
7.928141999999994
 51
52.071858000000006
  0
ARC
  8
0
  6
CONTINUOUS
 62
256
 10
-460.830371000000010
 20
-125.468718999999990
 40
17.999999999999989
 50
311.837003999999920
 51
348.162996000000020
  0
ARC
  8
0
  6
CONTINUOUS
 62
256
 10
-419.523592000000010
 20
-121.468718999999990
 40
1.500000000000000
 50
270.000000000000000
 51
5.531072000000276
  0
ARC
  8
0
  6
CONTINUOUS
 62
256
 10
-419.523592000000010
 20
-129.468718999999990
 40
1.499999999999977
 50
354.468928000000290
 51
90.000000000000000
  0
ARC
  8
0
  6
CONTINUOUS
 62
256
 10
-701.430371000000040
 20
-125.468718999999990
 40
300.600000000000020
 50
0.000000000000000
 51
8.597081999999999
  0
ARC
  8
0
  6
CONTINUOUS
 62
256
 10
-220.230370999999990
 20
-125.468718999999990
 40
300.600000000000020
 50
180.000000000000000
 51
188.597082000000000
  0
ARC
  8
0
  6
CONTINUOUS
 62
256
 10
-410.733757000000030
 20
-169.417306000000000
 40
6.600000000000017
 50
315.000000000000170
 51
351.402917999999940
  0
ARC
  8
0
  6
CONTINUOUS
 62
256
 10
-701.430371000000040
 20
-125.468718999999990
 40
300.600000000000020
 50
351.402918000000000
 51
0.000000000000000
  0
ARC
  8
0
  6
CONTINUOUS
 62
256
 10
-510.926986000000000
 20
-169.417306000000000
 40
6.599999999999966
 50
188.597082000000110
 51
224.999999999999830
  0
ARC
  8
0
  6
CONTINUOUS
 62
256
 10
-220.230370999999990
 20
-125.468718999999990
 40
300.600000000000020
 50
171.402918000000000
 51
180.000000000000000
  0
ARC
  8
0
  6
CONTINUOUS
 62
256
 10
-510.926986000000000
 20
-81.520131000000006
 40
6.600000000000017
 50
135.000000000000170
 51
171.402918000000000
  0
LINE
  8
0
  6
CONTINUOUS
 62
256
 10
-406.066851999999980
 20
-174.084211000000010
 11
-413.133301000000020
 21
-181.150659999999990
  0
ARC
  8
0
  6
CONTINUOUS
 62
256
 10
-431.942342000000000
 20
-162.341620000000010
 40
26.600000000000009
 50
276.051984999999950
 51
315.000000000000060
  0
LINE
  8
0
  6
CONTINUOUS
 62
256
 10
-406.066851999999980
 20
-76.853227000000004
 11
-413.133301000000020
 21
-69.786777999999998
  0
ARC
  8
0
  6
CONTINUOUS
 62
256
 10
-431.942342000000000
 20
-88.595817999999994
 40
26.600000000000016
 50
44.999999999999957
 51
83.948015000000026
  0
LINE
  8
0
  6
CONTINUOUS
 62
256
 10
-515.593890999999990
 20
-76.853227000000004
 11
-508.527442000000010
 21
-69.786777999999998
  0
ARC
  8
0
  6
CONTINUOUS
 62
256
 10
-460.830371000000010
 20
-361.068718999999990
 40
300.600000000000020
 50
83.948014999999998
 51
96.051985000000002
  0
ARC
  8
0
  6
CONTINUOUS
 62
256
 10
-489.718400999999970
 20
-88.595817999999994
 40
26.599999999999994
 50
96.051984999999974
 51
134.999999999999970
  0
ARC
  8
0
  6
CONTINUOUS
 62
256
 10
-460.830371000000010
 20
110.131281000000000
 40
300.600000000000020
 50
263.948015000000000
 51
276.051985000000000
  0
LINE
  8
0
  6
CONTINUOUS
 62
256
 10
-515.593890999999990
 20
-174.084211000000010
 11
-508.527442000000010
 21
-181.150659999999990
  0
ARC
  8
0
  6
CONTINUOUS
 62
256
 10
-489.718400999999970
 20
-162.341620000000010
 40
26.600000000000016
 50
224.999999999999940
 51
263.948015000000050
  0
ARC
  8
0
  6
CONTINUOUS
 62
256
 10
-431.942342000000000
 20
-88.595817999999994
 40
15.397000000000016
 50
44.999999999999929
 51
83.948015000000069
  0
LINE
  8
0
  6
CONTINUOUS
 62
256
 10
-416.478952999999990
 20
-82.284559999999999
 11
-421.055019000000020
 21
-77.708494999999999
  0
ARC
  8
0
  6
CONTINUOUS
 62
256
 10
-460.830371000000010
 20
-361.068718999999990
 40
289.396999999999990
 50
83.948014999999998
 51
90.000000000000000
  0
ARC
  8
0
  6
CONTINUOUS
 62
256
 10
-701.430371000000040
 20
-125.468718999999990
 40
289.396999999999990
 50
352.102011000000000
 51
360.000000000000000
  0
ARC
  8
0
  6
CONTINUOUS
 62
256
 10
-420.721593999999980
 20
-164.410237000000000
 40
5.999999999999989
 50
314.999999999999770
 51
352.102010999999950
  0
LINE
  8
0
  6
CONTINUOUS
 62
256
 10
-416.478952999999990
 20
-168.652877999999990
 11
-421.055019000000020
 21
-173.228942999999990
  0
ARC
  8
0
  6
CONTINUOUS
 62
256
 10
-431.942342000000000
 20
-162.341620000000010
 40
15.397000000000000
 50
276.051984999999890
 51
314.999999999999940
  0
ARC
  8
0
  6
CONTINUOUS
 62
256
 10
-460.830371000000010
 20
110.131281000000000
 40
289.396999999999990
 50
270.000000000000000
 51
276.051985000000000
  0
ARC
  8
0
  6
CONTINUOUS
 62
256
 10
-220.230370999999990
 20
-125.468718999999990
 40
289.396999999999990
 50
180.000000000000000
 51
187.897989000000000
  0
ARC
  8
0
  6
CONTINUOUS
 62
256
 10
-500.939148999999990
 20
-164.410237000000000
 40
5.999999999999990
 50
187.897989000000000
 51
225.000000000000170
  0
LINE
  8
0
  6
CONTINUOUS
 62
256
 10
-505.181789999999980
 20
-168.652877999999990
 11
-500.605724000000010
 21
-173.228942999999990
  0
ARC
  8
0
  6
CONTINUOUS
 62
256
 10
-489.718400999999970
 20
-162.341620000000010
 40
15.397000000000016
 50
224.999999999999910
 51
263.948015000000110
  0
ARC
  8
0
  6
CONTINUOUS
 62
256
 10
-460.830371000000010
 20
110.131281000000000
 40
289.397000000000050
 50
263.948015000000000
 51
270.000000000000000
  0
ARC
  8
0
  6
CONTINUOUS
 62
256
 10
-220.230370999999990
 20
-125.468718999999990
 40
289.396999999999990
 50
172.102011000000030
 51
180.000000000000000
  0
ARC
  8
0
  6
CONTINUOUS
 62
256
 10
-500.939148999999990
 20
-86.527201000000005
 40
5.999999999999989
 50
134.999999999999830
 51
172.102011000000000
  0
LINE
  8
0
  6
CONTINUOUS
 62
256
 10
-505.181789999999980
 20
-82.284559999999999
 11
-500.605724000000010
 21
-77.708494999999999
  0
ARC
  8
0
  6
CONTINUOUS
 62
256
 10
-489.718400999999970
 20
-88.595817999999994
 40
15.397000000000000
 50
96.051984999999931
 51
135.000000000000090
  0
ARC
  8
0
  6
CONTINUOUS
 62
256
 10
-460.830371000000010
 20
-361.068718999999990
 40
289.396999999999990
 50
90.000000000000000
 51
96.051985000000002
  0
LINE
  8
0
  6
CONTINUOUS
 62
256
 10
-430.837872000000000
 20
-188.968718999999990
 11
-424.830371000000010
 21
-188.968718999999990
  0
LINE
  8
0
  6
CONTINUOUS
 62
256
 10
-490.822870000000020
 20
-188.968718999999990
 11
-496.830371000000010
 21
-188.968718999999990
  0
ARC
  8
0
  6
CONTINUOUS
 62
256
 10
-429.830371000000010
 20
-216.335384000000000
 40
5.000000000000002
 50
276.032049000000030
 51
0.000000000000000
  0
LINE
  8
0
  6
CONTINUOUS
 62
256
 10
-424.830371000000010
 20
-187.775022000000010
 11
-424.830371000000010
 21
-216.335384000000000
  0
LINE
  8
0
  6
CONTINUOUS
 62
256
 10
-496.830371000000010
 20
-187.775022000000010
 11
-496.830371000000010
 21
-216.335384000000000
  0
ARC
  8
0
  6
CONTINUOUS
 62
256
 10
-491.830371000000010
 20
-216.335384000000000
 40
5.000000000000000
 50
180.000000000000000
 51
263.967950999999970
  0
LINE
  8
0
  6
CONTINUOUS
 62
256
 10
-463.330371000000010
 20
-223.468718999999990
 11
-458.330371000000010
 21
-223.468718999999990
  0
LINE
  8
0
  6
CONTINUOUS
 62
256
 10
-458.330371000000010
 20
-222.968717000000000
 11
-458.330371000000010
 21
-223.468718999999990
  0
LINE
  8
0
  6
CONTINUOUS
 62
256
 10
-463.330371000000010
 20
-222.958302000000000
 11
-463.330371000000010
 21
-223.468718999999990
  0
ARC
  8
0
  6
CONTINUOUS
 62
256
 10
-460.830371000000010
 20
77.031281000000007
 40
300.000000000000000
 50
263.967951000000030
 51
276.032048999999970
  0
LINE
  8
0
  6
DASHDOT
 62
256
 10
-526.835654999999970
 20
-125.468718999999990
 11
-396.001144000000010
 21
-125.468718999999990
  0
LINE
  8
0
  6
DASHDOT
 62
256
 10
-460.830371000000010
 20
-53.586464999999997
 11
-460.830371000000010
 21
-231.067849999999990
  0
LINE
  8
0
  6
CONTINUOUS
 62
256
 10
-504.330371000000010
 20
-66.368575000000007
 11
-504.330371000000010
 21
-58.812759000000000
  0
LINE
  8
0
  6
CONTINUOUS
 62
256
 10
-428.330371000000010
 20
-57.468719000000000
 11
-504.330371000000010
 21
-58.812759000000000
  0
LINE
  8
0
  6
CONTINUOUS
 62
256
 10
-508.330371000000010
 20
-69.591751000000002
 11
-508.330371000000010
 21
-68.368718999999999
  0
LINE
  8
0
  6
CONTINUOUS
 62
256
 10
-508.330371000000010
 20
-68.368718999999999
 11
-507.930370999999980
 21
-67.968718999999993
  0
LINE
  8
0
  6
CONTINUOUS
 62
256
 10
-507.930370999999980
 20
-67.968718999999993
 11
-506.513720999999980
 21
-67.968718999999993
  0
LINE
  8
0
  6
CONTINUOUS
 62
256
 10
-428.330371000000010
 20
-62.242190999999998
 11
-428.330371000000010
 21
-57.468719000000000
  0
LINE
  8
0
  6
CONTINUOUS
 62
256
 10
-428.330371000000010
 20
-57.468719000000000
 11
-417.830219000000000
 21
-57.652000000000001
  0
LINE
  8
0
  6
CONTINUOUS
 62
256
 10
-417.330371000000010
 20
-58.160648000000002
 11
-417.330371000000010
 21
-66.368575000000007
  0
LINE
  8
0
  6
CONTINUOUS
 62
256
 10
-417.830219000000000
 20
-57.652000000000001
 11
-417.330371000000010
 21
-58.160648000000002
  0
LINE
  8
0
  6
CONTINUOUS
 62
256
 10
-413.330371000000010
 20
-69.589707000000004
 11
-413.330371000000010
 21
-68.368718999999999
  0
LINE
  8
0
  6
CONTINUOUS
 62
256
 10
-413.330371000000010
 20
-68.368718999999999
 11
-413.730370999999990
 21
-67.968718999999993
  0
LINE
  8
0
  6
CONTINUOUS
 62
256
 10
-413.730370999999990
 20
-67.968718999999993
 11
-415.147021000000000
 21
-67.968718999999993
  0
LINE
  8
0
  6
CONTINUOUS
 62
256
 10
-234.500051000000010
 20
70.686677000000003
 11
-137.500051000000010
 21
70.686677000000003
  0
LINE
  8
0
  6
CONTINUOUS
 62
256
 10
-234.500051000000010
 20
77.607415000000003
 11
-137.500051000000010
 21
77.607415000000003
  0
LINE
  8
0
  6
CONTINUOUS
 62
256
 10
-234.500051000000010
 20
72.155034000000001
 11
-137.500051000000010
 21
72.155034000000001
  0
LINE
  8
0
  6
CONTINUOUS
 62
256
 10
-234.500051000000010
 20
82.437467999999996
 11
-137.500051000000010
 21
82.437467999999996
  0
LINE
  8
0
  6
CONTINUOUS
 62
256
 10
-234.500051000000010
 20
76.245534000000006
 11
-137.500051000000010
 21
76.245534000000006
  0
LINE
  8
0
  6
CONTINUOUS
 62
256
 10
-234.500051000000010
 20
66.722931000000003
 11
-137.500051000000010
 21
66.722931000000003
  0
LINE
  8
0
  6
CONTINUOUS
 62
256
 10
-234.500051000000010
 20
132.719902999999990
 11
-137.500051000000010
 21
132.719902999999990
  0
LINE
  8
0
  6
CONTINUOUS
 62
256
 10
-234.500051000000010
 20
127.267522000000000
 11
-137.500051000000010
 21
127.267522000000000
  0
LINE
  8
0
  6
CONTINUOUS
 62
256
 10
-234.500051000000010
 20
128.629402000000000
 11
-137.500051000000010
 21
128.629402000000000
  0
LINE
  8
0
  6
CONTINUOUS
 62
256
 10
-234.500051000000010
 20
122.437468000000000
 11
-137.500051000000010
 21
122.437468000000000
  0
LINE
  8
0
  6
CONTINUOUS
 62
256
 10
-234.500051000000010
 20
134.188260000000010
 11
-137.500051000000010
 21
134.188260000000010
  0
LINE
  8
0
  6
CONTINUOUS
 62
256
 10
-234.500051000000010
 20
138.152005000000000
 11
-137.500051000000010
 21
138.152005000000000
  0
LINE
  8
0
  6
CONTINUOUS
 62
256
 10
-234.500051000000010
 20
65.118283000000005
 11
-137.500051000000010
 21
65.118283000000005
  0
LINE
  8
0
  6
CONTINUOUS
 62
256
 10
-234.500051000000010
 20
139.756653000000000
 11
-137.500051000000010
 21
139.756653000000000
  0
LINE
  8
0
  6
CONTINUOUS
 62
256
 10
-234.500051000000010
 20
102.437468000000000
 11
-234.500051000000010
 21
42.437468000000003
  0
LINE
  8
0
  6
CONTINUOUS
 62
256
 10
-234.500051000000010
 20
102.437468000000000
 11
-234.500051000000010
 21
162.437468000000000
  0
LINE
  8
0
  6
CONTINUOUS
 62
256
 10
-137.500051000000010
 20
43.937468000000003
 11
-137.500051000000010
 21
102.437468000000000
  0
LINE
  8
0
  6
CONTINUOUS
 62
256
 10
-137.500051000000010
 20
43.937468000000003
 11
-234.500051000000010
 21
43.937468000000003
  0
LINE
  8
0
  6
CONTINUOUS
 62
256
 10
-245.500051000000010
 20
156.177583000000000
 11
-247.500051000000010
 21
154.524942000000010
  0
LINE
  8
0
  6
CONTINUOUS
 62
256
 10
-243.500051000000010
 20
157.353368999999990
 11
-245.500051000000010
 21
156.177583000000000
  0
LINE
  8
0
  6
CONTINUOUS
 62
256
 10
-245.500051000000010
 20
156.177583000000000
 11
-243.500051000000010
 21
154.524942000000010
  0
LINE
  8
0
  6
CONTINUOUS
 62
256
 10
-247.500051000000010
 20
157.353368999999990
 11
-245.500051000000010
 21
156.177583000000000
  0
POLYLINE
  8
0
  6
CONTINUOUS
 62
256
 66
1
 70
1
  0
VERTEX
  8
0
  6
CONTINUOUS
 62
256
 10
-240.800051000000020
 20
154.360993000000010
  0
VERTEX
  8
0
  6
CONTINUOUS
 62
256
 10
-240.890360182104840
 20
155.063949510558190
  0
VERTEX
  8
0
  6
CONTINUOUS
 62
256
 10
-241.157817197196980
 20
155.739891796638150
  0
VERTEX
  8
0
  6
CONTINUOUS
 62
256
 10
-241.592143822178060
 20
156.362843775258680
  0
VERTEX
  8
0
  6
CONTINUOUS
 62
256
 10
-242.176649128423240
 20
156.908865751236850
  0
VERTEX
  8
0
  6
CONTINUOUS
 62
256
 10
-242.888870904807900
 20
157.356974406248500
  0
VERTEX
  8
0
  6
CONTINUOUS
 62
256
 10
-243.701438867884090
 20
157.689949175983740
  0
VERTEX
  8
0
  6
CONTINUOUS
 62
256
 10
-244.583126486524210
 20
157.894994026776090
  0
VERTEX
  8
0
  6
CONTINUOUS
 62
256
 10
-245.500051000000010
 20
157.964229200000010
  0
VERTEX
  8
0
  6
CONTINUOUS
 62
256
 10
-246.416975513475820
 20
157.894994026776090
  0
VERTEX
  8
0
  6
CONTINUOUS
 62
256
 10
-247.298663132115930
 20
157.689949175983740
  0
VERTEX
  8
0
  6
CONTINUOUS
 62
256
 10
-248.111231095192120
 20
157.356974406248500
  0
VERTEX
  8
0
  6
CONTINUOUS
 62
256
 10
-248.823452871576790
 20
156.908865751236850
  0
VERTEX
  8
0
  6
CONTINUOUS
 62
256
 10
-249.407958177821970
 20
156.362843775258680
  0
VERTEX
  8
0
  6
CONTINUOUS
 62
256
 10
-249.842284802803050
 20
155.739891796638150
  0
VERTEX
  8
0
  6
CONTINUOUS
 62
256
 10
-250.109741817895180
 20
155.063949510558190
  0
VERTEX
  8
0
  6
CONTINUOUS
 62
256
 10
-250.200051000000000
 20
154.360993000000010
  0
VERTEX
  8
0
  6
CONTINUOUS
 62
256
 10
-250.109741817895180
 20
153.658036489441830
  0
VERTEX
  8
0
  6
CONTINUOUS
 62
256
 10
-249.842284802803050
 20
152.982094203361870
  0
VERTEX
  8
0
  6
CONTINUOUS
 62
256
 10
-249.407958177821970
 20
152.359142224741330
  0
VERTEX
  8
0
  6
CONTINUOUS
 62
256
 10
-248.823452871576790
 20
151.813120248763170
  0
VERTEX
  8
0
  6
CONTINUOUS
 62
256
 10
-248.111231095192120
 20
151.365011593751520
  0
VERTEX
  8
0
  6
CONTINUOUS
 62
256
 10
-247.298663132115930
 20
151.032036824016270
  0
VERTEX
  8
0
  6
CONTINUOUS
 62
256
 10
-246.416975513475820
 20
150.826991973223950
  0
VERTEX
  8
0
  6
CONTINUOUS
 62
256
 10
-245.500051000000010
 20
150.757756800000010
  0
VERTEX
  8
0
  6
CONTINUOUS
 62
256
 10
-244.583126486524210
 20
150.826991973223950
  0
VERTEX
  8
0
  6
CONTINUOUS
 62
256
 10
-243.701438867884090
 20
151.032036824016270
  0
VERTEX
  8
0
  6
CONTINUOUS
 62
256
 10
-242.888870904807900
 20
151.365011593751520
  0
VERTEX
  8
0
  6
CONTINUOUS
 62
256
 10
-242.176649128423260
 20
151.813120248763170
  0
VERTEX
  8
0
  6
CONTINUOUS
 62
256
 10
-241.592143822178060
 20
152.359142224741330
  0
VERTEX
  8
0
  6
CONTINUOUS
 62
256
 10
-241.157817197196980
 20
152.982094203361870
  0
VERTEX
  8
0
  6
CONTINUOUS
 62
256
 10
-240.890360182104840
 20
153.658036489441830
  0
SEQEND
  8
0
  6
CONTINUOUS
 62
256
  0
LINE
  8
0
  6
CONTINUOUS
 62
256
 10
-234.500051000000010
 20
47.437468000000003
 11
-137.500051000000010
 21
47.437468000000003
  0
LINE
  8
0
  6
CONTINUOUS
 62
256
 10
-234.500051000000010
 20
46.437468000000003
 11
-137.500051000000010
 21
46.437468000000003
  0
LINE
  8
0
  6
CONTINUOUS
 62
256
 10
-234.500051000000010
 20
45.437468000000003
 11
-137.500051000000010
 21
45.437468000000003
  0
LINE
  8
0
  6
CONTINUOUS
 62
256
 10
-234.500051000000010
 20
44.937468000000003
 11
-137.500051000000010
 21
44.937468000000003
  0
ARC
  8
0
  6
CONTINUOUS
 62
256
 10
-334.900051000000020
 20
149.880673000000000
 40
2.599999999999996
 50
125.000000000000210
 51
180.000000000000000
  0
LINE
  8
0
  6
CONTINUOUS
 62
256
 10
-326.665603999999970
 20
158.820508999999990
 11
-336.391349999999990
 21
152.010469000000000
  0
ARC
  8
0
  6
CONTINUOUS
 62
256
 10
-315.194075000000000
 20
142.437468000000000
 40
20.000000000000000
 50
90.000000000000000
 51
125.000000000000060
  0
LINE
  8
0
  6
CONTINUOUS
 62
256
 10
-337.500050999999980
 20
102.437468000000000
 11
-337.500050999999980
 21
149.880673000000000
  0
LINE
  8
0
  6
CONTINUOUS
 62
256
 10
-234.500051000000010
 20
162.437468000000000
 11
-315.194075000000000
 21
162.437468000000000
  0
LINE
  8
0
  6
CONTINUOUS
 62
256
 10
-137.500051000000010
 20
160.937468000000000
 11
-137.500051000000010
 21
102.437468000000000
  0
LINE
  8
0
  6
CONTINUOUS
 62
256
 10
-137.500051000000010
 20
160.937468000000000
 11
-234.500051000000010
 21
160.937468000000000
  0
LINE
  8
0
  6
CONTINUOUS
 62
256
 10
-234.500051000000010
 20
147.803255000000010
 11
-137.500051000000010
 21
147.803255000000010
  0
LINE
  8
0
  6
CONTINUOUS
 62
256
 10
-234.500051000000010
 20
152.753002000000010
 11
-137.500051000000010
 21
152.753002000000010
  0
LINE
  8
0
  6
CONTINUOUS
 62
256
 10
-234.500051000000010
 20
157.437468000000000
 11
-137.500051000000010
 21
157.437468000000000
  0
LINE
  8
0
  6
CONTINUOUS
 62
256
 10
-234.500051000000010
 20
158.437468000000000
 11
-137.500051000000010
 21
158.437468000000000
  0
LINE
  8
0
  6
CONTINUOUS
 62
256
 10
-234.500051000000010
 20
159.937468000000000
 11
-137.500051000000010
 21
159.937468000000000
  0
LINE
  8
0
  6
CONTINUOUS
 62
256
 10
-234.500051000000010
 20
159.437468000000000
 11
-137.500051000000010
 21
159.437468000000000
  0
LINE
  8
0
  6
CONTINUOUS
 62
256
 10
-234.500051000000010
 20
57.071682000000003
 11
-137.500051000000010
 21
57.071682000000003
  0
LINE
  8
0
  6
CONTINUOUS
 62
256
 10
-234.500051000000010
 20
52.121934000000003
 11
-137.500051000000010
 21
52.121934000000003
  0
ARC
  8
0
  6
CONTINUOUS
 62
256
 10
-334.900051000000020
 20
54.994262999999997
 40
2.600000000000023
 50
180.000000000000000
 51
234.999999999999890
  0
LINE
  8
0
  6
CONTINUOUS
 62
256
 10
-326.665603999999970
 20
46.054426999999997
 11
-336.391349999999990
 21
52.864468000000002
  0
ARC
  8
0
  6
CONTINUOUS
 62
256
 10
-315.194075000000000
 20
62.437468000000003
 40
20.000000000000004
 50
234.999999999999940
 51
270.000000000000000
  0
LINE
  8
0
  6
CONTINUOUS
 62
256
 10
-337.500050999999980
 20
102.437468000000000
 11
-337.500050999999980
 21
54.994262999999997
  0
LINE
  8
0
  6
CONTINUOUS
 62
256
 10
-234.500051000000010
 20
42.437468000000003
 11
-315.194075000000000
 21
42.437468000000003
  0
LINE
  8
0
  6
CONTINUOUS
 62
256
 10
-245.500051000000010
 20
48.697353000000000
 11
-247.500051000000010
 21
50.349995000000000
  0
LINE
  8
0
  6
CONTINUOUS
 62
256
 10
-243.500051000000010
 20
47.521568000000002
 11
-245.500051000000010
 21
48.697353000000000
  0
LINE
  8
0
  6
CONTINUOUS
 62
256
 10
-245.500051000000010
 20
48.697353000000000
 11
-243.500051000000010
 21
50.349995000000000
  0
LINE
  8
0
  6
CONTINUOUS
 62
256
 10
-247.500051000000010
 20
47.521568000000002
 11
-245.500051000000010
 21
48.697353000000000
  0
POLYLINE
  8
0
  6
CONTINUOUS
 62
256
 66
1
 70
1
  0
VERTEX
  8
0
  6
CONTINUOUS
 62
256
 10
-240.800051000000020
 20
50.513942999999998
  0
VERTEX
  8
0
  6
CONTINUOUS
 62
256
 10
-240.890360182104840
 20
51.216899510558164
  0
VERTEX
  8
0
  6
CONTINUOUS
 62
256
 10
-241.157817197196980
 20
51.892841796638137
  0
VERTEX
  8
0
  6
CONTINUOUS
 62
256
 10
-241.592143822178060
 20
52.515793775258658
  0
VERTEX
  8
0
  6
CONTINUOUS
 62
256
 10
-242.176649128423240
 20
53.061815751236836
  0
VERTEX
  8
0
  6
CONTINUOUS
 62
256
 10
-242.888870904807900
 20
53.509924406248487
  0
VERTEX
  8
0
  6
CONTINUOUS
 62
256
 10
-243.701438867884090
 20
53.842899175983732
  0
VERTEX
  8
0
  6
CONTINUOUS
 62
256
 10
-244.583126486524210
 20
54.047944026776058
  0
VERTEX
  8
0
  6
CONTINUOUS
 62
256
 10
-245.500051000000010
 20
54.117179199999988
  0
VERTEX
  8
0
  6
CONTINUOUS
 62
256
 10
-246.416975513475820
 20
54.047944026776058
  0
VERTEX
  8
0
  6
CONTINUOUS
 62
256
 10
-247.298663132115930
 20
53.842899175983732
  0
VERTEX
  8
0
  6
CONTINUOUS
 62
256
 10
-248.111231095192120
 20
53.509924406248487
  0
VERTEX
  8
0
  6
CONTINUOUS
 62
256
 10
-248.823452871576790
 20
53.061815751236836
  0
VERTEX
  8
0
  6
CONTINUOUS
 62
256
 10
-249.407958177821970
 20
52.515793775258658
  0
VERTEX
  8
0
  6
CONTINUOUS
 62
256
 10
-249.842284802803050
 20
51.892841796638137
  0
VERTEX
  8
0
  6
CONTINUOUS
 62
256
 10
-250.109741817895180
 20
51.216899510558164
  0
VERTEX
  8
0
  6
CONTINUOUS
 62
256
 10
-250.200051000000000
 20
50.513942999999998
  0
VERTEX
  8
0
  6
CONTINUOUS
 62
256
 10
-250.109741817895180
 20
49.810986489441831
  0
VERTEX
  8
0
  6
CONTINUOUS
 62
256
 10
-249.842284802803050
 20
49.135044203361858
  0
VERTEX
  8
0
  6
CONTINUOUS
 62
256
 10
-249.407958177821970
 20
48.512092224741338
  0
VERTEX
  8
0
  6
CONTINUOUS
 62
256
 10
-248.823452871576790
 20
47.966070248763160
  0
VERTEX
  8
0
  6
CONTINUOUS
 62
256
 10
-248.111231095192120
 20
47.517961593751508
  0
VERTEX
  8
0
  6
CONTINUOUS
 62
256
 10
-247.298663132115930
 20
47.184986824016264
  0
VERTEX
  8
0
  6
CONTINUOUS
 62
256
 10
-246.416975513475820
 20
46.979941973223937
  0
VERTEX
  8
0
  6
CONTINUOUS
 62
256
 10
-245.500051000000010
 20
46.910706800000007
  0
VERTEX
  8
0
  6
CONTINUOUS
 62
256
 10
-244.583126486524210
 20
46.979941973223937
  0
VERTEX
  8
0
  6
CONTINUOUS
 62
256
 10
-243.701438867884090
 20
47.184986824016264
  0
VERTEX
  8
0
  6
CONTINUOUS
 62
256
 10
-242.888870904807900
 20
47.517961593751508
  0
VERTEX
  8
0
  6
CONTINUOUS
 62
256
 10
-242.176649128423260
 20
47.966070248763160
  0
VERTEX
  8
0
  6
CONTINUOUS
 62
256
 10
-241.592143822178060
 20
48.512092224741338
  0
VERTEX
  8
0
  6
CONTINUOUS
 62
256
 10
-241.157817197196980
 20
49.135044203361858
  0
VERTEX
  8
0
  6
CONTINUOUS
 62
256
 10
-240.890360182104840
 20
49.810986489441831
  0
SEQEND
  8
0
  6
CONTINUOUS
 62
256
  0
LINE
  8
0
  6
CONTINUOUS
 62
256
 10
-33.500050999999999
 20
149.937468000000000
 11
-33.500050999999999
 21
152.937468000000000
  0
LINE
  8
0
  6
CONTINUOUS
 62
256
 10
4.499949000000000
 20
149.937468000000000
 11
4.499949000000000
 21
152.937468000000000
  0
ARC
  8
0
  6
CONTINUOUS
 62
256
 10
3.499949000000000
 20
51.937468000000003
 40
1.000000000000000
 50
270.000000000000000
 51
0.000000000000000
  0
ARC
  8
0
  6
CONTINUOUS
 62
256
 10
-32.500050999999999
 20
51.937468000000003
 40
1.000000000000000
 50
180.000000000000000
 51
270.000000000000000
  0
ARC
  8
0
  6
CONTINUOUS
 62
256
 10
3.499949000000000
 20
152.937468000000000
 40
1.000000000000000
 50
0.000000000000000
 51
90.000000000000000
  0
ARC
  8
0
  6
CONTINUOUS
 62
256
 10
-32.500050999999999
 20
152.937468000000000
 40
1.000000000000000
 50
90.000000000000000
 51
180.000000000000000
  0
LINE
  8
0
  6
CONTINUOUS
 62
256
 10
-33.500050999999999
 20
51.937468000000003
 11
-33.500050999999999
 21
54.937468000000003
  0
LINE
  8
0
  6
CONTINUOUS
 62
256
 10
4.499949000000000
 20
51.937468000000003
 11
4.499949000000000
 21
54.937468000000003
  0
LINE
  8
0
  6
CONTINUOUS
 62
256
 10
-32.500050999999999
 20
50.937468000000003
 11
3.499949000000000
 21
50.937468000000003
  0
LINE
  8
0
  6
CONTINUOUS
 62
256
 10
-32.500050999999999
 20
153.937468000000000
 11
3.499949000000000
 21
153.937468000000000
  0
ARC
  8
0
  6
CONTINUOUS
 62
256
 10
-14.500050999999999
 20
65.937467999999996
 40
1.000000000000000
 50
0.000000000000000
 51
180.000000000000000
  0
LINE
  8
0
  6
CONTINUOUS
 62
256
 10
-15.500050999999999
 20
65.937467999999996
 11
-15.500050999999999
 21
58.937468000000003
  0
LINE
  8
0
  6
CONTINUOUS
 62
256
 10
-13.500050999999999
 20
65.937467999999996
 11
-13.500050999999999
 21
58.937468000000003
  0
LINE
  8
0
  6
CONTINUOUS
 62
256
 10
-52.000050999999999
 20
55.337468000000001
 11
-52.000050999999999
 21
58.937468000000003
  0
LINE
  8
0
  6
CONTINUOUS
 62
256
 10
-108.808122000000000
 20
58.937468000000003
 11
-14.500050999999999
 21
58.937468000000003
  0
LINE
  8
0
  6
CONTINUOUS
 62
256
 10
-51.600051000000001
 20
54.937468000000003
 11
-52.000050999999999
 21
55.337468000000001
  0
LINE
  8
0
  6
CONTINUOUS
 62
256
 10
33.499949000000001
 20
69.937467999999996
 11
-14.500050999999999
 21
69.937467999999996
  0
LINE
  8
0
  6
CONTINUOUS
 62
256
 10
22.999949000000001
 20
55.337468000000001
 11
22.999949000000001
 21
58.937468000000003
  0
LINE
  8
0
  6
CONTINUOUS
 62
256
 10
32.808019000000002
 20
58.937468000000003
 11
-14.500050999999999
 21
58.937468000000003
  0
LINE
  8
0
  6
CONTINUOUS
 62
256
 10
22.599948999999999
 20
54.937468000000003
 11
22.999949000000001
 21
55.337468000000001
  0
LINE
  8
0
  6
CONTINUOUS
 62
256
 10
-51.600051000000001
 20
54.937468000000003
 11
22.599948999999999
 21
54.937468000000003
  0
LINE
  8
0
  6
CONTINUOUS
 62
256
 10
-109.500051000000000
 20
69.937467999999996
 11
-14.500050999999999
 21
69.937467999999996
  0
ARC
  8
0
  6
CONTINUOUS
 62
256
 10
-14.500050999999999
 20
73.937467999999996
 40
1.000000000000000
 50
180.000000000000000
 51
0.000000000000000
  0
LINE
  8
0
  6
CONTINUOUS
 62
256
 10
-13.500050999999999
 20
73.937467999999996
 11
-13.500050999999999
 21
145.937468000000000
  0
LINE
  8
0
  6
CONTINUOUS
 62
256
 10
-15.500050999999999
 20
73.937467999999996
 11
-15.500050999999999
 21
145.937468000000000
  0
ARC
  8
0
  6
CONTINUOUS
 62
256
 10
-116.500051000000000
 20
69.937467999999996
 40
2.000000000000000
 50
90.000000000000000
 51
180.000000000000000
  0
ARC
  8
0
  6
CONTINUOUS
 62
256
 10
-116.500051000000000
 20
143.937468000000000
 40
2.000000000000000
 50
180.000000000000000
 51
270.000000000000000
  0
LINE
  8
0
  6
CONTINUOUS
 62
256
 10
-137.500051000000010
 20
42.937468000000003
 11
-137.500051000000010
 21
161.937468000000000
  0
ARC
  8
0
  6
CONTINUOUS
 62
256
 10
-134.500051000000010
 20
45.867382999999997
 40
2.999999999999999
 50
268.645720000000150
 51
0.000000000000000
  0
ARC
  8
0
  6
CONTINUOUS
 62
256
 10
-134.500051000000010
 20
158.937468000000000
 40
3.000000000000000
 50
0.000000000000000
 51
90.000000000000000
  0
LINE
  8
0
  6
CONTINUOUS
 62
256
 10
-131.500051000000010
 20
122.437468000000000
 11
-137.500051000000010
 21
122.437468000000000
  0
LINE
  8
0
  6
CONTINUOUS
 62
256
 10
-131.500051000000010
 20
82.437467999999996
 11
-137.500051000000010
 21
82.437467999999996
  0
LINE
  8
0
  6
CONTINUOUS
 62
256
 10
-14.500050999999999
 20
149.937468000000000
 11
22.599948999999999
 21
149.937468000000000
  0
LINE
  8
0
  6
CONTINUOUS
 62
256
 10
31.673439999999999
 20
145.937468000000000
 11
-14.500050999999999
 21
145.937468000000000
  0
LINE
  8
0
  6
CONTINUOUS
 62
256
 10
-107.664542000000000
 20
145.937468000000000
 11
-14.500050999999999
 21
145.937468000000000
  0
LINE
  8
0
  6
CONTINUOUS
 62
256
 10
22.999949000000001
 20
145.937468000000000
 11
22.999949000000001
 21
149.537467999999990
  0
LINE
  8
0
  6
CONTINUOUS
 62
256
 10
22.999949000000001
 20
149.537467999999990
 11
22.599948999999999
 21
149.937468000000000
  0
LINE
  8
0
  6
CONTINUOUS
 62
256
 10
-52.000050999999999
 20
149.537467999999990
 11
-51.600051000000001
 21
149.937468000000000
  0
LINE
  8
0
  6
CONTINUOUS
 62
256
 10
-52.000050999999999
 20
145.937468000000000
 11
-52.000050999999999
 21
149.537467999999990
  0
LINE
  8
0
  6
CONTINUOUS
 62
256
 10
-14.500050999999999
 20
149.937468000000000
 11
-51.600051000000001
 21
149.937468000000000
  0
LINE
  8
0
  6
CONTINUOUS
 62
256
 10
-109.499779000000000
 20
69.937467999999996
 11
33.499949000000001
 21
69.937467999999996
  0
LINE
  8
0
  6
CONTINUOUS
 62
256
 10
-108.808122000000000
 20
58.937468000000003
 11
-109.316770000000010
 21
59.437316000000003
  0
LINE
  8
0
  6
CONTINUOUS
 62
256
 10
33.316668000000000
 20
59.437316000000003
 11
32.808019000000002
 21
58.937468000000003
  0
LINE
  8
0
  6
CONTINUOUS
 62
256
 10
33.499949000000001
 20
69.937467999999996
 11
33.316668000000000
 21
59.437316000000003
  0
LINE
  8
0
  6
CONTINUOUS
 62
256
 10
-109.316770000000010
 20
59.437316000000003
 11
-109.500051000000000
 21
69.937467999999996
  0
ARC
  8
0
  6
CONTINUOUS
 62
256
 10
-121.500051000000000
 20
45.560049999999997
 40
3.000000000000000
 50
268.645719999999930
 51
0.000000000000000
  0
ARC
  8
0
  6
CONTINUOUS
 62
256
 10
-121.500051000000000
 20
158.937468000000000
 40
3.000000000000000
 50
0.000000000000000
 51
90.000000000000000
  0
LINE
  8
0
  6
CONTINUOUS
 62
256
 10
-137.500051000000010
 20
42.937468000000003
 11
-121.570955000000000
 21
42.560887999999998
  0
LINE
  8
0
  6
CONTINUOUS
 62
256
 10
-121.500051000000000
 20
161.937468000000000
 11
-137.500051000000010
 21
161.937468000000000
  0
LINE
  8
0
  6
CONTINUOUS
 62
256
 10
-118.500051000000000
 20
45.560049999999997
 11
-118.500051000000000
 21
158.937468000000000
  0
ARC
  8
0
  6
CONTINUOUS
 62
256
 10
-121.500051000000000
 20
66.436200999999997
 40
3.000000000000000
 50
270.000000000000000
 51
0.000000000000000
  0
ARC
  8
0
  6
CONTINUOUS
 62
256
 10
-123.500051000000000
 20
55.341161000000000
 40
5.000000000000000
 50
270.000000000000000
 51
0.000000000000000
  0
ARC
  8
0
  6
CONTINUOUS
 62
256
 10
-123.500051000000000
 20
62.252737000000003
 40
5.000000000000000
 50
270.000000000000000
 51
0.000000000000000
  0
LINE
  8
0
  6
CONTINUOUS
 62
256
 10
-128.500051000000010
 20
50.341161000000000
 11
-123.500051000000000
 21
50.341161000000000
  0
LINE
  8
0
  6
CONTINUOUS
 62
256
 10
-128.500051000000010
 20
57.252737000000003
 11
-123.500051000000000
 21
57.252737000000003
  0
LINE
  8
0
  6
CONTINUOUS
 62
256
 10
-128.500051000000010
 20
63.436200999999997
 11
-121.500051000000000
 21
63.436200999999997
  0
LINE
  8
0
  6
CONTINUOUS
 62
256
 10
-131.500051000000010
 20
60.252737000000003
 11
-131.500051000000010
 21
102.437468000000000
  0
ARC
  8
0
  6
CONTINUOUS
 62
256
 10
-128.500051000000010
 20
60.252737000000003
 40
3.000000000000000
 50
180.000000000000000
 51
270.000000000000000
  0
ARC
  8
0
  6
CONTINUOUS
 62
256
 10
-128.500051000000010
 20
47.341161000000000
 40
3.000000000000000
 50
90.000000000000000
 51
180.000000000000000
  0
ARC
  8
0
  6
CONTINUOUS
 62
256
 10
-128.500051000000010
 20
66.436200999999997
 40
3.000000000000000
 50
180.000000000000000
 51
270.000000000000000
  0
ARC
  8
0
  6
CONTINUOUS
 62
256
 10
-121.500051000000000
 20
138.438735000000010
 40
3.000000000000000
 50
0.000000000000000
 51
90.000000000000000
  0
ARC
  8
0
  6
CONTINUOUS
 62
256
 10
-123.500051000000000
 20
142.622198999999990
 40
5.000000000000000
 50
0.000000000000000
 51
90.000000000000000
  0
ARC
  8
0
  6
CONTINUOUS
 62
256
 10
-123.500051000000000
 20
149.533775999999990
 40
5.000000000000000
 50
0.000000000000000
 51
90.000000000000000
  0
LINE
  8
0
  6
CONTINUOUS
 62
256
 10
-128.500051000000010
 20
141.438735000000010
 11
-121.500051000000000
 21
141.438735000000010
  0
LINE
  8
0
  6
CONTINUOUS
 62
256
 10
-128.500051000000010
 20
154.533775999999990
 11
-123.500051000000000
 21
154.533775999999990
  0
LINE
  8
0
  6
CONTINUOUS
 62
256
 10
-128.500051000000010
 20
147.622198999999990
 11
-123.500051000000000
 21
147.622198999999990
  0
LINE
  8
0
  6
CONTINUOUS
 62
256
 10
-131.500051000000010
 20
144.622198999999990
 11
-131.500051000000010
 21
102.437468000000000
  0
ARC
  8
0
  6
CONTINUOUS
 62
256
 10
-128.500051000000010
 20
157.533775999999990
 40
3.000000000000000
 50
180.000000000000000
 51
270.000000000000000
  0
ARC
  8
0
  6
CONTINUOUS
 62
256
 10
-128.500051000000010
 20
144.622198999999990
 40
3.000000000000000
 50
90.000000000000000
 51
180.000000000000000
  0
ARC
  8
0
  6
CONTINUOUS
 62
256
 10
-128.500051000000010
 20
138.438735000000010
 40
3.000000000000000
 50
90.000000000000000
 51
180.000000000000000
  0
LINE
  8
0
  6
CONTINUOUS
 62
256
 10
-131.500051000000010
 20
45.867382999999997
 11
-131.500051000000010
 21
47.341161000000000
  0
LINE
  8
0
  6
CONTINUOUS
 62
256
 10
-131.500051000000010
 20
158.937468000000000
 11
-131.500051000000010
 21
157.533775999999990
  0
LINE
  8
0
  6
CONTINUOUS
 62
256
 10
-109.488401000000000
 20
70.089312000000007
 11
-109.491051000000000
 21
69.937467999999996
  0
LINE
  8
0
  6
CONTINUOUS
 62
256
 10
31.673439999999999
 20
145.937468000000000
 11
32.182088999999998
 21
145.437621000000010
  0
LINE
  8
0
  6
CONTINUOUS
 62
256
 10
-108.173191000000000
 20
145.437621000000010
 11
-107.664542000000000
 21
145.937468000000000
  0
ARC
  8
0
  6
CONTINUOUS
 62
256
 10
-110.199681000000000
 20
143.937468000000000
 40
2.000000000000000
 50
270.000000000000000
 51
358.999999999999830
  0
ARC
  8
0
  6
CONTINUOUS
 62
256
 10
-110.199681000000000
 20
143.937468000000000
 40
2.000000000000000
 50
270.000000000000000
 51
358.999999999999830
  0
ARC
  8
0
  6
CONTINUOUS
 62
256
 10
-111.482628000000010
 20
69.937467999999996
 40
2.000000000000004
 50
4.354184000000047
 51
90.000000000000000
  0
LINE
  8
0
  6
DASHDOT
 62
256
 10
-14.500050999999999
 20
46.120258999999997
 11
-14.500050999999999
 21
158.016527000000000
  0
LINE
  8
0
  6
CONTINUOUS
 62
256
 10
-108.220088000000000
 20
142.750925999999990
 11
-109.491051000000000
 21
69.937467999999996
  0
LINE
  8
0
  6
CONTINUOUS
 62
256
 10
-110.199681000000000
 20
141.937468000000000
 11
-116.500051000000000
 21
141.937468000000000
  0
LINE
  8
0
  6
CONTINUOUS
 62
256
 10
-116.500051000000000
 20
71.937467999999996
 11
-111.482628000000010
 21
71.937467999999996
  0
LINE
  8
0
  6
CONTINUOUS
 62
256
 10
-110.199681000000000
 20
141.937468000000000
 11
-113.012978000000000
 21
141.937468000000000
  0
LINE
  8
0
  6
CONTINUOUS
 62
256
 10
33.499949000000001
 20
69.937467999999996
 11
32.182088999999998
 21
145.437621000000010
  0
LINE
  8
0
  6
CONTINUOUS
 62
256
 10
-108.173191000000000
 20
145.437621000000010
 11
-108.199986000000000
 21
143.902562999999990
  0
LINE
  8
0
  6
CONTINUOUS
 62
256
 10
33.430129000000001
 20
72.937467999999996
 11
33.447583999999999
 21
72.937467999999996
  0
LINE
  8
0
  6
DASHDOT
 62
256
 10
-98.757671999999999
 20
102.437468000000000
 11
-151.591531000000000
 21
102.437468000000000
  0
LINE
  8
0
  6
DASHDOT
 62
256
 10
-344.766409000000010
 20
102.437468000000000
 11
38.604323000000001
 21
102.437468000000000
  0
ARC
  8
0
  6
CONTINUOUS
 62
256
 10
397.586335000000020
 20
77.031281000000007
 40
300.000000000000000
 50
263.967951000000030
 51
276.032048999999970
  0
LINE
  8
0
  6
CONTINUOUS
 62
256
 10
395.086335000000020
 20
-222.958302000000000
 11
395.086335000000020
 21
-223.468718999999990
  0
LINE
  8
0
  6
CONTINUOUS
 62
256
 10
395.086335000000020
 20
-223.468718999999990
 11
400.086335000000020
 21
-223.468718999999990
  0
ARC
  8
0
  6
CONTINUOUS
 62
256
 10
366.586335000000020
 20
-216.335384000000000
 40
5.000000000000000
 50
180.000000000000000
 51
263.967950999999970
  0
LINE
  8
0
  6
CONTINUOUS
 62
256
 10
361.586335000000020
 20
-180.486747000000010
 11
361.586335000000020
 21
-216.335384000000000
  0
LINE
  8
0
  6
CONTINUOUS
 62
256
 10
400.086335000000020
 20
-222.968717000000000
 11
400.086335000000020
 21
-223.468718999999990
  0
LINE
  8
0
  6
CONTINUOUS
 62
256
 10
433.586335000000020
 20
-180.486747000000010
 11
433.586335000000020
 21
-216.335384000000000
  0
ARC
  8
0
  6
CONTINUOUS
 62
256
 10
428.586335000000020
 20
-216.335384000000000
 40
5.000000000000002
 50
276.032049000000030
 51
0.000000000000000
  0
LINE
  8
0
  6
CONTINUOUS
 62
256
 10
367.593836000000010
 20
-188.968718999999990
 11
361.586335000000020
 21
-188.968718999999990
  0
LINE
  8
0
  6
CONTINUOUS
 62
256
 10
427.578833999999970
 20
-188.968718999999990
 11
433.586335000000020
 21
-188.968718999999990
  0
ARC
  8
0
  6
CONTINUOUS
 62
256
 10
426.474363999999980
 20
-88.595817999999994
 40
26.599999999999998
 50
50.846289000000027
 51
56.679475000000032
  0
ARC
  8
0
  6
CONTINUOUS
 62
256
 10
368.698305000000000
 20
-88.595817999999994
 40
26.599999999999991
 50
123.320524999999980
 51
129.153710999999990
  0
ARC
  8
0
  6
CONTINUOUS
 62
256
 10
426.474363999999980
 20
-162.341620000000010
 40
26.600000000000016
 50
285.507666000000030
 51
316.868046999999930
  0
LINE
  8
0
  6
CONTINUOUS
 62
256
 10
445.283405000000020
 20
-181.150659999999990
 11
452.599242000000000
 21
-173.834823000000000
  0
ARC
  8
0
  6
CONTINUOUS
 62
256
 10
368.698305000000000
 20
-162.341620000000010
 40
26.599999999999987
 50
223.131953000000010
 51
254.492333999999970
  0
LINE
  8
0
  6
CONTINUOUS
 62
256
 10
342.822815999999990
 20
-174.084211000000010
 11
349.889265000000020
 21
-181.150659999999990
  0
ENDSEC
  0
EOF
