  0
SECTION
  2
HEADER
  9
$TEXTSIZE
 40
2.5
  9
$ACADVER
  1
AC1009
  9
$DIMASZ
 40
3.863703297614046
  9
$DIMEXE
 40
2.000000000000000
  9
$DIMEXO
 40
1.000000000000000
  9
$DIMLFAC
 40
1.000000000000000
  9
$DIMSCALE
 40
1.000000000000000
  9
$DIMTAD
 70
1
  9
$DIMTFAC
 40
0.625000000000000
  9
$DIMTXT
 40
3.200000047683716
  9
$LUPREC
 70
3
  9
$REGENMODE
 70
1
  9
$TEXTSTYLE
  7
STANDARD1
  0
ENDSEC
  0
SECTION
  2
TABLES
  0
TABLE
  2
LTYPE
 70
4
  0
LTYPE
  2
CONTINUOUS
 70
64
  3
Solid line
 72
65
 73
0
 40
0.0
  0
LTYPE
  2
DASHED
 70
64
  3
-- -- -- -- -- -- -- -- -- -- -- -- -- -- --
 72
65
 73
2
 40
0.75
 49
0.5
 49
-0.25
  0
LTYPE
  2
DASHDOT
 70
64
  3
__ . __ . __ . __ . __ . __ . __ . __ . __ . __
 72
65
 73
4
 40
1.0
 49
0.5
 49
-0.25
 49
0.0
 49
-0.25
  0
LTYPE
  2
DIVIDE
 70
64
  3
__ . . __ . . __ . . __ . . __ . . __ . . __
 72
65
 73
6
 40
1.25
 49
0.5
 49
-0.25
 49
0.0
 49
-0.25
 49
0.0
 49
-0.25
  0
ENDTAB
  0
TABLE
  2
LAYER
 70
3
  0
LAYER
  2
0
 70
64
 62
53
  6
CONTINUOUS
  0
LAYER
  2
1
 70
64
 62
102
  6
CONTINUOUS
  0
LAYER
  2
2
 70
64
 62
4
  6
CONTINUOUS
  0
ENDTAB
  0
TABLE
  2
STYLE
 70
4
  0
STYLE
  2
STANDARD1
 70
64
 40
0.0
 41
1.0
 50
0.0
 71
0
 42
3.200000047683716
  3
MONOTXT
  4
BIGFONT
  0
STYLE
  2
STANDARD2
 70
68
 40
0.0
 41
1.0
 50
0.0
 71
0
 42
3.200000047683716
  3
MONOTXT
  4
BIGFONT
  0
STYLE
  2
STANDARD3
 70
64
 40
0.0
 41
1.0
 50
0.0
 71
0
 42
3.200000047683716
  3
MONOTXT
  4

  0
STYLE
  2
STANDARD4
 70
68
 40
0.0
 41
1.0
 50
0.0
 71
0
 42
3.200000047683716
  3
MONOTXT
  4

  0
ENDTAB
  0
TABLE
  2
VIEW
 70
0
  0
ENDTAB
  0
ENDSEC
  0
SECTION
  2
BLOCKS
  0
BLOCK
  8
0
  2
ZU_SYM_1
 70
64
 10
0.000000000000000
 20
0.000000000000000
  0
CIRCLE
  8
0
  6
CONTINUOUS
 62
256
 10
0.000000000000000
 20
0.000000000000000
 40
5.000000000000000
  0
POINT
  8
0
  6
CONTINUOUS
 62
256
 10
0.000000000000000
 20
0.000000000000000
  0
LINE
  8
0
  6
CONTINUOUS
 62
256
 10
-2.499998000000000
 20
-1.443372000000000
 11
-2.499999000000000
 21
1.443378000000000
  0
LINE
  8
0
  6
CONTINUOUS
 62
256
 10
2.499998000000000
 20
1.443372000000000
 11
2.499999000000000
 21
-1.443374000000000
  0
LINE
  8
0
  6
CONTINUOUS
 62
256
 10
0.000005000000000
 20
2.886749000000000
 11
2.499999000000000
 21
1.443372000000000
  0
LINE
  8
0
  6
CONTINUOUS
 62
256
 10
-0.000006000000000
 20
-2.886747000000000
 11
-2.499998000000000
 21
-1.443372000000000
  0
LINE
  8
0
  6
CONTINUOUS
 62
256
 10
0.000005000000000
 20
2.886748000000000
 11
-2.500000000000000
 21
1.443377000000000
  0
LINE
  8
0
  6
CONTINUOUS
 62
256
 10
2.499999000000000
 20
-1.443374000000000
 11
-0.000005000000000
 21
-2.886748000000000
  0
ENDBLK
  8
0
  0
BLOCK
  8
0
  2
ZU_SYM_2
 70
64
 10
0.000000000000000
 20
0.000000000000000
  0
CIRCLE
  8
0
  6
CONTINUOUS
 62
256
 10
0.000000000000000
 20
0.000000000000000
 40
5.000000000000000
  0
POINT
  8
0
  6
CONTINUOUS
 62
256
 10
0.000000000000000
 20
0.000000000000000
  0
LINE
  8
0
  6
CONTINUOUS
 62
256
 10
-2.499998000000000
 20
-1.443372000000000
 11
-2.499999000000000
 21
1.443378000000000
  0
LINE
  8
0
  6
CONTINUOUS
 62
256
 10
2.499998000000000
 20
1.443372000000000
 11
2.499999000000000
 21
-1.443374000000000
  0
LINE
  8
0
  6
CONTINUOUS
 62
256
 10
0.000005000000000
 20
2.886749000000000
 11
2.499999000000000
 21
1.443372000000000
  0
LINE
  8
0
  6
CONTINUOUS
 62
256
 10
-0.000006000000000
 20
-2.886747000000000
 11
-2.499998000000000
 21
-1.443372000000000
  0
LINE
  8
0
  6
CONTINUOUS
 62
256
 10
0.000005000000000
 20
2.886748000000000
 11
-2.500000000000000
 21
1.443377000000000
  0
LINE
  8
0
  6
CONTINUOUS
 62
256
 10
2.499999000000000
 20
-1.443374000000000
 11
-0.000005000000000
 21
-2.886748000000000
  0
ENDBLK
  8
0
  0
BLOCK
  8
0
  2
ZU_SYM_3
 70
64
 10
0.000000000000000
 20
0.000000000000000
  0
CIRCLE
  8
0
  6
CONTINUOUS
 62
256
 10
0.000000000000000
 20
0.000000000000000
 40
5.000000000000000
  0
POINT
  8
0
  6
CONTINUOUS
 62
256
 10
0.000000000000000
 20
0.000000000000000
  0
LINE
  8
0
  6
CONTINUOUS
 62
256
 10
-2.499998000000000
 20
-1.443372000000000
 11
-2.499999000000000
 21
1.443378000000000
  0
LINE
  8
0
  6
CONTINUOUS
 62
256
 10
2.499998000000000
 20
1.443372000000000
 11
2.499999000000000
 21
-1.443374000000000
  0
LINE
  8
0
  6
CONTINUOUS
 62
256
 10
0.000005000000000
 20
2.886749000000000
 11
2.499999000000000
 21
1.443372000000000
  0
LINE
  8
0
  6
CONTINUOUS
 62
256
 10
-0.000006000000000
 20
-2.886747000000000
 11
-2.499998000000000
 21
-1.443372000000000
  0
LINE
  8
0
  6
CONTINUOUS
 62
256
 10
0.000005000000000
 20
2.886748000000000
 11
-2.500000000000000
 21
1.443377000000000
  0
LINE
  8
0
  6
CONTINUOUS
 62
256
 10
2.499999000000000
 20
-1.443374000000000
 11
-0.000005000000000
 21
-2.886748000000000
  0
ENDBLK
  8
0
  0
BLOCK
  8
0
  2
ZU_SYM_4
 70
64
 10
0.000000000000000
 20
0.000000000000000
  0
CIRCLE
  8
0
  6
CONTINUOUS
 62
256
 10
0.000000000000000
 20
0.000000000000000
 40
5.000000000000000
  0
POINT
  8
0
  6
CONTINUOUS
 62
256
 10
0.000000000000000
 20
0.000000000000000
  0
LINE
  8
0
  6
CONTINUOUS
 62
256
 10
-2.499998000000000
 20
-1.443372000000000
 11
-2.499999000000000
 21
1.443378000000000
  0
LINE
  8
0
  6
CONTINUOUS
 62
256
 10
2.499998000000000
 20
1.443372000000000
 11
2.499999000000000
 21
-1.443374000000000
  0
LINE
  8
0
  6
CONTINUOUS
 62
256
 10
0.000005000000000
 20
2.886749000000000
 11
2.499999000000000
 21
1.443372000000000
  0
LINE
  8
0
  6
CONTINUOUS
 62
256
 10
-0.000006000000000
 20
-2.886747000000000
 11
-2.499998000000000
 21
-1.443372000000000
  0
LINE
  8
0
  6
CONTINUOUS
 62
256
 10
0.000005000000000
 20
2.886748000000000
 11
-2.500000000000000
 21
1.443377000000000
  0
LINE
  8
0
  6
CONTINUOUS
 62
256
 10
2.499999000000000
 20
-1.443374000000000
 11
-0.000005000000000
 21
-2.886748000000000
  0
ENDBLK
  8
0
  0
ENDSEC
  0
SECTION
  2
ENTITIES
  0
LINE
  8
0
  6
CONTINUOUS
 62
256
 10
400.262993999999990
 20
-173.139138000000000
 11
400.262993999999990
 21
-73.292030999999994
  0
LINE
  8
0
  6
DASHED
 62
256
 10
387.262993999999990
 20
-62.139138000000003
 11
400.262993999999990
 21
-62.139065000000002
  0
LINE
  8
0
  6
DASHED
 62
256
 10
400.262993999999990
 20
-62.139065000000002
 11
400.262993999999990
 21
-80.139065000000002
  0
LINE
  8
0
  6
DASHED
 62
256
 10
387.262993999999990
 20
-80.139138000000003
 11
400.262993999999990
 21
-80.139065000000002
  0
LINE
  8
0
  6
DASHED
 62
256
 10
400.763034000000000
 20
-76.189166000000000
 11
427.263034000000000
 21
-76.189014000000000
  0
LINE
  8
0
  6
DASHED
 62
256
 10
400.762993999999990
 20
-77.139065000000002
 11
427.262993999999990
 21
-77.138912000000005
  0
LINE
  8
0
  6
DASHED
 62
256
 10
400.762976999999980
 20
-66.088963000000007
 11
427.262976999999980
 21
-66.088809999999995
  0
LINE
  8
0
  6
DASHED
 62
256
 10
400.762993999999990
 20
-65.139065000000002
 11
427.262993999999990
 21
-65.138912000000005
  0
LINE
  8
0
  6
CONTINUOUS
 62
256
 10
383.262993999999990
 20
-74.039137999999994
 11
383.262993999999990
 21
-116.139138000000000
  0
LINE
  8
0
  6
CONTINUOUS
 62
256
 10
387.262993999999990
 20
-59.639138000000003
 11
387.262993999999990
 21
-116.139138000000000
  0
LINE
  8
0
  6
CONTINUOUS
 62
256
 10
383.662994000000030
 20
-73.639138000000003
 11
383.262993999999990
 21
-74.039137999999994
  0
LINE
  8
0
  6
CONTINUOUS
 62
256
 10
383.662994000000030
 20
-73.639138000000003
 11
387.262993999999990
 21
-73.639138000000003
  0
LINE
  8
0
  6
CONTINUOUS
 62
256
 10
400.262993999999990
 20
-73.292030999999994
 11
400.262993999999990
 21
-59.139138000000003
  0
LINE
  8
0
  6
CONTINUOUS
 62
256
 10
400.262993999999990
 20
-59.139138000000003
 11
485.262993999999990
 21
-60.640273999999998
  0
LINE
  8
0
  6
CONTINUOUS
 62
256
 10
400.262993999999990
 20
-59.139138000000003
 11
387.762993999999990
 21
-59.139138000000003
  0
LINE
  8
0
  6
CONTINUOUS
 62
256
 10
387.762993999999990
 20
-59.139138000000003
 11
387.262993999999990
 21
-59.639138000000003
  0
LINE
  8
0
  6
CONTINUOUS
 62
256
 10
400.262993999999990
 20
-59.139138000000003
 11
485.262993999999990
 21
-60.640273999999998
  0
LINE
  8
0
  6
DASHED
 62
256
 10
400.762993999999990
 20
-65.139065000000002
 11
427.262993999999990
 21
-65.138912000000005
  0
LINE
  8
0
  6
DASHED
 62
256
 10
400.762976999999980
 20
-66.088963000000007
 11
427.262976999999980
 21
-66.088809999999995
  0
LINE
  8
0
  6
DASHED
 62
256
 10
400.762993999999990
 20
-77.139065000000002
 11
427.262993999999990
 21
-77.138912000000005
  0
LINE
  8
0
  6
DASHED
 62
256
 10
400.763034000000000
 20
-76.189166000000000
 11
427.263034000000000
 21
-76.189014000000000
  0
LINE
  8
0
  6
DASHED
 62
256
 10
427.262993999999990
 20
-76.388912000000005
 11
445.263011000000010
 21
-76.388810000000007
  0
LINE
  8
0
  6
DASHED
 62
256
 10
427.262993999999990
 20
-65.138912000000005
 11
427.262993999999990
 21
-77.138912000000005
  0
LINE
  8
0
  6
DASHED
 62
256
 10
400.763034000000000
 20
-76.189166000000000
 11
427.263034000000000
 21
-76.189014000000000
  0
LINE
  8
0
  6
DASHED
 62
256
 10
400.762993999999990
 20
-77.139065000000002
 11
427.262993999999990
 21
-77.138912000000005
  0
LINE
  8
0
  6
DASHED
 62
256
 10
427.262993999999990
 20
-65.888912000000005
 11
445.263011000000010
 21
-65.888810000000007
  0
LINE
  8
0
  6
DASHED
 62
256
 10
400.762976999999980
 20
-66.088963000000007
 11
427.262976999999980
 21
-66.088809999999995
  0
LINE
  8
0
  6
DASHED
 62
256
 10
400.762993999999990
 20
-65.139065000000002
 11
427.262993999999990
 21
-65.138912000000005
  0
LINE
  8
0
  6
CONTINUOUS
 62
256
 10
400.262993999999990
 20
-59.139138000000003
 11
485.262993999999990
 21
-60.640273999999998
  0
LINE
  8
0
  6
CONTINUOUS
 62
256
 10
400.262993999999990
 20
-59.139138000000003
 11
485.262993999999990
 21
-60.640273999999998
  0
LINE
  8
0
  6
DASHED
 62
256
 10
427.262993999999990
 20
-65.888912000000005
 11
445.263011000000010
 21
-65.888810000000007
  0
LINE
  8
0
  6
DASHED
 62
256
 10
427.262993999999990
 20
-76.388912000000005
 11
445.263011000000010
 21
-76.388810000000007
  0
LINE
  8
0
  6
CONTINUOUS
 62
256
 10
400.262993999999990
 20
-59.139138000000003
 11
485.262993999999990
 21
-60.640273999999998
  0
LINE
  8
0
  6
CONTINUOUS
 62
256
 10
400.262993999999990
 20
-59.139138000000003
 11
485.262993999999990
 21
-60.640273999999998
  0
LINE
  8
0
  6
DASHED
 62
256
 10
472.262993999999990
 20
-62.138658000000000
 11
472.262993999999990
 21
-80.138658000000007
  0
LINE
  8
0
  6
DASHED
 62
256
 10
472.262993999999990
 20
-62.138658000000000
 11
485.262993999999990
 21
-62.138584000000002
  0
LINE
  8
0
  6
DASHED
 62
256
 10
472.262993999999990
 20
-80.138658000000007
 11
485.262993999999990
 21
-80.138583999999994
  0
LINE
  8
0
  6
DASHED
 62
256
 10
427.262993999999990
 20
-76.388912000000005
 11
445.263011000000010
 21
-76.388810000000007
  0
LINE
  8
0
  6
DASHED
 62
256
 10
427.262993999999990
 20
-65.888912000000005
 11
445.263011000000010
 21
-65.888810000000007
  0
LINE
  8
0
  6
DASHED
 62
256
 10
445.263011000000010
 20
-65.138912000000005
 11
445.263011000000010
 21
-77.138912000000005
  0
LINE
  8
0
  6
DASHED
 62
256
 10
471.763067999999980
 20
-76.188353000000006
 11
445.263067999999980
 21
-76.188810000000004
  0
LINE
  8
0
  6
DASHED
 62
256
 10
471.763027000000020
 20
-77.139065000000002
 11
445.263027000000020
 21
-77.138912000000005
  0
LINE
  8
0
  6
DASHED
 62
256
 10
471.763011000000010
 20
-66.088963000000007
 11
445.263011000000010
 21
-66.088809999999995
  0
LINE
  8
0
  6
DASHED
 62
256
 10
471.763027000000020
 20
-65.139065000000002
 11
445.263027000000020
 21
-65.138912000000005
  0
LINE
  8
0
  6
CONTINUOUS
 62
256
 10
400.262993999999990
 20
-59.139138000000003
 11
485.262993999999990
 21
-60.640273999999998
  0
LINE
  8
0
  6
CONTINUOUS
 62
256
 10
400.262993999999990
 20
-59.139138000000003
 11
485.262993999999990
 21
-60.640273999999998
  0
LINE
  8
0
  6
DASHED
 62
256
 10
472.262993999999990
 20
-80.138658000000007
 11
485.262993999999990
 21
-80.138583999999994
  0
LINE
  8
0
  6
DASHED
 62
256
 10
472.262993999999990
 20
-62.138658000000000
 11
485.262993999999990
 21
-62.138584000000002
  0
LINE
  8
0
  6
CONTINUOUS
 62
256
 10
400.262993999999990
 20
-59.139138000000003
 11
485.262993999999990
 21
-60.640273999999998
  0
LINE
  8
0
  6
CONTINUOUS
 62
256
 10
400.262993999999990
 20
-59.139138000000003
 11
485.262993999999990
 21
-60.640273999999998
  0
LINE
  8
0
  6
CONTINUOUS
 62
256
 10
400.262993999999990
 20
-59.139138000000003
 11
485.262993999999990
 21
-60.640273999999998
  0
LINE
  8
0
  6
CONTINUOUS
 62
256
 10
400.262993999999990
 20
-59.139138000000003
 11
485.262993999999990
 21
-60.640273999999998
  0
LINE
  8
0
  6
CONTINUOUS
 62
256
 10
400.262993999999990
 20
-59.139138000000003
 11
485.262993999999990
 21
-60.640273999999998
  0
LINE
  8
0
  6
CONTINUOUS
 62
256
 10
400.262993999999990
 20
-59.139138000000003
 11
485.262993999999990
 21
-60.640273999999998
  0
LINE
  8
0
  6
DASHED
 62
256
 10
472.262993999999990
 20
-62.138658000000000
 11
485.262993999999990
 21
-62.138584000000002
  0
LINE
  8
0
  6
DASHED
 62
256
 10
472.262993999999990
 20
-80.138658000000007
 11
485.262993999999990
 21
-80.138583999999994
  0
LINE
  8
0
  6
CONTINUOUS
 62
256
 10
489.262993999999990
 20
-94.138604000000001
 11
492.261993000000020
 21
-94.138604000000001
  0
ARC
  8
0
  6
CONTINUOUS
 62
256
 10
492.261993000000020
 20
-95.138604000000001
 40
1.000000000000000
 50
0.000000000000000
 51
90.000000000000000
  0
LINE
  8
0
  6
CONTINUOUS
 62
256
 10
493.261993000000020
 20
-95.138604000000001
 11
493.261993000000020
 21
-116.138604000000000
  0
LINE
  8
0
  6
CONTINUOUS
 62
256
 10
489.262993999999990
 20
-88.420501000000002
 11
489.262993999999990
 21
-73.639138000000003
  0
LINE
  8
0
  6
CONTINUOUS
 62
256
 10
485.262993999999990
 20
-82.275987000000001
 11
485.262993999999990
 21
-60.640273999999998
  0
LINE
  8
0
  6
CONTINUOUS
 62
256
 10
489.262993999999990
 20
-73.639138000000003
 11
488.762993999999990
 21
-73.139138000000003
  0
LINE
  8
0
  6
CONTINUOUS
 62
256
 10
485.262993999999990
 20
-73.139138000000003
 11
488.762993999999990
 21
-73.139138000000003
  0
LINE
  8
0
  6
CONTINUOUS
 62
256
 10
489.262993999999990
 20
-158.639138000000000
 11
489.262993999999990
 21
-88.420501000000002
  0
LINE
  8
0
  6
CONTINUOUS
 62
256
 10
485.262993999999990
 20
-171.638002000000000
 11
485.262993999999990
 21
-82.275987000000001
  0
LINE
  8
0
  6
CONTINUOUS
 62
256
 10
400.262993999999990
 20
-59.139138000000003
 11
485.262993999999990
 21
-60.640273999999998
  0
ARC
  8
0
  6
CONTINUOUS
 62
256
 10
380.263994000000030
 20
-95.138604000000001
 40
1.000000000000000
 50
90.000000000000000
 51
180.000000000000000
  0
LINE
  8
0
  6
CONTINUOUS
 62
256
 10
379.263994000000030
 20
-95.138604000000001
 11
379.263994000000030
 21
-116.138604000000000
  0
LINE
  8
0
  6
CONTINUOUS
 62
256
 10
383.262993999999990
 20
-74.039137999999994
 11
383.262993999999990
 21
-116.139138000000000
  0
LINE
  8
0
  6
CONTINUOUS
 62
256
 10
383.262993999999990
 20
-94.138604000000001
 11
380.263994000000030
 21
-94.138604000000001
  0
LINE
  8
0
  6
CONTINUOUS
 62
256
 10
383.262993999999990
 20
-74.039137999999994
 11
383.262993999999990
 21
-116.139138000000000
  0
LINE
  8
0
  6
CONTINUOUS
 62
256
 10
387.262993999999990
 20
-172.639138000000000
 11
387.262993999999990
 21
-116.139138000000000
  0
LINE
  8
0
  6
CONTINUOUS
 62
256
 10
383.262993999999990
 20
-158.239138000000000
 11
383.262993999999990
 21
-116.139138000000000
  0
LINE
  8
0
  6
CONTINUOUS
 62
256
 10
383.262993999999990
 20
-158.239138000000000
 11
383.262993999999990
 21
-116.139138000000000
  0
LINE
  8
0
  6
CONTINUOUS
 62
256
 10
383.262993999999990
 20
-138.139671999999990
 11
380.263994000000030
 21
-138.139671999999990
  0
LINE
  8
0
  6
CONTINUOUS
 62
256
 10
383.262993999999990
 20
-158.239138000000000
 11
383.262993999999990
 21
-116.139138000000000
  0
LINE
  8
0
  6
CONTINUOUS
 62
256
 10
379.263994000000030
 20
-137.139671999999990
 11
379.263994000000030
 21
-116.139672000000000
  0
ARC
  8
0
  6
CONTINUOUS
 62
256
 10
380.263994000000030
 20
-137.139671999999990
 40
1.000000000000000
 50
180.000000000000000
 51
270.000000000000000
  0
LINE
  8
0
  6
CONTINUOUS
 62
256
 10
387.262993999999990
 20
-172.639138000000000
 11
387.262993999999990
 21
-116.139138000000000
  0
LINE
  8
0
  6
CONTINUOUS
 62
256
 10
400.262993999999990
 20
-173.139138000000000
 11
400.262993999999990
 21
-73.292030999999994
  0
LINE
  8
0
  6
CONTINUOUS
 62
256
 10
400.262993999999990
 20
-173.139138000000000
 11
400.262993999999990
 21
-73.292030999999994
  0
LINE
  8
0
  6
DASHED
 62
256
 10
400.262993999999990
 20
-152.139064999999990
 11
400.262993999999990
 21
-170.139064999999990
  0
LINE
  8
0
  6
DASHED
 62
256
 10
387.262993999999990
 20
-152.139138000000000
 11
400.262993999999990
 21
-152.139064999999990
  0
LINE
  8
0
  6
DASHED
 62
256
 10
400.762976999999980
 20
-156.088963000000010
 11
427.262976999999980
 21
-156.088810000000000
  0
LINE
  8
0
  6
DASHED
 62
256
 10
400.762993999999990
 20
-155.139064999999990
 11
427.262993999999990
 21
-155.138912000000000
  0
LINE
  8
0
  6
CONTINUOUS
 62
256
 10
387.262993999999990
 20
-172.639138000000000
 11
387.262993999999990
 21
-116.139138000000000
  0
LINE
  8
0
  6
CONTINUOUS
 62
256
 10
383.662994000000030
 20
-158.639138000000000
 11
387.262993999999990
 21
-158.639138000000000
  0
LINE
  8
0
  6
CONTINUOUS
 62
256
 10
400.262993999999990
 20
-173.139138000000000
 11
387.762993999999990
 21
-173.139138000000000
  0
LINE
  8
0
  6
DASHED
 62
256
 10
387.262993999999990
 20
-170.139138000000000
 11
400.262993999999990
 21
-170.139064999999990
  0
LINE
  8
0
  6
CONTINUOUS
 62
256
 10
387.762993999999990
 20
-173.139138000000000
 11
387.262993999999990
 21
-172.639138000000000
  0
LINE
  8
0
  6
DASHED
 62
256
 10
400.262993999999990
 20
-152.139064999999990
 11
400.262993999999990
 21
-170.139064999999990
  0
LINE
  8
0
  6
CONTINUOUS
 62
256
 10
400.262993999999990
 20
-173.139138000000000
 11
400.262993999999990
 21
-73.292030999999994
  0
LINE
  8
0
  6
CONTINUOUS
 62
256
 10
400.262993999999990
 20
-173.139138000000000
 11
400.262993999999990
 21
-73.292030999999994
  0
LINE
  8
0
  6
CONTINUOUS
 62
256
 10
400.262993999999990
 20
-173.139138000000000
 11
400.262993999999990
 21
-73.292030999999994
  0
LINE
  8
0
  6
CONTINUOUS
 62
256
 10
400.262993999999990
 20
-173.139138000000000
 11
400.262993999999990
 21
-73.292030999999994
  0
LINE
  8
0
  6
DASHED
 62
256
 10
400.262993999999990
 20
-152.139064999999990
 11
400.262993999999990
 21
-170.139064999999990
  0
LINE
  8
0
  6
DASHED
 62
256
 10
427.262993999999990
 20
-166.388912000000000
 11
445.263011000000010
 21
-166.388810000000010
  0
LINE
  8
0
  6
DASHED
 62
256
 10
427.262993999999990
 20
-155.138912000000000
 11
427.262993999999990
 21
-167.138912000000000
  0
LINE
  8
0
  6
DASHED
 62
256
 10
400.763034000000000
 20
-166.189166000000000
 11
427.263034000000000
 21
-166.189013999999990
  0
LINE
  8
0
  6
DASHED
 62
256
 10
400.762993999999990
 20
-167.139064999999990
 11
427.262993999999990
 21
-167.138912000000000
  0
LINE
  8
0
  6
DASHED
 62
256
 10
400.762993999999990
 20
-155.139064999999990
 11
427.262993999999990
 21
-155.138912000000000
  0
LINE
  8
0
  6
DASHED
 62
256
 10
400.762976999999980
 20
-156.088963000000010
 11
427.262976999999980
 21
-156.088810000000000
  0
LINE
  8
0
  6
DASHED
 62
256
 10
427.262993999999990
 20
-155.888912000000000
 11
445.263011000000010
 21
-155.888810000000010
  0
LINE
  8
0
  6
DASHED
 62
256
 10
400.762976999999980
 20
-156.088963000000010
 11
427.262976999999980
 21
-156.088810000000000
  0
LINE
  8
0
  6
DASHED
 62
256
 10
400.762993999999990
 20
-155.139064999999990
 11
427.262993999999990
 21
-155.138912000000000
  0
LINE
  8
0
  6
DASHED
 62
256
 10
427.262993999999990
 20
-155.888912000000000
 11
445.263011000000010
 21
-155.888810000000010
  0
LINE
  8
0
  6
DASHED
 62
256
 10
472.262993999999990
 20
-170.139618000000010
 11
472.262993999999990
 21
-152.139618000000010
  0
LINE
  8
0
  6
DASHED
 62
256
 10
472.262993999999990
 20
-152.139618000000010
 11
485.262993999999990
 21
-152.139692000000000
  0
LINE
  8
0
  6
DASHED
 62
256
 10
445.263011000000010
 20
-155.138912000000000
 11
445.263011000000010
 21
-167.138912000000000
  0
LINE
  8
0
  6
DASHED
 62
256
 10
427.262993999999990
 20
-155.888912000000000
 11
445.263011000000010
 21
-155.888810000000010
  0
LINE
  8
0
  6
DASHED
 62
256
 10
471.763011000000010
 20
-156.088963000000010
 11
445.263011000000010
 21
-156.088810000000000
  0
LINE
  8
0
  6
DASHED
 62
256
 10
471.763027000000020
 20
-155.139064999999990
 11
445.263027000000020
 21
-155.138912000000000
  0
LINE
  8
0
  6
DASHED
 62
256
 10
427.262993999999990
 20
-166.388912000000000
 11
445.263011000000010
 21
-166.388810000000010
  0
LINE
  8
0
  6
DASHED
 62
256
 10
472.262993999999990
 20
-170.139618000000010
 11
485.262993999999990
 21
-170.139692000000000
  0
LINE
  8
0
  6
DASHED
 62
256
 10
427.262993999999990
 20
-166.388912000000000
 11
445.263011000000010
 21
-166.388810000000010
  0
LINE
  8
0
  6
DASHED
 62
256
 10
471.763067999999980
 20
-166.188353000000010
 11
445.263067999999980
 21
-166.188809999999990
  0
LINE
  8
0
  6
DASHED
 62
256
 10
471.763027000000020
 20
-167.139064999999990
 11
445.263027000000020
 21
-167.138912000000000
  0
LINE
  8
0
  6
CONTINUOUS
 62
256
 10
400.262993999999990
 20
-173.139138000000000
 11
485.262993999999990
 21
-171.638002000000000
  0
LINE
  8
0
  6
CONTINUOUS
 62
256
 10
485.262993999999990
 20
-171.638002000000000
 11
485.262993999999990
 21
-82.275987000000001
  0
LINE
  8
0
  6
CONTINUOUS
 62
256
 10
489.262993999999990
 20
-158.639138000000000
 11
489.262993999999990
 21
-88.420501000000002
  0
LINE
  8
0
  6
CONTINUOUS
 62
256
 10
489.262993999999990
 20
-158.639138000000000
 11
488.762993999999990
 21
-159.139138000000000
  0
LINE
  8
0
  6
CONTINUOUS
 62
256
 10
485.262993999999990
 20
-159.139138000000000
 11
488.762993999999990
 21
-159.139138000000000
  0
LINE
  8
0
  6
CONTINUOUS
 62
256
 10
489.262993999999990
 20
-158.639138000000000
 11
489.262993999999990
 21
-88.420501000000002
  0
LINE
  8
0
  6
CONTINUOUS
 62
256
 10
485.262993999999990
 20
-171.638002000000000
 11
485.262993999999990
 21
-82.275987000000001
  0
ARC
  8
0
  6
CONTINUOUS
 62
256
 10
492.261993000000020
 20
-137.139671999999990
 40
1.000000000000000
 50
270.000000000000000
 51
0.000000000000000
  0
LINE
  8
0
  6
CONTINUOUS
 62
256
 10
489.262993999999990
 20
-138.139671999999990
 11
492.261993000000020
 21
-138.139671999999990
  0
LINE
  8
0
  6
CONTINUOUS
 62
256
 10
493.261993000000020
 20
-137.139671999999990
 11
493.261993000000020
 21
-116.139672000000000
  0
LINE
  8
0
  6
CONTINUOUS
 62
256
 10
383.662994000000030
 20
-158.639138000000000
 11
387.262993999999990
 21
-158.639138000000000
  0
LINE
  8
0
  6
CONTINUOUS
 62
256
 10
383.262993999999990
 20
-158.239138000000000
 11
383.262993999999990
 21
-116.139138000000000
  0
LINE
  8
0
  6
CONTINUOUS
 62
256
 10
383.262993999999990
 20
-158.239138000000000
 11
383.262993999999990
 21
-116.139138000000000
  0
LINE
  8
0
  6
CONTINUOUS
 62
256
 10
383.262993999999990
 20
-158.239138000000000
 11
383.262993999999990
 21
-116.139138000000000
  0
LINE
  8
0
  6
CONTINUOUS
 62
256
 10
383.662994000000030
 20
-158.639138000000000
 11
383.262993999999990
 21
-158.239138000000000
  0
LINE
  8
0
  6
CONTINUOUS
 62
256
 10
383.262993999999990
 20
-158.239138000000000
 11
383.262993999999990
 21
-116.139138000000000
  0
LINE
  8
0
  6
CONTINUOUS
 62
256
 10
383.662994000000030
 20
-158.639138000000000
 11
387.262993999999990
 21
-158.639138000000000
  0
LINE
  8
0
  6
CONTINUOUS
 62
256
 10
-5.585176000000000
 20
-97.839138000000005
 11
-13.585176000000001
 21
-97.839138000000005
  0
ARC
  8
0
  6
CONTINUOUS
 62
256
 10
-9.585176000000001
 20
-116.139138000000000
 40
15.000000000000004
 50
105.466010000000000
 51
74.533990000000003
  0
LINE
  8
0
  6
DASHED
 62
256
 10
427.262993999999990
 20
-76.388912000000005
 11
445.263011000000010
 21
-76.388810000000007
  0
LINE
  8
0
  6
DASHED
 62
256
 10
427.262993999999990
 20
-65.138912000000005
 11
427.262993999999990
 21
-77.138912000000005
  0
LINE
  8
0
  6
DASHED
 62
256
 10
427.262993999999990
 20
-65.888912000000005
 11
445.263011000000010
 21
-65.888810000000007
  0
LINE
  8
0
  6
DASHED
 62
256
 10
445.263011000000010
 20
-65.138912000000005
 11
445.263011000000010
 21
-77.138912000000005
  0
LINE
  8
0
  6
DASHED
 62
256
 10
445.263011000000010
 20
-155.138912000000000
 11
445.263011000000010
 21
-167.138912000000000
  0
LINE
  8
0
  6
DASHED
 62
256
 10
427.262993999999990
 20
-155.888912000000000
 11
445.263011000000010
 21
-155.888810000000010
  0
LINE
  8
0
  6
DASHED
 62
256
 10
427.262993999999990
 20
-166.388912000000000
 11
445.263011000000010
 21
-166.388810000000010
  0
LINE
  8
0
  6
DASHED
 62
256
 10
427.262993999999990
 20
-155.138912000000000
 11
427.262993999999990
 21
-167.138912000000000
  0
LINE
  8
0
  6
CONTINUOUS
 62
256
 10
-136.085649999999990
 20
-68.639138000000003
 11
-136.085649999999990
 21
-187.639138000000000
  0
INSERT
  8
0
  2
ZU_SYM_1
 10
19.414411999999999
 20
-166.139138000000000
  0
INSERT
  8
0
  2
ZU_SYM_2
 10
-83.585588000000001
 20
-166.139138000000000
  0
INSERT
  8
0
  2
ZU_SYM_3
 10
-83.585588000000001
 20
-66.139138000000003
  0
INSERT
  8
0
  2
ZU_SYM_4
 10
19.414411999999999
 20
-66.139138000000003
  0
LINE
  8
0
  6
DASHDOT
 62
256
 10
-77.285588000000004
 20
-66.139138000000003
 11
-89.885587999999998
 21
-66.139138000000003
  0
LINE
  8
0
  6
DASHDOT
 62
256
 10
-83.585588000000001
 20
-59.839137999999998
 11
-83.585588000000001
 21
-72.439138000000000
  0
LINE
  8
0
  6
DASHDOT
 62
256
 10
-87.585181000000006
 20
-71.139138000000003
 11
-111.585995000000000
 21
-71.139138000000003
  0
LINE
  8
0
  6
DASHDOT
 62
256
 10
-99.585588000000001
 20
-59.138731000000000
 11
-99.585588000000001
 21
-83.139544999999998
  0
LINE
  8
0
  6
DASHDOT
 62
256
 10
-87.585181000000006
 20
-161.139138000000000
 11
-111.585995000000000
 21
-161.139138000000000
  0
LINE
  8
0
  6
DASHDOT
 62
256
 10
-99.585588000000001
 20
-149.138731000000010
 11
-99.585588000000001
 21
-173.139545000000000
  0
LINE
  8
0
  6
DASHDOT
 62
256
 10
-77.285588000000004
 20
-166.139138000000000
 11
-89.885587999999998
 21
-166.139138000000000
  0
LINE
  8
0
  6
DASHDOT
 62
256
 10
-83.585588000000001
 20
-159.839137999999990
 11
-83.585588000000001
 21
-172.439138000000010
  0
LINE
  8
0
  6
DASHDOT
 62
256
 10
25.714411999999999
 20
-166.139138000000000
 11
13.114412000000000
 21
-166.139138000000000
  0
LINE
  8
0
  6
DASHDOT
 62
256
 10
19.414411999999999
 20
-159.839137999999990
 11
19.414411999999999
 21
-172.439138000000010
  0
LINE
  8
0
  6
DASHDOT
 62
256
 10
51.152903000000002
 20
-161.139138000000000
 11
23.414005000000000
 21
-161.139138000000000
  0
LINE
  8
0
  6
DASHDOT
 62
256
 10
35.414411999999999
 20
-149.138731000000010
 11
35.414411999999999
 21
-173.139545000000000
  0
LINE
  8
0
  6
DASHDOT
 62
256
 10
25.714411999999999
 20
-66.139138000000003
 11
13.114412000000000
 21
-66.139138000000003
  0
LINE
  8
0
  6
DASHDOT
 62
256
 10
19.414411999999999
 20
-59.839137999999998
 11
19.414411999999999
 21
-72.439138000000000
  0
LINE
  8
0
  6
DASHDOT
 62
256
 10
52.831978999999997
 20
-71.139138000000003
 11
23.414005000000000
 21
-71.139138000000003
  0
LINE
  8
0
  6
DASHDOT
 62
256
 10
35.414411999999999
 20
-59.138731000000000
 11
35.414411999999999
 21
-83.139544999999998
  0
ARC
  8
0
  6
CONTINUOUS
 62
256
 10
-37.101666999999999
 20
-161.889138000000000
 40
4.250000000000003
 50
177.543713999999970
 51
270.000000000000000
  0
ARC
  8
0
  6
CONTINUOUS
 62
256
 10
-37.101666999999999
 20
-70.389138000000003
 40
4.250000000000000
 50
90.000000000000000
 51
182.456286000000030
  0
CIRCLE
  8
0
  6
CONTINUOUS
 62
256
 10
-9.585588000000000
 20
-116.139138000000000
 40
30.000000000000000
  0
CIRCLE
  8
0
  6
CONTINUOUS
 62
256
 10
-9.585588000000000
 20
-116.553085000000000
 40
42.500000000000000
  0
LINE
  8
0
  6
DASHDOT
 62
256
 10
55.770361999999999
 20
-116.139138000000000
 11
-65.085588000000001
 21
-116.139138000000000
  0
LINE
  8
0
  6
DASHDOT
 62
256
 10
-9.585588000000000
 20
-54.793866999999999
 11
-9.585588000000000
 21
-182.261417999999990
  0
CIRCLE
  8
0
  6
CONTINUOUS
 62
256
 10
35.414411999999999
 20
-161.139138000000000
 40
5.399999999999999
  0
CIRCLE
  8
0
  6
CONTINUOUS
 62
256
 10
35.414411999999999
 20
-161.139138000000000
 40
6.000000000000000
  0
CIRCLE
  8
0
  6
CONTINUOUS
 62
256
 10
-99.585588000000001
 20
-161.139138000000000
 40
6.000000000000000
  0
CIRCLE
  8
0
  6
CONTINUOUS
 62
256
 10
-99.585588000000001
 20
-161.139138000000000
 40
5.400000000000006
  0
CIRCLE
  8
0
  6
CONTINUOUS
 62
256
 10
-99.585588000000001
 20
-71.139138000000003
 40
6.000000000000000
  0
CIRCLE
  8
0
  6
CONTINUOUS
 62
256
 10
-99.585588000000001
 20
-71.139138000000003
 40
5.400000000000006
  0
CIRCLE
  8
0
  6
CONTINUOUS
 62
256
 10
35.414411999999999
 20
-71.139138000000003
 40
6.000000000000000
  0
CIRCLE
  8
0
  6
CONTINUOUS
 62
256
 10
35.414411999999999
 20
-71.139138000000003
 40
5.399999999999999
  0
LINE
  8
0
  6
CONTINUOUS
 62
256
 10
284.861358999999990
 20
-100.938604000000000
 11
284.861358999999990
 21
-131.339672000000010
  0
LINE
  8
0
  6
CONTINUOUS
 62
256
 10
262.861358999999990
 20
-100.938604000000000
 11
262.861358999999990
 21
-131.339672000000010
  0
LINE
  8
0
  6
CONTINUOUS
 62
256
 10
308.861358999999990
 20
-100.438604000000000
 11
308.861358999999990
 21
-131.839672000000010
  0
LINE
  8
0
  6
CONTINUOUS
 62
256
 10
310.211359000000020
 20
-100.438604000000000
 11
310.211359000000020
 21
-131.839672000000010
  0
LINE
  8
0
  6
CONTINUOUS
 62
256
 10
237.511359000000000
 20
-100.438604000000000
 11
237.511359000000000
 21
-131.839672000000010
  0
LINE
  8
0
  6
CONTINUOUS
 62
256
 10
238.861358999999990
 20
-100.438604000000000
 11
238.861358999999990
 21
-131.839672000000010
  0
LINE
  8
0
  6
CONTINUOUS
 62
256
 10
220.325460999999990
 20
-101.138604000000000
 11
220.325460999999990
 21
-131.139671999999990
  0
LINE
  8
0
  6
CONTINUOUS
 62
256
 10
327.397258000000020
 20
-131.139671999999990
 11
327.397258000000020
 21
-101.138604000000000
  0
LINE
  8
0
  6
CONTINUOUS
 62
256
 10
216.861358999999990
 20
-95.138604000000001
 11
216.861358999999990
 21
-137.139671999999990
  0
ARC
  8
0
  6
CONTINUOUS
 62
256
 10
217.861358999999990
 20
-137.139671999999990
 40
1.000000000000000
 50
180.000000000000000
 51
270.000000000000000
  0
LINE
  8
0
  6
CONTINUOUS
 62
256
 10
330.861358999999990
 20
-95.138604000000001
 11
330.861358999999990
 21
-137.139671999999990
  0
ARC
  8
0
  6
CONTINUOUS
 62
256
 10
329.861358999999990
 20
-137.139671999999990
 40
1.000000000000000
 50
270.000000000000000
 51
0.000000000000000
  0
LINE
  8
0
  6
CONTINUOUS
 62
256
 10
314.861033000000020
 20
-138.139671999999990
 11
329.861358999999990
 21
-138.139671999999990
  0
ARC
  8
0
  6
CONTINUOUS
 62
256
 10
300.461092000000010
 20
-140.739672000000010
 40
0.399999999999991
 50
268.752713999998950
 51
0.000090000000101
  0
LINE
  8
0
  6
CONTINUOUS
 62
256
 10
264.261112000000030
 20
-141.139168000000010
 11
300.452384999999990
 21
-141.139577000000000
  0
ARC
  8
0
  6
CONTINUOUS
 62
256
 10
248.375652000000000
 20
-138.489138000000000
 40
0.400000000000010
 50
223.417158000000400
 51
270.000000000000000
  0
ARC
  8
0
  6
CONTINUOUS
 62
256
 10
263.461133000000020
 20
-139.289138000000010
 40
0.400000000000015
 50
359.999353000000670
 51
90.000000000000000
  0
ARC
  8
0
  6
CONTINUOUS
 62
256
 10
247.794557000000000
 20
-139.038982000000000
 40
0.400000000000010
 50
43.417158000000391
 51
90.000000000000000
  0
LINE
  8
0
  6
CONTINUOUS
 62
256
 10
263.861116999999980
 20
-140.739163999999990
 11
263.861133000000000
 21
-139.289143000000000
  0
ARC
  8
0
  6
CONTINUOUS
 62
256
 10
264.261117000000010
 20
-140.739168000000010
 40
0.400000000000015
 50
179.999353000000670
 51
270.000000000000000
  0
LINE
  8
0
  6
CONTINUOUS
 62
256
 10
248.375652000000000
 20
-138.889138000000000
 11
263.461133000000020
 21
-138.889138000000000
  0
LINE
  8
0
  6
CONTINUOUS
 62
256
 10
232.861433000000010
 20
-138.638813000000000
 11
247.794562000000010
 21
-138.638982000000000
  0
LINE
  8
0
  6
CONTINUOUS
 62
256
 10
314.861088999999990
 20
-138.139671999999990
 11
314.861088999999990
 21
-138.639671999999990
  0
LINE
  8
0
  6
CONTINUOUS
 62
256
 10
314.861032000000020
 20
-138.639689000000000
 11
314.861033000000020
 21
-138.139671999999990
  0
LINE
  8
0
  6
CONTINUOUS
 62
256
 10
232.861685999999990
 20
-138.139671999999990
 11
217.861358999999990
 21
-138.139671999999990
  0
LINE
  8
0
  6
CONTINUOUS
 62
256
 10
232.861686999999990
 20
-138.639689000000000
 11
232.861685999999990
 21
-138.139671999999990
  0
LINE
  8
0
  6
CONTINUOUS
 62
256
 10
301.261090000000020
 20
-138.639671999999990
 11
314.861088999999990
 21
-138.639671999999990
  0
ARC
  8
0
  6
CONTINUOUS
 62
256
 10
301.261090000000020
 20
-139.039672000000000
 40
0.400000000000006
 50
90.000000000000000
 51
180.000073000001490
  0
LINE
  8
0
  6
CONTINUOUS
 62
256
 10
300.861089999999990
 20
-139.039672000000000
 11
300.861091999999990
 21
-140.739670999999990
  0
LINE
  8
0
  6
CONTINUOUS
 62
256
 10
216.861358999999990
 20
-133.139671999999990
 11
220.325460999999990
 21
-131.139671999999990
  0
LINE
  8
0
  6
CONTINUOUS
 62
256
 10
237.511359000000000
 20
-131.139671999999990
 11
220.325460999999990
 21
-131.139671999999990
  0
LINE
  8
0
  6
CONTINUOUS
 62
256
 10
237.511359000000000
 20
-131.839672000000010
 11
238.861358999999990
 21
-131.839672000000010
  0
LINE
  8
0
  6
CONTINUOUS
 62
256
 10
262.861358999999990
 20
-131.139671999999990
 11
238.861358999999990
 21
-131.139671999999990
  0
LINE
  8
0
  6
CONTINUOUS
 62
256
 10
262.861358999999990
 20
-131.339672000000010
 11
284.861358999999990
 21
-131.339672000000010
  0
LINE
  8
0
  6
CONTINUOUS
 62
256
 10
308.861358999999990
 20
-131.139671999999990
 11
284.861358999999990
 21
-131.139671999999990
  0
LINE
  8
0
  6
CONTINUOUS
 62
256
 10
308.861358999999990
 20
-131.839672000000010
 11
310.211359000000020
 21
-131.839672000000010
  0
LINE
  8
0
  6
CONTINUOUS
 62
256
 10
327.397258000000020
 20
-131.139671999999990
 11
310.211359000000020
 21
-131.139671999999990
  0
LINE
  8
0
  6
CONTINUOUS
 62
256
 10
327.397258000000020
 20
-131.139671999999990
 11
330.861358999999990
 21
-133.139671999999990
  0
ARC
  8
0
  6
CONTINUOUS
 62
256
 10
300.461092000000010
 20
-91.538604000000007
 40
0.400000000000016
 50
359.999909999999890
 51
91.247286000000997
  0
LINE
  8
0
  6
CONTINUOUS
 62
256
 10
264.261112000000030
 20
-91.139107999999993
 11
300.452384999999990
 21
-91.138699000000003
  0
LINE
  8
0
  6
DASHDOT
 62
256
 10
213.396852999999990
 20
-116.139138000000000
 11
333.941398999999990
 21
-116.139138000000000
  0
LINE
  8
0
  6
CONTINUOUS
 62
256
 10
262.861358999999990
 20
-101.138604000000000
 11
238.861358999999990
 21
-101.138604000000000
  0
LINE
  8
0
  6
CONTINUOUS
 62
256
 10
330.861358999999990
 20
-97.838604000000004
 11
216.861358999999990
 21
-97.838604000000004
  0
ARC
  8
0
  6
CONTINUOUS
 62
256
 10
248.375652000000000
 20
-93.789137999999994
 40
0.400000000000006
 50
90.000000000000000
 51
136.582842000001080
  0
ARC
  8
0
  6
CONTINUOUS
 62
256
 10
263.461133000000020
 20
-92.989137999999997
 40
0.400000000000006
 50
270.000000000000000
 51
0.000646999999341
  0
ARC
  8
0
  6
CONTINUOUS
 62
256
 10
247.794557000000000
 20
-93.239294000000001
 40
0.400000000000000
 50
270.000000000000000
 51
316.582842000001050
  0
LINE
  8
0
  6
CONTINUOUS
 62
256
 10
263.861116999999980
 20
-91.539112000000003
 11
263.861133000000000
 21
-92.989134000000007
  0
ARC
  8
0
  6
CONTINUOUS
 62
256
 10
264.261117000000010
 20
-91.539107999999999
 40
0.400000000000000
 50
90.000000000000000
 51
180.000646999999330
  0
LINE
  8
0
  6
CONTINUOUS
 62
256
 10
248.375652000000000
 20
-93.389138000000003
 11
263.461133000000020
 21
-93.389138000000003
  0
LINE
  8
0
  6
CONTINUOUS
 62
256
 10
232.861433000000010
 20
-93.639463000000006
 11
247.794562000000010
 21
-93.639294000000007
  0
LINE
  8
0
  6
CONTINUOUS
 62
256
 10
129.924640000000010
 20
-97.839138000000005
 11
121.924640000000000
 21
-97.839138000000005
  0
LINE
  8
0
  6
CONTINUOUS
 62
256
 10
129.924640000000010
 20
-101.682306000000000
 11
129.924640000000010
 21
-97.839138000000005
  0
LINE
  8
0
  6
CONTINUOUS
 62
256
 10
121.924640000000000
 20
-101.682306000000000
 11
121.924640000000000
 21
-97.839138000000005
  0
LINE
  8
0
  6
DASHDOT
 62
256
 10
150.864385000000000
 20
-116.139138000000000
 11
100.179992000000000
 21
-116.139138000000000
  0
LINE
  8
0
  6
DASHDOT
 62
256
 10
125.924640000000000
 20
-89.897114000000002
 11
125.924640000000000
 21
-142.687872000000000
  0
ARC
  8
0
  6
CONTINUOUS
 62
256
 10
125.924640000000000
 20
-116.139138000000000
 40
15.000000000000005
 50
105.466010000000030
 51
74.533989999999989
  0
LINE
  8
0
  6
CONTINUOUS
 62
256
 10
262.861358999999990
 20
-100.938604000000000
 11
284.861358999999990
 21
-100.938604000000000
  0
LINE
  8
0
  6
CONTINUOUS
 62
256
 10
314.861088999999990
 20
-94.138604000000001
 11
314.861088999999990
 21
-93.638604000000001
  0
LINE
  8
0
  6
CONTINUOUS
 62
256
 10
314.861032000000020
 20
-93.638587000000001
 11
314.861033000000020
 21
-94.138604000000001
  0
LINE
  8
0
  6
CONTINUOUS
 62
256
 10
314.861033000000020
 20
-94.138604000000001
 11
329.861358999999990
 21
-94.138604000000001
  0
LINE
  8
0
  6
CONTINUOUS
 62
256
 10
327.397258000000020
 20
-101.138604000000000
 11
310.211359000000020
 21
-101.138604000000000
  0
ARC
  8
0
  6
CONTINUOUS
 62
256
 10
329.861358999999990
 20
-95.138604000000001
 40
1.000000000000000
 50
0.000000000000000
 51
90.000000000000000
  0
LINE
  8
0
  6
CONTINUOUS
 62
256
 10
327.397258000000020
 20
-101.138604000000000
 11
330.861358999999990
 21
-99.138604000000001
  0
LINE
  8
0
  6
CONTINUOUS
 62
256
 10
232.861685999999990
 20
-94.138604000000001
 11
217.861358999999990
 21
-94.138604000000001
  0
ARC
  8
0
  6
CONTINUOUS
 62
256
 10
217.861358999999990
 20
-95.138604000000001
 40
1.000000000000000
 50
90.000000000000000
 51
180.000000000000000
  0
LINE
  8
0
  6
CONTINUOUS
 62
256
 10
232.861686999999990
 20
-93.638587000000001
 11
232.861685999999990
 21
-94.138604000000001
  0
LINE
  8
0
  6
CONTINUOUS
 62
256
 10
237.511359000000000
 20
-101.138604000000000
 11
220.325460999999990
 21
-101.138604000000000
  0
LINE
  8
0
  6
CONTINUOUS
 62
256
 10
216.861358999999990
 20
-99.138604000000001
 11
220.325460999999990
 21
-101.138604000000000
  0
LINE
  8
0
  6
CONTINUOUS
 62
256
 10
237.511359000000000
 20
-100.438604000000000
 11
238.861358999999990
 21
-100.438604000000000
  0
LINE
  8
0
  6
CONTINUOUS
 62
256
 10
308.861358999999990
 20
-101.138604000000000
 11
284.861358999999990
 21
-101.138604000000000
  0
LINE
  8
0
  6
CONTINUOUS
 62
256
 10
308.861358999999990
 20
-100.438604000000000
 11
310.211359000000020
 21
-100.438604000000000
  0
LINE
  8
0
  6
CONTINUOUS
 62
256
 10
301.261090000000020
 20
-93.638604000000001
 11
314.861088999999990
 21
-93.638604000000001
  0
ARC
  8
0
  6
CONTINUOUS
 62
256
 10
301.261090000000020
 20
-93.238603999999995
 40
0.400000000000018
 50
179.999927000000550
 51
270.000000000000000
  0
LINE
  8
0
  6
CONTINUOUS
 62
256
 10
300.861089999999990
 20
-93.238603999999995
 11
300.861091999999990
 21
-91.538605000000004
  0
CIRCLE
  8
0
  6
CONTINUOUS
 62
256
 10
125.924640000000000
 20
-116.139138000000000
 40
22.000534000000002
  0
LINE
  8
0
  6
CONTINUOUS
 62
256
 10
-241.467063000000000
 20
-217.639138000000000
 11
-240.290878999999990
 21
-217.639138000000000
  0
LINE
  8
0
  6
CONTINUOUS
 62
256
 10
-241.413600000000000
 20
-205.639138000000000
 11
-240.504730999999990
 21
-205.639138000000000
  0
CIRCLE
  8
0
  6
CONTINUOUS
 62
256
 10
-9.585176000000001
 20
-116.139138000000000
 40
20.000000000000000
  0
LINE
  8
0
  6
CONTINUOUS
 62
256
 10
-5.585176000000000
 20
-97.839138000000005
 11
-5.585176000000000
 21
-101.682306000000000
  0
LINE
  8
0
  6
CONTINUOUS
 62
256
 10
-13.585176000000001
 20
-97.839138000000005
 11
-13.585176000000001
 21
-101.682306000000000
  0
ARC
  8
0
  6
CONTINUOUS
 62
256
 10
-99.585588000000001
 20
-96.716960000000000
 40
5.000000000000004
 50
116.387800000000040
 51
180.000000000000000
  0
ARC
  8
0
  6
CONTINUOUS
 62
256
 10
-71.315196999999998
 20
-71.139138000000003
 40
5.000000000000000
 50
90.000000000000000
 51
157.829842999999980
  0
ARC
  8
0
  6
CONTINUOUS
 62
256
 10
-83.585588000000001
 20
-66.139138000000003
 40
8.249999999999998
 50
266.020952000000020
 51
337.829842999999980
  0
ARC
  8
0
  6
CONTINUOUS
 62
256
 10
-84.557070999999993
 20
-80.105390999999997
 40
5.750000000000003
 50
86.020951999999923
 51
149.179023000000000
  0
ARC
  8
0
  6
CONTINUOUS
 62
256
 10
-99.585588000000001
 20
-71.139138000000003
 40
11.750000000000007
 50
293.534049999999980
 51
329.179022999999970
  0
ARC
  8
0
  6
CONTINUOUS
 62
256
 10
-92.597943000000001
 20
-87.183539999999994
 40
5.749999999999997
 50
113.534049999999950
 51
177.399781999999990
  0
ARC
  8
0
  6
CONTINUOUS
 62
256
 10
-104.585588000000000
 20
-86.639138000000003
 40
6.249999999999993
 50
296.387799999999970
 51
357.399782000000070
  0
ARC
  8
0
  6
CONTINUOUS
 62
256
 10
-98.835588000000001
 20
-143.655216999999990
 40
5.750000000000000
 50
180.000000000000000
 51
267.543713999999970
  0
ARC
  8
0
  6
CONTINUOUS
 62
256
 10
-71.315196999999998
 20
-161.139138000000000
 40
5.000000000000001
 50
202.170157000000020
 51
270.000000000000000
  0
ARC
  8
0
  6
CONTINUOUS
 62
256
 10
-99.585588000000001
 20
-161.139138000000000
 40
11.750000000000007
 50
30.820977000000013
 51
87.543713999999952
  0
ARC
  8
0
  6
CONTINUOUS
 62
256
 10
-84.557070999999993
 20
-152.172885000000010
 40
5.749999999999992
 50
210.820977000000000
 51
273.979047999999980
  0
ARC
  8
0
  6
CONTINUOUS
 62
256
 10
-83.585588000000001
 20
-166.139138000000000
 40
8.249999999999995
 50
22.170157000000014
 51
93.979048000000049
  0
ARC
  8
0
  6
CONTINUOUS
 62
256
 10
-54.585588000000001
 20
-143.639138000000000
 40
4.250000000000000
 50
180.000000000000000
 51
270.000000000000000
  0
ARC
  8
0
  6
CONTINUOUS
 62
256
 10
-54.585588000000001
 20
-161.139138000000000
 40
13.250000000000002
 50
357.543714000000080
 51
90.000000000000000
  0
ARC
  8
0
  6
CONTINUOUS
 62
256
 10
-54.585588000000001
 20
-88.639138000000003
 40
4.250000000000000
 50
90.000000000000000
 51
180.000000000000000
  0
ARC
  8
0
  6
CONTINUOUS
 62
256
 10
-54.585588000000001
 20
-71.139138000000003
 40
13.250000000000000
 50
270.000000000000000
 51
2.456285999999986
  0
LINE
  8
0
  6
CONTINUOUS
 62
256
 10
-58.835588000000001
 20
-88.639138000000003
 11
-58.835588000000001
 21
-143.639138000000000
  0
LINE
  8
0
  6
CONTINUOUS
 62
256
 10
6.886942000000000
 20
-166.139138000000000
 11
-71.315196999999998
 21
-166.139138000000000
  0
ARC
  8
0
  6
CONTINUOUS
 62
256
 10
6.886942000000000
 20
-159.889138000000000
 40
6.250000000000000
 50
270.000000000000000
 51
333.485224999999960
  0
ARC
  8
0
  6
CONTINUOUS
 62
256
 10
19.414411999999999
 20
-166.139138000000000
 40
7.750000000000013
 50
86.020952000000008
 51
153.485225000000040
  0
ARC
  8
0
  6
CONTINUOUS
 62
256
 10
20.385895999999999
 20
-152.172885000000010
 40
6.249999999999988
 50
266.020952000000020
 51
329.179022999999970
  0
ARC
  8
0
  6
CONTINUOUS
 62
256
 10
35.414411999999999
 20
-161.139138000000000
 40
11.249999999999989
 50
113.410911000000010
 51
149.179023000000000
  0
ARC
  8
0
  6
CONTINUOUS
 62
256
 10
28.461265999999998
 20
-145.079756000000000
 40
6.249999999999996
 50
293.410911000000000
 51
354.935229000000110
  0
ARC
  8
0
  6
CONTINUOUS
 62
256
 10
40.414411999999999
 20
-146.139138000000000
 40
5.749999999999993
 50
121.388166000000080
 51
174.935229000000130
  0
ARC
  8
0
  6
CONTINUOUS
 62
256
 10
34.164411999999999
 20
-135.895237000000010
 40
6.249999999999996
 50
301.388166000000010
 51
0.000000000000000
  0
LINE
  8
0
  6
CONTINUOUS
 62
256
 10
40.414411999999999
 20
-88.594437999999997
 11
40.414411999999999
 21
-135.895237000000010
  0
ARC
  8
0
  6
CONTINUOUS
 62
256
 10
34.164411999999999
 20
-88.594437999999997
 40
6.250000000000000
 50
0.000000000000000
 51
85.903956000000008
  0
ARC
  8
0
  6
CONTINUOUS
 62
256
 10
35.414411999999999
 20
-71.139138000000003
 40
11.250000000000000
 50
210.820977000000000
 51
265.903955999999990
  0
ARC
  8
0
  6
CONTINUOUS
 62
256
 10
20.385895999999999
 20
-80.105390999999997
 40
6.250000000000003
 50
30.820976999999992
 51
93.979048000000006
  0
ARC
  8
0
  6
CONTINUOUS
 62
256
 10
19.414411999999999
 20
-66.139138000000003
 40
7.749999999999998
 50
206.514774999999960
 51
273.979048000000030
  0
ARC
  8
0
  6
CONTINUOUS
 62
256
 10
6.886942000000000
 20
-72.389138000000003
 40
6.250000000000003
 50
26.514775000000039
 51
90.000000000000000
  0
LINE
  8
0
  6
CONTINUOUS
 62
256
 10
-71.315196999999998
 20
-66.139138000000003
 11
6.886942000000000
 21
-66.139138000000003
  0
LINE
  8
0
  6
CONTINUOUS
 62
256
 10
-104.585588000000000
 20
-96.716960000000000
 11
-104.585588000000000
 21
-143.655216999999990
  0
LINE
  8
0
  6
CONTINUOUS
 62
256
 10
-89.085588000000001
 20
-66.139138000000003
 11
-89.085588000000001
 21
-59.139138000000003
  0
LINE
  8
0
  6
CONTINUOUS
 62
256
 10
-78.085588000000001
 20
-66.139138000000003
 11
-78.085588000000001
 21
-59.139138000000003
  0
LINE
  8
0
  6
CONTINUOUS
 62
256
 10
24.914411999999999
 20
-66.139138000000003
 11
24.914411999999999
 21
-59.139138000000003
  0
LINE
  8
0
  6
CONTINUOUS
 62
256
 10
13.914412000000000
 20
-66.139138000000003
 11
13.914412000000000
 21
-59.139138000000003
  0
LINE
  8
0
  6
CONTINUOUS
 62
256
 10
13.914412000000000
 20
-166.139138000000000
 11
13.914412000000000
 21
-173.139138000000000
  0
LINE
  8
0
  6
CONTINUOUS
 62
256
 10
24.914411999999999
 20
-166.139138000000000
 11
24.914411999999999
 21
-173.139138000000000
  0
LINE
  8
0
  6
CONTINUOUS
 62
256
 10
-78.085588000000001
 20
-166.139138000000000
 11
-78.085588000000001
 21
-173.139138000000000
  0
LINE
  8
0
  6
CONTINUOUS
 62
256
 10
-89.085588000000001
 20
-166.139138000000000
 11
-89.085588000000001
 21
-173.139138000000000
  0
ARC
  8
0
  6
CONTINUOUS
 62
256
 10
19.414411999999999
 20
-66.139138000000003
 40
5.500000000000000
 50
180.000000000000000
 51
0.000000000000000
  0
ARC
  8
0
  6
CONTINUOUS
 62
256
 10
-83.585588000000001
 20
-66.139138000000003
 40
5.500000000000000
 50
180.000000000000000
 51
0.000000000000000
  0
ARC
  8
0
  6
CONTINUOUS
 62
256
 10
19.414411999999999
 20
-166.139138000000000
 40
5.500000000000000
 50
0.000000000000000
 51
180.000000000000000
  0
ARC
  8
0
  6
CONTINUOUS
 62
256
 10
-83.585588000000001
 20
-166.139138000000000
 40
5.500000000000000
 50
0.000000000000000
 51
180.000000000000000
  0
ARC
  8
0
  6
CONTINUOUS
 62
256
 10
38.414411999999999
 20
-164.139138000000000
 40
9.000000000000000
 50
270.000000000000000
 51
0.000000000000000
  0
CIRCLE
  8
0
  6
CONTINUOUS
 62
256
 10
-9.585588000000000
 20
-116.139138000000000
 40
44.250000000000000
  0
ARC
  8
0
  6
CONTINUOUS
 62
256
 10
38.414411999999999
 20
-68.139138000000003
 40
9.000000000000000
 50
0.000000000000000
 51
90.000000000000000
  0
LINE
  8
0
  6
CONTINUOUS
 62
256
 10
-111.585588000000000
 20
-68.139138000000003
 11
-111.585588000000000
 21
-164.139138000000000
  0
ARC
  8
0
  6
CONTINUOUS
 62
256
 10
-12.183664000000000
 20
-60.639138000000003
 40
1.500000000000000
 50
29.999999999999996
 51
90.000000000000000
  0
ARC
  8
0
  6
CONTINUOUS
 62
256
 10
-9.585588000000000
 20
-59.139138000000003
 40
1.500000000000000
 50
210.000000000000000
 51
330.000000000000000
  0
ARC
  8
0
  6
CONTINUOUS
 62
256
 10
-6.987512000000000
 20
-60.639138000000003
 40
1.500000000000000
 50
90.000000000000000
 51
149.999999999999970
  0
ARC
  8
0
  6
CONTINUOUS
 62
256
 10
45.914411999999999
 20
-113.541062000000000
 40
1.500000000000000
 50
299.999999999999940
 51
0.000000000000000
  0
ARC
  8
0
  6
CONTINUOUS
 62
256
 10
47.414411999999999
 20
-116.139138000000000
 40
1.500000000000000
 50
119.999999999999990
 51
240.000000000000030
  0
ARC
  8
0
  6
CONTINUOUS
 62
256
 10
45.914411999999999
 20
-118.737213999999990
 40
1.500000000000000
 50
0.000000000000000
 51
60.000000000000007
  0
ARC
  8
0
  6
CONTINUOUS
 62
256
 10
-6.987512000000000
 20
-171.639138000000000
 40
1.499999999999999
 50
210.000000000000030
 51
270.000000000000000
  0
ARC
  8
0
  6
CONTINUOUS
 62
256
 10
-9.585588000000000
 20
-173.139138000000000
 40
1.500000000000000
 50
29.999999999999996
 51
150.000000000000000
  0
ARC
  8
0
  6
CONTINUOUS
 62
256
 10
-12.183664000000000
 20
-171.639138000000000
 40
1.500000000000000
 50
270.000000000000000
 51
330.000000000000000
  0
CIRCLE
  8
0
  6
CONTINUOUS
 62
256
 10
-99.585588000000001
 20
-161.139138000000000
 40
9.000406999999996
  0
LINE
  8
0
  6
CONTINUOUS
 62
256
 10
47.414411999999999
 20
-68.139138000000003
 11
47.414411999999999
 21
-164.139138000000000
  0
ARC
  8
0
  6
CONTINUOUS
 62
256
 10
-102.585588000000000
 20
-164.139138000000000
 40
9.000000000000000
 50
180.000000000000000
 51
270.000000000000000
  0
LINE
  8
0
  6
CONTINUOUS
 62
256
 10
-102.585588000000000
 20
-59.139138000000003
 11
35.414411999999999
 21
-59.139138000000003
  0
LINE
  8
0
  6
CONTINUOUS
 62
256
 10
38.414411999999999
 20
-59.139138000000003
 11
-99.585588000000001
 21
-59.139138000000003
  0
ARC
  8
0
  6
CONTINUOUS
 62
256
 10
-102.585588000000000
 20
-68.139138000000003
 40
9.000000000000000
 50
90.000000000000000
 51
180.000000000000000
  0
CIRCLE
  8
0
  6
CONTINUOUS
 62
256
 10
35.414411999999999
 20
-71.139138000000003
 40
9.000406999999996
  0
CIRCLE
  8
0
  6
CONTINUOUS
 62
256
 10
-99.585588000000001
 20
-71.139138000000003
 40
9.000406999999996
  0
CIRCLE
  8
0
  6
CONTINUOUS
 62
256
 10
35.414411999999999
 20
-161.139138000000000
 40
9.000406999999996
  0
LINE
  8
0
  6
CONTINUOUS
 62
256
 10
-102.585588000000000
 20
-173.139138000000000
 11
38.414411999999999
 21
-173.139138000000000
  0
ARC
  8
0
  6
CONTINUOUS
 62
256
 10
-114.085650000000000
 20
-176.139138000000000
 40
3.000000000000000
 50
90.000000000000000
 51
180.000000000000000
  0
ARC
  8
0
  6
CONTINUOUS
 62
256
 10
-122.085650000000000
 20
-175.235445000000000
 40
5.000000000000000
 50
270.000000000000000
 51
0.000000000000000
  0
ARC
  8
0
  6
CONTINUOUS
 62
256
 10
-122.085650000000000
 20
-168.323869000000000
 40
5.000000000000000
 50
270.000000000000000
 51
0.000000000000000
  0
ARC
  8
0
  6
CONTINUOUS
 62
256
 10
-122.085650000000000
 20
-87.954407000000003
 40
5.000000000000000
 50
0.000000000000000
 51
90.000000000000000
  0
ARC
  8
0
  6
CONTINUOUS
 62
256
 10
-122.085650000000000
 20
-81.042831000000007
 40
5.000000000000000
 50
0.000000000000000
 51
90.000000000000000
  0
ARC
  8
0
  6
CONTINUOUS
 62
256
 10
-120.085650000000000
 20
-184.639138000000000
 40
3.000000000000000
 50
270.000000000000000
 51
0.000000000000000
  0
ARC
  8
0
  6
CONTINUOUS
 62
256
 10
-120.085650000000000
 20
-71.639138000000003
 40
3.000000000000000
 50
0.000000000000000
 51
90.000000000000000
  0
LINE
  8
0
  6
CONTINUOUS
 62
256
 10
-117.085650000000000
 20
-71.639138000000003
 11
-117.085650000000000
 21
-184.639138000000000
  0
ARC
  8
0
  6
CONTINUOUS
 62
256
 10
-114.322282000000000
 20
-65.639138000000003
 40
3.000000000000000
 50
270.000000000000000
 51
347.975301000000120
  0
LINE
  8
0
  6
DASHED
 62
256
 10
-111.585650000000000
 20
-147.599687999999990
 11
-111.585650000000000
 21
-128.139138000000000
  0
LINE
  8
0
  6
CONTINUOUS
 62
256
 10
-120.085650000000000
 20
-187.639138000000000
 11
-136.085649999999990
 21
-187.639138000000000
  0
LINE
  8
0
  6
CONTINUOUS
 62
256
 10
-114.322282000000000
 20
-68.639138000000003
 11
-136.085649999999990
 21
-68.639138000000003
  0
LINE
  8
0
  6
CONTINUOUS
 62
256
 10
-130.085649999999990
 20
-85.954407000000003
 11
-130.085649999999990
 21
-128.139138000000000
  0
LINE
  8
0
  6
CONTINUOUS
 62
256
 10
-127.085650000000000
 20
-89.137871000000004
 11
-122.085650000000000
 21
-89.137871000000004
  0
LINE
  8
0
  6
CONTINUOUS
 62
256
 10
-127.085650000000000
 20
-82.954407000000003
 11
-122.085650000000000
 21
-82.954407000000003
  0
LINE
  8
0
  6
CONTINUOUS
 62
256
 10
-127.085650000000000
 20
-76.042831000000007
 11
-122.085650000000000
 21
-76.042831000000007
  0
LINE
  8
0
  6
CONTINUOUS
 62
256
 10
-130.085649999999990
 20
-72.639138000000003
 11
-130.085649999999990
 21
-73.042831000000007
  0
LINE
  8
0
  6
CONTINUOUS
 62
256
 10
-130.085649999999990
 20
-72.639138000000003
 11
-130.085649999999990
 21
-73.042831000000007
  0
LINE
  8
0
  6
CONTINUOUS
 62
256
 10
-130.085649999999990
 20
-72.639138000000003
 11
-130.085649999999990
 21
-71.639138000000003
  0
LINE
  8
0
  6
CONTINUOUS
 62
256
 10
-127.085650000000000
 20
-173.323869000000000
 11
-122.085650000000000
 21
-173.323869000000000
  0
LINE
  8
0
  6
CONTINUOUS
 62
256
 10
-130.085649999999990
 20
-183.639138000000000
 11
-130.085649999999990
 21
-183.235445000000000
  0
LINE
  8
0
  6
CONTINUOUS
 62
256
 10
-127.085650000000000
 20
-180.235445000000000
 11
-122.085650000000000
 21
-180.235445000000000
  0
LINE
  8
0
  6
CONTINUOUS
 62
256
 10
-130.085649999999990
 20
-170.323869000000000
 11
-130.085649999999990
 21
-128.139138000000000
  0
LINE
  8
0
  6
CONTINUOUS
 62
256
 10
-127.085650000000000
 20
-167.140404999999990
 11
-122.085650000000000
 21
-167.140404999999990
  0
LINE
  8
0
  6
CONTINUOUS
 62
256
 10
-130.085649999999990
 20
-183.639138000000000
 11
-130.085649999999990
 21
-184.639138000000000
  0
ARC
  8
0
  6
CONTINUOUS
 62
256
 10
-127.085650000000000
 20
-92.137871000000004
 40
3.000000000000000
 50
90.000000000000000
 51
180.000000000000000
  0
ARC
  8
0
  6
CONTINUOUS
 62
256
 10
-127.085650000000000
 20
-73.042831000000007
 40
2.999999999999986
 50
180.000000000000000
 51
270.000000000000000
  0
ARC
  8
0
  6
CONTINUOUS
 62
256
 10
-127.085650000000000
 20
-85.954407000000003
 40
3.000000000000000
 50
90.000000000000000
 51
180.000000000000000
  0
ARC
  8
0
  6
CONTINUOUS
 62
256
 10
-133.085649999999990
 20
-71.639138000000003
 40
3.000000000000000
 50
0.000000000000000
 51
90.000000000000000
  0
ARC
  8
0
  6
CONTINUOUS
 62
256
 10
-127.085650000000000
 20
-164.140404999999990
 40
2.999999999999986
 50
180.000000000000000
 51
270.000000000000000
  0
ARC
  8
0
  6
CONTINUOUS
 62
256
 10
-127.085650000000000
 20
-170.323869000000000
 40
2.999999999999986
 50
180.000000000000000
 51
270.000000000000000
  0
ARC
  8
0
  6
CONTINUOUS
 62
256
 10
-127.085650000000000
 20
-183.235445000000000
 40
3.000000000000000
 50
90.000000000000000
 51
180.000000000000000
  0
ARC
  8
0
  6
CONTINUOUS
 62
256
 10
-133.085649999999990
 20
-184.639138000000000
 40
3.000000000000000
 50
270.000000000000000
 51
0.000000000000000
  0
LINE
  8
0
  6
CONTINUOUS
 62
256
 10
-130.085649999999990
 20
-108.139138000000000
 11
-136.085649999999990
 21
-108.139138000000000
  0
LINE
  8
0
  6
CONTINUOUS
 62
256
 10
-130.085649999999990
 20
-148.139138000000000
 11
-136.085649999999990
 21
-148.139138000000000
  0
ARC
  8
0
  6
CONTINUOUS
 62
256
 10
-102.585588000000000
 20
-68.139138000000003
 40
9.000000000000000
 50
90.000000000000000
 51
180.000000000000000
  0
ARC
  8
0
  6
CONTINUOUS
 62
256
 10
38.414411999999999
 20
-68.139138000000003
 40
9.000000000000000
 50
0.000000000000000
 51
90.000000000000000
  0
ARC
  8
0
  6
CONTINUOUS
 62
256
 10
38.414411999999999
 20
-164.139138000000000
 40
9.000000000000000
 50
270.000000000000000
 51
0.000000000000000
  0
ARC
  8
0
  6
CONTINUOUS
 62
256
 10
-102.585588000000000
 20
-164.139138000000000
 40
9.000000000000000
 50
180.000000000000000
 51
270.000000000000000
  0
LINE
  8
0
  6
CONTINUOUS
 62
256
 10
-114.085650000000000
 20
-173.139138000000000
 11
38.414411999999999
 21
-173.139138000000000
  0
LINE
  8
0
  6
CONTINUOUS
 62
256
 10
38.414411999999999
 20
-59.139138000000003
 11
-99.585588000000001
 21
-59.139138000000003
  0
LINE
  8
0
  6
CONTINUOUS
 62
256
 10
47.414411999999999
 20
-68.139138000000003
 11
47.414411999999999
 21
-164.139138000000000
  0
LINE
  8
0
  6
CONTINUOUS
 62
256
 10
-102.585588000000000
 20
-59.139138000000003
 11
35.414411999999999
 21
-59.139138000000003
  0
LINE
  8
0
  6
CONTINUOUS
 62
256
 10
-111.585588000000000
 20
-68.139138000000003
 11
-111.585588000000000
 21
-164.139138000000000
  0
LINE
  8
0
  6
CONTINUOUS
 62
256
 10
404.262993999999990
 20
-117.139138000000000
 11
485.262993999999990
 21
-117.139138000000000
  0
LINE
  8
0
  6
CONTINUOUS
 62
256
 10
404.262993999999990
 20
-115.139138000000000
 11
485.262993999999990
 21
-115.139138000000000
  0
ARC
  8
0
  6
CONTINUOUS
 62
256
 10
404.262993999999990
 20
-116.139138000000000
 40
1.000000000000000
 50
90.000000000000000
 51
270.000000000000000
  0
LINE
  8
0
  6
CONTINUOUS
 62
256
 10
396.262993999999990
 20
-117.139138000000000
 11
387.262993999999990
 21
-117.139138000000000
  0
ARC
  8
0
  6
CONTINUOUS
 62
256
 10
396.262993999999990
 20
-116.139138000000000
 40
1.000000000000000
 50
270.000000000000000
 51
90.000000000000000
  0
LINE
  8
0
  6
CONTINUOUS
 62
256
 10
396.262993999999990
 20
-115.139138000000000
 11
387.262993999999990
 21
-115.139138000000000
  0
ARC
  8
0
  6
CONTINUOUS
 62
256
 10
676.862993999999960
 20
-128.139138000000000
 40
300.600000000000020
 50
176.694871000000010
 51
180.000000000000000
  0
LINE
  8
0
  6
CONTINUOUS
 62
256
 10
376.762993999999990
 20
-128.139138000000000
 11
376.762993999999990
 21
-108.639138000000000
  0
LINE
  8
0
  6
CONTINUOUS
 62
256
 10
377.262993999999990
 20
-108.139138000000000
 11
378.787995000000020
 21
-108.139138000000000
  0
ARC
  8
0
  6
CONTINUOUS
 62
256
 10
377.262993999999990
 20
-108.639138000000000
 40
0.500000000000000
 50
90.000000000000000
 51
180.000000000000000
  0
ARC
  8
0
  6
CONTINUOUS
 62
256
 10
495.262993999999990
 20
-108.639138000000000
 40
0.500000000000000
 50
0.000000000000000
 51
90.000000000000000
  0
LINE
  8
0
  6
CONTINUOUS
 62
256
 10
495.762993999999990
 20
-128.139138000000000
 11
495.762993999999990
 21
-108.639138000000000
  0
ARC
  8
0
  6
CONTINUOUS
 62
256
 10
462.809448999999970
 20
-154.685593000000010
 40
29.999999999999989
 50
274.114344999999960
 51
355.885654999999990
  0
ARC
  8
0
  6
CONTINUOUS
 62
256
 10
436.262993999999990
 20
214.360862000000000
 40
400.000000000000000
 50
272.934025000000020
 51
274.114345000000010
  0
ARC
  8
0
  6
CONTINUOUS
 62
256
 10
456.762993999999990
 20
-185.614137000000000
 40
0.499999999999999
 50
92.934025000000204
 51
180.000000000000000
  0
LINE
  8
0
  6
CONTINUOUS
 62
256
 10
456.262993999999990
 20
-187.139138000000000
 11
456.262993999999990
 21
-185.614137000000000
  0
ARC
  8
0
  6
CONTINUOUS
 62
256
 10
455.762993999999990
 20
-187.139138000000000
 40
0.500000000000000
 50
270.000000000000000
 51
0.000000000000000
  0
LINE
  8
0
  6
CONTINUOUS
 62
256
 10
436.262993999999990
 20
-187.639138000000000
 11
455.762993999999990
 21
-187.639138000000000
  0
ARC
  8
0
  6
CONTINUOUS
 62
256
 10
93.762994000000006
 20
-128.139138000000000
 40
399.999999999999940
 50
355.885654999999990
 51
357.065974999999980
  0
ARC
  8
0
  6
CONTINUOUS
 62
256
 10
493.737993000000020
 20
-148.639138000000000
 40
0.500000000000000
 50
90.000000000000000
 51
177.065974999999950
  0
LINE
  8
0
  6
CONTINUOUS
 62
256
 10
495.262993999999990
 20
-148.139138000000000
 11
493.737993000000020
 21
-148.139138000000000
  0
ARC
  8
0
  6
CONTINUOUS
 62
256
 10
495.262993999999990
 20
-147.639138000000000
 40
0.500000000000000
 50
270.000000000000000
 51
0.000000000000000
  0
LINE
  8
0
  6
CONTINUOUS
 62
256
 10
495.762993999999990
 20
-128.139138000000000
 11
495.762993999999990
 21
-147.639138000000000
  0
ARC
  8
0
  6
CONTINUOUS
 62
256
 10
409.716539000000010
 20
-154.685593000000010
 40
30.000000000000018
 50
184.114344999999960
 51
265.885655000000040
  0
ARC
  8
0
  6
CONTINUOUS
 62
256
 10
436.262993999999990
 20
214.360862000000000
 40
399.999999999999940
 50
265.885654999999990
 51
267.065974999999980
  0
ARC
  8
0
  6
CONTINUOUS
 62
256
 10
415.762993999999990
 20
-185.614137000000000
 40
0.500000000000000
 50
0.000000000000000
 51
87.065974999999796
  0
LINE
  8
0
  6
CONTINUOUS
 62
256
 10
416.262993999999990
 20
-187.139138000000000
 11
416.262993999999990
 21
-185.614137000000000
  0
ARC
  8
0
  6
CONTINUOUS
 62
256
 10
416.762993999999990
 20
-187.139138000000000
 40
0.500000000000000
 50
180.000000000000000
 51
270.000000000000000
  0
LINE
  8
0
  6
CONTINUOUS
 62
256
 10
436.262993999999990
 20
-187.639138000000000
 11
416.762993999999990
 21
-187.639138000000000
  0
ARC
  8
0
  6
CONTINUOUS
 62
256
 10
778.762994000000050
 20
-128.139138000000000
 40
400.000000000000000
 50
182.934025000000020
 51
184.114344999999960
  0
ARC
  8
0
  6
CONTINUOUS
 62
256
 10
378.787995000000020
 20
-148.639138000000000
 40
0.500000000000028
 50
2.934025000000031
 51
90.000000000000000
  0
LINE
  8
0
  6
CONTINUOUS
 62
256
 10
377.262993999999990
 20
-148.139138000000000
 11
378.787995000000020
 21
-148.139138000000000
  0
ARC
  8
0
  6
CONTINUOUS
 62
256
 10
377.262993999999990
 20
-147.639138000000000
 40
0.500000000000000
 50
180.000000000000000
 51
270.000000000000000
  0
LINE
  8
0
  6
CONTINUOUS
 62
256
 10
376.762993999999990
 20
-128.139138000000000
 11
376.762993999999990
 21
-147.639138000000000
  0
ARC
  8
0
  6
CONTINUOUS
 62
256
 10
387.292193999999990
 20
-171.453083999999990
 40
2.000000000000016
 50
135.000000000000000
 51
216.786788999999740
  0
POINT
  8
0
  6
CONTINUOUS
 62
256
 10
384.689288999999970
 20
-171.227562000000010
  0
POINT
  8
0
  6
CONTINUOUS
 62
256
 10
479.351418000000020
 20
-179.712842999999990
  0
ARC
  8
0
  6
CONTINUOUS
 62
256
 10
485.233793999999990
 20
-171.453083999999990
 40
2.000000000000010
 50
323.213211000000230
 51
45.000000000000000
  0
POINT
  8
0
  6
CONTINUOUS
 62
256
 10
487.836699000000010
 20
-171.227562000000010
  0
POINT
  8
0
  6
CONTINUOUS
 62
256
 10
479.351418000000020
 20
-179.712842999999990
  0
ARC
  8
0
  6
CONTINUOUS
 62
256
 10
485.233793999999990
 20
-171.453083999999990
 40
2.000000000000010
 50
323.213211000000230
 51
45.000000000000000
  0
POINT
  8
0
  6
CONTINUOUS
 62
256
 10
487.836699000000010
 20
-171.227562000000010
  0
ARC
  8
0
  6
CONTINUOUS
 62
256
 10
456.762993999999990
 20
-185.614137000000000
 40
0.499999999999999
 50
92.934025000000204
 51
180.000000000000000
  0
LINE
  8
0
  6
CONTINUOUS
 62
256
 10
456.262993999999990
 20
-187.139138000000000
 11
456.262993999999990
 21
-185.614137000000000
  0
ARC
  8
0
  6
CONTINUOUS
 62
256
 10
455.762993999999990
 20
-187.139138000000000
 40
0.500000000000000
 50
270.000000000000000
 51
0.000000000000000
  0
LINE
  8
0
  6
CONTINUOUS
 62
256
 10
436.262993999999990
 20
-187.639138000000000
 11
455.762993999999990
 21
-187.639138000000000
  0
ARC
  8
0
  6
CONTINUOUS
 62
256
 10
493.737993000000020
 20
-148.639138000000000
 40
0.500000000000000
 50
90.000000000000000
 51
177.065974999999950
  0
ARC
  8
0
  6
CONTINUOUS
 62
256
 10
495.262993999999990
 20
-108.639138000000000
 40
0.500000000000000
 50
0.000000000000000
 51
90.000000000000000
  0
ARC
  8
0
  6
CONTINUOUS
 62
256
 10
387.292193999999990
 20
-171.453083999999990
 40
2.000000000000016
 50
135.000000000000000
 51
216.786788999999740
  0
POINT
  8
0
  6
CONTINUOUS
 62
256
 10
384.689288999999970
 20
-171.227562000000010
  0
ARC
  8
0
  6
CONTINUOUS
 62
256
 10
468.906624000000020
 20
-188.360757000000010
 40
9.999999999999989
 50
91.000000000000156
 51
118.460275999999850
  0
LINE
  8
0
  6
CONTINUOUS
 62
256
 10
480.822474000000000
 20
-178.151242000000000
 11
468.732100000000000
 21
-178.362280000000000
  0
ARC
  8
0
  6
CONTINUOUS
 62
256
 10
480.787570000000020
 20
-176.151546000000000
 40
1.999999999999998
 50
271.000000000000110
 51
309.946778000000170
  0
POINT
  8
0
  6
CONTINUOUS
 62
256
 10
481.515897000000000
 20
-178.139138000000000
  0
ARC
  8
0
  6
CONTINUOUS
 62
256
 10
403.619363000000020
 20
-188.360757000000010
 40
9.999999999999989
 50
61.539724000000142
 51
88.999999999999858
  0
LINE
  8
0
  6
CONTINUOUS
 62
256
 10
391.703512999999990
 20
-178.151242000000000
 11
403.793886999999980
 21
-178.362280000000000
  0
ARC
  8
0
  6
CONTINUOUS
 62
256
 10
391.738418000000020
 20
-176.151546000000000
 40
1.999999999999993
 50
230.053221999999810
 51
268.999999999999830
  0
POINT
  8
0
  6
CONTINUOUS
 62
256
 10
391.010090999999990
 20
-178.139138000000000
  0
ARC
  8
0
  6
CONTINUOUS
 62
256
 10
436.262993999999990
 20
-128.139138000000000
 40
58.500000000000007
 50
230.284862999999940
 51
311.692076999999980
  0
LINE
  8
0
  6
DASHDOT
 62
256
 10
382.594643000000020
 20
-161.139163999999990
 11
491.070624000000010
 21
-161.138552000000000
  0
LINE
  8
0
  6
DASHDOT
 62
256
 10
382.594643000000020
 20
-71.139163999999994
 11
491.070624000000010
 21
-71.138552000000004
  0
ARC
  8
0
  6
CONTINUOUS
 62
256
 10
409.716539000000010
 20
-101.592682999999990
 40
30.000000000000014
 50
151.858422999999990
 51
165.613047999999990
  0
ARC
  8
0
  6
CONTINUOUS
 62
256
 10
378.787995000000020
 20
-107.639138000000000
 40
0.500000000000000
 50
270.000000000000000
 51
342.175636999999200
  0
ARC
  8
0
  6
CONTINUOUS
 62
256
 10
436.262993999999990
 20
-128.139138000000000
 40
58.500000000000014
 50
166.992820999999990
 51
205.044008999999960
  0
LINE
  8
0
  6
CONTINUOUS
 62
256
 10
385.877979999999980
 20
-170.038870000000000
 11
387.262993999999990
 21
-168.653856999999990
  0
LINE
  8
0
  6
CONTINUOUS
 62
256
 10
486.648007000000010
 20
-170.038870000000000
 11
485.262993999999990
 21
-168.653856999999990
  0
ARC
  8
0
  6
CONTINUOUS
 62
256
 10
436.262993999999990
 20
-128.139138000000000
 40
58.499999999999993
 50
334.955990999999930
 51
13.007179000000004
  0
LINE
  8
0
  6
CONTINUOUS
 62
256
 10
495.262993999999990
 20
-108.139138000000000
 11
493.261993000000020
 21
-108.139138000000000
  0
ARC
  8
0
  6
CONTINUOUS
 62
256
 10
462.809448999999970
 20
-101.592682999999990
 40
29.999999999999982
 50
14.386952000000020
 51
28.141576999999980
  0
LINE
  8
0
  6
DASHDOT
 62
256
 10
-90.405056999999999
 20
-128.139138000000000
 11
-342.414832999999990
 21
-128.139138000000000
  0
LINE
  8
0
  6
DASHDOT
 62
256
 10
498.647545999999980
 20
-116.139138000000000
 11
373.869159000000020
 21
-116.139138000000000
  0
LINE
  8
0
  6
DASHDOT
 62
256
 10
436.262993999999990
 20
-48.290830999999997
 11
436.262993999999990
 21
-228.025760999999990
  0
LINE
  8
0
  6
DASHDOT
 62
256
 10
500.888601999999990
 20
-128.139138000000000
 11
372.121561999999980
 21
-128.139138000000000
  0
LINE
  8
0
  6
DASHDOT
 62
256
 10
382.594643000000020
 20
-71.139163999999994
 11
491.070624000000010
 21
-71.138552000000004
  0
ARC
  8
0
  6
CONTINUOUS
 62
256
 10
-333.485650000000020
 20
-75.695932999999997
 40
2.600000000000007
 50
125.000000000000040
 51
180.000000000000000
  0
LINE
  8
0
  6
CONTINUOUS
 62
256
 10
-325.251201999999980
 20
-66.756096999999997
 11
-334.976947999999990
 21
-73.566137999999995
  0
ARC
  8
0
  6
CONTINUOUS
 62
256
 10
-313.779674000000000
 20
-83.139138000000003
 40
20.000000000000000
 50
90.000000000000000
 51
125.000000000000040
  0
LINE
  8
0
  6
CONTINUOUS
 62
256
 10
-336.085649999999990
 20
-128.139138000000000
 11
-336.085649999999990
 21
-75.695932999999997
  0
LINE
  8
0
  6
CONTINUOUS
 62
256
 10
-233.085649999999990
 20
-63.139138000000003
 11
-313.779674000000000
 21
-63.139138000000003
  0
LINE
  8
0
  6
CONTINUOUS
 62
256
 10
-166.085649999999990
 20
-68.639138000000003
 11
-136.085649999999990
 21
-68.639138000000003
  0
LINE
  8
0
  6
CONTINUOUS
 62
256
 10
-233.085649999999990
 20
-71.139138000000003
 11
-136.085649999999990
 21
-71.139138000000003
  0
LINE
  8
0
  6
CONTINUOUS
 62
256
 10
-233.085649999999990
 20
-72.139138000000003
 11
-136.085649999999990
 21
-72.139138000000003
  0
LINE
  8
0
  6
CONTINUOUS
 62
256
 10
-233.085649999999990
 20
-73.139138000000003
 11
-136.085649999999990
 21
-73.139138000000003
  0
LINE
  8
0
  6
CONTINUOUS
 62
256
 10
-233.085649999999990
 20
-128.139138000000000
 11
-233.085649999999990
 21
-63.139138000000003
  0
LINE
  8
0
  6
CONTINUOUS
 62
256
 10
-233.085649999999990
 20
-77.823604000000003
 11
-136.085649999999990
 21
-77.823604000000003
  0
LINE
  8
0
  6
CONTINUOUS
 62
256
 10
-233.085649999999990
 20
-82.773351000000005
 11
-136.085649999999990
 21
-82.773351000000005
  0
LINE
  8
0
  6
CONTINUOUS
 62
256
 10
-233.085649999999990
 20
-113.139138000000000
 11
-136.085649999999990
 21
-113.139138000000000
  0
LINE
  8
0
  6
CONTINUOUS
 62
256
 10
-233.085649999999990
 20
-108.765876000000010
 11
-136.085649999999990
 21
-108.765876000000010
  0
LINE
  8
0
  6
CONTINUOUS
 62
256
 10
-233.085649999999990
 20
-107.499638000000000
 11
-136.085649999999990
 21
-107.499638000000000
  0
LINE
  8
0
  6
CONTINUOUS
 62
256
 10
-233.085649999999990
 20
-103.309085000000000
 11
-136.085649999999990
 21
-103.309085000000000
  0
LINE
  8
0
  6
CONTINUOUS
 62
256
 10
-233.085649999999990
 20
-101.947204000000000
 11
-136.085649999999990
 21
-101.947204000000000
  0
LINE
  8
0
  6
CONTINUOUS
 62
256
 10
-233.085649999999990
 20
-97.856703999999993
 11
-136.085649999999990
 21
-97.856703999999993
  0
LINE
  8
0
  6
CONTINUOUS
 62
256
 10
-233.085649999999990
 20
-96.388345999999999
 11
-136.085649999999990
 21
-96.388345999999999
  0
LINE
  8
0
  6
CONTINUOUS
 62
256
 10
-233.085649999999990
 20
-92.424600999999996
 11
-136.085649999999990
 21
-92.424600999999996
  0
LINE
  8
0
  6
CONTINUOUS
 62
256
 10
-233.085649999999990
 20
-90.819952999999998
 11
-136.085649999999990
 21
-90.819952999999998
  0
LINE
  8
0
  6
CONTINUOUS
 62
256
 10
-244.085649999999990
 20
-74.399023000000000
 11
-246.085649999999990
 21
-76.051665000000000
  0
LINE
  8
0
  6
CONTINUOUS
 62
256
 10
-242.085649999999990
 20
-73.223236999999997
 11
-244.085649999999990
 21
-74.399023000000000
  0
LINE
  8
0
  6
CONTINUOUS
 62
256
 10
-244.085649999999990
 20
-74.399023000000000
 11
-242.085649999999990
 21
-76.051665000000000
  0
LINE
  8
0
  6
CONTINUOUS
 62
256
 10
-246.085649999999990
 20
-73.223236999999997
 11
-244.085649999999990
 21
-74.399023000000000
  0
POLYLINE
  8
0
  6
CONTINUOUS
 62
256
 66
1
 70
1
  0
VERTEX
  8
0
  6
CONTINUOUS
 62
256
 10
-239.385650000000000
 20
-76.215613000000005
  0
VERTEX
  8
0
  6
CONTINUOUS
 62
256
 10
-239.475959182104820
 20
-75.512656489441838
  0
VERTEX
  8
0
  6
CONTINUOUS
 62
256
 10
-239.743416197196950
 20
-74.836714203361865
  0
VERTEX
  8
0
  6
CONTINUOUS
 62
256
 10
-240.177742822178030
 20
-74.213762224741345
  0
VERTEX
  8
0
  6
CONTINUOUS
 62
256
 10
-240.762248128423210
 20
-73.667740248763153
  0
VERTEX
  8
0
  6
CONTINUOUS
 62
256
 10
-241.474469904807880
 20
-73.219631593751515
  0
VERTEX
  8
0
  6
CONTINUOUS
 62
256
 10
-242.287037867884070
 20
-72.886656824016256
  0
VERTEX
  8
0
  6
CONTINUOUS
 62
256
 10
-243.168725486524180
 20
-72.681611973223937
  0
VERTEX
  8
0
  6
CONTINUOUS
 62
256
 10
-244.085649999999990
 20
-72.612376800000007
  0
VERTEX
  8
0
  6
CONTINUOUS
 62
256
 10
-245.002574513475790
 20
-72.681611973223937
  0
VERTEX
  8
0
  6
CONTINUOUS
 62
256
 10
-245.884262132115910
 20
-72.886656824016256
  0
VERTEX
  8
0
  6
CONTINUOUS
 62
256
 10
-246.696830095192100
 20
-73.219631593751515
  0
VERTEX
  8
0
  6
CONTINUOUS
 62
256
 10
-247.409051871576760
 20
-73.667740248763153
  0
VERTEX
  8
0
  6
CONTINUOUS
 62
256
 10
-247.993557177821940
 20
-74.213762224741345
  0
VERTEX
  8
0
  6
CONTINUOUS
 62
256
 10
-248.427883802803020
 20
-74.836714203361865
  0
VERTEX
  8
0
  6
CONTINUOUS
 62
256
 10
-248.695340817895160
 20
-75.512656489441838
  0
VERTEX
  8
0
  6
CONTINUOUS
 62
256
 10
-248.785649999999980
 20
-76.215613000000005
  0
VERTEX
  8
0
  6
CONTINUOUS
 62
256
 10
-248.695340817895160
 20
-76.918569510558171
  0
VERTEX
  8
0
  6
CONTINUOUS
 62
256
 10
-248.427883802803020
 20
-77.594511796638145
  0
VERTEX
  8
0
  6
CONTINUOUS
 62
256
 10
-247.993557177821940
 20
-78.217463775258665
  0
VERTEX
  8
0
  6
CONTINUOUS
 62
256
 10
-247.409051871576760
 20
-78.763485751236843
  0
VERTEX
  8
0
  6
CONTINUOUS
 62
256
 10
-246.696830095192100
 20
-79.211594406248494
  0
VERTEX
  8
0
  6
CONTINUOUS
 62
256
 10
-245.884262132115910
 20
-79.544569175983753
  0
VERTEX
  8
0
  6
CONTINUOUS
 62
256
 10
-245.002574513475790
 20
-79.749614026776072
  0
VERTEX
  8
0
  6
CONTINUOUS
 62
256
 10
-244.085649999999990
 20
-79.818849200000002
  0
VERTEX
  8
0
  6
CONTINUOUS
 62
256
 10
-243.168725486524180
 20
-79.749614026776072
  0
VERTEX
  8
0
  6
CONTINUOUS
 62
256
 10
-242.287037867884070
 20
-79.544569175983753
  0
VERTEX
  8
0
  6
CONTINUOUS
 62
256
 10
-241.474469904807880
 20
-79.211594406248494
  0
VERTEX
  8
0
  6
CONTINUOUS
 62
256
 10
-240.762248128423240
 20
-78.763485751236857
  0
VERTEX
  8
0
  6
CONTINUOUS
 62
256
 10
-240.177742822178030
 20
-78.217463775258665
  0
VERTEX
  8
0
  6
CONTINUOUS
 62
256
 10
-239.743416197196950
 20
-77.594511796638145
  0
VERTEX
  8
0
  6
CONTINUOUS
 62
256
 10
-239.475959182104820
 20
-76.918569510558171
  0
SEQEND
  8
0
  6
CONTINUOUS
 62
256
  0
LINE
  8
0
  6
CONTINUOUS
 62
256
 10
-233.085649999999990
 20
-68.639138000000003
 11
-136.085649999999990
 21
-68.639138000000003
  0
LINE
  8
0
  6
CONTINUOUS
 62
256
 10
-240.885650000000000
 20
-205.639138000000000
 11
-240.885650000000000
 21
-189.866992000000010
  0
LINE
  8
0
  6
CONTINUOUS
 62
256
 10
-150.885650000000000
 20
-191.639138000000000
 11
-240.885650000000000
 21
-191.639138000000000
  0
LINE
  8
0
  6
CONTINUOUS
 62
256
 10
-150.885650000000000
 20
-191.639138000000000
 11
-150.885650000000000
 21
-186.639138000000000
  0
LINE
  8
0
  6
CONTINUOUS
 62
256
 10
-150.885650000000000
 20
-186.639138000000000
 11
-233.085649999999990
 21
-186.639138000000000
  0
LINE
  8
0
  6
CONTINUOUS
 62
256
 10
-239.885650000000000
 20
-225.639138000000000
 11
-151.885650000000000
 21
-225.639138000000000
  0
ARC
  8
0
  6
CONTINUOUS
 62
256
 10
-239.885650000000000
 20
-224.639138000000000
 40
1.000000000000000
 50
180.000000000000000
 51
270.000000000000000
  0
LINE
  8
0
  6
CONTINUOUS
 62
256
 10
-240.885650000000000
 20
-191.639138000000000
 11
-150.885650000000000
 21
-191.639138000000000
  0
LINE
  8
0
  6
CONTINUOUS
 62
256
 10
-150.885650000000000
 20
-191.639138000000000
 11
-150.885650000000000
 21
-224.639138000000000
  0
ARC
  8
0
  6
CONTINUOUS
 62
256
 10
-151.885650000000000
 20
-224.639138000000000
 40
1.000000000000000
 50
270.000000000000000
 51
0.000000000000000
  0
LINE
  8
0
  6
CONTINUOUS
 62
256
 10
-165.885650000000000
 20
-226.139138000000000
 11
-157.885650000000000
 21
-226.139138000000000
  0
LINE
  8
0
  6
CONTINUOUS
 62
256
 10
-233.885650000000000
 20
-226.139138000000000
 11
-225.885650000000000
 21
-226.139138000000000
  0
LINE
  8
0
  6
CONTINUOUS
 62
256
 10
-157.885650000000000
 20
-225.639138000000000
 11
-157.885650000000000
 21
-226.139138000000000
  0
LINE
  8
0
  6
CONTINUOUS
 62
256
 10
-165.885650000000000
 20
-225.639138000000000
 11
-165.885650000000000
 21
-226.139138000000000
  0
LINE
  8
0
  6
CONTINUOUS
 62
256
 10
-225.885650000000000
 20
-225.639138000000000
 11
-225.885650000000000
 21
-226.139138000000000
  0
LINE
  8
0
  6
CONTINUOUS
 62
256
 10
-233.885650000000000
 20
-225.639138000000000
 11
-233.885650000000000
 21
-226.139138000000000
  0
LINE
  8
0
  6
CONTINUOUS
 62
256
 10
-231.385650000000000
 20
-225.639138000000000
 11
-231.385650000000000
 21
-226.139138000000000
  0
LINE
  8
0
  6
CONTINUOUS
 62
256
 10
-160.385650000000000
 20
-225.639138000000000
 11
-160.385650000000000
 21
-226.139138000000000
  0
LINE
  8
0
  6
CONTINUOUS
 62
256
 10
-240.085649999999990
 20
-189.758359000000010
 11
-236.085649999999990
 21
-189.758359000000010
  0
LINE
  8
0
  6
CONTINUOUS
 62
256
 10
-336.085649999999990
 20
-128.139138000000000
 11
-336.085649999999990
 21
-180.582343000000010
  0
LINE
  8
0
  6
CONTINUOUS
 62
256
 10
-233.085649999999990
 20
-128.139138000000000
 11
-233.085649999999990
 21
-186.758359000000010
  0
ARC
  8
0
  6
CONTINUOUS
 62
256
 10
-240.085649999999990
 20
-192.758359000000010
 40
3.000000000000000
 50
90.000000000000000
 51
180.000000000000000
  0
ARC
  8
0
  6
CONTINUOUS
 62
256
 10
-236.085649999999990
 20
-186.758359000000010
 40
3.000000000000000
 50
270.000000000000000
 51
0.000000000000000
  0
LINE
  8
0
  6
CONTINUOUS
 62
256
 10
-233.085649999999990
 20
-143.139138000000000
 11
-136.085649999999990
 21
-143.139138000000000
  0
LINE
  8
0
  6
CONTINUOUS
 62
256
 10
-233.085649999999990
 20
-147.512400000000010
 11
-136.085649999999990
 21
-147.512400000000010
  0
LINE
  8
0
  6
CONTINUOUS
 62
256
 10
-233.085649999999990
 20
-148.778638000000000
 11
-136.085649999999990
 21
-148.778638000000000
  0
LINE
  8
0
  6
CONTINUOUS
 62
256
 10
-233.085649999999990
 20
-152.969191000000000
 11
-136.085649999999990
 21
-152.969191000000000
  0
LINE
  8
0
  6
CONTINUOUS
 62
256
 10
-233.085649999999990
 20
-154.331072000000010
 11
-136.085649999999990
 21
-154.331072000000010
  0
LINE
  8
0
  6
CONTINUOUS
 62
256
 10
-233.085649999999990
 20
-158.421572000000000
 11
-136.085649999999990
 21
-158.421572000000000
  0
LINE
  8
0
  6
CONTINUOUS
 62
256
 10
-233.085649999999990
 20
-159.889929999999990
 11
-136.085649999999990
 21
-159.889929999999990
  0
LINE
  8
0
  6
CONTINUOUS
 62
256
 10
-233.085649999999990
 20
-163.853675000000010
 11
-136.085649999999990
 21
-163.853675000000010
  0
LINE
  8
0
  6
CONTINUOUS
 62
256
 10
-233.085649999999990
 20
-165.458323000000010
 11
-136.085649999999990
 21
-165.458323000000010
  0
LINE
  8
0
  6
CONTINUOUS
 62
256
 10
-233.085649999999990
 20
-173.504924999999990
 11
-136.085649999999990
 21
-173.504924999999990
  0
LINE
  8
0
  6
CONTINUOUS
 62
256
 10
-233.085649999999990
 20
-183.139138000000000
 11
-136.085649999999990
 21
-183.139138000000000
  0
LINE
  8
0
  6
CONTINUOUS
 62
256
 10
-233.085649999999990
 20
-184.139138000000000
 11
-136.085649999999990
 21
-184.139138000000000
  0
LINE
  8
0
  6
CONTINUOUS
 62
256
 10
-233.085649999999990
 20
-185.139138000000000
 11
-136.085649999999990
 21
-185.139138000000000
  0
LINE
  8
0
  6
CONTINUOUS
 62
256
 10
-244.085649999999990
 20
-181.879253000000010
 11
-246.085649999999990
 21
-180.226610999999990
  0
LINE
  8
0
  6
CONTINUOUS
 62
256
 10
-242.085649999999990
 20
-183.055038999999990
 11
-244.085649999999990
 21
-181.879253000000010
  0
LINE
  8
0
  6
CONTINUOUS
 62
256
 10
-150.885650000000000
 20
-187.639138000000000
 11
-136.085649999999990
 21
-187.639138000000000
  0
ARC
  8
0
  6
CONTINUOUS
 62
256
 10
-313.779674000000000
 20
-173.139138000000000
 40
19.999999999999996
 50
234.999999999999940
 51
270.000000000000000
  0
LINE
  8
0
  6
CONTINUOUS
 62
256
 10
-244.085649999999990
 20
-181.879253000000010
 11
-242.085649999999990
 21
-180.226610999999990
  0
LINE
  8
0
  6
CONTINUOUS
 62
256
 10
-246.085649999999990
 20
-183.055038999999990
 11
-244.085649999999990
 21
-181.879253000000010
  0
POLYLINE
  8
0
  6
CONTINUOUS
 62
256
 66
1
 70
1
  0
VERTEX
  8
0
  6
CONTINUOUS
 62
256
 10
-239.385650000000000
 20
-180.062662999999990
  0
VERTEX
  8
0
  6
CONTINUOUS
 62
256
 10
-239.475959182104820
 20
-179.359706489441810
  0
VERTEX
  8
0
  6
CONTINUOUS
 62
256
 10
-239.743416197196950
 20
-178.683764203361850
  0
VERTEX
  8
0
  6
CONTINUOUS
 62
256
 10
-240.177742822178030
 20
-178.060812224741310
  0
VERTEX
  8
0
  6
CONTINUOUS
 62
256
 10
-240.762248128423210
 20
-177.514790248763150
  0
VERTEX
  8
0
  6
CONTINUOUS
 62
256
 10
-241.474469904807880
 20
-177.066681593751500
  0
VERTEX
  8
0
  6
CONTINUOUS
 62
256
 10
-242.287037867884070
 20
-176.733706824016250
  0
VERTEX
  8
0
  6
CONTINUOUS
 62
256
 10
-243.168725486524180
 20
-176.528661973223900
  0
VERTEX
  8
0
  6
CONTINUOUS
 62
256
 10
-244.085649999999990
 20
-176.459426799999990
  0
VERTEX
  8
0
  6
CONTINUOUS
 62
256
 10
-245.002574513475790
 20
-176.528661973223900
  0
VERTEX
  8
0
  6
CONTINUOUS
 62
256
 10
-245.884262132115910
 20
-176.733706824016250
  0
VERTEX
  8
0
  6
CONTINUOUS
 62
256
 10
-246.696830095192100
 20
-177.066681593751500
  0
VERTEX
  8
0
  6
CONTINUOUS
 62
256
 10
-247.409051871576760
 20
-177.514790248763150
  0
VERTEX
  8
0
  6
CONTINUOUS
 62
256
 10
-247.993557177821940
 20
-178.060812224741310
  0
VERTEX
  8
0
  6
CONTINUOUS
 62
256
 10
-248.427883802803020
 20
-178.683764203361850
  0
VERTEX
  8
0
  6
CONTINUOUS
 62
256
 10
-248.695340817895160
 20
-179.359706489441810
  0
VERTEX
  8
0
  6
CONTINUOUS
 62
256
 10
-248.785649999999980
 20
-180.062662999999990
  0
VERTEX
  8
0
  6
CONTINUOUS
 62
256
 10
-248.695340817895160
 20
-180.765619510558170
  0
VERTEX
  8
0
  6
CONTINUOUS
 62
256
 10
-248.427883802803020
 20
-181.441561796638130
  0
VERTEX
  8
0
  6
CONTINUOUS
 62
256
 10
-247.993557177821940
 20
-182.064513775258660
  0
VERTEX
  8
0
  6
CONTINUOUS
 62
256
 10
-247.409051871576760
 20
-182.610535751236820
  0
VERTEX
  8
0
  6
CONTINUOUS
 62
256
 10
-246.696830095192100
 20
-183.058644406248480
  0
VERTEX
  8
0
  6
CONTINUOUS
 62
256
 10
-245.884262132115910
 20
-183.391619175983720
  0
VERTEX
  8
0
  6
CONTINUOUS
 62
256
 10
-245.002574513475790
 20
-183.596664026776040
  0
VERTEX
  8
0
  6
CONTINUOUS
 62
256
 10
-244.085649999999990
 20
-183.665899199999980
  0
VERTEX
  8
0
  6
CONTINUOUS
 62
256
 10
-243.168725486524180
 20
-183.596664026776040
  0
VERTEX
  8
0
  6
CONTINUOUS
 62
256
 10
-242.287037867884070
 20
-183.391619175983720
  0
VERTEX
  8
0
  6
CONTINUOUS
 62
256
 10
-241.474469904807880
 20
-183.058644406248480
  0
VERTEX
  8
0
  6
CONTINUOUS
 62
256
 10
-240.762248128423240
 20
-182.610535751236820
  0
VERTEX
  8
0
  6
CONTINUOUS
 62
256
 10
-240.177742822178030
 20
-182.064513775258660
  0
VERTEX
  8
0
  6
CONTINUOUS
 62
256
 10
-239.743416197196950
 20
-181.441561796638130
  0
VERTEX
  8
0
  6
CONTINUOUS
 62
256
 10
-239.475959182104820
 20
-180.765619510558170
  0
SEQEND
  8
0
  6
CONTINUOUS
 62
256
  0
LINE
  8
0
  6
CONTINUOUS
 62
256
 10
-243.085649999999990
 20
-193.139138000000000
 11
-313.779674000000000
 21
-193.139138000000000
  0
ARC
  8
0
  6
CONTINUOUS
 62
256
 10
-333.485650000000020
 20
-180.582343000000010
 40
2.600000000000023
 50
180.000000000000000
 51
234.999999999999770
  0
LINE
  8
0
  6
CONTINUOUS
 62
256
 10
-325.251201999999980
 20
-189.522178999999990
 11
-334.976947999999990
 21
-182.712138000000010
  0
LINE
  8
0
  6
CONTINUOUS
 62
256
 10
-243.085649999999990
 20
-193.139138000000000
 11
-243.085649999999990
 21
-192.758359000000010
  0
LINE
  8
0
  6
CONTINUOUS
 62
256
 10
-233.085649999999990
 20
-178.454671999999990
 11
-136.085649999999990
 21
-178.454671999999990
  0
LINE
  8
0
  6
CONTINUOUS
 62
256
 10
-240.885650000000000
 20
-205.639138000000000
 11
-240.885650000000000
 21
-217.639138000000000
  0
LINE
  8
0
  6
CONTINUOUS
 62
256
 10
-240.885650000000000
 20
-217.639138000000000
 11
-240.885650000000000
 21
-224.639138000000000
  0
LINE
  8
0
  6
CONTINUOUS
 62
256
 10
491.026513000000020
 20
-79.523645999999999
 11
489.262993999999990
 21
-77.760126999999997
  0
ARC
  8
0
  6
CONTINUOUS
 62
256
 10
195.662994000000000
 20
-128.139138000000000
 40
300.600000000000020
 50
3.788899999999998
 51
8.597081999999999
  0
ARC
  8
0
  6
CONTINUOUS
 62
256
 10
486.359607999999980
 20
-84.190550999999999
 40
6.600000000000019
 50
8.597081999999919
 51
44.999999999999829
  0
ARC
  8
0
  6
CONTINUOUS
 62
256
 10
195.662994000000000
 20
-128.139138000000000
 40
300.600000000000020
 50
0.000000000000000
 51
3.305129000000001
  0
ARC
  8
0
  6
CONTINUOUS
 62
256
 10
195.662994000000000
 20
-128.139138000000000
 40
300.600000000000020
 50
356.694870999999980
 51
0.000000000000000
  0
ARC
  8
0
  6
CONTINUOUS
 62
256
 10
195.662994000000000
 20
-128.139138000000000
 40
300.600000000000020
 50
351.402918000000000
 51
356.211099999999990
  0
ARC
  8
0
  6
CONTINUOUS
 62
256
 10
486.359607999999980
 20
-172.087725000000010
 40
6.600000000000017
 50
315.000000000000170
 51
351.402917999999940
  0
LINE
  8
0
  6
CONTINUOUS
 62
256
 10
484.878486000000010
 20
-182.902657000000000
 11
491.275900999999980
 21
-176.505242000000010
  0
ARC
  8
0
  6
CONTINUOUS
 62
256
 10
676.862993999999960
 20
-128.139138000000000
 40
300.600000000000020
 50
183.788899999999980
 51
188.597082000000000
  0
LINE
  8
0
  6
CONTINUOUS
 62
256
 10
381.499475000000020
 20
-176.754629999999990
 11
387.647501999999970
 21
-182.902657000000000
  0
ARC
  8
0
  6
CONTINUOUS
 62
256
 10
386.166379000000010
 20
-172.087725000000010
 40
6.600000000000022
 50
188.597082000000030
 51
224.999999999999830
  0
ARC
  8
0
  6
CONTINUOUS
 62
256
 10
676.862993999999960
 20
-128.139138000000000
 40
300.600000000000020
 50
180.000000000000000
 51
183.305128999999990
  0
ARC
  8
0
  6
CONTINUOUS
 62
256
 10
676.862993999999960
 20
-128.139138000000000
 40
300.600000000000020
 50
171.402918000000000
 51
176.211099999999990
  0
LINE
  8
0
  6
CONTINUOUS
 62
256
 10
381.499475000000020
 20
-79.523645999999999
 11
383.262993999999990
 21
-77.760126999999997
  0
ARC
  8
0
  6
CONTINUOUS
 62
256
 10
386.166379000000010
 20
-84.190550999999999
 40
6.600000000000017
 50
135.000000000000170
 51
171.402918000000080
  0
TEXT
  8
0
  6
CONTINUOUS
 62
256
 10
528.474731445312500
 20
-256.720794677734370
 40
3.299999952316284
  1
1/1
 50
0.000002504478167
 41
0.850909097352304
  7
STANDARD1
  0
TEXT
  8
0
  6
CONTINUOUS
 62
256
 10
526.056762695312500
 20
-256.720794677734370
 40
3.299999952316284
  1
 
 50
0.000002504478167
 41
1.733333298293026
  7
STANDARD1
  0
TEXT
  8
0
  6
CONTINUOUS
 62
256
 10
513.006103515625000
 20
-256.720794677734370
 40
3.299999952316284
  1
SCALE
 50
0.000002504478167
 41
0.821052645401140
  7
STANDARD1
  0
TEXT
  8
0
  6
CONTINUOUS
 62
256
 10
509.754760742187500
 20
-256.720794677734370
 40
3.299999952316284
  1
 
 50
0.000002504478167
 41
1.733333298293026
  7
STANDARD1
  0
TEXT
  8
0
  6
CONTINUOUS
 62
256
 10
524.617980957031250
 20
-251.420791625976560
 40
3.299999952316284
  1
1/60
 50
0.000002504478167
 41
0.832000075658163
  7
STANDARD1
  0
TEXT
  8
0
  6
CONTINUOUS
 62
256
 10
520.826904296875000
 20
-251.420791625976560
 40
3.299999952316284
  1
ü`
 50
0.000002504478167
 41
1.176000019651471
  7
STANDARD1
  0
TEXT
  8
0
  6
CONTINUOUS
 62
256
 10
509.754760742187500
 20
-251.420791625976560
 40
3.299999952316284
  1
1/40
 50
0.000002504478167
 41
0.832000075658163
  7
STANDARD1
  0
TEXT
  8
0
  6
CONTINUOUS
 62
256
 10
509.754760742187500
 20
-246.120788574218750
 40
3.299999952316284
  1
GM-SSYFB-RH
 50
0.000002504478167
 41
0.798139564113939
  7
STANDARD1
  0
TEXT
  8
0
  6
CONTINUOUS
 62
256
 10
515.580139160156250
 20
-240.820800781250000
 40
3.299999952316284
  1
0.4kW
 50
0.000002504478167
 41
0.821052645401140
  7
STANDARD1
  0
TEXT
  8
0
  6
CONTINUOUS
 62
256
 10
509.754760742187500
 20
-240.820800781250000
 40
3.299999952316284
  1
  
 50
0.000002504478167
 41
1.485714400175845
  7
STANDARD1
  0
TEXT
  8
0
  6
CONTINUOUS
 62
256
 10
515.580139160156250
 20
-235.520797729492190
 40
3.299999952316284
  1
SSY14
 50
0.000002504478167
 41
0.821052645401140
  7
STANDARD1
  0
TEXT
  8
0
  6
CONTINUOUS
 62
256
 10
509.754760742187500
 20
-235.520797729492190
 40
3.299999952316284
  1
  
 50
0.000002504478167
 41
1.485714400175845
  7
STANDARD1
  0
ARC
  8
0
  6
CONTINUOUS
 62
256
 10
-706.483829000000010
 20
-128.139138000000000
 40
289.396999999999990
 50
0.000000000000000
 51
7.897989000000000
  0
ARC
  8
0
  6
CONTINUOUS
 62
256
 10
-425.775051000000020
 20
-89.197620000000001
 40
5.999999999999990
 50
7.897989000000010
 51
45.000000000000192
  0
ARC
  8
0
  6
CONTINUOUS
 62
256
 10
-415.787214000000010
 20
-84.190550999999999
 40
6.600000000000019
 50
8.597081999999919
 51
44.999999999999829
  0
ARC
  8
0
  6
CONTINUOUS
 62
256
 10
-437.161016000000020
 20
-124.139138000000000
 40
1.500000000000004
 50
187.928142000000150
 51
270.000000000000000
  0
ARC
  8
0
  6
CONTINUOUS
 62
256
 10
-465.883828999999990
 20
-128.139138000000000
 40
33.500000000000007
 50
7.180755999999994
 51
52.819243999999983
  0
ARC
  8
0
  6
CONTINUOUS
 62
256
 10
-465.883828999999990
 20
-128.139138000000000
 40
42.999999999999979
 50
5.531071999999997
 51
54.468927999999977
  0
ARC
  8
0
  6
CONTINUOUS
 62
256
 10
-465.883828999999990
 20
-128.139138000000000
 40
36.999999999999979
 50
5.963570000000011
 51
54.036430000000010
  0
ARC
  8
0
  6
CONTINUOUS
 62
256
 10
-448.058320999999980
 20
-105.264452000000010
 40
1.500000000000025
 50
150.000000000000540
 51
232.071857999999280
  0
ARC
  8
0
  6
CONTINUOUS
 62
256
 10
-446.545218999999970
 20
-102.643683999999990
 40
1.499999999999994
 50
52.819243999999927
 51
150.000000000000540
  0
ARC
  8
0
  6
CONTINUOUS
 62
256
 10
-443.273905000000010
 20
-96.977602000000005
 40
1.500000000000025
 50
150.000000000000540
 51
234.036429999999170
  0
LINE
  8
0
  6
CONTINUOUS
 62
256
 10
-449.357358999999970
 20
-104.514452000000010
 11
-447.844257000000030
 21
-101.893683999999990
  0
LINE
  8
0
  6
CONTINUOUS
 62
256
 10
-444.572943000000010
 20
-96.227602000000005
 11
-443.065376000000010
 21
-93.616417999999996
  0
ARC
  8
0
  6
CONTINUOUS
 62
256
 10
-441.766338000000020
 20
-94.366417999999996
 40
1.499999999999989
 50
54.468928000000517
 51
150.000000000000540
  0
ARC
  8
0
  6
CONTINUOUS
 62
256
 10
-478.294235000000010
 20
-98.643683999999993
 40
1.499999999999989
 50
112.819243999999050
 51
210.000000000000510
  0
LINE
  8
0
  6
CONTINUOUS
 62
256
 10
-479.593273000000010
 20
-99.393683999999993
 11
-478.080172000000000
 21
-102.014452000000010
  0
ARC
  8
0
  6
CONTINUOUS
 62
256
 10
-481.565548999999980
 20
-92.977602000000005
 40
1.499999999999975
 50
210.000000000000510
 51
294.036429999999600
  0
LINE
  8
0
  6
CONTINUOUS
 62
256
 10
-484.372155000000020
 20
-91.116417999999996
 11
-482.864586999999970
 21
-93.727602000000005
  0
ARC
  8
0
  6
CONTINUOUS
 62
256
 10
-483.073117000000020
 20
-90.366417999999996
 40
1.500000000000002
 50
114.468927999999780
 51
210.000000000000510
  0
ARC
  8
0
  6
CONTINUOUS
 62
256
 10
-476.781134000000010
 20
-101.264452000000010
 40
1.499999999999975
 50
210.000000000000510
 51
292.071857999999110
  0
ARC
  8
0
  6
CONTINUOUS
 62
256
 10
-465.883828999999990
 20
-128.139138000000000
 40
33.500000000000000
 50
67.180756000000002
 51
112.819244000000000
  0
ARC
  8
0
  6
CONTINUOUS
 62
256
 10
-465.883828999999990
 20
-128.139138000000000
 40
43.000000000000007
 50
65.531071999999980
 51
114.468928000000030
  0
ARC
  8
0
  6
CONTINUOUS
 62
256
 10
-465.883828999999990
 20
-128.139138000000000
 40
37.000000000000000
 50
65.963570000000033
 51
114.036429999999970
  0
ARC
  8
0
  6
CONTINUOUS
 62
256
 10
-465.883828999999990
 20
-128.139138000000000
 40
27.499999999999989
 50
67.928142000000008
 51
112.071857999999980
  0
ARC
  8
0
  6
CONTINUOUS
 62
256
 10
-454.986523999999970
 20
-101.264452000000010
 40
1.499999999999998
 50
247.928142000000830
 51
329.999999999999490
  0
ARC
  8
0
  6
CONTINUOUS
 62
256
 10
-453.473423000000030
 20
-98.643683999999993
 40
1.499999999999975
 50
329.999999999999490
 51
67.180756000000954
  0
ARC
  8
0
  6
CONTINUOUS
 62
256
 10
-450.202108000000010
 20
-92.977602000000005
 40
1.499999999999999
 50
245.963570000000350
 51
329.999999999999490
  0
LINE
  8
0
  6
CONTINUOUS
 62
256
 10
-453.687485999999980
 20
-102.014452000000010
 11
-452.174383999999980
 21
-99.393683999999993
  0
LINE
  8
0
  6
CONTINUOUS
 62
256
 10
-448.903070000000010
 20
-93.727602000000005
 11
-447.395503000000020
 21
-91.116417999999996
  0
ARC
  8
0
  6
CONTINUOUS
 62
256
 10
-448.694541000000020
 20
-90.366417999999996
 40
1.499999999999975
 50
329.999999999999490
 51
65.531072000000222
  0
ARC
  8
0
  6
CONTINUOUS
 62
256
 10
-485.222438000000010
 20
-102.643683999999990
 40
1.500000000000025
 50
29.999999999999456
 51
127.180756000000090
  0
LINE
  8
0
  6
CONTINUOUS
 62
256
 10
-483.923400000000020
 20
-101.893683999999990
 11
-482.410299000000010
 21
-104.514452000000010
  0
ARC
  8
0
  6
CONTINUOUS
 62
256
 10
-488.493751999999970
 20
-96.977602000000005
 40
1.500000000000007
 50
305.963570000000860
 51
29.999999999999456
  0
LINE
  8
0
  6
CONTINUOUS
 62
256
 10
-488.702282000000030
 20
-93.616417999999996
 11
-487.194713999999980
 21
-96.227602000000005
  0
ARC
  8
0
  6
CONTINUOUS
 62
256
 10
-490.001320000000020
 20
-94.366417999999996
 40
1.499999999999975
 50
30.000000000000544
 51
125.531071999999480
  0
ARC
  8
0
  6
CONTINUOUS
 62
256
 10
-483.709337000000000
 20
-105.264452000000010
 40
1.500000000000018
 50
307.928142000000720
 51
29.999999999999456
  0
ARC
  8
0
  6
CONTINUOUS
 62
256
 10
-465.883828999999990
 20
-128.139138000000000
 40
33.500000000000007
 50
127.180756000000020
 51
172.819244000000000
  0
ARC
  8
0
  6
CONTINUOUS
 62
256
 10
-465.883828999999990
 20
-128.139138000000000
 40
43.000000000000014
 50
125.531072000000020
 51
174.468928000000010
  0
ARC
  8
0
  6
CONTINUOUS
 62
256
 10
-465.883828999999990
 20
-128.139138000000000
 40
37.000000000000000
 50
125.963569999999990
 51
174.036430000000000
  0
ARC
  8
0
  6
CONTINUOUS
 62
256
 10
-465.883828999999990
 20
-128.139138000000000
 40
27.500000000000004
 50
127.928141999999990
 51
172.071857999999990
  0
ARC
  8
0
  6
CONTINUOUS
 62
256
 10
-494.606642000000020
 20
-124.139138000000000
 40
1.500000000000000
 50
270.000000000000000
 51
352.071857999999850
  0
ARC
  8
0
  6
CONTINUOUS
 62
256
 10
-497.632844999999970
 20
-124.139138000000000
 40
1.500000000000028
 50
172.819243999999910
 51
270.000000000000000
  0
ARC
  8
0
  6
CONTINUOUS
 62
256
 10
-504.175473000000010
 20
-124.139138000000000
 40
1.500000000000000
 50
270.000000000000000
 51
354.036430000000220
  0
LINE
  8
0
  6
CONTINUOUS
 62
256
 10
-494.606642000000020
 20
-125.639138000000000
 11
-497.632844999999970
 21
-125.639138000000000
  0
LINE
  8
0
  6
CONTINUOUS
 62
256
 10
-504.175473000000010
 20
-125.639138000000000
 11
-507.190608000000000
 21
-125.639138000000000
  0
ARC
  8
0
  6
CONTINUOUS
 62
256
 10
-507.190608000000000
 20
-124.139138000000000
 40
1.499999999999979
 50
174.468927999999720
 51
270.000000000000000
  0
ARC
  8
0
  6
CONTINUOUS
 62
256
 10
-485.222438000000010
 20
-153.634592000000000
 40
1.499999999999994
 50
232.819243999999940
 51
329.999999999999490
  0
LINE
  8
0
  6
CONTINUOUS
 62
256
 10
-483.923400000000020
 20
-154.384592000000000
 11
-482.410299000000010
 21
-151.763824000000000
  0
ARC
  8
0
  6
CONTINUOUS
 62
256
 10
-488.493751999999970
 20
-159.300673999999990
 40
1.499999999999975
 50
329.999999999999490
 51
54.036429999999186
  0
ARC
  8
0
  6
CONTINUOUS
 62
256
 10
-483.709337000000000
 20
-151.013824000000000
 40
1.499999999999975
 50
329.999999999999490
 51
52.071857999999288
  0
ARC
  8
0
  6
CONTINUOUS
 62
256
 10
-465.883828999999990
 20
-128.139138000000000
 40
33.500000000000000
 50
187.180755999999970
 51
232.819244000000000
  0
ARC
  8
0
  6
CONTINUOUS
 62
256
 10
-465.883828999999990
 20
-128.139138000000000
 40
42.999999999999979
 50
185.531071999999990
 51
234.468927999999950
  0
ARC
  8
0
  6
CONTINUOUS
 62
256
 10
-465.883828999999990
 20
-128.139138000000000
 40
36.999999999999979
 50
185.963569999999980
 51
234.036429999999970
  0
ARC
  8
0
  6
CONTINUOUS
 62
256
 10
-465.883828999999990
 20
-128.139138000000000
 40
27.499999999999986
 50
187.928142000000010
 51
232.071858000000050
  0
ARC
  8
0
  6
CONTINUOUS
 62
256
 10
-494.606642000000020
 20
-132.139138000000000
 40
1.500000000000004
 50
7.928142000000149
 51
90.000000000000000
  0
ARC
  8
0
  6
CONTINUOUS
 62
256
 10
-497.632844999999970
 20
-132.139138000000000
 40
1.500000000000000
 50
90.000000000000000
 51
187.180755999999550
  0
ARC
  8
0
  6
CONTINUOUS
 62
256
 10
-504.175473000000010
 20
-132.139138000000000
 40
1.500000000000012
 50
5.963569999999792
 51
90.000000000000000
  0
LINE
  8
0
  6
CONTINUOUS
 62
256
 10
-494.606642000000020
 20
-130.639138000000000
 11
-497.632844999999970
 21
-130.639138000000000
  0
LINE
  8
0
  6
CONTINUOUS
 62
256
 10
-504.175473000000010
 20
-130.639138000000000
 11
-507.190608000000000
 21
-130.639138000000000
  0
ARC
  8
0
  6
CONTINUOUS
 62
256
 10
-507.190608000000000
 20
-132.139138000000000
 40
1.500000000000000
 50
90.000000000000000
 51
185.531071999999710
  0
ARC
  8
0
  6
CONTINUOUS
 62
256
 10
-478.294235000000010
 20
-157.634592000000000
 40
1.499999999999975
 50
149.999999999999460
 51
247.180756000001140
  0
LINE
  8
0
  6
CONTINUOUS
 62
256
 10
-479.593273000000010
 20
-156.884592000000000
 11
-478.080172000000000
 21
-154.263824000000000
  0
ARC
  8
0
  6
CONTINUOUS
 62
256
 10
-476.781134000000010
 20
-155.013824000000000
 40
1.499999999999998
 50
67.928142000000889
 51
149.999999999999460
  0
ARC
  8
0
  6
CONTINUOUS
 62
256
 10
-465.883828999999990
 20
-128.139138000000000
 40
33.500000000000007
 50
247.180756000000030
 51
292.819243999999970
  0
ARC
  8
0
  6
CONTINUOUS
 62
256
 10
-465.883828999999990
 20
-128.139138000000000
 40
27.500000000000014
 50
247.928142000000040
 51
292.071857999999960
  0
ARC
  8
0
  6
CONTINUOUS
 62
256
 10
-454.986523999999970
 20
-155.013824000000000
 40
1.499999999999975
 50
30.000000000000544
 51
112.071857999999120
  0
ARC
  8
0
  6
CONTINUOUS
 62
256
 10
-453.473423000000030
 20
-157.634592000000000
 40
1.500000000000002
 50
292.819243999998830
 51
29.999999999999456
  0
LINE
  8
0
  6
CONTINUOUS
 62
256
 10
-453.687485999999980
 20
-154.263824000000000
 11
-452.174383999999980
 21
-156.884592000000000
  0
ARC
  8
0
  6
CONTINUOUS
 62
256
 10
-465.883828999999990
 20
-128.139138000000000
 40
33.499999999999972
 50
307.180755999999920
 51
352.819244000000030
  0
ARC
  8
0
  6
CONTINUOUS
 62
256
 10
-465.883828999999990
 20
-128.139138000000000
 40
36.999999999999993
 50
305.963570000000000
 51
354.036429999999940
  0
ARC
  8
0
  6
CONTINUOUS
 62
256
 10
-443.273905000000010
 20
-159.300673999999990
 40
1.500000000000007
 50
125.963570000000810
 51
210.000000000000510
  0
ARC
  8
0
  6
CONTINUOUS
 62
256
 10
-446.545218999999970
 20
-153.634592000000000
 40
1.499999999999975
 50
210.000000000000510
 51
307.180756000000090
  0
ARC
  8
0
  6
CONTINUOUS
 62
256
 10
-465.883828999999990
 20
-128.139138000000000
 40
27.500000000000014
 50
307.928141999999980
 51
352.071858000000020
  0
ARC
  8
0
  6
CONTINUOUS
 62
256
 10
-437.161016000000020
 20
-132.139138000000000
 40
1.500000000000000
 50
90.000000000000000
 51
172.071857999999850
  0
LINE
  8
0
  6
CONTINUOUS
 62
256
 10
-449.357358999999970
 20
-151.763824000000000
 11
-447.844257000000030
 21
-154.384592000000000
  0
ARC
  8
0
  6
CONTINUOUS
 62
256
 10
-448.058320999999980
 20
-151.013824000000000
 40
1.500000000000018
 50
127.928142000000730
 51
210.000000000000510
  0
CIRCLE
  8
0
  6
CONTINUOUS
 62
256
 10
-465.883828999999990
 20
-128.139138000000000
 40
5.000000000000000
  0
ARC
  8
0
  6
CONTINUOUS
 62
256
 10
-457.837151000000010
 20
-134.076392000000000
 40
1.500000000000009
 50
143.578177999999610
 51
210.000000000000510
  0
ARC
  8
0
  6
CONTINUOUS
 62
256
 10
-456.718677000000010
 20
-132.139138000000000
 40
1.500000000000000
 50
90.000000000000000
 51
156.421822000000110
  0
ARC
  8
0
  6
CONTINUOUS
 62
256
 10
-451.348931999999990
 20
-145.314316999999990
 40
1.499999999999975
 50
210.000000000000510
 51
310.240347999999810
  0
ARC
  8
0
  6
CONTINUOUS
 62
256
 10
-453.514512000000020
 20
-132.139138000000000
 40
1.500000000000028
 50
342.079787000000070
 51
90.000000000000000
  0
ARC
  8
0
  6
CONTINUOUS
 62
256
 10
-446.798494000000010
 20
-132.139138000000000
 40
1.500000000000000
 50
90.000000000000000
 51
168.162995999999680
  0
ARC
  8
0
  6
CONTINUOUS
 62
256
 10
-452.877059999999970
 20
-142.667522999999990
 40
1.499999999999989
 50
131.837003999999810
 51
210.000000000000510
  0
ARC
  8
0
  6
CONTINUOUS
 62
256
 10
-443.742238999999980
 20
-132.139138000000000
 40
1.500000000000012
 50
349.759651999999790
 51
90.000000000000000
  0
ARC
  8
0
  6
CONTINUOUS
 62
256
 10
-456.235069000000010
 20
-136.851281000000000
 40
1.499999999999975
 50
210.000000000000510
 51
317.920212999999420
  0
LINE
  8
0
  6
CONTINUOUS
 62
256
 10
-454.176098000000020
 20
-143.417522999999990
 11
-452.647969999999990
 21
-146.064316999999990
  0
ARC
  8
0
  6
CONTINUOUS
 62
256
 10
-465.883828999999990
 20
-128.139138000000000
 40
14.500000000000012
 50
317.920213000000050
 51
342.079786999999950
  0
LINE
  8
0
  6
CONTINUOUS
 62
256
 10
-453.514512000000020
 20
-130.639138000000000
 11
-456.718677000000010
 21
-130.639138000000000
  0
LINE
  8
0
  6
CONTINUOUS
 62
256
 10
-443.742238999999980
 20
-130.639138000000000
 11
-446.798494000000010
 21
-130.639138000000000
  0
LINE
  8
0
  6
CONTINUOUS
 62
256
 10
-459.136190000000000
 20
-134.826392000000000
 11
-457.534107000000010
 21
-137.601281000000000
  0
ARC
  8
0
  6
CONTINUOUS
 62
256
 10
-465.883828999999990
 20
-128.139138000000000
 40
24.000000000000004
 50
310.240347999999980
 51
349.759652000000020
  0
ARC
  8
0
  6
CONTINUOUS
 62
256
 10
-465.883828999999990
 20
-128.139138000000000
 40
8.499999999999989
 50
323.578177999999920
 51
336.421821999999910
  0
ARC
  8
0
  6
CONTINUOUS
 62
256
 10
-468.604385999999980
 20
-140.851281000000000
 40
1.500000000000025
 50
150.000000000000540
 51
257.920213000000730
  0
LINE
  8
0
  6
CONTINUOUS
 62
256
 10
-469.903423999999970
 20
-140.101281000000000
 11
-468.301340999999980
 21
-137.326392000000000
  0
ARC
  8
0
  6
CONTINUOUS
 62
256
 10
-467.002302999999980
 20
-138.076392000000000
 40
1.500000000000001
 50
83.578178000000747
 51
150.000000000000540
  0
ARC
  8
0
  6
CONTINUOUS
 62
256
 10
-465.883828999999990
 20
-128.139138000000000
 40
8.500000000000007
 50
263.578177999999980
 51
276.421822000000020
  0
ARC
  8
0
  6
CONTINUOUS
 62
256
 10
-464.765355000000000
 20
-138.076392000000000
 40
1.500000000000025
 50
29.999999999999456
 51
96.421821999999253
  0
LINE
  8
0
  6
CONTINUOUS
 62
256
 10
-463.466317000000000
 20
-137.326392000000000
 11
-461.864234000000010
 21
-140.101281000000000
  0
ARC
  8
0
  6
CONTINUOUS
 62
256
 10
-463.163272000000010
 20
-140.851281000000000
 40
1.499999999999989
 50
282.079786999999270
 51
29.999999999999456
  0
ARC
  8
0
  6
CONTINUOUS
 62
256
 10
-465.883828999999990
 20
-128.139138000000000
 40
14.499999999999986
 50
257.920212999999990
 51
282.079786999999950
  0
ARC
  8
0
  6
CONTINUOUS
 62
256
 10
-473.490522000000000
 20
-149.314316999999990
 40
1.499999999999975
 50
149.999999999999460
 51
250.240347999999300
  0
LINE
  8
0
  6
CONTINUOUS
 62
256
 10
-474.789559999999990
 20
-148.564316999999990
 11
-473.261433000000010
 21
-145.917522999999990
  0
ARC
  8
0
  6
CONTINUOUS
 62
256
 10
-471.962395000000010
 20
-146.667522999999990
 40
1.500000000000007
 50
71.837003999999709
 51
150.000000000000540
  0
ARC
  8
0
  6
CONTINUOUS
 62
256
 10
-465.883828999999990
 20
-128.139138000000000
 40
17.999999999999996
 50
251.837003999999980
 51
288.162995999999960
  0
ARC
  8
0
  6
CONTINUOUS
 62
256
 10
-459.805263000000020
 20
-146.667522999999990
 40
1.499999999999975
 50
30.000000000000544
 51
108.162996000000290
  0
LINE
  8
0
  6
CONTINUOUS
 62
256
 10
-458.506224999999970
 20
-145.917522999999990
 11
-456.978096999999990
 21
-148.564316999999990
  0
ARC
  8
0
  6
CONTINUOUS
 62
256
 10
-458.277135999999980
 20
-149.314316999999990
 40
1.500000000000012
 50
289.759652000000640
 51
30.000000000000544
  0
ARC
  8
0
  6
CONTINUOUS
 62
256
 10
-465.883828999999990
 20
-128.139138000000000
 40
23.999999999999993
 50
250.240348000000010
 51
289.759652000000020
  0
ARC
  8
0
  6
CONTINUOUS
 62
256
 10
-468.604385999999980
 20
-115.426995000000010
 40
1.499999999999989
 50
102.079786999999230
 51
210.000000000000510
  0
LINE
  8
0
  6
CONTINUOUS
 62
256
 10
-469.903423999999970
 20
-116.176995000000010
 11
-468.301340999999980
 21
-118.951884000000010
  0
ARC
  8
0
  6
CONTINUOUS
 62
256
 10
-467.002302999999980
 20
-118.201884000000010
 40
1.499999999999975
 50
210.000000000000510
 51
276.421821999999220
  0
ARC
  8
0
  6
CONTINUOUS
 62
256
 10
-465.883828999999990
 20
-128.139138000000000
 40
8.500000000000007
 50
83.578177999999994
 51
96.421822000000020
  0
ARC
  8
0
  6
CONTINUOUS
 62
256
 10
-464.765355000000000
 20
-118.201884000000010
 40
1.500000000000001
 50
263.578178000000780
 51
329.999999999999490
  0
LINE
  8
0
  6
CONTINUOUS
 62
256
 10
-463.466317000000000
 20
-118.951884000000010
 11
-461.864234000000010
 21
-116.176995000000010
  0
ARC
  8
0
  6
CONTINUOUS
 62
256
 10
-463.163272000000010
 20
-115.426995000000010
 40
1.499999999999975
 50
329.999999999999490
 51
77.920213000000771
  0
ARC
  8
0
  6
CONTINUOUS
 62
256
 10
-465.883828999999990
 20
-128.139138000000000
 40
14.500000000000002
 50
77.920213000000032
 51
102.079786999999980
  0
ARC
  8
0
  6
CONTINUOUS
 62
256
 10
-473.490522000000000
 20
-106.963959000000000
 40
1.500000000000012
 50
109.759652000000680
 51
210.000000000000510
  0
LINE
  8
0
  6
CONTINUOUS
 62
256
 10
-474.789559999999990
 20
-107.713959000000000
 11
-473.261433000000010
 21
-110.360753000000000
  0
ARC
  8
0
  6
CONTINUOUS
 62
256
 10
-471.962395000000010
 20
-109.610753000000000
 40
1.499999999999975
 50
210.000000000000510
 51
288.162996000000310
  0
ARC
  8
0
  6
CONTINUOUS
 62
256
 10
-465.883828999999990
 20
-128.139138000000000
 40
17.999999999999996
 50
71.837004000000007
 51
108.162996000000010
  0
ARC
  8
0
  6
CONTINUOUS
 62
256
 10
-459.805263000000020
 20
-109.610753000000000
 40
1.500000000000007
 50
251.837003999999720
 51
329.999999999999490
  0
LINE
  8
0
  6
CONTINUOUS
 62
256
 10
-458.506224999999970
 20
-110.360753000000000
 11
-456.978096999999990
 21
-107.713959000000000
  0
ARC
  8
0
  6
CONTINUOUS
 62
256
 10
-458.277135999999980
 20
-106.963959000000000
 40
1.499999999999975
 50
329.999999999999490
 51
70.240347999999329
  0
ARC
  8
0
  6
CONTINUOUS
 62
256
 10
-465.883828999999990
 20
-128.139138000000000
 40
23.999999999999993
 50
70.240348000000012
 51
109.759651999999990
  0
ARC
  8
0
  6
CONTINUOUS
 62
256
 10
-475.532588999999970
 20
-119.426995000000010
 40
1.499999999999975
 50
30.000000000000544
 51
137.920212999999820
  0
LINE
  8
0
  6
CONTINUOUS
 62
256
 10
-474.233550999999980
 20
-118.676995000000010
 11
-472.631467999999980
 21
-121.451884000000010
  0
ARC
  8
0
  6
CONTINUOUS
 62
256
 10
-473.930505999999980
 20
-122.201884000000010
 40
1.500000000000000
 50
323.578178000000040
 51
30.000000000000544
  0
ARC
  8
0
  6
CONTINUOUS
 62
256
 10
-465.883828999999990
 20
-128.139138000000000
 40
8.499999999999989
 50
143.578177999999950
 51
156.421821999999930
  0
ARC
  8
0
  6
CONTINUOUS
 62
256
 10
-475.048979999999970
 20
-124.139138000000000
 40
1.500000000000000
 50
270.000000000000000
 51
336.421821999999620
  0
LINE
  8
0
  6
CONTINUOUS
 62
256
 10
-475.048979999999970
 20
-125.639138000000000
 11
-478.253146000000020
 21
-125.639138000000000
  0
ARC
  8
0
  6
CONTINUOUS
 62
256
 10
-478.253146000000020
 20
-124.139138000000000
 40
1.500000000000024
 50
162.079787000000550
 51
270.000000000000000
  0
ARC
  8
0
  6
CONTINUOUS
 62
256
 10
-465.883828999999990
 20
-128.139138000000000
 40
14.500000000000012
 50
137.920213000000070
 51
162.079787000000070
  0
ARC
  8
0
  6
CONTINUOUS
 62
256
 10
-480.418724999999990
 20
-110.963959000000000
 40
1.500000000000025
 50
29.999999999999456
 51
130.240347999999780
  0
LINE
  8
0
  6
CONTINUOUS
 62
256
 10
-479.119687000000000
 20
-110.213959000000000
 11
-477.591560000000020
 21
-112.860753000000000
  0
ARC
  8
0
  6
CONTINUOUS
 62
256
 10
-478.890598000000010
 20
-113.610753000000000
 40
1.499999999999989
 50
311.837003999999810
 51
30.000000000000544
  0
ARC
  8
0
  6
CONTINUOUS
 62
256
 10
-465.883828999999990
 20
-128.139138000000000
 40
17.999999999999989
 50
131.837003999999920
 51
168.162995999999990
  0
ARC
  8
0
  6
CONTINUOUS
 62
256
 10
-484.969162999999980
 20
-124.139138000000000
 40
1.500000000000000
 50
270.000000000000000
 51
348.162996000000190
  0
LINE
  8
0
  6
CONTINUOUS
 62
256
 10
-484.969162999999980
 20
-125.639138000000000
 11
-488.025419000000000
 21
-125.639138000000000
  0
ARC
  8
0
  6
CONTINUOUS
 62
256
 10
-488.025419000000000
 20
-124.139138000000000
 40
1.500000000000009
 50
169.759652000000300
 51
270.000000000000000
  0
ARC
  8
0
  6
CONTINUOUS
 62
256
 10
-465.883828999999990
 20
-128.139138000000000
 40
24.000000000000004
 50
130.240347999999980
 51
169.759651999999960
  0
ARC
  8
0
  6
CONTINUOUS
 62
256
 10
-475.532588999999970
 20
-136.851281000000000
 40
1.500000000000003
 50
222.079787000000580
 51
329.999999999999490
  0
LINE
  8
0
  6
CONTINUOUS
 62
256
 10
-474.233550999999980
 20
-137.601281000000000
 11
-472.631467999999980
 21
-134.826392000000000
  0
ARC
  8
0
  6
CONTINUOUS
 62
256
 10
-473.930505999999980
 20
-134.076392000000000
 40
1.499999999999975
 50
329.999999999999490
 51
36.421822000000404
  0
ARC
  8
0
  6
CONTINUOUS
 62
256
 10
-465.883828999999990
 20
-128.139138000000000
 40
8.499999999999991
 50
203.578178000000070
 51
216.421822000000050
  0
ARC
  8
0
  6
CONTINUOUS
 62
256
 10
-475.048979999999970
 20
-132.139138000000000
 40
1.499999999999979
 50
23.578177999999905
 51
90.000000000000000
  0
LINE
  8
0
  6
CONTINUOUS
 62
256
 10
-475.048979999999970
 20
-130.639138000000000
 11
-478.253146000000020
 21
-130.639138000000000
  0
ARC
  8
0
  6
CONTINUOUS
 62
256
 10
-478.253146000000020
 20
-132.139138000000000
 40
1.500000000000000
 50
90.000000000000000
 51
197.920212999999960
  0
ARC
  8
0
  6
CONTINUOUS
 62
256
 10
-465.883828999999990
 20
-128.139138000000000
 40
14.500000000000011
 50
197.920212999999930
 51
222.079786999999930
  0
ARC
  8
0
  6
CONTINUOUS
 62
256
 10
-480.418724999999990
 20
-145.314316999999990
 40
1.499999999999991
 50
229.759652000000220
 51
329.999999999999490
  0
LINE
  8
0
  6
CONTINUOUS
 62
256
 10
-479.119687000000000
 20
-146.064316999999990
 11
-477.591560000000020
 21
-143.417522999999990
  0
ARC
  8
0
  6
CONTINUOUS
 62
256
 10
-478.890598000000010
 20
-142.667522999999990
 40
1.499999999999975
 50
329.999999999999490
 51
48.162996000000220
  0
ARC
  8
0
  6
CONTINUOUS
 62
256
 10
-465.883828999999990
 20
-128.139138000000000
 40
17.999999999999972
 50
191.837003999999980
 51
228.162996000000080
  0
ARC
  8
0
  6
CONTINUOUS
 62
256
 10
-484.969162999999980
 20
-132.139138000000000
 40
1.500000000000000
 50
11.837004000000336
 51
90.000000000000000
  0
LINE
  8
0
  6
CONTINUOUS
 62
256
 10
-484.969162999999980
 20
-130.639138000000000
 11
-488.025419000000000
 21
-130.639138000000000
  0
ARC
  8
0
  6
CONTINUOUS
 62
256
 10
-488.025419000000000
 20
-132.139138000000000
 40
1.500000000000000
 50
90.000000000000000
 51
190.240348000000240
  0
ARC
  8
0
  6
CONTINUOUS
 62
256
 10
-465.883828999999990
 20
-128.139138000000000
 40
23.999999999999996
 50
190.240348000000040
 51
229.759652000000020
  0
ARC
  8
0
  6
CONTINUOUS
 62
256
 10
-453.514512000000020
 20
-124.139138000000000
 40
1.500000000000000
 50
270.000000000000000
 51
17.920212999999450
  0
LINE
  8
0
  6
CONTINUOUS
 62
256
 10
-453.514512000000020
 20
-125.639138000000000
 11
-456.718677000000010
 21
-125.639138000000000
  0
ARC
  8
0
  6
CONTINUOUS
 62
256
 10
-456.718677000000010
 20
-124.139138000000000
 40
1.499999999999984
 50
203.578178000000380
 51
270.000000000000000
  0
ARC
  8
0
  6
CONTINUOUS
 62
256
 10
-465.883828999999990
 20
-128.139138000000000
 40
8.499999999999991
 50
23.578178000000058
 51
36.421822000000063
  0
ARC
  8
0
  6
CONTINUOUS
 62
256
 10
-457.837151000000010
 20
-122.201884000000010
 40
1.499999999999975
 50
149.999999999999460
 51
216.421821999999960
  0
LINE
  8
0
  6
CONTINUOUS
 62
256
 10
-459.136190000000000
 20
-121.451884000000010
 11
-457.534107000000010
 21
-118.676995000000010
  0
ARC
  8
0
  6
CONTINUOUS
 62
256
 10
-456.235069000000010
 20
-119.426995000000010
 40
1.499999999999994
 50
42.079787000000181
 51
149.999999999999460
  0
ARC
  8
0
  6
CONTINUOUS
 62
256
 10
-465.883828999999990
 20
-128.139138000000000
 40
14.500000000000014
 50
17.920213000000000
 51
42.079786999999946
  0
ARC
  8
0
  6
CONTINUOUS
 62
256
 10
-443.742238999999980
 20
-124.139138000000000
 40
1.500000000000000
 50
270.000000000000000
 51
10.240347999999715
  0
LINE
  8
0
  6
CONTINUOUS
 62
256
 10
-443.742238999999980
 20
-125.639138000000000
 11
-446.798494000000010
 21
-125.639138000000000
  0
ARC
  8
0
  6
CONTINUOUS
 62
256
 10
-446.798494000000010
 20
-124.139138000000000
 40
1.499999999999997
 50
191.837003999999810
 51
270.000000000000000
  0
ARC
  8
0
  6
CONTINUOUS
 62
256
 10
-465.883828999999990
 20
-128.139138000000000
 40
17.999999999999975
 50
11.837004000000027
 51
48.162996000000071
  0
ARC
  8
0
  6
CONTINUOUS
 62
256
 10
-452.877059999999970
 20
-113.610753000000000
 40
1.499999999999975
 50
149.999999999999460
 51
228.162996000000190
  0
LINE
  8
0
  6
CONTINUOUS
 62
256
 10
-454.176098000000020
 20
-112.860753000000000
 11
-452.647969999999990
 21
-110.213959000000000
  0
ARC
  8
0
  6
CONTINUOUS
 62
256
 10
-451.348931999999990
 20
-110.963959000000000
 40
1.499999999999991
 50
49.759652000000230
 51
150.000000000000540
  0
ARC
  8
0
  6
CONTINUOUS
 62
256
 10
-465.883828999999990
 20
-128.139138000000000
 40
23.999999999999993
 50
10.240347999999988
 51
49.759652000000010
  0
ARC
  8
0
  6
CONTINUOUS
 62
256
 10
-434.134813000000010
 20
-124.139138000000000
 40
1.500000000000000
 50
270.000000000000000
 51
7.180756000000089
  0
LINE
  8
0
  6
CONTINUOUS
 62
256
 10
-434.134813000000010
 20
-125.639138000000000
 11
-437.161016000000020
 21
-125.639138000000000
  0
ARC
  8
0
  6
CONTINUOUS
 62
256
 10
-427.592184999999970
 20
-124.139138000000000
 40
1.500000000000012
 50
185.963569999999780
 51
270.000000000000000
  0
LINE
  8
0
  6
CONTINUOUS
 62
256
 10
-424.577049999999990
 20
-125.639138000000000
 11
-427.592184999999970
 21
-125.639138000000000
  0
LINE
  8
0
  6
CONTINUOUS
 62
256
 10
-488.702282000000030
 20
-162.661858000000000
 11
-487.194713999999980
 21
-160.050673999999990
  0
ARC
  8
0
  6
CONTINUOUS
 62
256
 10
-490.001320000000020
 20
-161.911858000000000
 40
1.499999999999989
 50
234.468928000000520
 51
329.999999999999490
  0
ARC
  8
0
  6
CONTINUOUS
 62
256
 10
-481.565548999999980
 20
-163.300673999999990
 40
1.499999999999986
 50
65.963570000000146
 51
149.999999999999460
  0
LINE
  8
0
  6
CONTINUOUS
 62
256
 10
-484.372155000000020
 20
-165.161858000000000
 11
-482.864586999999970
 21
-162.550673999999990
  0
ARC
  8
0
  6
CONTINUOUS
 62
256
 10
-483.073117000000020
 20
-165.911858000000000
 40
1.500000000000025
 50
150.000000000000540
 51
245.531072000000020
  0
ARC
  8
0
  6
CONTINUOUS
 62
256
 10
-465.883828999999990
 20
-128.139138000000000
 40
43.000000000000021
 50
245.531072000000020
 51
294.468927999999950
  0
ARC
  8
0
  6
CONTINUOUS
 62
256
 10
-465.883828999999990
 20
-128.139138000000000
 40
37.000000000000021
 50
245.963569999999950
 51
294.036429999999940
  0
ARC
  8
0
  6
CONTINUOUS
 62
256
 10
-450.202108000000010
 20
-163.300673999999990
 40
1.499999999999975
 50
30.000000000000544
 51
114.036429999999850
  0
LINE
  8
0
  6
CONTINUOUS
 62
256
 10
-448.903070000000010
 20
-162.550673999999990
 11
-447.395503000000020
 21
-165.161858000000000
  0
ARC
  8
0
  6
CONTINUOUS
 62
256
 10
-448.694541000000020
 20
-165.911858000000000
 40
1.499999999999989
 50
294.468928000000010
 51
30.000000000000544
  0
ARC
  8
0
  6
CONTINUOUS
 62
256
 10
-465.883828999999990
 20
-128.139138000000000
 40
43.000000000000021
 50
305.531071999999990
 51
354.468928000000010
  0
ARC
  8
0
  6
CONTINUOUS
 62
256
 10
-441.766338000000020
 20
-161.911858000000000
 40
1.499999999999975
 50
210.000000000000510
 51
305.531071999999480
  0
ARC
  8
0
  6
CONTINUOUS
 62
256
 10
-427.592184999999970
 20
-132.139138000000000
 40
1.500000000000000
 50
90.000000000000000
 51
174.036430000000220
  0
ARC
  8
0
  6
CONTINUOUS
 62
256
 10
-434.134813000000010
 20
-132.139138000000000
 40
1.500000000000026
 50
352.819244000000480
 51
90.000000000000000
  0
LINE
  8
0
  6
CONTINUOUS
 62
256
 10
-434.134813000000010
 20
-130.639138000000000
 11
-437.161016000000020
 21
-130.639138000000000
  0
LINE
  8
0
  6
CONTINUOUS
 62
256
 10
-444.572943000000010
 20
-160.050673999999990
 11
-443.065376000000010
 21
-162.661858000000000
  0
LINE
  8
0
  6
CONTINUOUS
 62
256
 10
-424.577049999999990
 20
-130.639138000000000
 11
-427.592184999999970
 21
-130.639138000000000
  0
ARC
  8
0
  6
CONTINUOUS
 62
256
 10
-465.883828999999990
 20
-128.139138000000000
 40
27.499999999999986
 50
7.928141999999994
 51
52.071858000000006
  0
ARC
  8
0
  6
CONTINUOUS
 62
256
 10
-465.883828999999990
 20
-128.139138000000000
 40
17.999999999999989
 50
311.837003999999920
 51
348.162996000000020
  0
ARC
  8
0
  6
CONTINUOUS
 62
256
 10
-424.577049999999990
 20
-124.139138000000000
 40
1.500000000000000
 50
270.000000000000000
 51
5.531072000000276
  0
ARC
  8
0
  6
CONTINUOUS
 62
256
 10
-424.577049999999990
 20
-132.139138000000000
 40
1.499999999999977
 50
354.468928000000290
 51
90.000000000000000
  0
ARC
  8
0
  6
CONTINUOUS
 62
256
 10
-706.483829000000010
 20
-128.139138000000000
 40
300.600000000000020
 50
0.000000000000000
 51
8.597081999999999
  0
ARC
  8
0
  6
CONTINUOUS
 62
256
 10
-225.283829000000000
 20
-128.139138000000000
 40
300.600000000000020
 50
180.000000000000000
 51
188.597082000000000
  0
ARC
  8
0
  6
CONTINUOUS
 62
256
 10
-415.787214000000010
 20
-172.087725000000010
 40
6.600000000000017
 50
315.000000000000170
 51
351.402917999999940
  0
ARC
  8
0
  6
CONTINUOUS
 62
256
 10
-706.483829000000010
 20
-128.139138000000000
 40
300.600000000000020
 50
351.402918000000000
 51
0.000000000000000
  0
ARC
  8
0
  6
CONTINUOUS
 62
256
 10
-515.980443000000040
 20
-172.087725000000010
 40
6.600000000000022
 50
188.597082000000030
 51
225.000000000000170
  0
ARC
  8
0
  6
CONTINUOUS
 62
256
 10
-225.283829000000000
 20
-128.139138000000000
 40
300.600000000000020
 50
171.402918000000000
 51
180.000000000000000
  0
ARC
  8
0
  6
CONTINUOUS
 62
256
 10
-515.980443000000040
 20
-84.190550999999999
 40
6.599999999999977
 50
134.999999999999830
 51
171.402918000000080
  0
LINE
  8
0
  6
CONTINUOUS
 62
256
 10
-411.120310000000020
 20
-176.754629999999990
 11
-418.186759000000000
 21
-183.821079000000000
  0
ARC
  8
0
  6
CONTINUOUS
 62
256
 10
-436.995798999999980
 20
-165.012038999999990
 40
26.600000000000009
 50
276.051984999999950
 51
315.000000000000060
  0
LINE
  8
0
  6
CONTINUOUS
 62
256
 10
-411.120310000000020
 20
-79.523645999999999
 11
-418.186759000000000
 21
-72.457196999999994
  0
ARC
  8
0
  6
CONTINUOUS
 62
256
 10
-436.995798999999980
 20
-91.266237000000004
 40
26.600000000000016
 50
44.999999999999957
 51
83.948015000000026
  0
LINE
  8
0
  6
CONTINUOUS
 62
256
 10
-520.647347999999970
 20
-79.523645999999999
 11
-513.580899000000040
 21
-72.457196999999994
  0
ARC
  8
0
  6
CONTINUOUS
 62
256
 10
-465.883828999999990
 20
-363.739138000000030
 40
300.600000000000020
 50
83.948014999999998
 51
96.051985000000002
  0
ARC
  8
0
  6
CONTINUOUS
 62
256
 10
-494.771859000000010
 20
-91.266237000000004
 40
26.599999999999994
 50
96.051984999999974
 51
135.000000000000060
  0
ARC
  8
0
  6
CONTINUOUS
 62
256
 10
-465.883828999999990
 20
107.460862000000010
 40
300.600000000000020
 50
263.948015000000000
 51
276.051985000000000
  0
LINE
  8
0
  6
CONTINUOUS
 62
256
 10
-520.647347999999970
 20
-176.754629999999990
 11
-513.580899000000040
 21
-183.821079000000000
  0
ARC
  8
0
  6
CONTINUOUS
 62
256
 10
-494.771859000000010
 20
-165.012038999999990
 40
26.600000000000016
 50
224.999999999999940
 51
263.948015000000050
  0
ARC
  8
0
  6
CONTINUOUS
 62
256
 10
-436.995798999999980
 20
-91.266237000000004
 40
15.397000000000016
 50
44.999999999999929
 51
83.948015000000069
  0
LINE
  8
0
  6
CONTINUOUS
 62
256
 10
-421.532411000000020
 20
-84.954978999999994
 11
-426.108476000000000
 21
-80.378913999999995
  0
ARC
  8
0
  6
CONTINUOUS
 62
256
 10
-465.883828999999990
 20
-363.739138000000030
 40
289.396999999999990
 50
83.948014999999998
 51
90.000000000000000
  0
ARC
  8
0
  6
CONTINUOUS
 62
256
 10
-706.483829000000010
 20
-128.139138000000000
 40
289.396999999999990
 50
352.102011000000000
 51
360.000000000000000
  0
ARC
  8
0
  6
CONTINUOUS
 62
256
 10
-425.775051000000020
 20
-167.080656000000000
 40
5.999999999999989
 50
314.999999999999770
 51
352.102010999999950
  0
LINE
  8
0
  6
CONTINUOUS
 62
256
 10
-421.532411000000020
 20
-171.323297000000000
 11
-426.108476000000000
 21
-175.899362000000000
  0
ARC
  8
0
  6
CONTINUOUS
 62
256
 10
-436.995798999999980
 20
-165.012038999999990
 40
15.397000000000000
 50
276.051984999999890
 51
314.999999999999940
  0
ARC
  8
0
  6
CONTINUOUS
 62
256
 10
-465.883828999999990
 20
107.460862000000010
 40
289.396999999999990
 50
270.000000000000000
 51
276.051985000000000
  0
ARC
  8
0
  6
CONTINUOUS
 62
256
 10
-225.283829000000000
 20
-128.139138000000000
 40
289.397000000000050
 50
180.000000000000000
 51
187.897988999999970
  0
ARC
  8
0
  6
CONTINUOUS
 62
256
 10
-505.992606000000020
 20
-167.080656000000000
 40
5.999999999999990
 50
187.897989000000000
 51
225.000000000000170
  0
LINE
  8
0
  6
CONTINUOUS
 62
256
 10
-510.235247000000020
 20
-171.323297000000000
 11
-505.659181999999990
 21
-175.899362000000000
  0
ARC
  8
0
  6
CONTINUOUS
 62
256
 10
-494.771859000000010
 20
-165.012038999999990
 40
15.397000000000016
 50
224.999999999999910
 51
263.948015000000110
  0
ARC
  8
0
  6
CONTINUOUS
 62
256
 10
-465.883828999999990
 20
107.460862000000010
 40
289.397000000000050
 50
263.948015000000000
 51
270.000000000000000
  0
ARC
  8
0
  6
CONTINUOUS
 62
256
 10
-225.283829000000000
 20
-128.139138000000000
 40
289.396999999999990
 50
172.102011000000030
 51
180.000000000000000
  0
ARC
  8
0
  6
CONTINUOUS
 62
256
 10
-505.992606000000020
 20
-89.197620000000001
 40
5.999999999999989
 50
134.999999999999830
 51
172.102011000000000
  0
LINE
  8
0
  6
CONTINUOUS
 62
256
 10
-510.235247000000020
 20
-84.954978999999994
 11
-505.659181999999990
 21
-80.378913999999995
  0
ARC
  8
0
  6
CONTINUOUS
 62
256
 10
-494.771859000000010
 20
-91.266237000000004
 40
15.397000000000000
 50
96.051984999999931
 51
135.000000000000090
  0
ARC
  8
0
  6
CONTINUOUS
 62
256
 10
-465.883828999999990
 20
-363.739138000000030
 40
289.396999999999990
 50
90.000000000000000
 51
96.051985000000002
  0
LINE
  8
0
  6
CONTINUOUS
 62
256
 10
-435.891329999999980
 20
-191.639138000000000
 11
-429.883828999999990
 21
-191.639138000000000
  0
LINE
  8
0
  6
CONTINUOUS
 62
256
 10
-495.876328000000000
 20
-191.639138000000000
 11
-501.883828999999990
 21
-191.639138000000000
  0
ARC
  8
0
  6
CONTINUOUS
 62
256
 10
-434.883828999999990
 20
-219.005802999999990
 40
5.000000000000002
 50
276.032049000000030
 51
0.000000000000000
  0
LINE
  8
0
  6
CONTINUOUS
 62
256
 10
-429.883828999999990
 20
-190.445442000000010
 11
-429.883828999999990
 21
-219.005802999999990
  0
LINE
  8
0
  6
CONTINUOUS
 62
256
 10
-501.883828999999990
 20
-190.445442000000010
 11
-501.883828999999990
 21
-219.005802999999990
  0
ARC
  8
0
  6
CONTINUOUS
 62
256
 10
-496.883828999999990
 20
-219.005802999999990
 40
5.000000000000000
 50
180.000000000000000
 51
263.967950999999970
  0
LINE
  8
0
  6
CONTINUOUS
 62
256
 10
-468.383828999999990
 20
-226.139138000000000
 11
-463.383828999999990
 21
-226.139138000000000
  0
LINE
  8
0
  6
CONTINUOUS
 62
256
 10
-463.383828999999990
 20
-225.639136000000010
 11
-463.383828999999990
 21
-226.139138000000000
  0
LINE
  8
0
  6
CONTINUOUS
 62
256
 10
-468.383828999999990
 20
-225.628721000000010
 11
-468.383828999999990
 21
-226.139138000000000
  0
ARC
  8
0
  6
CONTINUOUS
 62
256
 10
-465.883828999999990
 20
74.360861999999997
 40
300.000000000000000
 50
263.967951000000030
 51
276.032048999999970
  0
LINE
  8
0
  6
DASHDOT
 62
256
 10
-531.889111999999950
 20
-128.139138000000000
 11
-401.054600999999990
 21
-128.139138000000000
  0
LINE
  8
0
  6
DASHDOT
 62
256
 10
-465.883828999999990
 20
-54.485559000000002
 11
-465.883828999999990
 21
-235.563523000000000
  0
ARC
  8
0
  6
CONTINUOUS
 62
256
 10
-406.883828999999990
 20
-108.639138000000000
 40
0.500000000000000
 50
0.000000000000000
 51
46.689569999997964
  0
LINE
  8
0
  6
CONTINUOUS
 62
256
 10
-406.383828999999990
 20
-110.808528999999990
 11
-406.383828999999990
 21
-108.639138000000000
  0
LINE
  8
0
  6
CONTINUOUS
 62
256
 10
-406.383828999999990
 20
-145.469747000000010
 11
-406.383828999999990
 21
-147.639138000000000
  0
ARC
  8
0
  6
CONTINUOUS
 62
256
 10
-406.883828999999990
 20
-147.639138000000000
 40
0.500000000000026
 50
313.310430000000960
 51
0.000000000000000
  0
LINE
  8
0
  6
CONTINUOUS
 62
256
 10
-525.383828999999990
 20
-145.469747000000010
 11
-525.383828999999990
 21
-147.639138000000000
  0
ARC
  8
0
  6
CONTINUOUS
 62
256
 10
-524.883828999999990
 20
-147.639138000000000
 40
0.500000000000000
 50
180.000000000000000
 51
226.689570000003810
  0
LINE
  8
0
  6
CONTINUOUS
 62
256
 10
-525.383828999999990
 20
-110.808528999999990
 11
-525.383828999999990
 21
-108.639138000000000
  0
ARC
  8
0
  6
CONTINUOUS
 62
256
 10
-524.883828999999990
 20
-108.639138000000000
 40
0.499999999999976
 50
133.310429999997300
 51
180.000000000000000
  0
LINE
  8
0
  6
CONTINUOUS
 62
256
 10
-416.883828999999990
 20
-59.639138000000003
 11
-416.883828999999990
 21
-73.760126999999997
  0
LINE
  8
0
  6
CONTINUOUS
 62
256
 10
-429.883828999999990
 20
-59.139138000000003
 11
-417.383828999999990
 21
-59.139138000000003
  0
LINE
  8
0
  6
CONTINUOUS
 62
256
 10
-417.383828999999990
 20
-59.139138000000003
 11
-416.883828999999990
 21
-59.639138000000003
  0
LINE
  8
0
  6
CONTINUOUS
 62
256
 10
-413.283829000000030
 20
-73.639138000000003
 11
-412.883828999999990
 21
-74.039137999999994
  0
LINE
  8
0
  6
CONTINUOUS
 62
256
 10
-413.283829000000030
 20
-73.639138000000003
 11
-416.883828999999990
 21
-73.639138000000003
  0
LINE
  8
0
  6
CONTINUOUS
 62
256
 10
-412.883828999999990
 20
-74.039137999999994
 11
-412.883828999999990
 21
-77.760126999999997
  0
LINE
  8
0
  6
CONTINUOUS
 62
256
 10
-429.883828999999990
 20
-65.634618000000003
 11
-429.883828999999990
 21
-59.139138000000003
  0
LINE
  8
0
  6
CONTINUOUS
 62
256
 10
-429.883828999999990
 20
-59.139138000000003
 11
-514.883828999999990
 21
-60.640273999999998
  0
LINE
  8
0
  6
CONTINUOUS
 62
256
 10
-429.883828999999990
 20
-59.139138000000003
 11
-514.883828999999990
 21
-60.640273999999998
  0
LINE
  8
0
  6
CONTINUOUS
 62
256
 10
-429.883828999999990
 20
-59.139138000000003
 11
-514.883828999999990
 21
-60.640273999999998
  0
LINE
  8
0
  6
CONTINUOUS
 62
256
 10
-429.883828999999990
 20
-59.139138000000003
 11
-514.883828999999990
 21
-60.640273999999998
  0
LINE
  8
0
  6
CONTINUOUS
 62
256
 10
-429.883828999999990
 20
-59.139138000000003
 11
-514.883828999999990
 21
-60.640273999999998
  0
LINE
  8
0
  6
CONTINUOUS
 62
256
 10
-429.883828999999990
 20
-59.139138000000003
 11
-514.883828999999990
 21
-60.640273999999998
  0
LINE
  8
0
  6
CONTINUOUS
 62
256
 10
-429.883828999999990
 20
-59.139138000000003
 11
-514.883828999999990
 21
-60.640273999999998
  0
LINE
  8
0
  6
CONTINUOUS
 62
256
 10
-429.883828999999990
 20
-59.139138000000003
 11
-514.883828999999990
 21
-60.640273999999998
  0
LINE
  8
0
  6
CONTINUOUS
 62
256
 10
-429.883828999999990
 20
-59.139138000000003
 11
-514.883828999999990
 21
-60.640273999999998
  0
LINE
  8
0
  6
CONTINUOUS
 62
256
 10
-429.883828999999990
 20
-59.139138000000003
 11
-514.883828999999990
 21
-60.640273999999998
  0
LINE
  8
0
  6
CONTINUOUS
 62
256
 10
-429.883828999999990
 20
-59.139138000000003
 11
-514.883828999999990
 21
-60.640273999999998
  0
LINE
  8
0
  6
CONTINUOUS
 62
256
 10
-429.883828999999990
 20
-59.139138000000003
 11
-514.883828999999990
 21
-60.640273999999998
  0
LINE
  8
0
  6
CONTINUOUS
 62
256
 10
-429.883828999999990
 20
-59.139138000000003
 11
-514.883828999999990
 21
-60.640273999999998
  0
LINE
  8
0
  6
CONTINUOUS
 62
256
 10
-429.883828999999990
 20
-59.139138000000003
 11
-514.883828999999990
 21
-60.640273999999998
  0
LINE
  8
0
  6
CONTINUOUS
 62
256
 10
-429.883828999999990
 20
-59.139138000000003
 11
-514.883828999999990
 21
-60.640273999999998
  0
LINE
  8
0
  6
CONTINUOUS
 62
256
 10
-514.883828999999990
 20
-73.760126999999997
 11
-514.883828999999990
 21
-60.640273999999998
  0
LINE
  8
0
  6
CONTINUOUS
 62
256
 10
-518.883828999999990
 20
-77.760126999999997
 11
-518.883828999999990
 21
-73.639138000000003
  0
LINE
  8
0
  6
CONTINUOUS
 62
256
 10
-518.883828999999990
 20
-73.639138000000003
 11
-518.383828999999990
 21
-73.139138000000003
  0
LINE
  8
0
  6
CONTINUOUS
 62
256
 10
-514.883828999999990
 20
-73.139138000000003
 11
-518.383828999999990
 21
-73.139138000000003
  0
LINE
  8
0
  6
CONTINUOUS
 62
256
 10
-336.085649999999990
 20
165.176569000000000
 11
-336.085649999999990
 21
117.733363999999990
  0
LINE
  8
0
  6
CONTINUOUS
 62
256
 10
-325.251201999999980
 20
108.793527999999990
 11
-334.976947999999990
 21
115.603568000000000
  0
ARC
  8
0
  6
CONTINUOUS
 62
256
 10
-333.485650000000020
 20
117.733363999999990
 40
2.600000000000023
 50
180.000000000000000
 51
234.999999999999940
  0
LINE
  8
0
  6
CONTINUOUS
 62
256
 10
-336.085649999999990
 20
165.176569000000000
 11
-336.085649999999990
 21
212.619774000000010
  0
LINE
  8
0
  6
CONTINUOUS
 62
256
 10
-325.251201999999980
 20
221.559609999999990
 11
-334.976947999999990
 21
214.749569000000010
  0
ARC
  8
0
  6
CONTINUOUS
 62
256
 10
-333.485650000000020
 20
212.619774000000010
 40
2.599999999999996
 50
125.000000000000210
 51
180.000000000000000
  0
POLYLINE
  8
0
  6
CONTINUOUS
 62
256
 66
1
 70
1
  0
VERTEX
  8
0
  6
CONTINUOUS
 62
256
 10
-239.385650000000000
 20
113.253044000000000
  0
VERTEX
  8
0
  6
CONTINUOUS
 62
256
 10
-239.475959182104820
 20
113.956000510558170
  0
VERTEX
  8
0
  6
CONTINUOUS
 62
256
 10
-239.743416197196950
 20
114.631942796638140
  0
VERTEX
  8
0
  6
CONTINUOUS
 62
256
 10
-240.177742822178030
 20
115.254894775258660
  0
VERTEX
  8
0
  6
CONTINUOUS
 62
256
 10
-240.762248128423210
 20
115.800916751236850
  0
VERTEX
  8
0
  6
CONTINUOUS
 62
256
 10
-241.474469904807880
 20
116.249025406248490
  0
VERTEX
  8
0
  6
CONTINUOUS
 62
256
 10
-242.287037867884070
 20
116.582000175983750
  0
VERTEX
  8
0
  6
CONTINUOUS
 62
256
 10
-243.168725486524180
 20
116.787045026776070
  0
VERTEX
  8
0
  6
CONTINUOUS
 62
256
 10
-244.085649999999990
 20
116.856280200000000
  0
VERTEX
  8
0
  6
CONTINUOUS
 62
256
 10
-245.002574513475790
 20
116.787045026776070
  0
VERTEX
  8
0
  6
CONTINUOUS
 62
256
 10
-245.884262132115910
 20
116.582000175983750
  0
VERTEX
  8
0
  6
CONTINUOUS
 62
256
 10
-246.696830095192100
 20
116.249025406248490
  0
VERTEX
  8
0
  6
CONTINUOUS
 62
256
 10
-247.409051871576760
 20
115.800916751236850
  0
VERTEX
  8
0
  6
CONTINUOUS
 62
256
 10
-247.993557177821940
 20
115.254894775258660
  0
VERTEX
  8
0
  6
CONTINUOUS
 62
256
 10
-248.427883802803020
 20
114.631942796638140
  0
VERTEX
  8
0
  6
CONTINUOUS
 62
256
 10
-248.695340817895160
 20
113.956000510558170
  0
VERTEX
  8
0
  6
CONTINUOUS
 62
256
 10
-248.785649999999980
 20
113.253044000000000
  0
VERTEX
  8
0
  6
CONTINUOUS
 62
256
 10
-248.695340817895160
 20
112.550087489441840
  0
VERTEX
  8
0
  6
CONTINUOUS
 62
256
 10
-248.427883802803020
 20
111.874145203361860
  0
VERTEX
  8
0
  6
CONTINUOUS
 62
256
 10
-247.993557177821940
 20
111.251193224741340
  0
VERTEX
  8
0
  6
CONTINUOUS
 62
256
 10
-247.409051871576760
 20
110.705171248763160
  0
VERTEX
  8
0
  6
CONTINUOUS
 62
256
 10
-246.696830095192100
 20
110.257062593751510
  0
VERTEX
  8
0
  6
CONTINUOUS
 62
256
 10
-245.884262132115910
 20
109.924087824016250
  0
VERTEX
  8
0
  6
CONTINUOUS
 62
256
 10
-245.002574513475790
 20
109.719042973223940
  0
VERTEX
  8
0
  6
CONTINUOUS
 62
256
 10
-244.085649999999990
 20
109.649807800000000
  0
VERTEX
  8
0
  6
CONTINUOUS
 62
256
 10
-243.168725486524180
 20
109.719042973223940
  0
VERTEX
  8
0
  6
CONTINUOUS
 62
256
 10
-242.287037867884070
 20
109.924087824016250
  0
VERTEX
  8
0
  6
CONTINUOUS
 62
256
 10
-241.474469904807880
 20
110.257062593751510
  0
VERTEX
  8
0
  6
CONTINUOUS
 62
256
 10
-240.762248128423240
 20
110.705171248763150
  0
VERTEX
  8
0
  6
CONTINUOUS
 62
256
 10
-240.177742822178030
 20
111.251193224741340
  0
VERTEX
  8
0
  6
CONTINUOUS
 62
256
 10
-239.743416197196950
 20
111.874145203361860
  0
VERTEX
  8
0
  6
CONTINUOUS
 62
256
 10
-239.475959182104820
 20
112.550087489441840
  0
SEQEND
  8
0
  6
CONTINUOUS
 62
256
  0
LINE
  8
0
  6
CONTINUOUS
 62
256
 10
-246.085649999999990
 20
110.260668000000000
 11
-244.085649999999990
 21
111.436454000000000
  0
LINE
  8
0
  6
CONTINUOUS
 62
256
 10
-244.085649999999990
 20
111.436454000000000
 11
-242.085649999999990
 21
113.089095000000000
  0
LINE
  8
0
  6
CONTINUOUS
 62
256
 10
-242.085649999999990
 20
110.260668000000000
 11
-244.085649999999990
 21
111.436454000000000
  0
LINE
  8
0
  6
CONTINUOUS
 62
256
 10
-244.085649999999990
 20
111.436454000000000
 11
-246.085649999999990
 21
113.089095000000000
  0
LINE
  8
0
  6
CONTINUOUS
 62
256
 10
-233.085649999999990
 20
105.176569000000000
 11
-313.779674000000000
 21
105.176569000000000
  0
ARC
  8
0
  6
CONTINUOUS
 62
256
 10
-313.779674000000000
 20
125.176569000000000
 40
20.000000000000007
 50
234.999999999999940
 51
270.000000000000000
  0
LINE
  8
0
  6
CONTINUOUS
 62
256
 10
-233.085649999999990
 20
114.861035000000000
 11
-136.085649999999990
 21
114.861035000000000
  0
LINE
  8
0
  6
CONTINUOUS
 62
256
 10
-233.085649999999990
 20
119.810782000000000
 11
-136.085649999999990
 21
119.810782000000000
  0
LINE
  8
0
  6
CONTINUOUS
 62
256
 10
-233.085649999999990
 20
222.176569000000000
 11
-136.085649999999990
 21
222.176569000000000
  0
LINE
  8
0
  6
CONTINUOUS
 62
256
 10
-233.085649999999990
 20
222.676569000000000
 11
-136.085649999999990
 21
222.676569000000000
  0
LINE
  8
0
  6
CONTINUOUS
 62
256
 10
-233.085649999999990
 20
221.176569000000000
 11
-136.085649999999990
 21
221.176569000000000
  0
LINE
  8
0
  6
CONTINUOUS
 62
256
 10
-233.085649999999990
 20
220.176569000000000
 11
-136.085649999999990
 21
220.176569000000000
  0
LINE
  8
0
  6
CONTINUOUS
 62
256
 10
-233.085649999999990
 20
215.492102999999990
 11
-136.085649999999990
 21
215.492102999999990
  0
LINE
  8
0
  6
CONTINUOUS
 62
256
 10
-233.085649999999990
 20
210.542356000000010
 11
-136.085649999999990
 21
210.542356000000010
  0
LINE
  8
0
  6
CONTINUOUS
 62
256
 10
-136.085649999999990
 20
223.676569000000000
 11
-233.085649999999990
 21
223.676569000000000
  0
LINE
  8
0
  6
CONTINUOUS
 62
256
 10
-233.085649999999990
 20
225.176569000000000
 11
-313.779674000000000
 21
225.176569000000000
  0
ARC
  8
0
  6
CONTINUOUS
 62
256
 10
-313.779674000000000
 20
205.176569000000000
 40
20.000000000000000
 50
90.000000000000000
 51
125.000000000000060
  0
LINE
  8
0
  6
CONTINUOUS
 62
256
 10
-233.085649999999990
 20
107.676569000000000
 11
-136.085649999999990
 21
107.676569000000000
  0
LINE
  8
0
  6
CONTINUOUS
 62
256
 10
-233.085649999999990
 20
108.176569000000000
 11
-136.085649999999990
 21
108.176569000000000
  0
LINE
  8
0
  6
CONTINUOUS
 62
256
 10
-233.085649999999990
 20
109.176569000000000
 11
-136.085649999999990
 21
109.176569000000000
  0
LINE
  8
0
  6
CONTINUOUS
 62
256
 10
-233.085649999999990
 20
110.176569000000000
 11
-136.085649999999990
 21
110.176569000000000
  0
POLYLINE
  8
0
  6
CONTINUOUS
 62
256
 66
1
 70
1
  0
VERTEX
  8
0
  6
CONTINUOUS
 62
256
 10
-239.385650000000000
 20
217.100094000000010
  0
VERTEX
  8
0
  6
CONTINUOUS
 62
256
 10
-239.475959182104820
 20
217.803050510558190
  0
VERTEX
  8
0
  6
CONTINUOUS
 62
256
 10
-239.743416197196950
 20
218.478992796638150
  0
VERTEX
  8
0
  6
CONTINUOUS
 62
256
 10
-240.177742822178030
 20
219.101944775258690
  0
VERTEX
  8
0
  6
CONTINUOUS
 62
256
 10
-240.762248128423210
 20
219.647966751236850
  0
VERTEX
  8
0
  6
CONTINUOUS
 62
256
 10
-241.474469904807880
 20
220.096075406248500
  0
VERTEX
  8
0
  6
CONTINUOUS
 62
256
 10
-242.287037867884070
 20
220.429050175983750
  0
VERTEX
  8
0
  6
CONTINUOUS
 62
256
 10
-243.168725486524180
 20
220.634095026776090
  0
VERTEX
  8
0
  6
CONTINUOUS
 62
256
 10
-244.085649999999990
 20
220.703330200000010
  0
VERTEX
  8
0
  6
CONTINUOUS
 62
256
 10
-245.002574513475790
 20
220.634095026776090
  0
VERTEX
  8
0
  6
CONTINUOUS
 62
256
 10
-245.884262132115910
 20
220.429050175983750
  0
VERTEX
  8
0
  6
CONTINUOUS
 62
256
 10
-246.696830095192100
 20
220.096075406248500
  0
VERTEX
  8
0
  6
CONTINUOUS
 62
256
 10
-247.409051871576760
 20
219.647966751236850
  0
VERTEX
  8
0
  6
CONTINUOUS
 62
256
 10
-247.993557177821940
 20
219.101944775258690
  0
VERTEX
  8
0
  6
CONTINUOUS
 62
256
 10
-248.427883802803020
 20
218.478992796638150
  0
VERTEX
  8
0
  6
CONTINUOUS
 62
256
 10
-248.695340817895160
 20
217.803050510558190
  0
VERTEX
  8
0
  6
CONTINUOUS
 62
256
 10
-248.785649999999980
 20
217.100094000000010
  0
VERTEX
  8
0
  6
CONTINUOUS
 62
256
 10
-248.695340817895160
 20
216.397137489441830
  0
VERTEX
  8
0
  6
CONTINUOUS
 62
256
 10
-248.427883802803020
 20
215.721195203361870
  0
VERTEX
  8
0
  6
CONTINUOUS
 62
256
 10
-247.993557177821940
 20
215.098243224741340
  0
VERTEX
  8
0
  6
CONTINUOUS
 62
256
 10
-247.409051871576760
 20
214.552221248763170
  0
VERTEX
  8
0
  6
CONTINUOUS
 62
256
 10
-246.696830095192100
 20
214.104112593751520
  0
VERTEX
  8
0
  6
CONTINUOUS
 62
256
 10
-245.884262132115910
 20
213.771137824016280
  0
VERTEX
  8
0
  6
CONTINUOUS
 62
256
 10
-245.002574513475790
 20
213.566092973223960
  0
VERTEX
  8
0
  6
CONTINUOUS
 62
256
 10
-244.085649999999990
 20
213.496857800000020
  0
VERTEX
  8
0
  6
CONTINUOUS
 62
256
 10
-243.168725486524180
 20
213.566092973223960
  0
VERTEX
  8
0
  6
CONTINUOUS
 62
256
 10
-242.287037867884070
 20
213.771137824016280
  0
VERTEX
  8
0
  6
CONTINUOUS
 62
256
 10
-241.474469904807880
 20
214.104112593751520
  0
VERTEX
  8
0
  6
CONTINUOUS
 62
256
 10
-240.762248128423240
 20
214.552221248763170
  0
VERTEX
  8
0
  6
CONTINUOUS
 62
256
 10
-240.177742822178030
 20
215.098243224741340
  0
VERTEX
  8
0
  6
CONTINUOUS
 62
256
 10
-239.743416197196950
 20
215.721195203361870
  0
VERTEX
  8
0
  6
CONTINUOUS
 62
256
 10
-239.475959182104820
 20
216.397137489441830
  0
SEQEND
  8
0
  6
CONTINUOUS
 62
256
  0
LINE
  8
0
  6
CONTINUOUS
 62
256
 10
-246.085649999999990
 20
220.092468999999990
 11
-244.085649999999990
 21
218.916684000000000
  0
LINE
  8
0
  6
CONTINUOUS
 62
256
 10
-244.085649999999990
 20
218.916684000000000
 11
-242.085649999999990
 21
217.264041999999990
  0
LINE
  8
0
  6
CONTINUOUS
 62
256
 10
-242.085649999999990
 20
220.092468999999990
 11
-244.085649999999990
 21
218.916684000000000
  0
LINE
  8
0
  6
CONTINUOUS
 62
256
 10
-244.085649999999990
 20
218.916684000000000
 11
-246.085649999999990
 21
217.264041999999990
  0
LINE
  8
0
  6
CONTINUOUS
 62
256
 10
-136.085649999999990
 20
106.676569000000000
 11
-233.085649999999990
 21
106.676569000000000
  0
LINE
  8
0
  6
CONTINUOUS
 62
256
 10
-233.085649999999990
 20
165.176569000000000
 11
-233.085649999999990
 21
225.176569000000000
  0
LINE
  8
0
  6
CONTINUOUS
 62
256
 10
-233.085649999999990
 20
165.176569000000000
 11
-233.085649999999990
 21
105.176569000000000
  0
LINE
  8
0
  6
CONTINUOUS
 62
256
 10
-233.085649999999990
 20
202.495754000000010
 11
-136.085649999999990
 21
202.495754000000010
  0
LINE
  8
0
  6
CONTINUOUS
 62
256
 10
-233.085649999999990
 20
127.857384000000000
 11
-136.085649999999990
 21
127.857384000000000
  0
LINE
  8
0
  6
CONTINUOUS
 62
256
 10
-233.085649999999990
 20
200.891106000000010
 11
-136.085649999999990
 21
200.891106000000010
  0
LINE
  8
0
  6
CONTINUOUS
 62
256
 10
-233.085649999999990
 20
196.927360999999990
 11
-136.085649999999990
 21
196.927360999999990
  0
LINE
  8
0
  6
CONTINUOUS
 62
256
 10
-233.085649999999990
 20
185.176569000000000
 11
-136.085649999999990
 21
185.176569000000000
  0
LINE
  8
0
  6
CONTINUOUS
 62
256
 10
-233.085649999999990
 20
191.368503000000000
 11
-136.085649999999990
 21
191.368503000000000
  0
LINE
  8
0
  6
CONTINUOUS
 62
256
 10
-233.085649999999990
 20
190.006621999999990
 11
-136.085649999999990
 21
190.006621999999990
  0
LINE
  8
0
  6
CONTINUOUS
 62
256
 10
-233.085649999999990
 20
195.459003000000000
 11
-136.085649999999990
 21
195.459003000000000
  0
LINE
  8
0
  6
CONTINUOUS
 62
256
 10
-233.085649999999990
 20
129.462031999999990
 11
-136.085649999999990
 21
129.462031999999990
  0
LINE
  8
0
  6
CONTINUOUS
 62
256
 10
-233.085649999999990
 20
138.984635000000000
 11
-136.085649999999990
 21
138.984635000000000
  0
LINE
  8
0
  6
CONTINUOUS
 62
256
 10
-233.085649999999990
 20
145.176569000000000
 11
-136.085649999999990
 21
145.176569000000000
  0
LINE
  8
0
  6
CONTINUOUS
 62
256
 10
-233.085649999999990
 20
134.894134000000010
 11
-136.085649999999990
 21
134.894134000000010
  0
LINE
  8
0
  6
CONTINUOUS
 62
256
 10
-233.085649999999990
 20
140.346515000000010
 11
-136.085649999999990
 21
140.346515000000010
  0
LINE
  8
0
  6
CONTINUOUS
 62
256
 10
-233.085649999999990
 20
133.425777000000010
 11
-136.085649999999990
 21
133.425777000000010
  0
ARC
  8
0
  6
CONTINUOUS
 62
256
 10
11.415238000000000
 20
221.175679000000000
 40
1.000000000000000
 50
0.000000000000000
 51
90.000000000000000
  0
LINE
  8
0
  6
CONTINUOUS
 62
256
 10
11.415238000000000
 20
222.175679000000000
 11
-9.584762000000000
 21
222.175679000000000
  0
LINE
  8
0
  6
CONTINUOUS
 62
256
 10
12.415238000000000
 20
218.176680000000000
 11
12.415238000000000
 21
221.175679000000000
  0
ARC
  8
0
  6
CONTINUOUS
 62
256
 10
-30.585830000000001
 20
221.175679000000000
 40
1.000000000000000
 50
90.000000000000000
 51
180.000000000000000
  0
LINE
  8
0
  6
CONTINUOUS
 62
256
 10
-30.585830000000001
 20
222.175679000000000
 11
-9.585830000000000
 21
222.175679000000000
  0
LINE
  8
0
  6
CONTINUOUS
 62
256
 10
-31.585830000000001
 20
218.176680000000000
 11
-31.585830000000001
 21
221.175679000000000
  0
LINE
  8
0
  6
CONTINUOUS
 62
256
 10
12.415238000000000
 20
112.176458000000000
 11
12.415238000000000
 21
109.177458000000000
  0
ARC
  8
0
  6
CONTINUOUS
 62
256
 10
11.415238000000000
 20
109.177458000000000
 40
1.000000000000000
 50
270.000000000000000
 51
0.000000000000000
  0
LINE
  8
0
  6
CONTINUOUS
 62
256
 10
11.415238000000000
 20
108.177458000000000
 11
-9.584762000000000
 21
108.177458000000000
  0
ARC
  8
0
  6
CONTINUOUS
 62
256
 10
-30.585830000000001
 20
109.177458000000000
 40
1.000000000000000
 50
180.000000000000000
 51
270.000000000000000
  0
LINE
  8
0
  6
CONTINUOUS
 62
256
 10
-30.585830000000001
 20
108.177458000000000
 11
-9.585830000000000
 21
108.177458000000000
  0
LINE
  8
0
  6
CONTINUOUS
 62
256
 10
-31.585830000000001
 20
112.176458000000000
 11
-31.585830000000001
 21
109.177458000000000
  0
LINE
  8
0
  6
CONTINUOUS
 62
256
 10
-10.585296000000000
 20
125.176569000000000
 11
-10.585296000000000
 21
116.176569000000000
  0
LINE
  8
0
  6
CONTINUOUS
 62
256
 10
-8.585296000000000
 20
125.176569000000000
 11
-8.585296000000000
 21
116.176569000000000
  0
ARC
  8
0
  6
CONTINUOUS
 62
256
 10
-9.585296000000000
 20
125.176569000000000
 40
1.000000000000000
 50
0.000000000000000
 51
180.000000000000000
  0
LINE
  8
0
  6
CONTINUOUS
 62
256
 10
-51.685296000000001
 20
112.176458000000000
 11
-9.585296000000000
 21
112.176458000000000
  0
LINE
  8
0
  6
CONTINUOUS
 62
256
 10
-52.085296000000000
 20
112.576458000000000
 11
-52.085296000000000
 21
116.176569000000000
  0
LINE
  8
0
  6
CONTINUOUS
 62
256
 10
-9.585296000000000
 20
116.176569000000000
 11
-110.621472000000000
 21
116.176569000000000
  0
LINE
  8
0
  6
CONTINUOUS
 62
256
 10
-51.685296000000001
 20
112.176458000000000
 11
-52.085296000000000
 21
112.576458000000000
  0
LINE
  8
0
  6
CONTINUOUS
 62
256
 10
-9.585296000000000
 20
129.176569000000000
 11
-111.585438999999990
 21
129.176569000000000
  0
LINE
  8
0
  6
CONTINUOUS
 62
256
 10
-9.585296000000000
 20
129.176569000000000
 11
47.414847000000002
 21
129.176569000000000
  0
LINE
  8
0
  6
CONTINUOUS
 62
256
 10
32.514704000000002
 20
112.176458000000000
 11
-9.585296000000000
 21
112.176458000000000
  0
LINE
  8
0
  6
CONTINUOUS
 62
256
 10
-9.585296000000000
 20
116.176569000000000
 11
46.450879999999998
 21
116.176569000000000
  0
LINE
  8
0
  6
CONTINUOUS
 62
256
 10
32.914704000000000
 20
112.576458000000000
 11
32.914704000000000
 21
116.176569000000000
  0
LINE
  8
0
  6
CONTINUOUS
 62
256
 10
32.514704000000002
 20
112.176458000000000
 11
32.914704000000000
 21
112.576458000000000
  0
LINE
  8
0
  6
CONTINUOUS
 62
256
 10
-136.085649999999990
 20
105.676569000000000
 11
-136.085649999999990
 21
165.176569000000000
  0
LINE
  8
0
  6
CONTINUOUS
 62
256
 10
-136.085649999999990
 20
224.676569000000000
 11
-136.085649999999990
 21
165.176569000000000
  0
ARC
  8
0
  6
CONTINUOUS
 62
256
 10
-9.585296000000000
 20
133.176569000000000
 40
1.000000000000000
 50
180.000000000000000
 51
0.000000000000000
  0
LINE
  8
0
  6
CONTINUOUS
 62
256
 10
-8.585296000000000
 20
133.176569000000000
 11
-8.585296000000000
 21
214.176569000000000
  0
LINE
  8
0
  6
CONTINUOUS
 62
256
 10
-10.585296000000000
 20
133.176569000000000
 11
-10.585296000000000
 21
214.176569000000000
  0
LINE
  8
0
  6
CONTINUOUS
 62
256
 10
-9.585296000000000
 20
218.176569000000000
 11
32.514704000000002
 21
218.176569000000000
  0
LINE
  8
0
  6
CONTINUOUS
 62
256
 10
-9.585296000000000
 20
214.176569000000000
 11
45.431100000000001
 21
214.176569000000000
  0
LINE
  8
0
  6
CONTINUOUS
 62
256
 10
47.414704000000000
 20
129.176569000000000
 11
-111.585296000000000
 21
129.176569000000000
  0
LINE
  8
0
  6
CONTINUOUS
 62
256
 10
32.914704000000000
 20
214.176569000000000
 11
32.914704000000000
 21
217.776568999999990
  0
LINE
  8
0
  6
CONTINUOUS
 62
256
 10
32.514704000000002
 20
218.176569000000000
 11
32.914704000000000
 21
217.776568999999990
  0
LINE
  8
0
  6
CONTINUOUS
 62
256
 10
-52.085296000000000
 20
214.176569000000000
 11
-52.085296000000000
 21
217.776568999999990
  0
LINE
  8
0
  6
CONTINUOUS
 62
256
 10
-51.685296000000001
 20
218.176569000000000
 11
-52.085296000000000
 21
217.776568999999990
  0
LINE
  8
0
  6
CONTINUOUS
 62
256
 10
-9.585296000000000
 20
218.176569000000000
 11
-51.685296000000001
 21
218.176569000000000
  0
LINE
  8
0
  6
CONTINUOUS
 62
256
 10
-9.585296000000000
 20
214.176569000000000
 11
-109.601692000000000
 21
214.176569000000000
  0
LINE
  8
0
  6
CONTINUOUS
 62
256
 10
46.968395999999998
 20
116.675932000000000
 11
47.414847000000002
 21
129.176569000000000
  0
LINE
  8
0
  6
CONTINUOUS
 62
256
 10
-111.138988000000000
 20
116.675932000000000
 11
-111.585438999999990
 21
129.176569000000000
  0
LINE
  8
0
  6
CONTINUOUS
 62
256
 10
-110.621472000000000
 20
116.176569000000000
 11
-111.138988000000000
 21
116.675932000000000
  0
LINE
  8
0
  6
CONTINUOUS
 62
256
 10
46.450879999999998
 20
116.176569000000000
 11
46.968395999999998
 21
116.675932000000000
  0
ARC
  8
0
  6
CONTINUOUS
 62
256
 10
-122.085650000000000
 20
118.080260999999990
 40
5.000000000000000
 50
270.000000000000000
 51
0.000000000000000
  0
ARC
  8
0
  6
CONTINUOUS
 62
256
 10
-122.085650000000000
 20
124.991838000000000
 40
5.000000000000000
 50
270.000000000000000
 51
0.000000000000000
  0
ARC
  8
0
  6
CONTINUOUS
 62
256
 10
-120.085650000000000
 20
108.676569000000000
 40
3.000000000000000
 50
270.000000000000000
 51
0.000000000000000
  0
LINE
  8
0
  6
CONTINUOUS
 62
256
 10
-120.085650000000000
 20
105.676569000000000
 11
-136.085649999999990
 21
105.676569000000000
  0
LINE
  8
0
  6
CONTINUOUS
 62
256
 10
-127.085650000000000
 20
119.991838000000000
 11
-122.085650000000000
 21
119.991838000000000
  0
LINE
  8
0
  6
CONTINUOUS
 62
256
 10
-130.085649999999990
 20
109.676569000000000
 11
-130.085649999999990
 21
110.080260999999990
  0
LINE
  8
0
  6
CONTINUOUS
 62
256
 10
-127.085650000000000
 20
113.080260999999990
 11
-122.085650000000000
 21
113.080260999999990
  0
LINE
  8
0
  6
CONTINUOUS
 62
256
 10
-127.085650000000000
 20
126.175302000000000
 11
-122.085650000000000
 21
126.175302000000000
  0
LINE
  8
0
  6
CONTINUOUS
 62
256
 10
-130.085649999999990
 20
109.676569000000000
 11
-130.085649999999990
 21
108.676569000000000
  0
ARC
  8
0
  6
CONTINUOUS
 62
256
 10
-127.085650000000000
 20
129.175301999999990
 40
2.999999999999986
 50
180.000000000000000
 51
270.000000000000000
  0
ARC
  8
0
  6
CONTINUOUS
 62
256
 10
-127.085650000000000
 20
122.991838000000000
 40
2.999999999999986
 50
180.000000000000000
 51
270.000000000000000
  0
ARC
  8
0
  6
CONTINUOUS
 62
256
 10
-127.085650000000000
 20
110.080260999999990
 40
3.000000000000000
 50
90.000000000000000
 51
180.000000000000000
  0
ARC
  8
0
  6
CONTINUOUS
 62
256
 10
-133.085649999999990
 20
108.676569000000000
 40
3.000000000000000
 50
270.000000000000000
 51
0.000000000000000
  0
LINE
  8
0
  6
CONTINUOUS
 62
256
 10
-130.085649999999990
 20
185.176569000000000
 11
-136.085649999999990
 21
185.176569000000000
  0
LINE
  8
0
  6
CONTINUOUS
 62
256
 10
-130.085649999999990
 20
122.991838000000000
 11
-130.085649999999990
 21
165.176569000000000
  0
LINE
  8
0
  6
CONTINUOUS
 62
256
 10
-130.085649999999990
 20
145.176569000000000
 11
-136.085649999999990
 21
145.176569000000000
  0
ARC
  8
0
  6
CONTINUOUS
 62
256
 10
-122.085650000000000
 20
205.361300000000000
 40
5.000000000000000
 50
0.000000000000000
 51
90.000000000000000
  0
ARC
  8
0
  6
CONTINUOUS
 62
256
 10
-122.085650000000000
 20
212.272876000000000
 40
5.000000000000000
 50
0.000000000000000
 51
90.000000000000000
  0
ARC
  8
0
  6
CONTINUOUS
 62
256
 10
-120.085650000000000
 20
221.676569000000000
 40
3.000000000000000
 50
0.000000000000000
 51
90.000000000000000
  0
LINE
  8
0
  6
CONTINUOUS
 62
256
 10
-117.085650000000000
 20
221.676569000000000
 11
-117.085650000000000
 21
108.676569000000000
  0
LINE
  8
0
  6
CONTINUOUS
 62
256
 10
-120.085650000000000
 20
224.676569000000000
 11
-136.085649999999990
 21
224.676569000000000
  0
LINE
  8
0
  6
CONTINUOUS
 62
256
 10
-130.085649999999990
 20
207.361300000000000
 11
-130.085649999999990
 21
165.176569000000000
  0
LINE
  8
0
  6
CONTINUOUS
 62
256
 10
-127.085650000000000
 20
204.177836000000010
 11
-122.085650000000000
 21
204.177836000000010
  0
LINE
  8
0
  6
CONTINUOUS
 62
256
 10
-127.085650000000000
 20
210.361300000000000
 11
-122.085650000000000
 21
210.361300000000000
  0
LINE
  8
0
  6
CONTINUOUS
 62
256
 10
-127.085650000000000
 20
217.272876000000000
 11
-122.085650000000000
 21
217.272876000000000
  0
LINE
  8
0
  6
CONTINUOUS
 62
256
 10
-130.085649999999990
 20
220.676569000000000
 11
-130.085649999999990
 21
220.272876000000000
  0
LINE
  8
0
  6
CONTINUOUS
 62
256
 10
-130.085649999999990
 20
220.676569000000000
 11
-130.085649999999990
 21
220.272876000000000
  0
LINE
  8
0
  6
CONTINUOUS
 62
256
 10
-130.085649999999990
 20
220.676569000000000
 11
-130.085649999999990
 21
221.676569000000000
  0
ARC
  8
0
  6
CONTINUOUS
 62
256
 10
-127.085650000000000
 20
201.177836000000010
 40
3.000000000000000
 50
90.000000000000000
 51
180.000000000000000
  0
ARC
  8
0
  6
CONTINUOUS
 62
256
 10
-127.085650000000000
 20
220.272876000000000
 40
2.999999999999986
 50
180.000000000000000
 51
270.000000000000000
  0
ARC
  8
0
  6
CONTINUOUS
 62
256
 10
-127.085650000000000
 20
207.361300000000000
 40
3.000000000000000
 50
90.000000000000000
 51
180.000000000000000
  0
ARC
  8
0
  6
CONTINUOUS
 62
256
 10
-133.085649999999990
 20
221.676569000000000
 40
3.000000000000000
 50
0.000000000000000
 51
90.000000000000000
  0
LINE
  8
0
  6
CONTINUOUS
 62
256
 10
-111.577178000000000
 20
129.641663999999990
 11
-111.585296000000000
 21
129.176569000000000
  0
LINE
  8
0
  6
CONTINUOUS
 62
256
 10
45.939748000000002
 20
213.676720999999990
 11
45.431100000000001
 21
214.176569000000000
  0
LINE
  8
0
  6
CONTINUOUS
 62
256
 10
-109.601692000000000
 20
214.176569000000000
 11
-110.110339999999990
 21
213.676720999999990
  0
ARC
  8
0
  6
CONTINUOUS
 62
256
 10
-115.085650000000000
 20
129.676569000000000
 40
2.000000000000000
 50
90.000000000000000
 51
180.000000000000000
  0
ARC
  8
0
  6
CONTINUOUS
 62
256
 10
-115.085650000000000
 20
212.176569000000000
 40
2.000000000000000
 50
180.000000000000000
 51
270.000000000000000
  0
LINE
  8
0
  6
DASHDOT
 62
256
 10
53.447854000000000
 20
165.176569000000000
 11
-344.658329999999980
 21
165.176569000000000
  0
LINE
  8
0
  6
DASHDOT
 62
256
 10
-9.585296000000000
 20
104.088151000000000
 11
-9.585296000000000
 21
226.295706000000000
  0
LINE
  8
0
  6
CONTINUOUS
 62
256
 10
45.939748000000002
 20
213.676720999999990
 11
47.414704000000000
 21
129.176569000000000
  0
LINE
  8
0
  6
CONTINUOUS
 62
256
 10
-111.585296000000000
 20
129.176569000000000
 11
-110.137135000000000
 21
212.141663999999990
  0
LINE
  8
0
  6
CONTINUOUS
 62
256
 10
-112.136830000000000
 20
210.176569000000000
 11
-115.085650000000000
 21
210.176569000000000
  0
LINE
  8
0
  6
CONTINUOUS
 62
256
 10
-113.576873000000010
 20
131.676569000000000
 11
-115.085650000000000
 21
131.676569000000000
  0
ARC
  8
0
  6
CONTINUOUS
 62
256
 10
-112.136830000000000
 20
212.176569000000000
 40
2.000000000000000
 50
270.000000000000000
 51
358.999999999999830
  0
ARC
  8
0
  6
CONTINUOUS
 62
256
 10
-113.576873000000010
 20
129.676569000000000
 40
1.999999999999998
 50
358.999999999999830
 51
90.000000000000000
  0
LINE
  8
0
  6
CONTINUOUS
 62
256
 10
-110.137135000000000
 20
212.141663999999990
 11
-110.110339999999990
 21
213.676720999999990
  0
ARC
  8
0
  6
CONTINUOUS
 62
256
 10
436.262993999999990
 20
74.360861999999997
 40
300.000000000000000
 50
263.967951000000030
 51
276.032048999999970
  0
LINE
  8
0
  6
CONTINUOUS
 62
256
 10
433.762993999999990
 20
-225.628721000000010
 11
433.762993999999990
 21
-226.139138000000000
  0
LINE
  8
0
  6
CONTINUOUS
 62
256
 10
433.762993999999990
 20
-226.139138000000000
 11
438.762993999999990
 21
-226.139138000000000
  0
ARC
  8
0
  6
CONTINUOUS
 62
256
 10
405.262993999999990
 20
-219.005802999999990
 40
5.000000000000000
 50
180.000000000000000
 51
263.967950999999970
  0
LINE
  8
0
  6
CONTINUOUS
 62
256
 10
400.262993999999990
 20
-183.157165999999990
 11
400.262993999999990
 21
-219.005802999999990
  0
LINE
  8
0
  6
CONTINUOUS
 62
256
 10
438.762993999999990
 20
-225.639136000000010
 11
438.762993999999990
 21
-226.139138000000000
  0
LINE
  8
0
  6
CONTINUOUS
 62
256
 10
472.262993999999990
 20
-183.157165999999990
 11
472.262993999999990
 21
-219.005802999999990
  0
ARC
  8
0
  6
CONTINUOUS
 62
256
 10
467.262993999999990
 20
-219.005802999999990
 40
5.000000000000002
 50
276.032049000000030
 51
0.000000000000000
  0
LINE
  8
0
  6
CONTINUOUS
 62
256
 10
436.262993999999990
 20
-191.639138000000000
 11
400.262993999999990
 21
-191.639138000000000
  0
LINE
  8
0
  6
CONTINUOUS
 62
256
 10
436.262993999999990
 20
-191.639138000000000
 11
472.262993999999990
 21
-191.639138000000000
  0
ARC
  8
0
  6
CONTINUOUS
 62
256
 10
465.151024000000010
 20
-165.012038999999990
 40
26.600000000000016
 50
285.507666000000030
 51
314.999999999999940
  0
LINE
  8
0
  6
CONTINUOUS
 62
256
 10
491.026513000000020
 20
-176.754629999999990
 11
483.960063999999990
 21
-183.821079000000000
  0
ARC
  8
0
  6
CONTINUOUS
 62
256
 10
486.359607999999980
 20
-172.087725000000010
 40
6.600000000000017
 50
315.000000000000170
 51
351.402917999999940
  0
LINE
  8
0
  6
CONTINUOUS
 62
256
 10
381.499475000000020
 20
-176.754629999999990
 11
388.565924000000000
 21
-183.821079000000000
  0
ARC
  8
0
  6
CONTINUOUS
 62
256
 10
386.166379000000010
 20
-172.087725000000010
 40
6.600000000000022
 50
188.597082000000030
 51
224.999999999999830
  0
ARC
  8
0
  6
CONTINUOUS
 62
256
 10
407.374963999999980
 20
-165.012038999999990
 40
26.600000000000016
 50
224.999999999999940
 51
254.492333999999970
  0
ENDSEC
  0
EOF
