  0
SECTION
  2
HEADER
  9
$ACADVER
  1
AC1015
  9
$ACADMAINTVER
 70
     6
  9
$DWGCODEPAGE
  3
ANSI_932
  9
$INSBASE
 10
0.0
 20
0.0
 30
0.0
  9
$EXTMIN
 10
1.000000E+20
 20
1.000000E+20
 30
1.000000E+20
  9
$EXTMAX
 10
-1.000000E+20
 20
-1.000000E+20
 30
-1.000000E+20
  9
$LIMMIN
 10
0.0
 20
0.0
  9
$LIMMAX
 10
0.0
 20
0.0
  9
$ORTHOMODE
 70
     0
  9
$REGENMODE
 70
     1
  9
$FILLMODE
 70
     1
  9
$QTEXTMODE
 70
     0
  9
$MIRRTEXT
 70
     1
  9
$LTSCALE
 40
1.0
  9
$ATTMODE
 70
     1
  9
$TEXTSIZE
 40
3.2
  9
$TRACEWID
 40
0.05
  9
$TEXTSTYLE
  7
Standard
  9
$CLAYER
  8
0
  9
$CELTYPE
  6
Continuous
  9
$CECOLOR
 62
   256
  9
$CELTSCALE
 40
1.0
  9
$DISPSILH
 70
     0
  9
$DIMSCALE
 40
1.0
  9
$DIMASZ
 40
3.863703
  9
$DIMEXO
 40
1.0
  9
$DIMDLI
 40
0.38
  9
$DIMRND
 40
0.0
  9
$DIMDLE
 40
0.0
  9
$DIMEXE
 40
2.0
  9
$DIMTP
 40
0.0
  9
$DIMTM
 40
0.0
  9
$DIMTXT
 40
3.2
  9
$DIMCEN
 40
0.09
  9
$DIMTSZ
 40
0.0
  9
$DIMTOL
 70
     0
  9
$DIMLIM
 70
     0
  9
$DIMTIH
 70
     1
  9
$DIMTOH
 70
     1
  9
$DIMSE1
 70
     0
  9
$DIMSE2
 70
     0
  9
$DIMTAD
 70
     1
  9
$DIMZIN
 70
     0
  9
$DIMBLK
  1

  9
$DIMASO
 70
     1
  9
$DIMSHO
 70
     1
  9
$DIMPOST
  1

  9
$DIMAPOST
  1

  9
$DIMALT
 70
     0
  9
$DIMALTD
 70
     2
  9
$DIMALTF
 40
25.4
  9
$DIMLFAC
 40
1.0
  9
$DIMTOFL
 70
     0
  9
$DIMTVP
 40
0.0
  9
$DIMTIX
 70
     0
  9
$DIMSOXD
 70
     0
  9
$DIMSAH
 70
     0
  9
$DIMBLK1
  1

  9
$DIMBLK2
  1

  9
$DIMSTYLE
  2
Standard
  9
$DIMCLRD
 70
     0
  9
$DIMCLRE
 70
     0
  9
$DIMCLRT
 70
     0
  9
$DIMTFAC
 40
0.625
  9
$DIMGAP
 40
0.09
  9
$DIMJUST
 70
     0
  9
$DIMSD1
 70
     0
  9
$DIMSD2
 70
     0
  9
$DIMTOLJ
 70
     1
  9
$DIMTZIN
 70
     0
  9
$DIMALTZ
 70
     0
  9
$DIMALTTZ
 70
     0
  9
$DIMUPT
 70
     0
  9
$DIMDEC
 70
     4
  9
$DIMTDEC
 70
     4
  9
$DIMALTU
 70
     2
  9
$DIMALTTD
 70
     2
  9
$DIMTXSTY
  7
Standard
  9
$DIMAUNIT
 70
     0
  9
$DIMADEC
 70
     0
  9
$DIMALTRND
 40
0.0
  9
$DIMAZIN
 70
     0
  9
$DIMDSEP
 70
     0
  9
$DIMATFIT
 70
     3
  9
$DIMFRAC
 70
     0
  9
$DIMLDRBLK
  1

  9
$DIMLUNIT
 70
     2
  9
$DIMLWD
 70
     0
  9
$DIMLWE
 70
     0
  9
$DIMTMOVE
 70
     0
  9
$LUNITS
 70
     2
  9
$LUPREC
 70
     3
  9
$SKETCHINC
 40
0.1
  9
$FILLETRAD
 40
0.0
  9
$AUNITS
 70
     0
  9
$AUPREC
 70
     0
  9
$MENU
  1
acad
  9
$ELEVATION
 40
0.0
  9
$PELEVATION
 40
0.0
  9
$THICKNESS
 40
0.0
  9
$LIMCHECK
 70
     0
  9
$CHAMFERA
 40
0.0
  9
$CHAMFERB
 40
0.0
  9
$CHAMFERC
 40
0.0
  9
$CHAMFERD
 40
0.0
  9
$SKPOLY
 70
     0
  9
$TDCREATE
 40
0.000000000
  9
$TDUCREATE
 40
0.000000000
  9
$TDUPDATE
 40
0.000000000
  9
$TDUUPDATE
 40
0.000000000
  9
$TDINDWG
 40
0.0000000000
  9
$TDUSRTIMER
 40
0.0000000000
  9
$USRTIMER
 70
     1
  9
$ANGBASE
 50
0.0
  9
$ANGDIR
 70
     0
  9
$PDMODE
 70
     0
  9
$PDSIZE
 40
0.0
  9
$PLINEWID
 40
0.0
  9
$SPLFRAME
 70
     0
  9
$SPLINETYPE
 70
     6
  9
$SPLINESEGS
 70
     8
  9
$HANDSEED
  5
56C
  9
$SURFTAB1
 70
     6
  9
$SURFTAB2
 70
     6
  9
$SURFTYPE
 70
     6
  9
$SURFU
 70
     6
  9
$SURFV
 70
     6
  9
$UCSBASE
  2

  9
$UCSNAME
  2

  9
$UCSORG
 10
0.0
 20
0.0
 30
0.0
  9
$UCSXDIR
 10
1.0
 20
0.0
 30
0.0
  9
$UCSYDIR
 10
0.0
 20
1.0
 30
0.0
  9
$UCSORTHOREF
  2

  9
$UCSORTHOVIEW
 70
     0
  9
$UCSORGTOP
 10
0.0
 20
0.0
 30
0.0
  9
$UCSORGBOTTOM
 10
0.0
 20
0.0
 30
0.0
  9
$UCSORGLEFT
 10
0.0
 20
0.0
 30
0.0
  9
$UCSORGRIGHT
 10
0.0
 20
0.0
 30
0.0
  9
$UCSORGFRONT
 10
0.0
 20
0.0
 30
0.0
  9
$UCSORGBACK
 10
0.0
 20
0.0
 30
0.0
  9
$PUCSBASE
  2

  9
$PUCSNAME
  2

  9
$PUCSORG
 10
0.0
 20
0.0
 30
0.0
  9
$PUCSXDIR
 10
1.0
 20
0.0
 30
0.0
  9
$PUCSYDIR
 10
0.0
 20
1.0
 30
0.0
  9
$PUCSORTHOREF
  2

  9
$PUCSORTHOVIEW
 70
     0
  9
$PUCSORGTOP
 10
0.0
 20
0.0
 30
0.0
  9
$PUCSORGBOTTOM
 10
0.0
 20
0.0
 30
0.0
  9
$PUCSORGLEFT
 10
0.0
 20
0.0
 30
0.0
  9
$PUCSORGRIGHT
 10
0.0
 20
0.0
 30
0.0
  9
$PUCSORGFRONT
 10
0.0
 20
0.0
 30
0.0
  9
$PUCSORGBACK
 10
0.0
 20
0.0
 30
0.0
  9
$USERI1
 70
     0
  9
$USERI2
 70
     0
  9
$USERI3
 70
     0
  9
$USERI4
 70
     0
  9
$USERI5
 70
     0
  9
$USERR1
 40
0.0
  9
$USERR2
 40
0.0
  9
$USERR3
 40
0.0
  9
$USERR4
 40
0.0
  9
$USERR5
 40
0.0
  9
$WORLDVIEW
 70
     1
  9
$SHADEDGE
 70
     3
  9
$SHADEDIF
 70
    70
  9
$TILEMODE
 70
     1
  9
$MAXACTVP
 70
    16
  9
$PINSBASE
 10
0.0
 20
0.0
 30
0.0
  9
$PLIMCHECK
 70
     0
  9
$PEXTMIN
 10
1.000000E+20
 20
1.000000E+20
 30
1.000000E+20
  9
$PEXTMAX
 10
-1.000000E+20
 20
-1.000000E+20
 30
-1.000000E+20
  9
$PLIMMIN
 10
0.0
 20
0.0
  9
$PLIMMAX
 10
12.0
 20
9.0
  9
$UNITMODE
 70
     0
  9
$VISRETAIN
 70
     0
  9
$PLINEGEN
 70
     1
  9
$PSLTSCALE
 70
     0
  9
$TREEDEPTH
 70
  3020
  9
$CMLSTYLE
  2
Standard
  9
$CMLJUST
 70
     0
  9
$CMLSCALE
 40
1.0
  9
$PROXYGRAPHICS
 70
     0
  9
$MEASUREMENT
 70
     0
  9
$CELWEIGHT
370
     0
  9
$ENDCAPS
280
     0
  9
$JOINSTYLE
280
     0
  9
$LWDISPLAY
290
     0
  9
$INSUNITS
 70
     0
  9
$HYPERLINKBASE
  1

  9
$STYLESHEET
  1

  9
$XEDIT
290
     1
  9
$CEPSNTYPE
380
     0
  9
$PSTYLEMODE
290
     1
  9
$FINGERPRINTGUID
  2

  9
$VERSIONGUID
  2

  9
$EXTNAMES
290
     1
  9
$PSVPSCALE
 40
0.0
  0
ENDSEC
  0
SECTION
  2
CLASSES
  0
CLASS
  1
LWPOLYLINE
  2
AcDbPolyline
  3
AutoCAD 2000
 90
        0
280
     0
281
     1
  0
CLASS
  1
IMAGE
  2
AcDbRasterImage
  3
ISM
 90
      127
280
     0
281
     1
  0
CLASS
  1
OLE2FRAME
  2
AcDbOle2Frame
  3
AutoCAD 2000
 90
        0
280
     0
281
     1
  0
CLASS
  1
HATCH
  2
AcDbHatch
  3
AutoCAD 2000
 90
        0
280
     0
281
     1
  0
CLASS
  1
DICTIONARYVAR
  2
AcDbDictionaryVar
  3
AutoCAD 2000
 90
        0
280
     0
281
     0
  0
CLASS
  1
RASTERVARIABLES
  2
AcDbRasterVariables
  3
ISM
 90
        0
280
     0
281
     0
  0
CLASS
  1
IMAGEDEF
  2
AcDbRasterImageDef
  3
ISM
 90
        0
280
     0
281
     0
  0
CLASS
  1
IMAGEDEF_REACTOR
  2
AcDbRasterImageDefReactor
  3
ISM
 90
        1
280
     0
281
     0
  0
CLASS
  1
IDBUFFER
  2
AcDbIdBuffer
  3
AutoCAD 2000
 90
        0
280
     0
281
     0
  0
CLASS
  1
SPATIAL_FILTER
  2
AcDbSpatialFilter
  3
AutoCAD 2000
 90
        0
280
     0
281
     0
  0
CLASS
  1
XRECORD
  2
AcDbXrecord
  3
AutoCAD 2000
 90
        0
280
     0
281
     0
  0
CLASS
  1
SORTENTSTABLE
  2
AcDbSortentsTable
  3
AutoCAD 2000
 90
        0
280
     0
281
     0
  0
CLASS
  1
LAYER_INDEX
  2
AcDbLayerIndex
  3
AutoCAD 2000
 90
        0
280
     0
281
     0
  0
CLASS
  1
SPATIAL_INDEX
  2
AcDbSpatialIndex
  3
AutoCAD 2000
 90
        0
280
     0
281
     0
  0
CLASS
  1
OBJECT_PTR
  2
CAseDLPNTableRecord
  3
"ASE-LPNTableRecord"
 90
        1
280
     0
281
     0
  0
CLASS
  1
LAYOUT
  2
AcDbLayout
  3
AutoCAD 2000
 90
        0
280
     0
281
     0
  0
CLASS
  1
PLOTSETTINGS
  2
AcDbPlotSettings
  3
AutoCAD 2000
 90
        0
280
     0
281
     0
  0
CLASS
  1
ACDBDICTIONARYWDFLT
  2
AcDbDictionaryWithDefault
  3
AutoCAD 2000
 90
        0
280
     0
281
     0
  0
CLASS
  1
ACDBPLACEHOLDER
  2
AcDbPlaceHolder
  3
AutoCAD 2000
 90
        0
280
     0
281
     0
  0
CLASS
  1
VBA_PROJECT
  2
AcDbVbaProject
  3
acadvba
 90
        0
280
     0
281
     0
  0
CLASS
  1
WIPEOUT
  2
AcDbWipeout
  3
WipeOut|AutoCAD Express Tool|expresstools@autodesk.com
 90
      127
280
     0
281
     1
  0
CLASS
  1
WIPEOUTVARIABLES
  2
AcDbWipeoutVariables
  3
WipeOut|AutoCAD Express Tool|expresstools@autodesk.com
 90
        0
280
     0
281
     0
  0
CLASS
  1
RTEXT
  2
RText
  3
RText|AutoCAD Express Tool|expresstools@autodesk.com
 90
        0
280
     0
281
     1
  0
CLASS
  1
ARCALIGNEDTEXT
  2
AcDbArcAlignedText
  3
ATEXT|AutoCAD Express Tool|expresstools@autodesk.com
 90
        0
280
     0
281
     1
  0
ENDSEC
  0
SECTION
  2
TABLES
  0
TABLE
  2
VPORT
  5
7
100
AcDbSymbolTable
 70
     1
  0
VPORT
  5
15
100
AcDbSymbolTableRecord
100
AcDbViewportTableRecord
  2
*ACTIVE
 70
     0
 10
0.0
 20
0.0
 11
1.0
 21
1.0
 12
0.0
 22
0.0
 13
0.0
 23
0.0
 14
1.0
 24
1.0
 15
0.0
 25
0.0
 16
0.0
 26
0.0
 36
1.0
 17
0.0
 27
0.0
 37
0.0
 40
100.0
 41
1.0
 42
50.0
 43
0.0
 44
0.0
 50
0.0
 51
0.0
 71
     0
 72
   100
 73
     1
 74
     1
 75
     0
 76
     0
 77
     0
 78
     0
281
     0
 65
     0
110
0.0
120
0.0
130
0.0
111
1.0
121
0.0
131
0.0
112
0.0
122
1.0
132
0.0
345
0
346
0
 79
     0
146
0.0
  0
ENDTAB
  0
TABLE
  2
LTYPE
  5
4
100
AcDbSymbolTable
 70
     7
  0
LTYPE
  5
11
100
AcDbSymbolTableRecord
100
AcDbLinetypeTableRecord
  2
ByBlock
 70
    64
  3

 72
    65
 73
     0
 40
0.0
  0
LTYPE
  5
12
100
AcDbSymbolTableRecord
100
AcDbLinetypeTableRecord
  2
ByLayer
 70
    64
  3

 72
    65
 73
     0
 40
0.0
  0
LTYPE
  5
13
100
AcDbSymbolTableRecord
100
AcDbLinetypeTableRecord
  2
Continuous
 70
    64
  3
Solid line
 72
    65
 73
     0
 40
0.0
  0
LTYPE
  5
24
100
AcDbSymbolTableRecord
100
AcDbLinetypeTableRecord
  2
DASHED
 70
    64
  3
Dashed __ __ __ __ __ __ __ __ __ __ __ __ __ _
 72
    65
 73
     2
 40
0.75
 49
0.5
 74
     0
 49
-0.25
 74
     0
  0
LTYPE
  5
25
100
AcDbSymbolTableRecord
100
AcDbLinetypeTableRecord
  2
CENTER
 70
    64
  3
Center ____ _ ____ _ ____ _ ____ _ ____ _ ____
 72
    65
 73
     4
 40
1.0
 49
0.5
 74
     0
 49
-0.25
 74
     0
 49
0.0
 74
     0
 49
-0.25
 74
     0
  0
LTYPE
  5
26
100
AcDbSymbolTableRecord
100
AcDbLinetypeTableRecord
  2
DIVIDE
 70
    64
  3
Divide ____ . . ____ . . ____ . . ____ . . ____
 72
    65
 73
     6
 40
1.25
 49
0.5
 74
     0
 49
-0.25
 74
     0
 49
0.0
 74
     0
 49
-0.25
 74
     0
 49
0.0
 74
     0
 49
-0.25
 74
     0
  0
LTYPE
  5
27
100
AcDbSymbolTableRecord
100
AcDbLinetypeTableRecord
  2
PHANTOM
 70
    64
  3
Phantom ______  __  __  ______  __  __  ______
 72
    65
 73
     6
 40
9.0
 49
4.3
 74
     0
 49
-0.7
 74
     0
 49
1.3
 74
     0
 49
-0.7
 74
     0
 49
1.3
 74
     0
 49
-0.7
 74
     0
  0
ENDTAB
  0
TABLE
  2
LAYER
  5
2
100
AcDbSymbolTable
 70
     1
  0
LAYER
  5
14
100
AcDbSymbolTableRecord
100
AcDbLayerTableRecord
  2
0
 70
    64
 62
     3
  6
Continuous
290
     1
370
    -3
390
1D
  0
ENDTAB
  0
TABLE
  2
STYLE
  5
3
100
AcDbSymbolTable
 70
     2
  0
STYLE
  5
17
100
AcDbSymbolTableRecord
100
AcDbTextStyleTableRecord
  2
Standard
 70
     0
 40
0.0
 41
1.0
 50
0.0
 71
     0
 42
0.0
  3
txt
  4

  0
STYLE
  5
251
100
AcDbSymbolTableRecord
100
AcDbTextStyleTableRecord
  2
ZU_SHPTB00001
 70
     0
 40
0.0
 41
1.0
 50
0.0
 71
     0
 42
0.0
  3
monotxt
  4
bigfont
  0
ENDTAB
  0
TABLE
  2
VIEW
  5
5
100
AcDbSymbolTable
 70
     0
  0
ENDTAB
  0
TABLE
  2
UCS
  5
6
100
AcDbSymbolTable
 70
     0
  0
ENDTAB
  0
TABLE
  2
APPID
  5
8
100
AcDbSymbolTable
 70
     1
  0
APPID
  5
16
100
AcDbSymbolTableRecord
100
AcDbRegAppTableRecord
  2
ACAD
 70
     0
  0
ENDTAB
  0
TABLE
  2
DIMSTYLE
  5
9
100
AcDbSymbolTable
 70
     1
100
AcDbDimStyleTable
 71
     0
  0
DIMSTYLE
105
18
100
AcDbSymbolTableRecord
100
AcDbDimStyleTableRecord
  2
Standard
 70
     0
  3

  4

 40
1.0
 41
0.18
 42
0.0625
 43
0.38
 44
0.18
 45
0.0
 46
0.0
 47
0.0
 48
0.0
 71
     0
 72
     0
 73
     1
 74
     1
 75
     0
 76
     0
 77
     0
 78
     0
 79
     0
140
0.18
141
0.09
142
0.0
143
25.4
144
1.0
145
0.0
146
1.0
147
0.09
148
0.0
170
     0
171
     2
172
     0
173
     0
174
     0
175
     0
176
     0
177
     0
178
     0
179
     0
271
     4
272
     4
273
     2
274
     2
275
     0
276
     0
277
     2
278
    46
279
     0
280
     0
281
     0
282
     0
283
     1
284
     0
285
     0
286
     0
288
     0
289
     3
340
17
341
0
342
0
343
0
344
0
371
    -2
372
    -2
  0
ENDTAB
  0
TABLE
  2
BLOCK_RECORD
  5
1
100
AcDbSymbolTable
 70
     3
  0
BLOCK_RECORD
  5
A
100
AcDbSymbolTableRecord
100
AcDbBlockTableRecord
  2
*MODEL_SPACE
340
20
  0
BLOCK_RECORD
  5
B
100
AcDbSymbolTableRecord
100
AcDbBlockTableRecord
  2
*PAPER_SPACE
340
21
  0
BLOCK_RECORD
  5
182
100
AcDbSymbolTableRecord
100
AcDbBlockTableRecord
  2
ZU_SYM__USERS_HOME_SYMBOL_POO_SYM_B20_05
340
0
102
{BLKREFS
331
18E
102
}
  0
BLOCK_RECORD
  5
18F
100
AcDbSymbolTableRecord
100
AcDbBlockTableRecord
  2
ZU_SYM__USERS_HOME_SYMBOL_POO_SYM_B20_0000105
340
0
102
{BLKREFS
331
19B
102
}
  0
BLOCK_RECORD
  5
1D3
100
AcDbSymbolTableRecord
100
AcDbBlockTableRecord
  2
ZU_SYM__USERS_HOME_SYMBOL_POO_SYM_B20_18
340
0
102
{BLKREFS
331
1DE
102
}
  0
ENDTAB
  0
ENDSEC
  0
SECTION
  2
BLOCKS
  0
BLOCK
  5
D
100
AcDbEntity
  8
0
390
0
100
AcDbBlockBegin
  2
*MODEL_SPACE
 70
     0
 10
0.0
 20
0.0
 30
0.0
  3
*MODEL_SPACE
  1

  0
ENDBLK
  5
E
100
AcDbEntity
  8
0
390
0
100
AcDbBlockEnd
  0
BLOCK
  5
F
100
AcDbEntity
 67
     1
  8
0
390
0
100
AcDbBlockBegin
  2
*PAPER_SPACE
 70
     0
 10
0.0
 20
0.0
 30
0.0
  3
*PAPER_SPACE
  1

  0
ENDBLK
  5
10
100
AcDbEntity
 67
     1
  8
0
390
0
100
AcDbBlockEnd
  0
BLOCK
  5
183
100
AcDbEntity
  8
0
390
0
100
AcDbBlockBegin
  2
ZU_SYM__USERS_HOME_SYMBOL_POO_SYM_B20_05
 70
    64
 10
0.0
 20
0.0
 30
0.0
  3
ZU_SYM__USERS_HOME_SYMBOL_POO_SYM_B20_05
  1

  0
CIRCLE
  5
184
100
AcDbEntity
  8
0
370
    -3
390
0
  6
Continuous
100
AcDbCircle
 10
0.0
 20
0.0
 30
0.0
 40
5.633955
  0
CIRCLE
  5
185
100
AcDbEntity
  8
0
370
    -3
390
0
  6
Continuous
100
AcDbCircle
 10
0.0
 20
0.0
 30
0.0
 40
6.5
  0
POINT
  5
186
100
AcDbEntity
  8
0
370
    -3
390
0
  6
Continuous
100
AcDbPoint
 10
0.0
 20
0.0
 30
0.0
  0
LINE
  5
187
100
AcDbEntity
  8
0
370
    -3
390
0
  6
Continuous
100
AcDbLine
 10
-2.999997
 20
-1.732046
 30
0.0
 11
-2.999998
 21
1.732052
 31
0.0
  0
LINE
  5
188
100
AcDbEntity
  8
0
370
    -3
390
0
  6
Continuous
100
AcDbLine
 10
2.999997
 20
1.732047
 30
0.0
 11
2.999998
 21
-1.732051
 31
0.0
  0
LINE
  5
189
100
AcDbEntity
  8
0
370
    -3
390
0
  6
Continuous
100
AcDbLine
 10
0.000007
 20
3.464097
 30
0.0
 11
-2.999998
 21
1.732052
 31
0.0
  0
LINE
  5
18A
100
AcDbEntity
  8
0
370
    -3
390
0
  6
Continuous
100
AcDbLine
 10
2.999998
 20
-1.732051
 30
0.0
 11
-0.000004
 21
-3.464098
 31
0.0
  0
LINE
  5
18B
100
AcDbEntity
  8
0
370
    -3
390
0
  6
Continuous
100
AcDbLine
 10
0.000007
 20
3.464097
 30
0.0
 11
2.999997
 21
1.732047
 31
0.0
  0
LINE
  5
18C
100
AcDbEntity
  8
0
370
    -3
390
0
  6
Continuous
100
AcDbLine
 10
-0.000005
 20
-3.464098
 30
0.0
 11
-2.999998
 21
-1.732046
 31
0.0
  0
ENDBLK
  5
18D
100
AcDbEntity
  8
0
390
0
100
AcDbBlockEnd
  0
BLOCK
  5
190
100
AcDbEntity
  8
0
390
0
100
AcDbBlockBegin
  2
ZU_SYM__USERS_HOME_SYMBOL_POO_SYM_B20_0000105
 70
    64
 10
0.0
 20
0.0
 30
0.0
  3
ZU_SYM__USERS_HOME_SYMBOL_POO_SYM_B20_0000105
  1

  0
CIRCLE
  5
191
100
AcDbEntity
  8
0
370
    -3
390
0
  6
Continuous
100
AcDbCircle
 10
0.0
 20
0.0
 30
0.0
 40
5.633955
  0
CIRCLE
  5
192
100
AcDbEntity
  8
0
370
    -3
390
0
  6
Continuous
100
AcDbCircle
 10
0.0
 20
0.0
 30
0.0
 40
6.5
  0
POINT
  5
193
100
AcDbEntity
  8
0
370
    -3
390
0
  6
Continuous
100
AcDbPoint
 10
0.0
 20
0.0
 30
0.0
  0
LINE
  5
194
100
AcDbEntity
  8
0
370
    -3
390
0
  6
Continuous
100
AcDbLine
 10
-2.999997
 20
-1.732046
 30
0.0
 11
-2.999998
 21
1.732052
 31
0.0
  0
LINE
  5
195
100
AcDbEntity
  8
0
370
    -3
390
0
  6
Continuous
100
AcDbLine
 10
2.999997
 20
1.732047
 30
0.0
 11
2.999998
 21
-1.732051
 31
0.0
  0
LINE
  5
196
100
AcDbEntity
  8
0
370
    -3
390
0
  6
Continuous
100
AcDbLine
 10
0.000007
 20
3.464097
 30
0.0
 11
-2.999998
 21
1.732052
 31
0.0
  0
LINE
  5
197
100
AcDbEntity
  8
0
370
    -3
390
0
  6
Continuous
100
AcDbLine
 10
2.999998
 20
-1.732051
 30
0.0
 11
-0.000004
 21
-3.464098
 31
0.0
  0
LINE
  5
198
100
AcDbEntity
  8
0
370
    -3
390
0
  6
Continuous
100
AcDbLine
 10
0.000007
 20
3.464097
 30
0.0
 11
2.999997
 21
1.732047
 31
0.0
  0
LINE
  5
199
100
AcDbEntity
  8
0
370
    -3
390
0
  6
Continuous
100
AcDbLine
 10
-0.000005
 20
-3.464098
 30
0.0
 11
-2.999998
 21
-1.732046
 31
0.0
  0
ENDBLK
  5
19A
100
AcDbEntity
  8
0
390
0
100
AcDbBlockEnd
  0
BLOCK
  5
1D4
100
AcDbEntity
  8
0
390
0
100
AcDbBlockBegin
  2
ZU_SYM__USERS_HOME_SYMBOL_POO_SYM_B20_18
 70
    64
 10
0.0
 20
0.0
 30
0.0
  3
ZU_SYM__USERS_HOME_SYMBOL_POO_SYM_B20_18
  1

  0
POINT
  5
1D5
100
AcDbEntity
  8
0
370
    -3
390
0
  6
Continuous
100
AcDbPoint
 10
0.0
 20
0.0
 30
0.0
  0
LINE
  5
1D6
100
AcDbEntity
  8
0
370
    -3
390
0
  6
Continuous
100
AcDbLine
 10
0.0
 20
-6.5
 30
0.0
 11
0.0
 21
6.5
 31
0.0
  0
LINE
  5
1D7
100
AcDbEntity
  8
0
370
    -3
390
0
  6
Continuous
100
AcDbLine
 10
-7.999999
 20
5.633876
 30
0.0
 11
-7.999999
 21
-5.63407
 31
0.0
  0
LINE
  5
1D8
100
AcDbEntity
  8
0
370
    -3
390
0
  6
Continuous
100
AcDbLine
 10
0.0
 20
6.5
 30
0.0
 11
-7.499999
 21
6.5
 31
0.0
  0
LINE
  5
1D9
100
AcDbEntity
  8
0
370
    -3
390
0
  6
Continuous
100
AcDbLine
 10
0.0
 20
-6.5
 30
0.0
 11
-7.499998
 21
-6.5
 31
0.0
  0
LINE
  5
1DA
100
AcDbEntity
  8
0
370
    -3
390
0
  6
Continuous
100
AcDbLine
 10
-7.499999
 20
6.5
 30
0.0
 11
-7.999999
 21
5.633876
 31
0.0
  0
LINE
  5
1DB
100
AcDbEntity
  8
0
370
    -3
390
0
  6
Continuous
100
AcDbLine
 10
-7.499998
 20
-6.499999
 30
0.0
 11
-7.999999
 21
-5.63407
 31
0.0
  0
LINE
  5
1DC
100
AcDbEntity
  8
0
370
    -3
390
0
  6
Continuous
100
AcDbLine
 10
-7.499999
 20
6.5
 30
0.0
 11
-7.499999
 21
-6.5
 31
0.0
  0
ENDBLK
  5
1DD
100
AcDbEntity
  8
0
390
0
100
AcDbBlockEnd
  0
ENDSEC
  0
SECTION
  2
ENTITIES
  0
LINE
  5
28
100
AcDbEntity
  8
0
370
    -3
390
0
  6
Continuous
100
AcDbLine
 10
-375.911782
 20
-51.49405
 30
0.0
 11
-375.911782
 21
-253.422433
 31
0.0
  0
LINE
  5
29
100
AcDbEntity
  8
0
370
    -3
390
0
  6
Continuous
100
AcDbLine
 10
-375.911782
 20
54.861959
 30
0.0
 11
-375.911782
 21
260.861959
 31
0.0
  0
ARC
  5
2A
100
AcDbEntity
  8
0
370
    -3
390
0
  6
Continuous
100
AcDbCircle
 10
-520.911782
 20
-237.286938
 30
0.0
 40
5.0
100
AcDbArc
 50
180.0
 51
240.000279
  0
LINE
  5
2B
100
AcDbEntity
  8
0
370
    -3
390
0
  6
Continuous
100
AcDbLine
 10
-525.911782
 20
-71.638202
 30
0.0
 11
-525.911782
 21
-237.286938
 31
0.0
  0
LINE
  5
2C
100
AcDbEntity
  8
0
370
    -3
390
0
  6
Continuous
100
AcDbLine
 10
-175.911782
 20
-54.492759
 30
0.0
 11
-175.911782
 21
-254.492759
 31
0.0
  0
LINE
  5
2D
100
AcDbEntity
  8
0
370
    -3
390
0
  6
Continuous
100
AcDbLine
 10
-525.911782
 20
240.654699
 30
0.0
 11
-525.911782
 21
75.069218
 31
0.0
  0
LINE
  5
2E
100
AcDbEntity
  8
0
370
    -3
390
0
  6
CENTER
100
AcDbLine
 10
-360.911931
 20
-256.875776
 30
0.0
 11
-360.911633
 21
-318.073071
 31
0.0
  0
ARC
  5
2F
100
AcDbEntity
  8
0
370
    -3
390
0
  6
Continuous
100
AcDbCircle
 10
263.483965
 20
-154.492759
 30
0.0
 40
451.0
100
AcDbArc
 50
359.618872
 51
3.229411
  0
ARC
  5
30
100
AcDbEntity
  8
0
370
    -3
390
0
  6
Continuous
100
AcDbCircle
 10
642.880517
 20
-133.085832
 30
0.0
 40
71.0
100
AcDbArc
 50
3.229411
 51
21.128806
  0
ARC
  5
31
100
AcDbEntity
  8
0
370
    -3
390
0
  6
Continuous
100
AcDbCircle
 10
642.880517
 20
-133.085832
 30
0.0
 40
71.0
100
AcDbArc
 50
21.128806
 51
34.287111
  0
ARC
  5
32
100
AcDbEntity
  8
0
370
    -3
390
0
  6
Continuous
100
AcDbCircle
 10
611.483965
 20
-154.492759
 30
0.0
 40
109.0
100
AcDbArc
 50
34.287111
 51
38.756221
  0
ARC
  5
33
100
AcDbEntity
  8
0
370
    -3
390
0
  6
Continuous
100
AcDbCircle
 10
611.483965
 20
-154.492759
 30
0.0
 40
109.0
100
AcDbArc
 50
38.756221
 51
46.522208
  0
ARC
  5
34
100
AcDbEntity
  8
0
370
    -3
390
0
  6
Continuous
100
AcDbCircle
 10
611.483965
 20
-154.492759
 30
0.0
 40
109.0
100
AcDbArc
 50
129.956203
 51
132.393476
  0
ARC
  5
35
100
AcDbEntity
  8
0
370
    -3
390
0
  6
Continuous
100
AcDbCircle
 10
611.483965
 20
-154.492759
 30
0.0
 40
109.0
100
AcDbArc
 50
141.243779
 51
145.712889
  0
ARC
  5
36
100
AcDbEntity
  8
0
370
    -3
390
0
  6
Continuous
100
AcDbCircle
 10
580.087414
 20
-133.085832
 30
0.0
 40
71.0
100
AcDbArc
 50
145.712889
 51
176.770589
  0
ARC
  5
37
100
AcDbEntity
  8
0
370
    -3
390
0
  6
Continuous
100
AcDbCircle
 10
959.483965
 20
-154.492759
 30
0.0
 40
451.0
100
AcDbArc
 50
176.770589
 51
183.229411
  0
ARC
  5
38
100
AcDbEntity
  8
0
370
    -3
390
0
  6
Continuous
100
AcDbCircle
 10
580.087414
 20
-175.899687
 30
0.0
 40
71.0
100
AcDbArc
 50
183.229411
 51
214.287111
  0
ARC
  5
39
100
AcDbEntity
  8
0
370
    -3
390
0
  6
Continuous
100
AcDbCircle
 10
611.483965
 20
-154.492759
 30
0.0
 40
109.0
100
AcDbArc
 50
214.287111
 51
222.781859
  0
ARC
  5
3A
100
AcDbEntity
  8
0
370
    -3
390
0
  6
Continuous
100
AcDbCircle
 10
611.483965
 20
-154.492759
 30
0.0
 40
109.0
100
AcDbArc
 50
222.781859
 51
235.712889
  0
ARC
  5
3B
100
AcDbEntity
  8
0
370
    -3
390
0
  6
Continuous
100
AcDbCircle
 10
590.077038
 20
-185.889311
 30
0.0
 40
71.0
100
AcDbArc
 50
235.712889
 51
266.614446
  0
ARC
  5
3C
100
AcDbEntity
  8
0
370
    -3
390
0
  6
Continuous
100
AcDbCircle
 10
632.890893
 20
-185.889311
 30
0.0
 40
71.0
100
AcDbArc
 50
273.385861
 51
304.287111
  0
ARC
  5
3D
100
AcDbEntity
  8
0
370
    -3
390
0
  6
Continuous
100
AcDbCircle
 10
611.483965
 20
-154.492759
 30
0.0
 40
109.0
100
AcDbArc
 50
304.287111
 51
317.218141
  0
ARC
  5
3E
100
AcDbEntity
  8
0
370
    -3
390
0
  6
Continuous
100
AcDbCircle
 10
611.483965
 20
-154.492759
 30
0.0
 40
109.0
100
AcDbArc
 50
317.218141
 51
325.712889
  0
ARC
  5
3F
100
AcDbEntity
  8
0
370
    -3
390
0
  6
Continuous
100
AcDbCircle
 10
642.880517
 20
-175.899687
 30
0.0
 40
71.0
100
AcDbArc
 50
325.712889
 51
356.770589
  0
ARC
  5
40
100
AcDbEntity
  8
0
370
    -3
390
0
  6
Continuous
100
AcDbCircle
 10
263.483965
 20
-154.492759
 30
0.0
 40
451.0
100
AcDbArc
 50
356.770589
 51
359.618872
  0
LINE
  5
41
100
AcDbEntity
  8
0
370
    -3
390
0
  6
CENTER
100
AcDbLine
 10
631.432229
 20
-154.492759
 30
0.0
 11
588.299151
 21
-154.492759
 31
0.0
  0
LINE
  5
42
100
AcDbEntity
  8
0
370
    -3
390
0
  6
CENTER
100
AcDbLine
 10
611.483816
 20
-33.834543
 30
0.0
 11
611.484168
 21
-322.857687
 31
0.0
  0
LINE
  5
43
100
AcDbEntity
  8
0
370
    -3
390
0
  6
Continuous
100
AcDbLine
 10
-175.911307
 20
-251.992859
 30
0.0
 11
-336.311307
 21
-251.993445
 31
0.0
  0
LINE
  5
44
100
AcDbEntity
  8
0
370
    -3
390
0
  6
Continuous
100
AcDbLine
 10
-175.911305
 20
-252.492859
 30
0.0
 11
-336.311305
 21
-252.493445
 31
0.0
  0
LINE
  5
45
100
AcDbEntity
  8
0
370
    -3
390
0
  6
Continuous
100
AcDbLine
 10
-175.911317
 20
-249.992859
 30
0.0
 11
-336.311317
 21
-249.993445
 31
0.0
  0
LINE
  5
46
100
AcDbEntity
  8
0
370
    -3
390
0
  6
Continuous
100
AcDbLine
 10
-175.911977
 20
-247.492859
 30
0.0
 11
-375.911977
 21
-247.493638
 31
0.0
  0
LINE
  5
47
100
AcDbEntity
  8
0
370
    -3
390
0
  6
Continuous
100
AcDbLine
 10
-175.91131
 20
-251.492859
 30
0.0
 11
-336.31131
 21
-251.493445
 31
0.0
  0
LINE
  5
48
100
AcDbEntity
  8
0
370
    -3
390
0
  6
Continuous
100
AcDbLine
 10
-396.361656
 20
-313.469264
 30
0.0
 11
-363.968912
 21
-313.469106
 31
0.0
  0
LINE
  5
49
100
AcDbEntity
  8
0
370
    -3
390
0
  6
Continuous
100
AcDbLine
 10
-396.361894
 20
-264.600875
 30
0.0
 11
-325.461894
 21
-264.600529
 31
0.0
  0
LINE
  5
4A
100
AcDbEntity
  8
0
370
    -3
390
0
  6
Continuous
100
AcDbLine
 10
-396.361877
 20
-268.072347
 30
0.0
 11
-325.461877
 21
-268.072002
 31
0.0
  0
LINE
  5
4B
100
AcDbEntity
  8
0
370
    -3
390
0
  6
Continuous
100
AcDbLine
 10
-314.46184
 20
-275.600476
 30
0.0
 11
-314.461709
 21
-302.468865
 31
0.0
  0
LINE
  5
4C
100
AcDbEntity
  8
0
370
    -3
390
0
  6
Continuous
100
AcDbLine
 10
-320.861694
 20
-305.495071
 30
0.0
 11
-320.861838
 21
-275.919136
 31
0.0
  0
LINE
  5
4D
100
AcDbEntity
  8
0
370
    -3
390
0
  6
Continuous
100
AcDbLine
 10
-400.961694
 20
-305.495461
 30
0.0
 11
-400.961838
 21
-275.919526
 31
0.0
  0
LINE
  5
4E
100
AcDbEntity
  8
0
370
    -3
390
0
  6
Continuous
100
AcDbLine
 10
-395.961863
 20
-270.919502
 30
0.0
 11
-325.861863
 21
-270.919161
 31
0.0
  0
ARC
  5
4F
100
AcDbEntity
  8
0
370
    -3
390
0
  6
Continuous
100
AcDbCircle
 10
-325.861838
 20
-275.919161
 30
0.0
 40
5.0
100
AcDbArc
 50
0.000279
 51
90.000279
  0
ARC
  5
50
100
AcDbEntity
  8
0
370
    -3
390
0
  6
Continuous
100
AcDbCircle
 10
-395.961838
 20
-275.919502
 30
0.0
 40
5.0
100
AcDbArc
 50
90.000279
 51
180.000279
  0
ARC
  5
51
100
AcDbEntity
  8
0
370
    -3
390
0
  6
Continuous
100
AcDbCircle
 10
-325.461709
 20
-302.468919
 30
0.0
 40
11.0
100
AcDbArc
 50
270.000279
 51
0.000279
  0
ARC
  5
52
100
AcDbEntity
  8
0
370
    -3
390
0
  6
Continuous
100
AcDbCircle
 10
-396.361709
 20
-302.469264
 30
0.0
 40
11.0
100
AcDbArc
 50
180.000279
 51
270.000279
  0
LINE
  5
53
100
AcDbEntity
  8
0
370
    -3
390
0
  6
Continuous
100
AcDbLine
 10
-395.161666
 20
-311.295433
 30
0.0
 11
-326.661666
 21
-311.295099
 31
0.0
  0
ARC
  5
54
100
AcDbEntity
  8
0
370
    -3
390
0
  6
Continuous
100
AcDbCircle
 10
-326.661694
 20
-305.495099
 30
0.0
 40
5.8
100
AcDbArc
 50
270.000279
 51
0.000279
  0
ARC
  5
55
100
AcDbEntity
  8
0
370
    -3
390
0
  6
Continuous
100
AcDbCircle
 10
-395.161694
 20
-305.495433
 30
0.0
 40
5.8
100
AcDbArc
 50
180.000279
 51
270.000279
  0
ARC
  5
56
100
AcDbEntity
  8
0
370
    -3
390
0
  6
Continuous
100
AcDbCircle
 10
-325.461823
 20
-279.072002
 30
0.0
 40
11.0
100
AcDbArc
 50
0.000279
 51
90.000279
  0
ARC
  5
57
100
AcDbEntity
  8
0
370
    -3
390
0
  6
Continuous
100
AcDbCircle
 10
-325.46184
 20
-275.600529
 30
0.0
 40
11.0
100
AcDbArc
 50
0.000279
 51
90.000279
  0
ARC
  5
58
100
AcDbEntity
  8
0
370
    -3
390
0
  6
Continuous
100
AcDbCircle
 10
-396.361823
 20
-279.072347
 30
0.0
 40
11.0
100
AcDbArc
 50
90.000279
 51
180.000279
  0
ARC
  5
59
100
AcDbEntity
  8
0
370
    -3
390
0
  6
Continuous
100
AcDbCircle
 10
-396.36184
 20
-275.600875
 30
0.0
 40
11.0
100
AcDbArc
 50
90.000279
 51
180.000279
  0
ARC
  5
5A
100
AcDbEntity
  8
0
370
    -3
390
0
  6
Continuous
100
AcDbCircle
 10
-327.111876
 20
-268.295101
 30
0.0
 40
5.0
100
AcDbArc
 50
44.926235
 51
90.000279
  0
ARC
  5
5B
100
AcDbEntity
  8
0
370
    -3
390
0
  6
Continuous
100
AcDbCircle
 10
-394.711876
 20
-268.29543
 30
0.0
 40
5.0
100
AcDbArc
 50
90.000279
 51
135.074323
  0
LINE
  5
5C
100
AcDbEntity
  8
0
370
    -3
390
0
  6
Continuous
100
AcDbLine
 10
-357.854399
 20
-313.469076
 30
0.0
 11
-325.461656
 21
-313.468919
 31
0.0
  0
LINE
  5
5D
100
AcDbEntity
  8
0
370
    -3
390
0
  6
Continuous
100
AcDbLine
 10
-407.36184
 20
-275.600928
 30
0.0
 11
-407.361709
 21
-302.469317
 31
0.0
  0
LINE
  5
5E
100
AcDbEntity
  8
0
370
    -3
390
0
  6
Continuous
100
AcDbLine
 10
-394.7119
 20
-263.29543
 30
0.0
 11
-327.1119
 21
-263.295101
 31
0.0
  0
LINE
  5
5F
100
AcDbEntity
  8
0
370
    -3
390
0
  6
Continuous
100
AcDbLine
 10
-329.911905
 20
-262.295115
 30
0.0
 11
-329.9119
 21
-263.295115
 31
0.0
  0
LINE
  5
60
100
AcDbEntity
  8
0
370
    -3
390
0
  6
Continuous
100
AcDbLine
 10
-391.911905
 20
-262.295417
 30
0.0
 11
-391.9119
 21
-263.295417
 31
0.0
  0
LINE
  5
61
100
AcDbEntity
  8
0
370
    -3
390
0
  6
Continuous
100
AcDbLine
 10
-385.511922
 20
-258.695386
 30
0.0
 11
-385.511934
 21
-256.368312
 31
0.0
  0
LINE
  5
62
100
AcDbEntity
  8
0
370
    -3
390
0
  6
Continuous
100
AcDbLine
 10
-360.911977
 20
-247.493565
 30
0.0
 11
-375.911977
 21
-247.493638
 31
0.0
  0
LINE
  5
63
100
AcDbEntity
  8
0
370
    -3
390
0
  6
Continuous
100
AcDbLine
 10
-329.911913
 20
-260.695115
 30
0.0
 11
-391.911913
 21
-260.695417
 31
0.0
  0
LINE
  5
64
100
AcDbEntity
  8
0
370
    -3
390
0
  6
Continuous
100
AcDbLine
 10
-329.911905
 20
-262.295115
 30
0.0
 11
-329.911913
 21
-260.695115
 31
0.0
  0
LINE
  5
65
100
AcDbEntity
  8
0
370
    -3
390
0
  6
Continuous
100
AcDbLine
 10
-391.911905
 20
-262.295417
 30
0.0
 11
-391.911913
 21
-260.695417
 31
0.0
  0
ARC
  5
66
100
AcDbEntity
  8
0
370
    -3
390
0
  6
Continuous
100
AcDbCircle
 10
-387.511922
 20
-258.695395
 30
0.0
 40
2.0
100
AcDbArc
 50
270.000279
 51
0.000279
  0
LINE
  5
67
100
AcDbEntity
  8
0
370
    -3
390
0
  6
Continuous
100
AcDbLine
 10
-360.911977
 20
-247.493565
 30
0.0
 11
-336.911977
 21
-247.493448
 31
0.0
  0
ARC
  5
68
100
AcDbEntity
  8
0
370
    -3
390
0
  6
Continuous
100
AcDbCircle
 10
-339.511961
 20
-250.693461
 30
0.0
 40
3.2
100
AcDbArc
 50
0.000279
 51
90.000279
  0
LINE
  5
69
100
AcDbEntity
  8
0
370
    -3
390
0
  6
Continuous
100
AcDbLine
 10
-336.311922
 20
-258.695146
 30
0.0
 11
-336.311961
 21
-250.693445
 31
0.0
  0
ARC
  5
6A
100
AcDbEntity
  8
0
370
    -3
390
0
  6
Continuous
100
AcDbCircle
 10
-334.311922
 20
-258.695136
 30
0.0
 40
2.0
100
AcDbArc
 50
180.000279
 51
270.000279
  0
LINE
  5
6B
100
AcDbEntity
  8
0
370
    -3
390
0
  6
Continuous
100
AcDbLine
 10
-336.911984
 20
-245.993448
 30
0.0
 11
-336.911977
 21
-247.493448
 31
0.0
  0
LINE
  5
6C
100
AcDbEntity
  8
0
370
    -3
390
0
  6
Continuous
100
AcDbLine
 10
-375.911761
 20
-158.743638
 30
0.0
 11
-175.911761
 21
-158.742859
 31
0.0
  0
LINE
  5
6D
100
AcDbEntity
  8
0
370
    -3
390
0
  6
Continuous
100
AcDbLine
 10
-375.911725
 20
-166.314481
 30
0.0
 11
-175.911725
 21
-166.313702
 31
0.0
  0
LINE
  5
6E
100
AcDbEntity
  8
0
370
    -3
390
0
  6
Continuous
100
AcDbLine
 10
-375.911674
 20
-176.603978
 30
0.0
 11
-175.911674
 21
-176.603199
 31
0.0
  0
LINE
  5
6F
100
AcDbEntity
  8
0
370
    -3
390
0
  6
Continuous
100
AcDbLine
 10
-375.911685
 20
-174.392389
 30
0.0
 11
-175.911685
 21
-174.39161
 31
0.0
  0
LINE
  5
70
100
AcDbEntity
  8
0
370
    -3
390
0
  6
Continuous
100
AcDbLine
 10
-375.911634
 20
-184.850415
 30
0.0
 11
-175.911634
 21
-184.849636
 31
0.0
  0
LINE
  5
71
100
AcDbEntity
  8
0
370
    -3
390
0
  6
Continuous
100
AcDbLine
 10
-375.911623
 20
-187.165514
 30
0.0
 11
-175.911623
 21
-187.164735
 31
0.0
  0
LINE
  5
72
100
AcDbEntity
  8
0
370
    -3
390
0
  6
Continuous
100
AcDbLine
 10
-375.911571
 20
-197.745887
 30
0.0
 11
-175.911571
 21
-197.745108
 31
0.0
  0
LINE
  5
73
100
AcDbEntity
  8
0
370
    -3
390
0
  6
Continuous
100
AcDbLine
 10
-375.911583
 20
-195.293766
 30
0.0
 11
-175.911583
 21
-195.292987
 31
0.0
  0
LINE
  5
74
100
AcDbEntity
  8
0
370
    -3
390
0
  6
Continuous
100
AcDbLine
 10
-375.91152
 20
-208.258211
 30
0.0
 11
-175.91152
 21
-208.257432
 31
0.0
  0
LINE
  5
75
100
AcDbEntity
  8
0
370
    -3
390
0
  6
Continuous
100
AcDbLine
 10
-375.911533
 20
-205.727299
 30
0.0
 11
-175.911533
 21
-205.72652
 31
0.0
  0
LINE
  5
76
100
AcDbEntity
  8
0
370
    -3
390
0
  6
Continuous
100
AcDbLine
 10
-375.911448
 20
-223.17808
 30
0.0
 11
-175.911448
 21
-223.177301
 31
0.0
  0
LINE
  5
77
100
AcDbEntity
  8
0
370
    -3
390
0
  6
Continuous
100
AcDbLine
 10
-375.911406
 20
-231.663361
 30
0.0
 11
-175.911406
 21
-231.662582
 31
0.0
  0
LINE
  5
78
100
AcDbEntity
  8
0
370
    -3
390
0
  6
Continuous
100
AcDbLine
 10
-375.911349
 20
-243.493638
 30
0.0
 11
-175.911349
 21
-243.492859
 31
0.0
  0
LINE
  5
79
100
AcDbEntity
  8
0
370
    -3
390
0
  6
Continuous
100
AcDbLine
 10
-375.911337
 20
-245.993638
 30
0.0
 11
-175.911337
 21
-245.992859
 31
0.0
  0
LINE
  5
7A
100
AcDbEntity
  8
0
370
    -3
390
0
  6
Continuous
100
AcDbLine
 10
-175.912257
 20
-56.992859
 30
0.0
 11
-375.912257
 21
-56.993638
 31
0.0
  0
LINE
  5
7B
100
AcDbEntity
  8
0
370
    -3
390
0
  6
Continuous
100
AcDbLine
 10
-175.912259
 20
-56.492859
 30
0.0
 11
-375.912259
 21
-56.493638
 31
0.0
  0
LINE
  5
7C
100
AcDbEntity
  8
0
370
    -3
390
0
  6
Continuous
100
AcDbLine
 10
-175.911803
 20
-150.242859
 30
0.0
 11
-375.911803
 21
-150.243638
 31
0.0
  0
LINE
  5
7D
100
AcDbEntity
  8
0
370
    -3
390
0
  6
Continuous
100
AcDbLine
 10
-175.91184
 20
-142.672016
 30
0.0
 11
-375.91184
 21
-142.672795
 31
0.0
  0
LINE
  5
7E
100
AcDbEntity
  8
0
370
    -3
390
0
  6
Continuous
100
AcDbLine
 10
-175.911879
 20
-134.594108
 30
0.0
 11
-375.911879
 21
-134.594887
 31
0.0
  0
LINE
  5
7F
100
AcDbEntity
  8
0
370
    -3
390
0
  6
Continuous
100
AcDbLine
 10
-175.91189
 20
-132.382519
 30
0.0
 11
-375.91189
 21
-132.383298
 31
0.0
  0
LINE
  5
80
100
AcDbEntity
  8
0
370
    -3
390
0
  6
Continuous
100
AcDbLine
 10
-175.91193
 20
-124.136082
 30
0.0
 11
-375.91193
 21
-124.136861
 31
0.0
  0
LINE
  5
81
100
AcDbEntity
  8
0
370
    -3
390
0
  6
Continuous
100
AcDbLine
 10
-175.911941
 20
-121.820983
 30
0.0
 11
-375.911941
 21
-121.821762
 31
0.0
  0
LINE
  5
82
100
AcDbEntity
  8
0
370
    -3
390
0
  6
Continuous
100
AcDbLine
 10
-175.911981
 20
-113.692731
 30
0.0
 11
-375.911981
 21
-113.69351
 31
0.0
  0
LINE
  5
83
100
AcDbEntity
  8
0
370
    -3
390
0
  6
Continuous
100
AcDbLine
 10
-175.911993
 20
-111.24061
 30
0.0
 11
-375.911993
 21
-111.241389
 31
0.0
  0
LINE
  5
84
100
AcDbEntity
  8
0
370
    -3
390
0
  6
Continuous
100
AcDbLine
 10
-175.912032
 20
-103.259198
 30
0.0
 11
-375.912032
 21
-103.259977
 31
0.0
  0
LINE
  5
85
100
AcDbEntity
  8
0
370
    -3
390
0
  6
Continuous
100
AcDbLine
 10
-175.912044
 20
-100.728287
 30
0.0
 11
-375.912044
 21
-100.729066
 31
0.0
  0
LINE
  5
86
100
AcDbEntity
  8
0
370
    -3
390
0
  6
Continuous
100
AcDbLine
 10
-175.912116
 20
-85.808417
 30
0.0
 11
-375.912116
 21
-85.809196
 31
0.0
  0
LINE
  5
87
100
AcDbEntity
  8
0
370
    -3
390
0
  6
Continuous
100
AcDbLine
 10
-175.912158
 20
-77.323136
 30
0.0
 11
-375.912158
 21
-77.323915
 31
0.0
  0
LINE
  5
88
100
AcDbEntity
  8
0
370
    -3
390
0
  6
Continuous
100
AcDbLine
 10
-175.912215
 20
-65.492859
 30
0.0
 11
-375.912215
 21
-65.493638
 31
0.0
  0
LINE
  5
89
100
AcDbEntity
  8
0
370
    -3
390
0
  6
Continuous
100
AcDbLine
 10
-175.912247
 20
-58.992859
 30
0.0
 11
-375.912247
 21
-58.993638
 31
0.0
  0
LINE
  5
8A
100
AcDbEntity
  8
0
370
    -3
390
0
  6
Continuous
100
AcDbLine
 10
-175.912235
 20
-61.492859
 30
0.0
 11
-375.912235
 21
-61.493638
 31
0.0
  0
LINE
  5
8B
100
AcDbEntity
  8
0
370
    -3
390
0
  6
Continuous
100
AcDbLine
 10
-175.912254
 20
-57.492859
 30
0.0
 11
-375.912254
 21
-57.493638
 31
0.0
  0
LINE
  5
8C
100
AcDbEntity
  8
0
370
    -3
390
0
  6
Continuous
100
AcDbLine
 10
585.884154
 20
-253.130482
 30
0.0
 11
585.884154
 21
-259.294609
 31
0.0
  0
LINE
  5
8D
100
AcDbEntity
  8
0
370
    -3
390
0
  6
Continuous
100
AcDbLine
 10
637.084154
 20
-253.130415
 30
0.0
 11
637.084154
 21
-259.294609
 31
0.0
  0
ARC
  5
8E
100
AcDbEntity
  8
0
370
    -3
390
0
  6
Continuous
100
AcDbCircle
 10
611.483965
 20
-154.492759
 30
0.0
 40
109.0
100
AcDbArc
 50
47.606524
 51
50.0438
  0
ARC
  5
8F
100
AcDbEntity
  8
0
370
    -3
390
0
  6
Continuous
100
AcDbCircle
 10
611.483965
 20
-154.492759
 30
0.0
 40
109.0
100
AcDbArc
 50
133.477796
 51
141.243779
  0
LINE
  5
90
100
AcDbEntity
  8
0
370
    -3
390
0
  6
DASHED
100
AcDbLine
 10
620.483963
 20
-56.492759
 30
0.0
 11
660.483963
 21
-56.492759
 31
0.0
  0
LINE
  5
91
100
AcDbEntity
  8
0
370
    -3
390
0
  6
DASHED
100
AcDbLine
 10
620.483963
 20
-76.492759
 30
0.0
 11
660.483963
 21
-76.492759
 31
0.0
  0
LINE
  5
92
100
AcDbEntity
  8
0
370
    -3
390
0
  6
DASHED
100
AcDbLine
 10
562.483963
 20
-76.492759
 30
0.0
 11
602.483963
 21
-76.492759
 31
0.0
  0
LINE
  5
93
100
AcDbEntity
  8
0
370
    -3
390
0
  6
DASHED
100
AcDbLine
 10
562.483963
 20
-56.492759
 30
0.0
 11
602.483963
 21
-56.492759
 31
0.0
  0
LINE
  5
94
100
AcDbEntity
  8
0
370
    -3
390
0
  6
DASHED
100
AcDbLine
 10
602.483963
 20
-57.742759
 30
0.0
 11
620.483963
 21
-57.742759
 31
0.0
  0
LINE
  5
95
100
AcDbEntity
  8
0
370
    -3
390
0
  6
DASHED
100
AcDbLine
 10
620.483963
 20
-56.492759
 30
0.0
 11
620.483963
 21
-76.492759
 31
0.0
  0
LINE
  5
96
100
AcDbEntity
  8
0
370
    -3
390
0
  6
DASHED
100
AcDbLine
 10
620.483963
 20
-57.742759
 30
0.0
 11
660.483963
 21
-57.742759
 31
0.0
  0
LINE
  5
97
100
AcDbEntity
  8
0
370
    -3
390
0
  6
DASHED
100
AcDbLine
 10
620.483963
 20
-75.242759
 30
0.0
 11
660.483963
 21
-75.242759
 31
0.0
  0
LINE
  5
98
100
AcDbEntity
  8
0
370
    -3
390
0
  6
DASHED
100
AcDbLine
 10
602.483963
 20
-75.242759
 30
0.0
 11
620.483963
 21
-75.242759
 31
0.0
  0
LINE
  5
99
100
AcDbEntity
  8
0
370
    -3
390
0
  6
DASHED
100
AcDbLine
 10
602.483963
 20
-56.492759
 30
0.0
 11
602.483963
 21
-76.492759
 31
0.0
  0
LINE
  5
9A
100
AcDbEntity
  8
0
370
    -3
390
0
  6
DASHED
100
AcDbLine
 10
562.483963
 20
-75.242759
 30
0.0
 11
602.483963
 21
-75.242759
 31
0.0
  0
LINE
  5
9B
100
AcDbEntity
  8
0
370
    -3
390
0
  6
DASHED
100
AcDbLine
 10
562.483963
 20
-57.742759
 30
0.0
 11
602.483963
 21
-57.742759
 31
0.0
  0
LINE
  5
9C
100
AcDbEntity
  8
0
370
    -3
390
0
  6
DASHED
100
AcDbLine
 10
660.483963
 20
-53.492759
 30
0.0
 11
681.483963
 21
-53.492759
 31
0.0
  0
LINE
  5
9D
100
AcDbEntity
  8
0
370
    -3
390
0
  6
DASHED
100
AcDbLine
 10
660.483963
 20
-53.492759
 30
0.0
 11
660.483963
 21
-79.492759
 31
0.0
  0
LINE
  5
9E
100
AcDbEntity
  8
0
370
    -3
390
0
  6
DASHED
100
AcDbLine
 10
660.483963
 20
-79.492759
 30
0.0
 11
681.483963
 21
-79.492759
 31
0.0
  0
LINE
  5
9F
100
AcDbEntity
  8
0
370
    -3
390
0
  6
DASHED
100
AcDbLine
 10
541.483963
 20
-79.492759
 30
0.0
 11
562.483963
 21
-79.492759
 31
0.0
  0
LINE
  5
A0
100
AcDbEntity
  8
0
370
    -3
390
0
  6
DASHED
100
AcDbLine
 10
541.483963
 20
-53.492759
 30
0.0
 11
562.483963
 21
-53.492759
 31
0.0
  0
LINE
  5
A1
100
AcDbEntity
  8
0
370
    -3
390
0
  6
DASHED
100
AcDbLine
 10
562.483963
 20
-53.492759
 30
0.0
 11
562.483963
 21
-79.492759
 31
0.0
  0
LINE
  5
A2
100
AcDbEntity
  8
0
370
    -3
390
0
  6
DASHED
100
AcDbLine
 10
620.484121
 20
-186.492759
 30
0.0
 11
660.484121
 21
-186.492759
 31
0.0
  0
LINE
  5
A3
100
AcDbEntity
  8
0
370
    -3
390
0
  6
DASHED
100
AcDbLine
 10
620.484121
 20
-206.492759
 30
0.0
 11
660.484121
 21
-206.492759
 31
0.0
  0
LINE
  5
A4
100
AcDbEntity
  8
0
370
    -3
390
0
  6
DASHED
100
AcDbLine
 10
562.484121
 20
-206.492759
 30
0.0
 11
602.484121
 21
-206.492759
 31
0.0
  0
LINE
  5
A5
100
AcDbEntity
  8
0
370
    -3
390
0
  6
DASHED
100
AcDbLine
 10
562.484121
 20
-186.492759
 30
0.0
 11
602.484121
 21
-186.492759
 31
0.0
  0
LINE
  5
A6
100
AcDbEntity
  8
0
370
    -3
390
0
  6
DASHED
100
AcDbLine
 10
602.484121
 20
-187.742759
 30
0.0
 11
620.484121
 21
-187.742759
 31
0.0
  0
LINE
  5
A7
100
AcDbEntity
  8
0
370
    -3
390
0
  6
DASHED
100
AcDbLine
 10
620.484121
 20
-186.492759
 30
0.0
 11
620.484121
 21
-206.492759
 31
0.0
  0
LINE
  5
A8
100
AcDbEntity
  8
0
370
    -3
390
0
  6
DASHED
100
AcDbLine
 10
620.484121
 20
-187.742759
 30
0.0
 11
660.484121
 21
-187.742759
 31
0.0
  0
LINE
  5
A9
100
AcDbEntity
  8
0
370
    -3
390
0
  6
DASHED
100
AcDbLine
 10
620.484121
 20
-205.242759
 30
0.0
 11
660.484121
 21
-205.242759
 31
0.0
  0
LINE
  5
AA
100
AcDbEntity
  8
0
370
    -3
390
0
  6
DASHED
100
AcDbLine
 10
602.484121
 20
-205.242759
 30
0.0
 11
620.484121
 21
-205.242759
 31
0.0
  0
LINE
  5
AB
100
AcDbEntity
  8
0
370
    -3
390
0
  6
DASHED
100
AcDbLine
 10
602.484121
 20
-186.492759
 30
0.0
 11
602.484121
 21
-206.492759
 31
0.0
  0
LINE
  5
AC
100
AcDbEntity
  8
0
370
    -3
390
0
  6
DASHED
100
AcDbLine
 10
562.484121
 20
-205.242759
 30
0.0
 11
602.484121
 21
-205.242759
 31
0.0
  0
LINE
  5
AD
100
AcDbEntity
  8
0
370
    -3
390
0
  6
DASHED
100
AcDbLine
 10
562.484121
 20
-187.742759
 30
0.0
 11
602.484121
 21
-187.742759
 31
0.0
  0
LINE
  5
AE
100
AcDbEntity
  8
0
370
    -3
390
0
  6
DASHED
100
AcDbLine
 10
660.484121
 20
-183.492759
 30
0.0
 11
681.484121
 21
-183.492759
 31
0.0
  0
LINE
  5
AF
100
AcDbEntity
  8
0
370
    -3
390
0
  6
DASHED
100
AcDbLine
 10
660.484121
 20
-183.492759
 30
0.0
 11
660.484121
 21
-209.492759
 31
0.0
  0
LINE
  5
B0
100
AcDbEntity
  8
0
370
    -3
390
0
  6
DASHED
100
AcDbLine
 10
660.484121
 20
-209.492759
 30
0.0
 11
681.484121
 21
-209.492759
 31
0.0
  0
LINE
  5
B1
100
AcDbEntity
  8
0
370
    -3
390
0
  6
DASHED
100
AcDbLine
 10
541.484121
 20
-209.492759
 30
0.0
 11
562.484121
 21
-209.492759
 31
0.0
  0
LINE
  5
B2
100
AcDbEntity
  8
0
370
    -3
390
0
  6
DASHED
100
AcDbLine
 10
541.484121
 20
-183.492759
 30
0.0
 11
562.484121
 21
-183.492759
 31
0.0
  0
LINE
  5
B3
100
AcDbEntity
  8
0
370
    -3
390
0
  6
DASHED
100
AcDbLine
 10
562.484121
 20
-183.492759
 30
0.0
 11
562.484121
 21
-209.492759
 31
0.0
  0
LINE
  5
B4
100
AcDbEntity
  8
0
370
    -3
390
0
  6
Continuous
100
AcDbLine
 10
-408.412157
 20
-77.536428
 30
0.0
 11
-408.412163
 21
-76.25033
 31
0.0
  0
LINE
  5
B5
100
AcDbEntity
  8
0
370
    -3
390
0
  6
Continuous
100
AcDbLine
 10
-396.412157
 20
-77.536369
 30
0.0
 11
-396.412163
 21
-76.250272
 31
0.0
  0
ELLIPSE
  5
B6
100
AcDbEntity
  8
0
370
    -3
390
0
  6
Continuous
100
AcDbEllipse
 10
-402.412163
 20
-76.250301
 30
0.0
 11
5.9999999999288889
 21
0.0000292115218627
 31
0.0
210
0.0
220
0.0
230
1.0
 40
0.689848
 41
2.3102549650649693
 42
3.1415926535898047
  0
ELLIPSE
  5
B7
100
AcDbEntity
  8
0
370
    -3
390
0
  6
Continuous
100
AcDbEllipse
 10
-402.412157
 20
-77.536398
 30
0.0
 11
5.9999999999288889
 21
0.0000292115218627
 31
0.0
210
0.0
220
0.0
230
1.0
 40
0.707107
 41
3.1415926535898047
 42
0.0000000000000115
  0
LINE
  5
B8
100
AcDbEntity
  8
0
370
    -3
390
0
  6
Continuous
100
AcDbLine
 10
-407.412165
 20
-75.863929
 30
0.0
 11
-407.412166
 21
-75.581087
 31
0.0
  0
LINE
  5
B9
100
AcDbEntity
  8
0
370
    -3
390
0
  6
Continuous
100
AcDbLine
 10
-397.412165
 20
-75.863881
 30
0.0
 11
-397.412166
 21
-75.581038
 31
0.0
  0
ELLIPSE
  5
BA
100
AcDbEntity
  8
0
370
    -3
390
0
  6
Continuous
100
AcDbEllipse
 10
-402.412166
 20
-75.581062
 30
0.0
 11
4.9999999999407692
 21
0.0000243429348785
 31
0.0
210
0.0
220
0.0
230
1.0
 40
0.707107
 41
2.6124407455911047
 42
0.5291519079987341
  0
ELLIPSE
  5
BB
100
AcDbEntity
  8
0
370
    -3
390
0
  6
Continuous
100
AcDbEllipse
 10
-402.412165
 20
-75.863905
 30
0.0
 11
4.9999999999407692
 21
0.0000243429348785
 31
0.0
210
0.0
220
0.0
230
1.0
 40
0.763675
 41
3.1415926535898038
 42
0.0000000000000106
  0
ELLIPSE
  5
BC
100
AcDbEntity
  8
0
370
    -3
390
0
  6
Continuous
100
AcDbEllipse
 10
-402.41217
 20
-74.89155
 30
0.0
 11
4.4999999999466809
 21
0.0000219086413864
 31
0.0
210
0.0
220
0.0
230
1.0
 40
0.860332
 41
0.0
 42
6.2831853071795862
  0
ELLIPSE
  5
BD
100
AcDbEntity
  8
0
370
    -3
390
0
  6
Continuous
100
AcDbEllipse
 10
-402.412163
 20
-76.250301
 30
0.0
 11
5.9999999999288889
 21
0.0000292115218627
 31
0.0
210
0.0
220
0.0
230
1.0
 40
0.689848
 41
6.2831853071794885
 42
0.8313376885249557
  0
ELLIPSE
  5
BE
100
AcDbEntity
  8
0
370
    -3
390
0
  6
Continuous
100
AcDbEllipse
 10
-402.412163
 20
-76.250301
 30
0.0
 11
5.9999999999288889
 21
0.0000292115218627
 31
0.0
210
0.0
220
0.0
230
1.0
 40
0.689848
 41
3.1415926535898047
 42
6.2831853071794885
  0
LINE
  5
BF
100
AcDbEntity
  8
0
370
    -3
390
0
  6
Continuous
100
AcDbLine
 10
-402.412178
 20
-73.247609
 30
0.0
 11
-404.412184
 21
-71.952086
 31
0.0
  0
LINE
  5
C0
100
AcDbEntity
  8
0
370
    -3
390
0
  6
Continuous
100
AcDbLine
 10
-402.412178
 20
-73.247609
 30
0.0
 11
-404.41217
 21
-74.780513
 31
0.0
  0
LINE
  5
C1
100
AcDbEntity
  8
0
370
    -3
390
0
  6
Continuous
100
AcDbLine
 10
-402.412178
 20
-73.247609
 30
0.0
 11
-400.41217
 21
-74.780494
 31
0.0
  0
LINE
  5
C2
100
AcDbEntity
  8
0
370
    -3
390
0
  6
Continuous
100
AcDbLine
 10
-402.412178
 20
-73.247609
 30
0.0
 11
-400.412184
 21
-71.952067
 31
0.0
  0
ARC
  5
C3
100
AcDbEntity
  8
0
370
    -3
390
0
  6
Continuous
100
AcDbCircle
 10
-520.912185
 20
-71.701689
 30
0.0
 40
5.0
100
AcDbArc
 50
120.000279
 51
180.000279
  0
ARC
  5
C4
100
AcDbEntity
  8
0
370
    -3
390
0
  6
Continuous
100
AcDbCircle
 10
-479.567086
 20
-112.494229
 30
0.0
 40
61.0
100
AcDbArc
 50
90.000279
 51
120.000279
  0
LINE
  5
C5
100
AcDbEntity
  8
0
370
    -3
390
0
  6
Continuous
100
AcDbLine
 10
-523.412206
 20
-67.371574
 30
0.0
 11
-510.067343
 21
-59.666827
 31
0.0
  0
LINE
  5
C6
100
AcDbEntity
  8
0
370
    -3
390
0
  6
Continuous
100
AcDbLine
 10
-375.912284
 20
-51.49405
 30
0.0
 11
-479.567383
 21
-51.494229
 31
0.0
  0
LINE
  5
C7
100
AcDbEntity
  8
0
370
    -3
390
0
  6
Continuous
100
AcDbLine
 10
-523.411761
 20
-241.617077
 30
0.0
 11
-510.06642
 21
-249.321927
 31
0.0
  0
LINE
  5
C8
100
AcDbEntity
  8
0
370
    -3
390
0
  6
Continuous
100
AcDbLine
 10
-408.411407
 20
-231.451989
 30
0.0
 11
-408.411401
 21
-232.738086
 31
0.0
  0
LINE
  5
C9
100
AcDbEntity
  8
0
370
    -3
390
0
  6
Continuous
100
AcDbLine
 10
-396.411407
 20
-231.451931
 30
0.0
 11
-396.411401
 21
-232.738028
 31
0.0
  0
ELLIPSE
  5
CA
100
AcDbEntity
  8
0
370
    -3
390
0
  6
Continuous
100
AcDbEllipse
 10
-402.411401
 20
-232.738057
 30
0.0
 11
5.9999999999288889
 21
0.0000292115218485
 31
0.0
210
0.0
220
0.0
230
1.0
 40
0.689848
 41
3.1415926535898047
 42
3.9729303421147111
  0
ELLIPSE
  5
CB
100
AcDbEntity
  8
0
370
    -3
390
0
  6
Continuous
100
AcDbEllipse
 10
-402.411407
 20
-231.45196
 30
0.0
 11
5.9999999999288889
 21
0.0000292115218485
 31
0.0
210
0.0
220
0.0
230
1.0
 40
0.707107
 41
0.0000000000000115
 42
3.1415926535898047
  0
LINE
  5
CC
100
AcDbEntity
  8
0
370
    -3
390
0
  6
Continuous
100
AcDbLine
 10
-407.411399
 20
-233.124478
 30
0.0
 11
-407.411398
 21
-233.40732
 31
0.0
  0
LINE
  5
CD
100
AcDbEntity
  8
0
370
    -3
390
0
  6
Continuous
100
AcDbLine
 10
-397.411399
 20
-233.124429
 30
0.0
 11
-397.411398
 21
-233.407272
 31
0.0
  0
ELLIPSE
  5
CE
100
AcDbEntity
  8
0
370
    -3
390
0
  6
Continuous
100
AcDbEllipse
 10
-402.411398
 20
-233.407296
 30
0.0
 11
4.9999999999407692
 21
0.0000243429348927
 31
0.0
210
0.0
220
0.0
230
1.0
 40
0.707107
 41
5.7540333991808996
 42
3.6707445615885712
  0
ELLIPSE
  5
CF
100
AcDbEntity
  8
0
370
    -3
390
0
  6
Continuous
100
AcDbEllipse
 10
-402.411399
 20
-233.124453
 30
0.0
 11
4.9999999999407692
 21
0.0000243429348927
 31
0.0
210
0.0
220
0.0
230
1.0
 40
0.763675
 41
6.2831853071794779
 42
3.1415926535898038
  0
ELLIPSE
  5
D0
100
AcDbEntity
  8
0
370
    -3
390
0
  6
Continuous
100
AcDbEllipse
 10
-402.411395
 20
-234.096808
 30
0.0
 11
4.4999999999466809
 21
0.0000219086414006
 31
0.0
210
0.0
220
0.0
230
1.0
 40
0.860332
 41
0.0
 42
6.2831853071795862
  0
ELLIPSE
  5
D1
100
AcDbEntity
  8
0
370
    -3
390
0
  6
Continuous
100
AcDbEllipse
 10
-402.411401
 20
-232.738057
 30
0.0
 11
5.9999999999288889
 21
0.0000292115218485
 31
0.0
210
0.0
220
0.0
230
1.0
 40
0.689848
 41
5.4518476186545763
 42
6.2831853071794885
  0
ELLIPSE
  5
D2
100
AcDbEntity
  8
0
370
    -3
390
0
  6
Continuous
100
AcDbEllipse
 10
-402.411401
 20
-232.738057
 30
0.0
 11
5.9999999999288889
 21
0.0000292115218485
 31
0.0
210
0.0
220
0.0
230
1.0
 40
0.689848
 41
6.2831853071794885
 42
3.1415926535898047
  0
LINE
  5
D3
100
AcDbEntity
  8
0
370
    -3
390
0
  6
Continuous
100
AcDbLine
 10
-402.411387
 20
-235.740749
 30
0.0
 11
-404.41138
 21
-237.036291
 31
0.0
  0
LINE
  5
D4
100
AcDbEntity
  8
0
370
    -3
390
0
  6
Continuous
100
AcDbLine
 10
-402.411387
 20
-235.740749
 30
0.0
 11
-404.411394
 21
-234.207864
 31
0.0
  0
LINE
  5
D5
100
AcDbEntity
  8
0
370
    -3
390
0
  6
Continuous
100
AcDbLine
 10
-402.411387
 20
-235.740749
 30
0.0
 11
-400.411394
 21
-234.207845
 31
0.0
  0
LINE
  5
D6
100
AcDbEntity
  8
0
370
    -3
390
0
  6
Continuous
100
AcDbLine
 10
-402.411387
 20
-235.740749
 30
0.0
 11
-400.41138
 21
-237.036272
 31
0.0
  0
ARC
  5
D7
100
AcDbEntity
  8
0
370
    -3
390
0
  6
Continuous
100
AcDbCircle
 10
-479.566677
 20
-196.494229
 30
0.0
 40
61.0
100
AcDbArc
 50
240.000279
 51
270.000279
  0
LINE
  5
D8
100
AcDbEntity
  8
0
370
    -3
390
0
  6
Continuous
100
AcDbLine
 10
-390.911281
 20
-257.494123
 30
0.0
 11
-479.56638
 21
-257.494229
 31
0.0
  0
ARC
  5
D9
100
AcDbEntity
  8
0
370
    -3
390
0
  6
Continuous
100
AcDbCircle
 10
-389.911281
 20
-257.368745
 30
0.0
 40
1.0
100
AcDbArc
 50
90.000279
 51
180.000279
  0
LINE
  5
DA
100
AcDbEntity
  8
0
370
    -3
390
0
  6
Continuous
100
AcDbLine
 10
-378.911286
 20
-256.368692
 30
0.0
 11
-389.911286
 21
-256.368745
 31
0.0
  0
LINE
  5
DB
100
AcDbEntity
  8
0
370
    -3
390
0
  6
Continuous
100
AcDbLine
 10
-390.911281
 20
-257.494123
 30
0.0
 11
-390.911281
 21
-257.36875
 31
0.0
  0
ARC
  5
DC
100
AcDbEntity
  8
0
370
    -3
390
0
  6
Continuous
100
AcDbCircle
 10
-378.911301
 20
-253.368692
 30
0.0
 40
3.0
100
AcDbArc
 50
270.000279
 51
1.026428
  0
ARC
  5
DD
100
AcDbEntity
  8
0
370
    -3
390
0
  6
Continuous
100
AcDbCircle
 10
-358.711665
 20
-312.491793
 30
0.0
 40
1.299999
100
AcDbArc
 50
286.601531
 51
0.0
  0
LINE
  5
DE
100
AcDbEntity
  8
0
370
    -3
390
0
  6
Continuous
100
AcDbLine
 10
-357.411666
 20
-312.491793
 30
0.0
 11
-357.411666
 21
-312.095266
 31
0.0
  0
ARC
  5
DF
100
AcDbEntity
  8
0
370
    -3
390
0
  6
Continuous
100
AcDbCircle
 10
-358.911666
 20
-312.095266
 30
0.0
 40
1.5
100
AcDbArc
 50
0.0
 51
32.230953
  0
ARC
  5
E0
100
AcDbEntity
  8
0
370
    -3
390
0
  6
Continuous
100
AcDbCircle
 10
-360.911666
 20
-305.112769
 30
0.0
 40
9.0
100
AcDbArc
 50
253.398469
 51
286.601548
  0
ARC
  5
E1
100
AcDbEntity
  8
0
370
    -3
390
0
  6
Continuous
100
AcDbCircle
 10
-363.111667
 20
-312.491793
 30
0.0
 40
1.299999
100
AcDbArc
 50
180.0
 51
253.398469
  0
LINE
  5
E2
100
AcDbEntity
  8
0
370
    -3
390
0
  6
Continuous
100
AcDbLine
 10
-364.411666
 20
-312.491793
 30
0.0
 11
-364.411666
 21
-312.095266
 31
0.0
  0
ARC
  5
E3
100
AcDbEntity
  8
0
370
    -3
390
0
  6
Continuous
100
AcDbCircle
 10
-362.911666
 20
-312.095266
 30
0.0
 40
1.5
100
AcDbArc
 50
147.769047
 51
180.0
  0
LINE
  5
E4
100
AcDbEntity
  8
0
370
    -3
390
0
  6
CENTER
100
AcDbLine
 10
666.277003
 20
-287.492759
 30
0.0
 11
639.450023
 21
-287.492759
 31
0.0
  0
ARC
  5
E5
100
AcDbEntity
  8
0
370
    -3
390
0
  6
Continuous
100
AcDbCircle
 10
584.284154
 20
-259.294609
 30
0.0
 40
1.6
100
AcDbArc
 50
270.0
 51
0.0
  0
ARC
  5
E6
100
AcDbEntity
  8
0
370
    -3
390
0
  6
Continuous
100
AcDbCircle
 10
638.684154
 20
-259.294609
 30
0.0
 40
1.6
100
AcDbArc
 50
180.0
 51
270.0
  0
LINE
  5
E7
100
AcDbEntity
  8
0
370
    -3
390
0
  6
Continuous
100
AcDbLine
 10
603.761291
 20
-263.494609
 30
0.0
 11
619.206628
 21
-263.494609
 31
0.0
  0
LINE
  5
E8
100
AcDbEntity
  8
0
370
    -3
390
0
  6
Continuous
100
AcDbLine
 10
618.261396
 20
-262.494609
 30
0.0
 11
604.706523
 21
-262.494609
 31
0.0
  0
LINE
  5
E9
100
AcDbEntity
  8
0
370
    -3
390
0
  6
Continuous
100
AcDbLine
 10
604.706523
 20
-262.494609
 30
0.0
 11
618.261396
 21
-262.494609
 31
0.0
  0
LINE
  5
EA
100
AcDbEntity
  8
0
370
    -3
390
0
  6
Continuous
100
AcDbLine
 10
590.983962
 20
-262.494609
 30
0.0
 11
580.484154
 21
-262.494609
 31
0.0
  0
LINE
  5
EB
100
AcDbEntity
  8
0
370
    -3
390
0
  6
Continuous
100
AcDbLine
 10
590.983962
 20
-261.494609
 30
0.0
 11
580.484154
 21
-261.494609
 31
0.0
  0
LINE
  5
EC
100
AcDbEntity
  8
0
370
    -3
390
0
  6
Continuous
100
AcDbLine
 10
631.983962
 20
-263.494609
 30
0.0
 11
652.984154
 21
-263.494609
 31
0.0
  0
LINE
  5
ED
100
AcDbEntity
  8
0
370
    -3
390
0
  6
Continuous
100
AcDbLine
 10
625.198657
 20
-289.31679
 30
0.0
 11
672.815655
 21
-310.517244
 31
0.0
  0
LINE
  5
EE
100
AcDbEntity
  8
0
370
    -3
390
0
  6
Continuous
100
AcDbLine
 10
572.825934
 20
-265.998952
 30
0.0
 11
573.140068
 21
-265.86561
 31
0.0
  0
LINE
  5
EF
100
AcDbEntity
  8
0
370
    -3
390
0
  6
Continuous
100
AcDbLine
 10
572.827483
 20
-265.129206
 30
0.0
 11
573.140068
 21
-265.86561
 31
0.0
  0
ARC
  5
F0
100
AcDbEntity
  8
0
370
    -3
390
0
  6
Continuous
100
AcDbCircle
 10
572.283947
 20
-273.20117
 30
0.0
 40
3.0
100
AcDbArc
 50
9.318123
 51
66.0
  0
LINE
  5
F1
100
AcDbEntity
  8
0
370
    -3
390
0
  6
Continuous
100
AcDbLine
 10
575.249
 20
-267.07777
 30
0.0
 11
576.051913
 21
-265.274399
 31
0.0
  0
ARC
  5
F2
100
AcDbEntity
  8
0
370
    -3
390
0
  6
Continuous
100
AcDbCircle
 10
578.792549
 20
-266.494609
 30
0.0
 40
3.0
100
AcDbArc
 50
90.0
 51
156.0
  0
ARC
  5
F3
100
AcDbEntity
  8
0
370
    -3
390
0
  6
Continuous
100
AcDbCircle
 10
652.984154
 20
-268.494609
 30
0.0
 40
5.0
100
AcDbArc
 50
0.0
 51
90.0
  0
LINE
  5
F4
100
AcDbEntity
  8
0
370
    -3
390
0
  6
Continuous
100
AcDbLine
 10
578.792549
 20
-263.494609
 30
0.0
 11
590.983962
 21
-263.494609
 31
0.0
  0
ARC
  5
F5
100
AcDbEntity
  8
0
370
    -3
390
0
  6
Continuous
100
AcDbCircle
 10
569.907829
 20
-267.764709
 30
0.0
 40
1.0
100
AcDbArc
 50
156.0
 51
246.0
  0
LINE
  5
F6
100
AcDbEntity
  8
0
370
    -3
390
0
  6
Continuous
100
AcDbLine
 10
571.826642
 20
-265.554038
 30
0.0
 11
572.827483
 21
-265.129206
 31
0.0
  0
LINE
  5
F7
100
AcDbEntity
  8
0
370
    -3
390
0
  6
Continuous
100
AcDbLine
 10
568.994283
 20
-267.357972
 30
0.0
 11
570.133146
 21
-264.800045
 31
0.0
  0
LINE
  5
F8
100
AcDbEntity
  8
0
370
    -3
390
0
  6
Continuous
100
AcDbLine
 10
569.501092
 20
-268.678255
 30
0.0
 11
590.983962
 21
-278.243045
 31
0.0
  0
LINE
  5
F9
100
AcDbEntity
  8
0
370
    -3
390
0
  6
Continuous
100
AcDbLine
 10
575.244361
 20
-272.715422
 30
0.0
 11
579.50319
 21
-298.67106
 31
0.0
  0
ARC
  5
FA
100
AcDbEntity
  8
0
370
    -3
390
0
  6
Continuous
100
AcDbCircle
 10
594.305258
 20
-296.24232
 30
0.0
 40
15.0
100
AcDbArc
 50
189.318123
 51
268.317231
  0
LINE
  5
FB
100
AcDbEntity
  8
0
370
    -3
390
0
  6
Continuous
100
AcDbLine
 10
668.110896
 20
-308.42255
 30
0.0
 11
669.81919
 21
-304.585659
 31
0.0
  0
LINE
  5
FC
100
AcDbEntity
  8
0
370
    -3
390
0
  6
Continuous
100
AcDbLine
 10
665.096196
 20
-307.080319
 30
0.0
 11
666.80449
 21
-303.243428
 31
0.0
  0
LINE
  5
FD
100
AcDbEntity
  8
0
370
    -3
390
0
  6
Continuous
100
AcDbLine
 10
666.342391
 20
-303.420811
 30
0.0
 11
666.80449
 21
-303.243428
 31
0.0
  0
LINE
  5
FE
100
AcDbEntity
  8
0
370
    -3
390
0
  6
Continuous
100
AcDbLine
 10
669.996573
 20
-305.047758
 30
0.0
 11
669.81919
 21
-304.585659
 31
0.0
  0
LINE
  5
FF
100
AcDbEntity
  8
0
370
    -3
390
0
  6
Continuous
100
AcDbLine
 10
666.80449
 20
-303.243428
 30
0.0
 11
669.81919
 21
-304.585659
 31
0.0
  0
POINT
  5
100
100
AcDbEntity
  8
0
370
    -3
390
0
  6
Continuous
100
AcDbPoint
 10
665.057947
 20
-311.222907
 30
0.0
  0
LINE
  5
101
100
AcDbEntity
  8
0
370
    -3
390
0
  6
Continuous
100
AcDbLine
 10
661.860538
 20
-309.799329
 30
0.0
 11
668.255356
 21
-312.646486
 31
0.0
  0
LINE
  5
102
100
AcDbEntity
  8
0
370
    -3
390
0
  6
Continuous
100
AcDbLine
 10
661.860538
 20
-309.799329
 30
0.0
 11
668.255356
 21
-312.646486
 31
0.0
  0
LINE
  5
103
100
AcDbEntity
  8
0
370
    -3
390
0
  6
Continuous
100
AcDbLine
 10
668.255356
 20
-312.646486
 30
0.0
 11
667.85715
 21
-313.54087
 31
0.0
  0
LINE
  5
104
100
AcDbEntity
  8
0
370
    -3
390
0
  6
Continuous
100
AcDbLine
 10
661.860538
 20
-309.799329
 30
0.0
 11
661.462332
 21
-310.693713
 31
0.0
  0
ARC
  5
105
100
AcDbEntity
  8
0
370
    -3
390
0
  6
Continuous
100
AcDbCircle
 10
662.649941
 20
-311.222471
 30
0.0
 40
1.299999
100
AcDbArc
 50
155.999999
 51
229.398469
  0
ARC
  5
106
100
AcDbEntity
  8
0
370
    -3
390
0
  6
Continuous
100
AcDbCircle
 10
611.484154
 20
288.505391
 30
0.0
 40
600.0
100
AcDbArc
 50
268.317231
 51
274.715125
  0
ARC
  5
107
100
AcDbEntity
  8
0
370
    -3
390
0
  6
Continuous
100
AcDbCircle
 10
660.887313
 20
-310.460658
 30
0.0
 40
1.0
100
AcDbArc
 50
66.0
 51
94.715125
  0
LINE
  5
108
100
AcDbEntity
  8
0
370
    -3
390
0
  6
Continuous
100
AcDbLine
 10
657.984154
 20
-268.494609
 30
0.0
 11
657.984154
 21
-303.913834
 31
0.0
  0
LINE
  5
109
100
AcDbEntity
  8
0
370
    -3
390
0
  6
Continuous
100
AcDbLine
 10
671.676793
 20
-313.075171
 30
0.0
 11
672.815655
 21
-310.517244
 31
0.0
  0
ARC
  5
10A
100
AcDbEntity
  8
0
370
    -3
390
0
  6
Continuous
100
AcDbCircle
 10
670.763247
 20
-312.668434
 30
0.0
 40
1.0
100
AcDbArc
 50
246.0
 51
336.0
  0
LINE
  5
10B
100
AcDbEntity
  8
0
370
    -3
390
0
  6
Continuous
100
AcDbLine
 10
617.048202
 20
-289.847592
 30
0.0
 11
670.35651
 21
-313.58198
 31
0.0
  0
ARC
  5
10C
100
AcDbEntity
  8
0
370
    -3
390
0
  6
Continuous
100
AcDbCircle
 10
658.256392
 20
-309.289296
 30
0.0
 40
1.0
100
AcDbArc
 50
66.0
 51
156.0
  0
ARC
  5
10D
100
AcDbEntity
  8
0
370
    -3
390
0
  6
Continuous
100
AcDbCircle
 10
655.606789
 20
-307.864623
 30
0.0
 40
2.0
100
AcDbArc
 50
274.231338
 51
336.0
  0
LINE
  5
10E
100
AcDbEntity
  8
0
370
    -3
390
0
  6
Continuous
100
AcDbLine
 10
664.776455
 20
-306.937961
 30
0.0
 11
666.342391
 21
-303.420811
 31
0.0
  0
LINE
  5
10F
100
AcDbEntity
  8
0
370
    -3
390
0
  6
Continuous
100
AcDbLine
 10
668.430637
 20
-308.564908
 30
0.0
 11
669.996573
 21
-305.047758
 31
0.0
  0
LINE
  5
110
100
AcDbEntity
  8
0
370
    -3
390
0
  6
Continuous
100
AcDbLine
 10
570.133146
 20
-264.800045
 30
0.0
 11
590.983962
 21
-274.083427
 31
0.0
  0
ARC
  5
111
100
AcDbEntity
  8
0
370
    -3
390
0
  6
Continuous
100
AcDbCircle
 10
666.669542
 20
-313.012112
 30
0.0
 40
1.299999
100
AcDbArc
 50
262.601548
 51
336.000018
  0
ARC
  5
112
100
AcDbEntity
  8
0
370
    -3
390
0
  6
Continuous
100
AcDbCircle
 10
667.661061
 20
-305.376217
 30
0.0
 40
9.0
100
AcDbArc
 50
229.398469
 51
262.601548
  0
LINE
  5
113
100
AcDbEntity
  8
0
370
    -3
390
0
  6
Continuous
100
AcDbLine
 10
642.484154
 20
-262.494609
 30
0.0
 11
642.484154
 21
-260.894609
 31
0.0
  0
LINE
  5
114
100
AcDbEntity
  8
0
370
    -3
390
0
  6
Continuous
100
AcDbLine
 10
642.484154
 20
-260.894609
 30
0.0
 11
631.983962
 21
-260.894609
 31
0.0
  0
LINE
  5
115
100
AcDbEntity
  8
0
370
    -3
390
0
  6
Continuous
100
AcDbLine
 10
580.484154
 20
-262.494609
 30
0.0
 11
580.484154
 21
-260.894609
 31
0.0
  0
LINE
  5
116
100
AcDbEntity
  8
0
370
    -3
390
0
  6
Continuous
100
AcDbLine
 10
580.484154
 20
-260.894609
 30
0.0
 11
590.983962
 21
-260.894609
 31
0.0
  0
ARC
  5
117
100
AcDbEntity
  8
0
370
    -3
390
0
  6
Continuous
100
AcDbCircle
 10
640.749065
 20
-263.194609
 30
0.0
 40
0.3
100
AcDbArc
 50
193.342364
 51
270.0
  0
ARC
  5
118
100
AcDbEntity
  8
0
370
    -3
390
0
  6
Continuous
100
AcDbCircle
 10
582.219243
 20
-263.194609
 30
0.0
 40
0.3
100
AcDbArc
 50
270.0
 51
346.657636
  0
LINE
  5
119
100
AcDbEntity
  8
0
370
    -3
390
0
  6
Continuous
100
AcDbLine
 10
642.484154
 20
-261.494609
 30
0.0
 11
642.484154
 21
-262.494609
 31
0.0
  0
LINE
  5
11A
100
AcDbEntity
  8
0
370
    -3
390
0
  6
Continuous
100
AcDbLine
 10
642.484154
 20
-262.494609
 30
0.0
 11
631.983962
 21
-262.494609
 31
0.0
  0
LINE
  5
11B
100
AcDbEntity
  8
0
370
    -3
390
0
  6
Continuous
100
AcDbLine
 10
642.484154
 20
-261.494609
 30
0.0
 11
631.983962
 21
-261.494609
 31
0.0
  0
ARC
  5
11C
100
AcDbEntity
  8
0
370
    -3
390
0
  6
Continuous
100
AcDbCircle
 10
639.484154
 20
-263.494609
 30
0.0
 40
1.0
100
AcDbArc
 50
13.342364
 51
90.0
  0
LINE
  5
11D
100
AcDbEntity
  8
0
370
    -3
390
0
  6
Continuous
100
AcDbLine
 10
580.484154
 20
-261.494609
 30
0.0
 11
580.484154
 21
-262.494609
 31
0.0
  0
ARC
  5
11E
100
AcDbEntity
  8
0
370
    -3
390
0
  6
Continuous
100
AcDbCircle
 10
583.484154
 20
-263.494609
 30
0.0
 40
1.0
100
AcDbArc
 50
90.0
 51
166.657636
  0
LINE
  5
11F
100
AcDbEntity
  8
0
370
    -3
390
0
  6
CENTER
100
AcDbLine
 10
-330.793109
 20
-287.492759
 30
0.0
 11
-392.00592
 21
-287.492759
 31
0.0
  0
CIRCLE
  5
120
100
AcDbEntity
  8
0
370
    -3
390
0
  6
DASHED
100
AcDbCircle
 10
-360.911782
 20
-287.492759
 30
0.0
 40
13.5
  0
POINT
  5
121
100
AcDbEntity
  8
0
370
    -3
390
0
  6
DASHED
100
AcDbPoint
 10
-374.411782
 20
-287.492759
 30
0.0
  0
ARC
  5
122
100
AcDbEntity
  8
0
370
    -3
390
0
  6
Continuous
100
AcDbCircle
 10
533.483963
 20
-161.992759
 30
0.0
 40
1.0
100
AcDbArc
 50
180.0
 51
270.0
  0
LINE
  5
123
100
AcDbEntity
  8
0
370
    -3
390
0
  6
Continuous
100
AcDbLine
 10
533.483963
 20
-162.992759
 30
0.0
 11
536.483963
 21
-162.992759
 31
0.0
  0
ARC
  5
124
100
AcDbEntity
  8
0
370
    -3
390
0
  6
Continuous
100
AcDbCircle
 10
533.483963
 20
-100.992759
 30
0.0
 40
1.0
100
AcDbArc
 50
90.0
 51
180.0
  0
LINE
  5
125
100
AcDbEntity
  8
0
370
    -3
390
0
  6
Continuous
100
AcDbLine
 10
533.483963
 20
-99.992759
 30
0.0
 11
536.483963
 21
-99.992759
 31
0.0
  0
LINE
  5
126
100
AcDbEntity
  8
0
370
    -3
390
0
  6
Continuous
100
AcDbLine
 10
532.483963
 20
-100.992759
 30
0.0
 11
532.483963
 21
-161.992759
 31
0.0
  0
ARC
  5
127
100
AcDbEntity
  8
0
370
    -3
390
0
  6
Continuous
100
AcDbCircle
 10
689.483963
 20
-161.992759
 30
0.0
 40
1.0
100
AcDbArc
 50
270.0
 51
0.0
  0
LINE
  5
128
100
AcDbEntity
  8
0
370
    -3
390
0
  6
Continuous
100
AcDbLine
 10
689.483963
 20
-162.992759
 30
0.0
 11
686.483963
 21
-162.992759
 31
0.0
  0
ARC
  5
129
100
AcDbEntity
  8
0
370
    -3
390
0
  6
Continuous
100
AcDbCircle
 10
689.483963
 20
-100.992759
 30
0.0
 40
1.0
100
AcDbArc
 50
0.0
 51
90.0
  0
LINE
  5
12A
100
AcDbEntity
  8
0
370
    -3
390
0
  6
Continuous
100
AcDbLine
 10
689.483963
 20
-99.992759
 30
0.0
 11
686.483963
 21
-99.992759
 31
0.0
  0
LINE
  5
12B
100
AcDbEntity
  8
0
370
    -3
390
0
  6
Continuous
100
AcDbLine
 10
690.483963
 20
-100.992759
 30
0.0
 11
690.483963
 21
-161.992759
 31
0.0
  0
ARC
  5
12C
100
AcDbEntity
  8
0
370
    -3
390
0
  6
Continuous
100
AcDbCircle
 10
32.088218
 20
-131.492759
 30
0.0
 40
22.5
100
AcDbArc
 50
108.126204
 51
71.873796
  0
LINE
  5
12D
100
AcDbEntity
  8
0
370
    -3
390
0
  6
Continuous
100
AcDbLine
 10
25.088218
 20
-110.109355
 30
0.0
 11
25.088218
 21
-105.192759
 31
0.0
  0
LINE
  5
12E
100
AcDbEntity
  8
0
370
    -3
390
0
  6
Continuous
100
AcDbLine
 10
39.088218
 20
-110.109355
 30
0.0
 11
39.088218
 21
-105.192759
 31
0.0
  0
LINE
  5
12F
100
AcDbEntity
  8
0
370
    -3
390
0
  6
Continuous
100
AcDbLine
 10
39.088218
 20
-105.192759
 30
0.0
 11
25.088218
 21
-105.192759
 31
0.0
  0
CIRCLE
  5
130
100
AcDbEntity
  8
0
370
    -3
390
0
  6
Continuous
100
AcDbCircle
 10
32.088218
 20
-131.492759
 30
0.0
 40
31.5
  0
ARC
  5
131
100
AcDbEntity
  8
0
370
    -3
390
0
  6
Continuous
100
AcDbCircle
 10
201.613798
 20
-131.492759
 30
0.0
 40
22.5
100
AcDbArc
 50
108.126204
 51
71.873796
  0
LINE
  5
132
100
AcDbEntity
  8
0
370
    -3
390
0
  6
CENTER
100
AcDbLine
 10
201.613798
 20
-172.122447
 30
0.0
 11
201.613798
 21
-90.897223
 31
0.0
  0
LINE
  5
133
100
AcDbEntity
  8
0
370
    -3
390
0
  6
CENTER
100
AcDbLine
 10
241.259832
 20
-131.492759
 30
0.0
 11
162.280467
 21
-131.492759
 31
0.0
  0
LINE
  5
134
100
AcDbEntity
  8
0
370
    -3
390
0
  6
Continuous
100
AcDbLine
 10
194.613798
 20
-110.109355
 30
0.0
 11
194.613798
 21
-105.192759
 31
0.0
  0
LINE
  5
135
100
AcDbEntity
  8
0
370
    -3
390
0
  6
Continuous
100
AcDbLine
 10
208.613798
 20
-110.109355
 30
0.0
 11
208.613798
 21
-105.192759
 31
0.0
  0
LINE
  5
136
100
AcDbEntity
  8
0
370
    -3
390
0
  6
Continuous
100
AcDbLine
 10
208.613798
 20
-105.192759
 30
0.0
 11
194.613798
 21
-105.192759
 31
0.0
  0
CIRCLE
  5
137
100
AcDbEntity
  8
0
370
    -3
390
0
  6
Continuous
100
AcDbCircle
 10
201.613798
 20
-131.492759
 30
0.0
 40
31.5
  0
LINE
  5
138
100
AcDbEntity
  8
0
370
    -3
390
0
  6
Continuous
100
AcDbLine
 10
280.025254
 20
-155.992759
 30
0.0
 11
283.489355
 21
-153.992759
 31
0.0
  0
LINE
  5
139
100
AcDbEntity
  8
0
370
    -3
390
0
  6
Continuous
100
AcDbLine
 10
438.025254
 20
-155.992759
 30
0.0
 11
434.561152
 21
-153.992759
 31
0.0
  0
ARC
  5
13A
100
AcDbEntity
  8
0
370
    -3
390
0
  6
Continuous
100
AcDbCircle
 10
301.425254
 20
-166.092759
 30
0.0
 40
0.4
100
AcDbArc
 50
180.0
 51
270.0
  0
ARC
  5
13B
100
AcDbEntity
  8
0
370
    -3
390
0
  6
Continuous
100
AcDbCircle
 10
416.625274
 20
-166.092759
 30
0.0
 40
0.4
100
AcDbArc
 50
270.0
 51
0.0
  0
LINE
  5
13C
100
AcDbEntity
  8
0
370
    -3
390
0
  6
Continuous
100
AcDbLine
 10
283.489355
 20
-153.992759
 30
0.0
 11
308.125254
 21
-153.992759
 31
0.0
  0
LINE
  5
13D
100
AcDbEntity
  8
0
370
    -3
390
0
  6
Continuous
100
AcDbLine
 10
310.025254
 20
-153.992759
 30
0.0
 11
347.025254
 21
-153.992759
 31
0.0
  0
LINE
  5
13E
100
AcDbEntity
  8
0
370
    -3
390
0
  6
Continuous
100
AcDbLine
 10
308.075254
 20
-155.242759
 30
0.0
 11
310.025254
 21
-155.242759
 31
0.0
  0
LINE
  5
13F
100
AcDbEntity
  8
0
370
    -3
390
0
  6
Continuous
100
AcDbLine
 10
347.025254
 20
-154.192759
 30
0.0
 11
371.025254
 21
-154.192759
 31
0.0
  0
LINE
  5
140
100
AcDbEntity
  8
0
370
    -3
390
0
  6
Continuous
100
AcDbLine
 10
371.025254
 20
-153.992759
 30
0.0
 11
408.025254
 21
-153.992759
 31
0.0
  0
LINE
  5
141
100
AcDbEntity
  8
0
370
    -3
390
0
  6
Continuous
100
AcDbLine
 10
409.925254
 20
-153.992759
 30
0.0
 11
434.561152
 21
-153.992759
 31
0.0
  0
LINE
  5
142
100
AcDbEntity
  8
0
370
    -3
390
0
  6
Continuous
100
AcDbLine
 10
408.025254
 20
-155.242759
 30
0.0
 11
409.975254
 21
-155.242759
 31
0.0
  0
ARC
  5
143
100
AcDbEntity
  8
0
370
    -3
390
0
  6
Continuous
100
AcDbCircle
 10
437.025254
 20
-161.992759
 30
0.0
 40
1.0
100
AcDbArc
 50
270.0
 51
0.0
  0
ARC
  5
144
100
AcDbEntity
  8
0
370
    -3
390
0
  6
Continuous
100
AcDbCircle
 10
281.025254
 20
-161.992759
 30
0.0
 40
1.0
100
AcDbArc
 50
180.0
 51
270.0
  0
LINE
  5
145
100
AcDbEntity
  8
0
370
    -3
390
0
  6
Continuous
100
AcDbLine
 10
397.706211
 20
-166.492759
 30
0.0
 11
416.625274
 21
-166.492759
 31
0.0
  0
ARC
  5
146
100
AcDbEntity
  8
0
370
    -3
390
0
  6
Continuous
100
AcDbCircle
 10
397.125264
 20
-166.342759
 30
0.0
 40
0.4
100
AcDbArc
 50
270.0
 51
316.567463
  0
ARC
  5
147
100
AcDbEntity
  8
0
370
    -3
390
0
  6
Continuous
100
AcDbCircle
 10
397.706211
 20
-166.892759
 30
0.0
 40
0.4
100
AcDbArc
 50
90.0
 51
136.567463
  0
LINE
  5
148
100
AcDbEntity
  8
0
370
    -3
390
0
  6
Continuous
100
AcDbLine
 10
397.125264
 20
-166.742759
 30
0.0
 11
380.925264
 21
-166.742759
 31
0.0
  0
ARC
  5
149
100
AcDbEntity
  8
0
370
    -3
390
0
  6
Continuous
100
AcDbCircle
 10
380.925264
 20
-167.142759
 30
0.0
 40
0.4
100
AcDbArc
 50
90.0
 51
180.0
  0
LINE
  5
14A
100
AcDbEntity
  8
0
370
    -3
390
0
  6
Continuous
100
AcDbLine
 10
380.525264
 20
-169.092759
 30
0.0
 11
380.525264
 21
-167.142759
 31
0.0
  0
ARC
  5
14B
100
AcDbEntity
  8
0
370
    -3
390
0
  6
Continuous
100
AcDbCircle
 10
380.125264
 20
-169.092759
 30
0.0
 40
0.4
100
AcDbArc
 50
270.0
 51
0.0
  0
LINE
  5
14C
100
AcDbEntity
  8
0
370
    -3
390
0
  6
Continuous
100
AcDbLine
 10
318.925264
 20
-169.492759
 30
0.0
 11
380.125264
 21
-169.492759
 31
0.0
  0
ARC
  5
14D
100
AcDbEntity
  8
0
370
    -3
390
0
  6
Continuous
100
AcDbCircle
 10
318.925264
 20
-169.092759
 30
0.0
 40
0.4
100
AcDbArc
 50
180.0
 51
270.0
  0
LINE
  5
14E
100
AcDbEntity
  8
0
370
    -3
390
0
  6
Continuous
100
AcDbLine
 10
318.525264
 20
-169.092759
 30
0.0
 11
318.525264
 21
-166.892759
 31
0.0
  0
LINE
  5
14F
100
AcDbEntity
  8
0
370
    -3
390
0
  6
Continuous
100
AcDbLine
 10
318.125264
 20
-166.492759
 30
0.0
 11
301.425254
 21
-166.492759
 31
0.0
  0
ARC
  5
150
100
AcDbEntity
  8
0
370
    -3
390
0
  6
Continuous
100
AcDbCircle
 10
318.125264
 20
-166.892759
 30
0.0
 40
0.4
100
AcDbArc
 50
0.0
 51
90.0
  0
LINE
  5
151
100
AcDbEntity
  8
0
370
    -3
390
0
  6
Continuous
100
AcDbLine
 10
301.025254
 20
-163.392759
 30
0.0
 11
301.025254
 21
-166.092759
 31
0.0
  0
LINE
  5
152
100
AcDbEntity
  8
0
370
    -3
390
0
  6
Continuous
100
AcDbLine
 10
281.025254
 20
-162.992759
 30
0.0
 11
300.625254
 21
-162.992759
 31
0.0
  0
ARC
  5
153
100
AcDbEntity
  8
0
370
    -3
390
0
  6
Continuous
100
AcDbCircle
 10
300.625254
 20
-163.392759
 30
0.0
 40
0.4
100
AcDbArc
 50
0.0
 51
90.0
  0
LINE
  5
154
100
AcDbEntity
  8
0
370
    -3
390
0
  6
Continuous
100
AcDbLine
 10
417.025274
 20
-163.392759
 30
0.0
 11
417.025274
 21
-166.092759
 31
0.0
  0
LINE
  5
155
100
AcDbEntity
  8
0
370
    -3
390
0
  6
Continuous
100
AcDbLine
 10
437.025254
 20
-162.992759
 30
0.0
 11
417.425274
 21
-162.992759
 31
0.0
  0
ARC
  5
156
100
AcDbEntity
  8
0
370
    -3
390
0
  6
Continuous
100
AcDbCircle
 10
417.425274
 20
-163.392759
 30
0.0
 40
0.4
100
AcDbArc
 50
90.0
 51
180.0
  0
LINE
  5
157
100
AcDbEntity
  8
0
370
    -3
390
0
  6
CENTER
100
AcDbLine
 10
446.005312
 20
-131.492759
 30
0.0
 11
269.623655
 21
-131.492759
 31
0.0
  0
ARC
  5
158
100
AcDbEntity
  8
0
370
    -3
390
0
  6
Continuous
100
AcDbCircle
 10
301.425254
 20
-96.892759
 30
0.0
 40
0.4
100
AcDbArc
 50
90.0
 51
180.0
  0
ARC
  5
159
100
AcDbEntity
  8
0
370
    -3
390
0
  6
Continuous
100
AcDbCircle
 10
416.625274
 20
-96.892759
 30
0.0
 40
0.4
100
AcDbArc
 50
0.0
 51
90.0
  0
ARC
  5
15A
100
AcDbEntity
  8
0
370
    -3
390
0
  6
Continuous
100
AcDbCircle
 10
437.025254
 20
-100.992759
 30
0.0
 40
1.0
100
AcDbArc
 50
0.0
 51
90.0
  0
ARC
  5
15B
100
AcDbEntity
  8
0
370
    -3
390
0
  6
Continuous
100
AcDbCircle
 10
281.025254
 20
-100.992759
 30
0.0
 40
1.0
100
AcDbArc
 50
90.0
 51
180.0
  0
LINE
  5
15C
100
AcDbEntity
  8
0
370
    -3
390
0
  6
Continuous
100
AcDbLine
 10
397.706211
 20
-96.492759
 30
0.0
 11
416.625274
 21
-96.492759
 31
0.0
  0
ARC
  5
15D
100
AcDbEntity
  8
0
370
    -3
390
0
  6
Continuous
100
AcDbCircle
 10
397.125264
 20
-96.642759
 30
0.0
 40
0.4
100
AcDbArc
 50
43.432537
 51
90.0
  0
ARC
  5
15E
100
AcDbEntity
  8
0
370
    -3
390
0
  6
Continuous
100
AcDbCircle
 10
397.706211
 20
-96.092759
 30
0.0
 40
0.4
100
AcDbArc
 50
223.432537
 51
270.0
  0
LINE
  5
15F
100
AcDbEntity
  8
0
370
    -3
390
0
  6
Continuous
100
AcDbLine
 10
397.125264
 20
-96.242759
 30
0.0
 11
380.925264
 21
-96.242759
 31
0.0
  0
ARC
  5
160
100
AcDbEntity
  8
0
370
    -3
390
0
  6
Continuous
100
AcDbCircle
 10
380.925264
 20
-95.842759
 30
0.0
 40
0.4
100
AcDbArc
 50
180.0
 51
270.0
  0
LINE
  5
161
100
AcDbEntity
  8
0
370
    -3
390
0
  6
Continuous
100
AcDbLine
 10
380.525264
 20
-93.892759
 30
0.0
 11
380.525264
 21
-95.842759
 31
0.0
  0
ARC
  5
162
100
AcDbEntity
  8
0
370
    -3
390
0
  6
Continuous
100
AcDbCircle
 10
380.125264
 20
-93.892759
 30
0.0
 40
0.4
100
AcDbArc
 50
0.0
 51
90.0
  0
LINE
  5
163
100
AcDbEntity
  8
0
370
    -3
390
0
  6
Continuous
100
AcDbLine
 10
318.925264
 20
-93.492759
 30
0.0
 11
380.125264
 21
-93.492759
 31
0.0
  0
ARC
  5
164
100
AcDbEntity
  8
0
370
    -3
390
0
  6
Continuous
100
AcDbCircle
 10
318.925264
 20
-93.892759
 30
0.0
 40
0.4
100
AcDbArc
 50
90.0
 51
180.0
  0
LINE
  5
165
100
AcDbEntity
  8
0
370
    -3
390
0
  6
Continuous
100
AcDbLine
 10
318.525264
 20
-93.892759
 30
0.0
 11
318.525264
 21
-96.092759
 31
0.0
  0
LINE
  5
166
100
AcDbEntity
  8
0
370
    -3
390
0
  6
Continuous
100
AcDbLine
 10
318.125264
 20
-96.492759
 30
0.0
 11
301.425254
 21
-96.492759
 31
0.0
  0
ARC
  5
167
100
AcDbEntity
  8
0
370
    -3
390
0
  6
Continuous
100
AcDbCircle
 10
318.125264
 20
-96.092759
 30
0.0
 40
0.4
100
AcDbArc
 50
270.0
 51
0.0
  0
LINE
  5
168
100
AcDbEntity
  8
0
370
    -3
390
0
  6
Continuous
100
AcDbLine
 10
301.025254
 20
-99.592759
 30
0.0
 11
301.025254
 21
-96.892759
 31
0.0
  0
LINE
  5
169
100
AcDbEntity
  8
0
370
    -3
390
0
  6
Continuous
100
AcDbLine
 10
281.025254
 20
-99.992759
 30
0.0
 11
300.625254
 21
-99.992759
 31
0.0
  0
ARC
  5
16A
100
AcDbEntity
  8
0
370
    -3
390
0
  6
Continuous
100
AcDbCircle
 10
300.625254
 20
-99.592759
 30
0.0
 40
0.4
100
AcDbArc
 50
270.0
 51
0.0
  0
LINE
  5
16B
100
AcDbEntity
  8
0
370
    -3
390
0
  6
Continuous
100
AcDbLine
 10
417.025274
 20
-99.592759
 30
0.0
 11
417.025274
 21
-96.892759
 31
0.0
  0
LINE
  5
16C
100
AcDbEntity
  8
0
370
    -3
390
0
  6
Continuous
100
AcDbLine
 10
437.025254
 20
-99.992759
 30
0.0
 11
417.425274
 21
-99.992759
 31
0.0
  0
ARC
  5
16D
100
AcDbEntity
  8
0
370
    -3
390
0
  6
Continuous
100
AcDbCircle
 10
417.425274
 20
-99.592759
 30
0.0
 40
0.4
100
AcDbArc
 50
180.0
 51
270.0
  0
LINE
  5
16E
100
AcDbEntity
  8
0
370
    -3
390
0
  6
Continuous
100
AcDbLine
 10
280.025254
 20
-105.192759
 30
0.0
 11
438.025254
 21
-105.192759
 31
0.0
  0
LINE
  5
16F
100
AcDbEntity
  8
0
370
    -3
390
0
  6
Continuous
100
AcDbLine
 10
280.025254
 20
-100.992759
 30
0.0
 11
280.025254
 21
-161.992759
 31
0.0
  0
LINE
  5
170
100
AcDbEntity
  8
0
370
    -3
390
0
  6
Continuous
100
AcDbLine
 10
438.025254
 20
-100.992759
 30
0.0
 11
438.025254
 21
-161.992759
 31
0.0
  0
LINE
  5
171
100
AcDbEntity
  8
0
370
    -3
390
0
  6
Continuous
100
AcDbLine
 10
438.025254
 20
-106.992759
 30
0.0
 11
434.561152
 21
-108.992759
 31
0.0
  0
LINE
  5
172
100
AcDbEntity
  8
0
370
    -3
390
0
  6
Continuous
100
AcDbLine
 10
409.925254
 20
-108.992759
 30
0.0
 11
434.561152
 21
-108.992759
 31
0.0
  0
LINE
  5
173
100
AcDbEntity
  8
0
370
    -3
390
0
  6
Continuous
100
AcDbLine
 10
408.025254
 20
-107.742759
 30
0.0
 11
409.975254
 21
-107.742759
 31
0.0
  0
LINE
  5
174
100
AcDbEntity
  8
0
370
    -3
390
0
  6
Continuous
100
AcDbLine
 10
371.025254
 20
-108.992759
 30
0.0
 11
408.025254
 21
-108.992759
 31
0.0
  0
LINE
  5
175
100
AcDbEntity
  8
0
370
    -3
390
0
  6
Continuous
100
AcDbLine
 10
347.025254
 20
-108.792759
 30
0.0
 11
371.025254
 21
-108.792759
 31
0.0
  0
LINE
  5
176
100
AcDbEntity
  8
0
370
    -3
390
0
  6
Continuous
100
AcDbLine
 10
310.025254
 20
-108.992759
 30
0.0
 11
347.025254
 21
-108.992759
 31
0.0
  0
LINE
  5
177
100
AcDbEntity
  8
0
370
    -3
390
0
  6
Continuous
100
AcDbLine
 10
308.075254
 20
-107.742759
 30
0.0
 11
310.025254
 21
-107.742759
 31
0.0
  0
LINE
  5
178
100
AcDbEntity
  8
0
370
    -3
390
0
  6
Continuous
100
AcDbLine
 10
283.489355
 20
-108.992759
 30
0.0
 11
308.125254
 21
-108.992759
 31
0.0
  0
LINE
  5
179
100
AcDbEntity
  8
0
370
    -3
390
0
  6
Continuous
100
AcDbLine
 10
280.025254
 20
-106.992759
 30
0.0
 11
283.489355
 21
-108.992759
 31
0.0
  0
LINE
  5
17A
100
AcDbEntity
  8
0
370
    -3
390
0
  6
Continuous
100
AcDbLine
 10
283.489355
 20
-153.992759
 30
0.0
 11
283.489355
 21
-108.992759
 31
0.0
  0
LINE
  5
17B
100
AcDbEntity
  8
0
370
    -3
390
0
  6
Continuous
100
AcDbLine
 10
434.561152
 20
-153.992759
 30
0.0
 11
434.561152
 21
-108.992759
 31
0.0
  0
LINE
  5
17C
100
AcDbEntity
  8
0
370
    -3
390
0
  6
Continuous
100
AcDbLine
 10
409.975254
 20
-107.742759
 30
0.0
 11
409.975254
 21
-155.242759
 31
0.0
  0
LINE
  5
17D
100
AcDbEntity
  8
0
370
    -3
390
0
  6
Continuous
100
AcDbLine
 10
408.025254
 20
-107.742759
 30
0.0
 11
408.025254
 21
-155.242759
 31
0.0
  0
LINE
  5
17E
100
AcDbEntity
  8
0
370
    -3
390
0
  6
Continuous
100
AcDbLine
 10
308.075254
 20
-107.742759
 30
0.0
 11
308.075254
 21
-155.242759
 31
0.0
  0
LINE
  5
17F
100
AcDbEntity
  8
0
370
    -3
390
0
  6
Continuous
100
AcDbLine
 10
310.025254
 20
-107.742759
 30
0.0
 11
310.025254
 21
-155.242759
 31
0.0
  0
LINE
  5
180
100
AcDbEntity
  8
0
370
    -3
390
0
  6
Continuous
100
AcDbLine
 10
371.025254
 20
-108.792759
 30
0.0
 11
371.025254
 21
-154.192759
 31
0.0
  0
LINE
  5
181
100
AcDbEntity
  8
0
370
    -3
390
0
  6
Continuous
100
AcDbLine
 10
347.025254
 20
-108.792759
 30
0.0
 11
347.025254
 21
-154.192759
 31
0.0
  0
INSERT
  5
18E
100
AcDbEntity
  8
0
390
0
100
AcDbBlockReference
  2
ZU_SYM__USERS_HOME_SYMBOL_POO_SYM_B20_05
 10
621.983963
 20
-244.492521
 30
0.0
  0
INSERT
  5
19B
100
AcDbEntity
  8
0
390
0
100
AcDbBlockReference
  2
ZU_SYM__USERS_HOME_SYMBOL_POO_SYM_B20_0000105
 10
600.983963
 20
-244.492559
 30
0.0
  0
LINE
  5
19C
100
AcDbEntity
  8
0
370
    -3
390
0
  6
Continuous
100
AcDbLine
 10
511.483963
 20
-144.492759
 30
0.0
 11
511.483963
 21
-164.492759
 31
0.0
  0
LINE
  5
19D
100
AcDbEntity
  8
0
370
    -3
390
0
  6
Continuous
100
AcDbLine
 10
541.483963
 20
-50.492759
 30
0.0
 11
660.483963
 21
-48.492759
 31
0.0
  0
LINE
  5
19E
100
AcDbEntity
  8
0
370
    -3
390
0
  6
Continuous
100
AcDbLine
 10
541.483963
 20
-73.992759
 30
0.0
 11
537.483963
 21
-73.992759
 31
0.0
  0
LINE
  5
19F
100
AcDbEntity
  8
0
370
    -3
390
0
  6
Continuous
100
AcDbLine
 10
537.483963
 20
-73.992759
 30
0.0
 11
536.483963
 21
-74.992759
 31
0.0
  0
LINE
  5
1A0
100
AcDbEntity
  8
0
370
    -3
390
0
  6
Continuous
100
AcDbLine
 10
711.483963
 20
-144.492759
 30
0.0
 11
711.483963
 21
-164.492759
 31
0.0
  0
LINE
  5
1A1
100
AcDbEntity
  8
0
370
    -3
390
0
  6
Continuous
100
AcDbLine
 10
660.483963
 20
-48.492759
 30
0.0
 11
681.483963
 21
-50.492759
 31
0.0
  0
LINE
  5
1A2
100
AcDbEntity
  8
0
370
    -3
390
0
  6
Continuous
100
AcDbLine
 10
660.483963
 20
-214.492759
 30
0.0
 11
681.483963
 21
-212.492759
 31
0.0
  0
LINE
  5
1A3
100
AcDbEntity
  8
0
370
    -3
390
0
  6
Continuous
100
AcDbLine
 10
686.483963
 20
-187.992759
 30
0.0
 11
686.483963
 21
-131.492759
 31
0.0
  0
LINE
  5
1A4
100
AcDbEntity
  8
0
370
    -3
390
0
  6
Continuous
100
AcDbLine
 10
685.483963
 20
-188.992759
 30
0.0
 11
686.483963
 21
-187.992759
 31
0.0
  0
LINE
  5
1A5
100
AcDbEntity
  8
0
370
    -3
390
0
  6
Continuous
100
AcDbLine
 10
681.483963
 20
-188.992759
 30
0.0
 11
685.483963
 21
-188.992759
 31
0.0
  0
LINE
  5
1A6
100
AcDbEntity
  8
0
370
    -3
390
0
  6
Continuous
100
AcDbLine
 10
681.483963
 20
-50.492759
 30
0.0
 11
681.483963
 21
-212.492759
 31
0.0
  0
LINE
  5
1A7
100
AcDbEntity
  8
0
370
    -3
390
0
  6
Continuous
100
AcDbLine
 10
681.483963
 20
-73.992759
 30
0.0
 11
685.483963
 21
-73.992759
 31
0.0
  0
LINE
  5
1A8
100
AcDbEntity
  8
0
370
    -3
390
0
  6
Continuous
100
AcDbLine
 10
686.483963
 20
-74.992759
 30
0.0
 11
685.483963
 21
-73.992759
 31
0.0
  0
LINE
  5
1A9
100
AcDbEntity
  8
0
370
    -3
390
0
  6
Continuous
100
AcDbLine
 10
686.483963
 20
-131.492759
 30
0.0
 11
686.483963
 21
-74.992759
 31
0.0
  0
LINE
  5
1AA
100
AcDbEntity
  8
0
370
    -3
390
0
  6
Continuous
100
AcDbLine
 10
685.483963
 20
-73.992759
 30
0.0
 11
685.483963
 21
-188.992759
 31
0.0
  0
ARC
  5
1AB
100
AcDbEntity
  8
0
370
    -3
390
0
  6
Continuous
100
AcDbCircle
 10
660.483963
 20
-72.492759
 30
0.0
 40
1.0
100
AcDbArc
 50
270.0
 51
0.0
  0
ARC
  5
1AC
100
AcDbEntity
  8
0
370
    -3
390
0
  6
Continuous
100
AcDbCircle
 10
660.483963
 20
-190.492759
 30
0.0
 40
1.0
100
AcDbArc
 50
0.0
 51
90.0
  0
LINE
  5
1AD
100
AcDbEntity
  8
0
370
    -3
390
0
  6
Continuous
100
AcDbLine
 10
661.483963
 20
-48.587997
 30
0.0
 11
661.483963
 21
-72.492759
 31
0.0
  0
LINE
  5
1AE
100
AcDbEntity
  8
0
370
    -3
390
0
  6
Continuous
100
AcDbLine
 10
661.483963
 20
-214.397521
 30
0.0
 11
661.483963
 21
-190.492759
 31
0.0
  0
LINE
  5
1AF
100
AcDbEntity
  8
0
370
    -3
390
0
  6
Continuous
100
AcDbLine
 10
660.483963
 20
-48.492759
 30
0.0
 11
660.483963
 21
-214.492759
 31
0.0
  0
ARC
  5
1B0
100
AcDbEntity
  8
0
370
    -3
390
0
  6
Continuous
100
AcDbCircle
 10
660.483963
 20
-72.492759
 30
0.0
 40
1.0
100
AcDbArc
 50
180.0
 51
270.0
  0
LINE
  5
1B1
100
AcDbEntity
  8
0
370
    -3
390
0
  6
Continuous
100
AcDbLine
 10
659.483963
 20
-48.509566
 30
0.0
 11
659.483963
 21
-72.492759
 31
0.0
  0
ARC
  5
1B2
100
AcDbEntity
  8
0
370
    -3
390
0
  6
Continuous
100
AcDbCircle
 10
660.483963
 20
-190.492759
 30
0.0
 40
1.0
100
AcDbArc
 50
90.0
 51
180.0
  0
LINE
  5
1B3
100
AcDbEntity
  8
0
370
    -3
390
0
  6
Continuous
100
AcDbLine
 10
659.483963
 20
-214.475953
 30
0.0
 11
659.483963
 21
-190.492759
 31
0.0
  0
ARC
  5
1B4
100
AcDbEntity
  8
0
370
    -3
390
0
  6
Continuous
100
AcDbCircle
 10
621.483963
 20
-144.492759
 30
0.0
 40
90.0
100
AcDbArc
 50
0.0
 51
43.761743
  0
ARC
  5
1B5
100
AcDbEntity
  8
0
370
    -3
390
0
  6
Continuous
100
AcDbCircle
 10
601.483963
 20
-144.492759
 30
0.0
 40
90.0
100
AcDbArc
 50
136.238257
 51
180.0
  0
LINE
  5
1B6
100
AcDbEntity
  8
0
370
    -3
390
0
  6
Continuous
100
AcDbLine
 10
541.483963
 20
-50.492759
 30
0.0
 11
541.483963
 21
-212.492759
 31
0.0
  0
LINE
  5
1B7
100
AcDbEntity
  8
0
370
    -3
390
0
  6
Continuous
100
AcDbLine
 10
541.483963
 20
-212.492759
 30
0.0
 11
660.483963
 21
-214.492759
 31
0.0
  0
LINE
  5
1B8
100
AcDbEntity
  8
0
370
    -3
390
0
  6
CENTER
100
AcDbLine
 10
700.780099
 20
-131.492759
 30
0.0
 11
525.725284
 21
-131.492759
 31
0.0
  0
LINE
  5
1B9
100
AcDbEntity
  8
0
370
    -3
390
0
  6
CENTER
100
AcDbLine
 10
528.632668
 20
-66.492759
 30
0.0
 11
694.056921
 21
-66.492759
 31
0.0
  0
LINE
  5
1BA
100
AcDbEntity
  8
0
370
    -3
390
0
  6
CENTER
100
AcDbLine
 10
528.632668
 20
-196.492759
 30
0.0
 11
694.056921
 21
-196.492759
 31
0.0
  0
LINE
  5
1BB
100
AcDbEntity
  8
0
370
    -3
390
0
  6
Continuous
100
AcDbLine
 10
541.483963
 20
-188.992759
 30
0.0
 11
537.483963
 21
-188.992759
 31
0.0
  0
LINE
  5
1BC
100
AcDbEntity
  8
0
370
    -3
390
0
  6
Continuous
100
AcDbLine
 10
537.483963
 20
-73.992759
 30
0.0
 11
537.483963
 21
-188.992759
 31
0.0
  0
LINE
  5
1BD
100
AcDbEntity
  8
0
370
    -3
390
0
  6
Continuous
100
AcDbLine
 10
537.483963
 20
-188.992759
 30
0.0
 11
536.483963
 21
-187.992759
 31
0.0
  0
LINE
  5
1BE
100
AcDbEntity
  8
0
370
    -3
390
0
  6
Continuous
100
AcDbLine
 10
536.483963
 20
-187.992759
 30
0.0
 11
536.483963
 21
-74.992759
 31
0.0
  0
ARC
  5
1BF
100
AcDbEntity
  8
0
370
    -3
390
0
  6
Continuous
100
AcDbCircle
 10
655.483963
 20
-131.492759
 30
0.0
 40
2.0
100
AcDbArc
 50
270.0
 51
90.0
  0
LINE
  5
1C0
100
AcDbEntity
  8
0
370
    -3
390
0
  6
Continuous
100
AcDbLine
 10
655.483963
 20
-129.492759
 30
0.0
 11
541.483963
 21
-129.492759
 31
0.0
  0
LINE
  5
1C1
100
AcDbEntity
  8
0
370
    -3
390
0
  6
Continuous
100
AcDbLine
 10
655.483963
 20
-133.492759
 30
0.0
 11
541.483963
 21
-133.492759
 31
0.0
  0
ARC
  5
1C2
100
AcDbEntity
  8
0
370
    -3
390
0
  6
Continuous
100
AcDbCircle
 10
665.483963
 20
-131.492759
 30
0.0
 40
2.0
100
AcDbArc
 50
90.0
 51
270.0
  0
LINE
  5
1C3
100
AcDbEntity
  8
0
370
    -3
390
0
  6
Continuous
100
AcDbLine
 10
665.483963
 20
-133.492759
 30
0.0
 11
681.483963
 21
-133.492759
 31
0.0
  0
LINE
  5
1C4
100
AcDbEntity
  8
0
370
    -3
390
0
  6
Continuous
100
AcDbLine
 10
665.483963
 20
-129.492759
 30
0.0
 11
681.483963
 21
-129.492759
 31
0.0
  0
ARC
  5
1C5
100
AcDbEntity
  8
0
370
    -3
390
0
  6
Continuous
100
AcDbCircle
 10
626.983963
 20
-239.492521
 30
0.0
 40
5.0
100
AcDbArc
 50
0.0
 51
90.0
  0
LINE
  5
1C6
100
AcDbEntity
  8
0
370
    -3
390
0
  6
CENTER
100
AcDbLine
 10
621.983963
 20
-231.044766
 30
0.0
 11
621.983963
 21
-255.923306
 31
0.0
  0
LINE
  5
1C7
100
AcDbEntity
  8
0
370
    -3
390
0
  6
CENTER
100
AcDbLine
 10
600.983904
 20
-236.447584
 30
0.0
 11
600.984021
 21
-252.481995
 31
0.0
  0
ARC
  5
1C8
100
AcDbEntity
  8
0
370
    -3
390
0
  6
Continuous
100
AcDbCircle
 10
595.983963
 20
-239.492521
 30
0.0
 40
5.0
100
AcDbArc
 50
90.0
 51
180.0
  0
LINE
  5
1C9
100
AcDbEntity
  8
0
370
    -3
390
0
  6
Continuous
100
AcDbLine
 10
626.983963
 20
-234.492521
 30
0.0
 11
595.983963
 21
-234.492521
 31
0.0
  0
LINE
  5
1CA
100
AcDbEntity
  8
0
370
    -3
390
0
  6
CENTER
100
AcDbLine
 10
600.983963
 20
-230.283173
 30
0.0
 11
600.983963
 21
-256.431034
 31
0.0
  0
LINE
  5
1CB
100
AcDbEntity
  8
0
370
    -3
390
0
  6
CENTER
100
AcDbLine
 10
636.982161
 20
-244.492521
 30
0.0
 11
584.437818
 21
-244.492521
 31
0.0
  0
ARC
  5
1CC
100
AcDbEntity
  8
0
370
    -3
390
0
  6
Continuous
100
AcDbCircle
 10
621.983959
 20
-279.492759
 30
0.0
 40
10.0
100
AcDbArc
 50
270.0
 51
0.0
  0
ARC
  5
1CD
100
AcDbEntity
  8
0
370
    -3
390
0
  6
Continuous
100
AcDbCircle
 10
600.983959
 20
-279.492759
 30
0.0
 40
10.0
100
AcDbArc
 50
180.0
 51
270.0
  0
LINE
  5
1CE
100
AcDbEntity
  8
0
370
    -3
390
0
  6
Continuous
100
AcDbLine
 10
621.983959
 20
-289.492759
 30
0.0
 11
600.983959
 21
-289.492759
 31
0.0
  0
CIRCLE
  5
1CF
100
AcDbEntity
  8
0
370
    -3
390
0
  6
Continuous
100
AcDbCircle
 10
611.483959
 20
-269.492759
 30
0.0
 40
10.0
  0
LINE
  5
1D0
100
AcDbEntity
  8
0
370
    -3
390
0
  6
CENTER
100
AcDbLine
 10
626.423013
 20
-269.492759
 30
0.0
 11
595.777193
 21
-269.492759
 31
0.0
  0
LINE
  5
1D1
100
AcDbEntity
  8
0
370
    -3
390
0
  6
Continuous
100
AcDbLine
 10
631.983963
 20
-239.492521
 30
0.0
 11
631.983959
 21
-279.492759
 31
0.0
  0
LINE
  5
1D2
100
AcDbEntity
  8
0
370
    -3
390
0
  6
Continuous
100
AcDbLine
 10
590.983963
 20
-239.492521
 30
0.0
 11
590.983959
 21
-279.492759
 31
0.0
  0
INSERT
  5
1DE
100
AcDbEntity
  8
0
390
0
100
AcDbBlockReference
  2
ZU_SYM__USERS_HOME_SYMBOL_POO_SYM_B20_18
 10
-137.992807
 20
-244.492287
 30
0.0
 50
180.0
  0
ARC
  5
1DF
100
AcDbEntity
  8
0
370
    -3
390
0
  6
Continuous
100
AcDbCircle
 10
-32.911782
 20
-196.492759
 30
0.0
 40
20.0
100
AcDbArc
 50
358.854008
 51
88.854008
  0
ARC
  5
1E0
100
AcDbEntity
  8
0
370
    -3
390
0
  6
Continuous
100
AcDbCircle
 10
-32.411782
 20
-171.49776
 30
0.0
 40
5.0
100
AcDbArc
 50
180.0
 51
268.854008
  0
LINE
  5
1E1
100
AcDbEntity
  8
0
370
    -3
390
0
  6
Continuous
100
AcDbLine
 10
-37.411782
 20
-91.487759
 30
0.0
 11
-37.411782
 21
-171.49776
 31
0.0
  0
ARC
  5
1E2
100
AcDbEntity
  8
0
370
    -3
390
0
  6
Continuous
100
AcDbCircle
 10
-32.411782
 20
-91.487759
 30
0.0
 40
5.0
100
AcDbArc
 50
91.145992
 51
180.0
  0
ARC
  5
1E3
100
AcDbEntity
  8
0
370
    -3
390
0
  6
Continuous
100
AcDbCircle
 10
-32.911782
 20
-66.492759
 30
0.0
 40
20.0
100
AcDbArc
 50
271.145992
 51
1.145992
  0
ARC
  5
1E4
100
AcDbEntity
  8
0
370
    -3
390
0
  6
Continuous
100
AcDbCircle
 10
-119.911782
 20
-63.492759
 30
0.0
 40
15.0
100
AcDbArc
 50
90.0
 51
180.0
  0
LINE
  5
1E5
100
AcDbEntity
  8
0
370
    -3
390
0
  6
Continuous
100
AcDbLine
 10
-134.911782
 20
-63.492759
 30
0.0
 11
-134.911782
 21
-199.492759
 31
0.0
  0
ARC
  5
1E6
100
AcDbEntity
  8
0
370
    -3
390
0
  6
Continuous
100
AcDbCircle
 10
-119.911782
 20
-199.492759
 30
0.0
 40
15.0
100
AcDbArc
 50
180.0
 51
270.0
  0
ARC
  5
1E7
100
AcDbEntity
  8
0
370
    -3
390
0
  6
Continuous
100
AcDbCircle
 10
-161.911782
 20
-202.962887
 30
0.0
 40
5.0
100
AcDbArc
 50
180.0
 51
270.0
  0
ARC
  5
1E8
100
AcDbEntity
  8
0
370
    -3
390
0
  6
Continuous
100
AcDbCircle
 10
-169.911782
 20
-251.492759
 30
0.0
 40
3.0
100
AcDbArc
 50
270.0
 51
0.0
  0
ARC
  5
1E9
100
AcDbEntity
  8
0
370
    -3
390
0
  6
Continuous
100
AcDbCircle
 10
-134.492807
 20
-222.492759
 30
0.0
 40
8.0
100
AcDbArc
 50
90.0
 51
180.0
  0
ARC
  5
1EA
100
AcDbEntity
  8
0
370
    -3
390
0
  6
Continuous
100
AcDbCircle
 10
-161.911782
 20
-237.492759
 30
0.0
 40
5.0
100
AcDbArc
 50
90.0
 51
180.0
  0
ARC
  5
1EB
100
AcDbEntity
  8
0
370
    -3
390
0
  6
Continuous
100
AcDbCircle
 10
-161.911782
 20
-217.223601
 30
0.0
 40
5.0
100
AcDbArc
 50
180.0
 51
270.0
  0
LINE
  5
1EC
100
AcDbEntity
  8
0
370
    -3
390
0
  6
Continuous
100
AcDbLine
 10
-166.911782
 20
-251.492759
 30
0.0
 11
-166.911782
 21
-237.492759
 31
0.0
  0
LINE
  5
1ED
100
AcDbEntity
  8
0
370
    -3
390
0
  6
Continuous
100
AcDbLine
 10
-150.492807
 20
-254.492759
 30
0.0
 11
-175.911782
 21
-254.492759
 31
0.0
  0
ARC
  5
1EE
100
AcDbEntity
  8
0
370
    -3
390
0
  6
Continuous
100
AcDbCircle
 10
-150.492807
 20
-246.492759
 30
0.0
 40
8.0
100
AcDbArc
 50
270.0
 51
0.0
  0
ARC
  5
1EF
100
AcDbEntity
  8
0
370
    -3
390
0
  6
Continuous
100
AcDbCircle
 10
-161.911782
 20
-240.952872
 30
0.0
 40
5.0
100
AcDbArc
 50
90.0
 51
180.0
  0
ARC
  5
1F0
100
AcDbEntity
  8
0
370
    -3
390
0
  6
Continuous
100
AcDbCircle
 10
-150.492807
 20
-78.492759
 30
0.0
 40
8.0
100
AcDbArc
 50
0.0
 51
90.0
  0
ARC
  5
1F1
100
AcDbEntity
  8
0
370
    -3
390
0
  6
Continuous
100
AcDbCircle
 10
-142.824661
 20
-62.492759
 30
0.0
 40
8.0
100
AcDbArc
 50
270.0
 51
355.011458
  0
LINE
  5
1F2
100
AcDbEntity
  8
0
370
    -3
390
0
  6
Continuous
100
AcDbLine
 10
-142.824661
 20
-70.492759
 30
0.0
 11
-161.911782
 21
-70.492759
 31
0.0
  0
ARC
  5
1F3
100
AcDbEntity
  8
0
370
    -3
390
0
  6
Continuous
100
AcDbCircle
 10
-161.911782
 20
-65.492759
 30
0.0
 40
5.0
100
AcDbArc
 50
180.0
 51
270.0
  0
ARC
  5
1F4
100
AcDbEntity
  8
0
370
    -3
390
0
  6
Continuous
100
AcDbCircle
 10
-169.911782
 20
-57.492759
 30
0.0
 40
3.0
100
AcDbArc
 50
0.0
 51
90.0
  0
LINE
  5
1F5
100
AcDbEntity
  8
0
370
    -3
390
0
  6
Continuous
100
AcDbLine
 10
-169.911782
 20
-54.492759
 30
0.0
 11
-175.911782
 21
-54.492759
 31
0.0
  0
ARC
  5
1F6
100
AcDbEntity
  8
0
370
    -3
390
0
  6
Continuous
100
AcDbCircle
 10
-161.911782
 20
-71.492759
 30
0.0
 40
5.0
100
AcDbArc
 50
180.0
 51
270.0
  0
ARC
  5
1F7
100
AcDbEntity
  8
0
370
    -3
390
0
  6
Continuous
100
AcDbCircle
 10
-161.911782
 20
-106.022632
 30
0.0
 40
5.0
100
AcDbArc
 50
90.0
 51
180.0
  0
ARC
  5
1F8
100
AcDbEntity
  8
0
370
    -3
390
0
  6
Continuous
100
AcDbCircle
 10
-161.911782
 20
-91.761918
 30
0.0
 40
5.0
100
AcDbArc
 50
90.0
 51
180.0
  0
LINE
  5
1F9
100
AcDbEntity
  8
0
370
    -3
390
0
  6
Continuous
100
AcDbLine
 10
-154.911782
 20
-76.492759
 30
0.0
 11
-161.911782
 21
-76.492759
 31
0.0
  0
LINE
  5
1FA
100
AcDbEntity
  8
0
370
    -3
390
0
  6
Continuous
100
AcDbLine
 10
-154.911782
 20
-86.761918
 30
0.0
 11
-161.911782
 21
-86.761918
 31
0.0
  0
LINE
  5
1FB
100
AcDbEntity
  8
0
370
    -3
390
0
  6
Continuous
100
AcDbLine
 10
-166.911782
 20
-217.223601
 30
0.0
 11
-166.911782
 21
-91.761918
 31
0.0
  0
LINE
  5
1FC
100
AcDbEntity
  8
0
370
    -3
390
0
  6
Continuous
100
AcDbLine
 10
-166.911782
 20
-71.492759
 30
0.0
 11
-166.911782
 21
-57.492759
 31
0.0
  0
LINE
  5
1FD
100
AcDbEntity
  8
0
370
    -3
390
0
  6
Continuous
100
AcDbLine
 10
100.088218
 20
-214.492759
 30
0.0
 11
-134.492807
 21
-214.492759
 31
0.0
  0
LINE
  5
1FE
100
AcDbEntity
  8
0
370
    -3
390
0
  6
Continuous
100
AcDbLine
 10
100.088218
 20
-48.492759
 30
0.0
 11
-119.911782
 21
-48.492759
 31
0.0
  0
ARC
  5
1FF
100
AcDbEntity
  8
0
370
    -3
390
0
  6
Continuous
100
AcDbCircle
 10
100.088218
 20
-199.492759
 30
0.0
 40
15.0
100
AcDbArc
 50
270.0
 51
0.0
  0
ARC
  5
200
100
AcDbEntity
  8
0
370
    -3
390
0
  6
Continuous
100
AcDbCircle
 10
100.088218
 20
-63.492759
 30
0.0
 40
15.0
100
AcDbArc
 50
0.0
 51
90.0
  0
LINE
  5
201
100
AcDbEntity
  8
0
370
    -3
390
0
  6
Continuous
100
AcDbLine
 10
115.088218
 20
-63.492759
 30
0.0
 11
115.088218
 21
-199.492759
 31
0.0
  0
ARC
  5
202
100
AcDbEntity
  8
0
370
    -3
390
0
  6
Continuous
100
AcDbCircle
 10
-116.411782
 20
-171.49776
 30
0.0
 40
6.0
100
AcDbArc
 50
180.0
 51
268.854008
  0
ARC
  5
203
100
AcDbEntity
  8
0
370
    -3
390
0
  6
Continuous
100
AcDbCircle
 10
-116.911782
 20
-196.492759
 30
0.0
 40
19.0
100
AcDbArc
 50
1.145992
 51
88.854008
  0
ARC
  5
204
100
AcDbEntity
  8
0
370
    -3
390
0
  6
Continuous
100
AcDbCircle
 10
-91.916783
 20
-195.992759
 30
0.0
 40
6.0
100
AcDbArc
 50
181.145992
 51
270.0
  0
ARC
  5
205
100
AcDbEntity
  8
0
370
    -3
390
0
  6
Continuous
100
AcDbCircle
 10
-116.411782
 20
-91.487759
 30
0.0
 40
6.0
100
AcDbArc
 50
91.145992
 51
180.0
  0
ARC
  5
206
100
AcDbEntity
  8
0
370
    -3
390
0
  6
Continuous
100
AcDbCircle
 10
-116.911782
 20
-66.492759
 30
0.0
 40
19.0
100
AcDbArc
 50
271.145992
 51
358.854008
  0
ARC
  5
207
100
AcDbEntity
  8
0
370
    -3
390
0
  6
Continuous
100
AcDbCircle
 10
-91.916783
 20
-66.992759
 30
0.0
 40
6.0
100
AcDbArc
 50
90.0
 51
178.854008
  0
ARC
  5
208
100
AcDbEntity
  8
0
370
    -3
390
0
  6
Continuous
100
AcDbCircle
 10
96.588218
 20
-91.487759
 30
0.0
 40
6.0
100
AcDbArc
 50
0.0
 51
88.854008
  0
ARC
  5
209
100
AcDbEntity
  8
0
370
    -3
390
0
  6
Continuous
100
AcDbCircle
 10
97.088218
 20
-66.492759
 30
0.0
 40
19.0
100
AcDbArc
 50
181.145992
 51
268.854008
  0
ARC
  5
20A
100
AcDbEntity
  8
0
370
    -3
390
0
  6
Continuous
100
AcDbCircle
 10
72.093218
 20
-66.992759
 30
0.0
 40
6.0
100
AcDbArc
 50
1.145992
 51
90.0
  0
ARC
  5
20B
100
AcDbEntity
  8
0
370
    -3
390
0
  6
Continuous
100
AcDbCircle
 10
96.588218
 20
-171.49776
 30
0.0
 40
6.0
100
AcDbArc
 50
271.145992
 51
0.0
  0
ARC
  5
20C
100
AcDbEntity
  8
0
370
    -3
390
0
  6
Continuous
100
AcDbCircle
 10
97.088218
 20
-196.492759
 30
0.0
 40
19.0
100
AcDbArc
 50
91.145992
 51
178.854008
  0
ARC
  5
20D
100
AcDbEntity
  8
0
370
    -3
390
0
  6
Continuous
100
AcDbCircle
 10
72.093218
 20
-195.992759
 30
0.0
 40
6.0
100
AcDbArc
 50
270.0
 51
358.854008
  0
LINE
  5
20E
100
AcDbEntity
  8
0
370
    -3
390
0
  6
Continuous
100
AcDbLine
 10
-91.916783
 20
-60.992759
 30
0.0
 11
72.093218
 21
-60.992759
 31
0.0
  0
LINE
  5
20F
100
AcDbEntity
  8
0
370
    -3
390
0
  6
Continuous
100
AcDbLine
 10
-122.411782
 20
-171.49776
 30
0.0
 11
-122.411782
 21
-91.487759
 31
0.0
  0
LINE
  5
210
100
AcDbEntity
  8
0
370
    -3
390
0
  6
Continuous
100
AcDbLine
 10
72.093218
 20
-201.992759
 30
0.0
 11
-91.916783
 21
-201.992759
 31
0.0
  0
LINE
  5
211
100
AcDbEntity
  8
0
370
    -3
390
0
  6
Continuous
100
AcDbLine
 10
102.588218
 20
-91.487759
 30
0.0
 11
102.588218
 21
-171.49776
 31
0.0
  0
CIRCLE
  5
212
100
AcDbEntity
  8
0
370
    -3
390
0
  6
Continuous
100
AcDbCircle
 10
-18.411782
 20
-131.492759
 30
0.0
 40
1.8
  0
CIRCLE
  5
213
100
AcDbEntity
  8
0
370
    -3
390
0
  6
Continuous
100
AcDbCircle
 10
32.088218
 20
-181.992759
 30
0.0
 40
1.8
  0
CIRCLE
  5
214
100
AcDbEntity
  8
0
370
    -3
390
0
  6
Continuous
100
AcDbCircle
 10
82.588218
 20
-131.492759
 30
0.0
 40
1.8
  0
CIRCLE
  5
215
100
AcDbEntity
  8
0
370
    -3
390
0
  6
Continuous
100
AcDbCircle
 10
32.088218
 20
-80.992759
 30
0.0
 40
1.8
  0
CIRCLE
  5
216
100
AcDbEntity
  8
0
370
    -3
390
0
  6
Continuous
100
AcDbCircle
 10
-116.911782
 20
-66.492759
 30
0.0
 40
13.0
  0
CIRCLE
  5
217
100
AcDbEntity
  8
0
370
    -3
390
0
  6
Continuous
100
AcDbCircle
 10
-116.911782
 20
-66.492759
 30
0.0
 40
10.0
  0
CIRCLE
  5
218
100
AcDbEntity
  8
0
370
    -3
390
0
  6
Continuous
100
AcDbCircle
 10
-116.911782
 20
-66.492759
 30
0.0
 40
8.647
  0
CIRCLE
  5
219
100
AcDbEntity
  8
0
370
    -3
390
0
  6
Continuous
100
AcDbCircle
 10
-116.911782
 20
-196.492759
 30
0.0
 40
13.0
  0
CIRCLE
  5
21A
100
AcDbEntity
  8
0
370
    -3
390
0
  6
Continuous
100
AcDbCircle
 10
-116.911782
 20
-196.492759
 30
0.0
 40
10.0
  0
CIRCLE
  5
21B
100
AcDbEntity
  8
0
370
    -3
390
0
  6
Continuous
100
AcDbCircle
 10
-116.911782
 20
-196.492759
 30
0.0
 40
8.647
  0
CIRCLE
  5
21C
100
AcDbEntity
  8
0
370
    -3
390
0
  6
Continuous
100
AcDbCircle
 10
97.088218
 20
-196.492759
 30
0.0
 40
13.0
  0
CIRCLE
  5
21D
100
AcDbEntity
  8
0
370
    -3
390
0
  6
Continuous
100
AcDbCircle
 10
97.088218
 20
-196.492759
 30
0.0
 40
10.0
  0
CIRCLE
  5
21E
100
AcDbEntity
  8
0
370
    -3
390
0
  6
Continuous
100
AcDbCircle
 10
97.088218
 20
-196.492759
 30
0.0
 40
8.647
  0
CIRCLE
  5
21F
100
AcDbEntity
  8
0
370
    -3
390
0
  6
Continuous
100
AcDbCircle
 10
97.088218
 20
-66.492759
 30
0.0
 40
10.0
  0
CIRCLE
  5
220
100
AcDbEntity
  8
0
370
    -3
390
0
  6
Continuous
100
AcDbCircle
 10
97.088218
 20
-66.492759
 30
0.0
 40
8.647
  0
CIRCLE
  5
221
100
AcDbEntity
  8
0
370
    -3
390
0
  6
Continuous
100
AcDbCircle
 10
97.088218
 20
-66.492759
 30
0.0
 40
13.0
  0
CIRCLE
  5
222
100
AcDbEntity
  8
0
370
    -3
390
0
  6
Continuous
100
AcDbCircle
 10
32.088218
 20
-131.492759
 30
0.0
 40
40.0
  0
CIRCLE
  5
223
100
AcDbEntity
  8
0
370
    -3
390
0
  6
Continuous
100
AcDbCircle
 10
32.088218
 20
-131.492759
 30
0.0
 40
57.5
  0
LINE
  5
224
100
AcDbEntity
  8
0
370
    -3
390
0
  6
Continuous
100
AcDbLine
 10
-137.992807
 20
-234.492287
 30
0.0
 11
-142.492807
 21
-234.492287
 31
0.0
  0
LINE
  5
225
100
AcDbEntity
  8
0
370
    -3
390
0
  6
Continuous
100
AcDbLine
 10
-137.992807
 20
-289.492475
 30
0.0
 11
-137.992807
 21
-234.492287
 31
0.0
  0
LINE
  5
226
100
AcDbEntity
  8
0
370
    -3
390
0
  6
Continuous
100
AcDbLine
 10
-142.492807
 20
-289.492475
 30
0.0
 11
-137.992807
 21
-289.492475
 31
0.0
  0
ARC
  5
227
100
AcDbEntity
  8
0
370
    -3
390
0
  6
Continuous
100
AcDbCircle
 10
-154.911782
 20
-94.761918
 30
0.0
 40
8.0
100
AcDbArc
 50
6.240692
 51
90.0
  0
ARC
  5
228
100
AcDbEntity
  8
0
370
    -3
390
0
  6
Continuous
100
AcDbCircle
 10
-154.911782
 20
-84.492759
 30
0.0
 40
8.0
100
AcDbArc
 50
0.0
 51
90.0
  0
LINE
  5
229
100
AcDbEntity
  8
0
370
    -3
390
0
  6
Continuous
100
AcDbLine
 10
-146.911782
 20
-84.492759
 30
0.0
 11
-146.911782
 21
-93.892275
 31
0.0
  0
LINE
  5
22A
100
AcDbEntity
  8
0
370
    -3
390
0
  6
Continuous
100
AcDbLine
 10
-142.492807
 20
-78.492759
 30
0.0
 11
-142.492807
 21
-289.492475
 31
0.0
  0
ARC
  5
22B
100
AcDbEntity
  8
0
370
    -3
390
0
  6
Continuous
100
AcDbCircle
 10
-139.006598
 20
-82.753473
 30
0.0
 40
8.0
100
AcDbArc
 50
186.240692
 51
224.119609
  0
ARC
  5
22C
100
AcDbEntity
  8
0
370
    -3
390
0
  6
Continuous
100
AcDbCircle
 10
-150.492807
 20
-93.89201
 30
0.0
 40
8.0
100
AcDbArc
 50
0.0
 51
44.119609
  0
ARC
  5
22D
100
AcDbEntity
  8
0
370
    -3
390
0
  6
Continuous
100
AcDbCircle
 10
-150.492807
 20
-104.161168
 30
0.0
 40
8.0
100
AcDbArc
 50
0.0
 51
44.119609
  0
ARC
  5
22E
100
AcDbEntity
  8
0
370
    -3
390
0
  6
Continuous
100
AcDbCircle
 10
-139.006598
 20
-93.022632
 30
0.0
 40
8.0
100
AcDbArc
 50
186.240692
 51
224.119609
  0
ARC
  5
22F
100
AcDbEntity
  8
0
370
    -3
390
0
  6
Continuous
100
AcDbCircle
 10
-150.492807
 20
-227.952872
 30
0.0
 40
8.0
100
AcDbArc
 50
270.0
 51
0.0
  0
LINE
  5
230
100
AcDbEntity
  8
0
370
    -3
390
0
  6
Continuous
100
AcDbLine
 10
-161.911782
 20
-235.952872
 30
0.0
 11
-150.492807
 21
-235.952872
 31
0.0
  0
ARC
  5
231
100
AcDbEntity
  8
0
370
    -3
390
0
  6
Continuous
100
AcDbCircle
 10
-150.492807
 20
-204.824351
 30
0.0
 40
8.0
100
AcDbArc
 50
315.880391
 51
0.0
  0
ARC
  5
232
100
AcDbEntity
  8
0
370
    -3
390
0
  6
Continuous
100
AcDbCircle
 10
-139.006598
 20
-215.962887
 30
0.0
 40
8.0
100
AcDbArc
 50
135.880391
 51
173.759308
  0
LINE
  5
233
100
AcDbEntity
  8
0
370
    -3
390
0
  6
Continuous
100
AcDbLine
 10
-154.911782
 20
-222.223601
 30
0.0
 11
-161.911782
 21
-222.223601
 31
0.0
  0
ARC
  5
234
100
AcDbEntity
  8
0
370
    -3
390
0
  6
Continuous
100
AcDbCircle
 10
-154.911782
 20
-214.223601
 30
0.0
 40
8.0
100
AcDbArc
 50
270.0
 51
353.759308
  0
ARC
  5
235
100
AcDbEntity
  8
0
370
    -3
390
0
  6
Continuous
100
AcDbCircle
 10
-154.911782
 20
-224.492759
 30
0.0
 40
8.0
100
AcDbArc
 50
270.0
 51
0.0
  0
LINE
  5
236
100
AcDbEntity
  8
0
370
    -3
390
0
  6
Continuous
100
AcDbLine
 10
-146.911782
 20
-224.492759
 30
0.0
 11
-146.911782
 21
-215.093244
 31
0.0
  0
ARC
  5
237
100
AcDbEntity
  8
0
370
    -3
390
0
  6
Continuous
100
AcDbCircle
 10
-139.006598
 20
-226.232045
 30
0.0
 40
8.0
100
AcDbArc
 50
135.880391
 51
173.759308
  0
ARC
  5
238
100
AcDbEntity
  8
0
370
    -3
390
0
  6
Continuous
100
AcDbCircle
 10
-150.492807
 20
-215.093509
 30
0.0
 40
8.0
100
AcDbArc
 50
315.880391
 51
0.0
  0
LINE
  5
239
100
AcDbEntity
  8
0
370
    -3
390
0
  6
Continuous
100
AcDbLine
 10
-154.911782
 20
-232.492759
 30
0.0
 11
-161.911782
 21
-232.492759
 31
0.0
  0
LINE
  5
23A
100
AcDbEntity
  8
0
370
    -3
390
0
  6
Continuous
100
AcDbLine
 10
-150.492807
 20
-101.022632
 30
0.0
 11
-161.911782
 21
-101.022632
 31
0.0
  0
LINE
  5
23B
100
AcDbEntity
  8
0
370
    -3
390
0
  6
Continuous
100
AcDbLine
 10
-150.492807
 20
-207.962887
 30
0.0
 11
-161.911782
 21
-207.962887
 31
0.0
  0
LINE
  5
23C
100
AcDbEntity
  8
0
370
    -3
390
0
  6
CENTER
100
AcDbLine
 10
-149.505271
 20
-244.492237
 30
0.0
 11
-123.145587
 21
-244.492173
 31
0.0
  0
LINE
  5
23D
100
AcDbEntity
  8
0
370
    -3
390
0
  6
CENTER
100
AcDbLine
 10
97.088218
 20
-45.492759
 30
0.0
 11
97.088218
 21
-87.492759
 31
0.0
  0
LINE
  5
23E
100
AcDbEntity
  8
0
370
    -3
390
0
  6
CENTER
100
AcDbLine
 10
118.088218
 20
-66.492759
 30
0.0
 11
76.088218
 21
-66.492759
 31
0.0
  0
LINE
  5
23F
100
AcDbEntity
  8
0
370
    -3
390
0
  6
CENTER
100
AcDbLine
 10
97.088218
 20
-175.492759
 30
0.0
 11
97.088218
 21
-217.492759
 31
0.0
  0
LINE
  5
240
100
AcDbEntity
  8
0
370
    -3
390
0
  6
CENTER
100
AcDbLine
 10
118.088218
 20
-196.492759
 30
0.0
 11
76.088218
 21
-196.492759
 31
0.0
  0
LINE
  5
241
100
AcDbEntity
  8
0
370
    -3
390
0
  6
CENTER
100
AcDbLine
 10
-116.911782
 20
-175.492759
 30
0.0
 11
-116.911782
 21
-217.492759
 31
0.0
  0
LINE
  5
242
100
AcDbEntity
  8
0
370
    -3
390
0
  6
CENTER
100
AcDbLine
 10
-95.911782
 20
-196.492759
 30
0.0
 11
-137.911782
 21
-196.492759
 31
0.0
  0
LINE
  5
243
100
AcDbEntity
  8
0
370
    -3
390
0
  6
CENTER
100
AcDbLine
 10
-116.911782
 20
-45.492759
 30
0.0
 11
-116.911782
 21
-87.492759
 31
0.0
  0
LINE
  5
244
100
AcDbEntity
  8
0
370
    -3
390
0
  6
CENTER
100
AcDbLine
 10
-95.911782
 20
-66.492759
 30
0.0
 11
-137.911782
 21
-66.492759
 31
0.0
  0
ARC
  5
245
100
AcDbEntity
  8
0
370
    -3
390
0
  6
CENTER
100
AcDbCircle
 10
32.088218
 20
-131.492759
 30
0.0
 40
50.5
100
AcDbArc
 50
80.587369
 51
98.222711
  0
ARC
  5
246
100
AcDbEntity
  8
0
370
    -3
390
0
  6
CENTER
100
AcDbCircle
 10
32.088218
 20
-131.492759
 30
0.0
 40
50.5
100
AcDbArc
 50
351.514955
 51
8.274472
  0
ARC
  5
247
100
AcDbEntity
  8
0
370
    -3
390
0
  6
CENTER
100
AcDbCircle
 10
32.088218
 20
-131.492759
 30
0.0
 40
50.5
100
AcDbArc
 50
261.917844
 51
278.099074
  0
ARC
  5
248
100
AcDbEntity
  8
0
370
    -3
390
0
  6
CENTER
100
AcDbCircle
 10
32.088218
 20
-131.492759
 30
0.0
 40
50.5
100
AcDbArc
 50
171.916952
 51
188.424667
  0
LINE
  5
249
100
AcDbEntity
  8
0
370
    -3
390
0
  6
CENTER
100
AcDbLine
 10
-152.744138
 20
-269.492475
 30
0.0
 11
-127.753943
 21
-269.492475
 31
0.0
  0
LINE
  5
24A
100
AcDbEntity
  8
0
370
    -3
390
0
  6
CENTER
100
AcDbLine
 10
122.573862
 20
-131.492759
 30
0.0
 11
-82.791959
 21
-131.492759
 31
0.0
  0
LINE
  5
24B
100
AcDbEntity
  8
0
370
    -3
390
0
  6
CENTER
100
AcDbLine
 10
32.088218
 20
-37.121133
 30
0.0
 11
32.088218
 21
-223.360025
 31
0.0
  0
ARC
  5
24C
100
AcDbEntity
  8
0
370
    -3
390
0
  6
Continuous
100
AcDbCircle
 10
621.483963
 20
-164.492759
 30
0.0
 40
90.0
100
AcDbArc
 50
276.699765
 51
0.0
  0
ARC
  5
24D
100
AcDbEntity
  8
0
370
    -3
390
0
  6
Continuous
100
AcDbCircle
 10
601.483963
 20
-164.492759
 30
0.0
 40
90.0
100
AcDbArc
 50
180.0
 51
263.300235
  0
ARC
  5
24E
100
AcDbEntity
  8
0
370
    -3
390
0
  6
Continuous
100
AcDbCircle
 10
-7.916783
 20
-196.992759
 30
0.0
 40
5.0
100
AcDbArc
 50
178.854008
 51
270.0
  0
ARC
  5
24F
100
AcDbEntity
  8
0
370
    -3
390
0
  6
Continuous
100
AcDbCircle
 10
-7.916783
 20
-65.992759
 30
0.0
 40
5.0
100
AcDbArc
 50
90.0
 51
181.145992
  0
LINE
  5
250
100
AcDbEntity
  8
0
370
    -3
390
0
  6
CENTER
100
AcDbLine
 10
-107.837599
 20
-154.492759
 30
0.0
 11
-537.015354
 21
-154.492759
 31
0.0
  0
MTEXT
  5
252
100
AcDbEntity
  8
0
370
    -3
390
0
  6
Continuous
100
AcDbMText
 10
-705.425659
 20
163.137192
 30
0.0
 40
10.0
 41
0.0
 71
     7
 72
     1
  1
\W0.63;三菱ギヤードモータ  
  7
ZU_SHPTB00001
 11
1.0
 21
0.0
 31
0.0
 73
     1
 44
1.0
  0
MTEXT
  5
253
100
AcDbEntity
  8
0
370
    -3
390
0
  6
Continuous
100
AcDbMText
 10
-705.425659
 20
151.837189
 30
0.0
 40
10.0
 41
0.0
 71
     7
 72
     1
  1
\W0.47;GM-SSYPFB-RH
  7
ZU_SHPTB00001
 11
1.0
 21
0.0
 31
0.0
 73
     1
 44
1.0
  0
MTEXT
  5
254
100
AcDbEntity
  8
0
370
    -3
390
0
  6
Continuous
100
AcDbMText
 10
-705.425659
 20
140.537201
 30
0.0
 40
10.0
 41
0.0
 71
     7
 72
     1
  1
\W0.47;2.2(kW)
  7
ZU_SHPTB00001
 11
1.0
 21
0.0
 31
0.0
 73
     1
 44
1.0
  0
MTEXT
  5
255
100
AcDbEntity
  8
0
370
    -3
390
0
  6
Continuous
100
AcDbMText
 10
-705.425659
 20
129.237198
 30
0.0
 40
10.0
 41
0.0
 71
     7
 72
     1
  1
\W0.47;1/7.5\W0.63;～\W0.47;1/30
  7
ZU_SHPTB00001
 11
1.0
 21
0.0
 31
0.0
 73
     1
 44
1.0
  0
MTEXT
  5
256
100
AcDbEntity
  8
0
370
    -3
390
0
  6
Continuous
100
AcDbMText
 10
-705.425659
 20
117.937195
 30
0.0
 40
10.0
 41
0.0
 71
     7
 72
     1
  1
\W0.47;SCALE\W0.78; \W0.47;1/1
  7
ZU_SHPTB00001
 11
1.0
 21
0.0
 31
0.0
 73
     1
 44
1.0
  0
LINE
  5
257
100
AcDbEntity
  8
0
370
    -3
390
0
  6
Continuous
100
AcDbLine
 10
-616.38235
 20
-50.492759
 30
0.0
 11
-616.38235
 21
-70.940381
 31
0.0
  0
LINE
  5
258
100
AcDbEntity
  8
0
370
    -3
390
0
  6
Continuous
100
AcDbLine
 10
-736.38235
 20
-48.587997
 30
0.0
 11
-736.38235
 21
-58.108238
 31
0.0
  0
LINE
  5
259
100
AcDbEntity
  8
0
370
    -3
390
0
  6
Continuous
100
AcDbLine
 10
-735.38235
 20
-48.492759
 30
0.0
 11
-735.38235
 21
-57.677385
 31
0.0
  0
LINE
  5
25A
100
AcDbEntity
  8
0
370
    -3
390
0
  6
Continuous
100
AcDbLine
 10
-756.38235
 20
-50.492759
 30
0.0
 11
-756.38235
 21
-70.940381
 31
0.0
  0
LINE
  5
25B
100
AcDbEntity
  8
0
370
    -3
390
0
  6
Continuous
100
AcDbLine
 10
-616.38235
 20
-50.492759
 30
0.0
 11
-735.38235
 21
-48.492759
 31
0.0
  0
LINE
  5
25C
100
AcDbEntity
  8
0
370
    -3
390
0
  6
Continuous
100
AcDbLine
 10
-735.38235
 20
-48.492759
 30
0.0
 11
-756.38235
 21
-50.492759
 31
0.0
  0
LINE
  5
25D
100
AcDbEntity
  8
0
370
    -3
390
0
  6
CENTER
100
AcDbLine
 10
-773.684246
 20
-131.492759
 30
0.0
 11
-600.623671
 21
-131.492759
 31
0.0
  0
LINE
  5
25E
100
AcDbEntity
  8
0
370
    -3
390
0
  6
CENTER
100
AcDbLine
 10
-686.38235
 20
-37.614811
 30
0.0
 11
-686.38235
 21
-323.271222
 31
0.0
  0
CIRCLE
  5
25F
100
AcDbEntity
  8
0
370
    -3
390
0
  6
Continuous
100
AcDbCircle
 10
-686.38235
 20
-154.492759
 30
0.0
 40
5.0
  0
LINE
  5
260
100
AcDbEntity
  8
0
370
    -3
390
0
  6
Continuous
100
AcDbLine
 10
-613.629343
 20
-150.492759
 30
0.0
 11
-617.141827
 21
-150.492759
 31
0.0
  0
LINE
  5
261
100
AcDbEntity
  8
0
370
    -3
390
0
  6
Continuous
100
AcDbLine
 10
-647.36999
 20
-92.921371
 30
0.0
 11
-649.124318
 21
-95.959956
 31
0.0
  0
ARC
  5
262
100
AcDbEntity
  8
0
370
    -3
390
0
  6
Continuous
100
AcDbCircle
 10
-686.38235
 20
-154.492759
 30
0.0
 40
75.0
100
AcDbArc
 50
4.714561
 51
56.072557
  0
ARC
  5
263
100
AcDbEntity
  8
0
370
    -3
390
0
  6
Continuous
100
AcDbCircle
 10
-613.629343
 20
-148.492759
 30
0.0
 40
2.0
100
AcDbArc
 50
270.0
 51
4.714561
  0
ARC
  5
264
100
AcDbEntity
  8
0
370
    -3
390
0
  6
Continuous
100
AcDbCircle
 10
-645.63794
 20
-93.921371
 30
0.0
 40
2.0
100
AcDbArc
 50
56.072557
 51
150.0
  0
LINE
  5
265
100
AcDbEntity
  8
0
370
    -3
390
0
  6
Continuous
100
AcDbLine
 10
-666.257738
 20
-150.492759
 30
0.0
 11
-670.476376
 21
-150.492759
 31
0.0
  0
LINE
  5
266
100
AcDbEntity
  8
0
370
    -3
390
0
  6
Continuous
100
AcDbLine
 10
-673.586234
 20
-138.329238
 30
0.0
 11
-675.660235
 21
-141.921512
 31
0.0
  0
LINE
  5
267
100
AcDbEntity
  8
0
370
    -3
390
0
  6
Continuous
100
AcDbLine
 10
-652.915949
 20
-150.492759
 30
0.0
 11
-656.988473
 21
-150.492759
 31
0.0
  0
LINE
  5
268
100
AcDbEntity
  8
0
370
    -3
390
0
  6
Continuous
100
AcDbLine
 10
-639.766902
 20
-150.492759
 30
0.0
 11
-643.803012
 21
-150.492759
 31
0.0
  0
LINE
  5
269
100
AcDbEntity
  8
0
370
    -3
390
0
  6
Continuous
100
AcDbLine
 10
-626.683103
 20
-150.492759
 30
0.0
 11
-630.704706
 21
-150.492759
 31
0.0
  0
LINE
  5
26A
100
AcDbEntity
  8
0
370
    -3
390
0
  6
Continuous
100
AcDbLine
 10
-653.888622
 20
-104.211971
 30
0.0
 11
-655.896104
 21
-107.689033
 31
0.0
  0
LINE
  5
26B
100
AcDbEntity
  8
0
370
    -3
390
0
  6
Continuous
100
AcDbLine
 10
-660.417631
 20
-115.520547
 30
0.0
 11
-662.430117
 21
-119.006275
 31
0.0
  0
LINE
  5
26C
100
AcDbEntity
  8
0
370
    -3
390
0
  6
Continuous
100
AcDbLine
 10
-666.969102
 20
-126.868028
 30
0.0
 11
-668.994074
 21
-130.375382
 31
0.0
  0
ARC
  5
26D
100
AcDbEntity
  8
0
370
    -3
390
0
  6
Continuous
100
AcDbCircle
 10
-686.38235
 20
-154.492759
 30
0.0
 40
62.0
100
AcDbArc
 50
5.73917
 51
55.219808
  0
ARC
  5
26E
100
AcDbEntity
  8
0
370
    -3
390
0
  6
Continuous
100
AcDbCircle
 10
-686.38235
 20
-154.492759
 30
0.0
 40
54.0
100
AcDbArc
 50
6.15064
 51
54.877484
  0
ARC
  5
26F
100
AcDbEntity
  8
0
370
    -3
390
0
  6
Continuous
100
AcDbCircle
 10
-686.38235
 20
-154.492759
 30
0.0
 40
49.0
100
AcDbArc
 50
7.334369
 51
53.893148
  0
ARC
  5
270
100
AcDbEntity
  8
0
370
    -3
390
0
  6
Continuous
100
AcDbCircle
 10
-686.38235
 20
-154.492759
 30
0.0
 40
41.0
100
AcDbArc
 50
8.020933
 51
53.322595
  0
ARC
  5
271
100
AcDbEntity
  8
0
370
    -3
390
0
  6
Continuous
100
AcDbCircle
 10
-686.38235
 20
-154.492759
 30
0.0
 40
36.0
100
AcDbArc
 50
10.164249
 51
51.543481
  0
ARC
  5
272
100
AcDbEntity
  8
0
370
    -3
390
0
  6
Continuous
100
AcDbCircle
 10
-686.38235
 20
-154.492759
 30
0.0
 40
28.0
100
AcDbArc
 50
11.536959
 51
50.405932
  0
ARC
  5
273
100
AcDbEntity
  8
0
370
    -3
390
0
  6
Continuous
100
AcDbCircle
 10
-686.38235
 20
-154.492759
 30
0.0
 40
23.0
100
AcDbArc
 50
16.60155
 51
46.225853
  0
ARC
  5
274
100
AcDbEntity
  8
0
370
    -3
390
0
  6
Continuous
100
AcDbCircle
 10
-686.38235
 20
-154.492759
 30
0.0
 40
15.0
100
AcDbArc
 50
20.667316
 51
42.895365
  0
ARC
  5
275
100
AcDbEntity
  8
0
370
    -3
390
0
  6
Continuous
100
AcDbCircle
 10
-626.683103
 20
-148.492759
 30
0.0
 40
2.0
100
AcDbArc
 50
270.0
 51
5.73917
  0
ARC
  5
276
100
AcDbEntity
  8
0
370
    -3
390
0
  6
Continuous
100
AcDbCircle
 10
-652.156571
 20
-105.211971
 30
0.0
 40
2.0
100
AcDbArc
 50
55.219808
 51
150.0
  0
ARC
  5
277
100
AcDbEntity
  8
0
370
    -3
390
0
  6
Continuous
100
AcDbCircle
 10
-654.164053
 20
-108.689033
 30
0.0
 40
2.0
100
AcDbArc
 50
150.0
 51
234.877484
  0
ARC
  5
278
100
AcDbEntity
  8
0
370
    -3
390
0
  6
Continuous
100
AcDbCircle
 10
-630.704706
 20
-148.492759
 30
0.0
 40
2.0
100
AcDbArc
 50
186.15064
 51
270.0
  0
ARC
  5
279
100
AcDbEntity
  8
0
370
    -3
390
0
  6
Continuous
100
AcDbCircle
 10
-639.766902
 20
-148.492759
 30
0.0
 40
2.0
100
AcDbArc
 50
270.0
 51
7.334369
  0
ARC
  5
27A
100
AcDbEntity
  8
0
370
    -3
390
0
  6
Continuous
100
AcDbCircle
 10
-643.803012
 20
-148.492759
 30
0.0
 40
2.0
100
AcDbArc
 50
188.020933
 51
270.0
  0
ARC
  5
27B
100
AcDbEntity
  8
0
370
    -3
390
0
  6
Continuous
100
AcDbCircle
 10
-660.698066
 20
-120.006275
 30
0.0
 40
2.0
100
AcDbArc
 50
150.0
 51
233.322595
  0
ARC
  5
27C
100
AcDbEntity
  8
0
370
    -3
390
0
  6
Continuous
100
AcDbCircle
 10
-658.68558
 20
-116.520547
 30
0.0
 40
2.0
100
AcDbArc
 50
53.893148
 51
150.0
  0
ARC
  5
27D
100
AcDbEntity
  8
0
370
    -3
390
0
  6
Continuous
100
AcDbCircle
 10
-665.237051
 20
-127.868028
 30
0.0
 40
2.0
100
AcDbArc
 50
51.543481
 51
150.0
  0
ARC
  5
27E
100
AcDbEntity
  8
0
370
    -3
390
0
  6
Continuous
100
AcDbCircle
 10
-667.262023
 20
-131.375382
 30
0.0
 40
2.0
100
AcDbArc
 50
150.0
 51
230.405932
  0
ARC
  5
27F
100
AcDbEntity
  8
0
370
    -3
390
0
  6
Continuous
100
AcDbCircle
 10
-656.988473
 20
-148.492759
 30
0.0
 40
2.0
100
AcDbArc
 50
191.536959
 51
270.0
  0
ARC
  5
280
100
AcDbEntity
  8
0
370
    -3
390
0
  6
Continuous
100
AcDbCircle
 10
-652.915949
 20
-148.492759
 30
0.0
 40
2.0
100
AcDbArc
 50
270.0
 51
10.164249
  0
ARC
  5
281
100
AcDbEntity
  8
0
370
    -3
390
0
  6
Continuous
100
AcDbCircle
 10
-666.257738
 20
-148.492759
 30
0.0
 40
2.0
100
AcDbArc
 50
270.0
 51
16.60155
  0
ARC
  5
282
100
AcDbEntity
  8
0
370
    -3
390
0
  6
Continuous
100
AcDbCircle
 10
-670.476376
 20
-148.492759
 30
0.0
 40
2.0
100
AcDbArc
 50
200.667316
 51
270.0
  0
ARC
  5
283
100
AcDbEntity
  8
0
370
    -3
390
0
  6
Continuous
100
AcDbCircle
 10
-671.854184
 20
-139.329238
 30
0.0
 40
2.0
100
AcDbArc
 50
46.225853
 51
150.0
  0
ARC
  5
284
100
AcDbEntity
  8
0
370
    -3
390
0
  6
Continuous
100
AcDbCircle
 10
-673.928184
 20
-142.921512
 30
0.0
 40
2.0
100
AcDbArc
 50
150.0
 51
222.895365
  0
ARC
  5
285
100
AcDbEntity
  8
0
370
    -3
390
0
  6
Continuous
100
AcDbCircle
 10
-673.928184
 20
-166.064007
 30
0.0
 40
2.0
100
AcDbArc
 50
137.104635
 51
210.0
  0
LINE
  5
286
100
AcDbEntity
  8
0
370
    -3
390
0
  6
Continuous
100
AcDbLine
 10
-673.586234
 20
-170.656281
 30
0.0
 11
-675.660235
 21
-167.064007
 31
0.0
  0
ARC
  5
287
100
AcDbEntity
  8
0
370
    -3
390
0
  6
Continuous
100
AcDbCircle
 10
-686.38235
 20
-154.492759
 30
0.0
 40
15.0
100
AcDbArc
 50
317.104635
 51
339.332684
  0
ARC
  5
288
100
AcDbEntity
  8
0
370
    -3
390
0
  6
Continuous
100
AcDbCircle
 10
-671.854184
 20
-169.656281
 30
0.0
 40
2.0
100
AcDbArc
 50
210.0
 51
313.774147
  0
ARC
  5
289
100
AcDbEntity
  8
0
370
    -3
390
0
  6
Continuous
100
AcDbCircle
 10
-686.38235
 20
-154.492759
 30
0.0
 40
23.0
100
AcDbArc
 50
313.774147
 51
343.39845
  0
ARC
  5
28A
100
AcDbEntity
  8
0
370
    -3
390
0
  6
Continuous
100
AcDbCircle
 10
-670.476376
 20
-160.492759
 30
0.0
 40
2.0
100
AcDbArc
 50
90.0
 51
159.332684
  0
ARC
  5
28B
100
AcDbEntity
  8
0
370
    -3
390
0
  6
Continuous
100
AcDbCircle
 10
-666.257738
 20
-160.492759
 30
0.0
 40
2.0
100
AcDbArc
 50
343.39845
 51
90.0
  0
ARC
  5
28C
100
AcDbEntity
  8
0
370
    -3
390
0
  6
Continuous
100
AcDbCircle
 10
-652.915949
 20
-160.492759
 30
0.0
 40
2.0
100
AcDbArc
 50
349.835751
 51
90.0
  0
ARC
  5
28D
100
AcDbEntity
  8
0
370
    -3
390
0
  6
Continuous
100
AcDbCircle
 10
-686.38235
 20
-154.492759
 30
0.0
 40
36.0
100
AcDbArc
 50
308.456519
 51
349.835751
  0
ARC
  5
28E
100
AcDbEntity
  8
0
370
    -3
390
0
  6
Continuous
100
AcDbCircle
 10
-656.988473
 20
-160.492759
 30
0.0
 40
2.0
100
AcDbArc
 50
90.0
 51
168.463041
  0
ARC
  5
28F
100
AcDbEntity
  8
0
370
    -3
390
0
  6
Continuous
100
AcDbCircle
 10
-686.38235
 20
-154.492759
 30
0.0
 40
28.0
100
AcDbArc
 50
309.594068
 51
348.463041
  0
ARC
  5
290
100
AcDbEntity
  8
0
370
    -3
390
0
  6
Continuous
100
AcDbCircle
 10
-667.262023
 20
-177.610136
 30
0.0
 40
2.0
100
AcDbArc
 50
129.594068
 51
210.0
  0
LINE
  5
291
100
AcDbEntity
  8
0
370
    -3
390
0
  6
Continuous
100
AcDbLine
 10
-666.969102
 20
-182.117491
 30
0.0
 11
-668.994074
 21
-178.610136
 31
0.0
  0
ARC
  5
292
100
AcDbEntity
  8
0
370
    -3
390
0
  6
Continuous
100
AcDbCircle
 10
-665.237051
 20
-181.117491
 30
0.0
 40
2.0
100
AcDbArc
 50
210.0
 51
308.456519
  0
ARC
  5
293
100
AcDbEntity
  8
0
370
    -3
390
0
  6
Continuous
100
AcDbCircle
 10
-658.68558
 20
-192.464972
 30
0.0
 40
2.0
100
AcDbArc
 50
210.0
 51
306.106852
  0
LINE
  5
294
100
AcDbEntity
  8
0
370
    -3
390
0
  6
Continuous
100
AcDbLine
 10
-660.417631
 20
-193.464972
 30
0.0
 11
-662.430117
 21
-189.979243
 31
0.0
  0
ARC
  5
295
100
AcDbEntity
  8
0
370
    -3
390
0
  6
Continuous
100
AcDbCircle
 10
-686.38235
 20
-154.492759
 30
0.0
 40
49.0
100
AcDbArc
 50
306.106852
 51
352.665631
  0
ARC
  5
296
100
AcDbEntity
  8
0
370
    -3
390
0
  6
Continuous
100
AcDbCircle
 10
-660.698066
 20
-188.979243
 30
0.0
 40
2.0
100
AcDbArc
 50
126.677405
 51
210.0
  0
ARC
  5
297
100
AcDbEntity
  8
0
370
    -3
390
0
  6
Continuous
100
AcDbCircle
 10
-686.38235
 20
-154.492759
 30
0.0
 40
41.0
100
AcDbArc
 50
306.677405
 51
351.979067
  0
ARC
  5
298
100
AcDbEntity
  8
0
370
    -3
390
0
  6
Continuous
100
AcDbCircle
 10
-643.803012
 20
-160.492759
 30
0.0
 40
2.0
100
AcDbArc
 50
90.0
 51
171.979067
  0
ARC
  5
299
100
AcDbEntity
  8
0
370
    -3
390
0
  6
Continuous
100
AcDbCircle
 10
-686.38235
 20
-154.492759
 30
0.0
 40
54.0
100
AcDbArc
 50
305.122516
 51
353.84936
  0
ARC
  5
29A
100
AcDbEntity
  8
0
370
    -3
390
0
  6
Continuous
100
AcDbCircle
 10
-654.164053
 20
-200.296486
 30
0.0
 40
2.0
100
AcDbArc
 50
125.122516
 51
210.0
  0
LINE
  5
29B
100
AcDbEntity
  8
0
370
    -3
390
0
  6
Continuous
100
AcDbLine
 10
-653.888622
 20
-204.773547
 30
0.0
 11
-655.896104
 21
-201.296486
 31
0.0
  0
ARC
  5
29C
100
AcDbEntity
  8
0
370
    -3
390
0
  6
Continuous
100
AcDbCircle
 10
-652.156571
 20
-203.773547
 30
0.0
 40
2.0
100
AcDbArc
 50
210.0
 51
304.780192
  0
ARC
  5
29D
100
AcDbEntity
  8
0
370
    -3
390
0
  6
Continuous
100
AcDbCircle
 10
-686.38235
 20
-154.492759
 30
0.0
 40
62.0
100
AcDbArc
 50
304.780192
 51
354.26083
  0
LINE
  5
29E
100
AcDbEntity
  8
0
370
    -3
390
0
  6
Continuous
100
AcDbLine
 10
-647.36999
 20
-216.064147
 30
0.0
 11
-649.124318
 21
-213.025563
 31
0.0
  0
ARC
  5
29F
100
AcDbEntity
  8
0
370
    -3
390
0
  6
Continuous
100
AcDbCircle
 10
-645.63794
 20
-215.064147
 30
0.0
 40
2.0
100
AcDbArc
 50
210.0
 51
303.927443
  0
ARC
  5
2A0
100
AcDbEntity
  8
0
370
    -3
390
0
  6
Continuous
100
AcDbCircle
 10
-686.38235
 20
-154.492759
 30
0.0
 40
75.0
100
AcDbArc
 50
303.927443
 51
355.285439
  0
LINE
  5
2A1
100
AcDbEntity
  8
0
370
    -3
390
0
  6
Continuous
100
AcDbLine
 10
-666.257738
 20
-158.492759
 30
0.0
 11
-670.476376
 21
-158.492759
 31
0.0
  0
LINE
  5
2A2
100
AcDbEntity
  8
0
370
    -3
390
0
  6
Continuous
100
AcDbLine
 10
-652.915949
 20
-158.492759
 30
0.0
 11
-656.988473
 21
-158.492759
 31
0.0
  0
LINE
  5
2A3
100
AcDbEntity
  8
0
370
    -3
390
0
  6
Continuous
100
AcDbLine
 10
-639.766902
 20
-158.492759
 30
0.0
 11
-643.803012
 21
-158.492759
 31
0.0
  0
ARC
  5
2A4
100
AcDbEntity
  8
0
370
    -3
390
0
  6
Continuous
100
AcDbCircle
 10
-639.766902
 20
-160.492759
 30
0.0
 40
2.0
100
AcDbArc
 50
352.665631
 51
90.0
  0
ARC
  5
2A5
100
AcDbEntity
  8
0
370
    -3
390
0
  6
Continuous
100
AcDbCircle
 10
-630.704706
 20
-160.492759
 30
0.0
 40
2.0
100
AcDbArc
 50
90.0
 51
173.84936
  0
LINE
  5
2A6
100
AcDbEntity
  8
0
370
    -3
390
0
  6
Continuous
100
AcDbLine
 10
-626.683103
 20
-158.492759
 30
0.0
 11
-630.704706
 21
-158.492759
 31
0.0
  0
LINE
  5
2A7
100
AcDbEntity
  8
0
370
    -3
390
0
  6
Continuous
100
AcDbLine
 10
-613.629343
 20
-158.492759
 30
0.0
 11
-617.141827
 21
-158.492759
 31
0.0
  0
ARC
  5
2A8
100
AcDbEntity
  8
0
370
    -3
390
0
  6
Continuous
100
AcDbCircle
 10
-626.683103
 20
-160.492759
 30
0.0
 40
2.0
100
AcDbArc
 50
354.26083
 51
90.0
  0
ARC
  5
2A9
100
AcDbEntity
  8
0
370
    -3
390
0
  6
Continuous
100
AcDbCircle
 10
-613.629343
 20
-160.492759
 30
0.0
 40
2.0
100
AcDbArc
 50
355.285439
 51
90.0
  0
ARC
  5
2AA
100
AcDbEntity
  8
0
370
    -3
390
0
  6
Continuous
100
AcDbCircle
 10
-682.588438
 20
-171.064007
 30
0.0
 40
2.0
100
AcDbArc
 50
30.0
 51
102.895365
  0
LINE
  5
2AB
100
AcDbEntity
  8
0
370
    -3
390
0
  6
Continuous
100
AcDbLine
 10
-678.782387
 20
-173.656281
 30
0.0
 11
-680.856387
 21
-170.064007
 31
0.0
  0
ARC
  5
2AC
100
AcDbEntity
  8
0
370
    -3
390
0
  6
Continuous
100
AcDbCircle
 10
-686.38235
 20
-154.492759
 30
0.0
 40
15.0
100
AcDbArc
 50
260.667316
 51
282.895365
  0
ARC
  5
2AD
100
AcDbEntity
  8
0
370
    -3
390
0
  6
Continuous
100
AcDbCircle
 10
-680.514438
 20
-174.656281
 30
0.0
 40
2.0
100
AcDbArc
 50
286.225853
 51
30.0
  0
ARC
  5
2AE
100
AcDbEntity
  8
0
370
    -3
390
0
  6
Continuous
100
AcDbCircle
 10
-686.38235
 20
-154.492759
 30
0.0
 40
23.0
100
AcDbArc
 50
256.60155
 51
286.225853
  0
ARC
  5
2AF
100
AcDbEntity
  8
0
370
    -3
390
0
  6
Continuous
100
AcDbCircle
 10
-689.139184
 20
-171.267737
 30
0.0
 40
2.0
100
AcDbArc
 50
80.667316
 51
150.0
  0
ARC
  5
2B0
100
AcDbEntity
  8
0
370
    -3
390
0
  6
Continuous
100
AcDbCircle
 10
-691.248503
 20
-174.921184
 30
0.0
 40
2.0
100
AcDbArc
 50
150.0
 51
256.60155
  0
ARC
  5
2B1
100
AcDbEntity
  8
0
370
    -3
390
0
  6
Continuous
100
AcDbCircle
 10
-697.919398
 20
-186.475513
 30
0.0
 40
2.0
100
AcDbArc
 50
150.0
 51
250.164249
  0
ARC
  5
2B2
100
AcDbEntity
  8
0
370
    -3
390
0
  6
Continuous
100
AcDbCircle
 10
-686.38235
 20
-154.492759
 30
0.0
 40
36.0
100
AcDbArc
 50
250.164249
 51
291.543481
  0
ARC
  5
2B3
100
AcDbEntity
  8
0
370
    -3
390
0
  6
Continuous
100
AcDbCircle
 10
-695.883136
 20
-182.948603
 30
0.0
 40
2.0
100
AcDbArc
 50
71.536959
 51
150.0
  0
ARC
  5
2B4
100
AcDbEntity
  8
0
370
    -3
390
0
  6
Continuous
100
AcDbCircle
 10
-686.38235
 20
-154.492759
 30
0.0
 40
28.0
100
AcDbArc
 50
251.536959
 51
290.405932
  0
ARC
  5
2B5
100
AcDbEntity
  8
0
370
    -3
390
0
  6
Continuous
100
AcDbCircle
 10
-675.922277
 20
-182.610136
 30
0.0
 40
2.0
100
AcDbArc
 50
30.0
 51
110.405932
  0
LINE
  5
2B6
100
AcDbEntity
  8
0
370
    -3
390
0
  6
Continuous
100
AcDbLine
 10
-672.165254
 20
-185.117491
 30
0.0
 11
-674.190226
 21
-181.610136
 31
0.0
  0
ARC
  5
2B7
100
AcDbEntity
  8
0
370
    -3
390
0
  6
Continuous
100
AcDbCircle
 10
-673.897305
 20
-186.117491
 30
0.0
 40
2.0
100
AcDbArc
 50
291.543481
 51
30.0
  0
ARC
  5
2B8
100
AcDbEntity
  8
0
370
    -3
390
0
  6
Continuous
100
AcDbCircle
 10
-667.345834
 20
-197.464972
 30
0.0
 40
2.0
100
AcDbArc
 50
293.893148
 51
30.0
  0
LINE
  5
2B9
100
AcDbEntity
  8
0
370
    -3
390
0
  6
Continuous
100
AcDbLine
 10
-665.613783
 20
-196.464972
 30
0.0
 11
-667.626269
 21
-192.979243
 31
0.0
  0
ARC
  5
2BA
100
AcDbEntity
  8
0
370
    -3
390
0
  6
Continuous
100
AcDbCircle
 10
-686.38235
 20
-154.492759
 30
0.0
 40
49.0
100
AcDbArc
 50
247.334369
 51
293.893148
  0
ARC
  5
2BB
100
AcDbEntity
  8
0
370
    -3
390
0
  6
Continuous
100
AcDbCircle
 10
-669.35832
 20
-193.979243
 30
0.0
 40
2.0
100
AcDbArc
 50
30.0
 51
113.322595
  0
ARC
  5
2BC
100
AcDbEntity
  8
0
370
    -3
390
0
  6
Continuous
100
AcDbCircle
 10
-686.38235
 20
-154.492759
 30
0.0
 40
41.0
100
AcDbArc
 50
248.020933
 51
293.322595
  0
ARC
  5
2BD
100
AcDbEntity
  8
0
370
    -3
390
0
  6
Continuous
100
AcDbCircle
 10
-702.475866
 20
-194.367547
 30
0.0
 40
2.0
100
AcDbArc
 50
68.020933
 51
150.0
  0
ARC
  5
2BE
100
AcDbEntity
  8
0
370
    -3
390
0
  6
Continuous
100
AcDbCircle
 10
-686.38235
 20
-154.492759
 30
0.0
 40
54.0
100
AcDbArc
 50
246.15064
 51
294.877484
  0
ARC
  5
2BF
100
AcDbEntity
  8
0
370
    -3
390
0
  6
Continuous
100
AcDbCircle
 10
-662.824307
 20
-205.296486
 30
0.0
 40
2.0
100
AcDbArc
 50
30.0
 51
114.877484
  0
LINE
  5
2C0
100
AcDbEntity
  8
0
370
    -3
390
0
  6
Continuous
100
AcDbLine
 10
-659.084774
 20
-207.773547
 30
0.0
 11
-661.092256
 21
-204.296486
 31
0.0
  0
ARC
  5
2C1
100
AcDbEntity
  8
0
370
    -3
390
0
  6
Continuous
100
AcDbCircle
 10
-660.816825
 20
-208.773547
 30
0.0
 40
2.0
100
AcDbArc
 50
295.219808
 51
30.0
  0
ARC
  5
2C2
100
AcDbEntity
  8
0
370
    -3
390
0
  6
Continuous
100
AcDbCircle
 10
-686.38235
 20
-154.492759
 30
0.0
 40
62.0
100
AcDbArc
 50
245.73917
 51
295.219808
  0
LINE
  5
2C3
100
AcDbEntity
  8
0
370
    -3
390
0
  6
Continuous
100
AcDbLine
 10
-652.566143
 20
-219.064147
 30
0.0
 11
-654.320471
 21
-216.025563
 31
0.0
  0
ARC
  5
2C4
100
AcDbEntity
  8
0
370
    -3
390
0
  6
Continuous
100
AcDbCircle
 10
-654.298194
 20
-220.064147
 30
0.0
 40
2.0
100
AcDbArc
 50
296.072557
 51
30.0
  0
ARC
  5
2C5
100
AcDbEntity
  8
0
370
    -3
390
0
  6
Continuous
100
AcDbCircle
 10
-686.38235
 20
-154.492759
 30
0.0
 40
75.0
100
AcDbArc
 50
244.714561
 51
296.072557
  0
LINE
  5
2C6
100
AcDbEntity
  8
0
370
    -3
390
0
  6
Continuous
100
AcDbLine
 10
-692.980554
 20
-173.921184
 30
0.0
 11
-690.871235
 21
-170.267737
 31
0.0
  0
LINE
  5
2C7
100
AcDbEntity
  8
0
370
    -3
390
0
  6
Continuous
100
AcDbLine
 10
-699.651449
 20
-185.475513
 30
0.0
 11
-697.615186
 21
-181.948603
 31
0.0
  0
LINE
  5
2C8
100
AcDbEntity
  8
0
370
    -3
390
0
  6
Continuous
100
AcDbLine
 10
-706.225972
 20
-196.862922
 30
0.0
 11
-704.207917
 21
-193.367547
 31
0.0
  0
ARC
  5
2C9
100
AcDbEntity
  8
0
370
    -3
390
0
  6
Continuous
100
AcDbCircle
 10
-704.493921
 20
-197.862922
 30
0.0
 40
2.0
100
AcDbArc
 50
150.0
 51
247.334369
  0
ARC
  5
2CA
100
AcDbEntity
  8
0
370
    -3
390
0
  6
Continuous
100
AcDbCircle
 10
-709.025019
 20
-205.711013
 30
0.0
 40
2.0
100
AcDbArc
 50
66.15064
 51
150.0
  0
LINE
  5
2CB
100
AcDbEntity
  8
0
370
    -3
390
0
  6
Continuous
100
AcDbLine
 10
-719.294751
 20
-219.498711
 30
0.0
 11
-717.538509
 21
-216.456811
 31
0.0
  0
ARC
  5
2CC
100
AcDbEntity
  8
0
370
    -3
390
0
  6
Continuous
100
AcDbCircle
 10
-711.03582
 20
-209.193823
 30
0.0
 40
2.0
100
AcDbArc
 50
150.0
 51
245.73917
  0
ARC
  5
2CD
100
AcDbEntity
  8
0
370
    -3
390
0
  6
Continuous
100
AcDbCircle
 10
-717.562701
 20
-220.498711
 30
0.0
 40
2.0
100
AcDbArc
 50
150.0
 51
244.714561
  0
ARC
  5
2CE
100
AcDbEntity
  8
0
370
    -3
390
0
  6
Continuous
100
AcDbCircle
 10
-702.630426
 20
-159.492759
 30
0.0
 40
2.0
100
AcDbArc
 50
17.104635
 51
90.0
  0
LINE
  5
2CF
100
AcDbEntity
  8
0
370
    -3
390
0
  6
Continuous
100
AcDbLine
 10
-706.778428
 20
-157.492759
 30
0.0
 11
-702.630426
 21
-157.492759
 31
0.0
  0
ARC
  5
2D0
100
AcDbEntity
  8
0
370
    -3
390
0
  6
Continuous
100
AcDbCircle
 10
-686.38235
 20
-154.492759
 30
0.0
 40
15.0
100
AcDbArc
 50
197.104635
 51
219.332684
  0
ARC
  5
2D1
100
AcDbEntity
  8
0
370
    -3
390
0
  6
Continuous
100
AcDbCircle
 10
-706.778428
 20
-159.492759
 30
0.0
 40
2.0
100
AcDbArc
 50
90.0
 51
193.774147
  0
ARC
  5
2D2
100
AcDbEntity
  8
0
370
    -3
390
0
  6
Continuous
100
AcDbCircle
 10
-686.38235
 20
-154.492759
 30
0.0
 40
23.0
100
AcDbArc
 50
193.774147
 51
223.39845
  0
ARC
  5
2D3
100
AcDbEntity
  8
0
370
    -3
390
0
  6
Continuous
100
AcDbCircle
 10
-699.531489
 20
-165.267737
 30
0.0
 40
2.0
100
AcDbArc
 50
330.0
 51
39.332684
  0
ARC
  5
2D4
100
AcDbEntity
  8
0
370
    -3
390
0
  6
Continuous
100
AcDbCircle
 10
-701.640808
 20
-168.921184
 30
0.0
 40
2.0
100
AcDbArc
 50
223.39845
 51
330.0
  0
ARC
  5
2D5
100
AcDbEntity
  8
0
370
    -3
390
0
  6
Continuous
100
AcDbCircle
 10
-708.311703
 20
-180.475513
 30
0.0
 40
2.0
100
AcDbArc
 50
229.835751
 51
330.0
  0
ARC
  5
2D6
100
AcDbEntity
  8
0
370
    -3
390
0
  6
Continuous
100
AcDbCircle
 10
-686.38235
 20
-154.492759
 30
0.0
 40
36.0
100
AcDbArc
 50
188.456519
 51
229.835751
  0
ARC
  5
2D7
100
AcDbEntity
  8
0
370
    -3
390
0
  6
Continuous
100
AcDbCircle
 10
-706.27544
 20
-176.948603
 30
0.0
 40
2.0
100
AcDbArc
 50
330.0
 51
48.463041
  0
ARC
  5
2D8
100
AcDbEntity
  8
0
370
    -3
390
0
  6
Continuous
100
AcDbCircle
 10
-686.38235
 20
-154.492759
 30
0.0
 40
28.0
100
AcDbArc
 50
189.594068
 51
228.463041
  0
ARC
  5
2D9
100
AcDbEntity
  8
0
370
    -3
390
0
  6
Continuous
100
AcDbCircle
 10
-715.962749
 20
-159.492759
 30
0.0
 40
2.0
100
AcDbArc
 50
9.594068
 51
90.0
  0
LINE
  5
2DA
100
AcDbEntity
  8
0
370
    -3
390
0
  6
Continuous
100
AcDbLine
 10
-720.012693
 20
-157.492759
 30
0.0
 11
-715.962749
 21
-157.492759
 31
0.0
  0
ARC
  5
2DB
100
AcDbEntity
  8
0
370
    -3
390
0
  6
Continuous
100
AcDbCircle
 10
-720.012693
 20
-159.492759
 30
0.0
 40
2.0
100
AcDbArc
 50
90.0
 51
188.456519
  0
ARC
  5
2DC
100
AcDbEntity
  8
0
370
    -3
390
0
  6
Continuous
100
AcDbCircle
 10
-733.115635
 20
-159.492759
 30
0.0
 40
2.0
100
AcDbArc
 50
90.0
 51
186.106852
  0
LINE
  5
2DD
100
AcDbEntity
  8
0
370
    -3
390
0
  6
Continuous
100
AcDbLine
 10
-733.115635
 20
-157.492759
 30
0.0
 11
-729.090663
 21
-157.492759
 31
0.0
  0
ARC
  5
2DE
100
AcDbEntity
  8
0
370
    -3
390
0
  6
Continuous
100
AcDbCircle
 10
-686.38235
 20
-154.492759
 30
0.0
 40
49.0
100
AcDbArc
 50
186.106852
 51
232.665631
  0
ARC
  5
2DF
100
AcDbEntity
  8
0
370
    -3
390
0
  6
Continuous
100
AcDbCircle
 10
-729.090663
 20
-159.492759
 30
0.0
 40
2.0
100
AcDbArc
 50
6.677405
 51
90.0
  0
ARC
  5
2E0
100
AcDbEntity
  8
0
370
    -3
390
0
  6
Continuous
100
AcDbCircle
 10
-686.38235
 20
-154.492759
 30
0.0
 40
41.0
100
AcDbArc
 50
186.677405
 51
231.979067
  0
ARC
  5
2E1
100
AcDbEntity
  8
0
370
    -3
390
0
  6
Continuous
100
AcDbCircle
 10
-712.868171
 20
-188.367547
 30
0.0
 40
2.0
100
AcDbArc
 50
330.0
 51
51.979067
  0
ARC
  5
2E2
100
AcDbEntity
  8
0
370
    -3
390
0
  6
Continuous
100
AcDbCircle
 10
-686.38235
 20
-154.492759
 30
0.0
 40
54.0
100
AcDbArc
 50
185.122516
 51
233.84936
  0
ARC
  5
2E3
100
AcDbEntity
  8
0
370
    -3
390
0
  6
Continuous
100
AcDbCircle
 10
-742.158689
 20
-159.492759
 30
0.0
 40
2.0
100
AcDbArc
 50
5.122516
 51
90.0
  0
LINE
  5
2E4
100
AcDbEntity
  8
0
370
    -3
390
0
  6
Continuous
100
AcDbLine
 10
-746.173653
 20
-157.492759
 30
0.0
 11
-742.158689
 21
-157.492759
 31
0.0
  0
ARC
  5
2E5
100
AcDbEntity
  8
0
370
    -3
390
0
  6
Continuous
100
AcDbCircle
 10
-746.173653
 20
-159.492759
 30
0.0
 40
2.0
100
AcDbArc
 50
90.0
 51
184.780192
  0
ARC
  5
2E6
100
AcDbEntity
  8
0
370
    -3
390
0
  6
Continuous
100
AcDbCircle
 10
-686.38235
 20
-154.492759
 30
0.0
 40
62.0
100
AcDbArc
 50
184.780192
 51
234.26083
  0
LINE
  5
2E7
100
AcDbEntity
  8
0
370
    -3
390
0
  6
Continuous
100
AcDbLine
 10
-759.210915
 20
-157.492759
 30
0.0
 11
-755.70226
 21
-157.492759
 31
0.0
  0
ARC
  5
2E8
100
AcDbEntity
  8
0
370
    -3
390
0
  6
Continuous
100
AcDbCircle
 10
-759.210915
 20
-159.492759
 30
0.0
 40
2.0
100
AcDbArc
 50
90.0
 51
183.927443
  0
ARC
  5
2E9
100
AcDbEntity
  8
0
370
    -3
390
0
  6
Continuous
100
AcDbCircle
 10
-686.38235
 20
-154.492759
 30
0.0
 40
75.0
100
AcDbArc
 50
183.927443
 51
235.285439
  0
LINE
  5
2EA
100
AcDbEntity
  8
0
370
    -3
390
0
  6
Continuous
100
AcDbLine
 10
-699.908757
 20
-169.921184
 30
0.0
 11
-697.799438
 21
-166.267737
 31
0.0
  0
LINE
  5
2EB
100
AcDbEntity
  8
0
370
    -3
390
0
  6
Continuous
100
AcDbLine
 10
-706.579652
 20
-181.475513
 30
0.0
 11
-704.54339
 21
-177.948603
 31
0.0
  0
LINE
  5
2EC
100
AcDbEntity
  8
0
370
    -3
390
0
  6
Continuous
100
AcDbLine
 10
-719.696074
 20
-204.193823
 30
0.0
 11
-717.685273
 21
-200.711013
 31
0.0
  0
ARC
  5
2ED
100
AcDbEntity
  8
0
370
    -3
390
0
  6
Continuous
100
AcDbCircle
 10
-714.886226
 20
-191.862922
 30
0.0
 40
2.0
100
AcDbArc
 50
232.665631
 51
330.0
  0
ARC
  5
2EE
100
AcDbEntity
  8
0
370
    -3
390
0
  6
Continuous
100
AcDbCircle
 10
-719.417324
 20
-199.711013
 30
0.0
 40
2.0
100
AcDbArc
 50
330.0
 51
53.84936
  0
LINE
  5
2EF
100
AcDbEntity
  8
0
370
    -3
390
0
  6
Continuous
100
AcDbLine
 10
-726.222955
 20
-215.498711
 30
0.0
 11
-724.466713
 21
-212.456811
 31
0.0
  0
ARC
  5
2F0
100
AcDbEntity
  8
0
370
    -3
390
0
  6
Continuous
100
AcDbCircle
 10
-721.428125
 20
-203.193823
 30
0.0
 40
2.0
100
AcDbArc
 50
234.26083
 51
330.0
  0
ARC
  5
2F1
100
AcDbEntity
  8
0
370
    -3
390
0
  6
Continuous
100
AcDbCircle
 10
-727.955005
 20
-214.498711
 30
0.0
 40
2.0
100
AcDbArc
 50
235.285439
 51
330.0
  0
ARC
  5
2F2
100
AcDbEntity
  8
0
370
    -3
390
0
  6
Continuous
100
AcDbCircle
 10
-702.630426
 20
-149.492759
 30
0.0
 40
2.0
100
AcDbArc
 50
270.0
 51
342.895365
  0
LINE
  5
2F3
100
AcDbEntity
  8
0
370
    -3
390
0
  6
Continuous
100
AcDbLine
 10
-706.778428
 20
-151.492759
 30
0.0
 11
-702.630426
 21
-151.492759
 31
0.0
  0
ARC
  5
2F4
100
AcDbEntity
  8
0
370
    -3
390
0
  6
Continuous
100
AcDbCircle
 10
-686.38235
 20
-154.492759
 30
0.0
 40
15.0
100
AcDbArc
 50
140.667316
 51
162.895365
  0
ARC
  5
2F5
100
AcDbEntity
  8
0
370
    -3
390
0
  6
Continuous
100
AcDbCircle
 10
-706.778428
 20
-149.492759
 30
0.0
 40
2.0
100
AcDbArc
 50
166.225853
 51
270.0
  0
ARC
  5
2F6
100
AcDbEntity
  8
0
370
    -3
390
0
  6
Continuous
100
AcDbCircle
 10
-686.38235
 20
-154.492759
 30
0.0
 40
23.0
100
AcDbArc
 50
136.60155
 51
166.225853
  0
ARC
  5
2F7
100
AcDbEntity
  8
0
370
    -3
390
0
  6
Continuous
100
AcDbCircle
 10
-699.531489
 20
-143.717782
 30
0.0
 40
2.0
100
AcDbArc
 50
320.667316
 51
30.0
  0
ARC
  5
2F8
100
AcDbEntity
  8
0
370
    -3
390
0
  6
Continuous
100
AcDbCircle
 10
-701.640808
 20
-140.064334
 30
0.0
 40
2.0
100
AcDbArc
 50
30.0
 51
136.60155
  0
ARC
  5
2F9
100
AcDbEntity
  8
0
370
    -3
390
0
  6
Continuous
100
AcDbCircle
 10
-708.311703
 20
-128.510006
 30
0.0
 40
2.0
100
AcDbArc
 50
30.0
 51
130.164249
  0
ARC
  5
2FA
100
AcDbEntity
  8
0
370
    -3
390
0
  6
Continuous
100
AcDbCircle
 10
-686.38235
 20
-154.492759
 30
0.0
 40
36.0
100
AcDbArc
 50
130.164249
 51
171.543481
  0
ARC
  5
2FB
100
AcDbEntity
  8
0
370
    -3
390
0
  6
Continuous
100
AcDbCircle
 10
-706.27544
 20
-132.036915
 30
0.0
 40
2.0
100
AcDbArc
 50
311.536959
 51
30.0
  0
ARC
  5
2FC
100
AcDbEntity
  8
0
370
    -3
390
0
  6
Continuous
100
AcDbCircle
 10
-686.38235
 20
-154.492759
 30
0.0
 40
28.0
100
AcDbArc
 50
131.536959
 51
170.405932
  0
ARC
  5
2FD
100
AcDbEntity
  8
0
370
    -3
390
0
  6
Continuous
100
AcDbCircle
 10
-715.962749
 20
-149.492759
 30
0.0
 40
2.0
100
AcDbArc
 50
270.0
 51
350.405932
  0
LINE
  5
2FE
100
AcDbEntity
  8
0
370
    -3
390
0
  6
Continuous
100
AcDbLine
 10
-720.012693
 20
-151.492759
 30
0.0
 11
-715.962749
 21
-151.492759
 31
0.0
  0
ARC
  5
2FF
100
AcDbEntity
  8
0
370
    -3
390
0
  6
Continuous
100
AcDbCircle
 10
-720.012693
 20
-149.492759
 30
0.0
 40
2.0
100
AcDbArc
 50
171.543481
 51
270.0
  0
ARC
  5
300
100
AcDbEntity
  8
0
370
    -3
390
0
  6
Continuous
100
AcDbCircle
 10
-733.115635
 20
-149.492759
 30
0.0
 40
2.0
100
AcDbArc
 50
173.893148
 51
270.0
  0
LINE
  5
301
100
AcDbEntity
  8
0
370
    -3
390
0
  6
Continuous
100
AcDbLine
 10
-733.115635
 20
-151.492759
 30
0.0
 11
-729.090663
 21
-151.492759
 31
0.0
  0
ARC
  5
302
100
AcDbEntity
  8
0
370
    -3
390
0
  6
Continuous
100
AcDbCircle
 10
-686.38235
 20
-154.492759
 30
0.0
 40
49.0
100
AcDbArc
 50
127.334369
 51
173.893148
  0
ARC
  5
303
100
AcDbEntity
  8
0
370
    -3
390
0
  6
Continuous
100
AcDbCircle
 10
-729.090663
 20
-149.492759
 30
0.0
 40
2.0
100
AcDbArc
 50
270.0
 51
353.322595
  0
ARC
  5
304
100
AcDbEntity
  8
0
370
    -3
390
0
  6
Continuous
100
AcDbCircle
 10
-686.38235
 20
-154.492759
 30
0.0
 40
41.0
100
AcDbArc
 50
128.020933
 51
173.322595
  0
ARC
  5
305
100
AcDbEntity
  8
0
370
    -3
390
0
  6
Continuous
100
AcDbCircle
 10
-712.868171
 20
-120.617971
 30
0.0
 40
2.0
100
AcDbArc
 50
308.020933
 51
30.0
  0
ARC
  5
306
100
AcDbEntity
  8
0
370
    -3
390
0
  6
Continuous
100
AcDbCircle
 10
-686.38235
 20
-154.492759
 30
0.0
 40
54.0
100
AcDbArc
 50
126.15064
 51
174.877484
  0
ARC
  5
307
100
AcDbEntity
  8
0
370
    -3
390
0
  6
Continuous
100
AcDbCircle
 10
-742.158689
 20
-149.492759
 30
0.0
 40
2.0
100
AcDbArc
 50
270.0
 51
354.877484
  0
LINE
  5
308
100
AcDbEntity
  8
0
370
    -3
390
0
  6
Continuous
100
AcDbLine
 10
-746.173653
 20
-151.492759
 30
0.0
 11
-742.158689
 21
-151.492759
 31
0.0
  0
ARC
  5
309
100
AcDbEntity
  8
0
370
    -3
390
0
  6
Continuous
100
AcDbCircle
 10
-746.173653
 20
-149.492759
 30
0.0
 40
2.0
100
AcDbArc
 50
175.219808
 51
270.0
  0
ARC
  5
30A
100
AcDbEntity
  8
0
370
    -3
390
0
  6
Continuous
100
AcDbCircle
 10
-686.38235
 20
-154.492759
 30
0.0
 40
62.0
100
AcDbArc
 50
125.73917
 51
175.219808
  0
LINE
  5
30B
100
AcDbEntity
  8
0
370
    -3
390
0
  6
Continuous
100
AcDbLine
 10
-759.210915
 20
-151.492759
 30
0.0
 11
-755.70226
 21
-151.492759
 31
0.0
  0
ARC
  5
30C
100
AcDbEntity
  8
0
370
    -3
390
0
  6
Continuous
100
AcDbCircle
 10
-759.210915
 20
-149.492759
 30
0.0
 40
2.0
100
AcDbArc
 50
176.072557
 51
270.0
  0
ARC
  5
30D
100
AcDbEntity
  8
0
370
    -3
390
0
  6
Continuous
100
AcDbCircle
 10
-686.38235
 20
-154.492759
 30
0.0
 40
75.0
100
AcDbArc
 50
124.714561
 51
176.072557
  0
LINE
  5
30E
100
AcDbEntity
  8
0
370
    -3
390
0
  6
Continuous
100
AcDbLine
 10
-699.908757
 20
-139.064334
 30
0.0
 11
-697.799438
 21
-142.717782
 31
0.0
  0
LINE
  5
30F
100
AcDbEntity
  8
0
370
    -3
390
0
  6
Continuous
100
AcDbLine
 10
-706.579652
 20
-127.510006
 30
0.0
 11
-704.54339
 21
-131.036915
 31
0.0
  0
LINE
  5
310
100
AcDbEntity
  8
0
370
    -3
390
0
  6
Continuous
100
AcDbLine
 10
-713.154175
 20
-116.122597
 30
0.0
 11
-711.13612
 21
-119.617971
 31
0.0
  0
ARC
  5
311
100
AcDbEntity
  8
0
370
    -3
390
0
  6
Continuous
100
AcDbCircle
 10
-714.886226
 20
-117.122597
 30
0.0
 40
2.0
100
AcDbArc
 50
30.0
 51
127.334369
  0
ARC
  5
312
100
AcDbEntity
  8
0
370
    -3
390
0
  6
Continuous
100
AcDbCircle
 10
-719.417324
 20
-109.274506
 30
0.0
 40
2.0
100
AcDbArc
 50
306.15064
 51
30.0
  0
LINE
  5
313
100
AcDbEntity
  8
0
370
    -3
390
0
  6
Continuous
100
AcDbLine
 10
-719.696074
 20
-104.791696
 30
0.0
 11
-717.685273
 21
-108.274506
 31
0.0
  0
LINE
  5
314
100
AcDbEntity
  8
0
370
    -3
390
0
  6
Continuous
100
AcDbLine
 10
-726.222955
 20
-93.486807
 30
0.0
 11
-724.466713
 21
-96.528708
 31
0.0
  0
ARC
  5
315
100
AcDbEntity
  8
0
370
    -3
390
0
  6
Continuous
100
AcDbCircle
 10
-721.428125
 20
-105.791696
 30
0.0
 40
2.0
100
AcDbArc
 50
30.0
 51
125.73917
  0
ARC
  5
316
100
AcDbEntity
  8
0
370
    -3
390
0
  6
Continuous
100
AcDbCircle
 10
-727.955005
 20
-94.486807
 30
0.0
 40
2.0
100
AcDbArc
 50
30.0
 51
124.714561
  0
ARC
  5
317
100
AcDbEntity
  8
0
370
    -3
390
0
  6
Continuous
100
AcDbCircle
 10
-682.588438
 20
-137.921512
 30
0.0
 40
2.0
100
AcDbArc
 50
257.104635
 51
330.0
  0
LINE
  5
318
100
AcDbEntity
  8
0
370
    -3
390
0
  6
Continuous
100
AcDbLine
 10
-678.782387
 20
-135.329238
 30
0.0
 11
-680.856387
 21
-138.921512
 31
0.0
  0
ARC
  5
319
100
AcDbEntity
  8
0
370
    -3
390
0
  6
Continuous
100
AcDbCircle
 10
-686.38235
 20
-154.492759
 30
0.0
 40
15.0
100
AcDbArc
 50
77.104635
 51
99.332684
  0
ARC
  5
31A
100
AcDbEntity
  8
0
370
    -3
390
0
  6
Continuous
100
AcDbCircle
 10
-680.514438
 20
-134.329238
 30
0.0
 40
2.0
100
AcDbArc
 50
330.0
 51
73.774147
  0
ARC
  5
31B
100
AcDbEntity
  8
0
370
    -3
390
0
  6
Continuous
100
AcDbCircle
 10
-686.38235
 20
-154.492759
 30
0.0
 40
23.0
100
AcDbArc
 50
73.774147
 51
103.39845
  0
ARC
  5
31C
100
AcDbEntity
  8
0
370
    -3
390
0
  6
Continuous
100
AcDbCircle
 10
-689.139184
 20
-137.717782
 30
0.0
 40
2.0
100
AcDbArc
 50
210.0
 51
279.332684
  0
ARC
  5
31D
100
AcDbEntity
  8
0
370
    -3
390
0
  6
Continuous
100
AcDbCircle
 10
-691.248503
 20
-134.064334
 30
0.0
 40
2.0
100
AcDbArc
 50
103.39845
 51
210.0
  0
ARC
  5
31E
100
AcDbEntity
  8
0
370
    -3
390
0
  6
Continuous
100
AcDbCircle
 10
-697.919398
 20
-122.510006
 30
0.0
 40
2.0
100
AcDbArc
 50
109.835751
 51
210.0
  0
ARC
  5
31F
100
AcDbEntity
  8
0
370
    -3
390
0
  6
Continuous
100
AcDbCircle
 10
-686.38235
 20
-154.492759
 30
0.0
 40
36.0
100
AcDbArc
 50
68.456519
 51
109.835751
  0
ARC
  5
320
100
AcDbEntity
  8
0
370
    -3
390
0
  6
Continuous
100
AcDbCircle
 10
-695.883136
 20
-126.036915
 30
0.0
 40
2.0
100
AcDbArc
 50
210.0
 51
288.463041
  0
ARC
  5
321
100
AcDbEntity
  8
0
370
    -3
390
0
  6
Continuous
100
AcDbCircle
 10
-686.38235
 20
-154.492759
 30
0.0
 40
28.0
100
AcDbArc
 50
69.594068
 51
108.463041
  0
ARC
  5
322
100
AcDbEntity
  8
0
370
    -3
390
0
  6
Continuous
100
AcDbCircle
 10
-675.922277
 20
-126.375382
 30
0.0
 40
2.0
100
AcDbArc
 50
249.594068
 51
330.0
  0
LINE
  5
323
100
AcDbEntity
  8
0
370
    -3
390
0
  6
Continuous
100
AcDbLine
 10
-672.165254
 20
-123.868028
 30
0.0
 11
-674.190226
 21
-127.375382
 31
0.0
  0
ARC
  5
324
100
AcDbEntity
  8
0
370
    -3
390
0
  6
Continuous
100
AcDbCircle
 10
-673.897305
 20
-122.868028
 30
0.0
 40
2.0
100
AcDbArc
 50
330.0
 51
68.456519
  0
ARC
  5
325
100
AcDbEntity
  8
0
370
    -3
390
0
  6
Continuous
100
AcDbCircle
 10
-667.345834
 20
-111.520547
 30
0.0
 40
2.0
100
AcDbArc
 50
330.0
 51
66.106852
  0
LINE
  5
326
100
AcDbEntity
  8
0
370
    -3
390
0
  6
Continuous
100
AcDbLine
 10
-665.613783
 20
-112.520547
 30
0.0
 11
-667.626269
 21
-116.006275
 31
0.0
  0
ARC
  5
327
100
AcDbEntity
  8
0
370
    -3
390
0
  6
Continuous
100
AcDbCircle
 10
-686.38235
 20
-154.492759
 30
0.0
 40
49.0
100
AcDbArc
 50
66.106852
 51
112.665631
  0
ARC
  5
328
100
AcDbEntity
  8
0
370
    -3
390
0
  6
Continuous
100
AcDbCircle
 10
-669.35832
 20
-115.006275
 30
0.0
 40
2.0
100
AcDbArc
 50
246.677405
 51
330.0
  0
ARC
  5
329
100
AcDbEntity
  8
0
370
    -3
390
0
  6
Continuous
100
AcDbCircle
 10
-686.38235
 20
-154.492759
 30
0.0
 40
41.0
100
AcDbArc
 50
66.677405
 51
111.979067
  0
ARC
  5
32A
100
AcDbEntity
  8
0
370
    -3
390
0
  6
Continuous
100
AcDbCircle
 10
-702.475866
 20
-114.617971
 30
0.0
 40
2.0
100
AcDbArc
 50
210.0
 51
291.979067
  0
ARC
  5
32B
100
AcDbEntity
  8
0
370
    -3
390
0
  6
Continuous
100
AcDbCircle
 10
-686.38235
 20
-154.492759
 30
0.0
 40
54.0
100
AcDbArc
 50
65.122516
 51
113.84936
  0
ARC
  5
32C
100
AcDbEntity
  8
0
370
    -3
390
0
  6
Continuous
100
AcDbCircle
 10
-662.824307
 20
-103.689033
 30
0.0
 40
2.0
100
AcDbArc
 50
245.122516
 51
330.0
  0
LINE
  5
32D
100
AcDbEntity
  8
0
370
    -3
390
0
  6
Continuous
100
AcDbLine
 10
-659.084774
 20
-101.211971
 30
0.0
 11
-661.092256
 21
-104.689033
 31
0.0
  0
ARC
  5
32E
100
AcDbEntity
  8
0
370
    -3
390
0
  6
Continuous
100
AcDbCircle
 10
-660.816825
 20
-100.211971
 30
0.0
 40
2.0
100
AcDbArc
 50
330.0
 51
64.780192
  0
ARC
  5
32F
100
AcDbEntity
  8
0
370
    -3
390
0
  6
Continuous
100
AcDbCircle
 10
-686.38235
 20
-154.492759
 30
0.0
 40
62.0
100
AcDbArc
 50
64.780192
 51
114.26083
  0
LINE
  5
330
100
AcDbEntity
  8
0
370
    -3
390
0
  6
Continuous
100
AcDbLine
 10
-652.566143
 20
-89.921371
 30
0.0
 11
-654.320471
 21
-92.959956
 31
0.0
  0
ARC
  5
331
100
AcDbEntity
  8
0
370
    -3
390
0
  6
Continuous
100
AcDbCircle
 10
-654.298194
 20
-88.921371
 30
0.0
 40
2.0
100
AcDbArc
 50
330.0
 51
63.927443
  0
ARC
  5
332
100
AcDbEntity
  8
0
370
    -3
390
0
  6
Continuous
100
AcDbCircle
 10
-686.38235
 20
-154.492759
 30
0.0
 40
75.0
100
AcDbArc
 50
63.927443
 51
115.285439
  0
LINE
  5
333
100
AcDbEntity
  8
0
370
    -3
390
0
  6
Continuous
100
AcDbLine
 10
-692.980554
 20
-135.064334
 30
0.0
 11
-690.871235
 21
-138.717782
 31
0.0
  0
LINE
  5
334
100
AcDbEntity
  8
0
370
    -3
390
0
  6
Continuous
100
AcDbLine
 10
-699.651449
 20
-123.510006
 30
0.0
 11
-697.615186
 21
-127.036915
 31
0.0
  0
LINE
  5
335
100
AcDbEntity
  8
0
370
    -3
390
0
  6
Continuous
100
AcDbLine
 10
-706.225972
 20
-112.122597
 30
0.0
 11
-704.207917
 21
-115.617971
 31
0.0
  0
ARC
  5
336
100
AcDbEntity
  8
0
370
    -3
390
0
  6
Continuous
100
AcDbCircle
 10
-704.493921
 20
-111.122597
 30
0.0
 40
2.0
100
AcDbArc
 50
112.665631
 51
210.0
  0
ARC
  5
337
100
AcDbEntity
  8
0
370
    -3
390
0
  6
Continuous
100
AcDbCircle
 10
-709.025019
 20
-103.274506
 30
0.0
 40
2.0
100
AcDbArc
 50
210.0
 51
293.84936
  0
LINE
  5
338
100
AcDbEntity
  8
0
370
    -3
390
0
  6
Continuous
100
AcDbLine
 10
-712.767871
 20
-100.791696
 30
0.0
 11
-710.75707
 21
-104.274506
 31
0.0
  0
LINE
  5
339
100
AcDbEntity
  8
0
370
    -3
390
0
  6
Continuous
100
AcDbLine
 10
-719.294751
 20
-89.486807
 30
0.0
 11
-717.538509
 21
-92.528708
 31
0.0
  0
ARC
  5
33A
100
AcDbEntity
  8
0
370
    -3
390
0
  6
Continuous
100
AcDbCircle
 10
-711.03582
 20
-99.791696
 30
0.0
 40
2.0
100
AcDbArc
 50
114.26083
 51
210.0
  0
ARC
  5
33B
100
AcDbEntity
  8
0
370
    -3
390
0
  6
Continuous
100
AcDbCircle
 10
-717.562701
 20
-88.486807
 30
0.0
 40
2.0
100
AcDbArc
 50
115.285439
 51
210.0
  0
LINE
  5
33C
100
AcDbEntity
  8
0
370
    -3
390
0
  6
CENTER
100
AcDbLine
 10
-567.712569
 20
-154.492759
 30
0.0
 11
-797.617057
 21
-154.492759
 31
0.0
  0
ARC
  5
33D
100
AcDbEntity
  8
0
370
    -3
390
0
  6
Continuous
100
AcDbCircle
 10
-717.778901
 20
-133.085832
 30
0.0
 40
71.0
100
AcDbArc
 50
145.712889
 51
176.770589
  0
ARC
  5
33E
100
AcDbEntity
  8
0
370
    -3
390
0
  6
Continuous
100
AcDbCircle
 10
-338.38235
 20
-154.492759
 30
0.0
 40
451.0
100
AcDbArc
 50
176.770589
 51
183.229411
  0
ARC
  5
33F
100
AcDbEntity
  8
0
370
    -3
390
0
  6
Continuous
100
AcDbCircle
 10
-707.789277
 20
-123.096208
 30
0.0
 40
71.0
100
AcDbArc
 50
93.229411
 51
124.287111
  0
ARC
  5
340
100
AcDbEntity
  8
0
370
    -3
390
0
  6
Continuous
100
AcDbCircle
 10
-707.789277
 20
-185.889311
 30
0.0
 40
71.0
100
AcDbArc
 50
235.712889
 51
266.770589
  0
ARC
  5
341
100
AcDbEntity
  8
0
370
    -3
390
0
  6
Continuous
100
AcDbCircle
 10
-717.778901
 20
-175.899687
 30
0.0
 40
71.0
100
AcDbArc
 50
183.229411
 51
214.287111
  0
ARC
  5
342
100
AcDbEntity
  8
0
370
    -3
390
0
  6
Continuous
100
AcDbCircle
 10
-686.38235
 20
-154.492759
 30
0.0
 40
109.0
100
AcDbArc
 50
214.287111
 51
235.712889
  0
ARC
  5
343
100
AcDbEntity
  8
0
370
    -3
390
0
  6
Continuous
100
AcDbCircle
 10
-664.975422
 20
-185.889311
 30
0.0
 40
71.0
100
AcDbArc
 50
273.229411
 51
304.287111
  0
ARC
  5
344
100
AcDbEntity
  8
0
370
    -3
390
0
  6
Continuous
100
AcDbCircle
 10
-686.38235
 20
-154.492759
 30
0.0
 40
109.0
100
AcDbArc
 50
304.287111
 51
325.712889
  0
ARC
  5
345
100
AcDbEntity
  8
0
370
    -3
390
0
  6
Continuous
100
AcDbCircle
 10
-664.975422
 20
-123.096208
 30
0.0
 40
71.0
100
AcDbArc
 50
55.712889
 51
86.770589
  0
ARC
  5
346
100
AcDbEntity
  8
0
370
    -3
390
0
  6
Continuous
100
AcDbCircle
 10
-654.985798
 20
-133.085832
 30
0.0
 40
71.0
100
AcDbArc
 50
3.229411
 51
34.287111
  0
ARC
  5
347
100
AcDbEntity
  8
0
370
    -3
390
0
  6
Continuous
100
AcDbCircle
 10
-686.38235
 20
-154.492759
 30
0.0
 40
109.0
100
AcDbArc
 50
34.287111
 51
55.712889
  0
ARC
  5
348
100
AcDbEntity
  8
0
370
    -3
390
0
  6
Continuous
100
AcDbCircle
 10
-686.38235
 20
193.507241
 30
0.0
 40
451.0
100
AcDbArc
 50
266.770589
 51
273.229411
  0
ARC
  5
349
100
AcDbEntity
  8
0
370
    -3
390
0
  6
Continuous
100
AcDbCircle
 10
-1034.38235
 20
-154.492759
 30
0.0
 40
451.0
100
AcDbArc
 50
356.770589
 51
3.229411
  0
ARC
  5
34A
100
AcDbEntity
  8
0
370
    -3
390
0
  6
Continuous
100
AcDbCircle
 10
-686.38235
 20
-502.492759
 30
0.0
 40
451.0
100
AcDbArc
 50
86.770589
 51
93.229411
  0
ARC
  5
34B
100
AcDbEntity
  8
0
370
    -3
390
0
  6
Continuous
100
AcDbCircle
 10
-686.38235
 20
-154.492759
 30
0.0
 40
109.0
100
AcDbArc
 50
124.287111
 51
145.712889
  0
ARC
  5
34C
100
AcDbEntity
  8
0
370
    -3
390
0
  6
Continuous
100
AcDbCircle
 10
-338.38235
 20
-154.492759
 30
0.0
 40
433.679
100
AcDbArc
 50
176.770589
 51
183.229411
  0
ARC
  5
34D
100
AcDbEntity
  8
0
370
    -3
390
0
  6
Continuous
100
AcDbCircle
 10
-717.778901
 20
-175.899687
 30
0.0
 40
53.679
100
AcDbArc
 50
183.229411
 51
214.287111
  0
ARC
  5
34E
100
AcDbEntity
  8
0
370
    -3
390
0
  6
Continuous
100
AcDbCircle
 10
-686.38235
 20
-154.492759
 30
0.0
 40
91.679
100
AcDbArc
 50
214.287111
 51
235.712889
  0
ARC
  5
34F
100
AcDbEntity
  8
0
370
    -3
390
0
  6
Continuous
100
AcDbCircle
 10
-707.789277
 20
-185.889311
 30
0.0
 40
53.679
100
AcDbArc
 50
235.712889
 51
266.770589
  0
ARC
  5
350
100
AcDbEntity
  8
0
370
    -3
390
0
  6
Continuous
100
AcDbCircle
 10
-686.38235
 20
193.507241
 30
0.0
 40
433.679
100
AcDbArc
 50
266.770589
 51
273.229411
  0
ARC
  5
351
100
AcDbEntity
  8
0
370
    -3
390
0
  6
Continuous
100
AcDbCircle
 10
-686.38235
 20
-154.492759
 30
0.0
 40
91.679
100
AcDbArc
 50
304.287111
 51
325.712889
  0
ARC
  5
352
100
AcDbEntity
  8
0
370
    -3
390
0
  6
Continuous
100
AcDbCircle
 10
-664.975422
 20
-185.889311
 30
0.0
 40
53.679
100
AcDbArc
 50
273.229411
 51
304.287111
  0
ARC
  5
353
100
AcDbEntity
  8
0
370
    -3
390
0
  6
Continuous
100
AcDbCircle
 10
-654.985798
 20
-175.899687
 30
0.0
 40
53.679
100
AcDbArc
 50
325.712889
 51
356.770589
  0
ARC
  5
354
100
AcDbEntity
  8
0
370
    -3
390
0
  6
Continuous
100
AcDbCircle
 10
-686.38235
 20
-154.492759
 30
0.0
 40
91.679
100
AcDbArc
 50
34.287111
 51
55.712889
  0
ARC
  5
355
100
AcDbEntity
  8
0
370
    -3
390
0
  6
Continuous
100
AcDbCircle
 10
-664.975422
 20
-123.096208
 30
0.0
 40
53.679
100
AcDbArc
 50
55.712889
 51
86.770589
  0
ARC
  5
356
100
AcDbEntity
  8
0
370
    -3
390
0
  6
Continuous
100
AcDbCircle
 10
-654.985798
 20
-133.085832
 30
0.0
 40
53.679
100
AcDbArc
 50
3.229411
 51
34.287111
  0
ARC
  5
357
100
AcDbEntity
  8
0
370
    -3
390
0
  6
Continuous
100
AcDbCircle
 10
-686.38235
 20
-154.492759
 30
0.0
 40
91.679
100
AcDbArc
 50
124.287111
 51
145.712889
  0
ARC
  5
358
100
AcDbEntity
  8
0
370
    -3
390
0
  6
Continuous
100
AcDbCircle
 10
-707.789277
 20
-123.096208
 30
0.0
 40
53.679
100
AcDbArc
 50
93.229411
 51
124.287111
  0
ARC
  5
359
100
AcDbEntity
  8
0
370
    -3
390
0
  6
Continuous
100
AcDbCircle
 10
-717.778901
 20
-133.085832
 30
0.0
 40
53.679
100
AcDbArc
 50
145.712889
 51
176.770589
  0
ARC
  5
35A
100
AcDbEntity
  8
0
370
    -3
390
0
  6
Continuous
100
AcDbCircle
 10
-686.38235
 20
-502.492759
 30
0.0
 40
433.679
100
AcDbArc
 50
86.770589
 51
93.229411
  0
ARC
  5
35B
100
AcDbEntity
  8
0
370
    -3
390
0
  6
Continuous
100
AcDbCircle
 10
-1034.38235
 20
-154.492759
 30
0.0
 40
433.679
100
AcDbArc
 50
356.770589
 51
3.229411
  0
LINE
  5
35C
100
AcDbEntity
  8
0
370
    -3
390
0
  6
Continuous
100
AcDbLine
 10
-712.767871
 20
-208.193823
 30
0.0
 11
-710.75707
 21
-204.711013
 31
0.0
  0
ARC
  5
35D
100
AcDbEntity
  8
0
370
    -3
390
0
  6
Continuous
100
AcDbCircle
 10
-686.38235
 20
-154.492759
 30
0.0
 40
67.5
100
AcDbArc
 50
4.952563
 51
55.874437
  0
ARC
  5
35E
100
AcDbEntity
  8
0
370
    -3
390
0
  6
Continuous
100
AcDbCircle
 10
-686.38235
 20
-154.492759
 30
0.0
 40
67.5
100
AcDbArc
 50
64.125563
 51
115.047437
  0
ARC
  5
35F
100
AcDbEntity
  8
0
370
    -3
390
0
  6
Continuous
100
AcDbCircle
 10
-686.38235
 20
-154.492759
 30
0.0
 40
67.5
100
AcDbArc
 50
124.952563
 51
175.874437
  0
ARC
  5
360
100
AcDbEntity
  8
0
370
    -3
390
0
  6
Continuous
100
AcDbCircle
 10
-686.38235
 20
-154.492759
 30
0.0
 40
67.5
100
AcDbArc
 50
184.125563
 51
235.047437
  0
ARC
  5
361
100
AcDbEntity
  8
0
370
    -3
390
0
  6
Continuous
100
AcDbCircle
 10
-686.38235
 20
-154.492759
 30
0.0
 40
67.5
100
AcDbArc
 50
244.952563
 51
295.874437
  0
ARC
  5
362
100
AcDbEntity
  8
0
370
    -3
390
0
  6
Continuous
100
AcDbCircle
 10
-686.38235
 20
-154.492759
 30
0.0
 40
67.5
100
AcDbArc
 50
304.125563
 51
355.047437
  0
ARC
  5
363
100
AcDbEntity
  8
0
370
    -3
390
0
  6
Continuous
100
AcDbCircle
 10
-617.141827
 20
-160.492759
 30
0.0
 40
2.0
100
AcDbArc
 50
90.0
 51
175.047437
  0
ARC
  5
364
100
AcDbEntity
  8
0
370
    -3
390
0
  6
Continuous
100
AcDbCircle
 10
-647.392267
 20
-212.025563
 30
0.0
 40
2.0
100
AcDbArc
 50
124.125563
 51
210.0
  0
ARC
  5
365
100
AcDbEntity
  8
0
370
    -3
390
0
  6
Continuous
100
AcDbCircle
 10
-617.141827
 20
-148.492759
 30
0.0
 40
2.0
100
AcDbArc
 50
184.952563
 51
270.0
  0
ARC
  5
366
100
AcDbEntity
  8
0
370
    -3
390
0
  6
Continuous
100
AcDbCircle
 10
-647.392267
 20
-96.959956
 30
0.0
 40
2.0
100
AcDbArc
 50
150.0
 51
235.874437
  0
ARC
  5
367
100
AcDbEntity
  8
0
370
    -3
390
0
  6
Continuous
100
AcDbCircle
 10
-656.052521
 20
-91.959956
 30
0.0
 40
2.0
100
AcDbArc
 50
244.125563
 51
330.0
  0
ARC
  5
368
100
AcDbEntity
  8
0
370
    -3
390
0
  6
Continuous
100
AcDbCircle
 10
-715.806459
 20
-91.528708
 30
0.0
 40
2.0
100
AcDbArc
 50
210.0
 51
295.047437
  0
ARC
  5
369
100
AcDbEntity
  8
0
370
    -3
390
0
  6
Continuous
100
AcDbCircle
 10
-726.198763
 20
-97.528708
 30
0.0
 40
2.0
100
AcDbArc
 50
304.952563
 51
30.0
  0
ARC
  5
36A
100
AcDbEntity
  8
0
370
    -3
390
0
  6
Continuous
100
AcDbCircle
 10
-755.70226
 20
-149.492759
 30
0.0
 40
2.0
100
AcDbArc
 50
270.0
 51
355.874437
  0
ARC
  5
36B
100
AcDbEntity
  8
0
370
    -3
390
0
  6
Continuous
100
AcDbCircle
 10
-755.70226
 20
-159.492759
 30
0.0
 40
2.0
100
AcDbArc
 50
4.125563
 51
90.0
  0
ARC
  5
36C
100
AcDbEntity
  8
0
370
    -3
390
0
  6
Continuous
100
AcDbCircle
 10
-726.198763
 20
-211.456811
 30
0.0
 40
2.0
100
AcDbArc
 50
330.0
 51
55.047437
  0
ARC
  5
36D
100
AcDbEntity
  8
0
370
    -3
390
0
  6
Continuous
100
AcDbCircle
 10
-715.806459
 20
-217.456811
 30
0.0
 40
2.0
100
AcDbArc
 50
64.952563
 51
150.0
  0
ARC
  5
36E
100
AcDbEntity
  8
0
370
    -3
390
0
  6
Continuous
100
AcDbCircle
 10
-656.052521
 20
-217.025563
 30
0.0
 40
2.0
100
AcDbArc
 50
30.0
 51
115.874437
  0
LINE
  5
36F
100
AcDbEntity
  8
0
370
    -3
390
0
  6
Continuous
100
AcDbLine
 10
-713.154175
 20
-192.862922
 30
0.0
 11
-711.13612
 21
-189.367547
 31
0.0
  0
ARC
  5
370
100
AcDbEntity
  8
0
370
    -3
390
0
  6
Continuous
100
AcDbCircle
 10
-654.985798
 20
-175.899687
 30
0.0
 40
71.0
100
AcDbArc
 50
325.712889
 51
356.770589
  0
ARC
  5
371
100
AcDbEntity
  8
0
370
    -3
390
0
  6
Continuous
100
AcDbCircle
 10
-608.609447
 20
-236.366882
 30
0.0
 40
1.599999
100
AcDbArc
 50
224.999999
 51
298.808717
  0
LINE
  5
372
100
AcDbEntity
  8
0
370
    -3
390
0
  6
Continuous
100
AcDbLine
 10
-610.651213
 20
-236.587857
 30
0.0
 11
-604.287252
 21
-230.223896
 31
0.0
  0
LINE
  5
373
100
AcDbEntity
  8
0
370
    -3
390
0
  6
Continuous
100
AcDbLine
 10
-610.651213
 20
-236.587857
 30
0.0
 11
-609.740818
 21
-237.498252
 31
0.0
  0
LINE
  5
374
100
AcDbEntity
  8
0
370
    -3
390
0
  6
Continuous
100
AcDbLine
 10
-611.570452
 20
-236.375725
 30
0.0
 11
-611.004767
 21
-236.94141
 31
0.0
  0
ARC
  5
375
100
AcDbEntity
  8
0
370
    -3
390
0
  6
Continuous
100
AcDbCircle
 10
-612.277559
 20
-236.375725
 30
0.0
 40
0.5
100
AcDbArc
 50
225.0
 51
315.0
  0
LINE
  5
376
100
AcDbEntity
  8
0
370
    -3
390
0
  6
Continuous
100
AcDbLine
 10
-613.66721
 20
-235.693181
 30
0.0
 11
-612.631112
 21
-236.729278
 31
0.0
  0
ARC
  5
377
100
AcDbEntity
  8
0
370
    -3
390
0
  6
Continuous
100
AcDbCircle
 10
-604.499384
 20
-228.59755
 30
0.0
 40
0.5
100
AcDbArc
 50
315.0
 51
45.0
  0
LINE
  5
378
100
AcDbEntity
  8
0
370
    -3
390
0
  6
Continuous
100
AcDbLine
 10
-605.181928
 20
-227.207899
 30
0.0
 11
-604.145831
 21
-228.243997
 31
0.0
  0
LINE
  5
379
100
AcDbEntity
  8
0
370
    -3
390
0
  6
Continuous
100
AcDbLine
 10
-604.287252
 20
-230.223896
 30
0.0
 11
-603.376857
 21
-231.134291
 31
0.0
  0
ARC
  5
37A
100
AcDbEntity
  8
0
370
    -3
390
0
  6
Continuous
100
AcDbCircle
 10
-604.508227
 20
-232.265662
 30
0.0
 40
1.599999
100
AcDbArc
 50
331.191409
 51
45.000018
  0
LINE
  5
37B
100
AcDbEntity
  8
0
370
    -3
390
0
  6
Continuous
100
AcDbLine
 10
-603.933699
 20
-229.870342
 30
0.0
 11
-611.004767
 21
-236.94141
 31
0.0
  0
LINE
  5
37C
100
AcDbEntity
  8
0
370
    -3
390
0
  6
Continuous
100
AcDbLine
 10
-603.933699
 20
-229.870342
 30
0.0
 11
-604.499384
 21
-229.304657
 31
0.0
  0
LINE
  5
37D
100
AcDbEntity
  8
0
370
    -3
390
0
  6
Continuous
100
AcDbLine
 10
-611.924006
 20
-236.729278
 30
0.0
 11
-604.145831
 21
-228.951103
 31
0.0
  0
ARC
  5
37E
100
AcDbEntity
  8
0
370
    -3
390
0
  6
Continuous
100
AcDbCircle
 10
-613.621061
 20
-227.254048
 30
0.0
 40
12.0
100
AcDbArc
 50
298.808663
 51
331.191355
  0
LINE
  5
37F
100
AcDbEntity
  8
0
370
    -3
390
0
  6
Continuous
100
AcDbLine
 10
-767.582771
 20
-227.207899
 30
0.0
 11
-768.618868
 21
-228.243997
 31
0.0
  0
LINE
  5
380
100
AcDbEntity
  8
0
370
    -3
390
0
  6
Continuous
100
AcDbLine
 10
-761.194247
 20
-236.375725
 30
0.0
 11
-761.759933
 21
-236.94141
 31
0.0
  0
ARC
  5
381
100
AcDbEntity
  8
0
370
    -3
390
0
  6
Continuous
100
AcDbCircle
 10
-760.48714
 20
-236.375725
 30
0.0
 40
0.5
100
AcDbArc
 50
225.0
 51
315.0
  0
LINE
  5
382
100
AcDbEntity
  8
0
370
    -3
390
0
  6
Continuous
100
AcDbLine
 10
-759.09749
 20
-235.693181
 30
0.0
 11
-760.133587
 21
-236.729278
 31
0.0
  0
ARC
  5
383
100
AcDbEntity
  8
0
370
    -3
390
0
  6
Continuous
100
AcDbCircle
 10
-764.155252
 20
-236.366882
 30
0.0
 40
1.599999
100
AcDbArc
 50
241.191283
 51
315.000001
  0
LINE
  5
384
100
AcDbEntity
  8
0
370
    -3
390
0
  6
Continuous
100
AcDbLine
 10
-762.113486
 20
-236.587857
 30
0.0
 11
-763.023882
 21
-237.498252
 31
0.0
  0
ARC
  5
385
100
AcDbEntity
  8
0
370
    -3
390
0
  6
Continuous
100
AcDbCircle
 10
-759.143638
 20
-227.254048
 30
0.0
 40
12.0
100
AcDbArc
 50
208.808645
 51
241.191337
  0
LINE
  5
386
100
AcDbEntity
  8
0
370
    -3
390
0
  6
Continuous
100
AcDbLine
 10
-762.113486
 20
-236.587857
 30
0.0
 11
-768.477447
 21
-230.223896
 31
0.0
  0
ARC
  5
387
100
AcDbEntity
  8
0
370
    -3
390
0
  6
Continuous
100
AcDbCircle
 10
-768.265315
 20
-228.59755
 30
0.0
 40
0.5
100
AcDbArc
 50
135.0
 51
225.0
  0
LINE
  5
388
100
AcDbEntity
  8
0
370
    -3
390
0
  6
Continuous
100
AcDbLine
 10
-768.477447
 20
-230.223896
 30
0.0
 11
-769.387843
 21
-231.134291
 31
0.0
  0
ARC
  5
389
100
AcDbEntity
  8
0
370
    -3
390
0
  6
Continuous
100
AcDbCircle
 10
-768.256472
 20
-232.265662
 30
0.0
 40
1.599999
100
AcDbArc
 50
134.999982
 51
208.808591
  0
LINE
  5
38A
100
AcDbEntity
  8
0
370
    -3
390
0
  6
Continuous
100
AcDbLine
 10
-768.831
 20
-229.870342
 30
0.0
 11
-761.759933
 21
-236.94141
 31
0.0
  0
LINE
  5
38B
100
AcDbEntity
  8
0
370
    -3
390
0
  6
Continuous
100
AcDbLine
 10
-768.831
 20
-229.870342
 30
0.0
 11
-768.265315
 21
-229.304657
 31
0.0
  0
LINE
  5
38C
100
AcDbEntity
  8
0
370
    -3
390
0
  6
Continuous
100
AcDbLine
 10
-760.840694
 20
-236.729278
 30
0.0
 11
-768.618868
 21
-228.951103
 31
0.0
  0
LINE
  5
38D
100
AcDbEntity
  8
0
370
    -3
390
0
  6
Continuous
100
AcDbLine
 10
-767.582771
 20
-81.777619
 30
0.0
 11
-768.618868
 21
-80.741522
 31
0.0
  0
LINE
  5
38E
100
AcDbEntity
  8
0
370
    -3
390
0
  6
Continuous
100
AcDbLine
 10
-761.194247
 20
-72.609794
 30
0.0
 11
-761.759933
 21
-72.044109
 31
0.0
  0
ARC
  5
38F
100
AcDbEntity
  8
0
370
    -3
390
0
  6
Continuous
100
AcDbCircle
 10
-760.48714
 20
-72.609794
 30
0.0
 40
0.5
100
AcDbArc
 50
45.0
 51
135.0
  0
LINE
  5
390
100
AcDbEntity
  8
0
370
    -3
390
0
  6
Continuous
100
AcDbLine
 10
-759.09749
 20
-73.292338
 30
0.0
 11
-760.133587
 21
-72.256241
 31
0.0
  0
ARC
  5
391
100
AcDbEntity
  8
0
370
    -3
390
0
  6
Continuous
100
AcDbCircle
 10
-764.155252
 20
-72.618637
 30
0.0
 40
1.599999
100
AcDbArc
 50
44.999999
 51
118.808717
  0
LINE
  5
392
100
AcDbEntity
  8
0
370
    -3
390
0
  6
Continuous
100
AcDbLine
 10
-762.113486
 20
-72.397662
 30
0.0
 11
-763.023882
 21
-71.487266
 31
0.0
  0
ARC
  5
393
100
AcDbEntity
  8
0
370
    -3
390
0
  6
Continuous
100
AcDbCircle
 10
-759.143638
 20
-81.731471
 30
0.0
 40
12.0
100
AcDbArc
 50
118.808663
 51
151.191355
  0
LINE
  5
394
100
AcDbEntity
  8
0
370
    -3
390
0
  6
Continuous
100
AcDbLine
 10
-762.113486
 20
-72.397662
 30
0.0
 11
-768.477447
 21
-78.761623
 31
0.0
  0
ARC
  5
395
100
AcDbEntity
  8
0
370
    -3
390
0
  6
Continuous
100
AcDbCircle
 10
-768.265315
 20
-80.387969
 30
0.0
 40
0.5
100
AcDbArc
 50
135.0
 51
225.0
  0
LINE
  5
396
100
AcDbEntity
  8
0
370
    -3
390
0
  6
Continuous
100
AcDbLine
 10
-768.477447
 20
-78.761623
 30
0.0
 11
-769.387843
 21
-77.851227
 31
0.0
  0
ARC
  5
397
100
AcDbEntity
  8
0
370
    -3
390
0
  6
Continuous
100
AcDbCircle
 10
-768.256472
 20
-76.719857
 30
0.0
 40
1.599999
100
AcDbArc
 50
151.191409
 51
225.000018
  0
LINE
  5
398
100
AcDbEntity
  8
0
370
    -3
390
0
  6
Continuous
100
AcDbLine
 10
-768.831
 20
-79.115176
 30
0.0
 11
-761.759933
 21
-72.044109
 31
0.0
  0
LINE
  5
399
100
AcDbEntity
  8
0
370
    -3
390
0
  6
Continuous
100
AcDbLine
 10
-768.831
 20
-79.115176
 30
0.0
 11
-768.265315
 21
-79.680862
 31
0.0
  0
LINE
  5
39A
100
AcDbEntity
  8
0
370
    -3
390
0
  6
Continuous
100
AcDbLine
 10
-760.840694
 20
-72.256241
 30
0.0
 11
-768.618868
 21
-80.034415
 31
0.0
  0
LINE
  5
39B
100
AcDbEntity
  8
0
370
    -3
390
0
  6
Continuous
100
AcDbLine
 10
-605.181928
 20
-81.777619
 30
0.0
 11
-604.145831
 21
-80.741522
 31
0.0
  0
LINE
  5
39C
100
AcDbEntity
  8
0
370
    -3
390
0
  6
Continuous
100
AcDbLine
 10
-611.570452
 20
-72.609794
 30
0.0
 11
-611.004767
 21
-72.044109
 31
0.0
  0
ARC
  5
39D
100
AcDbEntity
  8
0
370
    -3
390
0
  6
Continuous
100
AcDbCircle
 10
-612.277559
 20
-72.609794
 30
0.0
 40
0.5
100
AcDbArc
 50
45.0
 51
135.0
  0
LINE
  5
39E
100
AcDbEntity
  8
0
370
    -3
390
0
  6
Continuous
100
AcDbLine
 10
-613.66721
 20
-73.292338
 30
0.0
 11
-612.631112
 21
-72.256241
 31
0.0
  0
ARC
  5
39F
100
AcDbEntity
  8
0
370
    -3
390
0
  6
Continuous
100
AcDbCircle
 10
-608.609447
 20
-72.618637
 30
0.0
 40
1.599999
100
AcDbArc
 50
61.191283
 51
135.000001
  0
LINE
  5
3A0
100
AcDbEntity
  8
0
370
    -3
390
0
  6
Continuous
100
AcDbLine
 10
-610.651213
 20
-72.397662
 30
0.0
 11
-609.740818
 21
-71.487266
 31
0.0
  0
ARC
  5
3A1
100
AcDbEntity
  8
0
370
    -3
390
0
  6
Continuous
100
AcDbCircle
 10
-613.621061
 20
-81.731471
 30
0.0
 40
12.0
100
AcDbArc
 50
28.808645
 51
61.191337
  0
LINE
  5
3A2
100
AcDbEntity
  8
0
370
    -3
390
0
  6
Continuous
100
AcDbLine
 10
-610.651213
 20
-72.397662
 30
0.0
 11
-604.287252
 21
-78.761623
 31
0.0
  0
ARC
  5
3A3
100
AcDbEntity
  8
0
370
    -3
390
0
  6
Continuous
100
AcDbCircle
 10
-604.499384
 20
-80.387969
 30
0.0
 40
0.5
100
AcDbArc
 50
315.0
 51
45.0
  0
LINE
  5
3A4
100
AcDbEntity
  8
0
370
    -3
390
0
  6
Continuous
100
AcDbLine
 10
-604.287252
 20
-78.761623
 30
0.0
 11
-603.376857
 21
-77.851227
 31
0.0
  0
ARC
  5
3A5
100
AcDbEntity
  8
0
370
    -3
390
0
  6
Continuous
100
AcDbCircle
 10
-604.508227
 20
-76.719857
 30
0.0
 40
1.599999
100
AcDbArc
 50
314.999982
 51
28.808591
  0
LINE
  5
3A6
100
AcDbEntity
  8
0
370
    -3
390
0
  6
Continuous
100
AcDbLine
 10
-603.933699
 20
-79.115176
 30
0.0
 11
-611.004767
 21
-72.044109
 31
0.0
  0
LINE
  5
3A7
100
AcDbEntity
  8
0
370
    -3
390
0
  6
Continuous
100
AcDbLine
 10
-603.933699
 20
-79.115176
 30
0.0
 11
-604.499384
 21
-79.680862
 31
0.0
  0
LINE
  5
3A8
100
AcDbEntity
  8
0
370
    -3
390
0
  6
Continuous
100
AcDbLine
 10
-611.924006
 20
-72.256241
 30
0.0
 11
-604.145831
 21
-80.034415
 31
0.0
  0
ARC
  5
3A9
100
AcDbEntity
  8
0
370
    -3
390
0
  6
Continuous
100
AcDbCircle
 10
-659.78235
 20
-258.892759
 30
0.0
 40
2.0
100
AcDbArc
 50
180.0
 51
270.0
  0
LINE
  5
3AA
100
AcDbEntity
  8
0
370
    -3
390
0
  6
Continuous
100
AcDbLine
 10
-655.38235
 20
-262.492759
 30
0.0
 11
-655.38235
 21
-260.892759
 31
0.0
  0
LINE
  5
3AB
100
AcDbEntity
  8
0
370
    -3
390
0
  6
Continuous
100
AcDbLine
 10
-655.38235
 20
-260.892759
 30
0.0
 11
-686.38235
 21
-260.892759
 31
0.0
  0
LINE
  5
3AC
100
AcDbEntity
  8
0
370
    -3
390
0
  6
Continuous
100
AcDbLine
 10
-661.78235
 20
-258.892759
 30
0.0
 11
-661.78235
 21
-256.82135
 31
0.0
  0
LINE
  5
3AD
100
AcDbEntity
  8
0
370
    -3
390
0
  6
Continuous
100
AcDbLine
 10
-710.98235
 20
-258.892759
 30
0.0
 11
-710.98235
 21
-256.82135
 31
0.0
  0
ARC
  5
3AE
100
AcDbEntity
  8
0
370
    -3
390
0
  6
Continuous
100
AcDbCircle
 10
-712.98235
 20
-258.892759
 30
0.0
 40
2.0
100
AcDbArc
 50
270.0
 51
0.0
  0
LINE
  5
3AF
100
AcDbEntity
  8
0
370
    -3
390
0
  6
Continuous
100
AcDbLine
 10
-717.38235
 20
-262.492759
 30
0.0
 11
-717.38235
 21
-260.892759
 31
0.0
  0
LINE
  5
3B0
100
AcDbEntity
  8
0
370
    -3
390
0
  6
Continuous
100
AcDbLine
 10
-717.38235
 20
-260.892759
 30
0.0
 11
-686.38235
 21
-260.892759
 31
0.0
  0
ARC
  5
3B1
100
AcDbEntity
  8
0
370
    -3
390
0
  6
Continuous
100
AcDbCircle
 10
-644.806024
 20
-267.762859
 30
0.0
 40
1.0
100
AcDbArc
 50
294.0
 51
24.0
  0
LINE
  5
3B2
100
AcDbEntity
  8
0
370
    -3
390
0
  6
Continuous
100
AcDbLine
 10
-646.724837
 20
-265.552188
 30
0.0
 11
-647.725679
 21
-265.127356
 31
0.0
  0
LINE
  5
3B3
100
AcDbEntity
  8
0
370
    -3
390
0
  6
Continuous
100
AcDbLine
 10
-647.72413
 20
-265.997102
 30
0.0
 11
-648.038264
 21
-265.86376
 31
0.0
  0
LINE
  5
3B4
100
AcDbEntity
  8
0
370
    -3
390
0
  6
Continuous
100
AcDbLine
 10
-647.725679
 20
-265.127356
 30
0.0
 11
-648.038264
 21
-265.86376
 31
0.0
  0
LINE
  5
3B5
100
AcDbEntity
  8
0
370
    -3
390
0
  6
Continuous
100
AcDbLine
 10
-644.399287
 20
-268.676405
 30
0.0
 11
-686.38235
 21
-287.368468
 31
0.0
  0
ARC
  5
3B6
100
AcDbEntity
  8
0
370
    -3
390
0
  6
Continuous
100
AcDbCircle
 10
-647.182143
 20
-273.199321
 30
0.0
 40
3.0
100
AcDbArc
 50
114.0
 51
170.681877
  0
LINE
  5
3B7
100
AcDbEntity
  8
0
370
    -3
390
0
  6
Continuous
100
AcDbLine
 10
-650.142556
 20
-272.713573
 30
0.0
 11
-654.401385
 21
-298.66921
 31
0.0
  0
LINE
  5
3B8
100
AcDbEntity
  8
0
370
    -3
390
0
  6
Continuous
100
AcDbLine
 10
-643.892479
 20
-267.356123
 30
0.0
 11
-645.031341
 21
-264.798195
 31
0.0
  0
LINE
  5
3B9
100
AcDbEntity
  8
0
370
    -3
390
0
  6
Continuous
100
AcDbLine
 10
-650.147196
 20
-267.075921
 30
0.0
 11
-650.950108
 21
-265.272549
 31
0.0
  0
ARC
  5
3BA
100
AcDbEntity
  8
0
370
    -3
390
0
  6
Continuous
100
AcDbCircle
 10
-653.690745
 20
-266.492759
 30
0.0
 40
3.0
100
AcDbArc
 50
24.0
 51
90.0
  0
LINE
  5
3BB
100
AcDbEntity
  8
0
370
    -3
390
0
  6
Continuous
100
AcDbLine
 10
-645.031341
 20
-264.798195
 30
0.0
 11
-747.713851
 21
-310.515394
 31
0.0
  0
LINE
  5
3BC
100
AcDbEntity
  8
0
370
    -3
390
0
  6
Continuous
100
AcDbLine
 10
-743.009092
 20
-308.4207
 30
0.0
 11
-744.717385
 21
-304.583809
 31
0.0
  0
LINE
  5
3BD
100
AcDbEntity
  8
0
370
    -3
390
0
  6
Continuous
100
AcDbLine
 10
-739.994392
 20
-307.078469
 30
0.0
 11
-741.702685
 21
-303.241579
 31
0.0
  0
LINE
  5
3BE
100
AcDbEntity
  8
0
370
    -3
390
0
  6
Continuous
100
AcDbLine
 10
-741.240587
 20
-303.418962
 30
0.0
 11
-741.702685
 21
-303.241579
 31
0.0
  0
LINE
  5
3BF
100
AcDbEntity
  8
0
370
    -3
390
0
  6
Continuous
100
AcDbLine
 10
-744.894769
 20
-305.045908
 30
0.0
 11
-744.717385
 21
-304.583809
 31
0.0
  0
LINE
  5
3C0
100
AcDbEntity
  8
0
370
    -3
390
0
  6
Continuous
100
AcDbLine
 10
-741.702685
 20
-303.241579
 30
0.0
 11
-744.717385
 21
-304.583809
 31
0.0
  0
POINT
  5
3C1
100
AcDbEntity
  8
0
370
    -3
390
0
  6
Continuous
100
AcDbPoint
 10
-739.956142
 20
-311.221058
 30
0.0
  0
LINE
  5
3C2
100
AcDbEntity
  8
0
370
    -3
390
0
  6
Continuous
100
AcDbLine
 10
-736.758733
 20
-309.797479
 30
0.0
 11
-743.153551
 21
-312.644636
 31
0.0
  0
LINE
  5
3C3
100
AcDbEntity
  8
0
370
    -3
390
0
  6
Continuous
100
AcDbLine
 10
-736.758733
 20
-309.797479
 30
0.0
 11
-743.153551
 21
-312.644636
 31
0.0
  0
LINE
  5
3C4
100
AcDbEntity
  8
0
370
    -3
390
0
  6
Continuous
100
AcDbLine
 10
-743.153551
 20
-312.644636
 30
0.0
 11
-742.755346
 21
-313.53902
 31
0.0
  0
LINE
  5
3C5
100
AcDbEntity
  8
0
370
    -3
390
0
  6
Continuous
100
AcDbLine
 10
-736.758733
 20
-309.797479
 30
0.0
 11
-736.360528
 21
-310.691864
 31
0.0
  0
ARC
  5
3C6
100
AcDbEntity
  8
0
370
    -3
390
0
  6
Continuous
100
AcDbCircle
 10
-737.548136
 20
-311.220621
 30
0.0
 40
1.299999
100
AcDbArc
 50
310.601531
 51
24.000001
  0
ARC
  5
3C7
100
AcDbEntity
  8
0
370
    -3
390
0
  6
Continuous
100
AcDbCircle
 10
-686.38235
 20
288.507241
 30
0.0
 40
600.0
100
AcDbArc
 50
265.284875
 51
271.682769
  0
ARC
  5
3C8
100
AcDbEntity
  8
0
370
    -3
390
0
  6
Continuous
100
AcDbCircle
 10
-735.785509
 20
-310.458808
 30
0.0
 40
1.0
100
AcDbArc
 50
85.284875
 51
114.0
  0
ARC
  5
3C9
100
AcDbEntity
  8
0
370
    -3
390
0
  6
Continuous
100
AcDbCircle
 10
-727.88235
 20
-268.492759
 30
0.0
 40
5.0
100
AcDbArc
 50
90.0
 51
180.0
  0
LINE
  5
3CA
100
AcDbEntity
  8
0
370
    -3
390
0
  6
Continuous
100
AcDbLine
 10
-732.88235
 20
-268.492759
 30
0.0
 11
-732.88235
 21
-303.911984
 31
0.0
  0
LINE
  5
3CB
100
AcDbEntity
  8
0
370
    -3
390
0
  6
Continuous
100
AcDbLine
 10
-746.574988
 20
-313.073321
 30
0.0
 11
-747.713851
 21
-310.515394
 31
0.0
  0
ARC
  5
3CC
100
AcDbEntity
  8
0
370
    -3
390
0
  6
Continuous
100
AcDbCircle
 10
-745.661443
 20
-312.666585
 30
0.0
 40
1.0
100
AcDbArc
 50
204.0
 51
294.0
  0
LINE
  5
3CD
100
AcDbEntity
  8
0
370
    -3
390
0
  6
Continuous
100
AcDbLine
 10
-686.38235
 20
-287.368468
 30
0.0
 11
-745.254706
 21
-313.58013
 31
0.0
  0
ARC
  5
3CE
100
AcDbEntity
  8
0
370
    -3
390
0
  6
Continuous
100
AcDbCircle
 10
-733.154587
 20
-309.287447
 30
0.0
 40
1.0
100
AcDbArc
 50
24.0
 51
114.0
  0
ARC
  5
3CF
100
AcDbEntity
  8
0
370
    -3
390
0
  6
Continuous
100
AcDbCircle
 10
-730.504984
 20
-307.862773
 30
0.0
 40
2.0
100
AcDbArc
 50
204.0
 51
265.768662
  0
LINE
  5
3D0
100
AcDbEntity
  8
0
370
    -3
390
0
  6
Continuous
100
AcDbLine
 10
-739.674651
 20
-306.936112
 30
0.0
 11
-741.240587
 21
-303.418962
 31
0.0
  0
LINE
  5
3D1
100
AcDbEntity
  8
0
370
    -3
390
0
  6
Continuous
100
AcDbLine
 10
-743.328832
 20
-308.563058
 30
0.0
 11
-744.894769
 21
-305.045908
 31
0.0
  0
LINE
  5
3D2
100
AcDbEntity
  8
0
370
    -3
390
0
  6
Continuous
100
AcDbLine
 10
-653.690745
 20
-263.492759
 30
0.0
 11
-727.88235
 21
-263.492759
 31
0.0
  0
LINE
  5
3D3
100
AcDbEntity
  8
0
370
    -3
390
0
  6
CENTER
100
AcDbLine
 10
-718.499826
 20
-287.492759
 30
0.0
 11
-741.368335
 21
-287.492759
 31
0.0
  0
ARC
  5
3D4
100
AcDbEntity
  8
0
370
    -3
390
0
  6
Continuous
100
AcDbCircle
 10
-741.567738
 20
-313.010263
 30
0.0
 40
1.299999
100
AcDbArc
 50
203.999982
 51
277.398452
  0
ARC
  5
3D5
100
AcDbEntity
  8
0
370
    -3
390
0
  6
Continuous
100
AcDbCircle
 10
-742.559257
 20
-305.374367
 30
0.0
 40
9.0
100
AcDbArc
 50
277.398452
 51
310.601531
  0
ARC
  5
3D6
100
AcDbEntity
  8
0
370
    -3
390
0
  6
Continuous
100
AcDbCircle
 10
-669.203454
 20
-296.24047
 30
0.0
 40
15.0
100
AcDbArc
 50
271.682769
 51
350.681877
  0
LINE
  5
3D7
100
AcDbEntity
  8
0
370
    -3
390
0
  6
Continuous
100
AcDbLine
 10
-717.38235
 20
-262.492759
 30
0.0
 11
-717.38235
 21
-263.492759
 31
0.0
  0
LINE
  5
3D8
100
AcDbEntity
  8
0
370
    -3
390
0
  6
Continuous
100
AcDbLine
 10
-655.38235
 20
-262.492759
 30
0.0
 11
-655.38235
 21
-263.492759
 31
0.0
  0
LINE
  5
3D9
100
AcDbEntity
  8
0
370
    -3
390
0
  6
Continuous
100
AcDbLine
 10
-717.38235
 20
-262.492759
 30
0.0
 11
-655.38235
 21
-262.492759
 31
0.0
  0
LINE
  5
3DA
100
AcDbEntity
  8
0
370
    -3
390
0
  6
CENTER
100
AcDbLine
 10
121.508154
 20
157.861959
 30
0.0
 11
-545.615342
 21
157.861959
 31
0.0
  0
LINE
  5
3DB
100
AcDbEntity
  8
0
370
    -3
390
0
  6
Continuous
100
AcDbLine
 10
-375.911782
 20
133.861959
 30
0.0
 11
-175.911782
 21
133.861959
 31
0.0
  0
LINE
  5
3DC
100
AcDbEntity
  8
0
370
    -3
390
0
  6
Continuous
100
AcDbLine
 10
-375.911782
 20
104.097386
 30
0.0
 11
-175.911782
 21
104.097386
 31
0.0
  0
LINE
  5
3DD
100
AcDbEntity
  8
0
370
    -3
390
0
  6
Continuous
100
AcDbLine
 10
-375.911782
 20
106.628297
 30
0.0
 11
-175.911782
 21
106.628297
 31
0.0
  0
LINE
  5
3DE
100
AcDbEntity
  8
0
370
    -3
390
0
  6
Continuous
100
AcDbLine
 10
-375.911782
 20
114.609709
 30
0.0
 11
-175.911782
 21
114.609709
 31
0.0
  0
LINE
  5
3DF
100
AcDbEntity
  8
0
370
    -3
390
0
  6
Continuous
100
AcDbLine
 10
-375.911782
 20
117.061831
 30
0.0
 11
-175.911782
 21
117.061831
 31
0.0
  0
LINE
  5
3E0
100
AcDbEntity
  8
0
370
    -3
390
0
  6
Continuous
100
AcDbLine
 10
-375.911782
 20
127.505182
 30
0.0
 11
-175.911782
 21
127.505182
 31
0.0
  0
LINE
  5
3E1
100
AcDbEntity
  8
0
370
    -3
390
0
  6
Continuous
100
AcDbLine
 10
-375.911782
 20
125.190083
 30
0.0
 11
-175.911782
 21
125.190083
 31
0.0
  0
LINE
  5
3E2
100
AcDbEntity
  8
0
370
    -3
390
0
  6
Continuous
100
AcDbLine
 10
-375.911782
 20
181.861959
 30
0.0
 11
-175.911782
 21
181.861959
 31
0.0
  0
LINE
  5
3E3
100
AcDbEntity
  8
0
370
    -3
390
0
  6
Continuous
100
AcDbLine
 10
-375.911782
 20
188.218736
 30
0.0
 11
-175.911782
 21
188.218736
 31
0.0
  0
LINE
  5
3E4
100
AcDbEntity
  8
0
370
    -3
390
0
  6
Continuous
100
AcDbLine
 10
-375.911782
 20
190.533834
 30
0.0
 11
-175.911782
 21
190.533834
 31
0.0
  0
LINE
  5
3E5
100
AcDbEntity
  8
0
370
    -3
390
0
  6
Continuous
100
AcDbLine
 10
-375.911782
 20
198.662086
 30
0.0
 11
-175.911782
 21
198.662086
 31
0.0
  0
LINE
  5
3E6
100
AcDbEntity
  8
0
370
    -3
390
0
  6
Continuous
100
AcDbLine
 10
-375.911782
 20
54.861959
 30
0.0
 11
-479.566881
 21
54.861959
 31
0.0
  0
LINE
  5
3E7
100
AcDbEntity
  8
0
370
    -3
390
0
  6
Continuous
100
AcDbLine
 10
-408.411782
 20
234.819739
 30
0.0
 11
-408.411782
 21
236.105836
 31
0.0
  0
LINE
  5
3E8
100
AcDbEntity
  8
0
370
    -3
390
0
  6
Continuous
100
AcDbLine
 10
-396.411782
 20
234.819739
 30
0.0
 11
-396.411782
 21
236.105836
 31
0.0
  0
LINE
  5
3E9
100
AcDbEntity
  8
0
370
    -3
390
0
  6
Continuous
100
AcDbLine
 10
-408.329038
 20
236.790866
 30
0.0
 11
-408.411782
 21
236.105836
 31
0.0
  0
LINE
  5
3EA
100
AcDbEntity
  8
0
370
    -3
390
0
  6
Continuous
100
AcDbLine
 10
-408.083089
 20
237.457001
 30
0.0
 11
-408.329038
 21
236.790866
 31
0.0
  0
LINE
  5
3EB
100
AcDbEntity
  8
0
370
    -3
390
0
  6
Continuous
100
AcDbLine
 10
-407.680718
 20
238.08587
 30
0.0
 11
-408.083089
 21
237.457001
 31
0.0
  0
LINE
  5
3EC
100
AcDbEntity
  8
0
370
    -3
390
0
  6
Continuous
100
AcDbLine
 10
-407.133023
 20
238.660127
 30
0.0
 11
-407.680718
 21
238.08587
 31
0.0
  0
LINE
  5
3ED
100
AcDbEntity
  8
0
370
    -3
390
0
  6
Continuous
100
AcDbLine
 10
-406.45511
 20
239.163933
 30
0.0
 11
-407.133023
 21
238.660127
 31
0.0
  0
LINE
  5
3EE
100
AcDbEntity
  8
0
370
    -3
390
0
  6
Continuous
100
AcDbLine
 10
-396.52707
 20
233.992041
 30
0.0
 11
-396.411782
 21
234.819739
 31
0.0
  0
LINE
  5
3EF
100
AcDbEntity
  8
0
370
    -3
390
0
  6
Continuous
100
AcDbLine
 10
-396.868505
 20
233.196151
 30
0.0
 11
-396.52707
 21
233.992041
 31
0.0
  0
LINE
  5
3F0
100
AcDbEntity
  8
0
370
    -3
390
0
  6
Continuous
100
AcDbLine
 10
-397.422964
 20
232.462654
 30
0.0
 11
-396.868505
 21
233.196151
 31
0.0
  0
LINE
  5
3F1
100
AcDbEntity
  8
0
370
    -3
390
0
  6
Continuous
100
AcDbLine
 10
-398.169141
 20
231.819739
 30
0.0
 11
-397.422964
 21
232.462654
 31
0.0
  0
LINE
  5
3F2
100
AcDbEntity
  8
0
370
    -3
390
0
  6
Continuous
100
AcDbLine
 10
-399.078361
 20
231.292112
 30
0.0
 11
-398.169141
 21
231.819739
 31
0.0
  0
LINE
  5
3F3
100
AcDbEntity
  8
0
370
    -3
390
0
  6
Continuous
100
AcDbLine
 10
-400.115681
 20
230.90005
 30
0.0
 11
-399.078361
 21
231.292112
 31
0.0
  0
LINE
  5
3F4
100
AcDbEntity
  8
0
370
    -3
390
0
  6
Continuous
100
AcDbLine
 10
-401.24124
 20
230.65862
 30
0.0
 11
-400.115681
 21
230.90005
 31
0.0
  0
LINE
  5
3F5
100
AcDbEntity
  8
0
370
    -3
390
0
  6
Continuous
100
AcDbLine
 10
-402.411782
 20
230.577098
 30
0.0
 11
-401.24124
 21
230.65862
 31
0.0
  0
LINE
  5
3F6
100
AcDbEntity
  8
0
370
    -3
390
0
  6
Continuous
100
AcDbLine
 10
-403.582324
 20
230.65862
 30
0.0
 11
-402.411782
 21
230.577098
 31
0.0
  0
LINE
  5
3F7
100
AcDbEntity
  8
0
370
    -3
390
0
  6
Continuous
100
AcDbLine
 10
-404.707883
 20
230.90005
 30
0.0
 11
-403.582324
 21
230.65862
 31
0.0
  0
LINE
  5
3F8
100
AcDbEntity
  8
0
370
    -3
390
0
  6
Continuous
100
AcDbLine
 10
-405.745203
 20
231.292112
 30
0.0
 11
-404.707883
 21
230.90005
 31
0.0
  0
LINE
  5
3F9
100
AcDbEntity
  8
0
370
    -3
390
0
  6
Continuous
100
AcDbLine
 10
-406.654423
 20
231.819739
 30
0.0
 11
-405.745203
 21
231.292112
 31
0.0
  0
LINE
  5
3FA
100
AcDbEntity
  8
0
370
    -3
390
0
  6
Continuous
100
AcDbLine
 10
-407.4006
 20
232.462654
 30
0.0
 11
-406.654423
 21
231.819739
 31
0.0
  0
LINE
  5
3FB
100
AcDbEntity
  8
0
370
    -3
390
0
  6
Continuous
100
AcDbLine
 10
-407.955059
 20
233.196151
 30
0.0
 11
-407.4006
 21
232.462654
 31
0.0
  0
LINE
  5
3FC
100
AcDbEntity
  8
0
370
    -3
390
0
  6
Continuous
100
AcDbLine
 10
-408.296494
 20
233.992041
 30
0.0
 11
-407.955059
 21
233.196151
 31
0.0
  0
LINE
  5
3FD
100
AcDbEntity
  8
0
370
    -3
390
0
  6
Continuous
100
AcDbLine
 10
-408.411782
 20
234.819739
 30
0.0
 11
-408.296494
 21
233.992041
 31
0.0
  0
LINE
  5
3FE
100
AcDbEntity
  8
0
370
    -3
390
0
  6
Continuous
100
AcDbLine
 10
-407.411782
 20
236.492233
 30
0.0
 11
-407.411782
 21
236.775075
 31
0.0
  0
LINE
  5
3FF
100
AcDbEntity
  8
0
370
    -3
390
0
  6
Continuous
100
AcDbLine
 10
-397.411782
 20
236.492233
 30
0.0
 11
-397.411782
 21
236.775075
 31
0.0
  0
LINE
  5
400
100
AcDbEntity
  8
0
370
    -3
390
0
  6
Continuous
100
AcDbLine
 10
-397.695094
 20
237.948287
 30
0.0
 11
-398.095605
 21
238.559818
 31
0.0
  0
LINE
  5
401
100
AcDbEntity
  8
0
370
    -3
390
0
  6
Continuous
100
AcDbLine
 10
-397.465959
 20
237.294129
 30
0.0
 11
-397.695094
 21
237.948287
 31
0.0
  0
LINE
  5
402
100
AcDbEntity
  8
0
370
    -3
390
0
  6
Continuous
100
AcDbLine
 10
-397.416525
 20
236.621112
 30
0.0
 11
-397.465959
 21
237.294129
 31
0.0
  0
LINE
  5
403
100
AcDbEntity
  8
0
370
    -3
390
0
  6
Continuous
100
AcDbLine
 10
-397.548589
 20
235.953689
 30
0.0
 11
-397.416525
 21
236.621112
 31
0.0
  0
LINE
  5
404
100
AcDbEntity
  8
0
370
    -3
390
0
  6
Continuous
100
AcDbLine
 10
-397.857352
 20
235.31611
 30
0.0
 11
-397.548589
 21
235.953689
 31
0.0
  0
LINE
  5
405
100
AcDbEntity
  8
0
370
    -3
390
0
  6
Continuous
100
AcDbLine
 10
-398.331595
 20
234.731541
 30
0.0
 11
-397.857352
 21
235.31611
 31
0.0
  0
LINE
  5
406
100
AcDbEntity
  8
0
370
    -3
390
0
  6
Continuous
100
AcDbLine
 10
-398.954087
 20
234.221221
 30
0.0
 11
-398.331595
 21
234.731541
 31
0.0
  0
LINE
  5
407
100
AcDbEntity
  8
0
370
    -3
390
0
  6
Continuous
100
AcDbLine
 10
-399.702211
 20
233.803693
 30
0.0
 11
-398.954087
 21
234.221221
 31
0.0
  0
LINE
  5
408
100
AcDbEntity
  8
0
370
    -3
390
0
  6
Continuous
100
AcDbLine
 10
-400.548784
 20
233.494128
 30
0.0
 11
-399.702211
 21
233.803693
 31
0.0
  0
LINE
  5
409
100
AcDbEntity
  8
0
370
    -3
390
0
  6
Continuous
100
AcDbLine
 10
-401.463047
 20
233.303771
 30
0.0
 11
-400.548784
 21
233.494128
 31
0.0
  0
LINE
  5
40A
100
AcDbEntity
  8
0
370
    -3
390
0
  6
Continuous
100
AcDbLine
 10
-402.411782
 20
233.239542
 30
0.0
 11
-401.463047
 21
233.303771
 31
0.0
  0
LINE
  5
40B
100
AcDbEntity
  8
0
370
    -3
390
0
  6
Continuous
100
AcDbLine
 10
-403.360517
 20
233.303771
 30
0.0
 11
-402.411782
 21
233.239542
 31
0.0
  0
LINE
  5
40C
100
AcDbEntity
  8
0
370
    -3
390
0
  6
Continuous
100
AcDbLine
 10
-404.27478
 20
233.494128
 30
0.0
 11
-403.360517
 21
233.303771
 31
0.0
  0
LINE
  5
40D
100
AcDbEntity
  8
0
370
    -3
390
0
  6
Continuous
100
AcDbLine
 10
-405.121353
 20
233.803693
 30
0.0
 11
-404.27478
 21
233.494128
 31
0.0
  0
LINE
  5
40E
100
AcDbEntity
  8
0
370
    -3
390
0
  6
Continuous
100
AcDbLine
 10
-405.869477
 20
234.221221
 30
0.0
 11
-405.121353
 21
233.803693
 31
0.0
  0
LINE
  5
40F
100
AcDbEntity
  8
0
370
    -3
390
0
  6
Continuous
100
AcDbLine
 10
-406.49197
 20
234.731541
 30
0.0
 11
-405.869477
 21
234.221221
 31
0.0
  0
LINE
  5
410
100
AcDbEntity
  8
0
370
    -3
390
0
  6
Continuous
100
AcDbLine
 10
-406.966213
 20
235.31611
 30
0.0
 11
-406.49197
 21
234.731541
 31
0.0
  0
LINE
  5
411
100
AcDbEntity
  8
0
370
    -3
390
0
  6
Continuous
100
AcDbLine
 10
-407.274975
 20
235.953689
 30
0.0
 11
-406.966213
 21
235.31611
 31
0.0
  0
LINE
  5
412
100
AcDbEntity
  8
0
370
    -3
390
0
  6
Continuous
100
AcDbLine
 10
-407.407039
 20
236.621112
 30
0.0
 11
-407.274975
 21
235.953689
 31
0.0
  0
LINE
  5
413
100
AcDbEntity
  8
0
370
    -3
390
0
  6
Continuous
100
AcDbLine
 10
-407.357605
 20
237.294129
 30
0.0
 11
-407.407039
 21
236.621112
 31
0.0
  0
LINE
  5
414
100
AcDbEntity
  8
0
370
    -3
390
0
  6
Continuous
100
AcDbLine
 10
-407.12847
 20
237.948287
 30
0.0
 11
-407.357605
 21
237.294129
 31
0.0
  0
LINE
  5
415
100
AcDbEntity
  8
0
370
    -3
390
0
  6
Continuous
100
AcDbLine
 10
-406.72796
 20
238.559818
 30
0.0
 11
-407.12847
 21
237.948287
 31
0.0
  0
LINE
  5
416
100
AcDbEntity
  8
0
370
    -3
390
0
  6
Continuous
100
AcDbLine
 10
-397.507856
 20
235.747304
 30
0.0
 11
-397.411782
 21
236.492233
 31
0.0
  0
LINE
  5
417
100
AcDbEntity
  8
0
370
    -3
390
0
  6
Continuous
100
AcDbLine
 10
-397.792384
 20
235.031003
 30
0.0
 11
-397.507856
 21
235.747304
 31
0.0
  0
LINE
  5
418
100
AcDbEntity
  8
0
370
    -3
390
0
  6
Continuous
100
AcDbLine
 10
-398.254434
 20
234.370856
 30
0.0
 11
-397.792384
 21
235.031003
 31
0.0
  0
LINE
  5
419
100
AcDbEntity
  8
0
370
    -3
390
0
  6
Continuous
100
AcDbLine
 10
-398.876248
 20
233.792233
 30
0.0
 11
-398.254434
 21
234.370856
 31
0.0
  0
LINE
  5
41A
100
AcDbEntity
  8
0
370
    -3
390
0
  6
Continuous
100
AcDbLine
 10
-399.633931
 20
233.317368
 30
0.0
 11
-398.876248
 21
233.792233
 31
0.0
  0
LINE
  5
41B
100
AcDbEntity
  8
0
370
    -3
390
0
  6
Continuous
100
AcDbLine
 10
-400.498365
 20
232.964513
 30
0.0
 11
-399.633931
 21
233.317368
 31
0.0
  0
LINE
  5
41C
100
AcDbEntity
  8
0
370
    -3
390
0
  6
Continuous
100
AcDbLine
 10
-401.43633
 20
232.747225
 30
0.0
 11
-400.498365
 21
232.964513
 31
0.0
  0
LINE
  5
41D
100
AcDbEntity
  8
0
370
    -3
390
0
  6
Continuous
100
AcDbLine
 10
-402.411782
 20
232.673856
 30
0.0
 11
-401.43633
 21
232.747225
 31
0.0
  0
LINE
  5
41E
100
AcDbEntity
  8
0
370
    -3
390
0
  6
Continuous
100
AcDbLine
 10
-403.387234
 20
232.747225
 30
0.0
 11
-402.411782
 21
232.673856
 31
0.0
  0
LINE
  5
41F
100
AcDbEntity
  8
0
370
    -3
390
0
  6
Continuous
100
AcDbLine
 10
-404.325199
 20
232.964513
 30
0.0
 11
-403.387234
 21
232.747225
 31
0.0
  0
LINE
  5
420
100
AcDbEntity
  8
0
370
    -3
390
0
  6
Continuous
100
AcDbLine
 10
-405.189633
 20
233.317368
 30
0.0
 11
-404.325199
 21
232.964513
 31
0.0
  0
LINE
  5
421
100
AcDbEntity
  8
0
370
    -3
390
0
  6
Continuous
100
AcDbLine
 10
-405.947316
 20
233.792233
 30
0.0
 11
-405.189633
 21
233.317368
 31
0.0
  0
LINE
  5
422
100
AcDbEntity
  8
0
370
    -3
390
0
  6
Continuous
100
AcDbLine
 10
-406.56913
 20
234.370856
 30
0.0
 11
-405.947316
 21
233.792233
 31
0.0
  0
LINE
  5
423
100
AcDbEntity
  8
0
370
    -3
390
0
  6
Continuous
100
AcDbLine
 10
-407.03118
 20
235.031003
 30
0.0
 11
-406.56913
 21
234.370856
 31
0.0
  0
LINE
  5
424
100
AcDbEntity
  8
0
370
    -3
390
0
  6
Continuous
100
AcDbLine
 10
-407.315708
 20
235.747304
 30
0.0
 11
-407.03118
 21
235.031003
 31
0.0
  0
LINE
  5
425
100
AcDbEntity
  8
0
370
    -3
390
0
  6
Continuous
100
AcDbLine
 10
-407.411782
 20
236.492233
 30
0.0
 11
-407.315708
 21
235.747304
 31
0.0
  0
LINE
  5
426
100
AcDbEntity
  8
0
370
    -3
390
0
  6
Continuous
100
AcDbLine
 10
-397.998248
 20
236.709297
 30
0.0
 11
-397.911782
 21
237.464588
 31
0.0
  0
LINE
  5
427
100
AcDbEntity
  8
0
370
    -3
390
0
  6
Continuous
100
AcDbLine
 10
-398.254324
 20
235.983032
 30
0.0
 11
-397.998248
 21
236.709297
 31
0.0
  0
LINE
  5
428
100
AcDbEntity
  8
0
370
    -3
390
0
  6
Continuous
100
AcDbLine
 10
-398.670169
 20
235.313702
 30
0.0
 11
-398.254324
 21
235.983032
 31
0.0
  0
LINE
  5
429
100
AcDbEntity
  8
0
370
    -3
390
0
  6
Continuous
100
AcDbLine
 10
-399.229802
 20
234.727029
 30
0.0
 11
-398.670169
 21
235.313702
 31
0.0
  0
LINE
  5
42A
100
AcDbEntity
  8
0
370
    -3
390
0
  6
Continuous
100
AcDbLine
 10
-399.911716
 20
234.245559
 30
0.0
 11
-399.229802
 21
234.727029
 31
0.0
  0
LINE
  5
42B
100
AcDbEntity
  8
0
370
    -3
390
0
  6
Continuous
100
AcDbLine
 10
-400.689707
 20
233.887795
 30
0.0
 11
-399.911716
 21
234.245559
 31
0.0
  0
LINE
  5
42C
100
AcDbEntity
  8
0
370
    -3
390
0
  6
Continuous
100
AcDbLine
 10
-401.533876
 20
233.667485
 30
0.0
 11
-400.689707
 21
233.887795
 31
0.0
  0
LINE
  5
42D
100
AcDbEntity
  8
0
370
    -3
390
0
  6
Continuous
100
AcDbLine
 10
-402.411782
 20
233.593095
 30
0.0
 11
-401.533876
 21
233.667485
 31
0.0
  0
LINE
  5
42E
100
AcDbEntity
  8
0
370
    -3
390
0
  6
Continuous
100
AcDbLine
 10
-403.289689
 20
233.667485
 30
0.0
 11
-402.411782
 21
233.593095
 31
0.0
  0
LINE
  5
42F
100
AcDbEntity
  8
0
370
    -3
390
0
  6
Continuous
100
AcDbLine
 10
-404.133858
 20
233.887795
 30
0.0
 11
-403.289689
 21
233.667485
 31
0.0
  0
LINE
  5
430
100
AcDbEntity
  8
0
370
    -3
390
0
  6
Continuous
100
AcDbLine
 10
-404.911848
 20
234.245559
 30
0.0
 11
-404.133858
 21
233.887795
 31
0.0
  0
LINE
  5
431
100
AcDbEntity
  8
0
370
    -3
390
0
  6
Continuous
100
AcDbLine
 10
-405.593763
 20
234.727029
 30
0.0
 11
-404.911848
 21
234.245559
 31
0.0
  0
LINE
  5
432
100
AcDbEntity
  8
0
370
    -3
390
0
  6
Continuous
100
AcDbLine
 10
-406.153395
 20
235.313702
 30
0.0
 11
-405.593763
 21
234.727029
 31
0.0
  0
LINE
  5
433
100
AcDbEntity
  8
0
370
    -3
390
0
  6
Continuous
100
AcDbLine
 10
-406.56924
 20
235.983032
 30
0.0
 11
-406.153395
 21
235.313702
 31
0.0
  0
LINE
  5
434
100
AcDbEntity
  8
0
370
    -3
390
0
  6
Continuous
100
AcDbLine
 10
-406.825316
 20
236.709297
 30
0.0
 11
-406.56924
 21
235.983032
 31
0.0
  0
LINE
  5
435
100
AcDbEntity
  8
0
370
    -3
390
0
  6
Continuous
100
AcDbLine
 10
-406.911782
 20
237.464588
 30
0.0
 11
-406.825316
 21
236.709297
 31
0.0
  0
LINE
  5
436
100
AcDbEntity
  8
0
370
    -3
390
0
  6
Continuous
100
AcDbLine
 10
-406.825316
 20
238.219878
 30
0.0
 11
-406.911782
 21
237.464588
 31
0.0
  0
LINE
  5
437
100
AcDbEntity
  8
0
370
    -3
390
0
  6
Continuous
100
AcDbLine
 10
-406.56924
 20
238.946144
 30
0.0
 11
-406.825316
 21
238.219878
 31
0.0
  0
LINE
  5
438
100
AcDbEntity
  8
0
370
    -3
390
0
  6
Continuous
100
AcDbLine
 10
-406.153395
 20
239.615474
 30
0.0
 11
-406.56924
 21
238.946144
 31
0.0
  0
LINE
  5
439
100
AcDbEntity
  8
0
370
    -3
390
0
  6
Continuous
100
AcDbLine
 10
-405.593763
 20
240.202146
 30
0.0
 11
-406.153395
 21
239.615474
 31
0.0
  0
LINE
  5
43A
100
AcDbEntity
  8
0
370
    -3
390
0
  6
Continuous
100
AcDbLine
 10
-404.911848
 20
240.683616
 30
0.0
 11
-405.593763
 21
240.202146
 31
0.0
  0
LINE
  5
43B
100
AcDbEntity
  8
0
370
    -3
390
0
  6
Continuous
100
AcDbLine
 10
-404.133858
 20
241.041381
 30
0.0
 11
-404.911848
 21
240.683616
 31
0.0
  0
LINE
  5
43C
100
AcDbEntity
  8
0
370
    -3
390
0
  6
Continuous
100
AcDbLine
 10
-403.289689
 20
241.261691
 30
0.0
 11
-404.133858
 21
241.041381
 31
0.0
  0
LINE
  5
43D
100
AcDbEntity
  8
0
370
    -3
390
0
  6
Continuous
100
AcDbLine
 10
-402.411782
 20
241.33608
 30
0.0
 11
-403.289689
 21
241.261691
 31
0.0
  0
LINE
  5
43E
100
AcDbEntity
  8
0
370
    -3
390
0
  6
Continuous
100
AcDbLine
 10
-401.533876
 20
241.261691
 30
0.0
 11
-402.411782
 21
241.33608
 31
0.0
  0
LINE
  5
43F
100
AcDbEntity
  8
0
370
    -3
390
0
  6
Continuous
100
AcDbLine
 10
-400.689707
 20
241.041381
 30
0.0
 11
-401.533876
 21
241.261691
 31
0.0
  0
LINE
  5
440
100
AcDbEntity
  8
0
370
    -3
390
0
  6
Continuous
100
AcDbLine
 10
-399.911716
 20
240.683616
 30
0.0
 11
-400.689707
 21
241.041381
 31
0.0
  0
LINE
  5
441
100
AcDbEntity
  8
0
370
    -3
390
0
  6
Continuous
100
AcDbLine
 10
-399.229802
 20
240.202146
 30
0.0
 11
-399.911716
 21
240.683616
 31
0.0
  0
LINE
  5
442
100
AcDbEntity
  8
0
370
    -3
390
0
  6
Continuous
100
AcDbLine
 10
-398.670169
 20
239.615474
 30
0.0
 11
-399.229802
 21
240.202146
 31
0.0
  0
LINE
  5
443
100
AcDbEntity
  8
0
370
    -3
390
0
  6
Continuous
100
AcDbLine
 10
-398.254324
 20
238.946144
 30
0.0
 11
-398.670169
 21
239.615474
 31
0.0
  0
LINE
  5
444
100
AcDbEntity
  8
0
370
    -3
390
0
  6
Continuous
100
AcDbLine
 10
-397.998248
 20
238.219878
 30
0.0
 11
-398.254324
 21
238.946144
 31
0.0
  0
LINE
  5
445
100
AcDbEntity
  8
0
370
    -3
390
0
  6
Continuous
100
AcDbLine
 10
-397.911782
 20
237.464588
 30
0.0
 11
-397.998248
 21
238.219878
 31
0.0
  0
LINE
  5
446
100
AcDbEntity
  8
0
370
    -3
390
0
  6
Continuous
100
AcDbLine
 10
-397.690541
 20
238.660127
 30
0.0
 11
-398.368454
 21
239.163933
 31
0.0
  0
LINE
  5
447
100
AcDbEntity
  8
0
370
    -3
390
0
  6
Continuous
100
AcDbLine
 10
-397.142846
 20
238.08587
 30
0.0
 11
-397.690541
 21
238.660127
 31
0.0
  0
LINE
  5
448
100
AcDbEntity
  8
0
370
    -3
390
0
  6
Continuous
100
AcDbLine
 10
-396.740475
 20
237.457001
 30
0.0
 11
-397.142846
 21
238.08587
 31
0.0
  0
LINE
  5
449
100
AcDbEntity
  8
0
370
    -3
390
0
  6
Continuous
100
AcDbLine
 10
-396.494526
 20
236.790866
 30
0.0
 11
-396.740475
 21
237.457001
 31
0.0
  0
LINE
  5
44A
100
AcDbEntity
  8
0
370
    -3
390
0
  6
Continuous
100
AcDbLine
 10
-396.411782
 20
236.105836
 30
0.0
 11
-396.494526
 21
236.790866
 31
0.0
  0
LINE
  5
44B
100
AcDbEntity
  8
0
370
    -3
390
0
  6
Continuous
100
AcDbLine
 10
-396.52707
 20
235.298341
 30
0.0
 11
-396.411782
 21
236.105836
 31
0.0
  0
LINE
  5
44C
100
AcDbEntity
  8
0
370
    -3
390
0
  6
Continuous
100
AcDbLine
 10
-396.868505
 20
234.521876
 30
0.0
 11
-396.52707
 21
235.298341
 31
0.0
  0
LINE
  5
44D
100
AcDbEntity
  8
0
370
    -3
390
0
  6
Continuous
100
AcDbLine
 10
-397.422964
 20
233.806283
 30
0.0
 11
-396.868505
 21
234.521876
 31
0.0
  0
LINE
  5
44E
100
AcDbEntity
  8
0
370
    -3
390
0
  6
Continuous
100
AcDbLine
 10
-398.169141
 20
233.17906
 30
0.0
 11
-397.422964
 21
233.806283
 31
0.0
  0
LINE
  5
44F
100
AcDbEntity
  8
0
370
    -3
390
0
  6
Continuous
100
AcDbLine
 10
-399.078361
 20
232.664311
 30
0.0
 11
-398.169141
 21
233.17906
 31
0.0
  0
LINE
  5
450
100
AcDbEntity
  8
0
370
    -3
390
0
  6
Continuous
100
AcDbLine
 10
-400.115681
 20
232.281818
 30
0.0
 11
-399.078361
 21
232.664311
 31
0.0
  0
LINE
  5
451
100
AcDbEntity
  8
0
370
    -3
390
0
  6
Continuous
100
AcDbLine
 10
-401.24124
 20
232.046281
 30
0.0
 11
-400.115681
 21
232.281818
 31
0.0
  0
LINE
  5
452
100
AcDbEntity
  8
0
370
    -3
390
0
  6
Continuous
100
AcDbLine
 10
-402.411782
 20
231.966749
 30
0.0
 11
-401.24124
 21
232.046281
 31
0.0
  0
LINE
  5
453
100
AcDbEntity
  8
0
370
    -3
390
0
  6
Continuous
100
AcDbLine
 10
-403.582324
 20
232.046281
 30
0.0
 11
-402.411782
 21
231.966749
 31
0.0
  0
LINE
  5
454
100
AcDbEntity
  8
0
370
    -3
390
0
  6
Continuous
100
AcDbLine
 10
-404.707883
 20
232.281818
 30
0.0
 11
-403.582324
 21
232.046281
 31
0.0
  0
LINE
  5
455
100
AcDbEntity
  8
0
370
    -3
390
0
  6
Continuous
100
AcDbLine
 10
-405.745203
 20
232.664311
 30
0.0
 11
-404.707883
 21
232.281818
 31
0.0
  0
LINE
  5
456
100
AcDbEntity
  8
0
370
    -3
390
0
  6
Continuous
100
AcDbLine
 10
-406.654423
 20
233.17906
 30
0.0
 11
-405.745203
 21
232.664311
 31
0.0
  0
LINE
  5
457
100
AcDbEntity
  8
0
370
    -3
390
0
  6
Continuous
100
AcDbLine
 10
-407.4006
 20
233.806283
 30
0.0
 11
-406.654423
 21
233.17906
 31
0.0
  0
LINE
  5
458
100
AcDbEntity
  8
0
370
    -3
390
0
  6
Continuous
100
AcDbLine
 10
-407.955059
 20
234.521876
 30
0.0
 11
-407.4006
 21
233.806283
 31
0.0
  0
LINE
  5
459
100
AcDbEntity
  8
0
370
    -3
390
0
  6
Continuous
100
AcDbLine
 10
-408.296494
 20
235.298341
 30
0.0
 11
-407.955059
 21
234.521876
 31
0.0
  0
LINE
  5
45A
100
AcDbEntity
  8
0
370
    -3
390
0
  6
Continuous
100
AcDbLine
 10
-408.411782
 20
236.105836
 30
0.0
 11
-408.296494
 21
235.298341
 31
0.0
  0
LINE
  5
45B
100
AcDbEntity
  8
0
370
    -3
390
0
  6
Continuous
100
AcDbLine
 10
-402.411782
 20
239.108529
 30
0.0
 11
-404.411782
 21
240.404061
 31
0.0
  0
LINE
  5
45C
100
AcDbEntity
  8
0
370
    -3
390
0
  6
Continuous
100
AcDbLine
 10
-402.411782
 20
239.108529
 30
0.0
 11
-404.411782
 21
237.575634
 31
0.0
  0
LINE
  5
45D
100
AcDbEntity
  8
0
370
    -3
390
0
  6
Continuous
100
AcDbLine
 10
-402.411782
 20
239.108529
 30
0.0
 11
-400.411782
 21
237.575634
 31
0.0
  0
LINE
  5
45E
100
AcDbEntity
  8
0
370
    -3
390
0
  6
Continuous
100
AcDbLine
 10
-402.411782
 20
239.108529
 30
0.0
 11
-400.411782
 21
240.404061
 31
0.0
  0
ARC
  5
45F
100
AcDbEntity
  8
0
370
    -3
390
0
  6
Continuous
100
AcDbCircle
 10
-520.911782
 20
75.069218
 30
0.0
 40
5.0
100
AcDbArc
 50
180.0
 51
240.0
  0
ARC
  5
460
100
AcDbEntity
  8
0
370
    -3
390
0
  6
Continuous
100
AcDbCircle
 10
-479.566881
 20
115.861959
 30
0.0
 40
61.0
100
AcDbArc
 50
240.0
 51
270.0
  0
LINE
  5
461
100
AcDbEntity
  8
0
370
    -3
390
0
  6
Continuous
100
AcDbLine
 10
-523.411782
 20
70.739091
 30
0.0
 11
-510.066881
 21
63.034409
 31
0.0
  0
ARC
  5
462
100
AcDbEntity
  8
0
370
    -3
390
0
  6
Continuous
100
AcDbCircle
 10
-520.911782
 20
240.654699
 30
0.0
 40
5.0
100
AcDbArc
 50
120.0
 51
180.0
  0
LINE
  5
463
100
AcDbEntity
  8
0
370
    -3
390
0
  6
Continuous
100
AcDbLine
 10
-375.911782
 20
260.861959
 30
0.0
 11
-479.566881
 21
260.861959
 31
0.0
  0
ARC
  5
464
100
AcDbEntity
  8
0
370
    -3
390
0
  6
Continuous
100
AcDbCircle
 10
-479.566881
 20
199.861959
 30
0.0
 40
61.0
100
AcDbArc
 50
90.0
 51
120.0
  0
LINE
  5
465
100
AcDbEntity
  8
0
370
    -3
390
0
  6
Continuous
100
AcDbLine
 10
-523.411782
 20
244.984826
 30
0.0
 11
-510.066881
 21
252.689508
 31
0.0
  0
LINE
  5
466
100
AcDbEntity
  8
0
370
    -3
390
0
  6
Continuous
100
AcDbLine
 10
-375.911782
 20
254.861959
 30
0.0
 11
-175.911782
 21
254.861959
 31
0.0
  0
LINE
  5
467
100
AcDbEntity
  8
0
370
    -3
390
0
  6
Continuous
100
AcDbLine
 10
-375.911782
 20
257.861959
 30
0.0
 11
-175.911782
 21
257.861959
 31
0.0
  0
LINE
  5
468
100
AcDbEntity
  8
0
370
    -3
390
0
  6
Continuous
100
AcDbLine
 10
-375.911782
 20
253.361959
 30
0.0
 11
-175.911782
 21
253.361959
 31
0.0
  0
LINE
  5
469
100
AcDbEntity
  8
0
370
    -3
390
0
  6
Continuous
100
AcDbLine
 10
-375.911782
 20
250.861959
 30
0.0
 11
-175.911782
 21
250.861959
 31
0.0
  0
LINE
  5
46A
100
AcDbEntity
  8
0
370
    -3
390
0
  6
Continuous
100
AcDbLine
 10
-375.911782
 20
246.861959
 30
0.0
 11
-175.911782
 21
246.861959
 31
0.0
  0
LINE
  5
46B
100
AcDbEntity
  8
0
370
    -3
390
0
  6
Continuous
100
AcDbLine
 10
-375.911782
 20
235.031682
 30
0.0
 11
-175.911782
 21
235.031682
 31
0.0
  0
LINE
  5
46C
100
AcDbEntity
  8
0
370
    -3
390
0
  6
Continuous
100
AcDbLine
 10
-375.911782
 20
226.5464
 30
0.0
 11
-175.911782
 21
226.5464
 31
0.0
  0
LINE
  5
46D
100
AcDbEntity
  8
0
370
    -3
390
0
  6
Continuous
100
AcDbLine
 10
-375.911782
 20
211.626531
 30
0.0
 11
-175.911782
 21
211.626531
 31
0.0
  0
LINE
  5
46E
100
AcDbEntity
  8
0
370
    -3
390
0
  6
Continuous
100
AcDbLine
 10
-375.911782
 20
209.09562
 30
0.0
 11
-175.911782
 21
209.09562
 31
0.0
  0
LINE
  5
46F
100
AcDbEntity
  8
0
370
    -3
390
0
  6
Continuous
100
AcDbLine
 10
-375.911782
 20
201.114208
 30
0.0
 11
-175.911782
 21
201.114208
 31
0.0
  0
LINE
  5
470
100
AcDbEntity
  8
0
370
    -3
390
0
  6
Continuous
100
AcDbLine
 10
-375.911782
 20
60.861959
 30
0.0
 11
-175.911782
 21
60.861959
 31
0.0
  0
LINE
  5
471
100
AcDbEntity
  8
0
370
    -3
390
0
  6
Continuous
100
AcDbLine
 10
-375.911782
 20
62.361959
 30
0.0
 11
-175.911782
 21
62.361959
 31
0.0
  0
LINE
  5
472
100
AcDbEntity
  8
0
370
    -3
390
0
  6
Continuous
100
AcDbLine
 10
-375.911782
 20
64.861959
 30
0.0
 11
-175.911782
 21
64.861959
 31
0.0
  0
LINE
  5
473
100
AcDbEntity
  8
0
370
    -3
390
0
  6
Continuous
100
AcDbLine
 10
-375.911782
 20
68.861959
 30
0.0
 11
-175.911782
 21
68.861959
 31
0.0
  0
LINE
  5
474
100
AcDbEntity
  8
0
370
    -3
390
0
  6
Continuous
100
AcDbLine
 10
-375.911782
 20
80.692235
 30
0.0
 11
-175.911782
 21
80.692235
 31
0.0
  0
LINE
  5
475
100
AcDbEntity
  8
0
370
    -3
390
0
  6
Continuous
100
AcDbLine
 10
-375.911782
 20
89.177517
 30
0.0
 11
-175.911782
 21
89.177517
 31
0.0
  0
LINE
  5
476
100
AcDbEntity
  8
0
370
    -3
390
0
  6
Continuous
100
AcDbLine
 10
-175.911782
 20
57.861959
 30
0.0
 11
-175.911782
 21
257.861959
 31
0.0
  0
LINE
  5
477
100
AcDbEntity
  8
0
370
    -3
390
0
  6
Continuous
100
AcDbLine
 10
-375.911782
 20
57.861959
 30
0.0
 11
-175.911782
 21
57.861959
 31
0.0
  0
LINE
  5
478
100
AcDbEntity
  8
0
370
    -3
390
0
  6
Continuous
100
AcDbLine
 10
-408.411782
 20
80.904178
 30
0.0
 11
-408.411782
 21
79.618081
 31
0.0
  0
LINE
  5
479
100
AcDbEntity
  8
0
370
    -3
390
0
  6
Continuous
100
AcDbLine
 10
-396.411782
 20
80.904178
 30
0.0
 11
-396.411782
 21
79.618081
 31
0.0
  0
LINE
  5
47A
100
AcDbEntity
  8
0
370
    -3
390
0
  6
Continuous
100
AcDbLine
 10
-407.133023
 20
77.06379
 30
0.0
 11
-406.45511
 21
76.559984
 31
0.0
  0
LINE
  5
47B
100
AcDbEntity
  8
0
370
    -3
390
0
  6
Continuous
100
AcDbLine
 10
-407.680718
 20
77.638047
 30
0.0
 11
-407.133023
 21
77.06379
 31
0.0
  0
LINE
  5
47C
100
AcDbEntity
  8
0
370
    -3
390
0
  6
Continuous
100
AcDbLine
 10
-408.083089
 20
78.266916
 30
0.0
 11
-407.680718
 21
77.638047
 31
0.0
  0
LINE
  5
47D
100
AcDbEntity
  8
0
370
    -3
390
0
  6
Continuous
100
AcDbLine
 10
-408.329038
 20
78.933051
 30
0.0
 11
-408.083089
 21
78.266916
 31
0.0
  0
LINE
  5
47E
100
AcDbEntity
  8
0
370
    -3
390
0
  6
Continuous
100
AcDbLine
 10
-408.411782
 20
79.618081
 30
0.0
 11
-408.329038
 21
78.933051
 31
0.0
  0
LINE
  5
47F
100
AcDbEntity
  8
0
370
    -3
390
0
  6
Continuous
100
AcDbLine
 10
-408.296494
 20
81.731876
 30
0.0
 11
-408.411782
 21
80.904178
 31
0.0
  0
LINE
  5
480
100
AcDbEntity
  8
0
370
    -3
390
0
  6
Continuous
100
AcDbLine
 10
-407.955059
 20
82.527766
 30
0.0
 11
-408.296494
 21
81.731876
 31
0.0
  0
LINE
  5
481
100
AcDbEntity
  8
0
370
    -3
390
0
  6
Continuous
100
AcDbLine
 10
-407.4006
 20
83.261263
 30
0.0
 11
-407.955059
 21
82.527766
 31
0.0
  0
LINE
  5
482
100
AcDbEntity
  8
0
370
    -3
390
0
  6
Continuous
100
AcDbLine
 10
-406.654423
 20
83.904178
 30
0.0
 11
-407.4006
 21
83.261263
 31
0.0
  0
LINE
  5
483
100
AcDbEntity
  8
0
370
    -3
390
0
  6
Continuous
100
AcDbLine
 10
-405.745203
 20
84.431805
 30
0.0
 11
-406.654423
 21
83.904178
 31
0.0
  0
LINE
  5
484
100
AcDbEntity
  8
0
370
    -3
390
0
  6
Continuous
100
AcDbLine
 10
-404.707883
 20
84.823867
 30
0.0
 11
-405.745203
 21
84.431805
 31
0.0
  0
LINE
  5
485
100
AcDbEntity
  8
0
370
    -3
390
0
  6
Continuous
100
AcDbLine
 10
-403.582324
 20
85.065297
 30
0.0
 11
-404.707883
 21
84.823867
 31
0.0
  0
LINE
  5
486
100
AcDbEntity
  8
0
370
    -3
390
0
  6
Continuous
100
AcDbLine
 10
-402.411782
 20
85.146819
 30
0.0
 11
-403.582324
 21
85.065297
 31
0.0
  0
LINE
  5
487
100
AcDbEntity
  8
0
370
    -3
390
0
  6
Continuous
100
AcDbLine
 10
-401.24124
 20
85.065297
 30
0.0
 11
-402.411782
 21
85.146819
 31
0.0
  0
LINE
  5
488
100
AcDbEntity
  8
0
370
    -3
390
0
  6
Continuous
100
AcDbLine
 10
-400.115681
 20
84.823867
 30
0.0
 11
-401.24124
 21
85.065297
 31
0.0
  0
LINE
  5
489
100
AcDbEntity
  8
0
370
    -3
390
0
  6
Continuous
100
AcDbLine
 10
-399.078361
 20
84.431805
 30
0.0
 11
-400.115681
 21
84.823867
 31
0.0
  0
LINE
  5
48A
100
AcDbEntity
  8
0
370
    -3
390
0
  6
Continuous
100
AcDbLine
 10
-398.169141
 20
83.904178
 30
0.0
 11
-399.078361
 21
84.431805
 31
0.0
  0
LINE
  5
48B
100
AcDbEntity
  8
0
370
    -3
390
0
  6
Continuous
100
AcDbLine
 10
-397.422964
 20
83.261263
 30
0.0
 11
-398.169141
 21
83.904178
 31
0.0
  0
LINE
  5
48C
100
AcDbEntity
  8
0
370
    -3
390
0
  6
Continuous
100
AcDbLine
 10
-396.868505
 20
82.527766
 30
0.0
 11
-397.422964
 21
83.261263
 31
0.0
  0
LINE
  5
48D
100
AcDbEntity
  8
0
370
    -3
390
0
  6
Continuous
100
AcDbLine
 10
-396.52707
 20
81.731876
 30
0.0
 11
-396.868505
 21
82.527766
 31
0.0
  0
LINE
  5
48E
100
AcDbEntity
  8
0
370
    -3
390
0
  6
Continuous
100
AcDbLine
 10
-396.411782
 20
80.904178
 30
0.0
 11
-396.52707
 21
81.731876
 31
0.0
  0
LINE
  5
48F
100
AcDbEntity
  8
0
370
    -3
390
0
  6
Continuous
100
AcDbLine
 10
-407.411782
 20
79.231684
 30
0.0
 11
-407.411782
 21
78.948842
 31
0.0
  0
LINE
  5
490
100
AcDbEntity
  8
0
370
    -3
390
0
  6
Continuous
100
AcDbLine
 10
-397.411782
 20
79.231684
 30
0.0
 11
-397.411782
 21
78.948842
 31
0.0
  0
LINE
  5
491
100
AcDbEntity
  8
0
370
    -3
390
0
  6
Continuous
100
AcDbLine
 10
-407.12847
 20
77.77563
 30
0.0
 11
-406.72796
 21
77.164099
 31
0.0
  0
LINE
  5
492
100
AcDbEntity
  8
0
370
    -3
390
0
  6
Continuous
100
AcDbLine
 10
-407.357605
 20
78.429788
 30
0.0
 11
-407.12847
 21
77.77563
 31
0.0
  0
LINE
  5
493
100
AcDbEntity
  8
0
370
    -3
390
0
  6
Continuous
100
AcDbLine
 10
-407.407039
 20
79.102805
 30
0.0
 11
-407.357605
 21
78.429788
 31
0.0
  0
LINE
  5
494
100
AcDbEntity
  8
0
370
    -3
390
0
  6
Continuous
100
AcDbLine
 10
-407.274975
 20
79.770228
 30
0.0
 11
-407.407039
 21
79.102805
 31
0.0
  0
LINE
  5
495
100
AcDbEntity
  8
0
370
    -3
390
0
  6
Continuous
100
AcDbLine
 10
-406.966213
 20
80.407807
 30
0.0
 11
-407.274975
 21
79.770228
 31
0.0
  0
LINE
  5
496
100
AcDbEntity
  8
0
370
    -3
390
0
  6
Continuous
100
AcDbLine
 10
-406.49197
 20
80.992376
 30
0.0
 11
-406.966213
 21
80.407807
 31
0.0
  0
LINE
  5
497
100
AcDbEntity
  8
0
370
    -3
390
0
  6
Continuous
100
AcDbLine
 10
-405.869477
 20
81.502696
 30
0.0
 11
-406.49197
 21
80.992376
 31
0.0
  0
LINE
  5
498
100
AcDbEntity
  8
0
370
    -3
390
0
  6
Continuous
100
AcDbLine
 10
-405.121353
 20
81.920224
 30
0.0
 11
-405.869477
 21
81.502696
 31
0.0
  0
LINE
  5
499
100
AcDbEntity
  8
0
370
    -3
390
0
  6
Continuous
100
AcDbLine
 10
-404.27478
 20
82.22979
 30
0.0
 11
-405.121353
 21
81.920224
 31
0.0
  0
LINE
  5
49A
100
AcDbEntity
  8
0
370
    -3
390
0
  6
Continuous
100
AcDbLine
 10
-403.360517
 20
82.420146
 30
0.0
 11
-404.27478
 21
82.22979
 31
0.0
  0
LINE
  5
49B
100
AcDbEntity
  8
0
370
    -3
390
0
  6
Continuous
100
AcDbLine
 10
-402.411782
 20
82.484376
 30
0.0
 11
-403.360517
 21
82.420146
 31
0.0
  0
LINE
  5
49C
100
AcDbEntity
  8
0
370
    -3
390
0
  6
Continuous
100
AcDbLine
 10
-401.463047
 20
82.420146
 30
0.0
 11
-402.411782
 21
82.484376
 31
0.0
  0
LINE
  5
49D
100
AcDbEntity
  8
0
370
    -3
390
0
  6
Continuous
100
AcDbLine
 10
-400.548784
 20
82.22979
 30
0.0
 11
-401.463047
 21
82.420146
 31
0.0
  0
LINE
  5
49E
100
AcDbEntity
  8
0
370
    -3
390
0
  6
Continuous
100
AcDbLine
 10
-399.702211
 20
81.920224
 30
0.0
 11
-400.548784
 21
82.22979
 31
0.0
  0
LINE
  5
49F
100
AcDbEntity
  8
0
370
    -3
390
0
  6
Continuous
100
AcDbLine
 10
-398.954087
 20
81.502696
 30
0.0
 11
-399.702211
 21
81.920224
 31
0.0
  0
LINE
  5
4A0
100
AcDbEntity
  8
0
370
    -3
390
0
  6
Continuous
100
AcDbLine
 10
-398.331595
 20
80.992376
 30
0.0
 11
-398.954087
 21
81.502696
 31
0.0
  0
LINE
  5
4A1
100
AcDbEntity
  8
0
370
    -3
390
0
  6
Continuous
100
AcDbLine
 10
-397.857352
 20
80.407807
 30
0.0
 11
-398.331595
 21
80.992376
 31
0.0
  0
LINE
  5
4A2
100
AcDbEntity
  8
0
370
    -3
390
0
  6
Continuous
100
AcDbLine
 10
-397.548589
 20
79.770228
 30
0.0
 11
-397.857352
 21
80.407807
 31
0.0
  0
LINE
  5
4A3
100
AcDbEntity
  8
0
370
    -3
390
0
  6
Continuous
100
AcDbLine
 10
-397.416525
 20
79.102805
 30
0.0
 11
-397.548589
 21
79.770228
 31
0.0
  0
LINE
  5
4A4
100
AcDbEntity
  8
0
370
    -3
390
0
  6
Continuous
100
AcDbLine
 10
-397.465959
 20
78.429788
 30
0.0
 11
-397.416525
 21
79.102805
 31
0.0
  0
LINE
  5
4A5
100
AcDbEntity
  8
0
370
    -3
390
0
  6
Continuous
100
AcDbLine
 10
-397.695094
 20
77.77563
 30
0.0
 11
-397.465959
 21
78.429788
 31
0.0
  0
LINE
  5
4A6
100
AcDbEntity
  8
0
370
    -3
390
0
  6
Continuous
100
AcDbLine
 10
-398.095605
 20
77.164099
 30
0.0
 11
-397.695094
 21
77.77563
 31
0.0
  0
LINE
  5
4A7
100
AcDbEntity
  8
0
370
    -3
390
0
  6
Continuous
100
AcDbLine
 10
-407.315708
 20
79.976613
 30
0.0
 11
-407.411782
 21
79.231684
 31
0.0
  0
LINE
  5
4A8
100
AcDbEntity
  8
0
370
    -3
390
0
  6
Continuous
100
AcDbLine
 10
-407.03118
 20
80.692914
 30
0.0
 11
-407.315708
 21
79.976613
 31
0.0
  0
LINE
  5
4A9
100
AcDbEntity
  8
0
370
    -3
390
0
  6
Continuous
100
AcDbLine
 10
-406.56913
 20
81.353061
 30
0.0
 11
-407.03118
 21
80.692914
 31
0.0
  0
LINE
  5
4AA
100
AcDbEntity
  8
0
370
    -3
390
0
  6
Continuous
100
AcDbLine
 10
-405.947316
 20
81.931684
 30
0.0
 11
-406.56913
 21
81.353061
 31
0.0
  0
LINE
  5
4AB
100
AcDbEntity
  8
0
370
    -3
390
0
  6
Continuous
100
AcDbLine
 10
-405.189633
 20
82.406549
 30
0.0
 11
-405.947316
 21
81.931684
 31
0.0
  0
LINE
  5
4AC
100
AcDbEntity
  8
0
370
    -3
390
0
  6
Continuous
100
AcDbLine
 10
-404.325199
 20
82.759404
 30
0.0
 11
-405.189633
 21
82.406549
 31
0.0
  0
LINE
  5
4AD
100
AcDbEntity
  8
0
370
    -3
390
0
  6
Continuous
100
AcDbLine
 10
-403.387234
 20
82.976692
 30
0.0
 11
-404.325199
 21
82.759404
 31
0.0
  0
LINE
  5
4AE
100
AcDbEntity
  8
0
370
    -3
390
0
  6
Continuous
100
AcDbLine
 10
-402.411782
 20
83.050061
 30
0.0
 11
-403.387234
 21
82.976692
 31
0.0
  0
LINE
  5
4AF
100
AcDbEntity
  8
0
370
    -3
390
0
  6
Continuous
100
AcDbLine
 10
-401.43633
 20
82.976692
 30
0.0
 11
-402.411782
 21
83.050061
 31
0.0
  0
LINE
  5
4B0
100
AcDbEntity
  8
0
370
    -3
390
0
  6
Continuous
100
AcDbLine
 10
-400.498365
 20
82.759404
 30
0.0
 11
-401.43633
 21
82.976692
 31
0.0
  0
LINE
  5
4B1
100
AcDbEntity
  8
0
370
    -3
390
0
  6
Continuous
100
AcDbLine
 10
-399.633931
 20
82.406549
 30
0.0
 11
-400.498365
 21
82.759404
 31
0.0
  0
LINE
  5
4B2
100
AcDbEntity
  8
0
370
    -3
390
0
  6
Continuous
100
AcDbLine
 10
-398.876248
 20
81.931684
 30
0.0
 11
-399.633931
 21
82.406549
 31
0.0
  0
LINE
  5
4B3
100
AcDbEntity
  8
0
370
    -3
390
0
  6
Continuous
100
AcDbLine
 10
-398.254434
 20
81.353061
 30
0.0
 11
-398.876248
 21
81.931684
 31
0.0
  0
LINE
  5
4B4
100
AcDbEntity
  8
0
370
    -3
390
0
  6
Continuous
100
AcDbLine
 10
-397.792384
 20
80.692914
 30
0.0
 11
-398.254434
 21
81.353061
 31
0.0
  0
LINE
  5
4B5
100
AcDbEntity
  8
0
370
    -3
390
0
  6
Continuous
100
AcDbLine
 10
-397.507856
 20
79.976613
 30
0.0
 11
-397.792384
 21
80.692914
 31
0.0
  0
LINE
  5
4B6
100
AcDbEntity
  8
0
370
    -3
390
0
  6
Continuous
100
AcDbLine
 10
-397.411782
 20
79.231684
 30
0.0
 11
-397.507856
 21
79.976613
 31
0.0
  0
LINE
  5
4B7
100
AcDbEntity
  8
0
370
    -3
390
0
  6
Continuous
100
AcDbLine
 10
-397.998248
 20
77.504039
 30
0.0
 11
-397.911782
 21
78.259329
 31
0.0
  0
LINE
  5
4B8
100
AcDbEntity
  8
0
370
    -3
390
0
  6
Continuous
100
AcDbLine
 10
-398.254324
 20
76.777773
 30
0.0
 11
-397.998248
 21
77.504039
 31
0.0
  0
LINE
  5
4B9
100
AcDbEntity
  8
0
370
    -3
390
0
  6
Continuous
100
AcDbLine
 10
-398.670169
 20
76.108443
 30
0.0
 11
-398.254324
 21
76.777773
 31
0.0
  0
LINE
  5
4BA
100
AcDbEntity
  8
0
370
    -3
390
0
  6
Continuous
100
AcDbLine
 10
-399.229802
 20
75.521771
 30
0.0
 11
-398.670169
 21
76.108443
 31
0.0
  0
LINE
  5
4BB
100
AcDbEntity
  8
0
370
    -3
390
0
  6
Continuous
100
AcDbLine
 10
-399.911716
 20
75.040301
 30
0.0
 11
-399.229802
 21
75.521771
 31
0.0
  0
LINE
  5
4BC
100
AcDbEntity
  8
0
370
    -3
390
0
  6
Continuous
100
AcDbLine
 10
-400.689707
 20
74.682536
 30
0.0
 11
-399.911716
 21
75.040301
 31
0.0
  0
LINE
  5
4BD
100
AcDbEntity
  8
0
370
    -3
390
0
  6
Continuous
100
AcDbLine
 10
-401.533876
 20
74.462226
 30
0.0
 11
-400.689707
 21
74.682536
 31
0.0
  0
LINE
  5
4BE
100
AcDbEntity
  8
0
370
    -3
390
0
  6
Continuous
100
AcDbLine
 10
-402.411782
 20
74.387837
 30
0.0
 11
-401.533876
 21
74.462226
 31
0.0
  0
LINE
  5
4BF
100
AcDbEntity
  8
0
370
    -3
390
0
  6
Continuous
100
AcDbLine
 10
-403.289689
 20
74.462226
 30
0.0
 11
-402.411782
 21
74.387837
 31
0.0
  0
LINE
  5
4C0
100
AcDbEntity
  8
0
370
    -3
390
0
  6
Continuous
100
AcDbLine
 10
-404.133858
 20
74.682536
 30
0.0
 11
-403.289689
 21
74.462226
 31
0.0
  0
LINE
  5
4C1
100
AcDbEntity
  8
0
370
    -3
390
0
  6
Continuous
100
AcDbLine
 10
-404.911848
 20
75.040301
 30
0.0
 11
-404.133858
 21
74.682536
 31
0.0
  0
LINE
  5
4C2
100
AcDbEntity
  8
0
370
    -3
390
0
  6
Continuous
100
AcDbLine
 10
-405.593763
 20
75.521771
 30
0.0
 11
-404.911848
 21
75.040301
 31
0.0
  0
LINE
  5
4C3
100
AcDbEntity
  8
0
370
    -3
390
0
  6
Continuous
100
AcDbLine
 10
-406.153395
 20
76.108443
 30
0.0
 11
-405.593763
 21
75.521771
 31
0.0
  0
LINE
  5
4C4
100
AcDbEntity
  8
0
370
    -3
390
0
  6
Continuous
100
AcDbLine
 10
-406.56924
 20
76.777773
 30
0.0
 11
-406.153395
 21
76.108443
 31
0.0
  0
LINE
  5
4C5
100
AcDbEntity
  8
0
370
    -3
390
0
  6
Continuous
100
AcDbLine
 10
-406.825316
 20
77.504039
 30
0.0
 11
-406.56924
 21
76.777773
 31
0.0
  0
LINE
  5
4C6
100
AcDbEntity
  8
0
370
    -3
390
0
  6
Continuous
100
AcDbLine
 10
-406.911782
 20
78.259329
 30
0.0
 11
-406.825316
 21
77.504039
 31
0.0
  0
LINE
  5
4C7
100
AcDbEntity
  8
0
370
    -3
390
0
  6
Continuous
100
AcDbLine
 10
-406.825316
 20
79.01462
 30
0.0
 11
-406.911782
 21
78.259329
 31
0.0
  0
LINE
  5
4C8
100
AcDbEntity
  8
0
370
    -3
390
0
  6
Continuous
100
AcDbLine
 10
-406.56924
 20
79.740885
 30
0.0
 11
-406.825316
 21
79.01462
 31
0.0
  0
LINE
  5
4C9
100
AcDbEntity
  8
0
370
    -3
390
0
  6
Continuous
100
AcDbLine
 10
-406.153395
 20
80.410215
 30
0.0
 11
-406.56924
 21
79.740885
 31
0.0
  0
LINE
  5
4CA
100
AcDbEntity
  8
0
370
    -3
390
0
  6
Continuous
100
AcDbLine
 10
-405.593763
 20
80.996888
 30
0.0
 11
-406.153395
 21
80.410215
 31
0.0
  0
LINE
  5
4CB
100
AcDbEntity
  8
0
370
    -3
390
0
  6
Continuous
100
AcDbLine
 10
-404.911848
 20
81.478358
 30
0.0
 11
-405.593763
 21
80.996888
 31
0.0
  0
LINE
  5
4CC
100
AcDbEntity
  8
0
370
    -3
390
0
  6
Continuous
100
AcDbLine
 10
-404.133858
 20
81.836122
 30
0.0
 11
-404.911848
 21
81.478358
 31
0.0
  0
LINE
  5
4CD
100
AcDbEntity
  8
0
370
    -3
390
0
  6
Continuous
100
AcDbLine
 10
-403.289689
 20
82.056432
 30
0.0
 11
-404.133858
 21
81.836122
 31
0.0
  0
LINE
  5
4CE
100
AcDbEntity
  8
0
370
    -3
390
0
  6
Continuous
100
AcDbLine
 10
-402.411782
 20
82.130822
 30
0.0
 11
-403.289689
 21
82.056432
 31
0.0
  0
LINE
  5
4CF
100
AcDbEntity
  8
0
370
    -3
390
0
  6
Continuous
100
AcDbLine
 10
-401.533876
 20
82.056432
 30
0.0
 11
-402.411782
 21
82.130822
 31
0.0
  0
LINE
  5
4D0
100
AcDbEntity
  8
0
370
    -3
390
0
  6
Continuous
100
AcDbLine
 10
-400.689707
 20
81.836122
 30
0.0
 11
-401.533876
 21
82.056432
 31
0.0
  0
LINE
  5
4D1
100
AcDbEntity
  8
0
370
    -3
390
0
  6
Continuous
100
AcDbLine
 10
-399.911716
 20
81.478358
 30
0.0
 11
-400.689707
 21
81.836122
 31
0.0
  0
LINE
  5
4D2
100
AcDbEntity
  8
0
370
    -3
390
0
  6
Continuous
100
AcDbLine
 10
-399.229802
 20
80.996888
 30
0.0
 11
-399.911716
 21
81.478358
 31
0.0
  0
LINE
  5
4D3
100
AcDbEntity
  8
0
370
    -3
390
0
  6
Continuous
100
AcDbLine
 10
-398.670169
 20
80.410215
 30
0.0
 11
-399.229802
 21
80.996888
 31
0.0
  0
LINE
  5
4D4
100
AcDbEntity
  8
0
370
    -3
390
0
  6
Continuous
100
AcDbLine
 10
-398.254324
 20
79.740885
 30
0.0
 11
-398.670169
 21
80.410215
 31
0.0
  0
LINE
  5
4D5
100
AcDbEntity
  8
0
370
    -3
390
0
  6
Continuous
100
AcDbLine
 10
-397.998248
 20
79.01462
 30
0.0
 11
-398.254324
 21
79.740885
 31
0.0
  0
LINE
  5
4D6
100
AcDbEntity
  8
0
370
    -3
390
0
  6
Continuous
100
AcDbLine
 10
-397.911782
 20
78.259329
 30
0.0
 11
-397.998248
 21
79.01462
 31
0.0
  0
LINE
  5
4D7
100
AcDbEntity
  8
0
370
    -3
390
0
  6
Continuous
100
AcDbLine
 10
-396.494526
 20
78.933051
 30
0.0
 11
-396.411782
 21
79.618081
 31
0.0
  0
LINE
  5
4D8
100
AcDbEntity
  8
0
370
    -3
390
0
  6
Continuous
100
AcDbLine
 10
-396.740475
 20
78.266916
 30
0.0
 11
-396.494526
 21
78.933051
 31
0.0
  0
LINE
  5
4D9
100
AcDbEntity
  8
0
370
    -3
390
0
  6
Continuous
100
AcDbLine
 10
-397.142846
 20
77.638047
 30
0.0
 11
-396.740475
 21
78.266916
 31
0.0
  0
LINE
  5
4DA
100
AcDbEntity
  8
0
370
    -3
390
0
  6
Continuous
100
AcDbLine
 10
-397.690541
 20
77.06379
 30
0.0
 11
-397.142846
 21
77.638047
 31
0.0
  0
LINE
  5
4DB
100
AcDbEntity
  8
0
370
    -3
390
0
  6
Continuous
100
AcDbLine
 10
-398.368454
 20
76.559984
 30
0.0
 11
-397.690541
 21
77.06379
 31
0.0
  0
LINE
  5
4DC
100
AcDbEntity
  8
0
370
    -3
390
0
  6
Continuous
100
AcDbLine
 10
-408.296494
 20
80.425576
 30
0.0
 11
-408.411782
 21
79.618081
 31
0.0
  0
LINE
  5
4DD
100
AcDbEntity
  8
0
370
    -3
390
0
  6
Continuous
100
AcDbLine
 10
-407.955059
 20
81.202041
 30
0.0
 11
-408.296494
 21
80.425576
 31
0.0
  0
LINE
  5
4DE
100
AcDbEntity
  8
0
370
    -3
390
0
  6
Continuous
100
AcDbLine
 10
-407.4006
 20
81.917634
 30
0.0
 11
-407.955059
 21
81.202041
 31
0.0
  0
LINE
  5
4DF
100
AcDbEntity
  8
0
370
    -3
390
0
  6
Continuous
100
AcDbLine
 10
-406.654423
 20
82.544857
 30
0.0
 11
-407.4006
 21
81.917634
 31
0.0
  0
LINE
  5
4E0
100
AcDbEntity
  8
0
370
    -3
390
0
  6
Continuous
100
AcDbLine
 10
-405.745203
 20
83.059606
 30
0.0
 11
-406.654423
 21
82.544857
 31
0.0
  0
LINE
  5
4E1
100
AcDbEntity
  8
0
370
    -3
390
0
  6
Continuous
100
AcDbLine
 10
-404.707883
 20
83.442099
 30
0.0
 11
-405.745203
 21
83.059606
 31
0.0
  0
LINE
  5
4E2
100
AcDbEntity
  8
0
370
    -3
390
0
  6
Continuous
100
AcDbLine
 10
-403.582324
 20
83.677636
 30
0.0
 11
-404.707883
 21
83.442099
 31
0.0
  0
LINE
  5
4E3
100
AcDbEntity
  8
0
370
    -3
390
0
  6
Continuous
100
AcDbLine
 10
-402.411782
 20
83.757168
 30
0.0
 11
-403.582324
 21
83.677636
 31
0.0
  0
LINE
  5
4E4
100
AcDbEntity
  8
0
370
    -3
390
0
  6
Continuous
100
AcDbLine
 10
-401.24124
 20
83.677636
 30
0.0
 11
-402.411782
 21
83.757168
 31
0.0
  0
LINE
  5
4E5
100
AcDbEntity
  8
0
370
    -3
390
0
  6
Continuous
100
AcDbLine
 10
-400.115681
 20
83.442099
 30
0.0
 11
-401.24124
 21
83.677636
 31
0.0
  0
LINE
  5
4E6
100
AcDbEntity
  8
0
370
    -3
390
0
  6
Continuous
100
AcDbLine
 10
-399.078361
 20
83.059606
 30
0.0
 11
-400.115681
 21
83.442099
 31
0.0
  0
LINE
  5
4E7
100
AcDbEntity
  8
0
370
    -3
390
0
  6
Continuous
100
AcDbLine
 10
-398.169141
 20
82.544857
 30
0.0
 11
-399.078361
 21
83.059606
 31
0.0
  0
LINE
  5
4E8
100
AcDbEntity
  8
0
370
    -3
390
0
  6
Continuous
100
AcDbLine
 10
-397.422964
 20
81.917634
 30
0.0
 11
-398.169141
 21
82.544857
 31
0.0
  0
LINE
  5
4E9
100
AcDbEntity
  8
0
370
    -3
390
0
  6
Continuous
100
AcDbLine
 10
-396.868505
 20
81.202041
 30
0.0
 11
-397.422964
 21
81.917634
 31
0.0
  0
LINE
  5
4EA
100
AcDbEntity
  8
0
370
    -3
390
0
  6
Continuous
100
AcDbLine
 10
-396.52707
 20
80.425576
 30
0.0
 11
-396.868505
 21
81.202041
 31
0.0
  0
LINE
  5
4EB
100
AcDbEntity
  8
0
370
    -3
390
0
  6
Continuous
100
AcDbLine
 10
-396.411782
 20
79.618081
 30
0.0
 11
-396.52707
 21
80.425576
 31
0.0
  0
LINE
  5
4EC
100
AcDbEntity
  8
0
370
    -3
390
0
  6
Continuous
100
AcDbLine
 10
-402.411782
 20
76.615388
 30
0.0
 11
-404.411782
 21
75.319856
 31
0.0
  0
LINE
  5
4ED
100
AcDbEntity
  8
0
370
    -3
390
0
  6
Continuous
100
AcDbLine
 10
-402.411782
 20
76.615388
 30
0.0
 11
-404.411782
 21
78.148283
 31
0.0
  0
LINE
  5
4EE
100
AcDbEntity
  8
0
370
    -3
390
0
  6
Continuous
100
AcDbLine
 10
-402.411782
 20
76.615388
 30
0.0
 11
-400.411782
 21
78.148283
 31
0.0
  0
LINE
  5
4EF
100
AcDbEntity
  8
0
370
    -3
390
0
  6
Continuous
100
AcDbLine
 10
-402.411782
 20
76.615388
 30
0.0
 11
-400.411782
 21
75.319856
 31
0.0
  0
ARC
  5
4F0
100
AcDbEntity
  8
0
370
    -3
390
0
  6
Continuous
100
AcDbCircle
 10
1.588218
 20
235.861959
 30
0.0
 40
1.0
100
AcDbArc
 50
90.0
 51
180.0
  0
ARC
  5
4F1
100
AcDbEntity
  8
0
370
    -3
390
0
  6
Continuous
100
AcDbCircle
 10
62.588218
 20
235.861959
 30
0.0
 40
1.0
100
AcDbArc
 50
0.0
 51
90.0
  0
LINE
  5
4F2
100
AcDbEntity
  8
0
370
    -3
390
0
  6
Continuous
100
AcDbLine
 10
62.588218
 20
236.861959
 30
0.0
 11
1.588218
 21
236.861959
 31
0.0
  0
ARC
  5
4F3
100
AcDbEntity
  8
0
370
    -3
390
0
  6
Continuous
100
AcDbCircle
 10
1.588218
 20
79.861959
 30
0.0
 40
1.0
100
AcDbArc
 50
180.0
 51
270.0
  0
ARC
  5
4F4
100
AcDbEntity
  8
0
370
    -3
390
0
  6
Continuous
100
AcDbCircle
 10
62.588218
 20
79.861959
 30
0.0
 40
1.0
100
AcDbArc
 50
270.0
 51
0.0
  0
LINE
  5
4F5
100
AcDbEntity
  8
0
370
    -3
390
0
  6
Continuous
100
AcDbLine
 10
62.588218
 20
78.861959
 30
0.0
 11
1.588218
 21
78.861959
 31
0.0
  0
LINE
  5
4F6
100
AcDbEntity
  8
0
370
    -3
390
0
  6
Continuous
100
AcDbLine
 10
63.588218
 20
79.861959
 30
0.0
 11
63.588218
 21
82.861959
 31
0.0
  0
LINE
  5
4F7
100
AcDbEntity
  8
0
370
    -3
390
0
  6
Continuous
100
AcDbLine
 10
0.588218
 20
79.861959
 30
0.0
 11
0.588218
 21
82.861959
 31
0.0
  0
LINE
  5
4F8
100
AcDbEntity
  8
0
370
    -3
390
0
  6
Continuous
100
AcDbLine
 10
63.588218
 20
235.861959
 30
0.0
 11
63.588218
 21
232.861959
 31
0.0
  0
LINE
  5
4F9
100
AcDbEntity
  8
0
370
    -3
390
0
  6
Continuous
100
AcDbLine
 10
0.588218
 20
235.861959
 30
0.0
 11
0.588218
 21
232.861959
 31
0.0
  0
ARC
  5
4FA
100
AcDbEntity
  8
0
370
    -3
390
0
  6
Continuous
100
AcDbCircle
 10
-169.916782
 20
254.861959
 30
0.0
 40
3.0
100
AcDbArc
 50
0.0
 51
90.0
  0
ARC
  5
4FB
100
AcDbEntity
  8
0
370
    -3
390
0
  6
Continuous
100
AcDbCircle
 10
-161.916782
 20
246.861959
 30
0.0
 40
5.0
100
AcDbArc
 50
180.0
 51
270.0
  0
LINE
  5
4FC
100
AcDbEntity
  8
0
370
    -3
390
0
  6
Continuous
100
AcDbLine
 10
-150.291062
 20
241.861959
 30
0.0
 11
-161.916782
 21
241.861959
 31
0.0
  0
ARC
  5
4FD
100
AcDbEntity
  8
0
370
    -3
390
0
  6
Continuous
100
AcDbCircle
 10
-150.710037
 20
233.861959
 30
0.0
 40
8.0
100
AcDbArc
 50
1.5
 51
90.0
  0
LINE
  5
4FE
100
AcDbEntity
  8
0
370
    -3
390
0
  6
Continuous
100
AcDbLine
 10
-135.916923
 20
205.861959
 30
0.0
 11
-140.999932
 21
205.861959
 31
0.0
  0
ARC
  5
4FF
100
AcDbEntity
  8
0
370
    -3
390
0
  6
Continuous
100
AcDbCircle
 10
-135.916923
 20
206.861959
 30
0.0
 40
1.0
100
AcDbArc
 50
270.0
 51
0.0
  0
ARC
  5
500
100
AcDbEntity
  8
0
370
    -3
390
0
  6
Continuous
100
AcDbCircle
 10
-140.999932
 20
206.861959
 30
0.0
 40
1.0
100
AcDbArc
 50
181.5
 51
270.0
  0
ARC
  5
501
100
AcDbEntity
  8
0
370
    -3
390
0
  6
Continuous
100
AcDbCircle
 10
-137.600837
 20
85.861959
 30
0.0
 40
5.0
100
AcDbArc
 50
90.0
 51
178.5
  0
ARC
  5
502
100
AcDbEntity
  8
0
370
    -3
390
0
  6
Continuous
100
AcDbCircle
 10
-150.710037
 20
81.861959
 30
0.0
 40
8.0
100
AcDbArc
 50
270.0
 51
358.5
  0
LINE
  5
503
100
AcDbEntity
  8
0
370
    -3
390
0
  6
Continuous
100
AcDbLine
 10
-150.291062
 20
73.861959
 30
0.0
 11
-161.916782
 21
73.861959
 31
0.0
  0
ARC
  5
504
100
AcDbEntity
  8
0
370
    -3
390
0
  6
Continuous
100
AcDbCircle
 10
-161.916782
 20
68.861959
 30
0.0
 40
5.0
100
AcDbArc
 50
90.0
 51
180.0
  0
LINE
  5
505
100
AcDbEntity
  8
0
370
    -3
390
0
  6
Continuous
100
AcDbLine
 10
-134.716704
 20
195.861963
 30
0.0
 11
-134.716704
 21
195.861951
 31
0.0
  0
LINE
  5
506
100
AcDbEntity
  8
0
370
    -3
390
0
  6
Continuous
100
AcDbLine
 10
115.088218
 20
206.861959
 30
0.0
 11
-134.916923
 21
206.861959
 31
0.0
  0
LINE
  5
507
100
AcDbEntity
  8
0
370
    -3
390
0
  6
Continuous
100
AcDbLine
 10
89.588218
 20
87.861959
 30
0.0
 11
89.588218
 21
83.861959
 31
0.0
  0
LINE
  5
508
100
AcDbEntity
  8
0
370
    -3
390
0
  6
Continuous
100
AcDbLine
 10
89.588218
 20
83.861959
 30
0.0
 11
88.588218
 21
82.861959
 31
0.0
  0
LINE
  5
509
100
AcDbEntity
  8
0
370
    -3
390
0
  6
Continuous
100
AcDbLine
 10
-25.411782
 20
87.861959
 30
0.0
 11
-25.411782
 21
83.861959
 31
0.0
  0
ARC
  5
50A
100
AcDbEntity
  8
0
370
    -3
390
0
  6
Continuous
100
AcDbCircle
 10
-169.916782
 20
60.861959
 30
0.0
 40
3.0
100
AcDbArc
 50
270.0
 51
0.0
  0
LINE
  5
50B
100
AcDbEntity
  8
0
370
    -3
390
0
  6
Continuous
100
AcDbLine
 10
-140.717165
 20
157.861959
 30
0.0
 11
-142.712778
 21
234.071374
 31
0.0
  0
LINE
  5
50C
100
AcDbEntity
  8
0
370
    -3
390
0
  6
Continuous
100
AcDbLine
 10
-140.717165
 20
157.861959
 30
0.0
 11
-142.712778
 21
81.652543
 31
0.0
  0
LINE
  5
50D
100
AcDbEntity
  8
0
370
    -3
390
0
  6
Continuous
100
AcDbLine
 10
-134.912735
 20
90.861959
 30
0.0
 11
-137.600837
 21
90.861959
 31
0.0
  0
ARC
  5
50E
100
AcDbEntity
  8
0
370
    -3
390
0
  6
Continuous
100
AcDbCircle
 10
-134.912735
 20
87.861959
 30
0.0
 40
3.0
100
AcDbArc
 50
1.444126
 51
90.0
  0
LINE
  5
50F
100
AcDbEntity
  8
0
370
    -3
390
0
  6
Continuous
100
AcDbLine
 10
-134.911782
 20
206.861959
 30
0.0
 11
-131.911782
 21
87.861959
 31
0.0
  0
LINE
  5
510
100
AcDbEntity
  8
0
370
    -3
390
0
  6
Continuous
100
AcDbLine
 10
-25.411782
 20
83.861959
 30
0.0
 11
-24.411782
 21
82.861959
 31
0.0
  0
LINE
  5
511
100
AcDbEntity
  8
0
370
    -3
390
0
  6
Continuous
100
AcDbLine
 10
-24.411782
 20
82.861959
 30
0.0
 11
88.588218
 21
82.861959
 31
0.0
  0
LINE
  5
512
100
AcDbEntity
  8
0
370
    -3
390
0
  6
Continuous
100
AcDbLine
 10
-131.911782
 20
87.861959
 30
0.0
 11
112.088218
 21
87.861959
 31
0.0
  0
LINE
  5
513
100
AcDbEntity
  8
0
370
    -3
390
0
  6
Continuous
100
AcDbLine
 10
115.088218
 20
206.861959
 30
0.0
 11
112.088218
 21
87.861959
 31
0.0
  0
LINE
  5
514
100
AcDbEntity
  8
0
370
    -3
390
0
  6
Continuous
100
AcDbLine
 10
-169.916782
 20
257.861959
 30
0.0
 11
-175.911782
 21
257.861959
 31
0.0
  0
LINE
  5
515
100
AcDbEntity
  8
0
370
    -3
390
0
  6
Continuous
100
AcDbLine
 10
-175.911782
 20
57.861959
 30
0.0
 11
-175.911782
 21
257.861959
 31
0.0
  0
LINE
  5
516
100
AcDbEntity
  8
0
370
    -3
390
0
  6
Continuous
100
AcDbLine
 10
-169.916782
 20
57.861959
 30
0.0
 11
-175.911782
 21
57.861959
 31
0.0
  0
LINE
  5
517
100
AcDbEntity
  8
0
370
    -3
390
0
  6
CENTER
100
AcDbLine
 10
32.088218
 20
242.942062
 30
0.0
 11
32.088218
 21
73.565749
 31
0.0
  0
ARC
  5
518
100
AcDbEntity
  8
0
370
    -3
390
0
  6
Continuous
100
AcDbCircle
 10
-149.588831
 20
191.044824
 30
0.0
 40
8.0
100
AcDbArc
 50
1.5
 51
45.548626
  0
ARC
  5
519
100
AcDbEntity
  8
0
370
    -3
390
0
  6
Continuous
100
AcDbCircle
 10
-138.383972
 20
202.466345
 30
0.0
 40
8.0
100
AcDbArc
 50
181.5
 51
225.548626
  0
ARC
  5
51A
100
AcDbEntity
  8
0
370
    -3
390
0
  6
Continuous
100
AcDbCircle
 10
-149.36774
 20
182.601711
 30
0.0
 40
8.0
100
AcDbArc
 50
1.5
 51
46.647453
  0
ARC
  5
51B
100
AcDbEntity
  8
0
370
    -3
390
0
  6
Continuous
100
AcDbCircle
 10
-138.383972
 20
194.236007
 30
0.0
 40
8.0
100
AcDbArc
 50
181.5
 51
226.647453
  0
LINE
  5
51C
100
AcDbEntity
  8
0
370
    -3
390
0
  6
Continuous
100
AcDbLine
 10
-146.38123
 20
194.026591
 30
0.0
 11
-147.035941
 21
219.028986
 31
0.0
  0
LINE
  5
51D
100
AcDbEntity
  8
0
370
    -3
390
0
  6
Continuous
100
AcDbLine
 10
-146.38123
 20
202.256929
 30
0.0
 11
-147.035941
 21
227.259324
 31
0.0
  0
ARC
  5
51E
100
AcDbEntity
  8
0
370
    -3
390
0
  6
Continuous
100
AcDbCircle
 10
-155.0332
 20
96.904347
 30
0.0
 40
8.0
100
AcDbArc
 50
270.0
 51
358.5
  0
ARC
  5
51F
100
AcDbEntity
  8
0
370
    -3
390
0
  6
Continuous
100
AcDbCircle
 10
-155.0332
 20
88.674008
 30
0.0
 40
8.0
100
AcDbArc
 50
270.0
 51
358.5
  0
ARC
  5
520
100
AcDbEntity
  8
0
370
    -3
390
0
  6
Continuous
100
AcDbCircle
 10
-138.383972
 20
113.257572
 30
0.0
 40
8.0
100
AcDbArc
 50
134.451374
 51
178.5
  0
LINE
  5
521
100
AcDbEntity
  8
0
370
    -3
390
0
  6
Continuous
100
AcDbLine
 10
-146.38123
 20
121.697326
 30
0.0
 11
-147.035941
 21
96.694931
 31
0.0
  0
LINE
  5
522
100
AcDbEntity
  8
0
370
    -3
390
0
  6
Continuous
100
AcDbLine
 10
-146.38123
 20
113.466988
 30
0.0
 11
-147.035941
 21
88.464593
 31
0.0
  0
ARC
  5
523
100
AcDbEntity
  8
0
370
    -3
390
0
  6
Continuous
100
AcDbCircle
 10
-149.588831
 20
124.679093
 30
0.0
 40
8.0
100
AcDbArc
 50
314.451374
 51
358.5
  0
ARC
  5
524
100
AcDbEntity
  8
0
370
    -3
390
0
  6
Continuous
100
AcDbCircle
 10
-149.36774
 20
133.122206
 30
0.0
 40
8.0
100
AcDbArc
 50
313.352547
 51
358.5
  0
ARC
  5
525
100
AcDbEntity
  8
0
370
    -3
390
0
  6
Continuous
100
AcDbCircle
 10
-138.383972
 20
121.48791
 30
0.0
 40
8.0
100
AcDbArc
 50
133.352547
 51
178.5
  0
LINE
  5
526
100
AcDbEntity
  8
0
370
    -3
390
0
  6
Continuous
100
AcDbLine
 10
-146.177227
 20
129.48791
 30
0.0
 11
-161.916782
 21
129.48791
 31
0.0
  0
ARC
  5
527
100
AcDbEntity
  8
0
370
    -3
390
0
  6
Continuous
100
AcDbCircle
 10
-161.916782
 20
134.48791
 30
0.0
 40
5.0
100
AcDbArc
 50
180.0
 51
270.0
  0
LINE
  5
528
100
AcDbEntity
  8
0
370
    -3
390
0
  6
Continuous
100
AcDbLine
 10
-155.0332
 20
88.904347
 30
0.0
 11
-161.916782
 21
88.904347
 31
0.0
  0
LINE
  5
529
100
AcDbEntity
  8
0
370
    -3
390
0
  6
Continuous
100
AcDbLine
 10
-155.0332
 20
80.674008
 30
0.0
 11
-161.916782
 21
80.674008
 31
0.0
  0
ARC
  5
52A
100
AcDbEntity
  8
0
370
    -3
390
0
  6
Continuous
100
AcDbCircle
 10
-161.916782
 20
93.904347
 30
0.0
 40
5.0
100
AcDbArc
 50
180.0
 51
270.0
  0
ARC
  5
52B
100
AcDbEntity
  8
0
370
    -3
390
0
  6
Continuous
100
AcDbCircle
 10
-161.916782
 20
75.674008
 30
0.0
 40
5.0
100
AcDbArc
 50
90.0
 51
180.0
  0
LINE
  5
52C
100
AcDbEntity
  8
0
370
    -3
390
0
  6
Continuous
100
AcDbLine
 10
-146.177227
 20
186.236007
 30
0.0
 11
-161.916782
 21
186.236007
 31
0.0
  0
ARC
  5
52D
100
AcDbEntity
  8
0
370
    -3
390
0
  6
Continuous
100
AcDbCircle
 10
-161.916782
 20
181.236007
 30
0.0
 40
5.0
100
AcDbArc
 50
90.0
 51
180.0
  0
LINE
  5
52E
100
AcDbEntity
  8
0
370
    -3
390
0
  6
Continuous
100
AcDbLine
 10
-155.0332
 20
226.81957
 30
0.0
 11
-161.916782
 21
226.81957
 31
0.0
  0
LINE
  5
52F
100
AcDbEntity
  8
0
370
    -3
390
0
  6
Continuous
100
AcDbLine
 10
-155.0332
 20
235.049909
 30
0.0
 11
-161.916782
 21
235.049909
 31
0.0
  0
ARC
  5
530
100
AcDbEntity
  8
0
370
    -3
390
0
  6
Continuous
100
AcDbCircle
 10
-161.916782
 20
221.81957
 30
0.0
 40
5.0
100
AcDbArc
 50
90.0
 51
180.0
  0
ARC
  5
531
100
AcDbEntity
  8
0
370
    -3
390
0
  6
Continuous
100
AcDbCircle
 10
-161.916782
 20
240.049909
 30
0.0
 40
5.0
100
AcDbArc
 50
180.0
 51
270.0
  0
ARC
  5
532
100
AcDbEntity
  8
0
370
    -3
390
0
  6
Continuous
100
AcDbCircle
 10
-155.0332
 20
218.81957
 30
0.0
 40
8.0
100
AcDbArc
 50
1.5
 51
90.0
  0
ARC
  5
533
100
AcDbEntity
  8
0
370
    -3
390
0
  6
Continuous
100
AcDbCircle
 10
-155.0332
 20
227.049909
 30
0.0
 40
8.0
100
AcDbArc
 50
1.5
 51
90.0
  0
LINE
  5
534
100
AcDbEntity
  8
0
370
    -3
390
0
  6
Continuous
100
AcDbLine
 10
-166.916782
 20
240.049909
 30
0.0
 11
-166.916782
 21
254.861959
 31
0.0
  0
LINE
  5
535
100
AcDbEntity
  8
0
370
    -3
390
0
  6
Continuous
100
AcDbLine
 10
-166.916782
 20
60.861959
 30
0.0
 11
-166.916782
 21
75.674008
 31
0.0
  0
LINE
  5
536
100
AcDbEntity
  8
0
370
    -3
390
0
  6
Continuous
100
AcDbLine
 10
-166.916782
 20
93.904347
 30
0.0
 11
-166.916782
 21
221.81957
 31
0.0
  0
ARC
  5
537
100
AcDbEntity
  8
0
370
    -3
390
0
  6
Continuous
100
AcDbCircle
 10
32.088218
 20
201.861959
 30
0.0
 40
2.0
100
AcDbArc
 50
0.0
 51
180.0
  0
LINE
  5
538
100
AcDbEntity
  8
0
370
    -3
390
0
  6
Continuous
100
AcDbLine
 10
30.088218
 20
201.861959
 30
0.0
 11
30.088218
 21
87.861959
 31
0.0
  0
LINE
  5
539
100
AcDbEntity
  8
0
370
    -3
390
0
  6
Continuous
100
AcDbLine
 10
34.088218
 20
201.861959
 30
0.0
 11
34.088218
 21
87.861959
 31
0.0
  0
LINE
  5
53A
100
AcDbEntity
  8
0
370
    -3
390
0
  6
Continuous
100
AcDbLine
 10
89.588218
 20
83.861959
 30
0.0
 11
-25.411782
 21
83.861959
 31
0.0
  0
ARC
  5
53B
100
AcDbEntity
  8
0
370
    -3
390
0
  6
Continuous
100
AcDbCircle
 10
91.088218
 20
206.861959
 30
0.0
 40
1.0
100
AcDbArc
 50
180.0
 51
270.0
  0
LINE
  5
53C
100
AcDbEntity
  8
0
370
    -3
390
0
  6
Continuous
100
AcDbLine
 10
115.063008
 20
205.861959
 30
0.0
 11
91.088218
 21
205.861959
 31
0.0
  0
LINE
  5
53D
100
AcDbEntity
  8
0
370
    -3
390
0
  6
Continuous
100
AcDbLine
 10
-134.911782
 20
206.861959
 30
0.0
 11
-132.911782
 21
227.861959
 31
0.0
  0
LINE
  5
53E
100
AcDbEntity
  8
0
370
    -3
390
0
  6
Continuous
100
AcDbLine
 10
-134.711704
 20
195.861963
 30
0.0
 11
-134.711704
 21
195.861951
 31
0.0
  0
LINE
  5
53F
100
AcDbEntity
  8
0
370
    -3
390
0
  6
Continuous
100
AcDbLine
 10
89.588218
 20
227.861959
 30
0.0
 11
89.588218
 21
231.861959
 31
0.0
  0
LINE
  5
540
100
AcDbEntity
  8
0
370
    -3
390
0
  6
Continuous
100
AcDbLine
 10
-25.411782
 20
231.861959
 30
0.0
 11
-24.411782
 21
232.861959
 31
0.0
  0
LINE
  5
541
100
AcDbEntity
  8
0
370
    -3
390
0
  6
Continuous
100
AcDbLine
 10
-25.411782
 20
227.861959
 30
0.0
 11
-25.411782
 21
231.861959
 31
0.0
  0
LINE
  5
542
100
AcDbEntity
  8
0
370
    -3
390
0
  6
Continuous
100
AcDbLine
 10
-24.411782
 20
232.861959
 30
0.0
 11
88.588218
 21
232.861959
 31
0.0
  0
LINE
  5
543
100
AcDbEntity
  8
0
370
    -3
390
0
  6
Continuous
100
AcDbLine
 10
88.588218
 20
232.861959
 30
0.0
 11
89.588218
 21
231.861959
 31
0.0
  0
LINE
  5
544
100
AcDbEntity
  8
0
370
    -3
390
0
  6
Continuous
100
AcDbLine
 10
113.088218
 20
227.861959
 30
0.0
 11
-132.911782
 21
227.861959
 31
0.0
  0
LINE
  5
545
100
AcDbEntity
  8
0
370
    -3
390
0
  6
Continuous
100
AcDbLine
 10
115.088218
 20
206.861959
 30
0.0
 11
113.088218
 21
227.861959
 31
0.0
  0
LINE
  5
546
100
AcDbEntity
  8
0
370
    -3
390
0
  6
Continuous
100
AcDbLine
 10
-25.411782
 20
231.861959
 30
0.0
 11
89.588218
 21
231.861959
 31
0.0
  0
ARC
  5
547
100
AcDbEntity
  8
0
370
    -3
390
0
  6
Continuous
100
AcDbCircle
 10
32.088218
 20
211.861959
 30
0.0
 40
2.0
100
AcDbArc
 50
180.0
 51
0.0
  0
ARC
  5
548
100
AcDbEntity
  8
0
370
    -3
390
0
  6
Continuous
100
AcDbCircle
 10
91.088218
 20
206.861959
 30
0.0
 40
1.0
100
AcDbArc
 50
90.0
 51
180.0
  0
LINE
  5
549
100
AcDbEntity
  8
0
370
    -3
390
0
  6
Continuous
100
AcDbLine
 10
34.088218
 20
211.861959
 30
0.0
 11
34.088218
 21
227.861959
 31
0.0
  0
LINE
  5
54A
100
AcDbEntity
  8
0
370
    -3
390
0
  6
Continuous
100
AcDbLine
 10
30.088218
 20
211.861959
 30
0.0
 11
30.088218
 21
227.861959
 31
0.0
  0
LINE
  5
54B
100
AcDbEntity
  8
0
370
    -3
390
0
  6
Continuous
100
AcDbLine
 10
114.99298
 20
207.861959
 30
0.0
 11
91.088218
 21
207.861959
 31
0.0
  0
ARC
  5
54C
100
AcDbEntity
  8
0
370
    -3
390
0
  6
Continuous
100
AcDbCircle
 10
-110.911782
 20
206.861959
 30
0.0
 40
1.0
100
AcDbArc
 50
0.0
 51
90.0
  0
LINE
  5
54D
100
AcDbEntity
  8
0
370
    -3
390
0
  6
Continuous
100
AcDbLine
 10
-134.816544
 20
207.861959
 30
0.0
 11
-110.911782
 21
207.861959
 31
0.0
  0
LINE
  5
54E
100
AcDbEntity
  8
0
370
    -3
390
0
  6
DASHED
100
AcDbLine
 10
87.088218
 20
152.861959
 30
0.0
 11
107.088218
 21
152.861959
 31
0.0
  0
LINE
  5
54F
100
AcDbEntity
  8
0
370
    -3
390
0
  6
DASHED
100
AcDbLine
 10
107.088218
 20
162.861959
 30
0.0
 11
87.088218
 21
162.861959
 31
0.0
  0
LINE
  5
550
100
AcDbEntity
  8
0
370
    -3
390
0
  6
DASHED
100
AcDbLine
 10
87.088218
 20
162.861959
 30
0.0
 11
87.088218
 21
206.861959
 31
0.0
  0
LINE
  5
551
100
AcDbEntity
  8
0
370
    -3
390
0
  6
DASHED
100
AcDbLine
 10
107.088218
 20
162.861959
 30
0.0
 11
107.088218
 21
206.861959
 31
0.0
  0
LINE
  5
552
100
AcDbEntity
  8
0
370
    -3
390
0
  6
DASHED
100
AcDbLine
 10
110.088218
 20
88.261959
 30
0.0
 11
110.088218
 21
108.861959
 31
0.0
  0
LINE
  5
553
100
AcDbEntity
  8
0
370
    -3
390
0
  6
DASHED
100
AcDbLine
 10
84.088218
 20
108.861959
 30
0.0
 11
110.088218
 21
108.861959
 31
0.0
  0
LINE
  5
554
100
AcDbEntity
  8
0
370
    -3
390
0
  6
DASHED
100
AcDbLine
 10
84.088218
 20
88.261959
 30
0.0
 11
84.088218
 21
108.861959
 31
0.0
  0
LINE
  5
555
100
AcDbEntity
  8
0
370
    -3
390
0
  6
DASHED
100
AcDbLine
 10
88.338218
 20
108.861959
 30
0.0
 11
88.338218
 21
206.861959
 31
0.0
  0
LINE
  5
556
100
AcDbEntity
  8
0
370
    -3
390
0
  6
DASHED
100
AcDbLine
 10
105.838218
 20
108.861959
 30
0.0
 11
105.838218
 21
206.861959
 31
0.0
  0
LINE
  5
557
100
AcDbEntity
  8
0
370
    -3
390
0
  6
DASHED
100
AcDbLine
 10
107.088218
 20
108.861959
 30
0.0
 11
107.088218
 21
152.861959
 31
0.0
  0
LINE
  5
558
100
AcDbEntity
  8
0
370
    -3
390
0
  6
DASHED
100
AcDbLine
 10
87.088218
 20
108.861959
 30
0.0
 11
87.088218
 21
152.861959
 31
0.0
  0
LINE
  5
559
100
AcDbEntity
  8
0
370
    -3
390
0
  6
CENTER
100
AcDbLine
 10
97.088218
 20
75.010664
 30
0.0
 11
97.088218
 21
240.434916
 31
0.0
  0
LINE
  5
55A
100
AcDbEntity
  8
0
370
    -3
390
0
  6
DASHED
100
AcDbLine
 10
84.088218
 20
207.261959
 30
0.0
 11
84.088218
 21
227.861959
 31
0.0
  0
LINE
  5
55B
100
AcDbEntity
  8
0
370
    -3
390
0
  6
DASHED
100
AcDbLine
 10
110.088218
 20
207.261959
 30
0.0
 11
110.088218
 21
227.861959
 31
0.0
  0
LINE
  5
55C
100
AcDbEntity
  8
0
370
    -3
390
0
  6
DASHED
100
AcDbLine
 10
-129.911782
 20
207.261959
 30
0.0
 11
-129.911782
 21
227.861959
 31
0.0
  0
LINE
  5
55D
100
AcDbEntity
  8
0
370
    -3
390
0
  6
DASHED
100
AcDbLine
 10
-103.911782
 20
207.261959
 30
0.0
 11
-103.911782
 21
227.861959
 31
0.0
  0
LINE
  5
55E
100
AcDbEntity
  8
0
370
    -3
390
0
  6
Continuous
100
AcDbLine
 10
-98.911782
 20
206.861959
 30
0.0
 11
-101.911782
 21
87.861959
 31
0.0
  0
LINE
  5
55F
100
AcDbEntity
  8
0
370
    -3
390
0
  6
DASHED
100
AcDbLine
 10
-106.911782
 20
162.861959
 30
0.0
 11
-126.911782
 21
162.861959
 31
0.0
  0
LINE
  5
560
100
AcDbEntity
  8
0
370
    -3
390
0
  6
DASHED
100
AcDbLine
 10
-126.911782
 20
162.861959
 30
0.0
 11
-126.911782
 21
206.861959
 31
0.0
  0
LINE
  5
561
100
AcDbEntity
  8
0
370
    -3
390
0
  6
DASHED
100
AcDbLine
 10
-106.911782
 20
162.861959
 30
0.0
 11
-106.911782
 21
206.861959
 31
0.0
  0
LINE
  5
562
100
AcDbEntity
  8
0
370
    -3
390
0
  6
DASHED
100
AcDbLine
 10
-126.911782
 20
152.861959
 30
0.0
 11
-106.911782
 21
152.861959
 31
0.0
  0
LINE
  5
563
100
AcDbEntity
  8
0
370
    -3
390
0
  6
DASHED
100
AcDbLine
 10
-103.911782
 20
88.261959
 30
0.0
 11
-103.911782
 21
108.861959
 31
0.0
  0
LINE
  5
564
100
AcDbEntity
  8
0
370
    -3
390
0
  6
DASHED
100
AcDbLine
 10
-129.911782
 20
108.861959
 30
0.0
 11
-103.911782
 21
108.861959
 31
0.0
  0
LINE
  5
565
100
AcDbEntity
  8
0
370
    -3
390
0
  6
DASHED
100
AcDbLine
 10
-129.911782
 20
88.261959
 30
0.0
 11
-129.911782
 21
108.861959
 31
0.0
  0
LINE
  5
566
100
AcDbEntity
  8
0
370
    -3
390
0
  6
DASHED
100
AcDbLine
 10
-125.661782
 20
108.861959
 30
0.0
 11
-125.661782
 21
206.861959
 31
0.0
  0
LINE
  5
567
100
AcDbEntity
  8
0
370
    -3
390
0
  6
DASHED
100
AcDbLine
 10
-108.161782
 20
108.861959
 30
0.0
 11
-108.161782
 21
206.861959
 31
0.0
  0
LINE
  5
568
100
AcDbEntity
  8
0
370
    -3
390
0
  6
DASHED
100
AcDbLine
 10
-106.911782
 20
108.861959
 30
0.0
 11
-106.911782
 21
152.861959
 31
0.0
  0
LINE
  5
569
100
AcDbEntity
  8
0
370
    -3
390
0
  6
DASHED
100
AcDbLine
 10
-126.911782
 20
108.861959
 30
0.0
 11
-126.911782
 21
152.861959
 31
0.0
  0
LINE
  5
56A
100
AcDbEntity
  8
0
370
    -3
390
0
  6
CENTER
100
AcDbLine
 10
-116.911782
 20
75.010664
 30
0.0
 11
-116.911782
 21
240.434916
 31
0.0
  0
ENDSEC
  0
SECTION
  2
OBJECTS
  0
DICTIONARY
  5
19
100
AcDbDictionary
280
     0
281
     1
  3
ACAD_GROUP
350
1A
  3
ACAD_MLINESTYLE
350
1B
  3
ACAD_LAYOUT
350
1E
  3
ACAD_PLOTSETTINGS
350
22
  3
ACAD_PLOTSTYLENAME
350
1F
  3
ACAD_WIPEOUT_VARS
350
23
  3
DWGPROPS
350
56B
  0
DICTIONARY
  5
1A
102
{ACAD_REACTORS
330
19
102
}
100
AcDbDictionary
280
     0
281
     1
  0
DICTIONARY
  5
1B
102
{ACAD_REACTORS
330
19
102
}
100
AcDbDictionary
280
     0
281
     1
  3
Standard
350
1C
  0
MLINESTYLE
  5
1C
102
{ACAD_REACTORS
330
1B
102
}
100
AcDbMlineStyle
  2
Standard
 70
     0
  3

 62
     0
 51
90.0
 52
90.0
 71
     2
 49
0.5
 62
   256
  6
ByLayer
 49
-0.5
 62
   256
  6
ByLayer
  0
ACDBDICTIONARYWDFLT
  5
1F
102
{ACAD_REACTORS
330
19
102
}
100
AcDbDictionary
281
     1
  3
Normal
350
1D
100
AcDbDictionaryWithDefault
340
1D
  0
ACDBPLACEHOLDER
  5
1D
102
{ACAD_REACTORS
330
1F
102
}
  0
LAYOUT
  5
20
102
{ACAD_REACTORS
330
1E
102
}
100
AcDbPlotSettings
  1

  2

  4

  6

 40
0.0
 41
0.0
 42
0.0
 43
0.0
 44
0.0
 45
0.0
 46
0.0
 47
0.0
 48
0.0
 49
0.0
140
0.0
141
0.0
142
1.0
143
1.0
 70
  1024
 72
     0
 73
     0
 74
     0
  7

 75
     0
147
1.0
148
0.0
149
0.0
100
AcDbLayout
  1
Model
 70
     0
 71
     0
 10
0.0
 20
0.0
 11
0.0
 21
0.0
 12
0.0
 22
0.0
 32
0.0
 14
0.0
 24
0.0
 34
0.0
 15
0.0
 25
0.0
 35
0.0
146
0.0
 13
0.0
 23
0.0
 33
0.0
 16
0.0
 26
0.0
 36
0.0
 17
0.0
 27
0.0
 37
0.0
 76
     0
330
A
331
0
345
0
346
0
  0
LAYOUT
  5
21
102
{ACAD_REACTORS
330
1E
102
}
100
AcDbPlotSettings
  1

  2

  4

  6

 40
0.0
 41
0.0
 42
0.0
 43
0.0
 44
0.0
 45
0.0
 46
0.0
 47
0.0
 48
0.0
 49
0.0
140
0.0
141
0.0
142
1.0
143
1.0
 70
     0
 72
     0
 73
     0
 74
     0
  7

 75
     0
147
1.0
148
0.0
149
0.0
100
AcDbLayout
  1
Layout1
 70
     0
 71
     0
 10
0.0
 20
0.0
 11
0.0
 21
0.0
 12
0.0
 22
0.0
 32
0.0
 14
0.0
 24
0.0
 34
0.0
 15
0.0
 25
0.0
 35
0.0
146
0.0
 13
0.0
 23
0.0
 33
0.0
 16
0.0
 26
0.0
 36
0.0
 17
0.0
 27
0.0
 37
0.0
 76
     0
330
B
331
0
345
0
346
0
  0
DICTIONARY
  5
1E
102
{ACAD_REACTORS
330
19
102
}
100
AcDbDictionary
280
     0
281
     1
  3
Layout1
350
21
  3
Model
350
20
  0
DICTIONARY
  5
22
102
{ACAD_REACTORS
330
19
102
}
100
AcDbDictionary
280
     0
281
     1
  0
WIPEOUTVARIABLES
  5
23
100
AcDbWipeoutVariables
 70
     1
  0
XRECORD
  5
56B
100
AcDbXrecord
280
     1
  1
DWGPROPS COOKIE
  2

  3

  4

  6

  7

  8
YP81315
  9

300
=
301
=
302
=
303
=
304
=
305
=
306
=
307
=
308
=
309
=
 40
0.0
 41
2456812.5861
 42
2456812.5861
  1

 90
        0
  0
ENDSEC
  0
EOF
