  0
SECTION
  2
HEADER
  9
$ACADVER
  1
AC1015
  9
$ACADMAINTVER
 70
     6
  9
$DWGCODEPAGE
  3
ANSI_932
  9
$INSBASE
 10
0.0
 20
0.0
 30
0.0
  9
$EXTMIN
 10
1.000000E+20
 20
1.000000E+20
 30
1.000000E+20
  9
$EXTMAX
 10
-1.000000E+20
 20
-1.000000E+20
 30
-1.000000E+20
  9
$LIMMIN
 10
0.0
 20
0.0
  9
$LIMMAX
 10
0.0
 20
0.0
  9
$ORTHOMODE
 70
     0
  9
$REGENMODE
 70
     1
  9
$FILLMODE
 70
     1
  9
$QTEXTMODE
 70
     0
  9
$MIRRTEXT
 70
     1
  9
$LTSCALE
 40
1.0
  9
$ATTMODE
 70
     1
  9
$TEXTSIZE
 40
3.2
  9
$TRACEWID
 40
0.05
  9
$TEXTSTYLE
  7
Standard
  9
$CLAYER
  8
0
  9
$CELTYPE
  6
Continuous
  9
$CECOLOR
 62
   256
  9
$CELTSCALE
 40
1.0
  9
$DISPSILH
 70
     0
  9
$DIMSCALE
 40
1.0
  9
$DIMASZ
 40
3.863703
  9
$DIMEXO
 40
1.0
  9
$DIMDLI
 40
0.38
  9
$DIMRND
 40
0.0
  9
$DIMDLE
 40
0.0
  9
$DIMEXE
 40
2.0
  9
$DIMTP
 40
0.0
  9
$DIMTM
 40
0.0
  9
$DIMTXT
 40
3.2
  9
$DIMCEN
 40
0.09
  9
$DIMTSZ
 40
0.0
  9
$DIMTOL
 70
     0
  9
$DIMLIM
 70
     0
  9
$DIMTIH
 70
     1
  9
$DIMTOH
 70
     1
  9
$DIMSE1
 70
     0
  9
$DIMSE2
 70
     0
  9
$DIMTAD
 70
     1
  9
$DIMZIN
 70
     0
  9
$DIMBLK
  1

  9
$DIMASO
 70
     1
  9
$DIMSHO
 70
     1
  9
$DIMPOST
  1

  9
$DIMAPOST
  1

  9
$DIMALT
 70
     0
  9
$DIMALTD
 70
     2
  9
$DIMALTF
 40
25.4
  9
$DIMLFAC
 40
1.0
  9
$DIMTOFL
 70
     0
  9
$DIMTVP
 40
0.0
  9
$DIMTIX
 70
     0
  9
$DIMSOXD
 70
     0
  9
$DIMSAH
 70
     0
  9
$DIMBLK1
  1

  9
$DIMBLK2
  1

  9
$DIMSTYLE
  2
Standard
  9
$DIMCLRD
 70
     0
  9
$DIMCLRE
 70
     0
  9
$DIMCLRT
 70
     0
  9
$DIMTFAC
 40
0.625
  9
$DIMGAP
 40
0.09
  9
$DIMJUST
 70
     0
  9
$DIMSD1
 70
     0
  9
$DIMSD2
 70
     0
  9
$DIMTOLJ
 70
     1
  9
$DIMTZIN
 70
     0
  9
$DIMALTZ
 70
     0
  9
$DIMALTTZ
 70
     0
  9
$DIMUPT
 70
     0
  9
$DIMDEC
 70
     4
  9
$DIMTDEC
 70
     4
  9
$DIMALTU
 70
     2
  9
$DIMALTTD
 70
     2
  9
$DIMTXSTY
  7
Standard
  9
$DIMAUNIT
 70
     0
  9
$DIMADEC
 70
     0
  9
$DIMALTRND
 40
0.0
  9
$DIMAZIN
 70
     0
  9
$DIMDSEP
 70
     0
  9
$DIMATFIT
 70
     3
  9
$DIMFRAC
 70
     0
  9
$DIMLDRBLK
  1

  9
$DIMLUNIT
 70
     2
  9
$DIMLWD
 70
     0
  9
$DIMLWE
 70
     0
  9
$DIMTMOVE
 70
     0
  9
$LUNITS
 70
     2
  9
$LUPREC
 70
     3
  9
$SKETCHINC
 40
0.1
  9
$FILLETRAD
 40
0.0
  9
$AUNITS
 70
     0
  9
$AUPREC
 70
     0
  9
$MENU
  1
acad
  9
$ELEVATION
 40
0.0
  9
$PELEVATION
 40
0.0
  9
$THICKNESS
 40
0.0
  9
$LIMCHECK
 70
     0
  9
$CHAMFERA
 40
0.0
  9
$CHAMFERB
 40
0.0
  9
$CHAMFERC
 40
0.0
  9
$CHAMFERD
 40
0.0
  9
$SKPOLY
 70
     0
  9
$TDCREATE
 40
0.000000000
  9
$TDUCREATE
 40
0.000000000
  9
$TDUPDATE
 40
0.000000000
  9
$TDUUPDATE
 40
0.000000000
  9
$TDINDWG
 40
0.0000000000
  9
$TDUSRTIMER
 40
0.0000000000
  9
$USRTIMER
 70
     1
  9
$ANGBASE
 50
0.0
  9
$ANGDIR
 70
     0
  9
$PDMODE
 70
     0
  9
$PDSIZE
 40
0.0
  9
$PLINEWID
 40
0.0
  9
$SPLFRAME
 70
     0
  9
$SPLINETYPE
 70
     6
  9
$SPLINESEGS
 70
     8
  9
$HANDSEED
  5
5D0
  9
$SURFTAB1
 70
     6
  9
$SURFTAB2
 70
     6
  9
$SURFTYPE
 70
     6
  9
$SURFU
 70
     6
  9
$SURFV
 70
     6
  9
$UCSBASE
  2

  9
$UCSNAME
  2

  9
$UCSORG
 10
0.0
 20
0.0
 30
0.0
  9
$UCSXDIR
 10
1.0
 20
0.0
 30
0.0
  9
$UCSYDIR
 10
0.0
 20
1.0
 30
0.0
  9
$UCSORTHOREF
  2

  9
$UCSORTHOVIEW
 70
     0
  9
$UCSORGTOP
 10
0.0
 20
0.0
 30
0.0
  9
$UCSORGBOTTOM
 10
0.0
 20
0.0
 30
0.0
  9
$UCSORGLEFT
 10
0.0
 20
0.0
 30
0.0
  9
$UCSORGRIGHT
 10
0.0
 20
0.0
 30
0.0
  9
$UCSORGFRONT
 10
0.0
 20
0.0
 30
0.0
  9
$UCSORGBACK
 10
0.0
 20
0.0
 30
0.0
  9
$PUCSBASE
  2

  9
$PUCSNAME
  2

  9
$PUCSORG
 10
0.0
 20
0.0
 30
0.0
  9
$PUCSXDIR
 10
1.0
 20
0.0
 30
0.0
  9
$PUCSYDIR
 10
0.0
 20
1.0
 30
0.0
  9
$PUCSORTHOREF
  2

  9
$PUCSORTHOVIEW
 70
     0
  9
$PUCSORGTOP
 10
0.0
 20
0.0
 30
0.0
  9
$PUCSORGBOTTOM
 10
0.0
 20
0.0
 30
0.0
  9
$PUCSORGLEFT
 10
0.0
 20
0.0
 30
0.0
  9
$PUCSORGRIGHT
 10
0.0
 20
0.0
 30
0.0
  9
$PUCSORGFRONT
 10
0.0
 20
0.0
 30
0.0
  9
$PUCSORGBACK
 10
0.0
 20
0.0
 30
0.0
  9
$USERI1
 70
     0
  9
$USERI2
 70
     0
  9
$USERI3
 70
     0
  9
$USERI4
 70
     0
  9
$USERI5
 70
     0
  9
$USERR1
 40
0.0
  9
$USERR2
 40
0.0
  9
$USERR3
 40
0.0
  9
$USERR4
 40
0.0
  9
$USERR5
 40
0.0
  9
$WORLDVIEW
 70
     1
  9
$SHADEDGE
 70
     3
  9
$SHADEDIF
 70
    70
  9
$TILEMODE
 70
     1
  9
$MAXACTVP
 70
    16
  9
$PINSBASE
 10
0.0
 20
0.0
 30
0.0
  9
$PLIMCHECK
 70
     0
  9
$PEXTMIN
 10
1.000000E+20
 20
1.000000E+20
 30
1.000000E+20
  9
$PEXTMAX
 10
-1.000000E+20
 20
-1.000000E+20
 30
-1.000000E+20
  9
$PLIMMIN
 10
0.0
 20
0.0
  9
$PLIMMAX
 10
12.0
 20
9.0
  9
$UNITMODE
 70
     0
  9
$VISRETAIN
 70
     0
  9
$PLINEGEN
 70
     1
  9
$PSLTSCALE
 70
     0
  9
$TREEDEPTH
 70
  3020
  9
$CMLSTYLE
  2
Standard
  9
$CMLJUST
 70
     0
  9
$CMLSCALE
 40
1.0
  9
$PROXYGRAPHICS
 70
     0
  9
$MEASUREMENT
 70
     0
  9
$CELWEIGHT
370
     0
  9
$ENDCAPS
280
     0
  9
$JOINSTYLE
280
     0
  9
$LWDISPLAY
290
     0
  9
$INSUNITS
 70
     0
  9
$HYPERLINKBASE
  1

  9
$STYLESHEET
  1

  9
$XEDIT
290
     1
  9
$CEPSNTYPE
380
     0
  9
$PSTYLEMODE
290
     1
  9
$FINGERPRINTGUID
  2

  9
$VERSIONGUID
  2

  9
$EXTNAMES
290
     1
  9
$PSVPSCALE
 40
0.0
  0
ENDSEC
  0
SECTION
  2
CLASSES
  0
CLASS
  1
LWPOLYLINE
  2
AcDbPolyline
  3
AutoCAD 2000
 90
        0
280
     0
281
     1
  0
CLASS
  1
IMAGE
  2
AcDbRasterImage
  3
ISM
 90
      127
280
     0
281
     1
  0
CLASS
  1
OLE2FRAME
  2
AcDbOle2Frame
  3
AutoCAD 2000
 90
        0
280
     0
281
     1
  0
CLASS
  1
HATCH
  2
AcDbHatch
  3
AutoCAD 2000
 90
        0
280
     0
281
     1
  0
CLASS
  1
DICTIONARYVAR
  2
AcDbDictionaryVar
  3
AutoCAD 2000
 90
        0
280
     0
281
     0
  0
CLASS
  1
RASTERVARIABLES
  2
AcDbRasterVariables
  3
ISM
 90
        0
280
     0
281
     0
  0
CLASS
  1
IMAGEDEF
  2
AcDbRasterImageDef
  3
ISM
 90
        0
280
     0
281
     0
  0
CLASS
  1
IMAGEDEF_REACTOR
  2
AcDbRasterImageDefReactor
  3
ISM
 90
        1
280
     0
281
     0
  0
CLASS
  1
IDBUFFER
  2
AcDbIdBuffer
  3
AutoCAD 2000
 90
        0
280
     0
281
     0
  0
CLASS
  1
SPATIAL_FILTER
  2
AcDbSpatialFilter
  3
AutoCAD 2000
 90
        0
280
     0
281
     0
  0
CLASS
  1
XRECORD
  2
AcDbXrecord
  3
AutoCAD 2000
 90
        0
280
     0
281
     0
  0
CLASS
  1
SORTENTSTABLE
  2
AcDbSortentsTable
  3
AutoCAD 2000
 90
        0
280
     0
281
     0
  0
CLASS
  1
LAYER_INDEX
  2
AcDbLayerIndex
  3
AutoCAD 2000
 90
        0
280
     0
281
     0
  0
CLASS
  1
SPATIAL_INDEX
  2
AcDbSpatialIndex
  3
AutoCAD 2000
 90
        0
280
     0
281
     0
  0
CLASS
  1
OBJECT_PTR
  2
CAseDLPNTableRecord
  3
"ASE-LPNTableRecord"
 90
        1
280
     0
281
     0
  0
CLASS
  1
LAYOUT
  2
AcDbLayout
  3
AutoCAD 2000
 90
        0
280
     0
281
     0
  0
CLASS
  1
PLOTSETTINGS
  2
AcDbPlotSettings
  3
AutoCAD 2000
 90
        0
280
     0
281
     0
  0
CLASS
  1
ACDBDICTIONARYWDFLT
  2
AcDbDictionaryWithDefault
  3
AutoCAD 2000
 90
        0
280
     0
281
     0
  0
CLASS
  1
ACDBPLACEHOLDER
  2
AcDbPlaceHolder
  3
AutoCAD 2000
 90
        0
280
     0
281
     0
  0
CLASS
  1
VBA_PROJECT
  2
AcDbVbaProject
  3
acadvba
 90
        0
280
     0
281
     0
  0
CLASS
  1
WIPEOUT
  2
AcDbWipeout
  3
WipeOut|AutoCAD Express Tool|expresstools@autodesk.com
 90
      127
280
     0
281
     1
  0
CLASS
  1
WIPEOUTVARIABLES
  2
AcDbWipeoutVariables
  3
WipeOut|AutoCAD Express Tool|expresstools@autodesk.com
 90
        0
280
     0
281
     0
  0
CLASS
  1
RTEXT
  2
RText
  3
RText|AutoCAD Express Tool|expresstools@autodesk.com
 90
        0
280
     0
281
     1
  0
CLASS
  1
ARCALIGNEDTEXT
  2
AcDbArcAlignedText
  3
ATEXT|AutoCAD Express Tool|expresstools@autodesk.com
 90
        0
280
     0
281
     1
  0
ENDSEC
  0
SECTION
  2
TABLES
  0
TABLE
  2
VPORT
  5
7
100
AcDbSymbolTable
 70
     1
  0
VPORT
  5
15
100
AcDbSymbolTableRecord
100
AcDbViewportTableRecord
  2
*ACTIVE
 70
     0
 10
0.0
 20
0.0
 11
1.0
 21
1.0
 12
0.0
 22
0.0
 13
0.0
 23
0.0
 14
1.0
 24
1.0
 15
0.0
 25
0.0
 16
0.0
 26
0.0
 36
1.0
 17
0.0
 27
0.0
 37
0.0
 40
100.0
 41
1.0
 42
50.0
 43
0.0
 44
0.0
 50
0.0
 51
0.0
 71
     0
 72
   100
 73
     1
 74
     1
 75
     0
 76
     0
 77
     0
 78
     0
281
     0
 65
     0
110
0.0
120
0.0
130
0.0
111
1.0
121
0.0
131
0.0
112
0.0
122
1.0
132
0.0
345
0
346
0
 79
     0
146
0.0
  0
ENDTAB
  0
TABLE
  2
LTYPE
  5
4
100
AcDbSymbolTable
 70
     7
  0
LTYPE
  5
11
100
AcDbSymbolTableRecord
100
AcDbLinetypeTableRecord
  2
ByBlock
 70
    64
  3

 72
    65
 73
     0
 40
0.0
  0
LTYPE
  5
12
100
AcDbSymbolTableRecord
100
AcDbLinetypeTableRecord
  2
ByLayer
 70
    64
  3

 72
    65
 73
     0
 40
0.0
  0
LTYPE
  5
13
100
AcDbSymbolTableRecord
100
AcDbLinetypeTableRecord
  2
Continuous
 70
    64
  3
Solid line
 72
    65
 73
     0
 40
0.0
  0
LTYPE
  5
24
100
AcDbSymbolTableRecord
100
AcDbLinetypeTableRecord
  2
DASHED
 70
    64
  3
Dashed __ __ __ __ __ __ __ __ __ __ __ __ __ _
 72
    65
 73
     2
 40
0.75
 49
0.5
 74
     0
 49
-0.25
 74
     0
  0
LTYPE
  5
25
100
AcDbSymbolTableRecord
100
AcDbLinetypeTableRecord
  2
CENTER
 70
    64
  3
Center ____ _ ____ _ ____ _ ____ _ ____ _ ____
 72
    65
 73
     4
 40
1.0
 49
0.5
 74
     0
 49
-0.25
 74
     0
 49
0.0
 74
     0
 49
-0.25
 74
     0
  0
LTYPE
  5
26
100
AcDbSymbolTableRecord
100
AcDbLinetypeTableRecord
  2
DIVIDE
 70
    64
  3
Divide ____ . . ____ . . ____ . . ____ . . ____
 72
    65
 73
     6
 40
1.25
 49
0.5
 74
     0
 49
-0.25
 74
     0
 49
0.0
 74
     0
 49
-0.25
 74
     0
 49
0.0
 74
     0
 49
-0.25
 74
     0
  0
LTYPE
  5
27
100
AcDbSymbolTableRecord
100
AcDbLinetypeTableRecord
  2
PHANTOM
 70
    64
  3
Phantom ______  __  __  ______  __  __  ______
 72
    65
 73
     6
 40
9.0
 49
4.3
 74
     0
 49
-0.7
 74
     0
 49
1.3
 74
     0
 49
-0.7
 74
     0
 49
1.3
 74
     0
 49
-0.7
 74
     0
  0
ENDTAB
  0
TABLE
  2
LAYER
  5
2
100
AcDbSymbolTable
 70
     3
  0
LAYER
  5
14
100
AcDbSymbolTableRecord
100
AcDbLayerTableRecord
  2
0
 70
    64
 62
   102
  6
Continuous
290
     1
370
    -3
390
1D
  0
LAYER
  5
28
100
AcDbSymbolTableRecord
100
AcDbLayerTableRecord
  2
1
 70
    64
 62
   102
  6
Continuous
290
     1
370
    -3
390
1D
  0
LAYER
  5
29
100
AcDbSymbolTableRecord
100
AcDbLayerTableRecord
  2
2
 70
    64
 62
     4
  6
Continuous
290
     1
370
    -3
390
1D
  0
ENDTAB
  0
TABLE
  2
STYLE
  5
3
100
AcDbSymbolTable
 70
     2
  0
STYLE
  5
17
100
AcDbSymbolTableRecord
100
AcDbTextStyleTableRecord
  2
Standard
 70
     0
 40
0.0
 41
1.0
 50
0.0
 71
     0
 42
0.0
  3
txt
  4

  0
STYLE
  5
26D
100
AcDbSymbolTableRecord
100
AcDbTextStyleTableRecord
  2
ZU_SHPTB00001
 70
     0
 40
0.0
 41
1.0
 50
0.0
 71
     0
 42
0.0
  3
monotxt
  4
bigfont
  0
ENDTAB
  0
TABLE
  2
VIEW
  5
5
100
AcDbSymbolTable
 70
     0
  0
ENDTAB
  0
TABLE
  2
UCS
  5
6
100
AcDbSymbolTable
 70
     0
  0
ENDTAB
  0
TABLE
  2
APPID
  5
8
100
AcDbSymbolTable
 70
     1
  0
APPID
  5
16
100
AcDbSymbolTableRecord
100
AcDbRegAppTableRecord
  2
ACAD
 70
     0
  0
ENDTAB
  0
TABLE
  2
DIMSTYLE
  5
9
100
AcDbSymbolTable
 70
     1
100
AcDbDimStyleTable
 71
     0
  0
DIMSTYLE
105
18
100
AcDbSymbolTableRecord
100
AcDbDimStyleTableRecord
  2
Standard
 70
     0
  3

  4

 40
1.0
 41
0.18
 42
0.0625
 43
0.38
 44
0.18
 45
0.0
 46
0.0
 47
0.0
 48
0.0
 71
     0
 72
     0
 73
     1
 74
     1
 75
     0
 76
     0
 77
     0
 78
     0
 79
     0
140
0.18
141
0.09
142
0.0
143
25.4
144
1.0
145
0.0
146
1.0
147
0.09
148
0.0
170
     0
171
     2
172
     0
173
     0
174
     0
175
     0
176
     0
177
     0
178
     0
179
     0
271
     4
272
     4
273
     2
274
     2
275
     0
276
     0
277
     2
278
    46
279
     0
280
     0
281
     0
282
     0
283
     1
284
     0
285
     0
286
     0
288
     0
289
     3
340
17
341
0
342
0
343
0
344
0
371
    -2
372
    -2
  0
ENDTAB
  0
TABLE
  2
BLOCK_RECORD
  5
1
100
AcDbSymbolTable
 70
     4
  0
BLOCK_RECORD
  5
A
100
AcDbSymbolTableRecord
100
AcDbBlockTableRecord
  2
*MODEL_SPACE
340
20
  0
BLOCK_RECORD
  5
B
100
AcDbSymbolTableRecord
100
AcDbBlockTableRecord
  2
*PAPER_SPACE
340
21
  0
BLOCK_RECORD
  5
496
100
AcDbSymbolTableRecord
100
AcDbBlockTableRecord
  2
ZU_SYM_C__ZUOU_AC_BLOCK_ZU_SYM_C__ZUOU_AC_BLOCK_ZU_SYM__USR_MELCAD_MD_SYM_SYM_SYM4_-1_-1_00
340
0
102
{BLKREFS
331
4A1
102
}
  0
BLOCK_RECORD
  5
4A2
100
AcDbSymbolTableRecord
100
AcDbBlockTableRecord
  2
ZU_SYM_C__ZUOU_AC_BLOCK_ZU_SYM_C__ZUOU_AC_BLOCK_ZU_SYM__USR_MELCAD_MD_SYM_SYM_SYM3_-1_-1_00
340
0
102
{BLKREFS
331
4AD
102
}
  0
BLOCK_RECORD
  5
550
100
AcDbSymbolTableRecord
100
AcDbBlockTableRecord
  2
ZU_SYM_C__ZUOU_AC_BLOCK_ZU_SYM_C__ZUOU_AC_BLOCK_ZU_SYM__USR_MELCAD_MD_SYM_SYM_SYM2_-1_-1_00
340
0
102
{BLKREFS
331
55B
102
}
  0
BLOCK_RECORD
  5
55C
100
AcDbSymbolTableRecord
100
AcDbBlockTableRecord
  2
ZU_SYM_C__ZUOU_AC_BLOCK_ZU_SYM_C__ZUOU_AC_BLOCK_ZU_SYM__USR_MELCAD_MD_SYM_SYM_SYM1_-1_-1_00
340
0
102
{BLKREFS
331
567
102
}
  0
ENDTAB
  0
ENDSEC
  0
SECTION
  2
BLOCKS
  0
BLOCK
  5
D
100
AcDbEntity
  8
0
390
0
100
AcDbBlockBegin
  2
*MODEL_SPACE
 70
     0
 10
0.0
 20
0.0
 30
0.0
  3
*MODEL_SPACE
  1

  0
ENDBLK
  5
E
100
AcDbEntity
  8
0
390
0
100
AcDbBlockEnd
  0
BLOCK
  5
F
100
AcDbEntity
 67
     1
  8
0
390
0
100
AcDbBlockBegin
  2
*PAPER_SPACE
 70
     0
 10
0.0
 20
0.0
 30
0.0
  3
*PAPER_SPACE
  1

  0
ENDBLK
  5
10
100
AcDbEntity
 67
     1
  8
0
390
0
100
AcDbBlockEnd
  0
BLOCK
  5
497
100
AcDbEntity
  8
0
390
0
100
AcDbBlockBegin
  2
ZU_SYM_C__ZUOU_AC_BLOCK_ZU_SYM_C__ZUOU_AC_BLOCK_ZU_SYM__USR_MELCAD_MD_SYM_SYM_SYM4_-1_-1_00
 70
    64
 10
0.0
 20
0.0
 30
0.0
  3
ZU_SYM_C__ZUOU_AC_BLOCK_ZU_SYM_C__ZUOU_AC_BLOCK_ZU_SYM__USR_MELCAD_MD_SYM_SYM_SYM4_-1_-1_00
  1

  0
ARC
  5
498
100
AcDbEntity
  8
0
370
    -3
390
0
  6
Continuous
100
AcDbCircle
 10
6.4
 20
0.0
 30
0.0
 40
9.0
100
AcDbArc
 50
163.398452
 51
196.601531
  0
POINT
  5
499
100
AcDbEntity
  8
0
370
    -3
390
0
  6
Continuous
100
AcDbPoint
 10
0.0
 20
0.0
 30
0.0
  0
LINE
  5
49A
100
AcDbEntity
  8
0
370
    -3
390
0
  6
Continuous
100
AcDbLine
 10
0.0
 20
-3.5
 30
0.0
 11
0.0
 21
3.5
 31
0.0
  0
LINE
  5
49B
100
AcDbEntity
  8
0
370
    -3
390
0
  6
Continuous
100
AcDbLine
 10
0.0
 20
-3.5
 30
0.0
 11
0.0
 21
3.5
 31
0.0
  0
LINE
  5
49C
100
AcDbEntity
  8
0
370
    -3
390
0
  6
Continuous
100
AcDbLine
 10
0.0
 20
3.5
 30
0.0
 11
-0.979025
 21
3.5
 31
0.0
  0
LINE
  5
49D
100
AcDbEntity
  8
0
370
    -3
390
0
  6
Continuous
100
AcDbLine
 10
0.0
 20
-3.5
 30
0.0
 11
-0.979025
 21
-3.5
 31
0.0
  0
ARC
  5
49E
100
AcDbEntity
  8
0
370
    -3
390
0
  6
Continuous
100
AcDbCircle
 10
-0.979025
 20
2.200001
 30
0.0
 40
1.299999
100
AcDbArc
 50
90.0
 51
163.398452
  0
ARC
  5
49F
100
AcDbEntity
  8
0
370
    -3
390
0
  6
Continuous
100
AcDbCircle
 10
-0.979025
 20
-2.200001
 30
0.0
 40
1.299999
100
AcDbArc
 50
196.601531
 51
270.0
  0
ENDBLK
  5
4A0
100
AcDbEntity
  8
0
390
0
100
AcDbBlockEnd
  0
BLOCK
  5
4A3
100
AcDbEntity
  8
0
390
0
100
AcDbBlockBegin
  2
ZU_SYM_C__ZUOU_AC_BLOCK_ZU_SYM_C__ZUOU_AC_BLOCK_ZU_SYM__USR_MELCAD_MD_SYM_SYM_SYM3_-1_-1_00
 70
    64
 10
0.0
 20
0.0
 30
0.0
  3
ZU_SYM_C__ZUOU_AC_BLOCK_ZU_SYM_C__ZUOU_AC_BLOCK_ZU_SYM__USR_MELCAD_MD_SYM_SYM_SYM3_-1_-1_00
  1

  0
ARC
  5
4A4
100
AcDbEntity
  8
0
370
    -3
390
0
  6
Continuous
100
AcDbCircle
 10
6.4
 20
0.0
 30
0.0
 40
9.0
100
AcDbArc
 50
163.398452
 51
196.601531
  0
POINT
  5
4A5
100
AcDbEntity
  8
0
370
    -3
390
0
  6
Continuous
100
AcDbPoint
 10
0.0
 20
0.0
 30
0.0
  0
LINE
  5
4A6
100
AcDbEntity
  8
0
370
    -3
390
0
  6
Continuous
100
AcDbLine
 10
0.0
 20
-3.5
 30
0.0
 11
0.0
 21
3.5
 31
0.0
  0
LINE
  5
4A7
100
AcDbEntity
  8
0
370
    -3
390
0
  6
Continuous
100
AcDbLine
 10
0.0
 20
-3.5
 30
0.0
 11
0.0
 21
3.5
 31
0.0
  0
LINE
  5
4A8
100
AcDbEntity
  8
0
370
    -3
390
0
  6
Continuous
100
AcDbLine
 10
0.0
 20
3.5
 30
0.0
 11
-0.979025
 21
3.5
 31
0.0
  0
LINE
  5
4A9
100
AcDbEntity
  8
0
370
    -3
390
0
  6
Continuous
100
AcDbLine
 10
0.0
 20
-3.5
 30
0.0
 11
-0.979025
 21
-3.5
 31
0.0
  0
ARC
  5
4AA
100
AcDbEntity
  8
0
370
    -3
390
0
  6
Continuous
100
AcDbCircle
 10
-0.979025
 20
2.200001
 30
0.0
 40
1.299999
100
AcDbArc
 50
90.0
 51
163.398452
  0
ARC
  5
4AB
100
AcDbEntity
  8
0
370
    -3
390
0
  6
Continuous
100
AcDbCircle
 10
-0.979025
 20
-2.200001
 30
0.0
 40
1.299999
100
AcDbArc
 50
196.601531
 51
270.0
  0
ENDBLK
  5
4AC
100
AcDbEntity
  8
0
390
0
100
AcDbBlockEnd
  0
BLOCK
  5
551
100
AcDbEntity
  8
0
390
0
100
AcDbBlockBegin
  2
ZU_SYM_C__ZUOU_AC_BLOCK_ZU_SYM_C__ZUOU_AC_BLOCK_ZU_SYM__USR_MELCAD_MD_SYM_SYM_SYM2_-1_-1_00
 70
    64
 10
0.0
 20
0.0
 30
0.0
  3
ZU_SYM_C__ZUOU_AC_BLOCK_ZU_SYM_C__ZUOU_AC_BLOCK_ZU_SYM__USR_MELCAD_MD_SYM_SYM_SYM2_-1_-1_00
  1

  0
ARC
  5
552
100
AcDbEntity
  8
0
370
    -3
390
0
  6
Continuous
100
AcDbCircle
 10
6.4
 20
0.0
 30
0.0
 40
9.0
100
AcDbArc
 50
163.398452
 51
196.601531
  0
POINT
  5
553
100
AcDbEntity
  8
0
370
    -3
390
0
  6
Continuous
100
AcDbPoint
 10
0.0
 20
0.0
 30
0.0
  0
LINE
  5
554
100
AcDbEntity
  8
0
370
    -3
390
0
  6
Continuous
100
AcDbLine
 10
0.0
 20
-3.5
 30
0.0
 11
0.0
 21
3.5
 31
0.0
  0
LINE
  5
555
100
AcDbEntity
  8
0
370
    -3
390
0
  6
Continuous
100
AcDbLine
 10
0.0
 20
-3.5
 30
0.0
 11
0.0
 21
3.5
 31
0.0
  0
LINE
  5
556
100
AcDbEntity
  8
0
370
    -3
390
0
  6
Continuous
100
AcDbLine
 10
0.0
 20
3.5
 30
0.0
 11
-0.979025
 21
3.5
 31
0.0
  0
LINE
  5
557
100
AcDbEntity
  8
0
370
    -3
390
0
  6
Continuous
100
AcDbLine
 10
0.0
 20
-3.5
 30
0.0
 11
-0.979025
 21
-3.5
 31
0.0
  0
ARC
  5
558
100
AcDbEntity
  8
0
370
    -3
390
0
  6
Continuous
100
AcDbCircle
 10
-0.979025
 20
2.200001
 30
0.0
 40
1.299999
100
AcDbArc
 50
90.0
 51
163.398452
  0
ARC
  5
559
100
AcDbEntity
  8
0
370
    -3
390
0
  6
Continuous
100
AcDbCircle
 10
-0.979025
 20
-2.200001
 30
0.0
 40
1.299999
100
AcDbArc
 50
196.601531
 51
270.0
  0
ENDBLK
  5
55A
100
AcDbEntity
  8
0
390
0
100
AcDbBlockEnd
  0
BLOCK
  5
55D
100
AcDbEntity
  8
0
390
0
100
AcDbBlockBegin
  2
ZU_SYM_C__ZUOU_AC_BLOCK_ZU_SYM_C__ZUOU_AC_BLOCK_ZU_SYM__USR_MELCAD_MD_SYM_SYM_SYM1_-1_-1_00
 70
    64
 10
0.0
 20
0.0
 30
0.0
  3
ZU_SYM_C__ZUOU_AC_BLOCK_ZU_SYM_C__ZUOU_AC_BLOCK_ZU_SYM__USR_MELCAD_MD_SYM_SYM_SYM1_-1_-1_00
  1

  0
ARC
  5
55E
100
AcDbEntity
  8
0
370
    -3
390
0
  6
Continuous
100
AcDbCircle
 10
6.4
 20
0.0
 30
0.0
 40
9.0
100
AcDbArc
 50
163.398452
 51
196.601531
  0
POINT
  5
55F
100
AcDbEntity
  8
0
370
    -3
390
0
  6
Continuous
100
AcDbPoint
 10
0.0
 20
0.0
 30
0.0
  0
LINE
  5
560
100
AcDbEntity
  8
0
370
    -3
390
0
  6
Continuous
100
AcDbLine
 10
0.0
 20
-3.5
 30
0.0
 11
0.0
 21
3.5
 31
0.0
  0
LINE
  5
561
100
AcDbEntity
  8
0
370
    -3
390
0
  6
Continuous
100
AcDbLine
 10
0.0
 20
-3.5
 30
0.0
 11
0.0
 21
3.5
 31
0.0
  0
LINE
  5
562
100
AcDbEntity
  8
0
370
    -3
390
0
  6
Continuous
100
AcDbLine
 10
0.0
 20
3.5
 30
0.0
 11
-0.979025
 21
3.5
 31
0.0
  0
LINE
  5
563
100
AcDbEntity
  8
0
370
    -3
390
0
  6
Continuous
100
AcDbLine
 10
0.0
 20
-3.5
 30
0.0
 11
-0.979025
 21
-3.5
 31
0.0
  0
ARC
  5
564
100
AcDbEntity
  8
0
370
    -3
390
0
  6
Continuous
100
AcDbCircle
 10
-0.979025
 20
2.200001
 30
0.0
 40
1.299999
100
AcDbArc
 50
90.0
 51
163.398452
  0
ARC
  5
565
100
AcDbEntity
  8
0
370
    -3
390
0
  6
Continuous
100
AcDbCircle
 10
-0.979025
 20
-2.200001
 30
0.0
 40
1.299999
100
AcDbArc
 50
196.601531
 51
270.0
  0
ENDBLK
  5
566
100
AcDbEntity
  8
0
390
0
100
AcDbBlockEnd
  0
ENDSEC
  0
SECTION
  2
ENTITIES
  0
ARC
  5
2A
100
AcDbEntity
  8
0
370
    -3
390
0
  6
Continuous
100
AcDbCircle
 10
-135.240966
 20
81.035665
 30
0.0
 40
5.0
100
AcDbArc
 50
270.000648
 51
0.0
  0
ARC
  5
2B
100
AcDbEntity
  8
0
370
    -3
390
0
  6
Continuous
100
AcDbCircle
 10
-128.240966
 20
97.035517
 30
0.0
 40
2.0
100
AcDbArc
 50
90.000649
 51
180.0
  0
ARC
  5
2C
100
AcDbEntity
  8
0
370
    -3
390
0
  6
Continuous
100
AcDbCircle
 10
-128.240966
 20
198.035744
 30
0.0
 40
2.0
100
AcDbArc
 50
180.0
 51
270.00064
  0
ARC
  5
2D
100
AcDbEntity
  8
0
370
    -3
390
0
  6
Continuous
100
AcDbCircle
 10
-135.240966
 20
203.035665
 30
0.0
 40
5.0
100
AcDbArc
 50
0.0
 51
90.000648
  0
LINE
  5
2E
100
AcDbEntity
  8
0
370
    -3
390
0
  6
Continuous
100
AcDbLine
 10
-130.240966
 20
81.035665
 30
0.0
 11
-130.240966
 21
203.035665
 31
0.0
  0
LINE
  5
2F
100
AcDbEntity
  8
0
370
    -3
390
0
  6
Continuous
100
AcDbLine
 10
-149.740966
 20
73.228223
 30
0.0
 11
-149.740966
 21
210.819987
 31
0.0
  0
LINE
  5
30
100
AcDbEntity
  8
0
370
    -3
390
0
  6
Continuous
100
AcDbLine
 10
-155.740966
 20
70.535433
 30
0.0
 11
-155.740966
 21
213.535433
 31
0.0
  0
LINE
  5
31
100
AcDbEntity
  8
0
370
    -3
390
0
  6
Continuous
100
AcDbLine
 10
499.530631
 20
-89.464548
 30
0.0
 11
495.530631
 21
-89.464548
 31
0.0
  0
LINE
  5
32
100
AcDbEntity
  8
0
370
    -3
390
0
  6
Continuous
100
AcDbLine
 10
499.530631
 20
-89.464548
 30
0.0
 11
499.530631
 21
-137.464548
 31
0.0
  0
LINE
  5
33
100
AcDbEntity
  8
0
370
    -3
390
0
  6
Continuous
100
AcDbLine
 10
499.530631
 20
-137.464548
 30
0.0
 11
495.530631
 21
-137.464548
 31
0.0
  0
LINE
  5
34
100
AcDbEntity
  8
0
370
    -3
390
0
  6
Continuous
100
AcDbLine
 10
365.530176
 20
-89.464548
 30
0.0
 11
365.530176
 21
-137.464548
 31
0.0
  0
LINE
  5
35
100
AcDbEntity
  8
0
370
    -3
390
0
  6
Continuous
100
AcDbLine
 10
365.530176
 20
-137.464548
 30
0.0
 11
369.530176
 21
-137.464548
 31
0.0
  0
LINE
  5
36
100
AcDbEntity
  8
0
370
    -3
390
0
  6
Continuous
100
AcDbLine
 10
365.530176
 20
-89.464548
 30
0.0
 11
369.530176
 21
-89.464548
 31
0.0
  0
ARC
  5
37
100
AcDbEntity
  8
0
370
    -3
390
0
  6
Continuous
100
AcDbCircle
 10
455.813589
 20
-123.046481
 30
0.0
 40
50.8
100
AcDbArc
 50
4.33985
 51
30.619168
  0
ARC
  5
38
100
AcDbEntity
  8
0
370
    -3
390
0
  6
Continuous
100
AcDbCircle
 10
409.247218
 20
-123.046481
 30
0.0
 40
50.8
100
AcDbArc
 50
149.380832
 51
175.66015
  0
LINE
  5
39
100
AcDbEntity
  8
0
370
    -3
390
0
  6
Continuous
100
AcDbLine
 10
463.530403
 20
-226.364548
 30
0.0
 11
401.530403
 21
-226.364548
 31
0.0
  0
LINE
  5
3A
100
AcDbEntity
  8
0
370
    -3
390
0
  6
Continuous
100
AcDbLine
 10
401.530403
 20
-227.964548
 30
0.0
 11
401.530403
 21
-226.364548
 31
0.0
  0
LINE
  5
3B
100
AcDbEntity
  8
0
370
    -3
390
0
  6
Continuous
100
AcDbLine
 10
432.530403
 20
-227.964548
 30
0.0
 11
401.530403
 21
-227.964548
 31
0.0
  0
LINE
  5
3C
100
AcDbEntity
  8
0
370
    -3
390
0
  6
Continuous
100
AcDbLine
 10
432.530403
 20
-227.964548
 30
0.0
 11
463.530403
 21
-227.964548
 31
0.0
  0
LINE
  5
3D
100
AcDbEntity
  8
0
370
    -3
390
0
  6
Continuous
100
AcDbLine
 10
463.530403
 20
-227.964548
 30
0.0
 11
463.530403
 21
-226.364548
 31
0.0
  0
ARC
  5
3E
100
AcDbEntity
  8
0
370
    -3
390
0
  6
Continuous
100
AcDbCircle
 10
390.954078
 20
-233.234648
 30
0.0
 40
1.0
100
AcDbArc
 50
156.0
 51
246.0
  0
LINE
  5
3F
100
AcDbEntity
  8
0
370
    -3
390
0
  6
Continuous
100
AcDbLine
 10
489.157145
 20
-273.892489
 30
0.0
 11
490.865439
 21
-270.055598
 31
0.0
  0
LINE
  5
40
100
AcDbEntity
  8
0
370
    -3
390
0
  6
Continuous
100
AcDbLine
 10
486.142445
 20
-272.550258
 30
0.0
 11
487.850739
 21
-268.713367
 31
0.0
  0
LINE
  5
41
100
AcDbEntity
  8
0
370
    -3
390
0
  6
Continuous
100
AcDbLine
 10
487.38864
 20
-268.89075
 30
0.0
 11
487.850739
 21
-268.713367
 31
0.0
  0
LINE
  5
42
100
AcDbEntity
  8
0
370
    -3
390
0
  6
Continuous
100
AcDbLine
 10
491.042822
 20
-270.517697
 30
0.0
 11
490.865439
 21
-270.055598
 31
0.0
  0
LINE
  5
43
100
AcDbEntity
  8
0
370
    -3
390
0
  6
Continuous
100
AcDbLine
 10
487.850739
 20
-268.713367
 30
0.0
 11
490.865439
 21
-270.055598
 31
0.0
  0
POINT
  5
44
100
AcDbEntity
  8
0
370
    -3
390
0
  6
Continuous
100
AcDbPoint
 10
486.104196
 20
-276.692846
 30
0.0
  0
LINE
  5
45
100
AcDbEntity
  8
0
370
    -3
390
0
  6
Continuous
100
AcDbLine
 10
482.906787
 20
-275.269268
 30
0.0
 11
489.301605
 21
-278.116425
 31
0.0
  0
LINE
  5
46
100
AcDbEntity
  8
0
370
    -3
390
0
  6
Continuous
100
AcDbLine
 10
482.906787
 20
-275.269268
 30
0.0
 11
489.301605
 21
-278.116425
 31
0.0
  0
LINE
  5
47
100
AcDbEntity
  8
0
370
    -3
390
0
  6
Continuous
100
AcDbLine
 10
489.301605
 20
-278.116425
 30
0.0
 11
488.9034
 21
-279.010809
 31
0.0
  0
LINE
  5
48
100
AcDbEntity
  8
0
370
    -3
390
0
  6
Continuous
100
AcDbLine
 10
482.906787
 20
-275.269268
 30
0.0
 11
482.508582
 21
-276.163652
 31
0.0
  0
ARC
  5
49
100
AcDbEntity
  8
0
370
    -3
390
0
  6
Continuous
100
AcDbCircle
 10
483.69619
 20
-276.69241
 30
0.0
 40
1.299999
100
AcDbArc
 50
155.999999
 51
229.398469
  0
LINE
  5
4A
100
AcDbEntity
  8
0
370
    -3
390
0
  6
Continuous
100
AcDbLine
 10
392.872891
 20
-231.023977
 30
0.0
 11
393.873733
 21
-230.599145
 31
0.0
  0
LINE
  5
4B
100
AcDbEntity
  8
0
370
    -3
390
0
  6
Continuous
100
AcDbLine
 10
393.872183
 20
-231.468891
 30
0.0
 11
394.186318
 21
-231.335549
 31
0.0
  0
LINE
  5
4C
100
AcDbEntity
  8
0
370
    -3
390
0
  6
Continuous
100
AcDbLine
 10
393.873733
 20
-230.599145
 30
0.0
 11
394.186318
 21
-231.335549
 31
0.0
  0
LINE
  5
4D
100
AcDbEntity
  8
0
370
    -3
390
0
  6
Continuous
100
AcDbLine
 10
390.547341
 20
-234.148193
 30
0.0
 11
432.530403
 21
-252.840257
 31
0.0
  0
ARC
  5
4E
100
AcDbEntity
  8
0
370
    -3
390
0
  6
Continuous
100
AcDbCircle
 10
393.330196
 20
-238.671109
 30
0.0
 40
3.0
100
AcDbArc
 50
9.318123
 51
66.0
  0
LINE
  5
4F
100
AcDbEntity
  8
0
370
    -3
390
0
  6
Continuous
100
AcDbLine
 10
396.29061
 20
-238.185361
 30
0.0
 11
400.549439
 21
-264.140998
 31
0.0
  0
ARC
  5
50
100
AcDbEntity
  8
0
370
    -3
390
0
  6
Continuous
100
AcDbCircle
 10
415.351508
 20
-261.712259
 30
0.0
 40
15.0
100
AcDbArc
 50
189.318123
 51
268.317231
  0
ARC
  5
51
100
AcDbEntity
  8
0
370
    -3
390
0
  6
Continuous
100
AcDbCircle
 10
432.530403
 20
323.035452
 30
0.0
 40
600.0
100
AcDbArc
 50
268.317231
 51
274.715125
  0
ARC
  5
52
100
AcDbEntity
  8
0
370
    -3
390
0
  6
Continuous
100
AcDbCircle
 10
481.933563
 20
-275.930597
 30
0.0
 40
1.0
100
AcDbArc
 50
66.0
 51
94.715125
  0
LINE
  5
53
100
AcDbEntity
  8
0
370
    -3
390
0
  6
Continuous
100
AcDbLine
 10
390.040532
 20
-232.827911
 30
0.0
 11
391.179395
 21
-230.269984
 31
0.0
  0
LINE
  5
54
100
AcDbEntity
  8
0
370
    -3
390
0
  6
Continuous
100
AcDbLine
 10
396.29525
 20
-232.547709
 30
0.0
 11
397.098162
 21
-230.744338
 31
0.0
  0
ARC
  5
55
100
AcDbEntity
  8
0
370
    -3
390
0
  6
Continuous
100
AcDbCircle
 10
399.838799
 20
-231.964548
 30
0.0
 40
3.0
100
AcDbArc
 50
90.0
 51
156.0
  0
LINE
  5
56
100
AcDbEntity
  8
0
370
    -3
390
0
  6
Continuous
100
AcDbLine
 10
401.530403
 20
-227.964548
 30
0.0
 11
401.530403
 21
-228.964548
 31
0.0
  0
ARC
  5
57
100
AcDbEntity
  8
0
370
    -3
390
0
  6
Continuous
100
AcDbCircle
 10
474.030403
 20
-233.964548
 30
0.0
 40
5.0
100
AcDbArc
 50
0.0
 51
90.0
  0
LINE
  5
58
100
AcDbEntity
  8
0
370
    -3
390
0
  6
Continuous
100
AcDbLine
 10
479.030403
 20
-233.964548
 30
0.0
 11
479.030403
 21
-269.383773
 31
0.0
  0
LINE
  5
59
100
AcDbEntity
  8
0
370
    -3
390
0
  6
Continuous
100
AcDbLine
 10
492.723042
 20
-278.54511
 30
0.0
 11
493.861904
 21
-275.987183
 31
0.0
  0
ARC
  5
5A
100
AcDbEntity
  8
0
370
    -3
390
0
  6
Continuous
100
AcDbCircle
 10
491.809496
 20
-278.138373
 30
0.0
 40
1.0
100
AcDbArc
 50
246.0
 51
336.0
  0
LINE
  5
5B
100
AcDbEntity
  8
0
370
    -3
390
0
  6
Continuous
100
AcDbLine
 10
432.530403
 20
-252.840257
 30
0.0
 11
491.40276
 21
-279.051919
 31
0.0
  0
ARC
  5
5C
100
AcDbEntity
  8
0
370
    -3
390
0
  6
Continuous
100
AcDbCircle
 10
479.302641
 20
-274.759235
 30
0.0
 40
1.0
100
AcDbArc
 50
66.0
 51
156.0
  0
ARC
  5
5D
100
AcDbEntity
  8
0
370
    -3
390
0
  6
Continuous
100
AcDbCircle
 10
476.653038
 20
-273.334562
 30
0.0
 40
2.0
100
AcDbArc
 50
274.231338
 51
336.0
  0
LINE
  5
5E
100
AcDbEntity
  8
0
370
    -3
390
0
  6
Continuous
100
AcDbLine
 10
485.822704
 20
-272.4079
 30
0.0
 11
487.38864
 21
-268.89075
 31
0.0
  0
LINE
  5
5F
100
AcDbEntity
  8
0
370
    -3
390
0
  6
Continuous
100
AcDbLine
 10
489.476886
 20
-274.034847
 30
0.0
 11
491.042822
 21
-270.517697
 31
0.0
  0
LINE
  5
60
100
AcDbEntity
  8
0
370
    -3
390
0
  6
Continuous
100
AcDbLine
 10
463.530403
 20
-227.964548
 30
0.0
 11
463.530403
 21
-228.964548
 31
0.0
  0
LINE
  5
61
100
AcDbEntity
  8
0
370
    -3
390
0
  6
Continuous
100
AcDbLine
 10
399.838799
 20
-228.964548
 30
0.0
 11
474.030403
 21
-228.964548
 31
0.0
  0
LINE
  5
62
100
AcDbEntity
  8
0
370
    -3
390
0
  6
Continuous
100
AcDbLine
 10
401.530403
 20
-227.964548
 30
0.0
 11
463.530403
 21
-227.964548
 31
0.0
  0
LINE
  5
63
100
AcDbEntity
  8
0
370
    -3
390
0
  6
Continuous
100
AcDbLine
 10
391.179395
 20
-230.269984
 30
0.0
 11
493.861904
 21
-275.987183
 31
0.0
  0
LINE
  5
64
100
AcDbEntity
  8
0
370
    -3
390
0
  6
CENTER
100
AcDbLine
 10
464.64788
 20
-252.964548
 30
0.0
 11
487.516389
 21
-252.964548
 31
0.0
  0
ARC
  5
65
100
AcDbEntity
  8
0
370
    -3
390
0
  6
Continuous
100
AcDbCircle
 10
487.715791
 20
-278.482051
 30
0.0
 40
1.299999
100
AcDbArc
 50
262.601548
 51
336.000018
  0
ARC
  5
66
100
AcDbEntity
  8
0
370
    -3
390
0
  6
Continuous
100
AcDbCircle
 10
488.70731
 20
-270.846156
 30
0.0
 40
9.0
100
AcDbArc
 50
229.398469
 51
262.601548
  0
ARC
  5
67
100
AcDbEntity
  8
0
370
    -3
390
0
  6
Continuous
100
AcDbCircle
 10
413.612336
 20
-165.247734
 30
0.0
 40
50.8
100
AcDbArc
 50
230.905432
 51
262.496291
  0
ARC
  5
68
100
AcDbEntity
  8
0
370
    -3
390
0
  6
Continuous
100
AcDbCircle
 10
451.44847
 20
-165.247734
 30
0.0
 40
50.8
100
AcDbArc
 50
277.503709
 51
309.094568
  0
ARC
  5
69
100
AcDbEntity
  8
0
370
    -3
390
0
  6
Continuous
100
AcDbCircle
 10
432.530403
 20
-141.964548
 30
0.0
 40
80.8
100
AcDbArc
 50
219.094568
 51
230.905432
  0
ARC
  5
6A
100
AcDbEntity
  8
0
370
    -3
390
0
  6
Continuous
100
AcDbCircle
 10
409.247218
 20
-160.882615
 30
0.0
 40
50.8
100
AcDbArc
 50
184.33985
 51
219.094568
  0
ARC
  5
6B
100
AcDbEntity
  8
0
370
    -3
390
0
  6
Continuous
100
AcDbCircle
 10
658.530403
 20
-141.964548
 30
0.0
 40
300.8
100
AcDbArc
 50
180.0
 51
184.33985
  0
ARC
  5
6C
100
AcDbEntity
  8
0
370
    -3
390
0
  6
Continuous
100
AcDbCircle
 10
432.530403
 20
-141.964548
 30
0.0
 40
80.8
100
AcDbArc
 50
309.094568
 51
320.905432
  0
ARC
  5
6D
100
AcDbEntity
  8
0
370
    -3
390
0
  6
Continuous
100
AcDbCircle
 10
206.530403
 20
-141.964548
 30
0.0
 40
300.8
100
AcDbArc
 50
360.0
 51
4.33985
  0
ARC
  5
6E
100
AcDbEntity
  8
0
370
    -3
390
0
  6
Continuous
100
AcDbCircle
 10
455.813589
 20
-160.882615
 30
0.0
 40
50.8
100
AcDbArc
 50
320.905432
 51
355.66015
  0
ARC
  5
6F
100
AcDbEntity
  8
0
370
    -3
390
0
  6
Continuous
100
AcDbCircle
 10
206.530403
 20
-141.964548
 30
0.0
 40
300.8
100
AcDbArc
 50
355.66015
 51
0.0
  0
ARC
  5
70
100
AcDbEntity
  8
0
370
    -3
390
0
  6
Continuous
100
AcDbCircle
 10
658.530403
 20
-141.964548
 30
0.0
 40
300.8
100
AcDbArc
 50
175.66015
 51
180.0
  0
ARC
  5
71
100
AcDbEntity
  8
0
370
    -3
390
0
  6
Continuous
100
AcDbCircle
 10
432.530403
 20
-141.964548
 30
0.0
 40
66.0
100
AcDbArc
 50
176.090436
 51
208.503097
  0
ARC
  5
72
100
AcDbEntity
  8
0
370
    -3
390
0
  6
Continuous
100
AcDbCircle
 10
432.530403
 20
-141.964548
 30
0.0
 40
66.0
100
AcDbArc
 50
216.130611
 51
237.201386
  0
ARC
  5
73
100
AcDbEntity
  8
0
370
    -3
390
0
  6
Continuous
100
AcDbCircle
 10
432.530403
 20
-141.964548
 30
0.0
 40
66.0
100
AcDbArc
 50
331.496077
 51
3.909564
  0
ARC
  5
74
100
AcDbEntity
  8
0
370
    -3
390
0
  6
Continuous
100
AcDbCircle
 10
432.530403
 20
-141.964548
 30
0.0
 40
66.0
100
AcDbArc
 50
301.21118
 51
324.847297
  0
ARC
  5
75
100
AcDbEntity
  8
0
370
    -3
390
0
  6
Continuous
100
AcDbCircle
 10
377.184083
 20
-183.168733
 30
0.0
 40
3.0
100
AcDbArc
 50
315.0
 51
36.666917
  0
LINE
  5
76
100
AcDbEntity
  8
0
370
    -3
390
0
  6
Continuous
100
AcDbLine
 10
379.305403
 20
-185.290053
 30
0.0
 11
377.455812
 21
-187.139645
 31
0.0
  0
ARC
  5
77
100
AcDbEntity
  8
0
370
    -3
390
0
  6
Continuous
100
AcDbCircle
 10
379.577132
 20
-189.260965
 30
0.0
 40
3.0
100
AcDbArc
 50
135.0
 51
221.770359
  0
LINE
  5
78
100
AcDbEntity
  8
0
370
    -3
390
0
  6
Continuous
100
AcDbLine
 10
384.187876
 20
-196.964548
 30
0.0
 11
395.15394
 21
-196.964548
 31
0.0
  0
ARC
  5
79
100
AcDbEntity
  8
0
370
    -3
390
0
  6
Continuous
100
AcDbCircle
 10
384.187876
 20
-193.964548
 30
0.0
 40
3.0
100
AcDbArc
 50
227.0875
 51
270.0
  0
ARC
  5
7A
100
AcDbEntity
  8
0
370
    -3
390
0
  6
Continuous
100
AcDbCircle
 10
432.530403
 20
-141.964548
 30
0.0
 40
66.0
100
AcDbArc
 50
237.201386
 51
301.21118
  0
ARC
  5
7B
100
AcDbEntity
  8
0
370
    -3
390
0
  6
Continuous
100
AcDbCircle
 10
395.15394
 20
-199.964548
 30
0.0
 40
3.0
100
AcDbArc
 50
57.201386
 51
90.0
  0
ARC
  5
7C
100
AcDbEntity
  8
0
370
    -3
390
0
  6
Continuous
100
AcDbCircle
 10
471.913141
 20
-206.964548
 30
0.0
 40
10.0
100
AcDbArc
 50
90.0
 51
121.21118
  0
LINE
  5
7D
100
AcDbEntity
  8
0
370
    -3
390
0
  6
Continuous
100
AcDbLine
 10
471.913141
 20
-196.964548
 30
0.0
 11
480.872931
 21
-196.964548
 31
0.0
  0
ARC
  5
7E
100
AcDbEntity
  8
0
370
    -3
390
0
  6
Continuous
100
AcDbCircle
 10
480.872931
 20
-193.964548
 30
0.0
 40
3.0
100
AcDbArc
 50
270.0
 51
312.9125
  0
ARC
  5
7F
100
AcDbEntity
  8
0
370
    -3
390
0
  6
Continuous
100
AcDbCircle
 10
485.483675
 20
-189.260965
 30
0.0
 40
3.0
100
AcDbArc
 50
318.229641
 51
45.0
  0
LINE
  5
80
100
AcDbEntity
  8
0
370
    -3
390
0
  6
Continuous
100
AcDbLine
 10
485.755403
 20
-185.290053
 30
0.0
 11
487.604995
 21
-187.139645
 31
0.0
  0
ARC
  5
81
100
AcDbEntity
  8
0
370
    -3
390
0
  6
Continuous
100
AcDbCircle
 10
487.876724
 20
-183.168733
 30
0.0
 40
3.0
100
AcDbArc
 50
143.333083
 51
225.0
  0
ARC
  5
82
100
AcDbEntity
  8
0
370
    -3
390
0
  6
Continuous
100
AcDbCircle
 10
381.030403
 20
-125.724166
 30
0.0
 40
20.0
100
AcDbArc
 50
162.497476
 51
180.0
  0
ARC
  5
83
100
AcDbEntity
  8
0
370
    -3
390
0
  6
Continuous
100
AcDbCircle
 10
432.530403
 20
-141.964548
 30
0.0
 40
74.0
100
AcDbArc
 50
154.878354
 51
162.497476
  0
ARC
  5
84
100
AcDbEntity
  8
0
370
    -3
390
0
  6
Continuous
100
AcDbCircle
 10
381.030403
 20
-158.20493
 30
0.0
 40
20.0
100
AcDbArc
 50
180.0
 51
197.502524
  0
LINE
  5
85
100
AcDbEntity
  8
0
370
    -3
390
0
  6
Continuous
100
AcDbLine
 10
361.030403
 20
-158.20493
 30
0.0
 11
361.030403
 21
-125.724166
 31
0.0
  0
ARC
  5
86
100
AcDbEntity
  8
0
370
    -3
390
0
  6
Continuous
100
AcDbCircle
 10
416.290022
 20
-193.464548
 30
0.0
 40
20.0
100
AcDbArc
 50
252.497476
 51
270.0
  0
ARC
  5
87
100
AcDbEntity
  8
0
370
    -3
390
0
  6
Continuous
100
AcDbCircle
 10
432.530403
 20
-141.964548
 30
0.0
 40
74.0
100
AcDbArc
 50
197.502524
 51
252.497476
  0
ARC
  5
88
100
AcDbEntity
  8
0
370
    -3
390
0
  6
Continuous
100
AcDbCircle
 10
448.770785
 20
-193.464548
 30
0.0
 40
20.0
100
AcDbArc
 50
270.0
 51
287.502524
  0
LINE
  5
89
100
AcDbEntity
  8
0
370
    -3
390
0
  6
Continuous
100
AcDbLine
 10
448.770785
 20
-213.464548
 30
0.0
 11
416.290022
 21
-213.464548
 31
0.0
  0
ARC
  5
8A
100
AcDbEntity
  8
0
370
    -3
390
0
  6
Continuous
100
AcDbCircle
 10
484.030403
 20
-158.20493
 30
0.0
 40
20.0
100
AcDbArc
 50
342.497476
 51
0.0
  0
ARC
  5
8B
100
AcDbEntity
  8
0
370
    -3
390
0
  6
Continuous
100
AcDbCircle
 10
432.530403
 20
-141.964548
 30
0.0
 40
74.0
100
AcDbArc
 50
287.502524
 51
342.497476
  0
LINE
  5
8C
100
AcDbEntity
  8
0
370
    -3
390
0
  6
Continuous
100
AcDbLine
 10
504.030403
 20
-158.20493
 30
0.0
 11
504.030403
 21
-125.724166
 31
0.0
  0
ARC
  5
8D
100
AcDbEntity
  8
0
370
    -3
390
0
  6
Continuous
100
AcDbCircle
 10
484.030403
 20
-125.724166
 30
0.0
 40
20.0
100
AcDbArc
 50
0.0
 51
17.502524
  0
ARC
  5
8E
100
AcDbEntity
  8
0
370
    -3
390
0
  6
Continuous
100
AcDbCircle
 10
432.530403
 20
-141.964548
 30
0.0
 40
74.0
100
AcDbArc
 50
17.502524
 51
25.121646
  0
LINE
  5
8F
100
AcDbEntity
  8
0
370
    -3
390
0
  6
CENTER
100
AcDbLine
 10
371.967288
 20
-167.464548
 30
0.0
 11
494.110221
 21
-167.464548
 31
0.0
  0
LINE
  5
90
100
AcDbEntity
  8
0
370
    -3
390
0
  6
DASHED
100
AcDbLine
 10
474.530631
 20
-69.464667
 30
0.0
 11
490.530176
 21
-69.464667
 31
0.0
  0
LINE
  5
91
100
AcDbEntity
  8
0
370
    -3
390
0
  6
DASHED
100
AcDbLine
 10
474.530631
 20
-49.464667
 30
0.0
 11
490.530176
 21
-49.464667
 31
0.0
  0
LINE
  5
92
100
AcDbEntity
  8
0
370
    -3
390
0
  6
DASHED
100
AcDbLine
 10
474.530631
 20
-67.464548
 30
0.0
 11
442.530403
 21
-67.464548
 31
0.0
  0
LINE
  5
93
100
AcDbEntity
  8
0
370
    -3
390
0
  6
DASHED
100
AcDbLine
 10
474.530631
 20
-51.464548
 30
0.0
 11
442.530403
 21
-51.464548
 31
0.0
  0
LINE
  5
94
100
AcDbEntity
  8
0
370
    -3
390
0
  6
DASHED
100
AcDbLine
 10
390.530403
 20
-69.464548
 30
0.0
 11
374.530176
 21
-69.464548
 31
0.0
  0
LINE
  5
95
100
AcDbEntity
  8
0
370
    -3
390
0
  6
DASHED
100
AcDbLine
 10
474.530631
 20
-66.382048
 30
0.0
 11
442.530403
 21
-66.382048
 31
0.0
  0
LINE
  5
96
100
AcDbEntity
  8
0
370
    -3
390
0
  6
DASHED
100
AcDbLine
 10
422.530403
 20
-67.464548
 30
0.0
 11
390.530403
 21
-67.464548
 31
0.0
  0
LINE
  5
97
100
AcDbEntity
  8
0
370
    -3
390
0
  6
DASHED
100
AcDbLine
 10
390.530403
 20
-69.464548
 30
0.0
 11
390.530403
 21
-49.464548
 31
0.0
  0
LINE
  5
98
100
AcDbEntity
  8
0
370
    -3
390
0
  6
DASHED
100
AcDbLine
 10
390.530403
 20
-49.464548
 30
0.0
 11
374.530176
 21
-49.464548
 31
0.0
  0
LINE
  5
99
100
AcDbEntity
  8
0
370
    -3
390
0
  6
DASHED
100
AcDbLine
 10
474.530631
 20
-52.547048
 30
0.0
 11
442.530403
 21
-52.547048
 31
0.0
  0
LINE
  5
9A
100
AcDbEntity
  8
0
370
    -3
390
0
  6
DASHED
100
AcDbLine
 10
422.530403
 20
-51.464548
 30
0.0
 11
390.530403
 21
-51.464548
 31
0.0
  0
LINE
  5
9B
100
AcDbEntity
  8
0
370
    -3
390
0
  6
DASHED
100
AcDbLine
 10
474.530403
 20
-69.464548
 30
0.0
 11
474.530403
 21
-49.464548
 31
0.0
  0
LINE
  5
9C
100
AcDbEntity
  8
0
370
    -3
390
0
  6
CENTER
100
AcDbLine
 10
371.967288
 20
-59.464548
 30
0.0
 11
494.110221
 21
-59.464548
 31
0.0
  0
LINE
  5
9D
100
AcDbEntity
  8
0
370
    -3
390
0
  6
Continuous
100
AcDbLine
 10
495.530631
 20
-160.964548
 30
0.0
 11
490.530631
 21
-160.964548
 31
0.0
  0
LINE
  5
9E
100
AcDbEntity
  8
0
370
    -3
390
0
  6
Continuous
100
AcDbLine
 10
495.530631
 20
-113.464429
 30
0.0
 11
495.530631
 21
-160.964548
 31
0.0
  0
LINE
  5
9F
100
AcDbEntity
  8
0
370
    -3
390
0
  6
Continuous
100
AcDbLine
 10
495.530631
 20
-65.964548
 30
0.0
 11
495.530631
 21
-113.464429
 31
0.0
  0
LINE
  5
A0
100
AcDbEntity
  8
0
370
    -3
390
0
  6
Continuous
100
AcDbLine
 10
495.530631
 20
-65.964548
 30
0.0
 11
490.530631
 21
-65.964548
 31
0.0
  0
LINE
  5
A1
100
AcDbEntity
  8
0
370
    -3
390
0
  6
Continuous
100
AcDbLine
 10
369.530176
 20
-160.964548
 30
0.0
 11
374.530176
 21
-160.964548
 31
0.0
  0
LINE
  5
A2
100
AcDbEntity
  8
0
370
    -3
390
0
  6
Continuous
100
AcDbLine
 10
369.530176
 20
-65.964548
 30
0.0
 11
374.530176
 21
-65.964548
 31
0.0
  0
LINE
  5
A3
100
AcDbEntity
  8
0
370
    -3
390
0
  6
Continuous
100
AcDbLine
 10
369.530176
 20
-113.464429
 30
0.0
 11
369.530176
 21
-160.964548
 31
0.0
  0
LINE
  5
A4
100
AcDbEntity
  8
0
370
    -3
390
0
  6
Continuous
100
AcDbLine
 10
369.530176
 20
-65.964548
 30
0.0
 11
369.530176
 21
-113.464429
 31
0.0
  0
LINE
  5
A5
100
AcDbEntity
  8
0
370
    -3
390
0
  6
Continuous
100
AcDbLine
 10
375.027616
 20
-180.579138
 30
0.0
 11
374.530176
 21
-180.044757
 31
0.0
  0
LINE
  5
A6
100
AcDbEntity
  8
0
370
    -3
390
0
  6
Continuous
100
AcDbLine
 10
375.027616
 20
-46.349791
 30
0.0
 11
374.530176
 21
-46.884173
 31
0.0
  0
LINE
  5
A7
100
AcDbEntity
  8
0
370
    -3
390
0
  6
Continuous
100
AcDbLine
 10
374.530176
 20
-113.464458
 30
0.0
 11
374.530176
 21
-46.884173
 31
0.0
  0
LINE
  5
A8
100
AcDbEntity
  8
0
370
    -3
390
0
  6
Continuous
100
AcDbLine
 10
374.530176
 20
-113.464458
 30
0.0
 11
374.530176
 21
-180.044757
 31
0.0
  0
LINE
  5
A9
100
AcDbEntity
  8
0
370
    -3
390
0
  6
Continuous
100
AcDbLine
 10
387.529949
 20
-181.47551
 30
0.0
 11
375.027616
 21
-180.579138
 31
0.0
  0
LINE
  5
AA
100
AcDbEntity
  8
0
370
    -3
390
0
  6
Continuous
100
AcDbLine
 10
375.027616
 20
-46.349791
 30
0.0
 11
387.529949
 21
-45.453403
 31
0.0
  0
LINE
  5
AB
100
AcDbEntity
  8
0
370
    -3
390
0
  6
CENTER
100
AcDbLine
 10
417.736868
 20
-141.964548
 30
0.0
 11
449.589112
 21
-141.964548
 31
0.0
  0
LINE
  5
AC
100
AcDbEntity
  8
0
370
    -3
390
0
  6
Continuous
100
AcDbLine
 10
490.530176
 20
-46.964548
 30
0.0
 11
490.530176
 21
-130.282867
 31
0.0
  0
LINE
  5
AD
100
AcDbEntity
  8
0
370
    -3
390
0
  6
Continuous
100
AcDbLine
 10
481.030176
 20
-46.964548
 30
0.0
 11
490.530176
 21
-46.964548
 31
0.0
  0
LINE
  5
AE
100
AcDbEntity
  8
0
370
    -3
390
0
  6
Continuous
100
AcDbLine
 10
387.529949
 20
-45.464548
 30
0.0
 11
481.530176
 21
-46.964548
 31
0.0
  0
LINE
  5
AF
100
AcDbEntity
  8
0
370
    -3
390
0
  6
Continuous
100
AcDbLine
 10
387.529949
 20
-181.47551
 30
0.0
 11
387.529949
 21
-45.453403
 31
0.0
  0
LINE
  5
B0
100
AcDbEntity
  8
0
370
    -3
390
0
  6
Continuous
100
AcDbLine
 10
481.030176
 20
-179.964548
 30
0.0
 11
490.530176
 21
-179.964548
 31
0.0
  0
LINE
  5
B1
100
AcDbEntity
  8
0
370
    -3
390
0
  6
Continuous
100
AcDbLine
 10
481.030176
 20
-179.964548
 30
0.0
 11
387.529949
 21
-181.456569
 31
0.0
  0
LINE
  5
B2
100
AcDbEntity
  8
0
370
    -3
390
0
  6
Continuous
100
AcDbLine
 10
490.530176
 20
-130.282867
 30
0.0
 11
490.530176
 21
-179.964548
 31
0.0
  0
LINE
  5
B3
100
AcDbEntity
  8
0
370
    -3
390
0
  6
CENTER
100
AcDbLine
 10
-103.359163
 20
-141.964548
 30
0.0
 11
-371.257278
 21
-141.964548
 31
0.0
  0
ARC
  5
B4
100
AcDbEntity
  8
0
370
    -3
390
0
  6
Continuous
100
AcDbCircle
 10
-311.140966
 20
-216.164548
 30
0.0
 40
3.2
100
AcDbArc
 50
171.333191
 51
180.0
  0
ARC
  5
B5
100
AcDbEntity
  8
0
370
    -3
390
0
  6
Continuous
100
AcDbCircle
 10
-317.740966
 20
-216.682346
 30
0.0
 40
1.0
100
AcDbArc
 50
90.0
 51
180.0
  0
LINE
  5
B6
100
AcDbEntity
  8
0
370
    -3
390
0
  6
Continuous
100
AcDbLine
 10
-317.740966
 20
-215.682346
 30
0.0
 11
-301.740966
 21
-215.682346
 31
0.0
  0
LINE
  5
B7
100
AcDbEntity
  8
0
370
    -3
390
0
  6
Continuous
100
AcDbLine
 10
-318.740966
 20
-216.764548
 30
0.0
 11
-318.740966
 21
-216.682346
 31
0.0
  0
LINE
  5
B8
100
AcDbEntity
  8
0
370
    -3
390
0
  6
Continuous
100
AcDbLine
 10
-318.740966
 20
-216.764548
 30
0.0
 11
-330.48813
 21
-216.764548
 31
0.0
  0
ARC
  5
B9
100
AcDbEntity
  8
0
370
    -3
390
0
  6
Continuous
100
AcDbCircle
 10
-301.740966
 20
-212.682346
 30
0.0
 40
3.0
100
AcDbArc
 50
270.0
 51
0.0
  0
LINE
  5
BA
100
AcDbEntity
  8
0
370
    -3
390
0
  6
Continuous
100
AcDbLine
 10
-298.740966
 20
-212.682346
 30
0.0
 11
-298.740966
 21
-141.964548
 31
0.0
  0
LINE
  5
BB
100
AcDbEntity
  8
0
370
    -3
390
0
  6
Continuous
100
AcDbLine
 10
-285.683709
 20
-279.138373
 30
0.0
 11
-253.290966
 21
-279.138373
 31
0.0
  0
CIRCLE
  5
BC
100
AcDbEntity
  8
0
370
    -3
390
0
  6
DASHED
100
AcDbCircle
 10
-288.740966
 20
-252.964548
 30
0.0
 40
13.5
  0
LINE
  5
BD
100
AcDbEntity
  8
0
370
    -3
390
0
  6
CENTER
100
AcDbLine
 10
-311.564597
 20
-252.964548
 30
0.0
 11
-267.276879
 21
-252.964548
 31
0.0
  0
LINE
  5
BE
100
AcDbEntity
  8
0
370
    -3
390
0
  6
Continuous
100
AcDbLine
 10
-319.740966
 20
-227.964548
 30
0.0
 11
-319.740966
 21
-228.964548
 31
0.0
  0
LINE
  5
BF
100
AcDbEntity
  8
0
370
    -3
390
0
  6
Continuous
100
AcDbLine
 10
-319.740966
 20
-227.964548
 30
0.0
 11
-257.740966
 21
-227.964548
 31
0.0
  0
LINE
  5
C0
100
AcDbEntity
  8
0
370
    -3
390
0
  6
Continuous
100
AcDbLine
 10
-257.740966
 20
-227.964548
 30
0.0
 11
-257.740966
 21
-228.964548
 31
0.0
  0
ARC
  5
C1
100
AcDbEntity
  8
0
370
    -3
390
0
  6
Continuous
100
AcDbCircle
 10
-322.540966
 20
-233.964548
 30
0.0
 40
5.0
100
AcDbArc
 50
90.0
 51
135.074044
  0
ARC
  5
C2
100
AcDbEntity
  8
0
370
    -3
390
0
  6
Continuous
100
AcDbCircle
 10
-254.940966
 20
-233.964548
 30
0.0
 40
5.0
100
AcDbArc
 50
44.925956
 51
90.0
  0
LINE
  5
C3
100
AcDbEntity
  8
0
370
    -3
390
0
  6
Continuous
100
AcDbLine
 10
-322.540966
 20
-228.964548
 30
0.0
 11
-254.940966
 21
-228.964548
 31
0.0
  0
ARC
  5
C4
100
AcDbEntity
  8
0
370
    -3
390
0
  6
Continuous
100
AcDbCircle
 10
-324.190966
 20
-241.269984
 30
0.0
 40
11.0
100
AcDbArc
 50
90.0
 51
180.0
  0
ARC
  5
C5
100
AcDbEntity
  8
0
370
    -3
390
0
  6
Continuous
100
AcDbCircle
 10
-324.190966
 20
-244.741457
 30
0.0
 40
11.0
100
AcDbArc
 50
90.0
 51
180.0
  0
ARC
  5
C6
100
AcDbEntity
  8
0
370
    -3
390
0
  6
Continuous
100
AcDbCircle
 10
-253.290966
 20
-241.269984
 30
0.0
 40
11.0
100
AcDbArc
 50
0.0
 51
90.0
  0
ARC
  5
C7
100
AcDbEntity
  8
0
370
    -3
390
0
  6
Continuous
100
AcDbCircle
 10
-253.290966
 20
-244.741457
 30
0.0
 40
11.0
100
AcDbArc
 50
0.0
 51
90.0
  0
ARC
  5
C8
100
AcDbEntity
  8
0
370
    -3
390
0
  6
Continuous
100
AcDbCircle
 10
-322.990966
 20
-271.164548
 30
0.0
 40
5.8
100
AcDbArc
 50
180.0
 51
270.0
  0
ARC
  5
C9
100
AcDbEntity
  8
0
370
    -3
390
0
  6
Continuous
100
AcDbCircle
 10
-254.490966
 20
-271.164548
 30
0.0
 40
5.8
100
AcDbArc
 50
270.0
 51
0.0
  0
LINE
  5
CA
100
AcDbEntity
  8
0
370
    -3
390
0
  6
Continuous
100
AcDbLine
 10
-322.990966
 20
-276.964548
 30
0.0
 11
-254.490966
 21
-276.964548
 31
0.0
  0
ARC
  5
CB
100
AcDbEntity
  8
0
370
    -3
390
0
  6
Continuous
100
AcDbCircle
 10
-324.190966
 20
-268.138373
 30
0.0
 40
11.0
100
AcDbArc
 50
180.0
 51
270.0
  0
ARC
  5
CC
100
AcDbEntity
  8
0
370
    -3
390
0
  6
Continuous
100
AcDbCircle
 10
-253.290966
 20
-268.138373
 30
0.0
 40
11.0
100
AcDbArc
 50
270.0
 51
0.0
  0
ARC
  5
CD
100
AcDbEntity
  8
0
370
    -3
390
0
  6
Continuous
100
AcDbCircle
 10
-323.790966
 20
-241.588613
 30
0.0
 40
5.0
100
AcDbArc
 50
90.0
 51
180.0
  0
ARC
  5
CE
100
AcDbEntity
  8
0
370
    -3
390
0
  6
Continuous
100
AcDbCircle
 10
-253.690966
 20
-241.588613
 30
0.0
 40
5.0
100
AcDbArc
 50
0.0
 51
90.0
  0
LINE
  5
CF
100
AcDbEntity
  8
0
370
    -3
390
0
  6
Continuous
100
AcDbLine
 10
-323.790966
 20
-236.588613
 30
0.0
 11
-253.690966
 21
-236.588613
 31
0.0
  0
LINE
  5
D0
100
AcDbEntity
  8
0
370
    -3
390
0
  6
Continuous
100
AcDbLine
 10
-328.790966
 20
-271.164548
 30
0.0
 11
-328.790966
 21
-241.588613
 31
0.0
  0
LINE
  5
D1
100
AcDbEntity
  8
0
370
    -3
390
0
  6
Continuous
100
AcDbLine
 10
-248.690966
 20
-271.164548
 30
0.0
 11
-248.690966
 21
-241.588613
 31
0.0
  0
LINE
  5
D2
100
AcDbEntity
  8
0
370
    -3
390
0
  6
Continuous
100
AcDbLine
 10
-335.190966
 20
-241.269984
 30
0.0
 11
-335.190966
 21
-268.138373
 31
0.0
  0
LINE
  5
D3
100
AcDbEntity
  8
0
370
    -3
390
0
  6
Continuous
100
AcDbLine
 10
-242.290966
 20
-241.269984
 30
0.0
 11
-242.290966
 21
-268.138373
 31
0.0
  0
LINE
  5
D4
100
AcDbEntity
  8
0
370
    -3
390
0
  6
Continuous
100
AcDbLine
 10
-324.190966
 20
-233.741457
 30
0.0
 11
-253.290966
 21
-233.741457
 31
0.0
  0
LINE
  5
D5
100
AcDbEntity
  8
0
370
    -3
390
0
  6
Continuous
100
AcDbLine
 10
-324.190966
 20
-230.269984
 30
0.0
 11
-253.290966
 21
-230.269984
 31
0.0
  0
LINE
  5
D6
100
AcDbEntity
  8
0
370
    -3
390
0
  6
Continuous
100
AcDbLine
 10
-324.190966
 20
-279.138373
 30
0.0
 11
-291.798222
 21
-279.138373
 31
0.0
  0
LINE
  5
D7
100
AcDbEntity
  8
0
370
    -3
390
0
  6
CENTER
100
AcDbLine
 10
-288.740966
 20
-222.130835
 30
0.0
 11
-288.740966
 21
-284.193248
 31
0.0
  0
LINE
  5
D8
100
AcDbEntity
  8
0
370
    -3
390
0
  6
Continuous
100
AcDbLine
 10
-288.740966
 20
-227.964548
 30
0.0
 11
-319.740966
 21
-227.964548
 31
0.0
  0
LINE
  5
D9
100
AcDbEntity
  8
0
370
    -3
390
0
  6
Continuous
100
AcDbLine
 10
-319.740966
 20
-226.364548
 30
0.0
 11
-288.740966
 21
-226.364548
 31
0.0
  0
LINE
  5
DA
100
AcDbEntity
  8
0
370
    -3
390
0
  6
Continuous
100
AcDbLine
 10
-319.740966
 20
-227.964548
 30
0.0
 11
-319.740966
 21
-226.364548
 31
0.0
  0
LINE
  5
DB
100
AcDbEntity
  8
0
370
    -3
390
0
  6
Continuous
100
AcDbLine
 10
-314.340966
 20
-216.164548
 30
0.0
 11
-314.340966
 21
-224.764548
 31
0.0
  0
ARC
  5
DC
100
AcDbEntity
  8
0
370
    -3
390
0
  6
Continuous
100
AcDbCircle
 10
-315.940966
 20
-224.764548
 30
0.0
 40
1.6
100
AcDbArc
 50
270.0
 51
0.0
  0
LINE
  5
DD
100
AcDbEntity
  8
0
370
    -3
390
0
  6
Continuous
100
AcDbLine
 10
-288.740966
 20
-227.964548
 30
0.0
 11
-257.740966
 21
-227.964548
 31
0.0
  0
LINE
  5
DE
100
AcDbEntity
  8
0
370
    -3
390
0
  6
Continuous
100
AcDbLine
 10
-257.740966
 20
-226.364548
 30
0.0
 11
-288.740966
 21
-226.364548
 31
0.0
  0
LINE
  5
DF
100
AcDbEntity
  8
0
370
    -3
390
0
  6
Continuous
100
AcDbLine
 10
-257.740966
 20
-227.964548
 30
0.0
 11
-257.740966
 21
-226.364548
 31
0.0
  0
LINE
  5
E0
100
AcDbEntity
  8
0
370
    -3
390
0
  6
Continuous
100
AcDbLine
 10
-263.140966
 20
-216.164548
 30
0.0
 11
-263.140966
 21
-224.764548
 31
0.0
  0
ARC
  5
E1
100
AcDbEntity
  8
0
370
    -3
390
0
  6
Continuous
100
AcDbCircle
 10
-261.540966
 20
-224.764548
 30
0.0
 40
1.6
100
AcDbArc
 50
180.0
 51
270.0
  0
ARC
  5
E2
100
AcDbEntity
  8
0
370
    -3
390
0
  6
Continuous
100
AcDbCircle
 10
-266.340966
 20
-216.164548
 30
0.0
 40
3.2
100
AcDbArc
 50
0.0
 51
90.0
  0
LINE
  5
E3
100
AcDbEntity
  8
0
370
    -3
390
0
  6
Continuous
100
AcDbLine
 10
-315.740966
 20
-202.210046
 30
0.0
 11
-317.67017
 21
-203.420708
 31
0.0
  0
LINE
  5
E4
100
AcDbEntity
  8
0
370
    -3
390
0
  6
Continuous
100
AcDbLine
 10
-315.740966
 20
-202.210046
 30
0.0
 11
-317.740966
 21
-200.636708
 31
0.0
  0
LINE
  5
E5
100
AcDbEntity
  8
0
370
    -3
390
0
  6
Continuous
100
AcDbLine
 10
-315.740966
 20
-202.210046
 30
0.0
 11
-313.811761
 21
-203.420708
 31
0.0
  0
LINE
  5
E6
100
AcDbEntity
  8
0
370
    -3
390
0
  6
Continuous
100
AcDbLine
 10
-315.740966
 20
-202.210046
 30
0.0
 11
-313.740966
 21
-200.636708
 31
0.0
  0
ELLIPSE
  5
E7
100
AcDbEntity
  8
0
370
    -3
390
0
  6
Continuous
100
AcDbEllipse
 10
-315.740966
 20
-200.371568
 30
0.0
 11
4.5
 21
0.0
 31
0.0
210
0.0
220
0.0
230
1.0
 40
0.707107
 41
5.3002993159359626
 42
4.1244786448334168
  0
ELLIPSE
  5
E8
100
AcDbEntity
  8
0
370
    -3
390
0
  6
Continuous
100
AcDbEllipse
 10
-315.740966
 20
-200.908086
 30
0.0
 11
3.5
 21
0.0
 31
0.0
210
0.0
220
0.0
230
1.0
 40
0.860398
 41
0.0
 42
6.2831853071795862
  0
ELLIPSE
  5
E9
100
AcDbEntity
  8
0
370
    -3
390
0
  6
Continuous
100
AcDbEllipse
 10
-315.740966
 20
-199.805883
 30
0.0
 11
5.0
 21
0.0
 31
0.0
210
0.0
220
0.0
230
1.0
 40
0.707107
 41
3.1415926535897931
 42
3.8808644805304136
  0
ELLIPSE
  5
EA
100
AcDbEntity
  8
0
370
    -3
390
0
  6
Continuous
100
AcDbEllipse
 10
-315.740966
 20
-199.805883
 30
0.0
 11
5.0
 21
0.0
 31
0.0
210
0.0
220
0.0
230
1.0
 40
0.707107
 41
5.5439134802389658
 42
0.0
  0
LINE
  5
EB
100
AcDbEntity
  8
0
370
    -3
390
0
  6
Continuous
100
AcDbLine
 10
-311.240966
 20
-200.371568
 30
0.0
 11
-311.240966
 21
-199.805883
 31
0.0
  0
LINE
  5
EC
100
AcDbEntity
  8
0
370
    -3
390
0
  6
Continuous
100
AcDbLine
 10
-320.240966
 20
-200.371568
 30
0.0
 11
-320.240966
 21
-199.805883
 31
0.0
  0
ELLIPSE
  5
ED
100
AcDbEntity
  8
0
370
    -3
390
0
  6
Continuous
100
AcDbEllipse
 10
-315.740966
 20
-199.805883
 30
0.0
 11
4.5
 21
0.0
 31
0.0
210
0.0
220
0.0
230
1.0
 40
0.707107
 41
0.0
 42
3.1415926535897931
  0
LINE
  5
EE
100
AcDbEntity
  8
0
370
    -3
390
0
  6
Continuous
100
AcDbLine
 10
-310.740966
 20
-199.805883
 30
0.0
 11
-310.740966
 21
-198.989279
 31
0.0
  0
LINE
  5
EF
100
AcDbEntity
  8
0
370
    -3
390
0
  6
Continuous
100
AcDbLine
 10
-320.740966
 20
-199.805883
 30
0.0
 11
-320.740966
 21
-198.989279
 31
0.0
  0
ELLIPSE
  5
F0
100
AcDbEntity
  8
0
370
    -3
390
0
  6
Continuous
100
AcDbEllipse
 10
-315.740966
 20
-198.989279
 30
0.0
 11
5.0
 21
0.0
 31
0.0
210
0.0
220
0.0
230
1.0
 40
0.707107
 41
0.0
 42
3.1415926535897931
  0
LINE
  5
F1
100
AcDbEntity
  8
0
370
    -3
390
0
  6
Continuous
100
AcDbLine
 10
-155.740966
 20
-165.186804
 30
0.0
 11
-298.740966
 21
-165.186804
 31
0.0
  0
LINE
  5
F2
100
AcDbEntity
  8
0
370
    -3
390
0
  6
Continuous
100
AcDbLine
 10
-155.740966
 20
-157.207712
 30
0.0
 11
-298.740966
 21
-157.207712
 31
0.0
  0
LINE
  5
F3
100
AcDbEntity
  8
0
370
    -3
390
0
  6
Continuous
100
AcDbLine
 10
-155.740966
 20
-158.744549
 30
0.0
 11
-298.740966
 21
-158.744549
 31
0.0
  0
LINE
  5
F4
100
AcDbEntity
  8
0
370
    -3
390
0
  6
Continuous
100
AcDbLine
 10
-155.740966
 20
-149.227546
 30
0.0
 11
-298.740966
 21
-149.227546
 31
0.0
  0
LINE
  5
F5
100
AcDbEntity
  8
0
370
    -3
390
0
  6
Continuous
100
AcDbLine
 10
-155.740966
 20
-150.712704
 30
0.0
 11
-298.740966
 21
-150.712704
 31
0.0
  0
LINE
  5
F6
100
AcDbEntity
  8
0
370
    -3
390
0
  6
Continuous
100
AcDbLine
 10
-155.740966
 20
-142.694344
 30
0.0
 11
-298.740966
 21
-142.694344
 31
0.0
  0
LINE
  5
F7
100
AcDbEntity
  8
0
370
    -3
390
0
  6
Continuous
100
AcDbLine
 10
-155.740966
 20
-166.779056
 30
0.0
 11
-298.740966
 21
-166.779056
 31
0.0
  0
LINE
  5
F8
100
AcDbEntity
  8
0
370
    -3
390
0
  6
Continuous
100
AcDbLine
 10
-155.740966
 20
-173.174592
 30
0.0
 11
-298.740966
 21
-173.174592
 31
0.0
  0
LINE
  5
F9
100
AcDbEntity
  8
0
370
    -3
390
0
  6
Continuous
100
AcDbLine
 10
-155.740966
 20
-174.80732
 30
0.0
 11
-298.740966
 21
-174.80732
 31
0.0
  0
LINE
  5
FA
100
AcDbEntity
  8
0
370
    -3
390
0
  6
Continuous
100
AcDbLine
 10
-155.740966
 20
-181.16519
 30
0.0
 11
-298.740966
 21
-181.16519
 31
0.0
  0
LINE
  5
FB
100
AcDbEntity
  8
0
370
    -3
390
0
  6
Continuous
100
AcDbLine
 10
-155.740966
 20
-182.813817
 30
0.0
 11
-298.740966
 21
-182.813817
 31
0.0
  0
LINE
  5
FC
100
AcDbEntity
  8
0
370
    -3
390
0
  6
Continuous
100
AcDbLine
 10
-155.740966
 20
-191.186386
 30
0.0
 11
-298.740966
 21
-191.186386
 31
0.0
  0
LINE
  5
FD
100
AcDbEntity
  8
0
370
    -3
390
0
  6
Continuous
100
AcDbLine
 10
-155.740966
 20
-197.550347
 30
0.0
 11
-298.740966
 21
-197.550347
 31
0.0
  0
LINE
  5
FE
100
AcDbEntity
  8
0
370
    -3
390
0
  6
Continuous
100
AcDbLine
 10
-155.740966
 20
-203.964548
 30
0.0
 11
-298.740966
 21
-203.964548
 31
0.0
  0
LINE
  5
FF
100
AcDbEntity
  8
0
370
    -3
390
0
  6
Continuous
100
AcDbLine
 10
-155.740966
 20
-208.464548
 30
0.0
 11
-298.740966
 21
-208.464548
 31
0.0
  0
LINE
  5
100
100
AcDbEntity
  8
0
370
    -3
390
0
  6
Continuous
100
AcDbLine
 10
-155.740966
 20
-141.964548
 30
0.0
 11
-155.740966
 21
-211.964548
 31
0.0
  0
LINE
  5
101
100
AcDbEntity
  8
0
370
    -3
390
0
  6
Continuous
100
AcDbLine
 10
-155.740966
 20
-118.742292
 30
0.0
 11
-298.740966
 21
-118.742292
 31
0.0
  0
LINE
  5
102
100
AcDbEntity
  8
0
370
    -3
390
0
  6
Continuous
100
AcDbLine
 10
-155.740966
 20
-70.964548
 30
0.0
 11
-298.740966
 21
-70.964548
 31
0.0
  0
LINE
  5
103
100
AcDbEntity
  8
0
370
    -3
390
0
  6
Continuous
100
AcDbLine
 10
-155.740966
 20
-126.721384
 30
0.0
 11
-298.740966
 21
-126.721384
 31
0.0
  0
LINE
  5
104
100
AcDbEntity
  8
0
370
    -3
390
0
  6
Continuous
100
AcDbLine
 10
-155.740966
 20
-125.184547
 30
0.0
 11
-298.740966
 21
-125.184547
 31
0.0
  0
LINE
  5
105
100
AcDbEntity
  8
0
370
    -3
390
0
  6
Continuous
100
AcDbLine
 10
-155.740966
 20
-134.70155
 30
0.0
 11
-298.740966
 21
-134.70155
 31
0.0
  0
LINE
  5
106
100
AcDbEntity
  8
0
370
    -3
390
0
  6
Continuous
100
AcDbLine
 10
-155.740966
 20
-133.216392
 30
0.0
 11
-298.740966
 21
-133.216392
 31
0.0
  0
LINE
  5
107
100
AcDbEntity
  8
0
370
    -3
390
0
  6
Continuous
100
AcDbLine
 10
-155.740966
 20
-141.234752
 30
0.0
 11
-298.740966
 21
-141.234752
 31
0.0
  0
LINE
  5
108
100
AcDbEntity
  8
0
370
    -3
390
0
  6
Continuous
100
AcDbLine
 10
-155.740966
 20
-117.15004
 30
0.0
 11
-298.740966
 21
-117.15004
 31
0.0
  0
LINE
  5
109
100
AcDbEntity
  8
0
370
    -3
390
0
  6
Continuous
100
AcDbLine
 10
-155.740966
 20
-110.754504
 30
0.0
 11
-298.740966
 21
-110.754504
 31
0.0
  0
LINE
  5
10A
100
AcDbEntity
  8
0
370
    -3
390
0
  6
Continuous
100
AcDbLine
 10
-155.740966
 20
-109.121776
 30
0.0
 11
-298.740966
 21
-109.121776
 31
0.0
  0
LINE
  5
10B
100
AcDbEntity
  8
0
370
    -3
390
0
  6
Continuous
100
AcDbLine
 10
-155.740966
 20
-102.763906
 30
0.0
 11
-298.740966
 21
-102.763906
 31
0.0
  0
LINE
  5
10C
100
AcDbEntity
  8
0
370
    -3
390
0
  6
Continuous
100
AcDbLine
 10
-155.740966
 20
-101.115279
 30
0.0
 11
-298.740966
 21
-101.115279
 31
0.0
  0
LINE
  5
10D
100
AcDbEntity
  8
0
370
    -3
390
0
  6
Continuous
100
AcDbLine
 10
-155.740966
 20
-92.74271
 30
0.0
 11
-298.740966
 21
-92.74271
 31
0.0
  0
LINE
  5
10E
100
AcDbEntity
  8
0
370
    -3
390
0
  6
Continuous
100
AcDbLine
 10
-155.740966
 20
-86.378749
 30
0.0
 11
-298.740966
 21
-86.378749
 31
0.0
  0
LINE
  5
10F
100
AcDbEntity
  8
0
370
    -3
390
0
  6
Continuous
100
AcDbLine
 10
-155.740966
 20
-79.964548
 30
0.0
 11
-298.740966
 21
-79.964548
 31
0.0
  0
LINE
  5
110
100
AcDbEntity
  8
0
370
    -3
390
0
  6
Continuous
100
AcDbLine
 10
-155.740966
 20
-75.464548
 30
0.0
 11
-298.740966
 21
-75.464548
 31
0.0
  0
LINE
  5
111
100
AcDbEntity
  8
0
370
    -3
390
0
  6
Continuous
100
AcDbLine
 10
-155.740966
 20
-72.464548
 30
0.0
 11
-298.740966
 21
-72.464548
 31
0.0
  0
LINE
  5
112
100
AcDbEntity
  8
0
370
    -3
390
0
  6
Continuous
100
AcDbLine
 10
-155.740966
 20
-70.464548
 30
0.0
 11
-298.740966
 21
-70.464548
 31
0.0
  0
LINE
  5
113
100
AcDbEntity
  8
0
370
    -3
390
0
  6
Continuous
100
AcDbLine
 10
-298.740966
 20
-67.164548
 30
0.0
 11
-298.740966
 21
-141.964548
 31
0.0
  0
LINE
  5
114
100
AcDbEntity
  8
0
370
    -3
390
0
  6
Continuous
100
AcDbLine
 10
-298.740966
 20
-67.164548
 30
0.0
 11
-330.48813
 21
-67.164548
 31
0.0
  0
LINE
  5
115
100
AcDbEntity
  8
0
370
    -3
390
0
  6
Continuous
100
AcDbLine
 10
-155.740966
 20
-141.964548
 30
0.0
 11
-155.740966
 21
-70.464548
 31
0.0
  0
LINE
  5
116
100
AcDbEntity
  8
0
370
    -3
390
0
  6
Continuous
100
AcDbLine
 10
-360.840966
 20
-79.923989
 30
0.0
 11
-345.88813
 21
-71.290966
 31
0.0
  0
LINE
  5
117
100
AcDbEntity
  8
0
370
    -3
390
0
  6
Continuous
100
AcDbLine
 10
-362.740966
 20
-141.964548
 30
0.0
 11
-362.740966
 21
-83.214885
 31
0.0
  0
ARC
  5
118
100
AcDbEntity
  8
0
370
    -3
390
0
  6
Continuous
100
AcDbCircle
 10
-358.940966
 20
-83.214885
 30
0.0
 40
3.8
100
AcDbArc
 50
120.0
 51
180.0
  0
ARC
  5
119
100
AcDbEntity
  8
0
370
    -3
390
0
  6
Continuous
100
AcDbCircle
 10
-330.48813
 20
-97.964548
 30
0.0
 40
30.8
100
AcDbArc
 50
90.0
 51
120.0
  0
LINE
  5
11A
100
AcDbEntity
  8
0
370
    -3
390
0
  6
Continuous
100
AcDbLine
 10
-360.840966
 20
-204.005107
 30
0.0
 11
-345.88813
 21
-212.63813
 31
0.0
  0
LINE
  5
11B
100
AcDbEntity
  8
0
370
    -3
390
0
  6
Continuous
100
AcDbLine
 10
-362.740966
 20
-141.964548
 30
0.0
 11
-362.740966
 21
-200.714211
 31
0.0
  0
ARC
  5
11C
100
AcDbEntity
  8
0
370
    -3
390
0
  6
Continuous
100
AcDbCircle
 10
-358.940966
 20
-200.714211
 30
0.0
 40
3.8
100
AcDbArc
 50
180.0
 51
240.0
  0
LINE
  5
11D
100
AcDbEntity
  8
0
370
    -3
390
0
  6
Continuous
100
AcDbLine
 10
-315.740966
 20
-81.71905
 30
0.0
 11
-317.67017
 21
-80.508388
 31
0.0
  0
LINE
  5
11E
100
AcDbEntity
  8
0
370
    -3
390
0
  6
Continuous
100
AcDbLine
 10
-315.740966
 20
-81.71905
 30
0.0
 11
-317.740966
 21
-83.292388
 31
0.0
  0
LINE
  5
11F
100
AcDbEntity
  8
0
370
    -3
390
0
  6
Continuous
100
AcDbLine
 10
-315.740966
 20
-81.71905
 30
0.0
 11
-313.811761
 21
-80.508388
 31
0.0
  0
LINE
  5
120
100
AcDbEntity
  8
0
370
    -3
390
0
  6
Continuous
100
AcDbLine
 10
-315.740966
 20
-81.71905
 30
0.0
 11
-313.740966
 21
-83.292388
 31
0.0
  0
ELLIPSE
  5
121
100
AcDbEntity
  8
0
370
    -3
390
0
  6
Continuous
100
AcDbEllipse
 10
-315.740966
 20
-83.557528
 30
0.0
 11
4.5
 21
0.0
 31
0.0
210
0.0
220
0.0
230
1.0
 40
0.707107
 41
2.158706662346169
 42
0.9828859912436241
  0
ELLIPSE
  5
122
100
AcDbEntity
  8
0
370
    -3
390
0
  6
Continuous
100
AcDbEllipse
 10
-315.740966
 20
-83.02101
 30
0.0
 11
3.5
 21
0.0
 31
0.0
210
0.0
220
0.0
230
1.0
 40
0.860398
 41
0.0
 42
6.2831853071795862
  0
ELLIPSE
  5
123
100
AcDbEntity
  8
0
370
    -3
390
0
  6
Continuous
100
AcDbEllipse
 10
-315.740966
 20
-84.123213
 30
0.0
 11
5.0
 21
0.0
 31
0.0
210
0.0
220
0.0
230
1.0
 40
0.707107
 41
2.4023208266491727
 42
3.1415926535897931
  0
ELLIPSE
  5
124
100
AcDbEntity
  8
0
370
    -3
390
0
  6
Continuous
100
AcDbEllipse
 10
-315.740966
 20
-84.123213
 30
0.0
 11
5.0
 21
0.0
 31
0.0
210
0.0
220
0.0
230
1.0
 40
0.707107
 41
0.0
 42
0.7392718269406207
  0
LINE
  5
125
100
AcDbEntity
  8
0
370
    -3
390
0
  6
Continuous
100
AcDbLine
 10
-311.240966
 20
-83.557528
 30
0.0
 11
-311.240966
 21
-84.123213
 31
0.0
  0
LINE
  5
126
100
AcDbEntity
  8
0
370
    -3
390
0
  6
Continuous
100
AcDbLine
 10
-320.240966
 20
-83.557528
 30
0.0
 11
-320.240966
 21
-84.123213
 31
0.0
  0
ELLIPSE
  5
127
100
AcDbEntity
  8
0
370
    -3
390
0
  6
Continuous
100
AcDbEllipse
 10
-315.740966
 20
-84.123213
 30
0.0
 11
4.5
 21
0.0
 31
0.0
210
0.0
220
0.0
230
1.0
 40
0.707107
 41
3.1415926535897931
 42
0.0
  0
LINE
  5
128
100
AcDbEntity
  8
0
370
    -3
390
0
  6
Continuous
100
AcDbLine
 10
-310.740966
 20
-84.123213
 30
0.0
 11
-310.740966
 21
-84.939817
 31
0.0
  0
LINE
  5
129
100
AcDbEntity
  8
0
370
    -3
390
0
  6
Continuous
100
AcDbLine
 10
-320.740966
 20
-84.123213
 30
0.0
 11
-320.740966
 21
-84.939817
 31
0.0
  0
ELLIPSE
  5
12A
100
AcDbEntity
  8
0
370
    -3
390
0
  6
Continuous
100
AcDbEllipse
 10
-315.740966
 20
-84.939817
 30
0.0
 11
5.0
 21
0.0
 31
0.0
210
0.0
220
0.0
230
1.0
 40
0.707107
 41
3.1415926535897931
 42
0.0
  0
ARC
  5
12B
100
AcDbEntity
  8
0
370
    -3
390
0
  6
Continuous
100
AcDbCircle
 10
-330.48813
 20
-185.964548
 30
0.0
 40
30.8
100
AcDbArc
 50
240.0
 51
270.0
  0
LINE
  5
12C
100
AcDbEntity
  8
0
370
    -3
390
0
  6
Continuous
100
AcDbLine
 10
-264.740966
 20
-211.964548
 30
0.0
 11
-264.740966
 21
-212.964548
 31
0.0
  0
LINE
  5
12D
100
AcDbEntity
  8
0
370
    -3
390
0
  6
Continuous
100
AcDbLine
 10
-298.740966
 20
-212.964548
 30
0.0
 11
-264.740966
 21
-212.964548
 31
0.0
  0
LINE
  5
12E
100
AcDbEntity
  8
0
370
    -3
390
0
  6
Continuous
100
AcDbLine
 10
-155.740966
 20
-211.964548
 30
0.0
 11
-298.740966
 21
-211.964548
 31
0.0
  0
LINE
  5
12F
100
AcDbEntity
  8
0
370
    -3
390
0
  6
Continuous
100
AcDbLine
 10
-12.740966
 20
-92.664548
 30
0.0
 11
-2.740966
 21
-92.664548
 31
0.0
  0
LINE
  5
130
100
AcDbEntity
  8
0
370
    -3
390
0
  6
Continuous
100
AcDbLine
 10
-12.740966
 20
-96.694038
 30
0.0
 11
-12.740966
 21
-92.664548
 31
0.0
  0
LINE
  5
131
100
AcDbEntity
  8
0
370
    -3
390
0
  6
Continuous
100
AcDbLine
 10
-2.740966
 20
-96.694038
 30
0.0
 11
-2.740966
 21
-92.664548
 31
0.0
  0
ARC
  5
132
100
AcDbEntity
  8
0
370
    -3
390
0
  6
Continuous
100
AcDbCircle
 10
-7.740966
 20
-113.464548
 30
0.0
 40
17.5
100
AcDbArc
 50
106.60155
 51
73.39845
  0
CIRCLE
  5
133
100
AcDbEntity
  8
0
370
    -3
390
0
  6
Continuous
100
AcDbCircle
 10
-7.740966
 20
-113.464548
 30
0.0
 40
24.0
  0
LINE
  5
134
100
AcDbEntity
  8
0
370
    -3
390
0
  6
Continuous
100
AcDbLine
 10
-155.740966
 20
-70.464548
 30
0.0
 11
-155.740966
 21
-213.464548
 31
0.0
  0
CIRCLE
  5
135
100
AcDbEntity
  8
0
370
    -3
390
0
  6
Continuous
100
AcDbCircle
 10
-111.741297
 20
-59.464548
 30
0.0
 40
8.0
  0
CIRCLE
  5
136
100
AcDbEntity
  8
0
370
    -3
390
0
  6
Continuous
100
AcDbCircle
 10
-111.741297
 20
-59.464548
 30
0.0
 40
6.9175
  0
CIRCLE
  5
137
100
AcDbEntity
  8
0
370
    -3
390
0
  6
Continuous
100
AcDbCircle
 10
-111.741297
 20
-167.464548
 30
0.0
 40
8.0
  0
CIRCLE
  5
138
100
AcDbEntity
  8
0
370
    -3
390
0
  6
Continuous
100
AcDbCircle
 10
-111.741297
 20
-167.464548
 30
0.0
 40
6.9175
  0
CIRCLE
  5
139
100
AcDbEntity
  8
0
370
    -3
390
0
  6
Continuous
100
AcDbCircle
 10
46.259034
 20
-167.464548
 30
0.0
 40
8.0
  0
CIRCLE
  5
13A
100
AcDbEntity
  8
0
370
    -3
390
0
  6
Continuous
100
AcDbCircle
 10
46.259034
 20
-167.464548
 30
0.0
 40
6.9175
  0
CIRCLE
  5
13B
100
AcDbEntity
  8
0
370
    -3
390
0
  6
Continuous
100
AcDbCircle
 10
46.259366
 20
-59.464548
 30
0.0
 40
8.0
  0
CIRCLE
  5
13C
100
AcDbEntity
  8
0
370
    -3
390
0
  6
Continuous
100
AcDbCircle
 10
46.259366
 20
-59.464548
 30
0.0
 40
6.9175
  0
ARC
  5
13D
100
AcDbEntity
  8
0
370
    -3
390
0
  6
Continuous
100
AcDbCircle
 10
-113.490966
 20
-146.537564
 30
0.0
 40
4.25
100
AcDbArc
 50
180.0
 51
274.779285
  0
ARC
  5
13E
100
AcDbEntity
  8
0
370
    -3
390
0
  6
Continuous
100
AcDbCircle
 10
-80.355809
 20
-169.214548
 30
0.0
 40
4.25
100
AcDbArc
 50
196.457401
 51
270.0
  0
ARC
  5
13F
100
AcDbEntity
  8
0
370
    -3
390
0
  6
Continuous
100
AcDbCircle
 10
-113.490966
 20
-146.537564
 30
0.0
 40
5.0
100
AcDbArc
 50
180.0
 51
274.779285
  0
ARC
  5
140
100
AcDbEntity
  8
0
370
    -3
390
0
  6
Continuous
100
AcDbCircle
 10
-80.355809
 20
-169.214548
 30
0.0
 40
5.0
100
AcDbArc
 50
196.457401
 51
270.0
  0
ARC
  5
141
100
AcDbEntity
  8
0
370
    -3
390
0
  6
Continuous
100
AcDbCircle
 10
-113.490966
 20
-91.515652
 30
0.0
 40
4.25
100
AcDbArc
 50
110.486173
 51
180.0
  0
ARC
  5
142
100
AcDbEntity
  8
0
370
    -3
390
0
  6
Continuous
100
AcDbCircle
 10
-113.490966
 20
-91.515652
 30
0.0
 40
5.0
100
AcDbArc
 50
110.486173
 51
180.0
  0
ARC
  5
143
100
AcDbEntity
  8
0
370
    -3
390
0
  6
Continuous
100
AcDbCircle
 10
-80.355809
 20
-57.714548
 30
0.0
 40
4.25
100
AcDbArc
 50
90.0
 51
163.542599
  0
ARC
  5
144
100
AcDbEntity
  8
0
370
    -3
390
0
  6
Continuous
100
AcDbCircle
 10
-80.355809
 20
-57.714548
 30
0.0
 40
5.0
100
AcDbArc
 50
90.0
 51
163.542599
  0
ARC
  5
145
100
AcDbEntity
  8
0
370
    -3
390
0
  6
Continuous
100
AcDbCircle
 10
-39.496915
 20
-58.964548
 30
0.0
 40
5.5
100
AcDbArc
 50
90.0
 51
181.287654
  0
ARC
  5
146
100
AcDbEntity
  8
0
370
    -3
390
0
  6
Continuous
100
AcDbCircle
 10
-39.496915
 20
-58.964548
 30
0.0
 40
5.0
100
AcDbArc
 50
90.0
 51
181.287654
  0
ARC
  5
147
100
AcDbEntity
  8
0
370
    -3
390
0
  6
Continuous
100
AcDbCircle
 10
48.009034
 20
-135.079389
 30
0.0
 40
3.75
100
AcDbArc
 50
286.458134
 51
0.0
  0
ARC
  5
148
100
AcDbEntity
  8
0
370
    -3
390
0
  6
Continuous
100
AcDbCircle
 10
48.009034
 20
-80.391532
 30
0.0
 40
3.75
100
AcDbArc
 50
0.0
 51
94.779285
  0
ARC
  5
149
100
AcDbEntity
  8
0
370
    -3
390
0
  6
Continuous
100
AcDbCircle
 10
11.873878
 20
-57.714548
 30
0.0
 40
3.75
100
AcDbArc
 50
16.457401
 51
90.0
  0
ARC
  5
14A
100
AcDbEntity
  8
0
370
    -3
390
0
  6
Continuous
100
AcDbCircle
 10
-39.496915
 20
-167.964548
 30
0.0
 40
5.5
100
AcDbArc
 50
178.712346
 51
270.0
  0
ARC
  5
14B
100
AcDbEntity
  8
0
370
    -3
390
0
  6
Continuous
100
AcDbCircle
 10
-39.496915
 20
-167.964548
 30
0.0
 40
5.0
100
AcDbArc
 50
178.712346
 51
270.0
  0
ARC
  5
14C
100
AcDbEntity
  8
0
370
    -3
390
0
  6
Continuous
100
AcDbCircle
 10
11.873878
 20
-169.214548
 30
0.0
 40
3.75
100
AcDbArc
 50
270.0
 51
343.542599
  0
ARC
  5
14D
100
AcDbEntity
  8
0
370
    -3
390
0
  6
Continuous
100
AcDbCircle
 10
11.873878
 20
-169.214548
 30
0.0
 40
5.0
100
AcDbArc
 50
270.0
 51
343.542599
  0
ARC
  5
14E
100
AcDbEntity
  8
0
370
    -3
390
0
  6
Continuous
100
AcDbCircle
 10
-62.740966
 20
-146.488355
 30
0.0
 40
3.75
100
AcDbArc
 50
180.0
 51
272.728498
  0
ARC
  5
14F
100
AcDbEntity
  8
0
370
    -3
390
0
  6
Continuous
100
AcDbCircle
 10
-62.740966
 20
-146.488355
 30
0.0
 40
4.25
100
AcDbArc
 50
180.0
 51
272.728498
  0
ARC
  5
150
100
AcDbEntity
  8
0
370
    -3
390
0
  6
Continuous
100
AcDbCircle
 10
48.009034
 20
-135.079389
 30
0.0
 40
5.0
100
AcDbArc
 50
286.458134
 51
0.0
  0
ARC
  5
151
100
AcDbEntity
  8
0
370
    -3
390
0
  6
Continuous
100
AcDbCircle
 10
48.009034
 20
-80.391532
 30
0.0
 40
5.0
100
AcDbArc
 50
0.0
 51
94.779285
  0
ARC
  5
152
100
AcDbEntity
  8
0
370
    -3
390
0
  6
Continuous
100
AcDbCircle
 10
11.873878
 20
-57.714548
 30
0.0
 40
5.0
100
AcDbArc
 50
16.457401
 51
90.0
  0
LINE
  5
153
100
AcDbEntity
  8
0
370
    -3
390
0
  6
Continuous
100
AcDbLine
 10
-80.355809
 20
-53.464548
 30
0.0
 11
-39.496915
 21
-53.464548
 31
0.0
  0
LINE
  5
154
100
AcDbEntity
  8
0
370
    -3
390
0
  6
Continuous
100
AcDbLine
 10
-39.496915
 20
-53.964548
 30
0.0
 11
11.873878
 21
-53.964548
 31
0.0
  0
LINE
  5
155
100
AcDbEntity
  8
0
370
    -3
390
0
  6
Continuous
100
AcDbLine
 10
-80.355809
 20
-173.464548
 30
0.0
 11
-39.496915
 21
-173.464548
 31
0.0
  0
LINE
  5
156
100
AcDbEntity
  8
0
370
    -3
390
0
  6
Continuous
100
AcDbLine
 10
-39.496915
 20
-172.964548
 30
0.0
 11
11.873878
 21
-172.964548
 31
0.0
  0
LINE
  5
157
100
AcDbEntity
  8
0
370
    -3
390
0
  6
Continuous
100
AcDbLine
 10
-117.740966
 20
-91.515652
 30
0.0
 11
-117.740966
 21
-146.537564
 31
0.0
  0
LINE
  5
158
100
AcDbEntity
  8
0
370
    -3
390
0
  6
Continuous
100
AcDbLine
 10
-118.490966
 20
-91.515652
 30
0.0
 11
-118.490966
 21
-146.537564
 31
0.0
  0
LINE
  5
159
100
AcDbEntity
  8
0
370
    -3
390
0
  6
Continuous
100
AcDbLine
 10
-80.355809
 20
-174.214548
 30
0.0
 11
11.873878
 21
-174.214548
 31
0.0
  0
LINE
  5
15A
100
AcDbEntity
  8
0
370
    -3
390
0
  6
Continuous
100
AcDbLine
 10
11.873878
 20
-52.714548
 30
0.0
 11
-80.355809
 21
-52.714548
 31
0.0
  0
LINE
  5
15B
100
AcDbEntity
  8
0
370
    -3
390
0
  6
Continuous
100
AcDbLine
 10
51.759034
 20
-135.079389
 30
0.0
 11
51.759034
 21
-80.391532
 31
0.0
  0
LINE
  5
15C
100
AcDbEntity
  8
0
370
    -3
390
0
  6
Continuous
100
AcDbLine
 10
53.009034
 20
-135.079389
 30
0.0
 11
53.009034
 21
-80.391532
 31
0.0
  0
CIRCLE
  5
15D
100
AcDbEntity
  8
0
370
    -3
390
0
  6
Continuous
100
AcDbCircle
 10
-7.740966
 20
-113.419154
 30
0.0
 40
50.499849
  0
ARC
  5
15E
100
AcDbEntity
  8
0
370
    -3
390
0
  6
Continuous
100
AcDbCircle
 10
-94.741268
 20
-53.465012
 30
0.0
 40
10.75
100
AcDbArc
 50
277.811937
 51
343.542599
  0
ARC
  5
15F
100
AcDbEntity
  8
0
370
    -3
390
0
  6
Continuous
100
AcDbCircle
 10
-92.702438
 20
-68.325805
 30
0.0
 40
4.25
100
AcDbArc
 50
97.811937
 51
155.041315
  0
ARC
  5
160
100
AcDbEntity
  8
0
370
    -3
390
0
  6
Continuous
100
AcDbCircle
 10
-111.741297
 20
-59.464548
 30
0.0
 40
16.75
100
AcDbArc
 50
292.188753
 51
335.041315
  0
ARC
  5
161
100
AcDbEntity
  8
0
370
    -3
390
0
  6
Continuous
100
AcDbCircle
 10
-103.810457
 20
-78.909387
 30
0.0
 40
4.25
100
AcDbArc
 50
112.188753
 51
174.471605
  0
ARC
  5
162
100
AcDbEntity
  8
0
370
    -3
390
0
  6
Continuous
100
AcDbCircle
 10
-118.740685
 20
-77.464302
 30
0.0
 40
10.75
100
AcDbArc
 50
290.486173
 51
354.471605
  0
ARC
  5
163
100
AcDbEntity
  8
0
370
    -3
390
0
  6
Continuous
100
AcDbCircle
 10
-111.741297
 20
-167.464548
 30
0.0
 40
16.75
100
AcDbArc
 50
24.958685
 51
94.779285
  0
ARC
  5
164
100
AcDbEntity
  8
0
370
    -3
390
0
  6
Continuous
100
AcDbCircle
 10
-92.702438
 20
-158.603291
 30
0.0
 40
4.25
100
AcDbArc
 50
204.958685
 51
262.188063
  0
ARC
  5
165
100
AcDbEntity
  8
0
370
    -3
390
0
  6
Continuous
100
AcDbCircle
 10
-94.741268
 20
-173.464084
 30
0.0
 40
10.75
100
AcDbArc
 50
16.457401
 51
82.188063
  0
ARC
  5
166
100
AcDbEntity
  8
0
370
    -3
390
0
  6
Continuous
100
AcDbCircle
 10
-61.741297
 20
-167.464548
 30
0.0
 40
16.75
100
AcDbArc
 50
358.712346
 51
92.728498
  0
LINE
  5
167
100
AcDbEntity
  8
0
370
    -3
390
0
  6
Continuous
100
AcDbLine
 10
-66.990966
 20
-80.440741
 30
0.0
 11
-66.990966
 21
-146.488355
 31
0.0
  0
ARC
  5
168
100
AcDbEntity
  8
0
370
    -3
390
0
  6
Continuous
100
AcDbCircle
 10
-62.740966
 20
-80.440741
 30
0.0
 40
4.25
100
AcDbArc
 50
87.271502
 51
180.0
  0
ARC
  5
169
100
AcDbEntity
  8
0
370
    -3
390
0
  6
Continuous
100
AcDbCircle
 10
-61.741297
 20
-59.464548
 30
0.0
 40
16.75
100
AcDbArc
 50
267.271502
 51
1.287654
  0
LINE
  5
16A
100
AcDbEntity
  8
0
370
    -3
390
0
  6
Continuous
100
AcDbLine
 10
-66.490966
 20
-146.488355
 30
0.0
 11
-66.490966
 21
-80.440741
 31
0.0
  0
ARC
  5
16B
100
AcDbEntity
  8
0
370
    -3
390
0
  6
Continuous
100
AcDbCircle
 10
-62.740966
 20
-80.440741
 30
0.0
 40
3.75
100
AcDbArc
 50
87.271502
 51
180.0
  0
ARC
  5
16C
100
AcDbEntity
  8
0
370
    -3
390
0
  6
Continuous
100
AcDbCircle
 10
-61.741297
 20
-167.464548
 30
0.0
 40
17.25
100
AcDbArc
 50
358.712346
 51
92.728498
  0
ARC
  5
16D
100
AcDbEntity
  8
0
370
    -3
390
0
  6
Continuous
100
AcDbCircle
 10
-61.741297
 20
-59.464548
 30
0.0
 40
17.25
100
AcDbArc
 50
267.271502
 51
1.287654
  0
ARC
  5
16E
100
AcDbEntity
  8
0
370
    -3
390
0
  6
Continuous
100
AcDbCircle
 10
52.258754
 20
-149.464794
 30
0.0
 40
11.25
100
AcDbArc
 50
106.458134
 51
176.219273
  0
ARC
  5
16F
100
AcDbEntity
  8
0
370
    -3
390
0
  6
Continuous
100
AcDbCircle
 10
37.291399
 20
-148.47572
 30
0.0
 40
3.75
100
AcDbArc
 50
295.28024
 51
356.219273
  0
ARC
  5
170
100
AcDbEntity
  8
0
370
    -3
390
0
  6
Continuous
100
AcDbCircle
 10
46.259366
 20
-167.464548
 30
0.0
 40
17.25
100
AcDbArc
 50
115.28024
 51
154.724514
  0
ARC
  5
171
100
AcDbEntity
  8
0
370
    -3
390
0
  6
Continuous
100
AcDbCircle
 10
27.269794
 20
-158.498157
 30
0.0
 40
3.75
100
AcDbArc
 50
266.137414
 51
334.724514
  0
ARC
  5
172
100
AcDbEntity
  8
0
370
    -3
390
0
  6
Continuous
100
AcDbCircle
 10
26.259337
 20
-173.464084
 30
0.0
 40
11.25
100
AcDbArc
 50
86.137414
 51
163.542599
  0
ARC
  5
173
100
AcDbEntity
  8
0
370
    -3
390
0
  6
Continuous
100
AcDbCircle
 10
26.259337
 20
-53.465012
 30
0.0
 40
11.25
100
AcDbArc
 50
196.457401
 51
273.862586
  0
ARC
  5
174
100
AcDbEntity
  8
0
370
    -3
390
0
  6
Continuous
100
AcDbCircle
 10
27.269794
 20
-68.430939
 30
0.0
 40
3.75
100
AcDbArc
 50
25.275486
 51
93.862586
  0
ARC
  5
175
100
AcDbEntity
  8
0
370
    -3
390
0
  6
Continuous
100
AcDbCircle
 10
46.259366
 20
-59.464548
 30
0.0
 40
17.25
100
AcDbArc
 50
205.275486
 51
274.779285
  0
LINE
  5
176
100
AcDbEntity
  8
0
370
    -3
390
0
  6
CENTER
100
AcDbLine
 10
61.259366
 20
-167.464548
 30
0.0
 11
31.259366
 21
-167.464548
 31
0.0
  0
LINE
  5
177
100
AcDbEntity
  8
0
370
    -3
390
0
  6
Continuous
100
AcDbLine
 10
-125.740966
 20
-169.464548
 30
0.0
 11
-125.740966
 21
-57.464548
 31
0.0
  0
ARC
  5
178
100
AcDbEntity
  8
0
370
    -3
390
0
  6
Continuous
100
AcDbCircle
 10
-113.740966
 20
-169.464548
 30
0.0
 40
12.0
100
AcDbArc
 50
180.0
 51
270.0
  0
ARC
  5
179
100
AcDbEntity
  8
0
370
    -3
390
0
  6
Continuous
100
AcDbCircle
 10
-113.740966
 20
-57.464548
 30
0.0
 40
12.0
100
AcDbArc
 50
90.0
 51
180.0
  0
LINE
  5
17A
100
AcDbEntity
  8
0
370
    -3
390
0
  6
Continuous
100
AcDbLine
 10
-113.740966
 20
-45.464548
 30
0.0
 11
48.259034
 21
-45.464548
 31
0.0
  0
ARC
  5
17B
100
AcDbEntity
  8
0
370
    -3
390
0
  6
Continuous
100
AcDbCircle
 10
57.759034
 20
-116.062624
 30
0.0
 40
1.5
100
AcDbArc
 50
0.0
 51
60.0
  0
ARC
  5
17C
100
AcDbEntity
  8
0
370
    -3
390
0
  6
Continuous
100
AcDbCircle
 10
59.259034
 20
-113.464548
 30
0.0
 40
1.5
100
AcDbArc
 50
120.0
 51
240.0
  0
ARC
  5
17D
100
AcDbEntity
  8
0
370
    -3
390
0
  6
Continuous
100
AcDbCircle
 10
57.759034
 20
-110.866472
 30
0.0
 40
1.5
100
AcDbArc
 50
300.0
 51
0.0
  0
ARC
  5
17E
100
AcDbEntity
  8
0
370
    -3
390
0
  6
Continuous
100
AcDbCircle
 10
-5.142889
 20
-47.964548
 30
0.0
 40
1.5
100
AcDbArc
 50
90.0
 51
150.0
  0
ARC
  5
17F
100
AcDbEntity
  8
0
370
    -3
390
0
  6
Continuous
100
AcDbCircle
 10
-7.740966
 20
-46.464548
 30
0.0
 40
1.5
100
AcDbArc
 50
210.0
 51
330.0
  0
ARC
  5
180
100
AcDbEntity
  8
0
370
    -3
390
0
  6
Continuous
100
AcDbCircle
 10
-10.339042
 20
-47.964548
 30
0.0
 40
1.5
100
AcDbArc
 50
30.0
 51
90.0
  0
ARC
  5
181
100
AcDbEntity
  8
0
370
    -3
390
0
  6
Continuous
100
AcDbCircle
 10
-7.740966
 20
-180.464548
 30
0.0
 40
1.5
100
AcDbArc
 50
30.0
 51
150.0
  0
ARC
  5
182
100
AcDbEntity
  8
0
370
    -3
390
0
  6
Continuous
100
AcDbCircle
 10
-5.142889
 20
-178.964548
 30
0.0
 40
1.5
100
AcDbArc
 50
210.0
 51
270.0
  0
ARC
  5
183
100
AcDbEntity
  8
0
370
    -3
390
0
  6
Continuous
100
AcDbCircle
 10
-10.339042
 20
-178.964548
 30
0.0
 40
1.5
100
AcDbArc
 50
270.0
 51
330.0
  0
LINE
  5
184
100
AcDbEntity
  8
0
370
    -3
390
0
  6
CENTER
100
AcDbLine
 10
46.259034
 20
-182.464548
 30
0.0
 11
46.259034
 21
-152.464548
 31
0.0
  0
LINE
  5
185
100
AcDbEntity
  8
0
370
    -3
390
0
  6
Continuous
100
AcDbLine
 10
48.259034
 20
-181.464548
 30
0.0
 11
-120.240966
 21
-181.464548
 31
0.0
  0
LINE
  5
186
100
AcDbEntity
  8
0
370
    -3
390
0
  6
Continuous
100
AcDbLine
 10
60.259034
 20
-169.464548
 30
0.0
 11
60.259034
 21
-57.464548
 31
0.0
  0
ARC
  5
187
100
AcDbEntity
  8
0
370
    -3
390
0
  6
Continuous
100
AcDbCircle
 10
48.259034
 20
-169.464548
 30
0.0
 40
12.0
100
AcDbArc
 50
270.0
 51
0.0
  0
ARC
  5
188
100
AcDbEntity
  8
0
370
    -3
390
0
  6
Continuous
100
AcDbCircle
 10
48.259034
 20
-57.464548
 30
0.0
 40
12.0
100
AcDbArc
 50
0.0
 51
90.0
  0
LINE
  5
189
100
AcDbEntity
  8
0
370
    -3
390
0
  6
CENTER
100
AcDbLine
 10
-111.741297
 20
-182.464548
 30
0.0
 11
-111.741297
 21
-152.464548
 31
0.0
  0
LINE
  5
18A
100
AcDbEntity
  8
0
370
    -3
390
0
  6
CENTER
100
AcDbLine
 10
-126.741297
 20
-167.464548
 30
0.0
 11
-107.439804
 21
-167.464548
 31
0.0
  0
LINE
  5
18B
100
AcDbEntity
  8
0
370
    -3
390
0
  6
CENTER
100
AcDbLine
 10
46.259366
 20
-74.464548
 30
0.0
 11
46.259366
 21
-38.333586
 31
0.0
  0
LINE
  5
18C
100
AcDbEntity
  8
0
370
    -3
390
0
  6
CENTER
100
AcDbLine
 10
66.663879
 20
-59.464548
 30
0.0
 11
31.259366
 21
-59.464548
 31
0.0
  0
LINE
  5
18D
100
AcDbEntity
  8
0
370
    -3
390
0
  6
CENTER
100
AcDbLine
 10
-111.741297
 20
-74.464548
 30
0.0
 11
-111.741297
 21
-37.808147
 31
0.0
  0
LINE
  5
18E
100
AcDbEntity
  8
0
370
    -3
390
0
  6
CENTER
100
AcDbLine
 10
-126.741297
 20
-59.464548
 30
0.0
 11
-96.741297
 21
-59.464548
 31
0.0
  0
LINE
  5
18F
100
AcDbEntity
  8
0
370
    -3
390
0
  6
CENTER
100
AcDbLine
 10
-106.239804
 20
-167.464548
 30
0.0
 11
-94.376472
 21
-167.464548
 31
0.0
  0
CIRCLE
  5
190
100
AcDbEntity
  8
0
370
    -3
390
0
  6
Continuous
100
AcDbCircle
 10
-7.740966
 20
-113.464548
 30
0.0
 40
47.999771
  0
CIRCLE
  5
191
100
AcDbEntity
  8
0
370
    -3
390
0
  6
Continuous
100
AcDbCircle
 10
-7.740966
 20
-113.419154
 30
0.0
 40
49.249849
  0
ARC
  5
192
100
AcDbEntity
  8
0
370
    -3
390
0
  6
Continuous
100
AcDbCircle
 10
-113.740966
 20
-57.464548
 30
0.0
 40
11.0
100
AcDbArc
 50
90.0
 51
180.0
  0
LINE
  5
193
100
AcDbEntity
  8
0
370
    -3
390
0
  6
Continuous
100
AcDbLine
 10
-124.740966
 20
-57.464548
 30
0.0
 11
-124.740966
 21
-169.464548
 31
0.0
  0
ARC
  5
194
100
AcDbEntity
  8
0
370
    -3
390
0
  6
Continuous
100
AcDbCircle
 10
-113.740966
 20
-169.464548
 30
0.0
 40
11.0
100
AcDbArc
 50
180.0
 51
270.0
  0
ARC
  5
195
100
AcDbEntity
  8
0
370
    -3
390
0
  6
Continuous
100
AcDbCircle
 10
48.259034
 20
-169.464548
 30
0.0
 40
11.0
100
AcDbArc
 50
270.0
 51
0.0
  0
LINE
  5
196
100
AcDbEntity
  8
0
370
    -3
390
0
  6
Continuous
100
AcDbLine
 10
59.259034
 20
-169.464548
 30
0.0
 11
59.259034
 21
-116.062624
 31
0.0
  0
ARC
  5
197
100
AcDbEntity
  8
0
370
    -3
390
0
  6
Continuous
100
AcDbCircle
 10
48.259034
 20
-57.464548
 30
0.0
 40
11.0
100
AcDbArc
 50
0.0
 51
90.0
  0
LINE
  5
198
100
AcDbEntity
  8
0
370
    -3
390
0
  6
Continuous
100
AcDbLine
 10
-10.339042
 20
-46.464548
 30
0.0
 11
-113.740966
 21
-46.464548
 31
0.0
  0
LINE
  5
199
100
AcDbEntity
  8
0
370
    -3
390
0
  6
Continuous
100
AcDbLine
 10
59.259034
 20
-110.866472
 30
0.0
 11
59.259034
 21
-57.464548
 31
0.0
  0
LINE
  5
19A
100
AcDbEntity
  8
0
370
    -3
390
0
  6
Continuous
100
AcDbLine
 10
-5.142889
 20
-180.464548
 30
0.0
 11
48.259034
 21
-180.464548
 31
0.0
  0
LINE
  5
19B
100
AcDbEntity
  8
0
370
    -3
390
0
  6
Continuous
100
AcDbLine
 10
-113.740966
 20
-180.464548
 30
0.0
 11
-10.339042
 21
-180.464548
 31
0.0
  0
LINE
  5
19C
100
AcDbEntity
  8
0
370
    -3
390
0
  6
CENTER
100
AcDbLine
 10
-85.741268
 20
-173.464084
 30
0.0
 11
-103.741268
 21
-173.464084
 31
0.0
  0
LINE
  5
19D
100
AcDbEntity
  8
0
370
    -3
390
0
  6
CENTER
100
AcDbLine
 10
-94.741268
 20
-164.464084
 30
0.0
 11
-94.741268
 21
-182.464084
 31
0.0
  0
LINE
  5
19E
100
AcDbEntity
  8
0
370
    -3
390
0
  6
CENTER
100
AcDbLine
 10
26.259337
 20
-164.464084
 30
0.0
 11
26.259337
 21
-182.464084
 31
0.0
  0
LINE
  5
19F
100
AcDbEntity
  8
0
370
    -3
390
0
  6
CENTER
100
AcDbLine
 10
17.259337
 20
-173.464084
 30
0.0
 11
35.259337
 21
-173.464084
 31
0.0
  0
LINE
  5
1A0
100
AcDbEntity
  8
0
370
    -3
390
0
  6
CENTER
100
AcDbLine
 10
26.259337
 20
-62.465012
 30
0.0
 11
26.259337
 21
-44.465012
 31
0.0
  0
LINE
  5
1A1
100
AcDbEntity
  8
0
370
    -3
390
0
  6
CENTER
100
AcDbLine
 10
17.259337
 20
-53.465012
 30
0.0
 11
35.259337
 21
-53.465012
 31
0.0
  0
LINE
  5
1A2
100
AcDbEntity
  8
0
370
    -3
390
0
  6
CENTER
100
AcDbLine
 10
-94.741268
 20
-62.465012
 30
0.0
 11
-94.741268
 21
-44.465012
 31
0.0
  0
LINE
  5
1A3
100
AcDbEntity
  8
0
370
    -3
390
0
  6
CENTER
100
AcDbLine
 10
-85.741268
 20
-53.465012
 30
0.0
 11
-103.741268
 21
-53.465012
 31
0.0
  0
CIRCLE
  5
1A4
100
AcDbEntity
  8
0
370
    -3
390
0
  6
Continuous
100
AcDbCircle
 10
46.259366
 20
-59.464548
 30
0.0
 40
10.0
  0
CIRCLE
  5
1A5
100
AcDbEntity
  8
0
370
    -3
390
0
  6
Continuous
100
AcDbCircle
 10
26.259337
 20
-53.465012
 30
0.0
 40
4.4
  0
LINE
  5
1A6
100
AcDbEntity
  8
0
370
    -3
390
0
  6
Continuous
100
AcDbLine
 10
48.259034
 20
-46.464548
 30
0.0
 11
-5.142889
 21
-46.464548
 31
0.0
  0
LINE
  5
1A7
100
AcDbEntity
  8
0
370
    -3
390
0
  6
Continuous
100
AcDbLine
 10
19.259337
 20
-53.465012
 30
0.0
 11
19.259337
 21
-46.464548
 31
0.0
  0
LINE
  5
1A8
100
AcDbEntity
  8
0
370
    -3
390
0
  6
Continuous
100
AcDbLine
 10
33.259337
 20
-53.465012
 30
0.0
 11
33.259337
 21
-46.464548
 31
0.0
  0
ARC
  5
1A9
100
AcDbEntity
  8
0
370
    -3
390
0
  6
Continuous
100
AcDbCircle
 10
26.259337
 20
-53.465012
 30
0.0
 40
7.0
100
AcDbArc
 50
180.0
 51
0.0
  0
ARC
  5
1AA
100
AcDbEntity
  8
0
370
    -3
390
0
  6
Continuous
100
AcDbCircle
 10
27.269794
 20
-68.430939
 30
0.0
 40
5.0
100
AcDbArc
 50
25.275486
 51
93.862586
  0
ARC
  5
1AB
100
AcDbEntity
  8
0
370
    -3
390
0
  6
Continuous
100
AcDbCircle
 10
26.259337
 20
-53.465012
 30
0.0
 40
10.0
100
AcDbArc
 50
196.457401
 51
273.862586
  0
ARC
  5
1AC
100
AcDbEntity
  8
0
370
    -3
390
0
  6
Continuous
100
AcDbCircle
 10
46.259366
 20
-59.464548
 30
0.0
 40
16.0
100
AcDbArc
 50
205.275486
 51
274.779285
  0
CIRCLE
  5
1AD
100
AcDbEntity
  8
0
370
    -3
390
0
  6
Continuous
100
AcDbCircle
 10
26.259337
 20
-173.464084
 30
0.0
 40
4.4
  0
LINE
  5
1AE
100
AcDbEntity
  8
0
370
    -3
390
0
  6
Continuous
100
AcDbLine
 10
19.259337
 20
-173.464084
 30
0.0
 11
19.259337
 21
-180.464548
 31
0.0
  0
LINE
  5
1AF
100
AcDbEntity
  8
0
370
    -3
390
0
  6
Continuous
100
AcDbLine
 10
33.259337
 20
-173.464084
 30
0.0
 11
33.259337
 21
-180.464548
 31
0.0
  0
ARC
  5
1B0
100
AcDbEntity
  8
0
370
    -3
390
0
  6
Continuous
100
AcDbCircle
 10
26.259337
 20
-173.464084
 30
0.0
 40
7.0
100
AcDbArc
 50
0.0
 51
180.0
  0
ARC
  5
1B1
100
AcDbEntity
  8
0
370
    -3
390
0
  6
Continuous
100
AcDbCircle
 10
26.259337
 20
-173.464084
 30
0.0
 40
10.0
100
AcDbArc
 50
86.137414
 51
163.542599
  0
ARC
  5
1B2
100
AcDbEntity
  8
0
370
    -3
390
0
  6
Continuous
100
AcDbCircle
 10
27.269794
 20
-158.498157
 30
0.0
 40
5.0
100
AcDbArc
 50
266.137414
 51
334.724514
  0
ARC
  5
1B3
100
AcDbEntity
  8
0
370
    -3
390
0
  6
Continuous
100
AcDbCircle
 10
46.259366
 20
-167.464548
 30
0.0
 40
16.0
100
AcDbArc
 50
115.28024
 51
154.724514
  0
ARC
  5
1B4
100
AcDbEntity
  8
0
370
    -3
390
0
  6
Continuous
100
AcDbCircle
 10
52.258754
 20
-149.464794
 30
0.0
 40
10.0
100
AcDbArc
 50
106.458134
 51
176.219273
  0
ARC
  5
1B5
100
AcDbEntity
  8
0
370
    -3
390
0
  6
Continuous
100
AcDbCircle
 10
37.291399
 20
-148.47572
 30
0.0
 40
5.0
100
AcDbArc
 50
295.28024
 51
356.219273
  0
ARC
  5
1B6
100
AcDbEntity
  8
0
370
    -3
390
0
  6
Continuous
100
AcDbCircle
 10
-118.740685
 20
-77.464302
 30
0.0
 40
10.0
100
AcDbArc
 50
290.486173
 51
354.471605
  0
ARC
  5
1B7
100
AcDbEntity
  8
0
370
    -3
390
0
  6
Continuous
100
AcDbCircle
 10
-103.810457
 20
-78.909387
 30
0.0
 40
5.0
100
AcDbArc
 50
112.188753
 51
174.471605
  0
ARC
  5
1B8
100
AcDbEntity
  8
0
370
    -3
390
0
  6
Continuous
100
AcDbCircle
 10
-94.741268
 20
-53.465012
 30
0.0
 40
10.0
100
AcDbArc
 50
277.811937
 51
343.542599
  0
ARC
  5
1B9
100
AcDbEntity
  8
0
370
    -3
390
0
  6
Continuous
100
AcDbCircle
 10
-111.741297
 20
-59.464548
 30
0.0
 40
16.0
100
AcDbArc
 50
292.188753
 51
335.041315
  0
ARC
  5
1BA
100
AcDbEntity
  8
0
370
    -3
390
0
  6
Continuous
100
AcDbCircle
 10
-92.702438
 20
-68.325805
 30
0.0
 40
5.0
100
AcDbArc
 50
97.811937
 51
155.041315
  0
LINE
  5
1BB
100
AcDbEntity
  8
0
370
    -3
390
0
  6
Continuous
100
AcDbLine
 10
-101.741268
 20
-53.465012
 30
0.0
 11
-101.741268
 21
-46.464548
 31
0.0
  0
ARC
  5
1BC
100
AcDbEntity
  8
0
370
    -3
390
0
  6
Continuous
100
AcDbCircle
 10
-94.741268
 20
-53.465012
 30
0.0
 40
7.0
100
AcDbArc
 50
180.0
 51
0.0
  0
CIRCLE
  5
1BD
100
AcDbEntity
  8
0
370
    -3
390
0
  6
Continuous
100
AcDbCircle
 10
-94.741268
 20
-53.465012
 30
0.0
 40
4.4
  0
LINE
  5
1BE
100
AcDbEntity
  8
0
370
    -3
390
0
  6
Continuous
100
AcDbLine
 10
-87.741268
 20
-53.465012
 30
0.0
 11
-87.741268
 21
-46.464548
 31
0.0
  0
ARC
  5
1BF
100
AcDbEntity
  8
0
370
    -3
390
0
  6
Continuous
100
AcDbCircle
 10
-92.702438
 20
-158.603291
 30
0.0
 40
5.0
100
AcDbArc
 50
204.958685
 51
262.188063
  0
ARC
  5
1C0
100
AcDbEntity
  8
0
370
    -3
390
0
  6
Continuous
100
AcDbCircle
 10
-94.741268
 20
-173.464084
 30
0.0
 40
10.0
100
AcDbArc
 50
16.457401
 51
82.188063
  0
LINE
  5
1C1
100
AcDbEntity
  8
0
370
    -3
390
0
  6
CENTER
100
AcDbLine
 10
-94.741268
 20
-164.464084
 30
0.0
 11
-94.741268
 21
-182.464084
 31
0.0
  0
LINE
  5
1C2
100
AcDbEntity
  8
0
370
    -3
390
0
  6
CENTER
100
AcDbLine
 10
-80.462508
 20
-173.464084
 30
0.0
 11
-109.008235
 21
-173.464084
 31
0.0
  0
LINE
  5
1C3
100
AcDbEntity
  8
0
370
    -3
390
0
  6
Continuous
100
AcDbLine
 10
-101.741268
 20
-173.464084
 30
0.0
 11
-101.741268
 21
-180.464548
 31
0.0
  0
ARC
  5
1C4
100
AcDbEntity
  8
0
370
    -3
390
0
  6
Continuous
100
AcDbCircle
 10
-94.741268
 20
-173.464084
 30
0.0
 40
7.0
100
AcDbArc
 50
0.0
 51
180.0
  0
CIRCLE
  5
1C5
100
AcDbEntity
  8
0
370
    -3
390
0
  6
Continuous
100
AcDbCircle
 10
-94.741268
 20
-173.464084
 30
0.0
 40
4.4
  0
LINE
  5
1C6
100
AcDbEntity
  8
0
370
    -3
390
0
  6
Continuous
100
AcDbLine
 10
-87.741268
 20
-173.464084
 30
0.0
 11
-87.741268
 21
-180.464548
 31
0.0
  0
ARC
  5
1C7
100
AcDbEntity
  8
0
370
    -3
390
0
  6
Continuous
100
AcDbCircle
 10
-111.741297
 20
-167.464548
 30
0.0
 40
16.0
100
AcDbArc
 50
24.958685
 51
94.779285
  0
LINE
  5
1C8
100
AcDbEntity
  8
0
370
    -3
390
0
  6
Continuous
100
AcDbLine
 10
-135.240966
 20
-207.964548
 30
0.0
 11
-146.740966
 21
-207.964548
 31
0.0
  0
ARC
  5
1C9
100
AcDbEntity
  8
0
370
    -3
390
0
  6
Continuous
100
AcDbCircle
 10
-146.740966
 20
-210.964548
 30
0.0
 40
3.0
100
AcDbArc
 50
90.0
 51
180.0
  0
LINE
  5
1CA
100
AcDbEntity
  8
0
370
    -3
390
0
  6
Continuous
100
AcDbLine
 10
-149.740966
 20
-141.964548
 30
0.0
 11
-149.740966
 21
-211.464548
 31
0.0
  0
ARC
  5
1CB
100
AcDbEntity
  8
0
370
    -3
390
0
  6
Continuous
100
AcDbCircle
 10
-135.240966
 20
-202.964548
 30
0.0
 40
5.0
100
AcDbArc
 50
270.0
 51
360.0
  0
LINE
  5
1CC
100
AcDbEntity
  8
0
370
    -3
390
0
  6
Continuous
100
AcDbLine
 10
-133.740966
 20
-188.420619
 30
0.0
 11
-133.740966
 21
-191.964548
 31
0.0
  0
ARC
  5
1CD
100
AcDbEntity
  8
0
370
    -3
390
0
  6
Continuous
100
AcDbCircle
 10
-138.740966
 20
-191.964548
 30
0.0
 40
5.0
100
AcDbArc
 50
270.0
 51
0.0
  0
ARC
  5
1CE
100
AcDbEntity
  8
0
370
    -3
390
0
  6
Continuous
100
AcDbCircle
 10
-138.740966
 20
-188.420619
 30
0.0
 40
5.0
100
AcDbArc
 50
0.0
 51
90.0
  0
ARC
  5
1CF
100
AcDbEntity
  8
0
370
    -3
390
0
  6
Continuous
100
AcDbCircle
 10
-120.240966
 20
-191.464548
 30
0.0
 40
10.0
100
AcDbArc
 50
90.0
 51
180.0
  0
LINE
  5
1D0
100
AcDbEntity
  8
0
370
    -3
390
0
  6
Continuous
100
AcDbLine
 10
-149.740966
 20
-72.464548
 30
0.0
 11
-149.740966
 21
-141.964548
 31
0.0
  0
LINE
  5
1D1
100
AcDbEntity
  8
0
370
    -3
390
0
  6
Continuous
100
AcDbLine
 10
-146.740966
 20
-94.823029
 30
0.0
 11
-138.740966
 21
-94.823029
 31
0.0
  0
LINE
  5
1D2
100
AcDbEntity
  8
0
370
    -3
390
0
  6
Continuous
100
AcDbLine
 10
-133.740966
 20
-91.964548
 30
0.0
 11
-133.740966
 21
-95.508477
 31
0.0
  0
ARC
  5
1D3
100
AcDbEntity
  8
0
370
    -3
390
0
  6
Continuous
100
AcDbCircle
 10
-146.740966
 20
-103.508477
 30
0.0
 40
3.0
100
AcDbArc
 50
90.0
 51
180.0
  0
LINE
  5
1D4
100
AcDbEntity
  8
0
370
    -3
390
0
  6
Continuous
100
AcDbLine
 10
-146.740966
 20
-100.508477
 30
0.0
 11
-138.740966
 21
-100.508477
 31
0.0
  0
ARC
  5
1D5
100
AcDbEntity
  8
0
370
    -3
390
0
  6
Continuous
100
AcDbCircle
 10
-138.740966
 20
-95.508477
 30
0.0
 40
5.0
100
AcDbArc
 50
270.0
 51
0.0
  0
LINE
  5
1D6
100
AcDbEntity
  8
0
370
    -3
390
0
  6
DASHED
100
AcDbLine
 10
-130.240966
 20
-141.964548
 30
0.0
 11
-130.240966
 21
-110.96552
 31
0.0
  0
LINE
  5
1D7
100
AcDbEntity
  8
0
370
    -3
390
0
  6
Continuous
100
AcDbLine
 10
-146.740966
 20
-86.964548
 30
0.0
 11
-138.740966
 21
-86.964548
 31
0.0
  0
ARC
  5
1D8
100
AcDbEntity
  8
0
370
    -3
390
0
  6
Continuous
100
AcDbCircle
 10
-146.740966
 20
-83.964548
 30
0.0
 40
3.0
100
AcDbArc
 50
180.0
 51
270.0
  0
ARC
  5
1D9
100
AcDbEntity
  8
0
370
    -3
390
0
  6
Continuous
100
AcDbCircle
 10
-151.740966
 20
-72.464548
 30
0.0
 40
2.0
100
AcDbArc
 50
0.0
 51
90.0
  0
LINE
  5
1DA
100
AcDbEntity
  8
0
370
    -3
390
0
  6
Continuous
100
AcDbLine
 10
-151.740966
 20
-70.464548
 30
0.0
 11
-155.740966
 21
-70.464548
 31
0.0
  0
ARC
  5
1DB
100
AcDbEntity
  8
0
370
    -3
390
0
  6
Continuous
100
AcDbCircle
 10
-146.740966
 20
-72.964548
 30
0.0
 40
3.0
100
AcDbArc
 50
180.0
 51
270.0
  0
LINE
  5
1DC
100
AcDbEntity
  8
0
370
    -3
390
0
  6
Continuous
100
AcDbLine
 10
-130.740966
 20
-75.964548
 30
0.0
 11
-146.740966
 21
-75.964548
 31
0.0
  0
ARC
  5
1DD
100
AcDbEntity
  8
0
370
    -3
390
0
  6
Continuous
100
AcDbCircle
 10
-135.240966
 20
-80.964548
 30
0.0
 40
5.0
100
AcDbArc
 50
360.0
 51
90.0
  0
ARC
  5
1DE
100
AcDbEntity
  8
0
370
    -3
390
0
  6
Continuous
100
AcDbCircle
 10
-138.740966
 20
-91.964548
 30
0.0
 40
5.0
100
AcDbArc
 50
0.0
 51
90.0
  0
ARC
  5
1DF
100
AcDbEntity
  8
0
370
    -3
390
0
  6
Continuous
100
AcDbCircle
 10
-130.740966
 20
-70.964548
 30
0.0
 40
5.0
100
AcDbArc
 50
270.0
 51
0.0
  0
LINE
  5
1E0
100
AcDbEntity
  8
0
370
    -3
390
0
  6
Continuous
100
AcDbLine
 10
-130.240966
 20
-202.964548
 30
0.0
 11
-130.240966
 21
-80.964548
 31
0.0
  0
LINE
  5
1E1
100
AcDbEntity
  8
0
370
    -3
390
0
  6
Continuous
100
AcDbLine
 10
-146.740966
 20
-183.420619
 30
0.0
 11
-138.740966
 21
-183.420619
 31
0.0
  0
LINE
  5
1E2
100
AcDbEntity
  8
0
370
    -3
390
0
  6
Continuous
100
AcDbLine
 10
-146.740966
 20
-196.964548
 30
0.0
 11
-138.740966
 21
-196.964548
 31
0.0
  0
LINE
  5
1E3
100
AcDbEntity
  8
0
370
    -3
390
0
  6
Continuous
100
AcDbLine
 10
-146.740966
 20
-189.106067
 30
0.0
 11
-138.740966
 21
-189.106067
 31
0.0
  0
ARC
  5
1E4
100
AcDbEntity
  8
0
370
    -3
390
0
  6
Continuous
100
AcDbCircle
 10
-146.740966
 20
-180.420619
 30
0.0
 40
3.0
100
AcDbArc
 50
180.0
 51
270.0
  0
ARC
  5
1E5
100
AcDbEntity
  8
0
370
    -3
390
0
  6
Continuous
100
AcDbCircle
 10
-146.740966
 20
-199.964548
 30
0.0
 40
3.0
100
AcDbArc
 50
90.0
 51
180.0
  0
LINE
  5
1E6
100
AcDbEntity
  8
0
370
    -3
390
0
  6
Continuous
100
AcDbLine
 10
-151.740966
 20
-213.464548
 30
0.0
 11
-155.740966
 21
-213.464548
 31
0.0
  0
ARC
  5
1E7
100
AcDbEntity
  8
0
370
    -3
390
0
  6
Continuous
100
AcDbCircle
 10
-151.740966
 20
-211.464548
 30
0.0
 40
2.0
100
AcDbArc
 50
270.0
 51
0.0
  0
LINE
  5
1E8
100
AcDbEntity
  8
0
370
    -3
390
0
  6
CENTER
100
AcDbLine
 10
63.36356
 20
-113.464548
 30
0.0
 11
-72.711405
 21
-113.464548
 31
0.0
  0
LINE
  5
1E9
100
AcDbEntity
  8
0
370
    -3
390
0
  6
CENTER
100
AcDbLine
 10
-7.740966
 20
-38.34267
 30
0.0
 11
-7.740966
 21
-185.242045
 31
0.0
  0
LINE
  5
1EA
100
AcDbEntity
  8
0
370
    -3
390
0
  6
Continuous
100
AcDbLine
 10
271.92971
 20
-95.764548
 30
0.0
 11
271.92971
 21
-131.164548
 31
0.0
  0
LINE
  5
1EB
100
AcDbEntity
  8
0
370
    -3
390
0
  6
Continuous
100
AcDbLine
 10
241.929573
 20
-95.764548
 30
0.0
 11
241.929573
 21
-131.164548
 31
0.0
  0
LINE
  5
1EC
100
AcDbEntity
  8
0
370
    -3
390
0
  6
Continuous
100
AcDbLine
 10
320.465608
 20
-95.964548
 30
0.0
 11
320.465608
 21
-130.964548
 31
0.0
  0
LINE
  5
1ED
100
AcDbEntity
  8
0
370
    -3
390
0
  6
Continuous
100
AcDbLine
 10
299.67971
 20
-94.964548
 30
0.0
 11
299.67971
 21
-131.964548
 31
0.0
  0
LINE
  5
1EE
100
AcDbEntity
  8
0
370
    -3
390
0
  6
Continuous
100
AcDbLine
 10
297.92971
 20
-94.964548
 30
0.0
 11
297.92971
 21
-131.964548
 31
0.0
  0
LINE
  5
1EF
100
AcDbEntity
  8
0
370
    -3
390
0
  6
Continuous
100
AcDbLine
 10
215.929573
 20
-94.964548
 30
0.0
 11
215.929573
 21
-131.964548
 31
0.0
  0
LINE
  5
1F0
100
AcDbEntity
  8
0
370
    -3
390
0
  6
Continuous
100
AcDbLine
 10
214.179573
 20
-94.964548
 30
0.0
 11
214.179573
 21
-131.964548
 31
0.0
  0
LINE
  5
1F1
100
AcDbEntity
  8
0
370
    -3
390
0
  6
Continuous
100
AcDbLine
 10
323.92971
 20
-136.464548
 30
0.0
 11
323.92971
 21
-90.464548
 31
0.0
  0
ARC
  5
1F2
100
AcDbEntity
  8
0
370
    -3
390
0
  6
Continuous
100
AcDbCircle
 10
322.92971
 20
-90.464548
 30
0.0
 40
1.0
100
AcDbArc
 50
0.0
 51
90.0
  0
LINE
  5
1F3
100
AcDbEntity
  8
0
370
    -3
390
0
  6
Continuous
100
AcDbLine
 10
189.929573
 20
-136.464548
 30
0.0
 11
189.929573
 21
-90.464548
 31
0.0
  0
ARC
  5
1F4
100
AcDbEntity
  8
0
370
    -3
390
0
  6
Continuous
100
AcDbCircle
 10
190.929573
 20
-90.464548
 30
0.0
 40
1.0
100
AcDbArc
 50
90.0
 51
180.0
  0
LINE
  5
1F5
100
AcDbEntity
  8
0
370
    -3
390
0
  6
Continuous
100
AcDbLine
 10
193.393675
 20
-95.964548
 30
0.0
 11
214.179573
 21
-95.964548
 31
0.0
  0
LINE
  5
1F6
100
AcDbEntity
  8
0
370
    -3
390
0
  6
Continuous
100
AcDbLine
 10
189.929576
 20
-93.96455
 30
0.0
 11
193.393675
 21
-95.964548
 31
0.0
  0
LINE
  5
1F7
100
AcDbEntity
  8
0
370
    -3
390
0
  6
Continuous
100
AcDbLine
 10
193.393675
 20
-113.464548
 30
0.0
 11
193.393675
 21
-95.964548
 31
0.0
  0
LINE
  5
1F8
100
AcDbEntity
  8
0
370
    -3
390
0
  6
Continuous
100
AcDbLine
 10
214.179573
 20
-94.964548
 30
0.0
 11
215.929573
 21
-94.964548
 31
0.0
  0
LINE
  5
1F9
100
AcDbEntity
  8
0
370
    -3
390
0
  6
Continuous
100
AcDbLine
 10
215.929573
 20
-95.964548
 30
0.0
 11
241.929573
 21
-95.964548
 31
0.0
  0
LINE
  5
1FA
100
AcDbEntity
  8
0
370
    -3
390
0
  6
Continuous
100
AcDbLine
 10
241.929573
 20
-95.764548
 30
0.0
 11
271.92971
 21
-95.764548
 31
0.0
  0
LINE
  5
1FB
100
AcDbEntity
  8
0
370
    -3
390
0
  6
Continuous
100
AcDbLine
 10
271.92971
 20
-95.964548
 30
0.0
 11
297.92971
 21
-95.964548
 31
0.0
  0
LINE
  5
1FC
100
AcDbEntity
  8
0
370
    -3
390
0
  6
Continuous
100
AcDbLine
 10
297.92971
 20
-94.964548
 30
0.0
 11
299.67971
 21
-94.964548
 31
0.0
  0
LINE
  5
1FD
100
AcDbEntity
  8
0
370
    -3
390
0
  6
Continuous
100
AcDbLine
 10
299.67971
 20
-95.964548
 30
0.0
 11
320.465608
 21
-95.964548
 31
0.0
  0
LINE
  5
1FE
100
AcDbEntity
  8
0
370
    -3
390
0
  6
Continuous
100
AcDbLine
 10
323.929707
 20
-93.96455
 30
0.0
 11
320.465608
 21
-95.964548
 31
0.0
  0
LINE
  5
1FF
100
AcDbEntity
  8
0
370
    -3
390
0
  6
CENTER
100
AcDbLine
 10
185.760554
 20
-113.464548
 30
0.0
 11
330.464965
 21
-113.464548
 31
0.0
  0
LINE
  5
200
100
AcDbEntity
  8
0
370
    -3
390
0
  6
Continuous
100
AcDbLine
 10
222.829573
 20
-85.964548
 30
0.0
 11
269.02971
 21
-85.964548
 31
0.0
  0
ARC
  5
201
100
AcDbEntity
  8
0
370
    -3
390
0
  6
Continuous
100
AcDbCircle
 10
222.829573
 20
-86.364548
 30
0.0
 40
0.4
100
AcDbArc
 50
90.0
 51
180.0
  0
ARC
  5
202
100
AcDbEntity
  8
0
370
    -3
390
0
  6
Continuous
100
AcDbCircle
 10
207.029573
 20
-89.064548
 30
0.0
 40
0.4
100
AcDbArc
 50
270.0
 51
0.0
  0
ARC
  5
203
100
AcDbEntity
  8
0
370
    -3
390
0
  6
Continuous
100
AcDbCircle
 10
222.029573
 20
-88.064548
 30
0.0
 40
0.4
100
AcDbArc
 50
270.0
 51
0.0
  0
ARC
  5
204
100
AcDbEntity
  8
0
370
    -3
390
0
  6
Continuous
100
AcDbCircle
 10
269.02971
 20
-86.364548
 30
0.0
 40
0.4
100
AcDbArc
 50
0.0
 51
90.0
  0
LINE
  5
205
100
AcDbEntity
  8
0
370
    -3
390
0
  6
Continuous
100
AcDbLine
 10
269.42971
 20
-87.914548
 30
0.0
 11
269.42971
 21
-86.364548
 31
0.0
  0
LINE
  5
206
100
AcDbEntity
  8
0
370
    -3
390
0
  6
Continuous
100
AcDbLine
 10
269.82971
 20
-88.214548
 30
0.0
 11
289.02971
 21
-88.214548
 31
0.0
  0
ARC
  5
207
100
AcDbEntity
  8
0
370
    -3
390
0
  6
Continuous
100
AcDbCircle
 10
269.82971
 20
-87.814548
 30
0.0
 40
0.4
100
AcDbArc
 50
180.0
 51
270.0
  0
LINE
  5
208
100
AcDbEntity
  8
0
370
    -3
390
0
  6
Continuous
100
AcDbLine
 10
190.929573
 20
-89.464548
 30
0.0
 11
207.029573
 21
-89.464548
 31
0.0
  0
LINE
  5
209
100
AcDbEntity
  8
0
370
    -3
390
0
  6
Continuous
100
AcDbLine
 10
207.429573
 20
-88.464548
 30
0.0
 11
207.429573
 21
-89.064548
 31
0.0
  0
LINE
  5
20A
100
AcDbEntity
  8
0
370
    -3
390
0
  6
Continuous
100
AcDbLine
 10
222.029573
 20
-88.464548
 30
0.0
 11
207.429608
 21
-88.464548
 31
0.0
  0
LINE
  5
20B
100
AcDbEntity
  8
0
370
    -3
390
0
  6
Continuous
100
AcDbLine
 10
222.429573
 20
-86.364548
 30
0.0
 11
222.429573
 21
-88.064548
 31
0.0
  0
ARC
  5
20C
100
AcDbEntity
  8
0
370
    -3
390
0
  6
Continuous
100
AcDbCircle
 10
306.02971
 20
-88.864548
 30
0.0
 40
0.4
100
AcDbArc
 50
0.0
 51
90.0
  0
ARC
  5
20D
100
AcDbEntity
  8
0
370
    -3
390
0
  6
Continuous
100
AcDbCircle
 10
306.82971
 20
-89.064548
 30
0.0
 40
0.4
100
AcDbArc
 50
180.0
 51
270.0
  0
ARC
  5
20E
100
AcDbEntity
  8
0
370
    -3
390
0
  6
Continuous
100
AcDbCircle
 10
289.610657
 20
-88.064548
 30
0.0
 40
0.4
100
AcDbArc
 50
223.432537
 51
270.0
  0
ARC
  5
20F
100
AcDbEntity
  8
0
370
    -3
390
0
  6
Continuous
100
AcDbCircle
 10
289.02971
 20
-88.614548
 30
0.0
 40
0.4
100
AcDbArc
 50
43.432537
 51
90.0
  0
LINE
  5
210
100
AcDbEntity
  8
0
370
    -3
390
0
  6
Continuous
100
AcDbLine
 10
306.42971
 20
-88.864548
 30
0.0
 11
306.42971
 21
-89.064548
 31
0.0
  0
LINE
  5
211
100
AcDbEntity
  8
0
370
    -3
390
0
  6
Continuous
100
AcDbLine
 10
289.610657
 20
-88.464548
 30
0.0
 11
306.02971
 21
-88.464548
 31
0.0
  0
LINE
  5
212
100
AcDbEntity
  8
0
370
    -3
390
0
  6
Continuous
100
AcDbLine
 10
322.92971
 20
-89.464548
 30
0.0
 11
306.82971
 21
-89.464548
 31
0.0
  0
LINE
  5
213
100
AcDbEntity
  8
0
370
    -3
390
0
  6
Continuous
100
AcDbLine
 10
222.829573
 20
-140.964548
 30
0.0
 11
269.02971
 21
-140.964548
 31
0.0
  0
ARC
  5
214
100
AcDbEntity
  8
0
370
    -3
390
0
  6
Continuous
100
AcDbCircle
 10
222.829573
 20
-140.564548
 30
0.0
 40
0.4
100
AcDbArc
 50
180.0
 51
270.0
  0
ARC
  5
215
100
AcDbEntity
  8
0
370
    -3
390
0
  6
Continuous
100
AcDbCircle
 10
207.029573
 20
-137.864548
 30
0.0
 40
0.4
100
AcDbArc
 50
0.0
 51
90.0
  0
ARC
  5
216
100
AcDbEntity
  8
0
370
    -3
390
0
  6
Continuous
100
AcDbCircle
 10
222.029573
 20
-138.864548
 30
0.0
 40
0.4
100
AcDbArc
 50
0.0
 51
90.0
  0
ARC
  5
217
100
AcDbEntity
  8
0
370
    -3
390
0
  6
Continuous
100
AcDbCircle
 10
306.02971
 20
-138.064548
 30
0.0
 40
0.4
100
AcDbArc
 50
270.0
 51
0.0
  0
ARC
  5
218
100
AcDbEntity
  8
0
370
    -3
390
0
  6
Continuous
100
AcDbCircle
 10
306.82971
 20
-137.864548
 30
0.0
 40
0.4
100
AcDbArc
 50
90.0
 51
180.0
  0
ARC
  5
219
100
AcDbEntity
  8
0
370
    -3
390
0
  6
Continuous
100
AcDbCircle
 10
269.02971
 20
-140.564548
 30
0.0
 40
0.4
100
AcDbArc
 50
270.0
 51
0.0
  0
LINE
  5
21A
100
AcDbEntity
  8
0
370
    -3
390
0
  6
Continuous
100
AcDbLine
 10
269.42971
 20
-139.014548
 30
0.0
 11
269.42971
 21
-140.564548
 31
0.0
  0
ARC
  5
21B
100
AcDbEntity
  8
0
370
    -3
390
0
  6
Continuous
100
AcDbCircle
 10
289.610657
 20
-138.864548
 30
0.0
 40
0.4
100
AcDbArc
 50
90.0
 51
136.567463
  0
ARC
  5
21C
100
AcDbEntity
  8
0
370
    -3
390
0
  6
Continuous
100
AcDbCircle
 10
289.02971
 20
-138.314548
 30
0.0
 40
0.4
100
AcDbArc
 50
270.0
 51
316.567463
  0
LINE
  5
21D
100
AcDbEntity
  8
0
370
    -3
390
0
  6
Continuous
100
AcDbLine
 10
269.82971
 20
-138.714548
 30
0.0
 11
289.02971
 21
-138.714548
 31
0.0
  0
ARC
  5
21E
100
AcDbEntity
  8
0
370
    -3
390
0
  6
Continuous
100
AcDbCircle
 10
269.82971
 20
-139.114548
 30
0.0
 40
0.4
100
AcDbArc
 50
90.0
 51
180.0
  0
LINE
  5
21F
100
AcDbEntity
  8
0
370
    -3
390
0
  6
Continuous
100
AcDbLine
 10
306.42971
 20
-138.064548
 30
0.0
 11
306.42971
 21
-137.864548
 31
0.0
  0
LINE
  5
220
100
AcDbEntity
  8
0
370
    -3
390
0
  6
Continuous
100
AcDbLine
 10
190.929573
 20
-137.464548
 30
0.0
 11
207.029573
 21
-137.464548
 31
0.0
  0
LINE
  5
221
100
AcDbEntity
  8
0
370
    -3
390
0
  6
Continuous
100
AcDbLine
 10
207.429573
 20
-138.464548
 30
0.0
 11
207.429573
 21
-137.864548
 31
0.0
  0
LINE
  5
222
100
AcDbEntity
  8
0
370
    -3
390
0
  6
Continuous
100
AcDbLine
 10
222.029573
 20
-138.464548
 30
0.0
 11
207.429608
 21
-138.464548
 31
0.0
  0
LINE
  5
223
100
AcDbEntity
  8
0
370
    -3
390
0
  6
Continuous
100
AcDbLine
 10
222.429573
 20
-140.564548
 30
0.0
 11
222.429573
 21
-138.864548
 31
0.0
  0
LINE
  5
224
100
AcDbEntity
  8
0
370
    -3
390
0
  6
Continuous
100
AcDbLine
 10
289.610657
 20
-138.464548
 30
0.0
 11
306.02971
 21
-138.464548
 31
0.0
  0
LINE
  5
225
100
AcDbEntity
  8
0
370
    -3
390
0
  6
Continuous
100
AcDbLine
 10
322.92971
 20
-137.464548
 30
0.0
 11
306.82971
 21
-137.464548
 31
0.0
  0
LINE
  5
226
100
AcDbEntity
  8
0
370
    -3
390
0
  6
Continuous
100
AcDbLine
 10
193.393675
 20
-130.964548
 30
0.0
 11
214.179573
 21
-130.964548
 31
0.0
  0
LINE
  5
227
100
AcDbEntity
  8
0
370
    -3
390
0
  6
Continuous
100
AcDbLine
 10
189.929573
 20
-92.664548
 30
0.0
 11
323.92971
 21
-92.664548
 31
0.0
  0
ARC
  5
228
100
AcDbEntity
  8
0
370
    -3
390
0
  6
Continuous
100
AcDbCircle
 10
190.929573
 20
-136.464548
 30
0.0
 40
1.0
100
AcDbArc
 50
180.0
 51
270.0
  0
LINE
  5
229
100
AcDbEntity
  8
0
370
    -3
390
0
  6
Continuous
100
AcDbLine
 10
189.929576
 20
-132.964546
 30
0.0
 11
193.393675
 21
-130.964548
 31
0.0
  0
LINE
  5
22A
100
AcDbEntity
  8
0
370
    -3
390
0
  6
Continuous
100
AcDbLine
 10
193.393675
 20
-113.464548
 30
0.0
 11
193.393675
 21
-130.964548
 31
0.0
  0
LINE
  5
22B
100
AcDbEntity
  8
0
370
    -3
390
0
  6
Continuous
100
AcDbLine
 10
214.179573
 20
-131.964548
 30
0.0
 11
215.929573
 21
-131.964548
 31
0.0
  0
LINE
  5
22C
100
AcDbEntity
  8
0
370
    -3
390
0
  6
Continuous
100
AcDbLine
 10
215.929573
 20
-130.964548
 30
0.0
 11
241.929573
 21
-130.964548
 31
0.0
  0
LINE
  5
22D
100
AcDbEntity
  8
0
370
    -3
390
0
  6
Continuous
100
AcDbLine
 10
241.929573
 20
-131.164548
 30
0.0
 11
271.92971
 21
-131.164548
 31
0.0
  0
LINE
  5
22E
100
AcDbEntity
  8
0
370
    -3
390
0
  6
Continuous
100
AcDbLine
 10
271.92971
 20
-130.964548
 30
0.0
 11
297.92971
 21
-130.964548
 31
0.0
  0
LINE
  5
22F
100
AcDbEntity
  8
0
370
    -3
390
0
  6
Continuous
100
AcDbLine
 10
297.92971
 20
-131.964548
 30
0.0
 11
299.67971
 21
-131.964548
 31
0.0
  0
LINE
  5
230
100
AcDbEntity
  8
0
370
    -3
390
0
  6
Continuous
100
AcDbLine
 10
299.67971
 20
-130.964548
 30
0.0
 11
320.465608
 21
-130.964548
 31
0.0
  0
ARC
  5
231
100
AcDbEntity
  8
0
370
    -3
390
0
  6
Continuous
100
AcDbCircle
 10
322.92971
 20
-136.464548
 30
0.0
 40
1.0
100
AcDbArc
 50
270.0
 51
0.0
  0
LINE
  5
232
100
AcDbEntity
  8
0
370
    -3
390
0
  6
Continuous
100
AcDbLine
 10
323.929707
 20
-132.964546
 30
0.0
 11
320.465608
 21
-130.964548
 31
0.0
  0
LINE
  5
233
100
AcDbEntity
  8
0
370
    -3
390
0
  6
Continuous
100
AcDbLine
 10
121.724606
 20
-92.664548
 30
0.0
 11
111.724606
 21
-92.664548
 31
0.0
  0
LINE
  5
234
100
AcDbEntity
  8
0
370
    -3
390
0
  6
Continuous
100
AcDbLine
 10
121.724606
 20
-96.694038
 30
0.0
 11
121.724606
 21
-92.664548
 31
0.0
  0
LINE
  5
235
100
AcDbEntity
  8
0
370
    -3
390
0
  6
Continuous
100
AcDbLine
 10
111.724606
 20
-96.694038
 30
0.0
 11
111.724606
 21
-92.664548
 31
0.0
  0
LINE
  5
236
100
AcDbEntity
  8
0
370
    -3
390
0
  6
CENTER
100
AcDbLine
 10
145.369356
 20
-113.464548
 30
0.0
 11
88.736544
 21
-113.464548
 31
0.0
  0
LINE
  5
237
100
AcDbEntity
  8
0
370
    -3
390
0
  6
CENTER
100
AcDbLine
 10
116.724606
 20
-86.295755
 30
0.0
 11
116.724606
 21
-141.67006
 31
0.0
  0
ARC
  5
238
100
AcDbEntity
  8
0
370
    -3
390
0
  6
Continuous
100
AcDbCircle
 10
116.724606
 20
-113.464548
 30
0.0
 40
17.5
100
AcDbArc
 50
106.60155
 51
73.39845
  0
CIRCLE
  5
239
100
AcDbEntity
  8
0
370
    -3
390
0
  6
Continuous
100
AcDbCircle
 10
116.724606
 20
-113.464548
 30
0.0
 40
24.0
  0
LINE
  5
23A
100
AcDbEntity
  8
0
370
    -3
390
0
  6
CENTER
100
AcDbLine
 10
432.530403
 20
-281.920843
 30
0.0
 11
432.530403
 21
-41.106502
 31
0.0
  0
CIRCLE
  5
23B
100
AcDbEntity
  8
0
370
    -3
390
0
  6
Continuous
100
AcDbCircle
 10
-7.740966
 20
-113.464548
 30
0.0
 40
31.0
  0
LINE
  5
23C
100
AcDbEntity
  8
0
370
    -3
390
0
  6
Continuous
100
AcDbLine
 10
406.930403
 20
-216.164548
 30
0.0
 11
406.930403
 21
-224.764548
 31
0.0
  0
ARC
  5
23D
100
AcDbEntity
  8
0
370
    -3
390
0
  6
Continuous
100
AcDbCircle
 10
405.330403
 20
-224.764548
 30
0.0
 40
1.6
100
AcDbArc
 50
270.0
 51
0.0
  0
ARC
  5
23E
100
AcDbEntity
  8
0
370
    -3
390
0
  6
Continuous
100
AcDbCircle
 10
410.130403
 20
-216.164548
 30
0.0
 40
3.2
100
AcDbArc
 50
90.0
 51
180.0
  0
LINE
  5
23F
100
AcDbEntity
  8
0
370
    -3
390
0
  6
Continuous
100
AcDbLine
 10
410.130403
 20
-212.964548
 30
0.0
 11
411.845924
 21
-212.964548
 31
0.0
  0
LINE
  5
240
100
AcDbEntity
  8
0
370
    -3
390
0
  6
Continuous
100
AcDbLine
 10
453.387057
 20
-212.964548
 30
0.0
 11
454.930403
 21
-212.964548
 31
0.0
  0
ARC
  5
241
100
AcDbEntity
  8
0
370
    -3
390
0
  6
Continuous
100
AcDbCircle
 10
454.930403
 20
-216.164548
 30
0.0
 40
3.2
100
AcDbArc
 50
0.0
 51
90.0
  0
ARC
  5
242
100
AcDbEntity
  8
0
370
    -3
390
0
  6
Continuous
100
AcDbCircle
 10
459.730403
 20
-224.764548
 30
0.0
 40
1.6
100
AcDbArc
 50
180.0
 51
270.0
  0
LINE
  5
243
100
AcDbEntity
  8
0
370
    -3
390
0
  6
Continuous
100
AcDbLine
 10
458.130403
 20
-216.164548
 30
0.0
 11
458.130403
 21
-224.764548
 31
0.0
  0
ARC
  5
244
100
AcDbEntity
  8
0
370
    -3
390
0
  6
Continuous
100
AcDbCircle
 10
383.029949
 20
-113.464548
 30
0.0
 40
1.5
100
AcDbArc
 50
270.0
 51
90.0
  0
LINE
  5
245
100
AcDbEntity
  8
0
370
    -3
390
0
  6
Continuous
100
AcDbLine
 10
383.029949
 20
-111.964548
 30
0.0
 11
374.530176
 21
-111.964548
 31
0.0
  0
LINE
  5
246
100
AcDbEntity
  8
0
370
    -3
390
0
  6
Continuous
100
AcDbLine
 10
383.029949
 20
-114.964548
 30
0.0
 11
374.530176
 21
-114.964548
 31
0.0
  0
LINE
  5
247
100
AcDbEntity
  8
0
370
    -3
390
0
  6
CENTER
100
AcDbLine
 10
502.378637
 20
-113.464548
 30
0.0
 11
357.955964
 21
-113.464548
 31
0.0
  0
ARC
  5
248
100
AcDbEntity
  8
0
370
    -3
390
0
  6
Continuous
100
AcDbCircle
 10
392.029949
 20
-113.464548
 30
0.0
 40
1.5
100
AcDbArc
 50
90.0
 51
270.0
  0
LINE
  5
249
100
AcDbEntity
  8
0
370
    -3
390
0
  6
Continuous
100
AcDbLine
 10
392.029949
 20
-111.964548
 30
0.0
 11
490.530176
 21
-111.964548
 31
0.0
  0
LINE
  5
24A
100
AcDbEntity
  8
0
370
    -3
390
0
  6
Continuous
100
AcDbLine
 10
392.029949
 20
-114.964548
 30
0.0
 11
490.530176
 21
-114.964548
 31
0.0
  0
CIRCLE
  5
24B
100
AcDbEntity
  8
0
370
    -3
390
0
  6
Continuous
100
AcDbCircle
 10
-111.741297
 20
-59.464548
 30
0.0
 40
10.0
  0
CIRCLE
  5
24C
100
AcDbEntity
  8
0
370
    -3
390
0
  6
Continuous
100
AcDbCircle
 10
-111.741297
 20
-167.464548
 30
0.0
 40
10.0
  0
CIRCLE
  5
24D
100
AcDbEntity
  8
0
370
    -3
390
0
  6
Continuous
100
AcDbCircle
 10
46.259034
 20
-167.464548
 30
0.0
 40
10.0
  0
LINE
  5
24E
100
AcDbEntity
  8
0
370
    -3
390
0
  6
DASHED
100
AcDbLine
 10
442.530403
 20
-67.464548
 30
0.0
 11
442.530403
 21
-51.464548
 31
0.0
  0
LINE
  5
24F
100
AcDbEntity
  8
0
370
    -3
390
0
  6
DASHED
100
AcDbLine
 10
422.530403
 20
-67.464548
 30
0.0
 11
422.530403
 21
-51.464548
 31
0.0
  0
LINE
  5
250
100
AcDbEntity
  8
0
370
    -3
390
0
  6
DASHED
100
AcDbLine
 10
422.530403
 20
-52.547048
 30
0.0
 11
390.530403
 21
-52.547048
 31
0.0
  0
LINE
  5
251
100
AcDbEntity
  8
0
370
    -3
390
0
  6
DASHED
100
AcDbLine
 10
422.530403
 20
-66.382048
 30
0.0
 11
390.530403
 21
-66.382048
 31
0.0
  0
LINE
  5
252
100
AcDbEntity
  8
0
370
    -3
390
0
  6
DASHED
100
AcDbLine
 10
422.530403
 20
-52.464548
 30
0.0
 11
442.530403
 21
-52.464548
 31
0.0
  0
LINE
  5
253
100
AcDbEntity
  8
0
370
    -3
390
0
  6
DASHED
100
AcDbLine
 10
422.530403
 20
-66.464548
 30
0.0
 11
442.530403
 21
-66.464548
 31
0.0
  0
LINE
  5
254
100
AcDbEntity
  8
0
370
    -3
390
0
  6
DASHED
100
AcDbLine
 10
422.530403
 20
-159.464548
 30
0.0
 11
390.530403
 21
-159.464548
 31
0.0
  0
LINE
  5
255
100
AcDbEntity
  8
0
370
    -3
390
0
  6
DASHED
100
AcDbLine
 10
422.530403
 20
-160.547048
 30
0.0
 11
390.530403
 21
-160.547048
 31
0.0
  0
LINE
  5
256
100
AcDbEntity
  8
0
370
    -3
390
0
  6
DASHED
100
AcDbLine
 10
390.530403
 20
-157.464548
 30
0.0
 11
374.530176
 21
-157.464548
 31
0.0
  0
LINE
  5
257
100
AcDbEntity
  8
0
370
    -3
390
0
  6
DASHED
100
AcDbLine
 10
390.530403
 20
-177.464548
 30
0.0
 11
390.530403
 21
-157.464548
 31
0.0
  0
LINE
  5
258
100
AcDbEntity
  8
0
370
    -3
390
0
  6
DASHED
100
AcDbLine
 10
422.530403
 20
-175.464548
 30
0.0
 11
390.530403
 21
-175.464548
 31
0.0
  0
LINE
  5
259
100
AcDbEntity
  8
0
370
    -3
390
0
  6
DASHED
100
AcDbLine
 10
422.530403
 20
-174.382048
 30
0.0
 11
390.530403
 21
-174.382048
 31
0.0
  0
LINE
  5
25A
100
AcDbEntity
  8
0
370
    -3
390
0
  6
DASHED
100
AcDbLine
 10
390.530403
 20
-177.464548
 30
0.0
 11
374.530176
 21
-177.464548
 31
0.0
  0
LINE
  5
25B
100
AcDbEntity
  8
0
370
    -3
390
0
  6
DASHED
100
AcDbLine
 10
422.530403
 20
-160.464548
 30
0.0
 11
442.530403
 21
-160.464548
 31
0.0
  0
LINE
  5
25C
100
AcDbEntity
  8
0
370
    -3
390
0
  6
DASHED
100
AcDbLine
 10
422.530403
 20
-175.464548
 30
0.0
 11
422.530403
 21
-159.464548
 31
0.0
  0
LINE
  5
25D
100
AcDbEntity
  8
0
370
    -3
390
0
  6
DASHED
100
AcDbLine
 10
422.530403
 20
-174.464548
 30
0.0
 11
442.530403
 21
-174.464548
 31
0.0
  0
LINE
  5
25E
100
AcDbEntity
  8
0
370
    -3
390
0
  6
DASHED
100
AcDbLine
 10
442.530403
 20
-175.464548
 30
0.0
 11
442.530403
 21
-159.464548
 31
0.0
  0
LINE
  5
25F
100
AcDbEntity
  8
0
370
    -3
390
0
  6
DASHED
100
AcDbLine
 10
474.530631
 20
-159.464548
 30
0.0
 11
442.530403
 21
-159.464548
 31
0.0
  0
LINE
  5
260
100
AcDbEntity
  8
0
370
    -3
390
0
  6
DASHED
100
AcDbLine
 10
474.530631
 20
-160.547048
 30
0.0
 11
442.530403
 21
-160.547048
 31
0.0
  0
LINE
  5
261
100
AcDbEntity
  8
0
370
    -3
390
0
  6
DASHED
100
AcDbLine
 10
474.530631
 20
-175.464548
 30
0.0
 11
442.530403
 21
-175.464548
 31
0.0
  0
LINE
  5
262
100
AcDbEntity
  8
0
370
    -3
390
0
  6
DASHED
100
AcDbLine
 10
474.530631
 20
-174.382048
 30
0.0
 11
442.530403
 21
-174.382048
 31
0.0
  0
LINE
  5
263
100
AcDbEntity
  8
0
370
    -3
390
0
  6
DASHED
100
AcDbLine
 10
474.530403
 20
-177.464548
 30
0.0
 11
474.530403
 21
-157.464548
 31
0.0
  0
LINE
  5
264
100
AcDbEntity
  8
0
370
    -3
390
0
  6
DASHED
100
AcDbLine
 10
474.530631
 20
-157.464667
 30
0.0
 11
490.530176
 21
-157.464667
 31
0.0
  0
LINE
  5
265
100
AcDbEntity
  8
0
370
    -3
390
0
  6
DASHED
100
AcDbLine
 10
474.530631
 20
-177.464667
 30
0.0
 11
490.530176
 21
-177.464667
 31
0.0
  0
LINE
  5
266
100
AcDbEntity
  8
0
370
    -3
390
0
  6
Continuous
100
AcDbLine
 10
-292.240966
 20
-278.161076
 30
0.0
 11
-292.240966
 21
-277.764548
 31
0.0
  0
ARC
  5
267
100
AcDbEntity
  8
0
370
    -3
390
0
  6
Continuous
100
AcDbCircle
 10
-290.940966
 20
-278.161076
 30
0.0
 40
1.299999
100
AcDbArc
 50
180.0
 51
253.398469
  0
ARC
  5
268
100
AcDbEntity
  8
0
370
    -3
390
0
  6
Continuous
100
AcDbCircle
 10
-290.740966
 20
-277.764548
 30
0.0
 40
1.5
100
AcDbArc
 50
147.769047
 51
180.0
  0
ARC
  5
269
100
AcDbEntity
  8
0
370
    -3
390
0
  6
Continuous
100
AcDbCircle
 10
-288.740966
 20
-270.782051
 30
0.0
 40
9.0
100
AcDbArc
 50
253.398469
 51
286.601548
  0
ARC
  5
26A
100
AcDbEntity
  8
0
370
    -3
390
0
  6
Continuous
100
AcDbCircle
 10
-286.540965
 20
-278.161076
 30
0.0
 40
1.299999
100
AcDbArc
 50
286.601531
 51
0.0
  0
LINE
  5
26B
100
AcDbEntity
  8
0
370
    -3
390
0
  6
Continuous
100
AcDbLine
 10
-285.240966
 20
-278.161076
 30
0.0
 11
-285.240966
 21
-277.764548
 31
0.0
  0
ARC
  5
26C
100
AcDbEntity
  8
0
370
    -3
390
0
  6
Continuous
100
AcDbCircle
 10
-286.740966
 20
-277.764548
 30
0.0
 40
1.5
100
AcDbArc
 50
0.0
 51
32.230953
  0
MTEXT
  5
26E
100
AcDbEntity
  8
0
370
    -3
390
0
  6
Continuous
100
AcDbMText
 10
-539.93811
 20
161.541794
 30
0.0
 40
10.0
 41
0.0
 71
     7
 72
     1
  1
\W0.63;三菱ギヤードモータ  
  7
ZU_SHPTB00001
 11
1.0
 21
0.0
 31
0.0
 73
     1
 44
1.0
  0
MTEXT
  5
26F
100
AcDbEntity
  8
0
370
    -3
390
0
  6
Continuous
100
AcDbMText
 10
-539.93811
 20
150.241791
 30
0.0
 40
10.0
 41
0.0
 71
     7
 72
     1
  1
\W0.47;GM-SSYPF-RH
  7
ZU_SHPTB00001
 11
1.0
 21
0.0
 31
0.0
 73
     1
 44
1.0
  0
MTEXT
  5
270
100
AcDbEntity
  8
0
370
    -3
390
0
  6
Continuous
100
AcDbMText
 10
-539.93811
 20
138.941803
 30
0.0
 40
10.0
 41
0.0
 71
     7
 72
     1
  1
\W0.47;0.75(kW)
  7
ZU_SHPTB00001
 11
1.0
 21
0.0
 31
0.0
 73
     1
 44
1.0
  0
MTEXT
  5
271
100
AcDbEntity
  8
0
370
    -3
390
0
  6
Continuous
100
AcDbMText
 10
-539.93811
 20
127.6418
 30
0.0
 40
10.0
 41
0.0
 71
     7
 72
     1
  1
\W0.47;1/40\W0.63;～\W0.47;1/60
  7
ZU_SHPTB00001
 11
1.0
 21
0.0
 31
0.0
 73
     1
 44
1.0
  0
MTEXT
  5
272
100
AcDbEntity
  8
0
370
    -3
390
0
  6
Continuous
100
AcDbMText
 10
-539.93811
 20
116.341797
 30
0.0
 40
10.0
 41
0.0
 71
     7
 72
     1
  1
\W0.47;SCALE\W0.78; \W0.47;1/1
  7
ZU_SHPTB00001
 11
1.0
 21
0.0
 31
0.0
 73
     1
 44
1.0
  0
ARC
  5
273
100
AcDbEntity
  8
0
370
    -3
390
0
  6
Continuous
100
AcDbCircle
 10
-146.748719
 20
84.035501
 30
0.0
 40
3.0
100
AcDbArc
 50
90.0
 51
180.0
  0
ARC
  5
274
100
AcDbEntity
  8
0
370
    -3
390
0
  6
Continuous
100
AcDbCircle
 10
-146.748719
 20
103.57943
 30
0.0
 40
3.0
100
AcDbArc
 50
180.0
 51
270.0
  0
LINE
  5
275
100
AcDbEntity
  8
0
370
    -3
390
0
  6
Continuous
100
AcDbLine
 10
-146.748719
 20
94.893983
 30
0.0
 11
-138.748719
 21
94.893983
 31
0.0
  0
LINE
  5
276
100
AcDbEntity
  8
0
370
    -3
390
0
  6
Continuous
100
AcDbLine
 10
-146.748719
 20
87.035501
 30
0.0
 11
-138.748719
 21
87.035501
 31
0.0
  0
LINE
  5
277
100
AcDbEntity
  8
0
370
    -3
390
0
  6
Continuous
100
AcDbLine
 10
-146.748719
 20
100.57943
 30
0.0
 11
-138.748719
 21
100.57943
 31
0.0
  0
ARC
  5
278
100
AcDbEntity
  8
0
370
    -3
390
0
  6
Continuous
100
AcDbCircle
 10
-138.748719
 20
95.57943
 30
0.0
 40
5.0
100
AcDbArc
 50
0.0
 51
90.0
  0
ARC
  5
279
100
AcDbEntity
  8
0
370
    -3
390
0
  6
Continuous
100
AcDbCircle
 10
-138.748719
 20
92.035501
 30
0.0
 40
5.0
100
AcDbArc
 50
270.0
 51
0.0
  0
LINE
  5
27A
100
AcDbEntity
  8
0
370
    -3
390
0
  6
Continuous
100
AcDbLine
 10
-133.748719
 20
95.57943
 30
0.0
 11
-133.748719
 21
92.035501
 31
0.0
  0
ARC
  5
27B
100
AcDbEntity
  8
0
370
    -3
390
0
  6
Continuous
100
AcDbCircle
 10
-138.748719
 20
192.035501
 30
0.0
 40
5.0
100
AcDbArc
 50
0.0
 51
90.0
  0
ARC
  5
27C
100
AcDbEntity
  8
0
370
    -3
390
0
  6
Continuous
100
AcDbCircle
 10
-146.748719
 20
200.035501
 30
0.0
 40
3.0
100
AcDbArc
 50
180.0
 51
270.0
  0
LINE
  5
27D
100
AcDbEntity
  8
0
370
    -3
390
0
  6
Continuous
100
AcDbLine
 10
-146.748719
 20
197.035501
 30
0.0
 11
-138.748719
 21
197.035501
 31
0.0
  0
ARC
  5
27E
100
AcDbEntity
  8
0
370
    -3
390
0
  6
Continuous
100
AcDbCircle
 10
-138.748719
 20
188.491572
 30
0.0
 40
5.0
100
AcDbArc
 50
270.0
 51
0.0
  0
LINE
  5
27F
100
AcDbEntity
  8
0
370
    -3
390
0
  6
Continuous
100
AcDbLine
 10
-146.748719
 20
183.491572
 30
0.0
 11
-138.748719
 21
183.491572
 31
0.0
  0
ARC
  5
280
100
AcDbEntity
  8
0
370
    -3
390
0
  6
Continuous
100
AcDbCircle
 10
-146.748719
 20
180.491572
 30
0.0
 40
3.0
100
AcDbArc
 50
90.0
 51
180.0
  0
LINE
  5
281
100
AcDbEntity
  8
0
370
    -3
390
0
  6
Continuous
100
AcDbLine
 10
-133.748719
 20
192.035501
 30
0.0
 11
-133.748719
 21
188.491572
 31
0.0
  0
LINE
  5
282
100
AcDbEntity
  8
0
370
    -3
390
0
  6
Continuous
100
AcDbLine
 10
-146.748719
 20
189.17702
 30
0.0
 11
-138.748719
 21
189.17702
 31
0.0
  0
LINE
  5
283
100
AcDbEntity
  8
0
370
    -3
390
0
  6
Continuous
100
AcDbLine
 10
60.251552
 20
97.037646
 30
0.0
 11
-125.748448
 21
97.035545
 31
0.0
  0
LINE
  5
284
100
AcDbEntity
  8
0
370
    -3
390
0
  6
Continuous
100
AcDbLine
 10
60.251552
 20
97.037646
 30
0.0
 11
-125.748448
 21
97.035545
 31
0.0
  0
ARC
  5
285
100
AcDbEntity
  8
0
370
    -3
390
0
  6
Continuous
100
AcDbCircle
 10
-7.750064
 20
92.536878
 30
0.0
 40
1.5
100
AcDbArc
 50
0.0
 51
180.0
  0
LINE
  5
286
100
AcDbEntity
  8
0
370
    -3
390
0
  6
Continuous
100
AcDbLine
 10
-9.250064
 20
92.536878
 30
0.0
 11
-9.250064
 21
84.036878
 31
0.0
  0
LINE
  5
287
100
AcDbEntity
  8
0
370
    -3
390
0
  6
Continuous
100
AcDbLine
 10
-6.250064
 20
92.536878
 30
0.0
 11
-6.250064
 21
84.036878
 31
0.0
  0
ARC
  5
288
100
AcDbEntity
  8
0
370
    -3
390
0
  6
Continuous
100
AcDbCircle
 10
-7.750064
 20
101.536878
 30
0.0
 40
1.5
100
AcDbArc
 50
180.0
 51
0.0
  0
LINE
  5
289
100
AcDbEntity
  8
0
370
    -3
390
0
  6
Continuous
100
AcDbLine
 10
-9.250064
 20
101.536878
 30
0.0
 11
-9.250064
 21
102.019873
 31
0.0
  0
LINE
  5
28A
100
AcDbEntity
  8
0
370
    -3
390
0
  6
Continuous
100
AcDbLine
 10
-6.250064
 20
101.536878
 30
0.0
 11
-6.250064
 21
102.221809
 31
0.0
  0
LINE
  5
28B
100
AcDbEntity
  8
0
370
    -3
390
0
  6
Continuous
100
AcDbLine
 10
-9.250064
 20
101.536878
 30
0.0
 11
-9.250064
 21
200.037105
 31
0.0
  0
LINE
  5
28C
100
AcDbEntity
  8
0
370
    -3
390
0
  6
Continuous
100
AcDbLine
 10
-6.250064
 20
101.536878
 30
0.0
 11
-6.250064
 21
200.037105
 31
0.0
  0
LINE
  5
28D
100
AcDbEntity
  8
0
370
    -3
390
0
  6
Continuous
100
AcDbLine
 10
39.360393
 20
205.037105
 30
0.0
 11
-7.748297
 21
205.037105
 31
0.0
  0
LINE
  5
28E
100
AcDbEntity
  8
0
370
    -3
390
0
  6
Continuous
100
AcDbLine
 10
-7.748297
 20
205.037105
 30
0.0
 11
-54.856208
 21
205.037105
 31
0.0
  0
LINE
  5
28F
100
AcDbEntity
  8
0
370
    -3
390
0
  6
Continuous
100
AcDbLine
 10
16.253098
 20
75.037648
 30
0.0
 11
16.253008
 21
79.037648
 31
0.0
  0
LINE
  5
290
100
AcDbEntity
  8
0
370
    -3
390
0
  6
Continuous
100
AcDbLine
 10
-31.746902
 20
75.036563
 30
0.0
 11
-31.746992
 21
79.036563
 31
0.0
  0
LINE
  5
291
100
AcDbEntity
  8
0
370
    -3
390
0
  6
Continuous
100
AcDbLine
 10
16.253098
 20
75.037648
 30
0.0
 11
-31.746902
 21
75.036563
 31
0.0
  0
LINE
  5
292
100
AcDbEntity
  8
0
370
    -3
390
0
  6
Continuous
100
AcDbLine
 10
-310.740966
 20
199.060165
 30
0.0
 11
-310.837039
 21
198.370416
 31
0.0
  0
LINE
  5
293
100
AcDbEntity
  8
0
370
    -3
390
0
  6
Continuous
100
AcDbLine
 10
-310.837039
 20
198.370416
 30
0.0
 11
-311.121568
 21
197.707175
 31
0.0
  0
LINE
  5
294
100
AcDbEntity
  8
0
370
    -3
390
0
  6
Continuous
100
AcDbLine
 10
-311.121568
 20
197.707175
 30
0.0
 11
-311.583618
 21
197.095927
 31
0.0
  0
LINE
  5
295
100
AcDbEntity
  8
0
370
    -3
390
0
  6
Continuous
100
AcDbLine
 10
-311.583618
 20
197.095927
 30
0.0
 11
-312.205432
 21
196.560165
 31
0.0
  0
LINE
  5
296
100
AcDbEntity
  8
0
370
    -3
390
0
  6
Continuous
100
AcDbLine
 10
-312.205432
 20
196.560165
 30
0.0
 11
-312.963115
 21
196.120476
 31
0.0
  0
LINE
  5
297
100
AcDbEntity
  8
0
370
    -3
390
0
  6
Continuous
100
AcDbLine
 10
-312.963115
 20
196.120476
 30
0.0
 11
-313.827549
 21
195.793757
 31
0.0
  0
LINE
  5
298
100
AcDbEntity
  8
0
370
    -3
390
0
  6
Continuous
100
AcDbLine
 10
-313.827549
 20
195.793757
 30
0.0
 11
-314.765514
 21
195.592565
 31
0.0
  0
LINE
  5
299
100
AcDbEntity
  8
0
370
    -3
390
0
  6
Continuous
100
AcDbLine
 10
-314.765514
 20
195.592565
 30
0.0
 11
-315.740966
 21
195.524631
 31
0.0
  0
LINE
  5
29A
100
AcDbEntity
  8
0
370
    -3
390
0
  6
Continuous
100
AcDbLine
 10
-315.740966
 20
195.524631
 30
0.0
 11
-316.716417
 21
195.592565
 31
0.0
  0
LINE
  5
29B
100
AcDbEntity
  8
0
370
    -3
390
0
  6
Continuous
100
AcDbLine
 10
-316.716417
 20
195.592565
 30
0.0
 11
-317.654383
 21
195.793757
 31
0.0
  0
LINE
  5
29C
100
AcDbEntity
  8
0
370
    -3
390
0
  6
Continuous
100
AcDbLine
 10
-317.654383
 20
195.793757
 30
0.0
 11
-318.518817
 21
196.120476
 31
0.0
  0
LINE
  5
29D
100
AcDbEntity
  8
0
370
    -3
390
0
  6
Continuous
100
AcDbLine
 10
-318.518817
 20
196.120476
 30
0.0
 11
-319.2765
 21
196.560165
 31
0.0
  0
LINE
  5
29E
100
AcDbEntity
  8
0
370
    -3
390
0
  6
Continuous
100
AcDbLine
 10
-319.2765
 20
196.560165
 30
0.0
 11
-319.898314
 21
197.095927
 31
0.0
  0
LINE
  5
29F
100
AcDbEntity
  8
0
370
    -3
390
0
  6
Continuous
100
AcDbLine
 10
-319.898314
 20
197.095927
 30
0.0
 11
-320.360363
 21
197.707175
 31
0.0
  0
LINE
  5
2A0
100
AcDbEntity
  8
0
370
    -3
390
0
  6
Continuous
100
AcDbLine
 10
-320.360363
 20
197.707175
 30
0.0
 11
-320.644892
 21
198.370416
 31
0.0
  0
LINE
  5
2A1
100
AcDbEntity
  8
0
370
    -3
390
0
  6
Continuous
100
AcDbLine
 10
-320.644892
 20
198.370416
 30
0.0
 11
-320.740966
 21
199.060165
 31
0.0
  0
LINE
  5
2A2
100
AcDbEntity
  8
0
370
    -3
390
0
  6
Continuous
100
AcDbLine
 10
-320.740966
 20
199.876768
 30
0.0
 11
-320.740966
 21
199.060165
 31
0.0
  0
LINE
  5
2A3
100
AcDbEntity
  8
0
370
    -3
390
0
  6
Continuous
100
AcDbLine
 10
-310.740966
 20
199.876768
 30
0.0
 11
-310.740966
 21
199.060165
 31
0.0
  0
LINE
  5
2A4
100
AcDbEntity
  8
0
370
    -3
390
0
  6
Continuous
100
AcDbLine
 10
-311.240966
 20
199.876768
 30
0.0
 11
-311.327432
 21
199.255994
 31
0.0
  0
LINE
  5
2A5
100
AcDbEntity
  8
0
370
    -3
390
0
  6
Continuous
100
AcDbLine
 10
-311.327432
 20
199.255994
 30
0.0
 11
-311.583508
 21
198.659077
 31
0.0
  0
LINE
  5
2A6
100
AcDbEntity
  8
0
370
    -3
390
0
  6
Continuous
100
AcDbLine
 10
-311.583508
 20
198.659077
 30
0.0
 11
-311.999352
 21
198.108954
 31
0.0
  0
LINE
  5
2A7
100
AcDbEntity
  8
0
370
    -3
390
0
  6
Continuous
100
AcDbLine
 10
-311.999352
 20
198.108954
 30
0.0
 11
-312.558985
 21
197.626768
 31
0.0
  0
LINE
  5
2A8
100
AcDbEntity
  8
0
370
    -3
390
0
  6
Continuous
100
AcDbLine
 10
-312.558985
 20
197.626768
 30
0.0
 11
-313.2409
 21
197.231048
 31
0.0
  0
LINE
  5
2A9
100
AcDbEntity
  8
0
370
    -3
390
0
  6
Continuous
100
AcDbLine
 10
-313.2409
 20
197.231048
 30
0.0
 11
-314.01889
 21
196.937001
 31
0.0
  0
LINE
  5
2AA
100
AcDbEntity
  8
0
370
    -3
390
0
  6
Continuous
100
AcDbLine
 10
-314.01889
 20
196.937001
 30
0.0
 11
-314.863059
 21
196.755928
 31
0.0
  0
LINE
  5
2AB
100
AcDbEntity
  8
0
370
    -3
390
0
  6
Continuous
100
AcDbLine
 10
-314.863059
 20
196.755928
 30
0.0
 11
-315.740966
 21
196.694788
 31
0.0
  0
LINE
  5
2AC
100
AcDbEntity
  8
0
370
    -3
390
0
  6
Continuous
100
AcDbLine
 10
-315.740966
 20
196.694788
 30
0.0
 11
-316.618872
 21
196.755928
 31
0.0
  0
LINE
  5
2AD
100
AcDbEntity
  8
0
370
    -3
390
0
  6
Continuous
100
AcDbLine
 10
-316.618872
 20
196.755928
 30
0.0
 11
-317.463041
 21
196.937001
 31
0.0
  0
LINE
  5
2AE
100
AcDbEntity
  8
0
370
    -3
390
0
  6
Continuous
100
AcDbLine
 10
-317.463041
 20
196.937001
 30
0.0
 11
-318.241032
 21
197.231048
 31
0.0
  0
LINE
  5
2AF
100
AcDbEntity
  8
0
370
    -3
390
0
  6
Continuous
100
AcDbLine
 10
-318.241032
 20
197.231048
 30
0.0
 11
-318.922946
 21
197.626768
 31
0.0
  0
LINE
  5
2B0
100
AcDbEntity
  8
0
370
    -3
390
0
  6
Continuous
100
AcDbLine
 10
-318.922946
 20
197.626768
 30
0.0
 11
-319.482579
 21
198.108954
 31
0.0
  0
LINE
  5
2B1
100
AcDbEntity
  8
0
370
    -3
390
0
  6
Continuous
100
AcDbLine
 10
-319.482579
 20
198.108954
 30
0.0
 11
-319.898424
 21
198.659077
 31
0.0
  0
LINE
  5
2B2
100
AcDbEntity
  8
0
370
    -3
390
0
  6
Continuous
100
AcDbLine
 10
-319.898424
 20
198.659077
 30
0.0
 11
-320.1545
 21
199.255994
 31
0.0
  0
LINE
  5
2B3
100
AcDbEntity
  8
0
370
    -3
390
0
  6
Continuous
100
AcDbLine
 10
-320.1545
 20
199.255994
 30
0.0
 11
-320.240966
 21
199.876768
 31
0.0
  0
LINE
  5
2B4
100
AcDbEntity
  8
0
370
    -3
390
0
  6
Continuous
100
AcDbLine
 10
-320.240966
 20
200.442454
 30
0.0
 11
-320.240966
 21
199.876768
 31
0.0
  0
LINE
  5
2B5
100
AcDbEntity
  8
0
370
    -3
390
0
  6
Continuous
100
AcDbLine
 10
-311.240966
 20
200.442454
 30
0.0
 11
-311.240966
 21
199.876768
 31
0.0
  0
LINE
  5
2B6
100
AcDbEntity
  8
0
370
    -3
390
0
  6
Continuous
100
AcDbLine
 10
-312.046169
 20
202.258834
 30
0.0
 11
-311.490025
 21
201.738153
 31
0.0
  0
LINE
  5
2B7
100
AcDbEntity
  8
0
370
    -3
390
0
  6
Continuous
100
AcDbLine
 10
-311.490025
 20
201.738153
 30
0.0
 11
-311.078671
 21
201.154071
 31
0.0
  0
LINE
  5
2B8
100
AcDbEntity
  8
0
370
    -3
390
0
  6
Continuous
100
AcDbLine
 10
-311.078671
 20
201.154071
 30
0.0
 11
-310.826117
 21
200.526485
 31
0.0
  0
LINE
  5
2B9
100
AcDbEntity
  8
0
370
    -3
390
0
  6
Continuous
100
AcDbLine
 10
-310.826117
 20
200.526485
 30
0.0
 11
-310.740966
 21
199.876768
 31
0.0
  0
LINE
  5
2BA
100
AcDbEntity
  8
0
370
    -3
390
0
  6
Continuous
100
AcDbLine
 10
-320.740966
 20
199.876768
 30
0.0
 11
-320.655814
 21
200.526485
 31
0.0
  0
LINE
  5
2BB
100
AcDbEntity
  8
0
370
    -3
390
0
  6
Continuous
100
AcDbLine
 10
-320.655814
 20
200.526485
 30
0.0
 11
-320.40326
 21
201.154071
 31
0.0
  0
LINE
  5
2BC
100
AcDbEntity
  8
0
370
    -3
390
0
  6
Continuous
100
AcDbLine
 10
-320.40326
 20
201.154071
 30
0.0
 11
-319.991906
 21
201.738153
 31
0.0
  0
LINE
  5
2BD
100
AcDbEntity
  8
0
370
    -3
390
0
  6
Continuous
100
AcDbLine
 10
-319.991906
 20
201.738153
 30
0.0
 11
-319.435763
 21
202.258834
 31
0.0
  0
LINE
  5
2BE
100
AcDbEntity
  8
0
370
    -3
390
0
  6
Continuous
100
AcDbLine
 10
-312.240966
 20
200.978972
 30
0.0
 11
-312.308217
 21
200.391478
 31
0.0
  0
LINE
  5
2BF
100
AcDbEntity
  8
0
370
    -3
390
0
  6
Continuous
100
AcDbLine
 10
-312.308217
 20
200.391478
 30
0.0
 11
-312.507387
 21
199.826562
 31
0.0
  0
LINE
  5
2C0
100
AcDbEntity
  8
0
370
    -3
390
0
  6
Continuous
100
AcDbLine
 10
-312.507387
 20
199.826562
 30
0.0
 11
-312.830822
 21
199.305932
 31
0.0
  0
LINE
  5
2C1
100
AcDbEntity
  8
0
370
    -3
390
0
  6
Continuous
100
AcDbLine
 10
-312.830822
 20
199.305932
 30
0.0
 11
-313.266092
 21
198.849596
 31
0.0
  0
LINE
  5
2C2
100
AcDbEntity
  8
0
370
    -3
390
0
  6
Continuous
100
AcDbLine
 10
-313.266092
 20
198.849596
 30
0.0
 11
-313.79647
 21
198.475091
 31
0.0
  0
LINE
  5
2C3
100
AcDbEntity
  8
0
370
    -3
390
0
  6
Continuous
100
AcDbLine
 10
-313.79647
 20
198.475091
 30
0.0
 11
-314.401574
 21
198.196808
 31
0.0
  0
LINE
  5
2C4
100
AcDbEntity
  8
0
370
    -3
390
0
  6
Continuous
100
AcDbLine
 10
-314.401574
 20
198.196808
 30
0.0
 11
-315.05815
 21
198.025443
 31
0.0
  0
LINE
  5
2C5
100
AcDbEntity
  8
0
370
    -3
390
0
  6
Continuous
100
AcDbLine
 10
-315.05815
 20
198.025443
 30
0.0
 11
-315.740966
 21
197.96758
 31
0.0
  0
LINE
  5
2C6
100
AcDbEntity
  8
0
370
    -3
390
0
  6
Continuous
100
AcDbLine
 10
-315.740966
 20
197.96758
 30
0.0
 11
-316.423782
 21
198.025443
 31
0.0
  0
LINE
  5
2C7
100
AcDbEntity
  8
0
370
    -3
390
0
  6
Continuous
100
AcDbLine
 10
-316.423782
 20
198.025443
 30
0.0
 11
-317.080358
 21
198.196808
 31
0.0
  0
LINE
  5
2C8
100
AcDbEntity
  8
0
370
    -3
390
0
  6
Continuous
100
AcDbLine
 10
-317.080358
 20
198.196808
 30
0.0
 11
-317.685462
 21
198.475091
 31
0.0
  0
LINE
  5
2C9
100
AcDbEntity
  8
0
370
    -3
390
0
  6
Continuous
100
AcDbLine
 10
-317.685462
 20
198.475091
 30
0.0
 11
-318.215839
 21
198.849596
 31
0.0
  0
LINE
  5
2CA
100
AcDbEntity
  8
0
370
    -3
390
0
  6
Continuous
100
AcDbLine
 10
-318.215839
 20
198.849596
 30
0.0
 11
-318.651109
 21
199.305932
 31
0.0
  0
LINE
  5
2CB
100
AcDbEntity
  8
0
370
    -3
390
0
  6
Continuous
100
AcDbLine
 10
-318.651109
 20
199.305932
 30
0.0
 11
-318.974544
 21
199.826562
 31
0.0
  0
LINE
  5
2CC
100
AcDbEntity
  8
0
370
    -3
390
0
  6
Continuous
100
AcDbLine
 10
-318.974544
 20
199.826562
 30
0.0
 11
-319.173714
 21
200.391478
 31
0.0
  0
LINE
  5
2CD
100
AcDbEntity
  8
0
370
    -3
390
0
  6
Continuous
100
AcDbLine
 10
-319.173714
 20
200.391478
 30
0.0
 11
-319.240966
 21
200.978972
 31
0.0
  0
LINE
  5
2CE
100
AcDbEntity
  8
0
370
    -3
390
0
  6
Continuous
100
AcDbLine
 10
-319.240966
 20
200.978972
 30
0.0
 11
-319.173714
 21
201.566465
 31
0.0
  0
LINE
  5
2CF
100
AcDbEntity
  8
0
370
    -3
390
0
  6
Continuous
100
AcDbLine
 10
-319.173714
 20
201.566465
 30
0.0
 11
-318.974544
 21
202.131382
 31
0.0
  0
LINE
  5
2D0
100
AcDbEntity
  8
0
370
    -3
390
0
  6
Continuous
100
AcDbLine
 10
-318.974544
 20
202.131382
 30
0.0
 11
-318.651109
 21
202.652011
 31
0.0
  0
LINE
  5
2D1
100
AcDbEntity
  8
0
370
    -3
390
0
  6
Continuous
100
AcDbLine
 10
-318.651109
 20
202.652011
 30
0.0
 11
-318.215839
 21
203.108347
 31
0.0
  0
LINE
  5
2D2
100
AcDbEntity
  8
0
370
    -3
390
0
  6
Continuous
100
AcDbLine
 10
-318.215839
 20
203.108347
 30
0.0
 11
-317.685462
 21
203.482853
 31
0.0
  0
LINE
  5
2D3
100
AcDbEntity
  8
0
370
    -3
390
0
  6
Continuous
100
AcDbLine
 10
-317.685462
 20
203.482853
 30
0.0
 11
-317.080358
 21
203.761135
 31
0.0
  0
LINE
  5
2D4
100
AcDbEntity
  8
0
370
    -3
390
0
  6
Continuous
100
AcDbLine
 10
-317.080358
 20
203.761135
 30
0.0
 11
-316.423782
 21
203.932501
 31
0.0
  0
LINE
  5
2D5
100
AcDbEntity
  8
0
370
    -3
390
0
  6
Continuous
100
AcDbLine
 10
-316.423782
 20
203.932501
 30
0.0
 11
-315.740966
 21
203.990364
 31
0.0
  0
LINE
  5
2D6
100
AcDbEntity
  8
0
370
    -3
390
0
  6
Continuous
100
AcDbLine
 10
-315.740966
 20
203.990364
 30
0.0
 11
-315.05815
 21
203.932501
 31
0.0
  0
LINE
  5
2D7
100
AcDbEntity
  8
0
370
    -3
390
0
  6
Continuous
100
AcDbLine
 10
-315.05815
 20
203.932501
 30
0.0
 11
-314.401574
 21
203.761135
 31
0.0
  0
LINE
  5
2D8
100
AcDbEntity
  8
0
370
    -3
390
0
  6
Continuous
100
AcDbLine
 10
-314.401574
 20
203.761135
 30
0.0
 11
-313.79647
 21
203.482853
 31
0.0
  0
LINE
  5
2D9
100
AcDbEntity
  8
0
370
    -3
390
0
  6
Continuous
100
AcDbLine
 10
-313.79647
 20
203.482853
 30
0.0
 11
-313.266092
 21
203.108347
 31
0.0
  0
LINE
  5
2DA
100
AcDbEntity
  8
0
370
    -3
390
0
  6
Continuous
100
AcDbLine
 10
-313.266092
 20
203.108347
 30
0.0
 11
-312.830822
 21
202.652011
 31
0.0
  0
LINE
  5
2DB
100
AcDbEntity
  8
0
370
    -3
390
0
  6
Continuous
100
AcDbLine
 10
-312.830822
 20
202.652011
 30
0.0
 11
-312.507387
 21
202.131382
 31
0.0
  0
LINE
  5
2DC
100
AcDbEntity
  8
0
370
    -3
390
0
  6
Continuous
100
AcDbLine
 10
-312.507387
 20
202.131382
 30
0.0
 11
-312.308217
 21
201.566465
 31
0.0
  0
LINE
  5
2DD
100
AcDbEntity
  8
0
370
    -3
390
0
  6
Continuous
100
AcDbLine
 10
-312.308217
 20
201.566465
 30
0.0
 11
-312.240966
 21
200.978972
 31
0.0
  0
LINE
  5
2DE
100
AcDbEntity
  8
0
370
    -3
390
0
  6
Continuous
100
AcDbLine
 10
-313.24516
 20
203.090184
 30
0.0
 11
-312.585589
 21
202.711109
 31
0.0
  0
LINE
  5
2DF
100
AcDbEntity
  8
0
370
    -3
390
0
  6
Continuous
100
AcDbLine
 10
-312.585589
 20
202.711109
 30
0.0
 11
-312.038587
 21
202.251099
 31
0.0
  0
LINE
  5
2E0
100
AcDbEntity
  8
0
370
    -3
390
0
  6
Continuous
100
AcDbLine
 10
-312.038587
 20
202.251099
 30
0.0
 11
-311.62367
 21
201.726564
 31
0.0
  0
LINE
  5
2E1
100
AcDbEntity
  8
0
370
    -3
390
0
  6
Continuous
100
AcDbLine
 10
-311.62367
 20
201.726564
 30
0.0
 11
-311.35564
 21
201.156217
 31
0.0
  0
LINE
  5
2E2
100
AcDbEntity
  8
0
370
    -3
390
0
  6
Continuous
100
AcDbLine
 10
-311.35564
 20
201.156217
 30
0.0
 11
-311.244059
 21
200.560407
 31
0.0
  0
LINE
  5
2E3
100
AcDbEntity
  8
0
370
    -3
390
0
  6
Continuous
100
AcDbLine
 10
-311.244059
 20
200.560407
 30
0.0
 11
-311.292907
 21
199.960389
 31
0.0
  0
LINE
  5
2E4
100
AcDbEntity
  8
0
370
    -3
390
0
  6
Continuous
100
AcDbLine
 10
-311.292907
 20
199.960389
 30
0.0
 11
-311.500442
 21
199.377568
 31
0.0
  0
LINE
  5
2E5
100
AcDbEntity
  8
0
370
    -3
390
0
  6
Continuous
100
AcDbLine
 10
-311.500442
 20
199.377568
 30
0.0
 11
-311.859261
 21
198.832738
 31
0.0
  0
LINE
  5
2E6
100
AcDbEntity
  8
0
370
    -3
390
0
  6
Continuous
100
AcDbLine
 10
-311.859261
 20
198.832738
 30
0.0
 11
-312.356561
 21
198.345336
 31
0.0
  0
LINE
  5
2E7
100
AcDbEntity
  8
0
370
    -3
390
0
  6
Continuous
100
AcDbLine
 10
-312.356561
 20
198.345336
 30
0.0
 11
-312.974602
 21
197.932749
 31
0.0
  0
LINE
  5
2E8
100
AcDbEntity
  8
0
370
    -3
390
0
  6
Continuous
100
AcDbLine
 10
-312.974602
 20
197.932749
 30
0.0
 11
-313.691335
 21
197.609698
 31
0.0
  0
LINE
  5
2E9
100
AcDbEntity
  8
0
370
    -3
390
0
  6
Continuous
100
AcDbLine
 10
-313.691335
 20
197.609698
 30
0.0
 11
-314.481189
 21
197.387706
 31
0.0
  0
LINE
  5
2EA
100
AcDbEntity
  8
0
370
    -3
390
0
  6
Continuous
100
AcDbLine
 10
-314.481189
 20
197.387706
 30
0.0
 11
-315.315986
 21
197.274695
 31
0.0
  0
LINE
  5
2EB
100
AcDbEntity
  8
0
370
    -3
390
0
  6
Continuous
100
AcDbLine
 10
-315.315986
 20
197.274695
 30
0.0
 11
-316.165945
 21
197.274695
 31
0.0
  0
LINE
  5
2EC
100
AcDbEntity
  8
0
370
    -3
390
0
  6
Continuous
100
AcDbLine
 10
-316.165945
 20
197.274695
 30
0.0
 11
-317.000743
 21
197.387706
 31
0.0
  0
LINE
  5
2ED
100
AcDbEntity
  8
0
370
    -3
390
0
  6
Continuous
100
AcDbLine
 10
-317.000743
 20
197.387706
 30
0.0
 11
-317.790597
 21
197.609698
 31
0.0
  0
LINE
  5
2EE
100
AcDbEntity
  8
0
370
    -3
390
0
  6
Continuous
100
AcDbLine
 10
-317.790597
 20
197.609698
 30
0.0
 11
-318.507329
 21
197.932749
 31
0.0
  0
LINE
  5
2EF
100
AcDbEntity
  8
0
370
    -3
390
0
  6
Continuous
100
AcDbLine
 10
-318.507329
 20
197.932749
 30
0.0
 11
-319.12537
 21
198.345336
 31
0.0
  0
LINE
  5
2F0
100
AcDbEntity
  8
0
370
    -3
390
0
  6
Continuous
100
AcDbLine
 10
-319.12537
 20
198.345336
 30
0.0
 11
-319.622671
 21
198.832738
 31
0.0
  0
LINE
  5
2F1
100
AcDbEntity
  8
0
370
    -3
390
0
  6
Continuous
100
AcDbLine
 10
-319.622671
 20
198.832738
 30
0.0
 11
-319.981489
 21
199.377568
 31
0.0
  0
LINE
  5
2F2
100
AcDbEntity
  8
0
370
    -3
390
0
  6
Continuous
100
AcDbLine
 10
-319.981489
 20
199.377568
 30
0.0
 11
-320.189025
 21
199.960389
 31
0.0
  0
LINE
  5
2F3
100
AcDbEntity
  8
0
370
    -3
390
0
  6
Continuous
100
AcDbLine
 10
-320.189025
 20
199.960389
 30
0.0
 11
-320.237873
 21
200.560407
 31
0.0
  0
LINE
  5
2F4
100
AcDbEntity
  8
0
370
    -3
390
0
  6
Continuous
100
AcDbLine
 10
-320.237873
 20
200.560407
 30
0.0
 11
-320.126292
 21
201.156217
 31
0.0
  0
LINE
  5
2F5
100
AcDbEntity
  8
0
370
    -3
390
0
  6
Continuous
100
AcDbLine
 10
-320.126292
 20
201.156217
 30
0.0
 11
-319.858261
 21
201.726564
 31
0.0
  0
LINE
  5
2F6
100
AcDbEntity
  8
0
370
    -3
390
0
  6
Continuous
100
AcDbLine
 10
-319.858261
 20
201.726564
 30
0.0
 11
-319.443344
 21
202.251099
 31
0.0
  0
LINE
  5
2F7
100
AcDbEntity
  8
0
370
    -3
390
0
  6
Continuous
100
AcDbLine
 10
-319.443344
 20
202.251099
 30
0.0
 11
-318.896343
 21
202.711109
 31
0.0
  0
LINE
  5
2F8
100
AcDbEntity
  8
0
370
    -3
390
0
  6
Continuous
100
AcDbLine
 10
-318.896343
 20
202.711109
 30
0.0
 11
-318.236771
 21
203.090184
 31
0.0
  0
LINE
  5
2F9
100
AcDbEntity
  8
0
370
    -3
390
0
  6
Continuous
100
AcDbLine
 10
-315.740966
 20
202.280931
 30
0.0
 11
-313.740966
 21
200.707594
 31
0.0
  0
LINE
  5
2FA
100
AcDbEntity
  8
0
370
    -3
390
0
  6
Continuous
100
AcDbLine
 10
-315.740966
 20
202.280931
 30
0.0
 11
-313.811761
 21
203.491594
 31
0.0
  0
LINE
  5
2FB
100
AcDbEntity
  8
0
370
    -3
390
0
  6
Continuous
100
AcDbLine
 10
-315.740966
 20
202.280931
 30
0.0
 11
-317.740966
 21
200.707594
 31
0.0
  0
LINE
  5
2FC
100
AcDbEntity
  8
0
370
    -3
390
0
  6
Continuous
100
AcDbLine
 10
-315.740966
 20
202.280931
 30
0.0
 11
-317.670171
 21
203.491594
 31
0.0
  0
ARC
  5
2FD
100
AcDbEntity
  8
0
370
    -3
390
0
  6
Continuous
100
AcDbCircle
 10
-330.488131
 20
186.035433
 30
0.0
 40
30.8
100
AcDbArc
 50
90.0
 51
120.0
  0
LINE
  5
2FE
100
AcDbEntity
  8
0
370
    -3
390
0
  6
Continuous
100
AcDbLine
 10
-320.740966
 20
85.010702
 30
0.0
 11
-320.644892
 21
85.70045
 31
0.0
  0
LINE
  5
2FF
100
AcDbEntity
  8
0
370
    -3
390
0
  6
Continuous
100
AcDbLine
 10
-320.644892
 20
85.70045
 30
0.0
 11
-320.360363
 21
86.363692
 31
0.0
  0
LINE
  5
300
100
AcDbEntity
  8
0
370
    -3
390
0
  6
Continuous
100
AcDbLine
 10
-320.360363
 20
86.363692
 30
0.0
 11
-319.898314
 21
86.974939
 31
0.0
  0
LINE
  5
301
100
AcDbEntity
  8
0
370
    -3
390
0
  6
Continuous
100
AcDbLine
 10
-319.898314
 20
86.974939
 30
0.0
 11
-319.2765
 21
87.510702
 31
0.0
  0
LINE
  5
302
100
AcDbEntity
  8
0
370
    -3
390
0
  6
Continuous
100
AcDbLine
 10
-319.2765
 20
87.510702
 30
0.0
 11
-318.518817
 21
87.950391
 31
0.0
  0
LINE
  5
303
100
AcDbEntity
  8
0
370
    -3
390
0
  6
Continuous
100
AcDbLine
 10
-318.518817
 20
87.950391
 30
0.0
 11
-317.654383
 21
88.277109
 31
0.0
  0
LINE
  5
304
100
AcDbEntity
  8
0
370
    -3
390
0
  6
Continuous
100
AcDbLine
 10
-317.654383
 20
88.277109
 30
0.0
 11
-316.716417
 21
88.478302
 31
0.0
  0
LINE
  5
305
100
AcDbEntity
  8
0
370
    -3
390
0
  6
Continuous
100
AcDbLine
 10
-316.716417
 20
88.478302
 30
0.0
 11
-315.740966
 21
88.546236
 31
0.0
  0
LINE
  5
306
100
AcDbEntity
  8
0
370
    -3
390
0
  6
Continuous
100
AcDbLine
 10
-315.740966
 20
88.546236
 30
0.0
 11
-314.765514
 21
88.478302
 31
0.0
  0
LINE
  5
307
100
AcDbEntity
  8
0
370
    -3
390
0
  6
Continuous
100
AcDbLine
 10
-314.765514
 20
88.478302
 30
0.0
 11
-313.827549
 21
88.277109
 31
0.0
  0
LINE
  5
308
100
AcDbEntity
  8
0
370
    -3
390
0
  6
Continuous
100
AcDbLine
 10
-313.827549
 20
88.277109
 30
0.0
 11
-312.963115
 21
87.950391
 31
0.0
  0
LINE
  5
309
100
AcDbEntity
  8
0
370
    -3
390
0
  6
Continuous
100
AcDbLine
 10
-312.963115
 20
87.950391
 30
0.0
 11
-312.205432
 21
87.510702
 31
0.0
  0
LINE
  5
30A
100
AcDbEntity
  8
0
370
    -3
390
0
  6
Continuous
100
AcDbLine
 10
-312.205432
 20
87.510702
 30
0.0
 11
-311.583618
 21
86.974939
 31
0.0
  0
LINE
  5
30B
100
AcDbEntity
  8
0
370
    -3
390
0
  6
Continuous
100
AcDbLine
 10
-311.583618
 20
86.974939
 30
0.0
 11
-311.121568
 21
86.363692
 31
0.0
  0
LINE
  5
30C
100
AcDbEntity
  8
0
370
    -3
390
0
  6
Continuous
100
AcDbLine
 10
-311.121568
 20
86.363692
 30
0.0
 11
-310.837039
 21
85.70045
 31
0.0
  0
LINE
  5
30D
100
AcDbEntity
  8
0
370
    -3
390
0
  6
Continuous
100
AcDbLine
 10
-310.837039
 20
85.70045
 30
0.0
 11
-310.740966
 21
85.010702
 31
0.0
  0
LINE
  5
30E
100
AcDbEntity
  8
0
370
    -3
390
0
  6
Continuous
100
AcDbLine
 10
-320.740966
 20
84.194099
 30
0.0
 11
-320.740966
 21
85.010702
 31
0.0
  0
LINE
  5
30F
100
AcDbEntity
  8
0
370
    -3
390
0
  6
Continuous
100
AcDbLine
 10
-310.740966
 20
84.194099
 30
0.0
 11
-310.740966
 21
85.010702
 31
0.0
  0
LINE
  5
310
100
AcDbEntity
  8
0
370
    -3
390
0
  6
Continuous
100
AcDbLine
 10
-320.240966
 20
84.194099
 30
0.0
 11
-320.1545
 21
84.814872
 31
0.0
  0
LINE
  5
311
100
AcDbEntity
  8
0
370
    -3
390
0
  6
Continuous
100
AcDbLine
 10
-320.1545
 20
84.814872
 30
0.0
 11
-319.898424
 21
85.41179
 31
0.0
  0
LINE
  5
312
100
AcDbEntity
  8
0
370
    -3
390
0
  6
Continuous
100
AcDbLine
 10
-319.898424
 20
85.41179
 30
0.0
 11
-319.482579
 21
85.961912
 31
0.0
  0
LINE
  5
313
100
AcDbEntity
  8
0
370
    -3
390
0
  6
Continuous
100
AcDbLine
 10
-319.482579
 20
85.961912
 30
0.0
 11
-318.922946
 21
86.444099
 31
0.0
  0
LINE
  5
314
100
AcDbEntity
  8
0
370
    -3
390
0
  6
Continuous
100
AcDbLine
 10
-318.922946
 20
86.444099
 30
0.0
 11
-318.241032
 21
86.839819
 31
0.0
  0
LINE
  5
315
100
AcDbEntity
  8
0
370
    -3
390
0
  6
Continuous
100
AcDbLine
 10
-318.241032
 20
86.839819
 30
0.0
 11
-317.463041
 21
87.133865
 31
0.0
  0
LINE
  5
316
100
AcDbEntity
  8
0
370
    -3
390
0
  6
Continuous
100
AcDbLine
 10
-317.463041
 20
87.133865
 30
0.0
 11
-316.618872
 21
87.314938
 31
0.0
  0
LINE
  5
317
100
AcDbEntity
  8
0
370
    -3
390
0
  6
Continuous
100
AcDbLine
 10
-316.618872
 20
87.314938
 30
0.0
 11
-315.740966
 21
87.376079
 31
0.0
  0
LINE
  5
318
100
AcDbEntity
  8
0
370
    -3
390
0
  6
Continuous
100
AcDbLine
 10
-315.740966
 20
87.376079
 30
0.0
 11
-314.863059
 21
87.314938
 31
0.0
  0
LINE
  5
319
100
AcDbEntity
  8
0
370
    -3
390
0
  6
Continuous
100
AcDbLine
 10
-314.863059
 20
87.314938
 30
0.0
 11
-314.01889
 21
87.133865
 31
0.0
  0
LINE
  5
31A
100
AcDbEntity
  8
0
370
    -3
390
0
  6
Continuous
100
AcDbLine
 10
-314.01889
 20
87.133865
 30
0.0
 11
-313.2409
 21
86.839819
 31
0.0
  0
LINE
  5
31B
100
AcDbEntity
  8
0
370
    -3
390
0
  6
Continuous
100
AcDbLine
 10
-313.2409
 20
86.839819
 30
0.0
 11
-312.558985
 21
86.444099
 31
0.0
  0
LINE
  5
31C
100
AcDbEntity
  8
0
370
    -3
390
0
  6
Continuous
100
AcDbLine
 10
-312.558985
 20
86.444099
 30
0.0
 11
-311.999352
 21
85.961912
 31
0.0
  0
LINE
  5
31D
100
AcDbEntity
  8
0
370
    -3
390
0
  6
Continuous
100
AcDbLine
 10
-311.999352
 20
85.961912
 30
0.0
 11
-311.583508
 21
85.41179
 31
0.0
  0
LINE
  5
31E
100
AcDbEntity
  8
0
370
    -3
390
0
  6
Continuous
100
AcDbLine
 10
-311.583508
 20
85.41179
 30
0.0
 11
-311.327432
 21
84.814872
 31
0.0
  0
LINE
  5
31F
100
AcDbEntity
  8
0
370
    -3
390
0
  6
Continuous
100
AcDbLine
 10
-311.327432
 20
84.814872
 30
0.0
 11
-311.240966
 21
84.194099
 31
0.0
  0
LINE
  5
320
100
AcDbEntity
  8
0
370
    -3
390
0
  6
Continuous
100
AcDbLine
 10
-320.240966
 20
83.628413
 30
0.0
 11
-320.240966
 21
84.194099
 31
0.0
  0
LINE
  5
321
100
AcDbEntity
  8
0
370
    -3
390
0
  6
Continuous
100
AcDbLine
 10
-311.240966
 20
83.628413
 30
0.0
 11
-311.240966
 21
84.194099
 31
0.0
  0
LINE
  5
322
100
AcDbEntity
  8
0
370
    -3
390
0
  6
Continuous
100
AcDbLine
 10
-310.740966
 20
84.194099
 30
0.0
 11
-310.826117
 21
83.544382
 31
0.0
  0
LINE
  5
323
100
AcDbEntity
  8
0
370
    -3
390
0
  6
Continuous
100
AcDbLine
 10
-310.826117
 20
83.544382
 30
0.0
 11
-311.078671
 21
82.916795
 31
0.0
  0
LINE
  5
324
100
AcDbEntity
  8
0
370
    -3
390
0
  6
Continuous
100
AcDbLine
 10
-311.078671
 20
82.916795
 30
0.0
 11
-311.490025
 21
82.332714
 31
0.0
  0
LINE
  5
325
100
AcDbEntity
  8
0
370
    -3
390
0
  6
Continuous
100
AcDbLine
 10
-311.490025
 20
82.332714
 30
0.0
 11
-312.046169
 21
81.812033
 31
0.0
  0
LINE
  5
326
100
AcDbEntity
  8
0
370
    -3
390
0
  6
Continuous
100
AcDbLine
 10
-319.435763
 20
81.812033
 30
0.0
 11
-319.991906
 21
82.332714
 31
0.0
  0
LINE
  5
327
100
AcDbEntity
  8
0
370
    -3
390
0
  6
Continuous
100
AcDbLine
 10
-319.991906
 20
82.332714
 30
0.0
 11
-320.40326
 21
82.916795
 31
0.0
  0
LINE
  5
328
100
AcDbEntity
  8
0
370
    -3
390
0
  6
Continuous
100
AcDbLine
 10
-320.40326
 20
82.916795
 30
0.0
 11
-320.655814
 21
83.544382
 31
0.0
  0
LINE
  5
329
100
AcDbEntity
  8
0
370
    -3
390
0
  6
Continuous
100
AcDbLine
 10
-320.655814
 20
83.544382
 30
0.0
 11
-320.740966
 21
84.194099
 31
0.0
  0
LINE
  5
32A
100
AcDbEntity
  8
0
370
    -3
390
0
  6
Continuous
100
AcDbLine
 10
-312.240966
 20
83.091895
 30
0.0
 11
-312.308217
 21
82.504402
 31
0.0
  0
LINE
  5
32B
100
AcDbEntity
  8
0
370
    -3
390
0
  6
Continuous
100
AcDbLine
 10
-312.308217
 20
82.504402
 30
0.0
 11
-312.507387
 21
81.939485
 31
0.0
  0
LINE
  5
32C
100
AcDbEntity
  8
0
370
    -3
390
0
  6
Continuous
100
AcDbLine
 10
-312.507387
 20
81.939485
 30
0.0
 11
-312.830822
 21
81.418855
 31
0.0
  0
LINE
  5
32D
100
AcDbEntity
  8
0
370
    -3
390
0
  6
Continuous
100
AcDbLine
 10
-312.830822
 20
81.418855
 30
0.0
 11
-313.266092
 21
80.962519
 31
0.0
  0
LINE
  5
32E
100
AcDbEntity
  8
0
370
    -3
390
0
  6
Continuous
100
AcDbLine
 10
-313.266092
 20
80.962519
 30
0.0
 11
-313.79647
 21
80.588014
 31
0.0
  0
LINE
  5
32F
100
AcDbEntity
  8
0
370
    -3
390
0
  6
Continuous
100
AcDbLine
 10
-313.79647
 20
80.588014
 30
0.0
 11
-314.401574
 21
80.309732
 31
0.0
  0
LINE
  5
330
100
AcDbEntity
  8
0
370
    -3
390
0
  6
Continuous
100
AcDbLine
 10
-314.401574
 20
80.309732
 30
0.0
 11
-315.05815
 21
80.138366
 31
0.0
  0
LINE
  5
331
100
AcDbEntity
  8
0
370
    -3
390
0
  6
Continuous
100
AcDbLine
 10
-315.05815
 20
80.138366
 30
0.0
 11
-315.740966
 21
80.080503
 31
0.0
  0
LINE
  5
332
100
AcDbEntity
  8
0
370
    -3
390
0
  6
Continuous
100
AcDbLine
 10
-315.740966
 20
80.080503
 30
0.0
 11
-316.423782
 21
80.138366
 31
0.0
  0
LINE
  5
333
100
AcDbEntity
  8
0
370
    -3
390
0
  6
Continuous
100
AcDbLine
 10
-316.423782
 20
80.138366
 30
0.0
 11
-317.080358
 21
80.309732
 31
0.0
  0
LINE
  5
334
100
AcDbEntity
  8
0
370
    -3
390
0
  6
Continuous
100
AcDbLine
 10
-317.080358
 20
80.309732
 30
0.0
 11
-317.685462
 21
80.588014
 31
0.0
  0
LINE
  5
335
100
AcDbEntity
  8
0
370
    -3
390
0
  6
Continuous
100
AcDbLine
 10
-317.685462
 20
80.588014
 30
0.0
 11
-318.215839
 21
80.962519
 31
0.0
  0
LINE
  5
336
100
AcDbEntity
  8
0
370
    -3
390
0
  6
Continuous
100
AcDbLine
 10
-318.215839
 20
80.962519
 30
0.0
 11
-318.651109
 21
81.418855
 31
0.0
  0
LINE
  5
337
100
AcDbEntity
  8
0
370
    -3
390
0
  6
Continuous
100
AcDbLine
 10
-318.651109
 20
81.418855
 30
0.0
 11
-318.974544
 21
81.939485
 31
0.0
  0
LINE
  5
338
100
AcDbEntity
  8
0
370
    -3
390
0
  6
Continuous
100
AcDbLine
 10
-318.974544
 20
81.939485
 30
0.0
 11
-319.173714
 21
82.504402
 31
0.0
  0
LINE
  5
339
100
AcDbEntity
  8
0
370
    -3
390
0
  6
Continuous
100
AcDbLine
 10
-319.173714
 20
82.504402
 30
0.0
 11
-319.240966
 21
83.091895
 31
0.0
  0
LINE
  5
33A
100
AcDbEntity
  8
0
370
    -3
390
0
  6
Continuous
100
AcDbLine
 10
-319.240966
 20
83.091895
 30
0.0
 11
-319.173714
 21
83.679388
 31
0.0
  0
LINE
  5
33B
100
AcDbEntity
  8
0
370
    -3
390
0
  6
Continuous
100
AcDbLine
 10
-319.173714
 20
83.679388
 30
0.0
 11
-318.974544
 21
84.244305
 31
0.0
  0
LINE
  5
33C
100
AcDbEntity
  8
0
370
    -3
390
0
  6
Continuous
100
AcDbLine
 10
-318.974544
 20
84.244305
 30
0.0
 11
-318.651109
 21
84.764935
 31
0.0
  0
LINE
  5
33D
100
AcDbEntity
  8
0
370
    -3
390
0
  6
Continuous
100
AcDbLine
 10
-318.651109
 20
84.764935
 30
0.0
 11
-318.215839
 21
85.221271
 31
0.0
  0
LINE
  5
33E
100
AcDbEntity
  8
0
370
    -3
390
0
  6
Continuous
100
AcDbLine
 10
-318.215839
 20
85.221271
 30
0.0
 11
-317.685462
 21
85.595776
 31
0.0
  0
LINE
  5
33F
100
AcDbEntity
  8
0
370
    -3
390
0
  6
Continuous
100
AcDbLine
 10
-317.685462
 20
85.595776
 30
0.0
 11
-317.080358
 21
85.874058
 31
0.0
  0
LINE
  5
340
100
AcDbEntity
  8
0
370
    -3
390
0
  6
Continuous
100
AcDbLine
 10
-317.080358
 20
85.874058
 30
0.0
 11
-316.423782
 21
86.045424
 31
0.0
  0
LINE
  5
341
100
AcDbEntity
  8
0
370
    -3
390
0
  6
Continuous
100
AcDbLine
 10
-316.423782
 20
86.045424
 30
0.0
 11
-315.740966
 21
86.103287
 31
0.0
  0
LINE
  5
342
100
AcDbEntity
  8
0
370
    -3
390
0
  6
Continuous
100
AcDbLine
 10
-315.740966
 20
86.103287
 30
0.0
 11
-315.05815
 21
86.045424
 31
0.0
  0
LINE
  5
343
100
AcDbEntity
  8
0
370
    -3
390
0
  6
Continuous
100
AcDbLine
 10
-315.05815
 20
86.045424
 30
0.0
 11
-314.401574
 21
85.874058
 31
0.0
  0
LINE
  5
344
100
AcDbEntity
  8
0
370
    -3
390
0
  6
Continuous
100
AcDbLine
 10
-314.401574
 20
85.874058
 30
0.0
 11
-313.79647
 21
85.595776
 31
0.0
  0
LINE
  5
345
100
AcDbEntity
  8
0
370
    -3
390
0
  6
Continuous
100
AcDbLine
 10
-313.79647
 20
85.595776
 30
0.0
 11
-313.266092
 21
85.221271
 31
0.0
  0
LINE
  5
346
100
AcDbEntity
  8
0
370
    -3
390
0
  6
Continuous
100
AcDbLine
 10
-313.266092
 20
85.221271
 30
0.0
 11
-312.830822
 21
84.764935
 31
0.0
  0
LINE
  5
347
100
AcDbEntity
  8
0
370
    -3
390
0
  6
Continuous
100
AcDbLine
 10
-312.830822
 20
84.764935
 30
0.0
 11
-312.507387
 21
84.244305
 31
0.0
  0
LINE
  5
348
100
AcDbEntity
  8
0
370
    -3
390
0
  6
Continuous
100
AcDbLine
 10
-312.507387
 20
84.244305
 30
0.0
 11
-312.308217
 21
83.679388
 31
0.0
  0
LINE
  5
349
100
AcDbEntity
  8
0
370
    -3
390
0
  6
Continuous
100
AcDbLine
 10
-312.308217
 20
83.679388
 30
0.0
 11
-312.240966
 21
83.091895
 31
0.0
  0
LINE
  5
34A
100
AcDbEntity
  8
0
370
    -3
390
0
  6
Continuous
100
AcDbLine
 10
-318.236771
 20
80.980683
 30
0.0
 11
-318.896343
 21
81.359758
 31
0.0
  0
LINE
  5
34B
100
AcDbEntity
  8
0
370
    -3
390
0
  6
Continuous
100
AcDbLine
 10
-318.896343
 20
81.359758
 30
0.0
 11
-319.443344
 21
81.819768
 31
0.0
  0
LINE
  5
34C
100
AcDbEntity
  8
0
370
    -3
390
0
  6
Continuous
100
AcDbLine
 10
-319.443344
 20
81.819768
 30
0.0
 11
-319.858261
 21
82.344303
 31
0.0
  0
LINE
  5
34D
100
AcDbEntity
  8
0
370
    -3
390
0
  6
Continuous
100
AcDbLine
 10
-319.858261
 20
82.344303
 30
0.0
 11
-320.126292
 21
82.914649
 31
0.0
  0
LINE
  5
34E
100
AcDbEntity
  8
0
370
    -3
390
0
  6
Continuous
100
AcDbLine
 10
-320.126292
 20
82.914649
 30
0.0
 11
-320.237873
 21
83.51046
 31
0.0
  0
LINE
  5
34F
100
AcDbEntity
  8
0
370
    -3
390
0
  6
Continuous
100
AcDbLine
 10
-320.237873
 20
83.51046
 30
0.0
 11
-320.189025
 21
84.110478
 31
0.0
  0
LINE
  5
350
100
AcDbEntity
  8
0
370
    -3
390
0
  6
Continuous
100
AcDbLine
 10
-320.189025
 20
84.110478
 30
0.0
 11
-319.981489
 21
84.693298
 31
0.0
  0
LINE
  5
351
100
AcDbEntity
  8
0
370
    -3
390
0
  6
Continuous
100
AcDbLine
 10
-319.981489
 20
84.693298
 30
0.0
 11
-319.622671
 21
85.238128
 31
0.0
  0
LINE
  5
352
100
AcDbEntity
  8
0
370
    -3
390
0
  6
Continuous
100
AcDbLine
 10
-319.622671
 20
85.238128
 30
0.0
 11
-319.12537
 21
85.725531
 31
0.0
  0
LINE
  5
353
100
AcDbEntity
  8
0
370
    -3
390
0
  6
Continuous
100
AcDbLine
 10
-319.12537
 20
85.725531
 30
0.0
 11
-318.507329
 21
86.138118
 31
0.0
  0
LINE
  5
354
100
AcDbEntity
  8
0
370
    -3
390
0
  6
Continuous
100
AcDbLine
 10
-318.507329
 20
86.138118
 30
0.0
 11
-317.790597
 21
86.461169
 31
0.0
  0
LINE
  5
355
100
AcDbEntity
  8
0
370
    -3
390
0
  6
Continuous
100
AcDbLine
 10
-317.790597
 20
86.461169
 30
0.0
 11
-317.000743
 21
86.683161
 31
0.0
  0
LINE
  5
356
100
AcDbEntity
  8
0
370
    -3
390
0
  6
Continuous
100
AcDbLine
 10
-317.000743
 20
86.683161
 30
0.0
 11
-316.165945
 21
86.796172
 31
0.0
  0
LINE
  5
357
100
AcDbEntity
  8
0
370
    -3
390
0
  6
Continuous
100
AcDbLine
 10
-316.165945
 20
86.796172
 30
0.0
 11
-315.315986
 21
86.796172
 31
0.0
  0
LINE
  5
358
100
AcDbEntity
  8
0
370
    -3
390
0
  6
Continuous
100
AcDbLine
 10
-315.315986
 20
86.796172
 30
0.0
 11
-314.481189
 21
86.683161
 31
0.0
  0
LINE
  5
359
100
AcDbEntity
  8
0
370
    -3
390
0
  6
Continuous
100
AcDbLine
 10
-314.481189
 20
86.683161
 30
0.0
 11
-313.691335
 21
86.461169
 31
0.0
  0
LINE
  5
35A
100
AcDbEntity
  8
0
370
    -3
390
0
  6
Continuous
100
AcDbLine
 10
-313.691335
 20
86.461169
 30
0.0
 11
-312.974602
 21
86.138118
 31
0.0
  0
LINE
  5
35B
100
AcDbEntity
  8
0
370
    -3
390
0
  6
Continuous
100
AcDbLine
 10
-312.974602
 20
86.138118
 30
0.0
 11
-312.356561
 21
85.725531
 31
0.0
  0
LINE
  5
35C
100
AcDbEntity
  8
0
370
    -3
390
0
  6
Continuous
100
AcDbLine
 10
-312.356561
 20
85.725531
 30
0.0
 11
-311.859261
 21
85.238128
 31
0.0
  0
LINE
  5
35D
100
AcDbEntity
  8
0
370
    -3
390
0
  6
Continuous
100
AcDbLine
 10
-311.859261
 20
85.238128
 30
0.0
 11
-311.500442
 21
84.693298
 31
0.0
  0
LINE
  5
35E
100
AcDbEntity
  8
0
370
    -3
390
0
  6
Continuous
100
AcDbLine
 10
-311.500442
 20
84.693298
 30
0.0
 11
-311.292907
 21
84.110478
 31
0.0
  0
LINE
  5
35F
100
AcDbEntity
  8
0
370
    -3
390
0
  6
Continuous
100
AcDbLine
 10
-311.292907
 20
84.110478
 30
0.0
 11
-311.244059
 21
83.51046
 31
0.0
  0
LINE
  5
360
100
AcDbEntity
  8
0
370
    -3
390
0
  6
Continuous
100
AcDbLine
 10
-311.244059
 20
83.51046
 30
0.0
 11
-311.35564
 21
82.914649
 31
0.0
  0
LINE
  5
361
100
AcDbEntity
  8
0
370
    -3
390
0
  6
Continuous
100
AcDbLine
 10
-311.35564
 20
82.914649
 30
0.0
 11
-311.62367
 21
82.344303
 31
0.0
  0
LINE
  5
362
100
AcDbEntity
  8
0
370
    -3
390
0
  6
Continuous
100
AcDbLine
 10
-311.62367
 20
82.344303
 30
0.0
 11
-312.038587
 21
81.819768
 31
0.0
  0
LINE
  5
363
100
AcDbEntity
  8
0
370
    -3
390
0
  6
Continuous
100
AcDbLine
 10
-312.038587
 20
81.819768
 30
0.0
 11
-312.585589
 21
81.359758
 31
0.0
  0
LINE
  5
364
100
AcDbEntity
  8
0
370
    -3
390
0
  6
Continuous
100
AcDbLine
 10
-312.585589
 20
81.359758
 30
0.0
 11
-313.24516
 21
80.980683
 31
0.0
  0
LINE
  5
365
100
AcDbEntity
  8
0
370
    -3
390
0
  6
Continuous
100
AcDbLine
 10
-315.740966
 20
81.789935
 30
0.0
 11
-313.740966
 21
83.363273
 31
0.0
  0
LINE
  5
366
100
AcDbEntity
  8
0
370
    -3
390
0
  6
Continuous
100
AcDbLine
 10
-315.740966
 20
81.789935
 30
0.0
 11
-313.811761
 21
80.579273
 31
0.0
  0
LINE
  5
367
100
AcDbEntity
  8
0
370
    -3
390
0
  6
Continuous
100
AcDbLine
 10
-315.740966
 20
81.789935
 30
0.0
 11
-317.740966
 21
83.363273
 31
0.0
  0
LINE
  5
368
100
AcDbEntity
  8
0
370
    -3
390
0
  6
Continuous
100
AcDbLine
 10
-315.740966
 20
81.789935
 30
0.0
 11
-317.670171
 21
80.579273
 31
0.0
  0
ARC
  5
369
100
AcDbEntity
  8
0
370
    -3
390
0
  6
Continuous
100
AcDbCircle
 10
-358.940966
 20
200.785096
 30
0.0
 40
3.8
100
AcDbArc
 50
120.0
 51
180.0
  0
LINE
  5
36A
100
AcDbEntity
  8
0
370
    -3
390
0
  6
Continuous
100
AcDbLine
 10
-362.740966
 20
142.035433
 30
0.0
 11
-362.740966
 21
200.785096
 31
0.0
  0
LINE
  5
36B
100
AcDbEntity
  8
0
370
    -3
390
0
  6
Continuous
100
AcDbLine
 10
-360.840966
 20
204.075992
 30
0.0
 11
-345.888131
 21
212.709016
 31
0.0
  0
ARC
  5
36C
100
AcDbEntity
  8
0
370
    -3
390
0
  6
Continuous
100
AcDbCircle
 10
-330.488131
 20
98.035433
 30
0.0
 40
30.8
100
AcDbArc
 50
240.0
 51
270.0
  0
ARC
  5
36D
100
AcDbEntity
  8
0
370
    -3
390
0
  6
Continuous
100
AcDbCircle
 10
-358.940966
 20
83.285771
 30
0.0
 40
3.8
100
AcDbArc
 50
180.0
 51
240.0
  0
LINE
  5
36E
100
AcDbEntity
  8
0
370
    -3
390
0
  6
Continuous
100
AcDbLine
 10
-362.740966
 20
142.035433
 30
0.0
 11
-362.740966
 21
83.285771
 31
0.0
  0
LINE
  5
36F
100
AcDbEntity
  8
0
370
    -3
390
0
  6
Continuous
100
AcDbLine
 10
-360.840966
 20
79.994874
 30
0.0
 11
-345.888131
 21
71.361851
 31
0.0
  0
LINE
  5
370
100
AcDbEntity
  8
0
370
    -3
390
0
  6
Continuous
100
AcDbLine
 10
-298.740966
 20
75.535433
 30
0.0
 11
-155.740966
 21
75.535433
 31
0.0
  0
LINE
  5
371
100
AcDbEntity
  8
0
370
    -3
390
0
  6
Continuous
100
AcDbLine
 10
-298.740966
 20
71.035433
 30
0.0
 11
-155.740966
 21
71.035433
 31
0.0
  0
LINE
  5
372
100
AcDbEntity
  8
0
370
    -3
390
0
  6
Continuous
100
AcDbLine
 10
-298.740966
 20
72.535433
 30
0.0
 11
-155.740966
 21
72.535433
 31
0.0
  0
LINE
  5
373
100
AcDbEntity
  8
0
370
    -3
390
0
  6
Continuous
100
AcDbLine
 10
-298.740966
 20
70.535433
 30
0.0
 11
-155.740966
 21
70.535433
 31
0.0
  0
LINE
  5
374
100
AcDbEntity
  8
0
370
    -3
390
0
  6
Continuous
100
AcDbLine
 10
-298.740966
 20
80.035433
 30
0.0
 11
-155.740966
 21
80.035433
 31
0.0
  0
LINE
  5
375
100
AcDbEntity
  8
0
370
    -3
390
0
  6
Continuous
100
AcDbLine
 10
-298.740966
 20
86.449634
 30
0.0
 11
-155.740966
 21
86.449634
 31
0.0
  0
LINE
  5
376
100
AcDbEntity
  8
0
370
    -3
390
0
  6
Continuous
100
AcDbLine
 10
-298.740966
 20
92.813595
 30
0.0
 11
-155.740966
 21
92.813595
 31
0.0
  0
LINE
  5
377
100
AcDbEntity
  8
0
370
    -3
390
0
  6
Continuous
100
AcDbLine
 10
-155.740966
 20
101.186164
 30
0.0
 11
-298.740966
 21
101.186164
 31
0.0
  0
LINE
  5
378
100
AcDbEntity
  8
0
370
    -3
390
0
  6
Continuous
100
AcDbLine
 10
-155.740966
 20
102.834791
 30
0.0
 11
-298.740966
 21
102.834791
 31
0.0
  0
LINE
  5
379
100
AcDbEntity
  8
0
370
    -3
390
0
  6
Continuous
100
AcDbLine
 10
-298.740966
 20
109.192662
 30
0.0
 11
-155.740966
 21
109.192662
 31
0.0
  0
LINE
  5
37A
100
AcDbEntity
  8
0
370
    -3
390
0
  6
Continuous
100
AcDbLine
 10
-298.740966
 20
110.825389
 30
0.0
 11
-155.740966
 21
110.825389
 31
0.0
  0
LINE
  5
37B
100
AcDbEntity
  8
0
370
    -3
390
0
  6
Continuous
100
AcDbLine
 10
-298.740966
 20
118.035433
 30
0.0
 11
-155.740966
 21
118.035433
 31
0.0
  0
LINE
  5
37C
100
AcDbEntity
  8
0
370
    -3
390
0
  6
Continuous
100
AcDbLine
 10
-298.740966
 20
208.535433
 30
0.0
 11
-155.740966
 21
208.535433
 31
0.0
  0
LINE
  5
37D
100
AcDbEntity
  8
0
370
    -3
390
0
  6
Continuous
100
AcDbLine
 10
-298.740966
 20
213.035433
 30
0.0
 11
-155.740966
 21
213.035433
 31
0.0
  0
LINE
  5
37E
100
AcDbEntity
  8
0
370
    -3
390
0
  6
Continuous
100
AcDbLine
 10
-298.740966
 20
211.535433
 30
0.0
 11
-155.740966
 21
211.535433
 31
0.0
  0
LINE
  5
37F
100
AcDbEntity
  8
0
370
    -3
390
0
  6
Continuous
100
AcDbLine
 10
-298.740966
 20
213.535433
 30
0.0
 11
-155.740966
 21
213.535433
 31
0.0
  0
LINE
  5
380
100
AcDbEntity
  8
0
370
    -3
390
0
  6
Continuous
100
AcDbLine
 10
-298.740966
 20
204.035433
 30
0.0
 11
-155.740966
 21
204.035433
 31
0.0
  0
LINE
  5
381
100
AcDbEntity
  8
0
370
    -3
390
0
  6
Continuous
100
AcDbLine
 10
-298.740966
 20
174.878205
 30
0.0
 11
-155.740966
 21
174.878205
 31
0.0
  0
LINE
  5
382
100
AcDbEntity
  8
0
370
    -3
390
0
  6
Continuous
100
AcDbLine
 10
-298.740966
 20
173.245478
 30
0.0
 11
-155.740966
 21
173.245478
 31
0.0
  0
LINE
  5
383
100
AcDbEntity
  8
0
370
    -3
390
0
  6
Continuous
100
AcDbLine
 10
-298.740966
 20
166.035433
 30
0.0
 11
-155.740966
 21
166.035433
 31
0.0
  0
LINE
  5
384
100
AcDbEntity
  8
0
370
    -3
390
0
  6
Continuous
100
AcDbLine
 10
-155.740966
 20
181.236075
 30
0.0
 11
-298.740966
 21
181.236075
 31
0.0
  0
LINE
  5
385
100
AcDbEntity
  8
0
370
    -3
390
0
  6
Continuous
100
AcDbLine
 10
-155.740966
 20
182.884702
 30
0.0
 11
-298.740966
 21
182.884702
 31
0.0
  0
LINE
  5
386
100
AcDbEntity
  8
0
370
    -3
390
0
  6
Continuous
100
AcDbLine
 10
-298.740966
 20
191.257272
 30
0.0
 11
-155.740966
 21
191.257272
 31
0.0
  0
LINE
  5
387
100
AcDbEntity
  8
0
370
    -3
390
0
  6
Continuous
100
AcDbLine
 10
-298.740966
 20
197.621233
 30
0.0
 11
-155.740966
 21
197.621233
 31
0.0
  0
LINE
  5
388
100
AcDbEntity
  8
0
370
    -3
390
0
  6
Continuous
100
AcDbLine
 10
-298.740966
 20
67.235433
 30
0.0
 11
-330.488131
 21
67.235433
 31
0.0
  0
LINE
  5
389
100
AcDbEntity
  8
0
370
    -3
390
0
  6
Continuous
100
AcDbLine
 10
-298.740966
 20
67.235433
 30
0.0
 11
-298.740966
 21
216.835433
 31
0.0
  0
LINE
  5
38A
100
AcDbEntity
  8
0
370
    -3
390
0
  6
Continuous
100
AcDbLine
 10
-298.740966
 20
216.835433
 30
0.0
 11
-330.488131
 21
216.835433
 31
0.0
  0
LINE
  5
38B
100
AcDbEntity
  8
0
370
    -3
390
0
  6
Continuous
100
AcDbLine
 10
-55.174792
 20
201.137075
 30
0.0
 11
-55.152099
 21
202.437136
 31
0.0
  0
LINE
  5
38C
100
AcDbEntity
  8
0
370
    -3
390
0
  6
Continuous
100
AcDbLine
 10
39.677948
 20
201.137611
 30
0.0
 11
39.65524
 21
202.437671
 31
0.0
  0
LINE
  5
38D
100
AcDbEntity
  8
0
370
    -3
390
0
  6
Continuous
100
AcDbLine
 10
-54.856749
 20
205.036573
 30
0.0
 11
-55.26373
 21
204.63663
 31
0.0
  0
LINE
  5
38E
100
AcDbEntity
  8
0
370
    -3
390
0
  6
Continuous
100
AcDbLine
 10
39.766837
 20
204.637703
 30
0.0
 11
39.359851
 21
205.037638
 31
0.0
  0
ARC
  5
38F
100
AcDbEntity
  8
0
370
    -3
390
0
  6
Continuous
100
AcDbCircle
 10
-126.747443
 20
98.035534
 30
0.0
 40
1.0
100
AcDbArc
 50
0.000647
 51
90.000647
  0
LINE
  5
390
100
AcDbEntity
  8
0
370
    -3
390
0
  6
Continuous
100
AcDbLine
 10
-149.747155
 20
72.535501
 30
0.0
 11
-149.74716
 21
73.035501
 31
0.0
  0
ARC
  5
391
100
AcDbEntity
  8
0
370
    -3
390
0
  6
Continuous
100
AcDbCircle
 10
-151.747155
 20
72.535479
 30
0.0
 40
2.0
100
AcDbArc
 50
270.000647
 51
0.000647
  0
ARC
  5
392
100
AcDbEntity
  8
0
370
    -3
390
0
  6
Continuous
100
AcDbCircle
 10
-146.74716
 20
73.035535
 30
0.0
 40
3.0
100
AcDbArc
 50
90.000647
 51
180.000647
  0
LINE
  5
393
100
AcDbEntity
  8
0
370
    -3
390
0
  6
Continuous
100
AcDbLine
 10
-135.240909
 20
76.035665
 30
0.0
 11
-146.747194
 21
76.035535
 31
0.0
  0
ARC
  5
394
100
AcDbEntity
  8
0
370
    -3
390
0
  6
Continuous
100
AcDbCircle
 10
-151.748725
 20
211.535479
 30
0.0
 40
2.0
100
AcDbArc
 50
0.000647
 51
90.000647
  0
LINE
  5
395
100
AcDbEntity
  8
0
370
    -3
390
0
  6
Continuous
100
AcDbLine
 10
-135.241022
 20
208.035665
 30
0.0
 11
-146.748685
 21
208.035535
 31
0.0
  0
ARC
  5
396
100
AcDbEntity
  8
0
370
    -3
390
0
  6
Continuous
100
AcDbCircle
 10
-146.748719
 20
211.035535
 30
0.0
 40
3.0
100
AcDbArc
 50
180.000647
 51
270.000647
  0
LINE
  5
397
100
AcDbEntity
  8
0
370
    -3
390
0
  6
Continuous
100
AcDbLine
 10
-149.748719
 20
211.035501
 30
0.0
 11
-149.748725
 21
211.535501
 31
0.0
  0
LINE
  5
398
100
AcDbEntity
  8
0
370
    -3
390
0
  6
Continuous
100
AcDbLine
 10
-126.747454
 20
99.035534
 30
0.0
 11
-128.240988
 21
99.035517
 31
0.0
  0
ARC
  5
399
100
AcDbEntity
  8
0
370
    -3
390
0
  6
Continuous
100
AcDbCircle
 10
-126.368421
 20
198.035765
 30
0.0
 40
2.0
100
AcDbArc
 50
270.000647
 51
359.140628
  0
LINE
  5
39A
100
AcDbEntity
  8
0
370
    -3
390
0
  6
Continuous
100
AcDbLine
 10
-126.368399
 20
196.035765
 30
0.0
 11
-128.240943
 21
196.035744
 31
0.0
  0
LINE
  5
39B
100
AcDbEntity
  8
0
370
    -3
390
0
  6
Continuous
100
AcDbLine
 10
60.20739
 20
100.037646
 30
0.0
 11
60.18489
 21
100.037646
 31
0.0
  0
LINE
  5
39C
100
AcDbEntity
  8
0
370
    -3
390
0
  6
Continuous
100
AcDbLine
 10
39.847183
 20
200.037643
 30
0.0
 11
58.751405
 21
200.037857
 31
0.0
  0
LINE
  5
39D
100
AcDbEntity
  8
0
370
    -3
390
0
  6
Continuous
100
AcDbLine
 10
-54.856749
 20
205.036573
 30
0.0
 11
39.359851
 21
205.037638
 31
0.0
  0
LINE
  5
39E
100
AcDbEntity
  8
0
370
    -3
390
0
  6
Continuous
100
AcDbLine
 10
58.758616
 20
200.037857
 30
0.0
 11
-124.33069
 21
200.035788
 31
0.0
  0
LINE
  5
39F
100
AcDbEntity
  8
0
370
    -3
390
0
  6
Continuous
100
AcDbLine
 10
-124.368646
 20
198.005769
 30
0.0
 11
-124.338196
 21
200.035788
 31
0.0
  0
LINE
  5
3A0
100
AcDbEntity
  8
0
370
    -3
390
0
  6
Continuous
100
AcDbLine
 10
39.753479
 20
202.537642
 30
0.0
 11
39.65524
 21
202.437671
 31
0.0
  0
LINE
  5
3A1
100
AcDbEntity
  8
0
370
    -3
390
0
  6
Continuous
100
AcDbLine
 10
39.779679
 20
201.037642
 30
0.0
 11
39.677948
 21
201.137611
 31
0.0
  0
LINE
  5
3A2
100
AcDbEntity
  8
0
370
    -3
390
0
  6
Continuous
100
AcDbLine
 10
39.753479
 20
202.537642
 30
0.0
 11
39.803517
 21
202.537643
 31
0.0
  0
LINE
  5
3A3
100
AcDbEntity
  8
0
370
    -3
390
0
  6
Continuous
100
AcDbLine
 10
39.803517
 20
202.537643
 30
0.0
 11
39.766837
 21
204.637703
 31
0.0
  0
LINE
  5
3A4
100
AcDbEntity
  8
0
370
    -3
390
0
  6
Continuous
100
AcDbLine
 10
39.847183
 20
200.037643
 30
0.0
 11
39.829717
 21
201.037643
 31
0.0
  0
LINE
  5
3A5
100
AcDbEntity
  8
0
370
    -3
390
0
  6
Continuous
100
AcDbLine
 10
39.779679
 20
201.037642
 30
0.0
 11
39.829717
 21
201.037643
 31
0.0
  0
LINE
  5
3A6
100
AcDbEntity
  8
0
370
    -3
390
0
  6
Continuous
100
AcDbLine
 10
-55.250339
 20
202.537105
 30
0.0
 11
-55.152099
 21
202.437136
 31
0.0
  0
LINE
  5
3A7
100
AcDbEntity
  8
0
370
    -3
390
0
  6
Continuous
100
AcDbLine
 10
-55.276522
 20
201.037105
 30
0.0
 11
-55.174792
 21
201.137075
 31
0.0
  0
LINE
  5
3A8
100
AcDbEntity
  8
0
370
    -3
390
0
  6
Continuous
100
AcDbLine
 10
-55.250339
 20
202.537105
 30
0.0
 11
-55.300377
 21
202.537105
 31
0.0
  0
LINE
  5
3A9
100
AcDbEntity
  8
0
370
    -3
390
0
  6
Continuous
100
AcDbLine
 10
-55.300377
 20
202.537105
 30
0.0
 11
-55.26373
 21
204.63663
 31
0.0
  0
LINE
  5
3AA
100
AcDbEntity
  8
0
370
    -3
390
0
  6
Continuous
100
AcDbLine
 10
-55.344015
 20
200.037105
 30
0.0
 11
-55.32656
 21
201.037105
 31
0.0
  0
LINE
  5
3AB
100
AcDbEntity
  8
0
370
    -3
390
0
  6
Continuous
100
AcDbLine
 10
-55.276522
 20
201.037105
 30
0.0
 11
-55.32656
 21
201.037105
 31
0.0
  0
LINE
  5
3AC
100
AcDbEntity
  8
0
370
    -3
390
0
  6
Continuous
100
AcDbLine
 10
60.252569
 20
97.037646
 30
0.0
 11
-125.747431
 21
97.035545
 31
0.0
  0
LINE
  5
3AD
100
AcDbEntity
  8
0
370
    -3
390
0
  6
Continuous
100
AcDbLine
 10
58.758616
 20
200.037857
 30
0.0
 11
60.245357
 21
97.037646
 31
0.0
  0
LINE
  5
3AE
100
AcDbEntity
  8
0
370
    -3
390
0
  6
Continuous
100
AcDbLine
 10
-125.747431
 20
97.035545
 30
0.0
 11
-125.747443
 21
98.035545
 31
0.0
  0
LINE
  5
3AF
100
AcDbEntity
  8
0
370
    -3
390
0
  6
Continuous
100
AcDbLine
 10
-151.747132
 20
70.535479
 30
0.0
 11
-155.740158
 21
70.535433
 31
0.0
  0
LINE
  5
3B0
100
AcDbEntity
  8
0
370
    -3
390
0
  6
Continuous
100
AcDbLine
 10
-151.748748
 20
213.535479
 30
0.0
 11
-155.741774
 21
213.535433
 31
0.0
  0
LINE
  5
3B1
100
AcDbEntity
  8
0
370
    -3
390
0
  6
Continuous
100
AcDbLine
 10
-55.250339
 20
202.537105
 30
0.0
 11
-55.300377
 21
202.537105
 31
0.0
  0
LINE
  5
3B2
100
AcDbEntity
  8
0
370
    -3
390
0
  6
Continuous
100
AcDbLine
 10
-55.344015
 20
200.037105
 30
0.0
 11
-55.32656
 21
201.037105
 31
0.0
  0
LINE
  5
3B3
100
AcDbEntity
  8
0
370
    -3
390
0
  6
Continuous
100
AcDbLine
 10
-55.276522
 20
201.037105
 30
0.0
 11
-55.32656
 21
201.037105
 31
0.0
  0
LINE
  5
3B4
100
AcDbEntity
  8
0
370
    -3
390
0
  6
Continuous
100
AcDbLine
 10
39.753479
 20
202.537642
 30
0.0
 11
39.803517
 21
202.537643
 31
0.0
  0
LINE
  5
3B5
100
AcDbEntity
  8
0
370
    -3
390
0
  6
Continuous
100
AcDbLine
 10
39.779679
 20
201.037642
 30
0.0
 11
39.829717
 21
201.037643
 31
0.0
  0
LINE
  5
3B6
100
AcDbEntity
  8
0
370
    -3
390
0
  6
Continuous
100
AcDbLine
 10
-55.34467
 20
200.036568
 30
0.0
 11
-124.33069
 21
200.035788
 31
0.0
  0
LINE
  5
3B7
100
AcDbEntity
  8
0
370
    -3
390
0
  6
Continuous
100
AcDbLine
 10
39.847183
 20
200.037643
 30
0.0
 11
39.829717
 21
201.037643
 31
0.0
  0
LINE
  5
3B8
100
AcDbEntity
  8
0
370
    -3
390
0
  6
Continuous
100
AcDbLine
 10
39.847183
 20
200.037643
 30
0.0
 11
58.751405
 21
200.037857
 31
0.0
  0
LINE
  5
3B9
100
AcDbEntity
  8
0
370
    -3
390
0
  6
Continuous
100
AcDbLine
 10
-55.097162
 20
82.936878
 30
0.0
 11
-55.097162
 21
81.636878
 31
0.0
  0
LINE
  5
3BA
100
AcDbEntity
  8
0
370
    -3
390
0
  6
Continuous
100
AcDbLine
 10
39.601494
 20
82.936878
 30
0.0
 11
39.601494
 21
81.636878
 31
0.0
  0
LINE
  5
3BB
100
AcDbEntity
  8
0
370
    -3
390
0
  6
Continuous
100
AcDbLine
 10
59.830678
 20
94.036878
 30
0.0
 11
60.022024
 21
94.036878
 31
0.0
  0
LINE
  5
3BC
100
AcDbEntity
  8
0
370
    -3
390
0
  6
Continuous
100
AcDbLine
 10
39.751494
 20
84.036878
 30
0.0
 11
59.214379
 21
84.036878
 31
0.0
  0
LINE
  5
3BD
100
AcDbEntity
  8
0
370
    -3
390
0
  6
Continuous
100
AcDbLine
 10
54.452166
 20
97.036878
 30
0.0
 11
60.291239
 21
97.036878
 31
0.0
  0
ARC
  5
3BE
100
AcDbEntity
  8
0
370
    -3
390
0
  6
Continuous
100
AcDbCircle
 10
54.452166
 20
97.236878
 30
0.0
 40
0.2
100
AcDbArc
 50
180.0
 51
270.0
  0
LINE
  5
3BF
100
AcDbEntity
  8
0
370
    -3
390
0
  6
Continuous
100
AcDbLine
 10
39.351494
 20
79.036878
 30
0.0
 11
-7.747834
 21
79.036878
 31
0.0
  0
LINE
  5
3C0
100
AcDbEntity
  8
0
370
    -3
390
0
  6
Continuous
100
AcDbLine
 10
39.751494
 20
79.436878
 30
0.0
 11
39.351494
 21
79.036878
 31
0.0
  0
LINE
  5
3C1
100
AcDbEntity
  8
0
370
    -3
390
0
  6
Continuous
100
AcDbLine
 10
-54.847162
 20
79.036878
 30
0.0
 11
-55.247162
 21
79.436878
 31
0.0
  0
LINE
  5
3C2
100
AcDbEntity
  8
0
370
    -3
390
0
  6
Continuous
100
AcDbLine
 10
59.252839
 20
84.036878
 30
0.0
 11
60.25278
 21
97.036878
 31
0.0
  0
LINE
  5
3C3
100
AcDbEntity
  8
0
370
    -3
390
0
  6
Continuous
100
AcDbLine
 10
-55.247162
 20
81.536878
 30
0.0
 11
-55.247162
 21
79.436878
 31
0.0
  0
LINE
  5
3C4
100
AcDbEntity
  8
0
370
    -3
390
0
  6
Continuous
100
AcDbLine
 10
-55.247162
 20
84.036878
 30
0.0
 11
-55.247162
 21
83.036878
 31
0.0
  0
LINE
  5
3C5
100
AcDbEntity
  8
0
370
    -3
390
0
  6
Continuous
100
AcDbLine
 10
39.751494
 20
81.536878
 30
0.0
 11
39.751494
 21
81.486878
 31
0.0
  0
LINE
  5
3C6
100
AcDbEntity
  8
0
370
    -3
390
0
  6
Continuous
100
AcDbLine
 10
39.751494
 20
81.486878
 30
0.0
 11
39.751494
 21
79.436878
 31
0.0
  0
LINE
  5
3C7
100
AcDbEntity
  8
0
370
    -3
390
0
  6
Continuous
100
AcDbLine
 10
39.751494
 20
84.036878
 30
0.0
 11
39.751494
 21
83.086878
 31
0.0
  0
LINE
  5
3C8
100
AcDbEntity
  8
0
370
    -3
390
0
  6
Continuous
100
AcDbLine
 10
39.751494
 20
83.086878
 30
0.0
 11
39.751494
 21
83.036878
 31
0.0
  0
LINE
  5
3C9
100
AcDbEntity
  8
0
370
    -3
390
0
  6
Continuous
100
AcDbLine
 10
39.751494
 20
83.086878
 30
0.0
 11
39.751494
 21
83.036878
 31
0.0
  0
LINE
  5
3CA
100
AcDbEntity
  8
0
370
    -3
390
0
  6
Continuous
100
AcDbLine
 10
39.751494
 20
84.036878
 30
0.0
 11
39.751494
 21
83.086878
 31
0.0
  0
LINE
  5
3CB
100
AcDbEntity
  8
0
370
    -3
390
0
  6
Continuous
100
AcDbLine
 10
39.751494
 20
81.486878
 30
0.0
 11
39.751494
 21
79.436878
 31
0.0
  0
LINE
  5
3CC
100
AcDbEntity
  8
0
370
    -3
390
0
  6
Continuous
100
AcDbLine
 10
39.751494
 20
81.536878
 30
0.0
 11
39.751494
 21
81.486878
 31
0.0
  0
LINE
  5
3CD
100
AcDbEntity
  8
0
370
    -3
390
0
  6
Continuous
100
AcDbLine
 10
59.252839
 20
84.036878
 30
0.0
 11
60.25278
 21
97.036878
 31
0.0
  0
LINE
  5
3CE
100
AcDbEntity
  8
0
370
    -3
390
0
  6
Continuous
100
AcDbLine
 10
-54.847162
 20
79.036878
 30
0.0
 11
-55.247162
 21
79.436878
 31
0.0
  0
LINE
  5
3CF
100
AcDbEntity
  8
0
370
    -3
390
0
  6
Continuous
100
AcDbLine
 10
-54.847162
 20
79.036878
 30
0.0
 11
-7.747834
 21
79.036878
 31
0.0
  0
LINE
  5
3D0
100
AcDbEntity
  8
0
370
    -3
390
0
  6
Continuous
100
AcDbLine
 10
39.751494
 20
79.436878
 30
0.0
 11
39.351494
 21
79.036878
 31
0.0
  0
LINE
  5
3D1
100
AcDbEntity
  8
0
370
    -3
390
0
  6
Continuous
100
AcDbLine
 10
39.351494
 20
79.036878
 30
0.0
 11
-7.747834
 21
79.036878
 31
0.0
  0
LINE
  5
3D2
100
AcDbEntity
  8
0
370
    -3
390
0
  6
Continuous
100
AcDbLine
 10
-124.210447
 20
84.036878
 30
0.0
 11
-124.747205
 21
84.533933
 31
0.0
  0
LINE
  5
3D3
100
AcDbEntity
  8
0
370
    -3
390
0
  6
Continuous
100
AcDbLine
 10
-124.747205
 20
84.533933
 30
0.0
 11
-125.70897
 21
97.036878
 31
0.0
  0
ARC
  5
3D4
100
AcDbEntity
  8
0
370
    -3
390
0
  6
Continuous
100
AcDbCircle
 10
54.452166
 20
97.236878
 30
0.0
 40
0.2
100
AcDbArc
 50
180.0
 51
270.0
  0
LINE
  5
3D5
100
AcDbEntity
  8
0
370
    -3
390
0
  6
Continuous
100
AcDbLine
 10
54.452166
 20
97.036878
 30
0.0
 11
60.291239
 21
97.036878
 31
0.0
  0
LINE
  5
3D6
100
AcDbEntity
  8
0
370
    -3
390
0
  6
Continuous
100
AcDbLine
 10
-55.247162
 20
84.036878
 30
0.0
 11
-124.210447
 21
84.036878
 31
0.0
  0
LINE
  5
3D7
100
AcDbEntity
  8
0
370
    -3
390
0
  6
Continuous
100
AcDbLine
 10
-55.247162
 20
84.036878
 30
0.0
 11
59.214379
 21
84.036878
 31
0.0
  0
LINE
  5
3D8
100
AcDbEntity
  8
0
370
    -3
390
0
  6
Continuous
100
AcDbLine
 10
59.830678
 20
94.036878
 30
0.0
 11
60.022024
 21
94.036878
 31
0.0
  0
LINE
  5
3D9
100
AcDbEntity
  8
0
370
    -3
390
0
  6
Continuous
100
AcDbLine
 10
-55.247162
 20
84.036878
 30
0.0
 11
-55.247162
 21
83.086878
 31
0.0
  0
LINE
  5
3DA
100
AcDbEntity
  8
0
370
    -3
390
0
  6
Continuous
100
AcDbLine
 10
-55.247162
 20
81.486878
 30
0.0
 11
-55.247162
 21
79.436878
 31
0.0
  0
LINE
  5
3DB
100
AcDbEntity
  8
0
370
    -3
390
0
  6
Continuous
100
AcDbLine
 10
-55.097162
 20
82.936878
 30
0.0
 11
-55.197162
 21
83.036878
 31
0.0
  0
LINE
  5
3DC
100
AcDbEntity
  8
0
370
    -3
390
0
  6
Continuous
100
AcDbLine
 10
-55.197162
 20
81.536878
 30
0.0
 11
-55.097162
 21
81.636878
 31
0.0
  0
LINE
  5
3DD
100
AcDbEntity
  8
0
370
    -3
390
0
  6
Continuous
100
AcDbLine
 10
-55.197162
 20
83.036878
 30
0.0
 11
-55.247162
 21
83.036878
 31
0.0
  0
LINE
  5
3DE
100
AcDbEntity
  8
0
370
    -3
390
0
  6
Continuous
100
AcDbLine
 10
-55.197162
 20
81.536878
 30
0.0
 11
-55.247162
 21
81.536878
 31
0.0
  0
LINE
  5
3DF
100
AcDbEntity
  8
0
370
    -3
390
0
  6
Continuous
100
AcDbLine
 10
39.751494
 20
81.536878
 30
0.0
 11
39.751494
 21
79.436878
 31
0.0
  0
LINE
  5
3E0
100
AcDbEntity
  8
0
370
    -3
390
0
  6
Continuous
100
AcDbLine
 10
39.751494
 20
84.036878
 30
0.0
 11
39.751494
 21
83.036878
 31
0.0
  0
LINE
  5
3E1
100
AcDbEntity
  8
0
370
    -3
390
0
  6
Continuous
100
AcDbLine
 10
39.751494
 20
84.036878
 30
0.0
 11
39.751494
 21
83.086878
 31
0.0
  0
LINE
  5
3E2
100
AcDbEntity
  8
0
370
    -3
390
0
  6
Continuous
100
AcDbLine
 10
39.751494
 20
81.486878
 30
0.0
 11
39.751494
 21
79.436878
 31
0.0
  0
LINE
  5
3E3
100
AcDbEntity
  8
0
370
    -3
390
0
  6
Continuous
100
AcDbLine
 10
39.601494
 20
82.936878
 30
0.0
 11
39.701494
 21
83.036878
 31
0.0
  0
LINE
  5
3E4
100
AcDbEntity
  8
0
370
    -3
390
0
  6
Continuous
100
AcDbLine
 10
39.701494
 20
81.536878
 30
0.0
 11
39.601494
 21
81.636878
 31
0.0
  0
LINE
  5
3E5
100
AcDbEntity
  8
0
370
    -3
390
0
  6
Continuous
100
AcDbLine
 10
39.701494
 20
83.036878
 30
0.0
 11
39.751494
 21
83.036878
 31
0.0
  0
LINE
  5
3E6
100
AcDbEntity
  8
0
370
    -3
390
0
  6
Continuous
100
AcDbLine
 10
39.701494
 20
81.536878
 30
0.0
 11
39.751494
 21
81.536878
 31
0.0
  0
LINE
  5
3E7
100
AcDbEntity
  8
0
370
    -3
390
0
  6
Continuous
100
AcDbLine
 10
39.848494
 20
84.037643
 30
0.0
 11
58.752715
 21
84.037857
 31
0.0
  0
LINE
  5
3E8
100
AcDbEntity
  8
0
370
    -3
390
0
  6
Continuous
100
AcDbLine
 10
39.848494
 20
84.037643
 30
0.0
 11
58.752715
 21
84.037857
 31
0.0
  0
LINE
  5
3E9
100
AcDbEntity
  8
0
370
    -3
390
0
  6
Continuous
100
AcDbLine
 10
-31.748416
 20
209.037105
 30
0.0
 11
-31.748416
 21
205.037105
 31
0.0
  0
LINE
  5
3EA
100
AcDbEntity
  8
0
370
    -3
390
0
  6
Continuous
100
AcDbLine
 10
16.251584
 20
209.037105
 30
0.0
 11
-31.748416
 21
209.037105
 31
0.0
  0
LINE
  5
3EB
100
AcDbEntity
  8
0
370
    -3
390
0
  6
Continuous
100
AcDbLine
 10
16.251584
 20
209.037105
 30
0.0
 11
16.251584
 21
205.037105
 31
0.0
  0
LINE
  5
3EC
100
AcDbEntity
  8
0
370
    -3
390
0
  6
CENTER
100
AcDbLine
 10
-7.746215
 20
70.379829
 30
0.0
 11
-7.749442
 21
213.208044
 31
0.0
  0
LINE
  5
3ED
100
AcDbEntity
  8
0
370
    -3
390
0
  6
Continuous
100
AcDbLine
 10
-125.747431
 20
97.035545
 30
0.0
 11
-125.747443
 21
98.035545
 31
0.0
  0
LINE
  5
3EE
100
AcDbEntity
  8
0
370
    -3
390
0
  6
Continuous
100
AcDbLine
 10
60.20739
 20
100.037646
 30
0.0
 11
60.18489
 21
100.037646
 31
0.0
  0
LINE
  5
3EF
100
AcDbEntity
  8
0
370
    -3
390
0
  6
Continuous
100
AcDbLine
 10
-124.368646
 20
198.005769
 30
0.0
 11
-124.338196
 21
200.035788
 31
0.0
  0
LINE
  5
3F0
100
AcDbEntity
  8
0
370
    -3
390
0
  6
Continuous
100
AcDbLine
 10
-126.368399
 20
196.035765
 30
0.0
 11
-128.24855
 21
196.035744
 31
0.0
  0
ARC
  5
3F1
100
AcDbEntity
  8
0
370
    -3
390
0
  6
Continuous
100
AcDbCircle
 10
-126.368421
 20
198.035765
 30
0.0
 40
2.0
100
AcDbArc
 50
270.000647
 51
359.140628
  0
LINE
  5
3F2
100
AcDbEntity
  8
0
370
    -3
390
0
  6
Continuous
100
AcDbLine
 10
-126.747454
 20
99.035534
 30
0.0
 11
-128.247454
 21
99.035517
 31
0.0
  0
LINE
  5
3F3
100
AcDbEntity
  8
0
370
    -3
390
0
  6
Continuous
100
AcDbLine
 10
-149.748719
 20
211.035501
 30
0.0
 11
-149.748725
 21
211.535501
 31
0.0
  0
ARC
  5
3F4
100
AcDbEntity
  8
0
370
    -3
390
0
  6
Continuous
100
AcDbCircle
 10
-146.748719
 20
211.035535
 30
0.0
 40
3.0
100
AcDbArc
 50
180.000647
 51
270.000647
  0
LINE
  5
3F5
100
AcDbEntity
  8
0
370
    -3
390
0
  6
Continuous
100
AcDbLine
 10
-135.248685
 20
208.035665
 30
0.0
 11
-146.748685
 21
208.035535
 31
0.0
  0
ARC
  5
3F6
100
AcDbEntity
  8
0
370
    -3
390
0
  6
Continuous
100
AcDbCircle
 10
-151.748725
 20
211.535479
 30
0.0
 40
2.0
100
AcDbArc
 50
0.000647
 51
90.000647
  0
LINE
  5
3F7
100
AcDbEntity
  8
0
370
    -3
390
0
  6
Continuous
100
AcDbLine
 10
-151.748748
 20
213.535479
 30
0.0
 11
-155.741774
 21
213.535433
 31
0.0
  0
LINE
  5
3F8
100
AcDbEntity
  8
0
370
    -3
390
0
  6
Continuous
100
AcDbLine
 10
-135.247194
 20
76.035665
 30
0.0
 11
-146.747194
 21
76.035535
 31
0.0
  0
ARC
  5
3F9
100
AcDbEntity
  8
0
370
    -3
390
0
  6
Continuous
100
AcDbCircle
 10
-146.74716
 20
73.035535
 30
0.0
 40
3.0
100
AcDbArc
 50
90.000647
 51
180.000647
  0
LINE
  5
3FA
100
AcDbEntity
  8
0
370
    -3
390
0
  6
Continuous
100
AcDbLine
 10
-151.747132
 20
70.535479
 30
0.0
 11
-155.740158
 21
70.535433
 31
0.0
  0
ARC
  5
3FB
100
AcDbEntity
  8
0
370
    -3
390
0
  6
Continuous
100
AcDbCircle
 10
-151.747155
 20
72.535479
 30
0.0
 40
2.0
100
AcDbArc
 50
270.000647
 51
0.000647
  0
LINE
  5
3FC
100
AcDbEntity
  8
0
370
    -3
390
0
  6
Continuous
100
AcDbLine
 10
-149.747155
 20
72.535501
 30
0.0
 11
-149.74716
 21
73.035501
 31
0.0
  0
LINE
  5
3FD
100
AcDbEntity
  8
0
370
    -3
390
0
  6
Continuous
100
AcDbLine
 10
58.758616
 20
200.037857
 30
0.0
 11
60.245357
 21
97.037646
 31
0.0
  0
ARC
  5
3FE
100
AcDbEntity
  8
0
370
    -3
390
0
  6
Continuous
100
AcDbCircle
 10
-126.747443
 20
98.035534
 30
0.0
 40
1.0
100
AcDbArc
 50
0.000647
 51
90.000647
  0
LINE
  5
3FF
100
AcDbEntity
  8
0
370
    -3
390
0
  6
CENTER
100
AcDbLine
 10
-374.09172
 20
142.033226
 30
0.0
 11
69.954076
 21
142.037983
 31
0.0
  0
ARC
  5
400
100
AcDbEntity
  8
0
370
    -3
390
0
  6
Continuous
100
AcDbCircle
 10
-549.876571
 20
-216.164548
 30
0.0
 40
3.2
100
AcDbArc
 50
170.06962
 51
180.0
  0
ARC
  5
401
100
AcDbEntity
  8
0
370
    -3
390
0
  6
Continuous
100
AcDbCircle
 10
-527.476571
 20
-367.964548
 30
0.0
 40
300.8
100
AcDbArc
 50
85.66015
 51
90.0
  0
ARC
  5
402
100
AcDbEntity
  8
0
370
    -3
390
0
  6
Continuous
100
AcDbCircle
 10
-527.476571
 20
-367.964548
 30
0.0
 40
300.8
100
AcDbArc
 50
90.0
 51
93.654253
  0
ARC
  5
403
100
AcDbEntity
  8
0
370
    -3
390
0
  6
Continuous
100
AcDbCircle
 10
-527.476571
 20
-367.964548
 30
0.0
 40
300.8
100
AcDbArc
 50
85.66015
 51
90.0
  0
ARC
  5
404
100
AcDbEntity
  8
0
370
    -3
390
0
  6
Continuous
100
AcDbCircle
 10
-527.476571
 20
-367.964548
 30
0.0
 40
300.8
100
AcDbArc
 50
90.0
 51
94.33985
  0
ARC
  5
405
100
AcDbEntity
  8
0
370
    -3
390
0
  6
Continuous
100
AcDbCircle
 10
-527.476571
 20
-367.964548
 30
0.0
 40
300.8
100
AcDbArc
 50
90.0
 51
94.33985
  0
ARC
  5
406
100
AcDbEntity
  8
0
370
    -3
390
0
  6
Continuous
100
AcDbCircle
 10
-527.476571
 20
-367.964548
 30
0.0
 40
300.8
100
AcDbArc
 50
86.345747
 51
90.0
  0
ARC
  5
407
100
AcDbEntity
  8
0
370
    -3
390
0
  6
Continuous
100
AcDbCircle
 10
-546.394638
 20
-165.247734
 30
0.0
 40
50.8
100
AcDbArc
 50
230.905432
 51
262.496291
  0
ARC
  5
408
100
AcDbEntity
  8
0
370
    -3
390
0
  6
Continuous
100
AcDbCircle
 10
-508.558504
 20
-165.247734
 30
0.0
 40
50.8
100
AcDbArc
 50
277.503709
 51
309.094568
  0
ARC
  5
409
100
AcDbEntity
  8
0
370
    -3
390
0
  6
Continuous
100
AcDbCircle
 10
-527.476571
 20
-141.964548
 30
0.0
 40
80.8
100
AcDbArc
 50
219.094568
 51
230.905432
  0
ARC
  5
40A
100
AcDbEntity
  8
0
370
    -3
390
0
  6
Continuous
100
AcDbCircle
 10
-550.759757
 20
-160.882615
 30
0.0
 40
50.8
100
AcDbArc
 50
184.33985
 51
219.094568
  0
ARC
  5
40B
100
AcDbEntity
  8
0
370
    -3
390
0
  6
Continuous
100
AcDbCircle
 10
-301.476571
 20
-141.964548
 30
0.0
 40
300.8
100
AcDbArc
 50
180.0
 51
184.33985
  0
ARC
  5
40C
100
AcDbEntity
  8
0
370
    -3
390
0
  6
Continuous
100
AcDbCircle
 10
-527.476571
 20
-141.964548
 30
0.0
 40
80.8
100
AcDbArc
 50
309.094568
 51
320.905432
  0
ARC
  5
40D
100
AcDbEntity
  8
0
370
    -3
390
0
  6
Continuous
100
AcDbCircle
 10
-753.476571
 20
-141.964548
 30
0.0
 40
300.8
100
AcDbArc
 50
360.0
 51
4.33985
  0
ARC
  5
40E
100
AcDbEntity
  8
0
370
    -3
390
0
  6
Continuous
100
AcDbCircle
 10
-504.193385
 20
-160.882615
 30
0.0
 40
50.8
100
AcDbArc
 50
320.905432
 51
355.66015
  0
ARC
  5
40F
100
AcDbEntity
  8
0
370
    -3
390
0
  6
Continuous
100
AcDbCircle
 10
-753.476571
 20
-141.964548
 30
0.0
 40
300.8
100
AcDbArc
 50
355.66015
 51
0.0
  0
ARC
  5
410
100
AcDbEntity
  8
0
370
    -3
390
0
  6
Continuous
100
AcDbCircle
 10
-301.476571
 20
-141.964548
 30
0.0
 40
300.8
100
AcDbArc
 50
175.66015
 51
180.0
  0
ARC
  5
411
100
AcDbEntity
  8
0
370
    -3
390
0
  6
Continuous
100
AcDbCircle
 10
-504.193385
 20
-160.882615
 30
0.0
 40
36.944
100
AcDbArc
 50
320.905432
 51
355.66015
  0
ARC
  5
412
100
AcDbEntity
  8
0
370
    -3
390
0
  6
Continuous
100
AcDbCircle
 10
-527.476571
 20
-141.964548
 30
0.0
 40
66.944
100
AcDbArc
 50
309.094568
 51
320.905432
  0
ARC
  5
413
100
AcDbEntity
  8
0
370
    -3
390
0
  6
Continuous
100
AcDbCircle
 10
-508.558504
 20
-165.247734
 30
0.0
 40
36.944
100
AcDbArc
 50
274.33985
 51
309.094568
  0
ARC
  5
414
100
AcDbEntity
  8
0
370
    -3
390
0
  6
Continuous
100
AcDbCircle
 10
-546.394638
 20
-165.247734
 30
0.0
 40
36.944
100
AcDbArc
 50
230.905432
 51
265.66015
  0
ARC
  5
415
100
AcDbEntity
  8
0
370
    -3
390
0
  6
Continuous
100
AcDbCircle
 10
-527.476571
 20
-141.964548
 30
0.0
 40
66.944
100
AcDbArc
 50
219.094568
 51
230.905432
  0
ARC
  5
416
100
AcDbEntity
  8
0
370
    -3
390
0
  6
Continuous
100
AcDbCircle
 10
-550.759757
 20
-160.882615
 30
0.0
 40
36.944
100
AcDbArc
 50
184.33985
 51
219.094568
  0
LINE
  5
417
100
AcDbEntity
  8
0
370
    -3
390
0
  6
Continuous
100
AcDbLine
 10
-536.589251
 20
-121.180923
 30
0.0
 11
-535.567603
 21
-122.950469
 31
0.0
  0
LINE
  5
418
100
AcDbEntity
  8
0
370
    -3
390
0
  6
Continuous
100
AcDbLine
 10
-531.409663
 20
-130.152233
 30
0.0
 11
-530.330222
 21
-132.021879
 31
0.0
  0
ARC
  5
419
100
AcDbEntity
  8
0
370
    -3
390
0
  6
Continuous
100
AcDbCircle
 10
-527.476571
 20
-141.964548
 30
0.0
 40
9.0
100
AcDbArc
 50
90.0
 51
95.85226
  0
ARC
  5
41A
100
AcDbEntity
  8
0
370
    -3
390
0
  6
Continuous
100
AcDbCircle
 10
-527.476571
 20
-141.964548
 30
0.0
 40
15.0
100
AcDbArc
 50
85.028999
 51
99.747753
  0
LINE
  5
41B
100
AcDbEntity
  8
0
370
    -3
390
0
  6
Continuous
100
AcDbLine
 10
-524.61805
 20
-130.013445
 30
0.0
 11
-525.74452
 21
-131.964548
 31
0.0
  0
ARC
  5
41C
100
AcDbEntity
  8
0
370
    -3
390
0
  6
Continuous
100
AcDbCircle
 10
-527.476571
 20
-141.964548
 30
0.0
 40
19.0
100
AcDbArc
 50
75.183114
 51
107.626375
  0
LINE
  5
41D
100
AcDbEntity
  8
0
370
    -3
390
0
  6
Continuous
100
AcDbLine
 10
-519.341304
 20
-120.873853
 30
0.0
 11
-520.374176
 21
-122.662839
 31
0.0
  0
LINE
  5
41E
100
AcDbEntity
  8
0
370
    -3
390
0
  6
Continuous
100
AcDbLine
 10
-551.715816
 20
-188.948152
 30
0.0
 11
-550.712049
 21
-187.209576
 31
0.0
  0
LINE
  5
41F
100
AcDbEntity
  8
0
370
    -3
390
0
  6
Continuous
100
AcDbLine
 10
-546.693451
 20
-180.24916
 30
0.0
 11
-545.687658
 21
-178.507076
 31
0.0
  0
LINE
  5
420
100
AcDbEntity
  8
0
370
    -3
390
0
  6
Continuous
100
AcDbLine
 10
-541.657378
 20
-171.526427
 30
0.0
 11
-540.647331
 21
-169.776975
 31
0.0
  0
LINE
  5
421
100
AcDbEntity
  8
0
370
    -3
390
0
  6
Continuous
100
AcDbLine
 10
-536.589251
 20
-162.748173
 30
0.0
 11
-535.567603
 21
-160.978627
 31
0.0
  0
LINE
  5
422
100
AcDbEntity
  8
0
370
    -3
390
0
  6
Continuous
100
AcDbLine
 10
-531.409663
 20
-153.776863
 30
0.0
 11
-530.330222
 21
-151.907218
 31
0.0
  0
ARC
  5
423
100
AcDbEntity
  8
0
370
    -3
390
0
  6
Continuous
100
AcDbCircle
 10
-527.476571
 20
-141.964548
 30
0.0
 40
9.0
100
AcDbArc
 50
264.14774
 51
270.0
  0
ARC
  5
424
100
AcDbEntity
  8
0
370
    -3
390
0
  6
Continuous
100
AcDbCircle
 10
-527.476571
 20
-141.964548
 30
0.0
 40
15.0
100
AcDbArc
 50
260.252247
 51
274.971001
  0
LINE
  5
425
100
AcDbEntity
  8
0
370
    -3
390
0
  6
Continuous
100
AcDbLine
 10
-524.61805
 20
-153.915651
 30
0.0
 11
-525.74452
 21
-151.964548
 31
0.0
  0
ARC
  5
426
100
AcDbEntity
  8
0
370
    -3
390
0
  6
Continuous
100
AcDbCircle
 10
-527.476571
 20
-141.964548
 30
0.0
 40
19.0
100
AcDbArc
 50
252.373625
 51
284.816886
  0
ARC
  5
427
100
AcDbEntity
  8
0
370
    -3
390
0
  6
Continuous
100
AcDbCircle
 10
-527.476571
 20
-141.964548
 30
0.0
 40
25.0
100
AcDbArc
 50
251.282824
 51
286.164776
  0
LINE
  5
428
100
AcDbEntity
  8
0
370
    -3
390
0
  6
Continuous
100
AcDbLine
 10
-519.341304
 20
-163.055244
 30
0.0
 11
-520.374176
 21
-161.266258
 31
0.0
  0
ARC
  5
429
100
AcDbEntity
  8
0
370
    -3
390
0
  6
Continuous
100
AcDbCircle
 10
-527.476571
 20
-141.964548
 30
0.0
 40
29.0
100
AcDbArc
 50
248.346619
 51
289.78052
  0
ARC
  5
42A
100
AcDbEntity
  8
0
370
    -3
390
0
  6
Continuous
100
AcDbCircle
 10
-527.476571
 20
-141.964548
 30
0.0
 40
49.0
100
AcDbArc
 50
245.062093
 51
293.809003
  0
LINE
  5
42B
100
AcDbEntity
  8
0
370
    -3
390
0
  6
Continuous
100
AcDbLine
 10
-504.150735
 20
-189.366082
 30
0.0
 11
-505.156378
 21
-187.624257
 31
0.0
  0
ARC
  5
42C
100
AcDbEntity
  8
0
370
    -3
390
0
  6
Continuous
100
AcDbCircle
 10
-527.476571
 20
-141.964548
 30
0.0
 40
55.0
100
AcDbArc
 50
244.8706
 51
294.043488
  0
ARC
  5
42D
100
AcDbEntity
  8
0
370
    -3
390
0
  6
Continuous
100
AcDbCircle
 10
-527.476571
 20
-141.964548
 30
0.0
 40
45.0
100
AcDbArc
 50
246.007069
 51
292.651339
  0
ARC
  5
42E
100
AcDbEntity
  8
0
370
    -3
390
0
  6
Continuous
100
AcDbCircle
 10
-527.476571
 20
-141.964548
 30
0.0
 40
39.0
100
AcDbArc
 50
246.301256
 51
292.29074
  0
LINE
  5
42F
100
AcDbEntity
  8
0
370
    -3
390
0
  6
Continuous
100
AcDbLine
 10
-509.184257
 20
-180.647765
 30
0.0
 11
-510.192948
 21
-178.900661
 31
0.0
  0
LINE
  5
430
100
AcDbEntity
  8
0
370
    -3
390
0
  6
Continuous
100
AcDbLine
 10
-514.23844
 20
-171.893663
 30
0.0
 11
-515.253562
 21
-170.135421
 31
0.0
  0
ARC
  5
431
100
AcDbEntity
  8
0
370
    -3
390
0
  6
Continuous
100
AcDbCircle
 10
-527.476571
 20
-141.964548
 30
0.0
 40
35.0
100
AcDbArc
 50
247.83748
 51
290.405932
  0
LINE
  5
432
100
AcDbEntity
  8
0
370
    -3
390
0
  6
Continuous
100
AcDbLine
 10
-535.73979
 20
-132.652233
 30
0.0
 11
-534.660349
 21
-134.521879
 31
0.0
  0
ARC
  5
433
100
AcDbEntity
  8
0
370
    -3
390
0
  6
Continuous
100
AcDbCircle
 10
-527.476571
 20
-141.964548
 30
0.0
 40
9.0
100
AcDbArc
 50
144.14774
 51
150.0
  0
ARC
  5
434
100
AcDbEntity
  8
0
370
    -3
390
0
  6
Continuous
100
AcDbCircle
 10
-527.476571
 20
-141.964548
 30
0.0
 40
15.0
100
AcDbArc
 50
140.252247
 51
154.971001
  0
LINE
  5
435
100
AcDbEntity
  8
0
370
    -3
390
0
  6
Continuous
100
AcDbLine
 10
-539.25579
 20
-138.464548
 30
0.0
 11
-537.00285
 21
-138.464548
 31
0.0
  0
LINE
  5
436
100
AcDbEntity
  8
0
370
    -3
390
0
  6
Continuous
100
AcDbLine
 10
-540.919378
 20
-123.680923
 30
0.0
 11
-539.89773
 21
-125.450469
 31
0.0
  0
ARC
  5
437
100
AcDbEntity
  8
0
370
    -3
390
0
  6
Continuous
100
AcDbCircle
 10
-527.476571
 20
-141.964548
 30
0.0
 40
19.0
100
AcDbArc
 50
132.373625
 51
164.816886
  0
ARC
  5
438
100
AcDbEntity
  8
0
370
    -3
390
0
  6
Continuous
100
AcDbCircle
 10
-527.476571
 20
-141.964548
 30
0.0
 40
25.0
100
AcDbArc
 50
131.282824
 51
166.164776
  0
LINE
  5
439
100
AcDbEntity
  8
0
370
    -3
390
0
  6
Continuous
100
AcDbLine
 10
-549.809282
 20
-138.464548
 30
0.0
 11
-547.743539
 21
-138.464548
 31
0.0
  0
ARC
  5
43A
100
AcDbEntity
  8
0
370
    -3
390
0
  6
Continuous
100
AcDbCircle
 10
-527.476571
 20
-141.964548
 30
0.0
 40
29.0
100
AcDbArc
 50
128.346619
 51
169.78052
  0
LINE
  5
43B
100
AcDbEntity
  8
0
370
    -3
390
0
  6
Continuous
100
AcDbLine
 10
-580.190421
 20
-138.464548
 30
0.0
 11
-578.179135
 21
-138.464548
 31
0.0
  0
LINE
  5
43C
100
AcDbEntity
  8
0
370
    -3
390
0
  6
Continuous
100
AcDbLine
 10
-570.123376
 20
-138.464548
 30
0.0
 11
-568.105994
 21
-138.464548
 31
0.0
  0
LINE
  5
43D
100
AcDbEntity
  8
0
370
    -3
390
0
  6
Continuous
100
AcDbLine
 10
-560.01501
 20
-138.464548
 30
0.0
 11
-557.984766
 21
-138.464548
 31
0.0
  0
LINE
  5
43E
100
AcDbEntity
  8
0
370
    -3
390
0
  6
Continuous
100
AcDbLine
 10
-535.73979
 20
-151.276863
 30
0.0
 11
-534.325383
 21
-148.827039
 31
0.0
  0
ARC
  5
43F
100
AcDbEntity
  8
0
370
    -3
390
0
  6
Continuous
100
AcDbCircle
 10
-535.191408
 20
-148.327039
 30
0.0
 40
1.0
100
AcDbArc
 50
330.0
 51
39.512685
  0
ARC
  5
440
100
AcDbEntity
  8
0
370
    -3
390
0
  6
Continuous
100
AcDbCircle
 10
-527.476571
 20
-141.964548
 30
0.0
 40
9.0
100
AcDbArc
 50
210.0
 51
219.512685
  0
ARC
  5
441
100
AcDbEntity
  8
0
370
    -3
390
0
  6
Continuous
100
AcDbCircle
 10
-527.476571
 20
-141.964548
 30
0.0
 40
15.0
100
AcDbArc
 50
205.028999
 51
219.747753
  0
LINE
  5
442
100
AcDbEntity
  8
0
370
    -3
390
0
  6
Continuous
100
AcDbLine
 10
-539.25579
 20
-145.464548
 30
0.0
 11
-537.00285
 21
-145.464548
 31
0.0
  0
LINE
  5
443
100
AcDbEntity
  8
0
370
    -3
390
0
  6
Continuous
100
AcDbLine
 10
-540.919378
 20
-160.248173
 30
0.0
 11
-539.89773
 21
-158.478627
 31
0.0
  0
ARC
  5
444
100
AcDbEntity
  8
0
370
    -3
390
0
  6
Continuous
100
AcDbCircle
 10
-527.476571
 20
-141.964548
 30
0.0
 40
19.0
100
AcDbArc
 50
195.183114
 51
227.626375
  0
ARC
  5
445
100
AcDbEntity
  8
0
370
    -3
390
0
  6
Continuous
100
AcDbCircle
 10
-527.476571
 20
-141.964548
 30
0.0
 40
25.0
100
AcDbArc
 50
193.835224
 51
228.717176
  0
LINE
  5
446
100
AcDbEntity
  8
0
370
    -3
390
0
  6
Continuous
100
AcDbLine
 10
-549.809282
 20
-145.464548
 30
0.0
 11
-547.743539
 21
-145.464548
 31
0.0
  0
LINE
  5
447
100
AcDbEntity
  8
0
370
    -3
390
0
  6
Continuous
100
AcDbLine
 10
-545.987505
 20
-169.026427
 30
0.0
 11
-544.977458
 21
-167.276975
 31
0.0
  0
ARC
  5
448
100
AcDbEntity
  8
0
370
    -3
390
0
  6
Continuous
100
AcDbCircle
 10
-527.476571
 20
-141.964548
 30
0.0
 40
29.0
100
AcDbArc
 50
190.21948
 51
231.653381
  0
LINE
  5
449
100
AcDbEntity
  8
0
370
    -3
390
0
  6
Continuous
100
AcDbLine
 10
-551.023578
 20
-177.74916
 30
0.0
 11
-550.017785
 21
-176.007076
 31
0.0
  0
LINE
  5
44A
100
AcDbEntity
  8
0
370
    -3
390
0
  6
Continuous
100
AcDbLine
 10
-556.045943
 20
-186.448152
 30
0.0
 11
-554.580309
 21
-183.9096
 31
0.0
  0
ARC
  5
44B
100
AcDbEntity
  8
0
370
    -3
390
0
  6
Continuous
100
AcDbCircle
 10
-555.446335
 20
-183.4096
 30
0.0
 40
1.0
100
AcDbArc
 50
330.0
 51
55.986013
  0
ARC
  5
44C
100
AcDbEntity
  8
0
370
    -3
390
0
  6
Continuous
100
AcDbCircle
 10
-527.476571
 20
-141.964548
 30
0.0
 40
49.0
100
AcDbArc
 50
186.190997
 51
235.986013
  0
LINE
  5
44D
100
AcDbEntity
  8
0
370
    -3
390
0
  6
Continuous
100
AcDbLine
 10
-580.190421
 20
-145.464548
 30
0.0
 11
-578.179135
 21
-145.464548
 31
0.0
  0
ARC
  5
44E
100
AcDbEntity
  8
0
370
    -3
390
0
  6
Continuous
100
AcDbCircle
 10
-527.476571
 20
-141.964548
 30
0.0
 40
55.0
100
AcDbArc
 50
185.956512
 51
235.1294
  0
ARC
  5
44F
100
AcDbEntity
  8
0
370
    -3
390
0
  6
Continuous
100
AcDbCircle
 10
-527.476571
 20
-141.964548
 30
0.0
 40
45.0
100
AcDbArc
 50
187.348661
 51
233.992931
  0
ARC
  5
450
100
AcDbEntity
  8
0
370
    -3
390
0
  6
Continuous
100
AcDbCircle
 10
-527.476571
 20
-141.964548
 30
0.0
 40
39.0
100
AcDbArc
 50
187.70926
 51
233.698744
  0
LINE
  5
451
100
AcDbEntity
  8
0
370
    -3
390
0
  6
Continuous
100
AcDbLine
 10
-570.123376
 20
-145.464548
 30
0.0
 11
-568.105994
 21
-145.464548
 31
0.0
  0
LINE
  5
452
100
AcDbEntity
  8
0
370
    -3
390
0
  6
Continuous
100
AcDbLine
 10
-560.01501
 20
-145.464548
 30
0.0
 11
-557.984766
 21
-145.464548
 31
0.0
  0
ARC
  5
453
100
AcDbEntity
  8
0
370
    -3
390
0
  6
Continuous
100
AcDbCircle
 10
-527.476571
 20
-141.964548
 30
0.0
 40
35.0
100
AcDbArc
 50
189.594068
 51
232.16252
  0
LINE
  5
454
100
AcDbEntity
  8
0
370
    -3
390
0
  6
Continuous
100
AcDbLine
 10
-519.213352
 20
-151.276863
 30
0.0
 11
-520.292792
 21
-149.407218
 31
0.0
  0
ARC
  5
455
100
AcDbEntity
  8
0
370
    -3
390
0
  6
Continuous
100
AcDbCircle
 10
-527.476571
 20
-141.964548
 30
0.0
 40
9.0
100
AcDbArc
 50
324.14774
 51
330.0
  0
ARC
  5
456
100
AcDbEntity
  8
0
370
    -3
390
0
  6
Continuous
100
AcDbCircle
 10
-527.476571
 20
-141.964548
 30
0.0
 40
15.0
100
AcDbArc
 50
320.252247
 51
334.971001
  0
LINE
  5
457
100
AcDbEntity
  8
0
370
    -3
390
0
  6
Continuous
100
AcDbLine
 10
-515.697352
 20
-145.464548
 30
0.0
 11
-517.950291
 21
-145.464548
 31
0.0
  0
LINE
  5
458
100
AcDbEntity
  8
0
370
    -3
390
0
  6
Continuous
100
AcDbLine
 10
-514.033764
 20
-160.248173
 30
0.0
 11
-515.055412
 21
-158.478627
 31
0.0
  0
ARC
  5
459
100
AcDbEntity
  8
0
370
    -3
390
0
  6
Continuous
100
AcDbCircle
 10
-527.476571
 20
-141.964548
 30
0.0
 40
19.0
100
AcDbArc
 50
312.373625
 51
344.816886
  0
ARC
  5
45A
100
AcDbEntity
  8
0
370
    -3
390
0
  6
Continuous
100
AcDbCircle
 10
-527.476571
 20
-141.964548
 30
0.0
 40
25.0
100
AcDbArc
 50
311.282824
 51
346.164776
  0
LINE
  5
45B
100
AcDbEntity
  8
0
370
    -3
390
0
  6
Continuous
100
AcDbLine
 10
-505.143859
 20
-145.464548
 30
0.0
 11
-507.209603
 21
-145.464548
 31
0.0
  0
LINE
  5
45C
100
AcDbEntity
  8
0
370
    -3
390
0
  6
Continuous
100
AcDbLine
 10
-508.965636
 20
-169.026427
 30
0.0
 11
-509.975683
 21
-167.276975
 31
0.0
  0
ARC
  5
45D
100
AcDbEntity
  8
0
370
    -3
390
0
  6
Continuous
100
AcDbCircle
 10
-527.476571
 20
-141.964548
 30
0.0
 40
29.0
100
AcDbArc
 50
308.346619
 51
349.78052
  0
LINE
  5
45E
100
AcDbEntity
  8
0
370
    -3
390
0
  6
Continuous
100
AcDbLine
 10
-503.929564
 20
-177.74916
 30
0.0
 11
-504.935357
 21
-176.007076
 31
0.0
  0
LINE
  5
45F
100
AcDbEntity
  8
0
370
    -3
390
0
  6
Continuous
100
AcDbLine
 10
-498.907199
 20
-186.448152
 30
0.0
 11
-499.910966
 21
-184.709576
 31
0.0
  0
ARC
  5
460
100
AcDbEntity
  8
0
370
    -3
390
0
  6
Continuous
100
AcDbCircle
 10
-527.476571
 20
-141.964548
 30
0.0
 40
49.0
100
AcDbArc
 50
305.062093
 51
353.809003
  0
LINE
  5
461
100
AcDbEntity
  8
0
370
    -3
390
0
  6
Continuous
100
AcDbLine
 10
-474.762721
 20
-145.464548
 30
0.0
 11
-476.774007
 21
-145.464548
 31
0.0
  0
ARC
  5
462
100
AcDbEntity
  8
0
370
    -3
390
0
  6
Continuous
100
AcDbCircle
 10
-527.476571
 20
-141.964548
 30
0.0
 40
55.0
100
AcDbArc
 50
304.8706
 51
354.043488
  0
ARC
  5
463
100
AcDbEntity
  8
0
370
    -3
390
0
  6
Continuous
100
AcDbCircle
 10
-527.476571
 20
-141.964548
 30
0.0
 40
45.0
100
AcDbArc
 50
306.007069
 51
352.651339
  0
ARC
  5
464
100
AcDbEntity
  8
0
370
    -3
390
0
  6
Continuous
100
AcDbCircle
 10
-527.476571
 20
-141.964548
 30
0.0
 40
39.0
100
AcDbArc
 50
306.301256
 51
352.29074
  0
LINE
  5
465
100
AcDbEntity
  8
0
370
    -3
390
0
  6
Continuous
100
AcDbLine
 10
-484.829766
 20
-145.464548
 30
0.0
 11
-486.847148
 21
-145.464548
 31
0.0
  0
LINE
  5
466
100
AcDbEntity
  8
0
370
    -3
390
0
  6
Continuous
100
AcDbLine
 10
-494.938132
 20
-145.464548
 30
0.0
 11
-496.968375
 21
-145.464548
 31
0.0
  0
ARC
  5
467
100
AcDbEntity
  8
0
370
    -3
390
0
  6
Continuous
100
AcDbCircle
 10
-527.476571
 20
-141.964548
 30
0.0
 40
35.0
100
AcDbArc
 50
307.83748
 51
350.405932
  0
LINE
  5
468
100
AcDbEntity
  8
0
370
    -3
390
0
  6
Continuous
100
AcDbLine
 10
-514.033764
 20
-123.680923
 30
0.0
 11
-515.055412
 21
-125.450469
 31
0.0
  0
LINE
  5
469
100
AcDbEntity
  8
0
370
    -3
390
0
  6
Continuous
100
AcDbLine
 10
-519.213352
 20
-132.652233
 30
0.0
 11
-520.292792
 21
-134.521879
 31
0.0
  0
LINE
  5
46A
100
AcDbEntity
  8
0
370
    -3
390
0
  6
Continuous
100
AcDbLine
 10
-515.697352
 20
-138.464548
 30
0.0
 11
-517.950291
 21
-138.464548
 31
0.0
  0
LINE
  5
46B
100
AcDbEntity
  8
0
370
    -3
390
0
  6
Continuous
100
AcDbLine
 10
-505.143859
 20
-138.464548
 30
0.0
 11
-507.209603
 21
-138.464548
 31
0.0
  0
LINE
  5
46C
100
AcDbEntity
  8
0
370
    -3
390
0
  6
Continuous
100
AcDbLine
 10
-494.938132
 20
-138.464548
 30
0.0
 11
-496.968375
 21
-138.464548
 31
0.0
  0
LINE
  5
46D
100
AcDbEntity
  8
0
370
    -3
390
0
  6
Continuous
100
AcDbLine
 10
-484.829766
 20
-138.464548
 30
0.0
 11
-486.847148
 21
-138.464548
 31
0.0
  0
ARC
  5
46E
100
AcDbEntity
  8
0
370
    -3
390
0
  6
Continuous
100
AcDbCircle
 10
-527.476571
 20
-141.964548
 30
0.0
 40
9.0
100
AcDbArc
 50
30.0
 51
35.85226
  0
ARC
  5
46F
100
AcDbEntity
  8
0
370
    -3
390
0
  6
Continuous
100
AcDbCircle
 10
-527.476571
 20
-141.964548
 30
0.0
 40
15.0
100
AcDbArc
 50
25.028999
 51
39.747753
  0
ARC
  5
470
100
AcDbEntity
  8
0
370
    -3
390
0
  6
Continuous
100
AcDbCircle
 10
-527.476571
 20
-141.964548
 30
0.0
 40
19.0
100
AcDbArc
 50
15.183114
 51
47.626375
  0
ARC
  5
471
100
AcDbEntity
  8
0
370
    -3
390
0
  6
Continuous
100
AcDbCircle
 10
-527.476571
 20
-141.964548
 30
0.0
 40
25.0
100
AcDbArc
 50
13.835224
 51
48.717176
  0
ARC
  5
472
100
AcDbEntity
  8
0
370
    -3
390
0
  6
Continuous
100
AcDbCircle
 10
-527.476571
 20
-141.964548
 30
0.0
 40
29.0
100
AcDbArc
 50
10.21948
 51
51.653381
  0
LINE
  5
473
100
AcDbEntity
  8
0
370
    -3
390
0
  6
Continuous
100
AcDbLine
 10
-474.762721
 20
-138.464548
 30
0.0
 11
-476.774007
 21
-138.464548
 31
0.0
  0
CIRCLE
  5
474
100
AcDbEntity
  8
0
370
    -3
390
0
  6
Continuous
100
AcDbCircle
 10
-527.476571
 20
-141.964548
 30
0.0
 40
5.0
  0
ARC
  5
475
100
AcDbEntity
  8
0
370
    -3
390
0
  6
Continuous
100
AcDbCircle
 10
-301.476571
 20
-141.964548
 30
0.0
 40
286.944
100
AcDbArc
 50
175.66015
 51
184.33985
  0
ARC
  5
476
100
AcDbEntity
  8
0
370
    -3
390
0
  6
Continuous
100
AcDbCircle
 10
-753.476571
 20
-141.964548
 30
0.0
 40
286.944
100
AcDbArc
 50
355.66015
 51
4.33985
  0
ARC
  5
477
100
AcDbEntity
  8
0
370
    -3
390
0
  6
Continuous
100
AcDbCircle
 10
-527.476571
 20
84.035452
 30
0.0
 40
286.944
100
AcDbArc
 50
265.66015
 51
274.33985
  0
ARC
  5
478
100
AcDbEntity
  8
0
370
    -3
390
0
  6
Continuous
100
AcDbCircle
 10
-301.476571
 20
-141.964548
 30
0.0
 40
300.8
100
AcDbArc
 50
180.0
 51
184.33985
  0
ARC
  5
479
100
AcDbEntity
  8
0
370
    -3
390
0
  6
Continuous
100
AcDbCircle
 10
-527.476571
 20
84.035452
 30
0.0
 40
300.8
100
AcDbArc
 50
265.66015
 51
270.0
  0
ARC
  5
47A
100
AcDbEntity
  8
0
370
    -3
390
0
  6
Continuous
100
AcDbCircle
 10
-527.476571
 20
-141.964548
 30
0.0
 40
80.8
100
AcDbArc
 50
219.094568
 51
230.905432
  0
LINE
  5
47B
100
AcDbEntity
  8
0
370
    -3
390
0
  6
Continuous
100
AcDbLine
 10
-588.641307
 20
-196.482481
 30
0.0
 11
-581.994504
 21
-203.129285
 31
0.0
  0
ARC
  5
47C
100
AcDbEntity
  8
0
370
    -3
390
0
  6
Continuous
100
AcDbCircle
 10
-581.782372
 20
-202.917153
 30
0.0
 40
0.3
100
AcDbArc
 50
225.0
 51
315.0
  0
LINE
  5
47D
100
AcDbEntity
  8
0
370
    -3
390
0
  6
Continuous
100
AcDbLine
 10
-581.57024
 20
-203.129285
 30
0.0
 11
-580.965768
 21
-202.524814
 31
0.0
  0
LINE
  5
47E
100
AcDbEntity
  8
0
370
    -3
390
0
  6
Continuous
100
AcDbLine
 10
-589.065571
 20
-197.189588
 30
0.0
 11
-588.499886
 21
-196.623902
 31
0.0
  0
LINE
  5
47F
100
AcDbEntity
  8
0
370
    -3
390
0
  6
Continuous
100
AcDbLine
 10
-587.403871
 20
-198.851289
 30
0.0
 11
-589.065571
 21
-197.189588
 31
0.0
  0
LINE
  5
480
100
AcDbEntity
  8
0
370
    -3
390
0
  6
Continuous
100
AcDbLine
 10
-582.70161
 20
-203.553549
 30
0.0
 11
-582.135925
 21
-202.987863
 31
0.0
  0
LINE
  5
481
100
AcDbEntity
  8
0
370
    -3
390
0
  6
Continuous
100
AcDbLine
 10
-584.363311
 20
-201.891848
 30
0.0
 11
-582.70161
 21
-203.553549
 31
0.0
  0
ARC
  5
482
100
AcDbEntity
  8
0
370
    -3
390
0
  6
Continuous
100
AcDbCircle
 10
-588.429175
 20
-196.270349
 30
0.0
 40
0.3
100
AcDbArc
 50
135.0
 51
225.0
  0
LINE
  5
483
100
AcDbEntity
  8
0
370
    -3
390
0
  6
Continuous
100
AcDbLine
 10
-588.641307
 20
-196.058217
 30
0.0
 11
-588.036836
 21
-195.453746
 31
0.0
  0
ARC
  5
484
100
AcDbEntity
  8
0
370
    -3
390
0
  6
Continuous
100
AcDbCircle
 10
-550.759757
 20
-160.882615
 30
0.0
 40
50.8
100
AcDbArc
 50
184.33985
 51
219.094568
  0
ARC
  5
485
100
AcDbEntity
  8
0
370
    -3
390
0
  6
Continuous
100
AcDbCircle
 10
-546.394638
 20
-165.247734
 30
0.0
 40
50.8
100
AcDbArc
 50
230.905432
 51
265.66015
  0
ARC
  5
486
100
AcDbEntity
  8
0
370
    -3
390
0
  6
Continuous
100
AcDbCircle
 10
-753.476571
 20
-141.964548
 30
0.0
 40
300.8
100
AcDbArc
 50
355.66015
 51
0.0
  0
ARC
  5
487
100
AcDbEntity
  8
0
370
    -3
390
0
  6
Continuous
100
AcDbCircle
 10
-527.476571
 20
84.035452
 30
0.0
 40
300.8
100
AcDbArc
 50
270.0
 51
274.33985
  0
ARC
  5
488
100
AcDbEntity
  8
0
370
    -3
390
0
  6
Continuous
100
AcDbCircle
 10
-527.476571
 20
-141.964548
 30
0.0
 40
80.8
100
AcDbArc
 50
309.094568
 51
320.905432
  0
LINE
  5
489
100
AcDbEntity
  8
0
370
    -3
390
0
  6
Continuous
100
AcDbLine
 10
-466.311834
 20
-196.482481
 30
0.0
 11
-472.958638
 21
-203.129285
 31
0.0
  0
ARC
  5
48A
100
AcDbEntity
  8
0
370
    -3
390
0
  6
Continuous
100
AcDbCircle
 10
-473.17077
 20
-202.917153
 30
0.0
 40
0.3
100
AcDbArc
 50
225.0
 51
315.0
  0
LINE
  5
48B
100
AcDbEntity
  8
0
370
    -3
390
0
  6
Continuous
100
AcDbLine
 10
-473.382902
 20
-203.129285
 30
0.0
 11
-473.987373
 21
-202.524814
 31
0.0
  0
LINE
  5
48C
100
AcDbEntity
  8
0
370
    -3
390
0
  6
Continuous
100
AcDbLine
 10
-465.88757
 20
-197.189588
 30
0.0
 11
-466.453256
 21
-196.623902
 31
0.0
  0
LINE
  5
48D
100
AcDbEntity
  8
0
370
    -3
390
0
  6
Continuous
100
AcDbLine
 10
-467.549271
 20
-198.851289
 30
0.0
 11
-465.88757
 21
-197.189588
 31
0.0
  0
LINE
  5
48E
100
AcDbEntity
  8
0
370
    -3
390
0
  6
Continuous
100
AcDbLine
 10
-472.251531
 20
-203.553549
 30
0.0
 11
-472.817217
 21
-202.987863
 31
0.0
  0
LINE
  5
48F
100
AcDbEntity
  8
0
370
    -3
390
0
  6
Continuous
100
AcDbLine
 10
-470.58983
 20
-201.891848
 30
0.0
 11
-472.251531
 21
-203.553549
 31
0.0
  0
ARC
  5
490
100
AcDbEntity
  8
0
370
    -3
390
0
  6
Continuous
100
AcDbCircle
 10
-466.523966
 20
-196.270349
 30
0.0
 40
0.3
100
AcDbArc
 50
315.0
 51
45.0
  0
LINE
  5
491
100
AcDbEntity
  8
0
370
    -3
390
0
  6
Continuous
100
AcDbLine
 10
-466.311834
 20
-196.058217
 30
0.0
 11
-466.916305
 21
-195.453746
 31
0.0
  0
ARC
  5
492
100
AcDbEntity
  8
0
370
    -3
390
0
  6
Continuous
100
AcDbCircle
 10
-504.193385
 20
-160.882615
 30
0.0
 40
50.8
100
AcDbArc
 50
320.905432
 51
355.66015
  0
ARC
  5
493
100
AcDbEntity
  8
0
370
    -3
390
0
  6
Continuous
100
AcDbCircle
 10
-508.558504
 20
-165.247734
 30
0.0
 40
50.8
100
AcDbArc
 50
274.33985
 51
309.094568
  0
ARC
  5
494
100
AcDbEntity
  8
0
370
    -3
390
0
  6
Continuous
100
AcDbCircle
 10
-753.476571
 20
-141.964548
 30
0.0
 40
300.8
100
AcDbArc
 50
360.0
 51
4.33985
  0
ARC
  5
495
100
AcDbEntity
  8
0
370
    -3
390
0
  6
Continuous
100
AcDbCircle
 10
-301.476571
 20
-141.964548
 30
0.0
 40
300.8
100
AcDbArc
 50
175.66015
 51
180.0
  0
INSERT
  5
4A1
100
AcDbEntity
  8
0
390
0
100
AcDbBlockReference
  2
ZU_SYM_C__ZUOU_AC_BLOCK_ZU_SYM_C__ZUOU_AC_BLOCK_ZU_SYM__USR_MELCAD_MD_SYM_SYM_SYM4_-1_-1_00
 10
-585.883591
 20
-200.371568
 30
0.0
 50
45.0
  0
INSERT
  5
4AD
100
AcDbEntity
  8
0
390
0
100
AcDbBlockReference
  2
ZU_SYM_C__ZUOU_AC_BLOCK_ZU_SYM_C__ZUOU_AC_BLOCK_ZU_SYM__USR_MELCAD_MD_SYM_SYM_SYM3_-1_-1_00
 10
-469.069551
 20
-200.371568
 30
0.0
 41
-1.0
 50
315.0
  0
ARC
  5
4AE
100
AcDbEntity
  8
0
370
    -3
390
0
  6
Continuous
100
AcDbCircle
 10
-578.179135
 20
-136.464548
 30
0.0
 40
2.0
100
AcDbArc
 50
270.0
 51
353.809003
  0
ARC
  5
4AF
100
AcDbEntity
  8
0
370
    -3
390
0
  6
Continuous
100
AcDbCircle
 10
-580.190421
 20
-136.464548
 30
0.0
 40
2.0
100
AcDbArc
 50
174.043488
 51
270.0
  0
ARC
  5
4B0
100
AcDbEntity
  8
0
370
    -3
390
0
  6
Continuous
100
AcDbCircle
 10
-580.190421
 20
-147.464548
 30
0.0
 40
2.0
100
AcDbArc
 50
90.0
 51
185.956512
  0
ARC
  5
4B1
100
AcDbEntity
  8
0
370
    -3
390
0
  6
Continuous
100
AcDbCircle
 10
-578.179135
 20
-147.464548
 30
0.0
 40
2.0
100
AcDbArc
 50
6.190997
 51
90.0
  0
ARC
  5
4B2
100
AcDbEntity
  8
0
370
    -3
390
0
  6
Continuous
100
AcDbCircle
 10
-570.123376
 20
-147.464548
 30
0.0
 40
2.0
100
AcDbArc
 50
90.0
 51
187.348661
  0
ARC
  5
4B3
100
AcDbEntity
  8
0
370
    -3
390
0
  6
Continuous
100
AcDbCircle
 10
-570.123376
 20
-136.464548
 30
0.0
 40
2.0
100
AcDbArc
 50
172.651339
 51
270.0
  0
ARC
  5
4B4
100
AcDbEntity
  8
0
370
    -3
390
0
  6
Continuous
100
AcDbCircle
 10
-560.01501
 20
-136.464548
 30
0.0
 40
2.0
100
AcDbArc
 50
170.405932
 51
270.0
  0
ARC
  5
4B5
100
AcDbEntity
  8
0
370
    -3
390
0
  6
Continuous
100
AcDbCircle
 10
-560.01501
 20
-147.464548
 30
0.0
 40
2.0
100
AcDbArc
 50
90.0
 51
189.594068
  0
ARC
  5
4B6
100
AcDbEntity
  8
0
370
    -3
390
0
  6
Continuous
100
AcDbCircle
 10
-549.809282
 20
-147.464548
 30
0.0
 40
2.0
100
AcDbArc
 50
90.0
 51
193.835224
  0
ARC
  5
4B7
100
AcDbEntity
  8
0
370
    -3
390
0
  6
Continuous
100
AcDbCircle
 10
-549.809282
 20
-136.464548
 30
0.0
 40
2.0
100
AcDbArc
 50
166.164776
 51
270.0
  0
ARC
  5
4B8
100
AcDbEntity
  8
0
370
    -3
390
0
  6
Continuous
100
AcDbCircle
 10
-537.00285
 20
-136.464548
 30
0.0
 40
2.0
100
AcDbArc
 50
270.0
 51
330.0
  0
ARC
  5
4B9
100
AcDbEntity
  8
0
370
    -3
390
0
  6
Continuous
100
AcDbCircle
 10
-536.3924
 20
-135.521879
 30
0.0
 40
2.0
100
AcDbArc
 50
324.14774
 51
30.0
  0
ARC
  5
4BA
100
AcDbEntity
  8
0
370
    -3
390
0
  6
Continuous
100
AcDbCircle
 10
-537.471841
 20
-133.652233
 30
0.0
 40
2.0
100
AcDbArc
 50
30.0
 51
140.252247
  0
ARC
  5
4BB
100
AcDbEntity
  8
0
370
    -3
390
0
  6
Continuous
100
AcDbCircle
 10
-539.25579
 20
-136.464548
 30
0.0
 40
2.0
100
AcDbArc
 50
154.971001
 51
270.0
  0
ARC
  5
4BC
100
AcDbEntity
  8
0
370
    -3
390
0
  6
Continuous
100
AcDbCircle
 10
-541.629781
 20
-126.450469
 30
0.0
 40
2.0
100
AcDbArc
 50
312.373625
 51
30.0
  0
ARC
  5
4BD
100
AcDbEntity
  8
0
370
    -3
390
0
  6
Continuous
100
AcDbCircle
 10
-542.651429
 20
-124.680923
 30
0.0
 40
2.0
100
AcDbArc
 50
30.0
 51
131.282824
  0
ARC
  5
4BE
100
AcDbEntity
  8
0
370
    -3
390
0
  6
Continuous
100
AcDbCircle
 10
-474.762721
 20
-136.464548
 30
0.0
 40
2.0
100
AcDbArc
 50
270.0
 51
5.956512
  0
ARC
  5
4BF
100
AcDbEntity
  8
0
370
    -3
390
0
  6
Continuous
100
AcDbCircle
 10
-476.774007
 20
-136.464548
 30
0.0
 40
2.0
100
AcDbArc
 50
186.190997
 51
270.0
  0
ARC
  5
4C0
100
AcDbEntity
  8
0
370
    -3
390
0
  6
Continuous
100
AcDbCircle
 10
-484.829766
 20
-136.464548
 30
0.0
 40
2.0
100
AcDbArc
 50
270.0
 51
7.348661
  0
ARC
  5
4C1
100
AcDbEntity
  8
0
370
    -3
390
0
  6
Continuous
100
AcDbCircle
 10
-494.938132
 20
-136.464548
 30
0.0
 40
2.0
100
AcDbArc
 50
270.0
 51
9.594068
  0
ARC
  5
4C2
100
AcDbEntity
  8
0
370
    -3
390
0
  6
Continuous
100
AcDbCircle
 10
-505.143859
 20
-136.464548
 30
0.0
 40
2.0
100
AcDbArc
 50
270.0
 51
13.835224
  0
ARC
  5
4C3
100
AcDbEntity
  8
0
370
    -3
390
0
  6
Continuous
100
AcDbCircle
 10
-507.209603
 20
-136.464548
 30
0.0
 40
2.0
100
AcDbArc
 50
195.183114
 51
270.0
  0
ARC
  5
4C4
100
AcDbEntity
  8
0
370
    -3
390
0
  6
Continuous
100
AcDbCircle
 10
-515.697352
 20
-136.464548
 30
0.0
 40
2.0
100
AcDbArc
 50
270.0
 51
25.028999
  0
ARC
  5
4C5
100
AcDbEntity
  8
0
370
    -3
390
0
  6
Continuous
100
AcDbCircle
 10
-517.481301
 20
-133.652233
 30
0.0
 40
2.0
100
AcDbArc
 50
39.747753
 51
150.0
  0
ARC
  5
4C6
100
AcDbEntity
  8
0
370
    -3
390
0
  6
Continuous
100
AcDbCircle
 10
-513.323361
 20
-126.450469
 30
0.0
 40
2.0
100
AcDbArc
 50
150.0
 51
227.626375
  0
ARC
  5
4C7
100
AcDbEntity
  8
0
370
    -3
390
0
  6
Continuous
100
AcDbCircle
 10
-512.301713
 20
-124.680923
 30
0.0
 40
2.0
100
AcDbArc
 50
48.717176
 51
150.0
  0
ARC
  5
4C8
100
AcDbEntity
  8
0
370
    -3
390
0
  6
Continuous
100
AcDbCircle
 10
-521.073355
 20
-119.873853
 30
0.0
 40
2.0
100
AcDbArc
 50
330.0
 51
73.835224
  0
ARC
  5
4C9
100
AcDbEntity
  8
0
370
    -3
390
0
  6
Continuous
100
AcDbCircle
 10
-522.106226
 20
-121.662839
 30
0.0
 40
2.0
100
AcDbArc
 50
255.183114
 51
330.0
  0
ARC
  5
4CA
100
AcDbEntity
  8
0
370
    -3
390
0
  6
Continuous
100
AcDbCircle
 10
-526.350101
 20
-129.013445
 30
0.0
 40
2.0
100
AcDbArc
 50
330.0
 51
85.028999
  0
ARC
  5
4CB
100
AcDbEntity
  8
0
370
    -3
390
0
  6
Continuous
100
AcDbCircle
 10
-529.677612
 20
-129.152233
 30
0.0
 40
2.0
100
AcDbArc
 50
99.747753
 51
210.0
  0
ARC
  5
4CC
100
AcDbEntity
  8
0
370
    -3
390
0
  6
Continuous
100
AcDbCircle
 10
-533.835552
 20
-121.950469
 30
0.0
 40
2.0
100
AcDbArc
 50
210.0
 51
287.626375
  0
ARC
  5
4CD
100
AcDbEntity
  8
0
370
    -3
390
0
  6
Continuous
100
AcDbCircle
 10
-534.8572
 20
-120.180923
 30
0.0
 40
2.0
100
AcDbArc
 50
108.717176
 51
210.0
  0
ARC
  5
4CE
100
AcDbEntity
  8
0
370
    -3
390
0
  6
Continuous
100
AcDbCircle
 10
-528.598172
 20
-131.021879
 30
0.0
 40
2.0
100
AcDbArc
 50
210.0
 51
275.85226
  0
ARC
  5
4CF
100
AcDbEntity
  8
0
370
    -3
390
0
  6
Continuous
100
AcDbCircle
 10
-527.476571
 20
-130.964548
 30
0.0
 40
2.0
100
AcDbArc
 50
270.0
 51
330.0
  0
ARC
  5
4D0
100
AcDbEntity
  8
0
370
    -3
390
0
  6
Continuous
100
AcDbCircle
 10
-518.560742
 20
-135.521879
 30
0.0
 40
2.0
100
AcDbArc
 50
150.0
 51
215.85226
  0
ARC
  5
4D1
100
AcDbEntity
  8
0
370
    -3
390
0
  6
Continuous
100
AcDbCircle
 10
-517.950291
 20
-136.464548
 30
0.0
 40
2.0
100
AcDbArc
 50
210.0
 51
270.0
  0
ARC
  5
4D2
100
AcDbEntity
  8
0
370
    -3
390
0
  6
Continuous
100
AcDbCircle
 10
-517.950291
 20
-147.464548
 30
0.0
 40
2.0
100
AcDbArc
 50
90.0
 51
150.0
  0
ARC
  5
4D3
100
AcDbEntity
  8
0
370
    -3
390
0
  6
Continuous
100
AcDbCircle
 10
-518.560742
 20
-148.407218
 30
0.0
 40
2.0
100
AcDbArc
 50
144.14774
 51
210.0
  0
ARC
  5
4D4
100
AcDbEntity
  8
0
370
    -3
390
0
  6
Continuous
100
AcDbCircle
 10
-517.481301
 20
-150.276863
 30
0.0
 40
2.0
100
AcDbArc
 50
210.0
 51
320.252247
  0
ARC
  5
4D5
100
AcDbEntity
  8
0
370
    -3
390
0
  6
Continuous
100
AcDbCircle
 10
-515.697352
 20
-147.464548
 30
0.0
 40
2.0
100
AcDbArc
 50
334.971001
 51
90.0
  0
ARC
  5
4D6
100
AcDbEntity
  8
0
370
    -3
390
0
  6
Continuous
100
AcDbCircle
 10
-507.209603
 20
-147.464548
 30
0.0
 40
2.0
100
AcDbArc
 50
90.0
 51
164.816886
  0
ARC
  5
4D7
100
AcDbEntity
  8
0
370
    -3
390
0
  6
Continuous
100
AcDbCircle
 10
-513.323361
 20
-157.478627
 30
0.0
 40
2.0
100
AcDbArc
 50
132.373625
 51
210.0
  0
ARC
  5
4D8
100
AcDbEntity
  8
0
370
    -3
390
0
  6
Continuous
100
AcDbCircle
 10
-512.301713
 20
-159.248173
 30
0.0
 40
2.0
100
AcDbArc
 50
210.0
 51
311.282824
  0
ARC
  5
4D9
100
AcDbEntity
  8
0
370
    -3
390
0
  6
Continuous
100
AcDbCircle
 10
-505.143859
 20
-147.464548
 30
0.0
 40
2.0
100
AcDbArc
 50
346.164776
 51
90.0
  0
ARC
  5
4DA
100
AcDbEntity
  8
0
370
    -3
390
0
  6
Continuous
100
AcDbCircle
 10
-496.968375
 20
-136.464548
 30
0.0
 40
2.0
100
AcDbArc
 50
190.21948
 51
270.0
  0
ARC
  5
4DB
100
AcDbEntity
  8
0
370
    -3
390
0
  6
Continuous
100
AcDbCircle
 10
-486.847148
 20
-136.464548
 30
0.0
 40
2.0
100
AcDbArc
 50
187.70926
 51
270.0
  0
ARC
  5
4DC
100
AcDbEntity
  8
0
370
    -3
390
0
  6
Continuous
100
AcDbCircle
 10
-486.847148
 20
-147.464548
 30
0.0
 40
2.0
100
AcDbArc
 50
90.0
 51
172.29074
  0
ARC
  5
4DD
100
AcDbEntity
  8
0
370
    -3
390
0
  6
Continuous
100
AcDbCircle
 10
-484.829766
 20
-147.464548
 30
0.0
 40
2.0
100
AcDbArc
 50
352.651339
 51
90.0
  0
ARC
  5
4DE
100
AcDbEntity
  8
0
370
    -3
390
0
  6
Continuous
100
AcDbCircle
 10
-474.762721
 20
-147.464548
 30
0.0
 40
2.0
100
AcDbArc
 50
354.043488
 51
90.0
  0
ARC
  5
4DF
100
AcDbEntity
  8
0
370
    -3
390
0
  6
Continuous
100
AcDbCircle
 10
-476.774007
 20
-147.464548
 30
0.0
 40
2.0
100
AcDbArc
 50
90.0
 51
173.809003
  0
ARC
  5
4E0
100
AcDbEntity
  8
0
370
    -3
390
0
  6
Continuous
100
AcDbCircle
 10
-502.197513
 20
-176.74916
 30
0.0
 40
2.0
100
AcDbArc
 50
210.0
 51
306.007069
  0
ARC
  5
4E1
100
AcDbEntity
  8
0
370
    -3
390
0
  6
Continuous
100
AcDbCircle
 10
-503.203306
 20
-175.007076
 30
0.0
 40
2.0
100
AcDbArc
 50
126.301256
 51
210.0
  0
ARC
  5
4E2
100
AcDbEntity
  8
0
370
    -3
390
0
  6
Continuous
100
AcDbCircle
 10
-507.233585
 20
-168.026427
 30
0.0
 40
2.0
100
AcDbArc
 50
210.0
 51
307.83748
  0
ARC
  5
4E3
100
AcDbEntity
  8
0
370
    -3
390
0
  6
Continuous
100
AcDbCircle
 10
-508.243632
 20
-166.276975
 30
0.0
 40
2.0
100
AcDbArc
 50
128.346619
 51
210.0
  0
ARC
  5
4E4
100
AcDbEntity
  8
0
370
    -3
390
0
  6
Continuous
100
AcDbCircle
 10
-496.968375
 20
-147.464548
 30
0.0
 40
2.0
100
AcDbArc
 50
90.0
 51
169.78052
  0
ARC
  5
4E5
100
AcDbEntity
  8
0
370
    -3
390
0
  6
Continuous
100
AcDbCircle
 10
-494.938132
 20
-147.464548
 30
0.0
 40
2.0
100
AcDbArc
 50
350.405932
 51
90.0
  0
ARC
  5
4E6
100
AcDbEntity
  8
0
370
    -3
390
0
  6
Continuous
100
AcDbCircle
 10
-497.175148
 20
-185.448152
 30
0.0
 40
2.0
100
AcDbArc
 50
210.0
 51
304.8706
  0
ARC
  5
4E7
100
AcDbEntity
  8
0
370
    -3
390
0
  6
Continuous
100
AcDbCircle
 10
-498.178915
 20
-183.709576
 30
0.0
 40
2.0
100
AcDbArc
 50
125.062093
 51
210.0
  0
ARC
  5
4E8
100
AcDbEntity
  8
0
370
    -3
390
0
  6
Continuous
100
AcDbCircle
 10
-505.882785
 20
-190.366082
 30
0.0
 40
2.0
100
AcDbArc
 50
294.043488
 51
30.0
  0
ARC
  5
4E9
100
AcDbEntity
  8
0
370
    -3
390
0
  6
Continuous
100
AcDbCircle
 10
-506.888429
 20
-188.624257
 30
0.0
 40
2.0
100
AcDbArc
 50
30.0
 51
113.809003
  0
ARC
  5
4EA
100
AcDbEntity
  8
0
370
    -3
390
0
  6
Continuous
100
AcDbCircle
 10
-510.916308
 20
-181.647765
 30
0.0
 40
2.0
100
AcDbArc
 50
292.651339
 51
30.0
  0
ARC
  5
4EB
100
AcDbEntity
  8
0
370
    -3
390
0
  6
Continuous
100
AcDbCircle
 10
-511.924999
 20
-179.900661
 30
0.0
 40
2.0
100
AcDbArc
 50
30.0
 51
112.29074
  0
ARC
  5
4EC
100
AcDbEntity
  8
0
370
    -3
390
0
  6
Continuous
100
AcDbCircle
 10
-515.970491
 20
-172.893663
 30
0.0
 40
2.0
100
AcDbArc
 50
290.405932
 51
30.0
  0
ARC
  5
4ED
100
AcDbEntity
  8
0
370
    -3
390
0
  6
Continuous
100
AcDbCircle
 10
-516.985613
 20
-171.135421
 30
0.0
 40
2.0
100
AcDbArc
 50
30.0
 51
109.78052
  0
ARC
  5
4EE
100
AcDbEntity
  8
0
370
    -3
390
0
  6
Continuous
100
AcDbCircle
 10
-521.073355
 20
-164.055244
 30
0.0
 40
2.0
100
AcDbArc
 50
286.164776
 51
30.0
  0
ARC
  5
4EF
100
AcDbEntity
  8
0
370
    -3
390
0
  6
Continuous
100
AcDbCircle
 10
-522.106226
 20
-162.266258
 30
0.0
 40
2.0
100
AcDbArc
 50
30.0
 51
104.816886
  0
ARC
  5
4F0
100
AcDbEntity
  8
0
370
    -3
390
0
  6
Continuous
100
AcDbCircle
 10
-526.350101
 20
-154.915651
 30
0.0
 40
2.0
100
AcDbArc
 50
274.971001
 51
30.0
  0
ARC
  5
4F1
100
AcDbEntity
  8
0
370
    -3
390
0
  6
Continuous
100
AcDbCircle
 10
-527.476571
 20
-152.964548
 30
0.0
 40
2.0
100
AcDbArc
 50
30.0
 51
90.0
  0
ARC
  5
4F2
100
AcDbEntity
  8
0
370
    -3
390
0
  6
Continuous
100
AcDbCircle
 10
-528.598172
 20
-152.907218
 30
0.0
 40
2.0
100
AcDbArc
 50
84.14774
 51
150.0
  0
ARC
  5
4F3
100
AcDbEntity
  8
0
370
    -3
390
0
  6
Continuous
100
AcDbCircle
 10
-529.677612
 20
-154.776863
 30
0.0
 40
2.0
100
AcDbArc
 50
150.0
 51
260.252247
  0
ARC
  5
4F4
100
AcDbEntity
  8
0
370
    -3
390
0
  6
Continuous
100
AcDbCircle
 10
-537.00285
 20
-147.464548
 30
0.0
 40
2.0
100
AcDbArc
 50
30.0
 51
90.0
  0
ARC
  5
4F5
100
AcDbEntity
  8
0
370
    -3
390
0
  6
Continuous
100
AcDbCircle
 10
-539.25579
 20
-147.464548
 30
0.0
 40
2.0
100
AcDbArc
 50
90.0
 51
205.028999
  0
ARC
  5
4F6
100
AcDbEntity
  8
0
370
    -3
390
0
  6
Continuous
100
AcDbCircle
 10
-537.471841
 20
-150.276863
 30
0.0
 40
2.0
100
AcDbArc
 50
219.747753
 51
330.0
  0
ARC
  5
4F7
100
AcDbEntity
  8
0
370
    -3
390
0
  6
Continuous
100
AcDbCircle
 10
-547.743539
 20
-147.464548
 30
0.0
 40
2.0
100
AcDbArc
 50
15.183114
 51
90.0
  0
ARC
  5
4F8
100
AcDbEntity
  8
0
370
    -3
390
0
  6
Continuous
100
AcDbCircle
 10
-547.743539
 20
-136.464548
 30
0.0
 40
2.0
100
AcDbArc
 50
270.0
 51
344.816886
  0
ARC
  5
4F9
100
AcDbEntity
  8
0
370
    -3
390
0
  6
Continuous
100
AcDbCircle
 10
-541.629781
 20
-157.478627
 30
0.0
 40
2.0
100
AcDbArc
 50
330.0
 51
47.626375
  0
ARC
  5
4FA
100
AcDbEntity
  8
0
370
    -3
390
0
  6
Continuous
100
AcDbCircle
 10
-542.651429
 20
-159.248173
 30
0.0
 40
2.0
100
AcDbArc
 50
228.717176
 51
330.0
  0
ARC
  5
4FB
100
AcDbEntity
  8
0
370
    -3
390
0
  6
Continuous
100
AcDbCircle
 10
-533.835552
 20
-161.978627
 30
0.0
 40
2.0
100
AcDbArc
 50
72.373625
 51
150.0
  0
ARC
  5
4FC
100
AcDbEntity
  8
0
370
    -3
390
0
  6
Continuous
100
AcDbCircle
 10
-534.8572
 20
-163.748173
 30
0.0
 40
2.0
100
AcDbArc
 50
150.0
 51
251.282824
  0
ARC
  5
4FD
100
AcDbEntity
  8
0
370
    -3
390
0
  6
Continuous
100
AcDbCircle
 10
-538.915281
 20
-170.776975
 30
0.0
 40
2.0
100
AcDbArc
 50
68.346619
 51
150.0
  0
ARC
  5
4FE
100
AcDbEntity
  8
0
370
    -3
390
0
  6
Continuous
100
AcDbCircle
 10
-546.709509
 20
-166.276975
 30
0.0
 40
2.0
100
AcDbArc
 50
330.0
 51
51.653381
  0
ARC
  5
4FF
100
AcDbEntity
  8
0
370
    -3
390
0
  6
Continuous
100
AcDbCircle
 10
-547.719556
 20
-168.026427
 30
0.0
 40
2.0
100
AcDbArc
 50
232.16252
 51
330.0
  0
ARC
  5
500
100
AcDbEntity
  8
0
370
    -3
390
0
  6
Continuous
100
AcDbCircle
 10
-539.925328
 20
-172.526427
 30
0.0
 40
2.0
100
AcDbArc
 50
150.0
 51
247.83748
  0
ARC
  5
501
100
AcDbEntity
  8
0
370
    -3
390
0
  6
Continuous
100
AcDbCircle
 10
-543.955607
 20
-179.507076
 30
0.0
 40
2.0
100
AcDbArc
 50
66.301256
 51
150.0
  0
ARC
  5
502
100
AcDbEntity
  8
0
370
    -3
390
0
  6
Continuous
100
AcDbCircle
 10
-544.9614
 20
-181.24916
 30
0.0
 40
2.0
100
AcDbArc
 50
150.0
 51
246.007069
  0
ARC
  5
503
100
AcDbEntity
  8
0
370
    -3
390
0
  6
Continuous
100
AcDbCircle
 10
-548.979998
 20
-188.209576
 30
0.0
 40
2.0
100
AcDbArc
 50
65.062093
 51
150.0
  0
ARC
  5
504
100
AcDbEntity
  8
0
370
    -3
390
0
  6
Continuous
100
AcDbCircle
 10
-549.983765
 20
-189.948152
 30
0.0
 40
2.0
100
AcDbArc
 50
150.0
 51
244.8706
  0
ARC
  5
505
100
AcDbEntity
  8
0
370
    -3
390
0
  6
Continuous
100
AcDbCircle
 10
-551.749835
 20
-175.007076
 30
0.0
 40
2.0
100
AcDbArc
 50
330.0
 51
53.698744
  0
ARC
  5
506
100
AcDbEntity
  8
0
370
    -3
390
0
  6
Continuous
100
AcDbCircle
 10
-557.777994
 20
-185.448152
 30
0.0
 40
2.0
100
AcDbArc
 50
235.1294
 51
330.0
  0
ARC
  5
507
100
AcDbEntity
  8
0
370
    -3
390
0
  6
Continuous
100
AcDbCircle
 10
-552.755628
 20
-176.74916
 30
0.0
 40
2.0
100
AcDbArc
 50
233.992931
 51
330.0
  0
ARC
  5
508
100
AcDbEntity
  8
0
370
    -3
390
0
  6
Continuous
100
AcDbCircle
 10
-568.105994
 20
-136.464548
 30
0.0
 40
2.0
100
AcDbArc
 50
270.0
 51
352.29074
  0
ARC
  5
509
100
AcDbEntity
  8
0
370
    -3
390
0
  6
Continuous
100
AcDbCircle
 10
-557.984766
 20
-136.464548
 30
0.0
 40
2.0
100
AcDbArc
 50
270.0
 51
349.78052
  0
ARC
  5
50A
100
AcDbEntity
  8
0
370
    -3
390
0
  6
Continuous
100
AcDbCircle
 10
-557.984766
 20
-147.464548
 30
0.0
 40
2.0
100
AcDbArc
 50
10.21948
 51
90.0
  0
ARC
  5
50B
100
AcDbEntity
  8
0
370
    -3
390
0
  6
Continuous
100
AcDbCircle
 10
-568.105994
 20
-147.464548
 30
0.0
 40
2.0
100
AcDbArc
 50
7.70926
 51
90.0
  0
ARC
  5
50C
100
AcDbEntity
  8
0
370
    -3
390
0
  6
Continuous
100
AcDbCircle
 10
-504.193385
 20
-123.046481
 30
0.0
 40
50.8
100
AcDbArc
 50
4.33985
 51
39.094568
  0
ARC
  5
50D
100
AcDbEntity
  8
0
370
    -3
390
0
  6
Continuous
100
AcDbCircle
 10
-527.476571
 20
-141.964548
 30
0.0
 40
80.8
100
AcDbArc
 50
39.094568
 51
50.905432
  0
ARC
  5
50E
100
AcDbEntity
  8
0
370
    -3
390
0
  6
Continuous
100
AcDbCircle
 10
-508.558504
 20
-118.681362
 30
0.0
 40
50.8
100
AcDbArc
 50
50.905432
 51
53.689274
  0
ARC
  5
50F
100
AcDbEntity
  8
0
370
    -3
390
0
  6
Continuous
100
AcDbCircle
 10
-546.394638
 20
-118.681362
 30
0.0
 40
50.8
100
AcDbArc
 50
126.310726
 51
129.094568
  0
ARC
  5
510
100
AcDbEntity
  8
0
370
    -3
390
0
  6
Continuous
100
AcDbCircle
 10
-527.476571
 20
-141.964548
 30
0.0
 40
80.8
100
AcDbArc
 50
129.094568
 51
140.905432
  0
ARC
  5
511
100
AcDbEntity
  8
0
370
    -3
390
0
  6
Continuous
100
AcDbCircle
 10
-550.759757
 20
-123.046481
 30
0.0
 40
50.8
100
AcDbArc
 50
140.905432
 51
175.66015
  0
ARC
  5
512
100
AcDbEntity
  8
0
370
    -3
390
0
  6
Continuous
100
AcDbCircle
 10
-527.476571
 20
-141.964548
 30
0.0
 40
45.0
100
AcDbArc
 50
7.348661
 51
53.992931
  0
ARC
  5
513
100
AcDbEntity
  8
0
370
    -3
390
0
  6
Continuous
100
AcDbCircle
 10
-550.759757
 20
-123.046481
 30
0.0
 40
36.944
100
AcDbArc
 50
140.905432
 51
175.66015
  0
ARC
  5
514
100
AcDbEntity
  8
0
370
    -3
390
0
  6
Continuous
100
AcDbCircle
 10
-527.476571
 20
-141.964548
 30
0.0
 40
66.944
100
AcDbArc
 50
129.094568
 51
140.905432
  0
ARC
  5
515
100
AcDbEntity
  8
0
370
    -3
390
0
  6
Continuous
100
AcDbCircle
 10
-527.476571
 20
-141.964548
 30
0.0
 40
66.944
100
AcDbArc
 50
39.094568
 51
50.905432
  0
ARC
  5
516
100
AcDbEntity
  8
0
370
    -3
390
0
  6
Continuous
100
AcDbCircle
 10
-504.193385
 20
-123.046481
 30
0.0
 40
36.944
100
AcDbArc
 50
4.33985
 51
39.094568
  0
LINE
  5
517
100
AcDbEntity
  8
0
370
    -3
390
0
  6
Continuous
100
AcDbLine
 10
-551.715816
 20
-94.980945
 30
0.0
 11
-550.712049
 21
-96.71952
 31
0.0
  0
LINE
  5
518
100
AcDbEntity
  8
0
370
    -3
390
0
  6
Continuous
100
AcDbLine
 10
-546.693451
 20
-103.679936
 30
0.0
 11
-545.687658
 21
-105.422021
 31
0.0
  0
LINE
  5
519
100
AcDbEntity
  8
0
370
    -3
390
0
  6
Continuous
100
AcDbLine
 10
-541.657378
 20
-112.402669
 30
0.0
 11
-540.209074
 21
-114.911205
 31
0.0
  0
ARC
  5
51A
100
AcDbEntity
  8
0
370
    -3
390
0
  6
Continuous
100
AcDbCircle
 10
-539.343049
 20
-114.411205
 30
0.0
 40
1.0
100
AcDbArc
 50
210.0
 51
293.300235
  0
ARC
  5
51B
100
AcDbEntity
  8
0
370
    -3
390
0
  6
Continuous
100
AcDbCircle
 10
-527.476571
 20
-141.964548
 30
0.0
 40
25.0
100
AcDbArc
 50
73.835224
 51
108.717176
  0
ARC
  5
51C
100
AcDbEntity
  8
0
370
    -3
390
0
  6
Continuous
100
AcDbCircle
 10
-527.476571
 20
-141.964548
 30
0.0
 40
29.0
100
AcDbArc
 50
70.21948
 51
113.300235
  0
ARC
  5
51D
100
AcDbEntity
  8
0
370
    -3
390
0
  6
Continuous
100
AcDbCircle
 10
-527.476571
 20
-141.964548
 30
0.0
 40
49.0
100
AcDbArc
 50
66.190997
 51
114.937907
  0
LINE
  5
51E
100
AcDbEntity
  8
0
370
    -3
390
0
  6
Continuous
100
AcDbLine
 10
-504.150735
 20
-94.563015
 30
0.0
 11
-505.156378
 21
-96.30484
 31
0.0
  0
ARC
  5
51F
100
AcDbEntity
  8
0
370
    -3
390
0
  6
Continuous
100
AcDbCircle
 10
-527.476571
 20
-141.964548
 30
0.0
 40
55.0
100
AcDbArc
 50
65.956512
 51
115.1294
  0
ARC
  5
520
100
AcDbEntity
  8
0
370
    -3
390
0
  6
Continuous
100
AcDbCircle
 10
-527.476571
 20
-141.964548
 30
0.0
 40
45.0
100
AcDbArc
 50
67.348661
 51
113.992931
  0
ARC
  5
521
100
AcDbEntity
  8
0
370
    -3
390
0
  6
Continuous
100
AcDbCircle
 10
-527.476571
 20
-141.964548
 30
0.0
 40
39.0
100
AcDbArc
 50
66.45945
 51
113.698744
  0
LINE
  5
522
100
AcDbEntity
  8
0
370
    -3
390
0
  6
Continuous
100
AcDbLine
 10
-509.184257
 20
-103.281331
 30
0.0
 11
-510.634625
 21
-105.793443
 31
0.0
  0
ARC
  5
523
100
AcDbEntity
  8
0
370
    -3
390
0
  6
Continuous
100
AcDbCircle
 10
-511.500651
 20
-105.293443
 30
0.0
 40
1.0
100
AcDbArc
 50
246.45945
 51
330.0
  0
LINE
  5
524
100
AcDbEntity
  8
0
370
    -3
390
0
  6
Continuous
100
AcDbLine
 10
-514.23844
 20
-112.035434
 30
0.0
 11
-515.253562
 21
-113.793676
 31
0.0
  0
ARC
  5
525
100
AcDbEntity
  8
0
370
    -3
390
0
  6
Continuous
100
AcDbCircle
 10
-527.476571
 20
-141.964548
 30
0.0
 40
35.0
100
AcDbArc
 50
69.594068
 51
112.16252
  0
LINE
  5
526
100
AcDbEntity
  8
0
370
    -3
390
0
  6
Continuous
100
AcDbLine
 10
-545.987505
 20
-114.902669
 30
0.0
 11
-544.977458
 21
-116.652122
 31
0.0
  0
LINE
  5
527
100
AcDbEntity
  8
0
370
    -3
390
0
  6
Continuous
100
AcDbLine
 10
-551.023578
 20
-106.179936
 30
0.0
 11
-550.017785
 21
-107.922021
 31
0.0
  0
LINE
  5
528
100
AcDbEntity
  8
0
370
    -3
390
0
  6
Continuous
100
AcDbLine
 10
-556.045943
 20
-97.480945
 30
0.0
 11
-555.042176
 21
-99.21952
 31
0.0
  0
ARC
  5
529
100
AcDbEntity
  8
0
370
    -3
390
0
  6
Continuous
100
AcDbCircle
 10
-527.476571
 20
-141.964548
 30
0.0
 40
49.0
100
AcDbArc
 50
125.062093
 51
173.809003
  0
ARC
  5
52A
100
AcDbEntity
  8
0
370
    -3
390
0
  6
Continuous
100
AcDbCircle
 10
-527.476571
 20
-141.964548
 30
0.0
 40
55.0
100
AcDbArc
 50
124.8706
 51
174.043488
  0
ARC
  5
52B
100
AcDbEntity
  8
0
370
    -3
390
0
  6
Continuous
100
AcDbCircle
 10
-527.476571
 20
-141.964548
 30
0.0
 40
45.0
100
AcDbArc
 50
126.007069
 51
172.651339
  0
ARC
  5
52C
100
AcDbEntity
  8
0
370
    -3
390
0
  6
Continuous
100
AcDbCircle
 10
-527.476571
 20
-141.964548
 30
0.0
 40
39.0
100
AcDbArc
 50
126.301256
 51
172.29074
  0
ARC
  5
52D
100
AcDbEntity
  8
0
370
    -3
390
0
  6
Continuous
100
AcDbCircle
 10
-527.476571
 20
-141.964548
 30
0.0
 40
35.0
100
AcDbArc
 50
127.83748
 51
170.405932
  0
LINE
  5
52E
100
AcDbEntity
  8
0
370
    -3
390
0
  6
Continuous
100
AcDbLine
 10
-503.929564
 20
-106.179936
 30
0.0
 11
-504.935357
 21
-107.922021
 31
0.0
  0
LINE
  5
52F
100
AcDbEntity
  8
0
370
    -3
390
0
  6
Continuous
100
AcDbLine
 10
-508.965636
 20
-114.902669
 30
0.0
 11
-509.975683
 21
-116.652122
 31
0.0
  0
ARC
  5
530
100
AcDbEntity
  8
0
370
    -3
390
0
  6
Continuous
100
AcDbCircle
 10
-527.476571
 20
-141.964548
 30
0.0
 40
35.0
100
AcDbArc
 50
9.594068
 51
52.16252
  0
ARC
  5
531
100
AcDbEntity
  8
0
370
    -3
390
0
  6
Continuous
100
AcDbCircle
 10
-527.476571
 20
-141.964548
 30
0.0
 40
39.0
100
AcDbArc
 50
7.70926
 51
53.698744
  0
ARC
  5
532
100
AcDbEntity
  8
0
370
    -3
390
0
  6
Continuous
100
AcDbCircle
 10
-527.476571
 20
-141.964548
 30
0.0
 40
49.0
100
AcDbArc
 50
6.190997
 51
54.937907
  0
ARC
  5
533
100
AcDbEntity
  8
0
370
    -3
390
0
  6
Continuous
100
AcDbCircle
 10
-527.476571
 20
-141.964548
 30
0.0
 40
55.0
100
AcDbArc
 50
5.956512
 51
55.1294
  0
LINE
  5
534
100
AcDbEntity
  8
0
370
    -3
390
0
  6
Continuous
100
AcDbLine
 10
-498.907199
 20
-97.480945
 30
0.0
 11
-499.910966
 21
-99.21952
 31
0.0
  0
ARC
  5
535
100
AcDbEntity
  8
0
370
    -3
390
0
  6
Continuous
100
AcDbCircle
 10
-546.394638
 20
-118.681362
 30
0.0
 40
36.944
100
AcDbArc
 50
94.33985
 51
129.094568
  0
ARC
  5
536
100
AcDbEntity
  8
0
370
    -3
390
0
  6
Continuous
100
AcDbCircle
 10
-527.476571
 20
-367.964548
 30
0.0
 40
286.944
100
AcDbArc
 50
85.66015
 51
94.33985
  0
ARC
  5
537
100
AcDbEntity
  8
0
370
    -3
390
0
  6
Continuous
100
AcDbCircle
 10
-508.558504
 20
-118.681362
 30
0.0
 40
36.944
100
AcDbArc
 50
50.905432
 51
85.66015
  0
ARC
  5
538
100
AcDbEntity
  8
0
370
    -3
390
0
  6
Continuous
100
AcDbCircle
 10
-527.476571
 20
-141.964548
 30
0.0
 40
80.8
100
AcDbArc
 50
39.094568
 51
50.905432
  0
LINE
  5
539
100
AcDbEntity
  8
0
370
    -3
390
0
  6
Continuous
100
AcDbLine
 10
-466.311834
 20
-87.446615
 30
0.0
 11
-472.958638
 21
-80.799812
 31
0.0
  0
ARC
  5
53A
100
AcDbEntity
  8
0
370
    -3
390
0
  6
Continuous
100
AcDbCircle
 10
-473.17077
 20
-81.011944
 30
0.0
 40
0.3
100
AcDbArc
 50
45.0
 51
135.0
  0
LINE
  5
53B
100
AcDbEntity
  8
0
370
    -3
390
0
  6
Continuous
100
AcDbLine
 10
-473.382902
 20
-80.799812
 30
0.0
 11
-473.987373
 21
-81.404283
 31
0.0
  0
LINE
  5
53C
100
AcDbEntity
  8
0
370
    -3
390
0
  6
Continuous
100
AcDbLine
 10
-465.88757
 20
-86.739509
 30
0.0
 11
-466.453256
 21
-87.305194
 31
0.0
  0
LINE
  5
53D
100
AcDbEntity
  8
0
370
    -3
390
0
  6
Continuous
100
AcDbLine
 10
-467.549271
 20
-85.077808
 30
0.0
 11
-465.88757
 21
-86.739509
 31
0.0
  0
LINE
  5
53E
100
AcDbEntity
  8
0
370
    -3
390
0
  6
Continuous
100
AcDbLine
 10
-472.251531
 20
-80.375548
 30
0.0
 11
-472.817217
 21
-80.941233
 31
0.0
  0
LINE
  5
53F
100
AcDbEntity
  8
0
370
    -3
390
0
  6
Continuous
100
AcDbLine
 10
-470.58983
 20
-82.037249
 30
0.0
 11
-472.251531
 21
-80.375548
 31
0.0
  0
ARC
  5
540
100
AcDbEntity
  8
0
370
    -3
390
0
  6
Continuous
100
AcDbCircle
 10
-466.523966
 20
-87.658747
 30
0.0
 40
0.3
100
AcDbArc
 50
315.0
 51
45.0
  0
LINE
  5
541
100
AcDbEntity
  8
0
370
    -3
390
0
  6
Continuous
100
AcDbLine
 10
-466.311834
 20
-87.870879
 30
0.0
 11
-466.916305
 21
-88.475351
 31
0.0
  0
ARC
  5
542
100
AcDbEntity
  8
0
370
    -3
390
0
  6
Continuous
100
AcDbCircle
 10
-504.193385
 20
-123.046481
 30
0.0
 40
50.8
100
AcDbArc
 50
4.33985
 51
39.094568
  0
ARC
  5
543
100
AcDbEntity
  8
0
370
    -3
390
0
  6
Continuous
100
AcDbCircle
 10
-508.558504
 20
-118.681362
 30
0.0
 40
50.8
100
AcDbArc
 50
50.905432
 51
85.66015
  0
ARC
  5
544
100
AcDbEntity
  8
0
370
    -3
390
0
  6
Continuous
100
AcDbCircle
 10
-527.476571
 20
-141.964548
 30
0.0
 40
80.8
100
AcDbArc
 50
129.094568
 51
140.905432
  0
LINE
  5
545
100
AcDbEntity
  8
0
370
    -3
390
0
  6
Continuous
100
AcDbLine
 10
-588.641307
 20
-87.446615
 30
0.0
 11
-581.994504
 21
-80.799812
 31
0.0
  0
ARC
  5
546
100
AcDbEntity
  8
0
370
    -3
390
0
  6
Continuous
100
AcDbCircle
 10
-581.782372
 20
-81.011944
 30
0.0
 40
0.3
100
AcDbArc
 50
45.0
 51
135.0
  0
LINE
  5
547
100
AcDbEntity
  8
0
370
    -3
390
0
  6
Continuous
100
AcDbLine
 10
-581.57024
 20
-80.799812
 30
0.0
 11
-580.965768
 21
-81.404283
 31
0.0
  0
LINE
  5
548
100
AcDbEntity
  8
0
370
    -3
390
0
  6
Continuous
100
AcDbLine
 10
-589.065571
 20
-86.739509
 30
0.0
 11
-588.499886
 21
-87.305194
 31
0.0
  0
LINE
  5
549
100
AcDbEntity
  8
0
370
    -3
390
0
  6
Continuous
100
AcDbLine
 10
-587.403871
 20
-85.077808
 30
0.0
 11
-589.065571
 21
-86.739509
 31
0.0
  0
LINE
  5
54A
100
AcDbEntity
  8
0
370
    -3
390
0
  6
Continuous
100
AcDbLine
 10
-582.70161
 20
-80.375548
 30
0.0
 11
-582.135925
 21
-80.941233
 31
0.0
  0
LINE
  5
54B
100
AcDbEntity
  8
0
370
    -3
390
0
  6
Continuous
100
AcDbLine
 10
-584.363311
 20
-82.037249
 30
0.0
 11
-582.70161
 21
-80.375548
 31
0.0
  0
ARC
  5
54C
100
AcDbEntity
  8
0
370
    -3
390
0
  6
Continuous
100
AcDbCircle
 10
-588.429175
 20
-87.658747
 30
0.0
 40
0.3
100
AcDbArc
 50
135.0
 51
225.0
  0
LINE
  5
54D
100
AcDbEntity
  8
0
370
    -3
390
0
  6
Continuous
100
AcDbLine
 10
-588.641307
 20
-87.870879
 30
0.0
 11
-588.036836
 21
-88.475351
 31
0.0
  0
ARC
  5
54E
100
AcDbEntity
  8
0
370
    -3
390
0
  6
Continuous
100
AcDbCircle
 10
-550.759757
 20
-123.046481
 30
0.0
 40
50.8
100
AcDbArc
 50
140.905432
 51
175.66015
  0
ARC
  5
54F
100
AcDbEntity
  8
0
370
    -3
390
0
  6
Continuous
100
AcDbCircle
 10
-546.394638
 20
-118.681362
 30
0.0
 40
50.8
100
AcDbArc
 50
94.33985
 51
129.094568
  0
INSERT
  5
55B
100
AcDbEntity
  8
0
390
0
100
AcDbBlockReference
  2
ZU_SYM_C__ZUOU_AC_BLOCK_ZU_SYM_C__ZUOU_AC_BLOCK_ZU_SYM__USR_MELCAD_MD_SYM_SYM_SYM2_-1_-1_00
 10
-469.069551
 20
-83.557528
 30
0.0
 50
225.0
  0
INSERT
  5
567
100
AcDbEntity
  8
0
390
0
100
AcDbBlockReference
  2
ZU_SYM_C__ZUOU_AC_BLOCK_ZU_SYM_C__ZUOU_AC_BLOCK_ZU_SYM__USR_MELCAD_MD_SYM_SYM_SYM1_-1_-1_00
 10
-585.883591
 20
-83.557528
 30
0.0
 41
-1.0
 50
135.0
  0
ARC
  5
568
100
AcDbEntity
  8
0
370
    -3
390
0
  6
Continuous
100
AcDbCircle
 10
-497.175148
 20
-98.480945
 30
0.0
 40
2.0
100
AcDbArc
 50
55.1294
 51
150.0
  0
ARC
  5
569
100
AcDbEntity
  8
0
370
    -3
390
0
  6
Continuous
100
AcDbCircle
 10
-498.178915
 20
-100.21952
 30
0.0
 40
2.0
100
AcDbArc
 50
150.0
 51
234.937907
  0
ARC
  5
56A
100
AcDbEntity
  8
0
370
    -3
390
0
  6
Continuous
100
AcDbCircle
 10
-505.882785
 20
-93.563015
 30
0.0
 40
2.0
100
AcDbArc
 50
330.0
 51
65.956512
  0
ARC
  5
56B
100
AcDbEntity
  8
0
370
    -3
390
0
  6
Continuous
100
AcDbCircle
 10
-506.888429
 20
-95.30484
 30
0.0
 40
2.0
100
AcDbArc
 50
246.190997
 51
330.0
  0
ARC
  5
56C
100
AcDbEntity
  8
0
370
    -3
390
0
  6
Continuous
100
AcDbCircle
 10
-548.979998
 20
-95.71952
 30
0.0
 40
2.0
100
AcDbArc
 50
210.0
 51
294.937907
  0
ARC
  5
56D
100
AcDbEntity
  8
0
370
    -3
390
0
  6
Continuous
100
AcDbCircle
 10
-549.983765
 20
-93.980945
 30
0.0
 40
2.0
100
AcDbArc
 50
115.1294
 51
210.0
  0
ARC
  5
56E
100
AcDbEntity
  8
0
370
    -3
390
0
  6
Continuous
100
AcDbCircle
 10
-557.777994
 20
-98.480945
 30
0.0
 40
2.0
100
AcDbArc
 50
30.0
 51
124.8706
  0
ARC
  5
56F
100
AcDbEntity
  8
0
370
    -3
390
0
  6
Continuous
100
AcDbCircle
 10
-556.774226
 20
-100.21952
 30
0.0
 40
2.0
100
AcDbArc
 50
305.062093
 51
30.0
  0
ARC
  5
570
100
AcDbEntity
  8
0
370
    -3
390
0
  6
Continuous
100
AcDbCircle
 10
-546.709509
 20
-117.652122
 30
0.0
 40
2.0
100
AcDbArc
 50
308.346619
 51
30.0
  0
ARC
  5
571
100
AcDbEntity
  8
0
370
    -3
390
0
  6
Continuous
100
AcDbCircle
 10
-547.719556
 20
-115.902669
 30
0.0
 40
2.0
100
AcDbArc
 50
30.0
 51
127.83748
  0
ARC
  5
572
100
AcDbEntity
  8
0
370
    -3
390
0
  6
Continuous
100
AcDbCircle
 10
-551.749835
 20
-108.922021
 30
0.0
 40
2.0
100
AcDbArc
 50
306.301256
 51
30.0
  0
ARC
  5
573
100
AcDbEntity
  8
0
370
    -3
390
0
  6
Continuous
100
AcDbCircle
 10
-552.755628
 20
-107.179936
 30
0.0
 40
2.0
100
AcDbArc
 50
30.0
 51
126.007069
  0
ARC
  5
574
100
AcDbEntity
  8
0
370
    -3
390
0
  6
Continuous
100
AcDbCircle
 10
-544.9614
 20
-102.679936
 30
0.0
 40
2.0
100
AcDbArc
 50
113.992931
 51
210.0
  0
ARC
  5
575
100
AcDbEntity
  8
0
370
    -3
390
0
  6
Continuous
100
AcDbCircle
 10
-543.955607
 20
-104.422021
 30
0.0
 40
2.0
100
AcDbArc
 50
210.0
 51
293.698744
  0
ARC
  5
576
100
AcDbEntity
  8
0
370
    -3
390
0
  6
Continuous
100
AcDbCircle
 10
-510.916308
 20
-102.281331
 30
0.0
 40
2.0
100
AcDbArc
 50
330.0
 51
67.348661
  0
ARC
  5
577
100
AcDbEntity
  8
0
370
    -3
390
0
  6
Continuous
100
AcDbCircle
 10
-502.197513
 20
-107.179936
 30
0.0
 40
2.0
100
AcDbArc
 50
53.992931
 51
150.0
  0
ARC
  5
578
100
AcDbEntity
  8
0
370
    -3
390
0
  6
Continuous
100
AcDbCircle
 10
-503.203306
 20
-108.922021
 30
0.0
 40
2.0
100
AcDbArc
 50
150.0
 51
233.698744
  0
ARC
  5
579
100
AcDbEntity
  8
0
370
    -3
390
0
  6
Continuous
100
AcDbCircle
 10
-508.243632
 20
-117.652122
 30
0.0
 40
2.0
100
AcDbArc
 50
150.0
 51
231.653381
  0
ARC
  5
57A
100
AcDbEntity
  8
0
370
    -3
390
0
  6
Continuous
100
AcDbCircle
 10
-507.233585
 20
-115.902669
 30
0.0
 40
2.0
100
AcDbArc
 50
52.16252
 51
150.0
  0
ARC
  5
57B
100
AcDbEntity
  8
0
370
    -3
390
0
  6
Continuous
100
AcDbCircle
 10
-515.970491
 20
-111.035434
 30
0.0
 40
2.0
100
AcDbArc
 50
330.0
 51
69.594068
  0
ARC
  5
57C
100
AcDbEntity
  8
0
370
    -3
390
0
  6
Continuous
100
AcDbCircle
 10
-539.925328
 20
-111.402669
 30
0.0
 40
2.0
100
AcDbArc
 50
112.16252
 51
210.0
  0
ARC
  5
57D
100
AcDbEntity
  8
0
370
    -3
390
0
  6
Continuous
100
AcDbCircle
 10
-516.985613
 20
-112.793676
 30
0.0
 40
2.0
100
AcDbArc
 50
250.21948
 51
330.0
  0
LINE
  5
57E
100
AcDbEntity
  8
0
370
    -3
390
0
  6
CENTER
100
AcDbLine
 10
-592.066196
 20
-113.464548
 30
0.0
 11
-463.568833
 21
-113.464548
 31
0.0
  0
LINE
  5
57F
100
AcDbEntity
  8
0
370
    -3
390
0
  6
Continuous
100
AcDbLine
 10
-594.476798
 20
-89.464548
 30
0.0
 11
-590.476798
 21
-89.464548
 31
0.0
  0
LINE
  5
580
100
AcDbEntity
  8
0
370
    -3
390
0
  6
Continuous
100
AcDbLine
 10
-594.476798
 20
-89.464548
 30
0.0
 11
-594.476798
 21
-97.17255
 31
0.0
  0
LINE
  5
581
100
AcDbEntity
  8
0
370
    -3
390
0
  6
Continuous
100
AcDbLine
 10
-460.476344
 20
-89.464548
 30
0.0
 11
-460.476344
 21
-97.17255
 31
0.0
  0
LINE
  5
582
100
AcDbEntity
  8
0
370
    -3
390
0
  6
Continuous
100
AcDbLine
 10
-460.476344
 20
-89.464548
 30
0.0
 11
-464.476344
 21
-89.464548
 31
0.0
  0
ARC
  5
583
100
AcDbEntity
  8
0
370
    -3
390
0
  6
Continuous
100
AcDbCircle
 10
-550.759757
 20
-123.046481
 30
0.0
 40
50.8
100
AcDbArc
 50
149.380832
 51
175.66015
  0
ARC
  5
584
100
AcDbEntity
  8
0
370
    -3
390
0
  6
Continuous
100
AcDbCircle
 10
-504.193385
 20
-123.046481
 30
0.0
 40
50.8
100
AcDbArc
 50
4.33985
 51
30.619168
  0
LINE
  5
585
100
AcDbEntity
  8
0
370
    -3
390
0
  6
Continuous
100
AcDbLine
 10
-558.476571
 20
-226.364548
 30
0.0
 11
-496.476571
 21
-226.364548
 31
0.0
  0
LINE
  5
586
100
AcDbEntity
  8
0
370
    -3
390
0
  6
Continuous
100
AcDbLine
 10
-496.476571
 20
-227.964548
 30
0.0
 11
-496.476571
 21
-226.364548
 31
0.0
  0
LINE
  5
587
100
AcDbEntity
  8
0
370
    -3
390
0
  6
Continuous
100
AcDbLine
 10
-527.476571
 20
-227.964548
 30
0.0
 11
-496.476571
 21
-227.964548
 31
0.0
  0
LINE
  5
588
100
AcDbEntity
  8
0
370
    -3
390
0
  6
Continuous
100
AcDbLine
 10
-527.476571
 20
-227.964548
 30
0.0
 11
-558.476571
 21
-227.964548
 31
0.0
  0
LINE
  5
589
100
AcDbEntity
  8
0
370
    -3
390
0
  6
Continuous
100
AcDbLine
 10
-558.476571
 20
-227.964548
 30
0.0
 11
-558.476571
 21
-226.364548
 31
0.0
  0
ARC
  5
58A
100
AcDbEntity
  8
0
370
    -3
390
0
  6
Continuous
100
AcDbCircle
 10
-485.900245
 20
-233.234648
 30
0.0
 40
1.0
100
AcDbArc
 50
294.0
 51
24.0
  0
LINE
  5
58B
100
AcDbEntity
  8
0
370
    -3
390
0
  6
Continuous
100
AcDbLine
 10
-584.103313
 20
-273.892489
 30
0.0
 11
-585.811607
 21
-270.055598
 31
0.0
  0
LINE
  5
58C
100
AcDbEntity
  8
0
370
    -3
390
0
  6
Continuous
100
AcDbLine
 10
-581.088613
 20
-272.550258
 30
0.0
 11
-582.796907
 21
-268.713367
 31
0.0
  0
LINE
  5
58D
100
AcDbEntity
  8
0
370
    -3
390
0
  6
Continuous
100
AcDbLine
 10
-582.334808
 20
-268.89075
 30
0.0
 11
-582.796907
 21
-268.713367
 31
0.0
  0
LINE
  5
58E
100
AcDbEntity
  8
0
370
    -3
390
0
  6
Continuous
100
AcDbLine
 10
-585.98899
 20
-270.517697
 30
0.0
 11
-585.811607
 21
-270.055598
 31
0.0
  0
LINE
  5
58F
100
AcDbEntity
  8
0
370
    -3
390
0
  6
Continuous
100
AcDbLine
 10
-582.796907
 20
-268.713367
 30
0.0
 11
-585.811607
 21
-270.055598
 31
0.0
  0
POINT
  5
590
100
AcDbEntity
  8
0
370
    -3
390
0
  6
Continuous
100
AcDbPoint
 10
-581.050364
 20
-276.692847
 30
0.0
  0
LINE
  5
591
100
AcDbEntity
  8
0
370
    -3
390
0
  6
Continuous
100
AcDbLine
 10
-577.852954
 20
-275.269268
 30
0.0
 11
-584.247773
 21
-278.116425
 31
0.0
  0
LINE
  5
592
100
AcDbEntity
  8
0
370
    -3
390
0
  6
Continuous
100
AcDbLine
 10
-577.852954
 20
-275.269268
 30
0.0
 11
-584.247773
 21
-278.116425
 31
0.0
  0
LINE
  5
593
100
AcDbEntity
  8
0
370
    -3
390
0
  6
Continuous
100
AcDbLine
 10
-584.247773
 20
-278.116425
 30
0.0
 11
-583.849567
 21
-279.010809
 31
0.0
  0
LINE
  5
594
100
AcDbEntity
  8
0
370
    -3
390
0
  6
Continuous
100
AcDbLine
 10
-577.852954
 20
-275.269268
 30
0.0
 11
-577.454749
 21
-276.163652
 31
0.0
  0
ARC
  5
595
100
AcDbEntity
  8
0
370
    -3
390
0
  6
Continuous
100
AcDbCircle
 10
-578.642357
 20
-276.69241
 30
0.0
 40
1.299999
100
AcDbArc
 50
310.601531
 51
24.000001
  0
LINE
  5
596
100
AcDbEntity
  8
0
370
    -3
390
0
  6
Continuous
100
AcDbLine
 10
-487.819058
 20
-231.023977
 30
0.0
 11
-488.8199
 21
-230.599145
 31
0.0
  0
LINE
  5
597
100
AcDbEntity
  8
0
370
    -3
390
0
  6
Continuous
100
AcDbLine
 10
-488.818351
 20
-231.468891
 30
0.0
 11
-489.132485
 21
-231.335549
 31
0.0
  0
LINE
  5
598
100
AcDbEntity
  8
0
370
    -3
390
0
  6
Continuous
100
AcDbLine
 10
-488.8199
 20
-230.599145
 30
0.0
 11
-489.132485
 21
-231.335549
 31
0.0
  0
LINE
  5
599
100
AcDbEntity
  8
0
370
    -3
390
0
  6
Continuous
100
AcDbLine
 10
-485.493509
 20
-234.148194
 30
0.0
 11
-527.476571
 21
-252.840257
 31
0.0
  0
ARC
  5
59A
100
AcDbEntity
  8
0
370
    -3
390
0
  6
Continuous
100
AcDbCircle
 10
-488.276364
 20
-238.671109
 30
0.0
 40
3.0
100
AcDbArc
 50
114.0
 51
170.681877
  0
LINE
  5
59B
100
AcDbEntity
  8
0
370
    -3
390
0
  6
Continuous
100
AcDbLine
 10
-491.236778
 20
-238.185362
 30
0.0
 11
-495.495607
 21
-264.140999
 31
0.0
  0
ARC
  5
59C
100
AcDbEntity
  8
0
370
    -3
390
0
  6
Continuous
100
AcDbCircle
 10
-510.297675
 20
-261.712259
 30
0.0
 40
15.0
100
AcDbArc
 50
271.682769
 51
350.681877
  0
ARC
  5
59D
100
AcDbEntity
  8
0
370
    -3
390
0
  6
Continuous
100
AcDbCircle
 10
-527.476571
 20
323.035452
 30
0.0
 40
600.0
100
AcDbArc
 50
265.284875
 51
271.682769
  0
ARC
  5
59E
100
AcDbEntity
  8
0
370
    -3
390
0
  6
Continuous
100
AcDbCircle
 10
-576.87973
 20
-275.930597
 30
0.0
 40
1.0
100
AcDbArc
 50
85.284875
 51
114.0
  0
LINE
  5
59F
100
AcDbEntity
  8
0
370
    -3
390
0
  6
Continuous
100
AcDbLine
 10
-484.9867
 20
-232.827912
 30
0.0
 11
-486.125562
 21
-230.269984
 31
0.0
  0
LINE
  5
5A0
100
AcDbEntity
  8
0
370
    -3
390
0
  6
Continuous
100
AcDbLine
 10
-491.241417
 20
-232.547709
 30
0.0
 11
-492.04433
 21
-230.744338
 31
0.0
  0
ARC
  5
5A1
100
AcDbEntity
  8
0
370
    -3
390
0
  6
Continuous
100
AcDbCircle
 10
-494.784966
 20
-231.964548
 30
0.0
 40
3.0
100
AcDbArc
 50
24.0
 51
90.0
  0
LINE
  5
5A2
100
AcDbEntity
  8
0
370
    -3
390
0
  6
Continuous
100
AcDbLine
 10
-496.476571
 20
-227.964548
 30
0.0
 11
-496.476571
 21
-228.964548
 31
0.0
  0
ARC
  5
5A3
100
AcDbEntity
  8
0
370
    -3
390
0
  6
Continuous
100
AcDbCircle
 10
-568.976571
 20
-233.964548
 30
0.0
 40
5.0
100
AcDbArc
 50
90.0
 51
180.0
  0
LINE
  5
5A4
100
AcDbEntity
  8
0
370
    -3
390
0
  6
Continuous
100
AcDbLine
 10
-573.976571
 20
-233.964548
 30
0.0
 11
-573.976571
 21
-269.383773
 31
0.0
  0
LINE
  5
5A5
100
AcDbEntity
  8
0
370
    -3
390
0
  6
Continuous
100
AcDbLine
 10
-587.669209
 20
-278.54511
 30
0.0
 11
-588.808072
 21
-275.987183
 31
0.0
  0
ARC
  5
5A6
100
AcDbEntity
  8
0
370
    -3
390
0
  6
Continuous
100
AcDbCircle
 10
-586.755664
 20
-278.138374
 30
0.0
 40
1.0
100
AcDbArc
 50
204.0
 51
294.0
  0
LINE
  5
5A7
100
AcDbEntity
  8
0
370
    -3
390
0
  6
Continuous
100
AcDbLine
 10
-527.476571
 20
-252.840257
 30
0.0
 11
-586.348927
 21
-279.051919
 31
0.0
  0
ARC
  5
5A8
100
AcDbEntity
  8
0
370
    -3
390
0
  6
Continuous
100
AcDbCircle
 10
-574.248809
 20
-274.759235
 30
0.0
 40
1.0
100
AcDbArc
 50
24.0
 51
114.0
  0
ARC
  5
5A9
100
AcDbEntity
  8
0
370
    -3
390
0
  6
Continuous
100
AcDbCircle
 10
-571.599205
 20
-273.334562
 30
0.0
 40
2.0
100
AcDbArc
 50
204.0
 51
265.768662
  0
LINE
  5
5AA
100
AcDbEntity
  8
0
370
    -3
390
0
  6
Continuous
100
AcDbLine
 10
-580.768872
 20
-272.4079
 30
0.0
 11
-582.334808
 21
-268.89075
 31
0.0
  0
LINE
  5
5AB
100
AcDbEntity
  8
0
370
    -3
390
0
  6
Continuous
100
AcDbLine
 10
-584.423054
 20
-274.034847
 30
0.0
 11
-585.98899
 21
-270.517697
 31
0.0
  0
LINE
  5
5AC
100
AcDbEntity
  8
0
370
    -3
390
0
  6
Continuous
100
AcDbLine
 10
-558.476571
 20
-227.964548
 30
0.0
 11
-558.476571
 21
-228.964548
 31
0.0
  0
LINE
  5
5AD
100
AcDbEntity
  8
0
370
    -3
390
0
  6
Continuous
100
AcDbLine
 10
-494.784966
 20
-228.964548
 30
0.0
 11
-568.976571
 21
-228.964548
 31
0.0
  0
LINE
  5
5AE
100
AcDbEntity
  8
0
370
    -3
390
0
  6
Continuous
100
AcDbLine
 10
-496.476571
 20
-227.964548
 30
0.0
 11
-558.476571
 21
-227.964548
 31
0.0
  0
LINE
  5
5AF
100
AcDbEntity
  8
0
370
    -3
390
0
  6
Continuous
100
AcDbLine
 10
-486.125562
 20
-230.269984
 30
0.0
 11
-588.808072
 21
-275.987183
 31
0.0
  0
LINE
  5
5B0
100
AcDbEntity
  8
0
370
    -3
390
0
  6
CENTER
100
AcDbLine
 10
-559.594047
 20
-252.964548
 30
0.0
 11
-582.462556
 21
-252.964548
 31
0.0
  0
ARC
  5
5B1
100
AcDbEntity
  8
0
370
    -3
390
0
  6
Continuous
100
AcDbCircle
 10
-582.661959
 20
-278.482052
 30
0.0
 40
1.299999
100
AcDbArc
 50
203.999982
 51
277.398452
  0
ARC
  5
5B2
100
AcDbEntity
  8
0
370
    -3
390
0
  6
Continuous
100
AcDbCircle
 10
-583.653478
 20
-270.846156
 30
0.0
 40
9.0
100
AcDbArc
 50
277.398452
 51
310.601531
  0
ARC
  5
5B3
100
AcDbEntity
  8
0
370
    -3
390
0
  6
Continuous
100
AcDbCircle
 10
-508.558504
 20
-165.247734
 30
0.0
 40
50.8
100
AcDbArc
 50
277.503709
 51
309.094568
  0
ARC
  5
5B4
100
AcDbEntity
  8
0
370
    -3
390
0
  6
Continuous
100
AcDbCircle
 10
-546.394638
 20
-165.247734
 30
0.0
 40
50.8
100
AcDbArc
 50
230.905432
 51
262.496291
  0
ARC
  5
5B5
100
AcDbEntity
  8
0
370
    -3
390
0
  6
Continuous
100
AcDbCircle
 10
-527.476571
 20
-141.964548
 30
0.0
 40
80.8
100
AcDbArc
 50
309.094568
 51
320.905432
  0
ARC
  5
5B6
100
AcDbEntity
  8
0
370
    -3
390
0
  6
Continuous
100
AcDbCircle
 10
-504.193385
 20
-160.882615
 30
0.0
 40
50.8
100
AcDbArc
 50
320.905432
 51
355.66015
  0
ARC
  5
5B7
100
AcDbEntity
  8
0
370
    -3
390
0
  6
Continuous
100
AcDbCircle
 10
-753.476571
 20
-141.964548
 30
0.0
 40
300.8
100
AcDbArc
 50
355.66015
 51
0.0
  0
ARC
  5
5B8
100
AcDbEntity
  8
0
370
    -3
390
0
  6
Continuous
100
AcDbCircle
 10
-527.476571
 20
-141.964548
 30
0.0
 40
80.8
100
AcDbArc
 50
219.094568
 51
230.905432
  0
ARC
  5
5B9
100
AcDbEntity
  8
0
370
    -3
390
0
  6
Continuous
100
AcDbCircle
 10
-301.476571
 20
-141.964548
 30
0.0
 40
300.8
100
AcDbArc
 50
175.66015
 51
180.0
  0
ARC
  5
5BA
100
AcDbEntity
  8
0
370
    -3
390
0
  6
Continuous
100
AcDbCircle
 10
-550.759757
 20
-160.882615
 30
0.0
 40
50.8
100
AcDbArc
 50
184.33985
 51
219.094568
  0
ARC
  5
5BB
100
AcDbEntity
  8
0
370
    -3
390
0
  6
Continuous
100
AcDbCircle
 10
-301.476571
 20
-141.964548
 30
0.0
 40
300.8
100
AcDbArc
 50
180.0
 51
184.33985
  0
ARC
  5
5BC
100
AcDbEntity
  8
0
370
    -3
390
0
  6
Continuous
100
AcDbCircle
 10
-753.476571
 20
-141.964548
 30
0.0
 40
300.8
100
AcDbArc
 50
360.0
 51
4.33985
  0
LINE
  5
5BD
100
AcDbEntity
  8
0
370
    -3
390
0
  6
Continuous
100
AcDbLine
 10
-590.476798
 20
-65.964548
 30
0.0
 11
-590.476798
 21
-91.373202
 31
0.0
  0
LINE
  5
5BE
100
AcDbEntity
  8
0
370
    -3
390
0
  6
Continuous
100
AcDbLine
 10
-590.476798
 20
-65.964548
 30
0.0
 11
-585.476798
 21
-65.964548
 31
0.0
  0
LINE
  5
5BF
100
AcDbEntity
  8
0
370
    -3
390
0
  6
Continuous
100
AcDbLine
 10
-464.476344
 20
-65.964548
 30
0.0
 11
-469.476344
 21
-65.964548
 31
0.0
  0
LINE
  5
5C0
100
AcDbEntity
  8
0
370
    -3
390
0
  6
Continuous
100
AcDbLine
 10
-464.476344
 20
-65.964548
 30
0.0
 11
-464.476344
 21
-91.373202
 31
0.0
  0
LINE
  5
5C1
100
AcDbEntity
  8
0
370
    -3
390
0
  6
Continuous
100
AcDbLine
 10
-469.973783
 20
-46.349791
 30
0.0
 11
-469.476344
 21
-46.884173
 31
0.0
  0
LINE
  5
5C2
100
AcDbEntity
  8
0
370
    -3
390
0
  6
Continuous
100
AcDbLine
 10
-469.476344
 20
-80.080737
 30
0.0
 11
-469.476344
 21
-46.884173
 31
0.0
  0
LINE
  5
5C3
100
AcDbEntity
  8
0
370
    -3
390
0
  6
Continuous
100
AcDbLine
 10
-469.973783
 20
-46.349791
 30
0.0
 11
-482.476116
 21
-45.453403
 31
0.0
  0
LINE
  5
5C4
100
AcDbEntity
  8
0
370
    -3
390
0
  6
CENTER
100
AcDbLine
 10
-446.759585
 20
-141.964548
 30
0.0
 11
-608.501905
 21
-141.964548
 31
0.0
  0
LINE
  5
5C5
100
AcDbEntity
  8
0
370
    -3
390
0
  6
Continuous
100
AcDbLine
 10
-585.476344
 20
-46.964548
 30
0.0
 11
-585.476344
 21
-80.080503
 31
0.0
  0
LINE
  5
5C6
100
AcDbEntity
  8
0
370
    -3
390
0
  6
Continuous
100
AcDbLine
 10
-575.976344
 20
-46.964548
 30
0.0
 11
-585.476344
 21
-46.964548
 31
0.0
  0
LINE
  5
5C7
100
AcDbEntity
  8
0
370
    -3
390
0
  6
Continuous
100
AcDbLine
 10
-482.476116
 20
-45.464548
 30
0.0
 11
-576.476344
 21
-46.964548
 31
0.0
  0
LINE
  5
5C8
100
AcDbEntity
  8
0
370
    -3
390
0
  6
Continuous
100
AcDbLine
 10
-482.476116
 20
-75.088369
 30
0.0
 11
-482.476116
 21
-45.453403
 31
0.0
  0
LINE
  5
5C9
100
AcDbEntity
  8
0
370
    -3
390
0
  6
CENTER
100
AcDbLine
 10
-527.476571
 20
-281.920843
 30
0.0
 11
-527.476571
 21
-41.106503
 31
0.0
  0
LINE
  5
5CA
100
AcDbEntity
  8
0
370
    -3
390
0
  6
Continuous
100
AcDbLine
 10
-501.876571
 20
-216.164548
 30
0.0
 11
-501.876571
 21
-224.764548
 31
0.0
  0
ARC
  5
5CB
100
AcDbEntity
  8
0
370
    -3
390
0
  6
Continuous
100
AcDbCircle
 10
-500.276571
 20
-224.764548
 30
0.0
 40
1.6
100
AcDbArc
 50
180.0
 51
270.0
  0
ARC
  5
5CC
100
AcDbEntity
  8
0
370
    -3
390
0
  6
Continuous
100
AcDbCircle
 10
-505.076571
 20
-216.164548
 30
0.0
 40
3.2
100
AcDbArc
 50
0.0
 51
9.93038
  0
ARC
  5
5CD
100
AcDbEntity
  8
0
370
    -3
390
0
  6
Continuous
100
AcDbCircle
 10
-554.676571
 20
-224.764548
 30
0.0
 40
1.6
100
AcDbArc
 50
270.0
 51
0.0
  0
LINE
  5
5CE
100
AcDbEntity
  8
0
370
    -3
390
0
  6
Continuous
100
AcDbLine
 10
-553.076571
 20
-215.606366
 30
0.0
 11
-553.076571
 21
-224.764548
 31
0.0
  0
ENDSEC
  0
SECTION
  2
OBJECTS
  0
DICTIONARY
  5
19
100
AcDbDictionary
280
     0
281
     1
  3
ACAD_GROUP
350
1A
  3
ACAD_MLINESTYLE
350
1B
  3
ACAD_LAYOUT
350
1E
  3
ACAD_PLOTSETTINGS
350
22
  3
ACAD_PLOTSTYLENAME
350
1F
  3
ACAD_WIPEOUT_VARS
350
23
  3
DWGPROPS
350
5CF
  0
DICTIONARY
  5
1A
102
{ACAD_REACTORS
330
19
102
}
100
AcDbDictionary
280
     0
281
     1
  0
DICTIONARY
  5
1B
102
{ACAD_REACTORS
330
19
102
}
100
AcDbDictionary
280
     0
281
     1
  3
Standard
350
1C
  0
MLINESTYLE
  5
1C
102
{ACAD_REACTORS
330
1B
102
}
100
AcDbMlineStyle
  2
Standard
 70
     0
  3

 62
     0
 51
90.0
 52
90.0
 71
     2
 49
0.5
 62
   256
  6
ByLayer
 49
-0.5
 62
   256
  6
ByLayer
  0
ACDBDICTIONARYWDFLT
  5
1F
102
{ACAD_REACTORS
330
19
102
}
100
AcDbDictionary
281
     1
  3
Normal
350
1D
100
AcDbDictionaryWithDefault
340
1D
  0
ACDBPLACEHOLDER
  5
1D
102
{ACAD_REACTORS
330
1F
102
}
  0
LAYOUT
  5
20
102
{ACAD_REACTORS
330
1E
102
}
100
AcDbPlotSettings
  1

  2

  4

  6

 40
0.0
 41
0.0
 42
0.0
 43
0.0
 44
0.0
 45
0.0
 46
0.0
 47
0.0
 48
0.0
 49
0.0
140
0.0
141
0.0
142
1.0
143
1.0
 70
  1024
 72
     0
 73
     0
 74
     0
  7

 75
     0
147
1.0
148
0.0
149
0.0
100
AcDbLayout
  1
Model
 70
     0
 71
     0
 10
0.0
 20
0.0
 11
0.0
 21
0.0
 12
0.0
 22
0.0
 32
0.0
 14
0.0
 24
0.0
 34
0.0
 15
0.0
 25
0.0
 35
0.0
146
0.0
 13
0.0
 23
0.0
 33
0.0
 16
0.0
 26
0.0
 36
0.0
 17
0.0
 27
0.0
 37
0.0
 76
     0
330
A
331
0
345
0
346
0
  0
LAYOUT
  5
21
102
{ACAD_REACTORS
330
1E
102
}
100
AcDbPlotSettings
  1

  2

  4

  6

 40
0.0
 41
0.0
 42
0.0
 43
0.0
 44
0.0
 45
0.0
 46
0.0
 47
0.0
 48
0.0
 49
0.0
140
0.0
141
0.0
142
1.0
143
1.0
 70
     0
 72
     0
 73
     0
 74
     0
  7

 75
     0
147
1.0
148
0.0
149
0.0
100
AcDbLayout
  1
Layout1
 70
     0
 71
     0
 10
0.0
 20
0.0
 11
0.0
 21
0.0
 12
0.0
 22
0.0
 32
0.0
 14
0.0
 24
0.0
 34
0.0
 15
0.0
 25
0.0
 35
0.0
146
0.0
 13
0.0
 23
0.0
 33
0.0
 16
0.0
 26
0.0
 36
0.0
 17
0.0
 27
0.0
 37
0.0
 76
     0
330
B
331
0
345
0
346
0
  0
DICTIONARY
  5
1E
102
{ACAD_REACTORS
330
19
102
}
100
AcDbDictionary
280
     0
281
     1
  3
Layout1
350
21
  3
Model
350
20
  0
DICTIONARY
  5
22
102
{ACAD_REACTORS
330
19
102
}
100
AcDbDictionary
280
     0
281
     1
  0
WIPEOUTVARIABLES
  5
23
100
AcDbWipeoutVariables
 70
     1
  0
XRECORD
  5
5CF
100
AcDbXrecord
280
     1
  1
DWGPROPS COOKIE
  2

  3

  4

  6

  7

  8
YP81315
  9

300
=
301
=
302
=
303
=
304
=
305
=
306
=
307
=
308
=
309
=
 40
0.0
 41
2456812.586111
 42
2456812.586111
  1

 90
        0
  0
ENDSEC
  0
EOF
