  0
SECTION
  2
HEADER
  9
$ACADVER
  1
AC1015
  9
$ACADMAINTVER
 70
     6
  9
$DWGCODEPAGE
  3
ANSI_932
  9
$INSBASE
 10
0.0
 20
0.0
 30
0.0
  9
$EXTMIN
 10
1.000000E+20
 20
1.000000E+20
 30
1.000000E+20
  9
$EXTMAX
 10
-1.000000E+20
 20
-1.000000E+20
 30
-1.000000E+20
  9
$LIMMIN
 10
0.0
 20
0.0
  9
$LIMMAX
 10
0.0
 20
0.0
  9
$ORTHOMODE
 70
     0
  9
$REGENMODE
 70
     1
  9
$FILLMODE
 70
     1
  9
$QTEXTMODE
 70
     0
  9
$MIRRTEXT
 70
     1
  9
$LTSCALE
 40
1.0
  9
$ATTMODE
 70
     1
  9
$TEXTSIZE
 40
3.2
  9
$TRACEWID
 40
0.05
  9
$TEXTSTYLE
  7
Standard
  9
$CLAYER
  8
0
  9
$CELTYPE
  6
Continuous
  9
$CECOLOR
 62
   256
  9
$CELTSCALE
 40
1.0
  9
$DISPSILH
 70
     0
  9
$DIMSCALE
 40
1.0
  9
$DIMASZ
 40
3.863703
  9
$DIMEXO
 40
1.0
  9
$DIMDLI
 40
0.38
  9
$DIMRND
 40
0.0
  9
$DIMDLE
 40
0.0
  9
$DIMEXE
 40
2.0
  9
$DIMTP
 40
0.0
  9
$DIMTM
 40
0.0
  9
$DIMTXT
 40
3.2
  9
$DIMCEN
 40
0.09
  9
$DIMTSZ
 40
0.0
  9
$DIMTOL
 70
     0
  9
$DIMLIM
 70
     0
  9
$DIMTIH
 70
     1
  9
$DIMTOH
 70
     1
  9
$DIMSE1
 70
     0
  9
$DIMSE2
 70
     0
  9
$DIMTAD
 70
     1
  9
$DIMZIN
 70
     0
  9
$DIMBLK
  1

  9
$DIMASO
 70
     1
  9
$DIMSHO
 70
     1
  9
$DIMPOST
  1

  9
$DIMAPOST
  1

  9
$DIMALT
 70
     0
  9
$DIMALTD
 70
     2
  9
$DIMALTF
 40
25.4
  9
$DIMLFAC
 40
1.0
  9
$DIMTOFL
 70
     0
  9
$DIMTVP
 40
0.0
  9
$DIMTIX
 70
     0
  9
$DIMSOXD
 70
     0
  9
$DIMSAH
 70
     0
  9
$DIMBLK1
  1

  9
$DIMBLK2
  1

  9
$DIMSTYLE
  2
Standard
  9
$DIMCLRD
 70
     0
  9
$DIMCLRE
 70
     0
  9
$DIMCLRT
 70
     0
  9
$DIMTFAC
 40
0.625
  9
$DIMGAP
 40
0.09
  9
$DIMJUST
 70
     0
  9
$DIMSD1
 70
     0
  9
$DIMSD2
 70
     0
  9
$DIMTOLJ
 70
     1
  9
$DIMTZIN
 70
     0
  9
$DIMALTZ
 70
     0
  9
$DIMALTTZ
 70
     0
  9
$DIMUPT
 70
     0
  9
$DIMDEC
 70
     4
  9
$DIMTDEC
 70
     4
  9
$DIMALTU
 70
     2
  9
$DIMALTTD
 70
     2
  9
$DIMTXSTY
  7
Standard
  9
$DIMAUNIT
 70
     0
  9
$DIMADEC
 70
     0
  9
$DIMALTRND
 40
0.0
  9
$DIMAZIN
 70
     0
  9
$DIMDSEP
 70
     0
  9
$DIMATFIT
 70
     3
  9
$DIMFRAC
 70
     0
  9
$DIMLDRBLK
  1

  9
$DIMLUNIT
 70
     2
  9
$DIMLWD
 70
     0
  9
$DIMLWE
 70
     0
  9
$DIMTMOVE
 70
     0
  9
$LUNITS
 70
     2
  9
$LUPREC
 70
     3
  9
$SKETCHINC
 40
0.1
  9
$FILLETRAD
 40
0.0
  9
$AUNITS
 70
     0
  9
$AUPREC
 70
     0
  9
$MENU
  1
acad
  9
$ELEVATION
 40
0.0
  9
$PELEVATION
 40
0.0
  9
$THICKNESS
 40
0.0
  9
$LIMCHECK
 70
     0
  9
$CHAMFERA
 40
0.0
  9
$CHAMFERB
 40
0.0
  9
$CHAMFERC
 40
0.0
  9
$CHAMFERD
 40
0.0
  9
$SKPOLY
 70
     0
  9
$TDCREATE
 40
0.000000000
  9
$TDUCREATE
 40
0.000000000
  9
$TDUPDATE
 40
0.000000000
  9
$TDUUPDATE
 40
0.000000000
  9
$TDINDWG
 40
0.0000000000
  9
$TDUSRTIMER
 40
0.0000000000
  9
$USRTIMER
 70
     1
  9
$ANGBASE
 50
0.0
  9
$ANGDIR
 70
     0
  9
$PDMODE
 70
     0
  9
$PDSIZE
 40
0.0
  9
$PLINEWID
 40
0.0
  9
$SPLFRAME
 70
     0
  9
$SPLINETYPE
 70
     6
  9
$SPLINESEGS
 70
     8
  9
$HANDSEED
  5
7DE
  9
$SURFTAB1
 70
     6
  9
$SURFTAB2
 70
     6
  9
$SURFTYPE
 70
     6
  9
$SURFU
 70
     6
  9
$SURFV
 70
     6
  9
$UCSBASE
  2

  9
$UCSNAME
  2

  9
$UCSORG
 10
0.0
 20
0.0
 30
0.0
  9
$UCSXDIR
 10
1.0
 20
0.0
 30
0.0
  9
$UCSYDIR
 10
0.0
 20
1.0
 30
0.0
  9
$UCSORTHOREF
  2

  9
$UCSORTHOVIEW
 70
     0
  9
$UCSORGTOP
 10
0.0
 20
0.0
 30
0.0
  9
$UCSORGBOTTOM
 10
0.0
 20
0.0
 30
0.0
  9
$UCSORGLEFT
 10
0.0
 20
0.0
 30
0.0
  9
$UCSORGRIGHT
 10
0.0
 20
0.0
 30
0.0
  9
$UCSORGFRONT
 10
0.0
 20
0.0
 30
0.0
  9
$UCSORGBACK
 10
0.0
 20
0.0
 30
0.0
  9
$PUCSBASE
  2

  9
$PUCSNAME
  2

  9
$PUCSORG
 10
0.0
 20
0.0
 30
0.0
  9
$PUCSXDIR
 10
1.0
 20
0.0
 30
0.0
  9
$PUCSYDIR
 10
0.0
 20
1.0
 30
0.0
  9
$PUCSORTHOREF
  2

  9
$PUCSORTHOVIEW
 70
     0
  9
$PUCSORGTOP
 10
0.0
 20
0.0
 30
0.0
  9
$PUCSORGBOTTOM
 10
0.0
 20
0.0
 30
0.0
  9
$PUCSORGLEFT
 10
0.0
 20
0.0
 30
0.0
  9
$PUCSORGRIGHT
 10
0.0
 20
0.0
 30
0.0
  9
$PUCSORGFRONT
 10
0.0
 20
0.0
 30
0.0
  9
$PUCSORGBACK
 10
0.0
 20
0.0
 30
0.0
  9
$USERI1
 70
     0
  9
$USERI2
 70
     0
  9
$USERI3
 70
     0
  9
$USERI4
 70
     0
  9
$USERI5
 70
     0
  9
$USERR1
 40
0.0
  9
$USERR2
 40
0.0
  9
$USERR3
 40
0.0
  9
$USERR4
 40
0.0
  9
$USERR5
 40
0.0
  9
$WORLDVIEW
 70
     1
  9
$SHADEDGE
 70
     3
  9
$SHADEDIF
 70
    70
  9
$TILEMODE
 70
     1
  9
$MAXACTVP
 70
    16
  9
$PINSBASE
 10
0.0
 20
0.0
 30
0.0
  9
$PLIMCHECK
 70
     0
  9
$PEXTMIN
 10
1.000000E+20
 20
1.000000E+20
 30
1.000000E+20
  9
$PEXTMAX
 10
-1.000000E+20
 20
-1.000000E+20
 30
-1.000000E+20
  9
$PLIMMIN
 10
0.0
 20
0.0
  9
$PLIMMAX
 10
12.0
 20
9.0
  9
$UNITMODE
 70
     0
  9
$VISRETAIN
 70
     0
  9
$PLINEGEN
 70
     1
  9
$PSLTSCALE
 70
     0
  9
$TREEDEPTH
 70
  3020
  9
$CMLSTYLE
  2
Standard
  9
$CMLJUST
 70
     0
  9
$CMLSCALE
 40
1.0
  9
$PROXYGRAPHICS
 70
     0
  9
$MEASUREMENT
 70
     0
  9
$CELWEIGHT
370
     0
  9
$ENDCAPS
280
     0
  9
$JOINSTYLE
280
     0
  9
$LWDISPLAY
290
     0
  9
$INSUNITS
 70
     0
  9
$HYPERLINKBASE
  1

  9
$STYLESHEET
  1

  9
$XEDIT
290
     1
  9
$CEPSNTYPE
380
     0
  9
$PSTYLEMODE
290
     1
  9
$FINGERPRINTGUID
  2

  9
$VERSIONGUID
  2

  9
$EXTNAMES
290
     1
  9
$PSVPSCALE
 40
0.0
  0
ENDSEC
  0
SECTION
  2
CLASSES
  0
CLASS
  1
LWPOLYLINE
  2
AcDbPolyline
  3
AutoCAD 2000
 90
        0
280
     0
281
     1
  0
CLASS
  1
IMAGE
  2
AcDbRasterImage
  3
ISM
 90
      127
280
     0
281
     1
  0
CLASS
  1
OLE2FRAME
  2
AcDbOle2Frame
  3
AutoCAD 2000
 90
        0
280
     0
281
     1
  0
CLASS
  1
HATCH
  2
AcDbHatch
  3
AutoCAD 2000
 90
        0
280
     0
281
     1
  0
CLASS
  1
DICTIONARYVAR
  2
AcDbDictionaryVar
  3
AutoCAD 2000
 90
        0
280
     0
281
     0
  0
CLASS
  1
RASTERVARIABLES
  2
AcDbRasterVariables
  3
ISM
 90
        0
280
     0
281
     0
  0
CLASS
  1
IMAGEDEF
  2
AcDbRasterImageDef
  3
ISM
 90
        0
280
     0
281
     0
  0
CLASS
  1
IMAGEDEF_REACTOR
  2
AcDbRasterImageDefReactor
  3
ISM
 90
        1
280
     0
281
     0
  0
CLASS
  1
IDBUFFER
  2
AcDbIdBuffer
  3
AutoCAD 2000
 90
        0
280
     0
281
     0
  0
CLASS
  1
SPATIAL_FILTER
  2
AcDbSpatialFilter
  3
AutoCAD 2000
 90
        0
280
     0
281
     0
  0
CLASS
  1
XRECORD
  2
AcDbXrecord
  3
AutoCAD 2000
 90
        0
280
     0
281
     0
  0
CLASS
  1
SORTENTSTABLE
  2
AcDbSortentsTable
  3
AutoCAD 2000
 90
        0
280
     0
281
     0
  0
CLASS
  1
LAYER_INDEX
  2
AcDbLayerIndex
  3
AutoCAD 2000
 90
        0
280
     0
281
     0
  0
CLASS
  1
SPATIAL_INDEX
  2
AcDbSpatialIndex
  3
AutoCAD 2000
 90
        0
280
     0
281
     0
  0
CLASS
  1
OBJECT_PTR
  2
CAseDLPNTableRecord
  3
"ASE-LPNTableRecord"
 90
        1
280
     0
281
     0
  0
CLASS
  1
LAYOUT
  2
AcDbLayout
  3
AutoCAD 2000
 90
        0
280
     0
281
     0
  0
CLASS
  1
PLOTSETTINGS
  2
AcDbPlotSettings
  3
AutoCAD 2000
 90
        0
280
     0
281
     0
  0
CLASS
  1
ACDBDICTIONARYWDFLT
  2
AcDbDictionaryWithDefault
  3
AutoCAD 2000
 90
        0
280
     0
281
     0
  0
CLASS
  1
ACDBPLACEHOLDER
  2
AcDbPlaceHolder
  3
AutoCAD 2000
 90
        0
280
     0
281
     0
  0
CLASS
  1
VBA_PROJECT
  2
AcDbVbaProject
  3
acadvba
 90
        0
280
     0
281
     0
  0
CLASS
  1
WIPEOUT
  2
AcDbWipeout
  3
WipeOut|AutoCAD Express Tool|expresstools@autodesk.com
 90
      127
280
     0
281
     1
  0
CLASS
  1
WIPEOUTVARIABLES
  2
AcDbWipeoutVariables
  3
WipeOut|AutoCAD Express Tool|expresstools@autodesk.com
 90
        0
280
     0
281
     0
  0
CLASS
  1
RTEXT
  2
RText
  3
RText|AutoCAD Express Tool|expresstools@autodesk.com
 90
        0
280
     0
281
     1
  0
CLASS
  1
ARCALIGNEDTEXT
  2
AcDbArcAlignedText
  3
ATEXT|AutoCAD Express Tool|expresstools@autodesk.com
 90
        0
280
     0
281
     1
  0
ENDSEC
  0
SECTION
  2
TABLES
  0
TABLE
  2
VPORT
  5
7
100
AcDbSymbolTable
 70
     1
  0
VPORT
  5
15
100
AcDbSymbolTableRecord
100
AcDbViewportTableRecord
  2
*ACTIVE
 70
     0
 10
0.0
 20
0.0
 11
1.0
 21
1.0
 12
0.0
 22
0.0
 13
0.0
 23
0.0
 14
1.0
 24
1.0
 15
0.0
 25
0.0
 16
0.0
 26
0.0
 36
1.0
 17
0.0
 27
0.0
 37
0.0
 40
100.0
 41
1.0
 42
50.0
 43
0.0
 44
0.0
 50
0.0
 51
0.0
 71
     0
 72
   100
 73
     1
 74
     1
 75
     0
 76
     0
 77
     0
 78
     0
281
     0
 65
     0
110
0.0
120
0.0
130
0.0
111
1.0
121
0.0
131
0.0
112
0.0
122
1.0
132
0.0
345
0
346
0
 79
     0
146
0.0
  0
ENDTAB
  0
TABLE
  2
LTYPE
  5
4
100
AcDbSymbolTable
 70
     7
  0
LTYPE
  5
11
100
AcDbSymbolTableRecord
100
AcDbLinetypeTableRecord
  2
ByBlock
 70
    64
  3

 72
    65
 73
     0
 40
0.0
  0
LTYPE
  5
12
100
AcDbSymbolTableRecord
100
AcDbLinetypeTableRecord
  2
ByLayer
 70
    64
  3

 72
    65
 73
     0
 40
0.0
  0
LTYPE
  5
13
100
AcDbSymbolTableRecord
100
AcDbLinetypeTableRecord
  2
Continuous
 70
    64
  3
Solid line
 72
    65
 73
     0
 40
0.0
  0
LTYPE
  5
24
100
AcDbSymbolTableRecord
100
AcDbLinetypeTableRecord
  2
DASHED
 70
    64
  3
Dashed __ __ __ __ __ __ __ __ __ __ __ __ __ _
 72
    65
 73
     2
 40
0.75
 49
0.5
 74
     0
 49
-0.25
 74
     0
  0
LTYPE
  5
25
100
AcDbSymbolTableRecord
100
AcDbLinetypeTableRecord
  2
CENTER
 70
    64
  3
Center ____ _ ____ _ ____ _ ____ _ ____ _ ____
 72
    65
 73
     4
 40
1.0
 49
0.5
 74
     0
 49
-0.25
 74
     0
 49
0.0
 74
     0
 49
-0.25
 74
     0
  0
LTYPE
  5
26
100
AcDbSymbolTableRecord
100
AcDbLinetypeTableRecord
  2
DIVIDE
 70
    64
  3
Divide ____ . . ____ . . ____ . . ____ . . ____
 72
    65
 73
     6
 40
1.25
 49
0.5
 74
     0
 49
-0.25
 74
     0
 49
0.0
 74
     0
 49
-0.25
 74
     0
 49
0.0
 74
     0
 49
-0.25
 74
     0
  0
LTYPE
  5
27
100
AcDbSymbolTableRecord
100
AcDbLinetypeTableRecord
  2
PHANTOM
 70
    64
  3
Phantom ______  __  __  ______  __  __  ______
 72
    65
 73
     6
 40
9.0
 49
4.3
 74
     0
 49
-0.7
 74
     0
 49
1.3
 74
     0
 49
-0.7
 74
     0
 49
1.3
 74
     0
 49
-0.7
 74
     0
  0
ENDTAB
  0
TABLE
  2
LAYER
  5
2
100
AcDbSymbolTable
 70
     2
  0
LAYER
  5
14
100
AcDbSymbolTableRecord
100
AcDbLayerTableRecord
  2
0
 70
    64
 62
   102
  6
Continuous
290
     1
370
    -3
390
1D
  0
LAYER
  5
28
100
AcDbSymbolTableRecord
100
AcDbLayerTableRecord
  2
1
 70
    64
 62
   102
  6
Continuous
290
     1
370
    -3
390
1D
  0
ENDTAB
  0
TABLE
  2
STYLE
  5
3
100
AcDbSymbolTable
 70
     2
  0
STYLE
  5
17
100
AcDbSymbolTableRecord
100
AcDbTextStyleTableRecord
  2
Standard
 70
     0
 40
0.0
 41
1.0
 50
0.0
 71
     0
 42
0.0
  3
txt
  4

  0
STYLE
  5
43B
100
AcDbSymbolTableRecord
100
AcDbTextStyleTableRecord
  2
ZU_SHPTB00001
 70
     0
 40
0.0
 41
1.0
 50
0.0
 71
     0
 42
0.0
  3
monotxt
  4
bigfont
  0
ENDTAB
  0
TABLE
  2
VIEW
  5
5
100
AcDbSymbolTable
 70
     0
  0
ENDTAB
  0
TABLE
  2
UCS
  5
6
100
AcDbSymbolTable
 70
     0
  0
ENDTAB
  0
TABLE
  2
APPID
  5
8
100
AcDbSymbolTable
 70
     1
  0
APPID
  5
16
100
AcDbSymbolTableRecord
100
AcDbRegAppTableRecord
  2
ACAD
 70
     0
  0
ENDTAB
  0
TABLE
  2
DIMSTYLE
  5
9
100
AcDbSymbolTable
 70
     1
100
AcDbDimStyleTable
 71
     0
  0
DIMSTYLE
105
18
100
AcDbSymbolTableRecord
100
AcDbDimStyleTableRecord
  2
Standard
 70
     0
  3

  4

 40
1.0
 41
0.18
 42
0.0625
 43
0.38
 44
0.18
 45
0.0
 46
0.0
 47
0.0
 48
0.0
 71
     0
 72
     0
 73
     1
 74
     1
 75
     0
 76
     0
 77
     0
 78
     0
 79
     0
140
0.18
141
0.09
142
0.0
143
25.4
144
1.0
145
0.0
146
1.0
147
0.09
148
0.0
170
     0
171
     2
172
     0
173
     0
174
     0
175
     0
176
     0
177
     0
178
     0
179
     0
271
     4
272
     4
273
     2
274
     2
275
     0
276
     0
277
     2
278
    46
279
     0
280
     0
281
     0
282
     0
283
     1
284
     0
285
     0
286
     0
288
     0
289
     3
340
17
341
0
342
0
343
0
344
0
371
    -2
372
    -2
  0
ENDTAB
  0
TABLE
  2
BLOCK_RECORD
  5
1
100
AcDbSymbolTable
 70
     4
  0
BLOCK_RECORD
  5
A
100
AcDbSymbolTableRecord
100
AcDbBlockTableRecord
  2
*MODEL_SPACE
340
20
  0
BLOCK_RECORD
  5
B
100
AcDbSymbolTableRecord
100
AcDbBlockTableRecord
  2
*PAPER_SPACE
340
21
  0
BLOCK_RECORD
  5
672
100
AcDbSymbolTableRecord
100
AcDbBlockTableRecord
  2
ZU_SYM_C__ZUOU_AC_BLOCK_ZU_SYM_C__ZUOU_AC_BLOCK_ZU_SYM__USR_MELCAD_MD_SYM_SYM_SYM1_-1_-1_00
340
0
102
{BLKREFS
331
67D
102
}
  0
BLOCK_RECORD
  5
67E
100
AcDbSymbolTableRecord
100
AcDbBlockTableRecord
  2
ZU_SYM_C__ZUOU_AC_BLOCK_ZU_SYM_C__ZUOU_AC_BLOCK_ZU_SYM__USR_MELCAD_MD_SYM_SYM_SYM2_-1_-1_00
340
0
102
{BLKREFS
331
689
102
}
  0
BLOCK_RECORD
  5
68A
100
AcDbSymbolTableRecord
100
AcDbBlockTableRecord
  2
ZU_SYM_C__ZUOU_AC_BLOCK_ZU_SYM_C__ZUOU_AC_BLOCK_ZU_SYM__USR_MELCAD_MD_SYM_SYM_SYM3_-1_-1_00
340
0
102
{BLKREFS
331
695
102
}
  0
BLOCK_RECORD
  5
696
100
AcDbSymbolTableRecord
100
AcDbBlockTableRecord
  2
ZU_SYM_C__ZUOU_AC_BLOCK_ZU_SYM_C__ZUOU_AC_BLOCK_ZU_SYM__USR_MELCAD_MD_SYM_SYM_SYM4_-1_-1_00
340
0
102
{BLKREFS
331
6A1
102
}
  0
ENDTAB
  0
ENDSEC
  0
SECTION
  2
BLOCKS
  0
BLOCK
  5
D
100
AcDbEntity
  8
0
390
0
100
AcDbBlockBegin
  2
*MODEL_SPACE
 70
     0
 10
0.0
 20
0.0
 30
0.0
  3
*MODEL_SPACE
  1

  0
ENDBLK
  5
E
100
AcDbEntity
  8
0
390
0
100
AcDbBlockEnd
  0
BLOCK
  5
F
100
AcDbEntity
 67
     1
  8
0
390
0
100
AcDbBlockBegin
  2
*PAPER_SPACE
 70
     0
 10
0.0
 20
0.0
 30
0.0
  3
*PAPER_SPACE
  1

  0
ENDBLK
  5
10
100
AcDbEntity
 67
     1
  8
0
390
0
100
AcDbBlockEnd
  0
BLOCK
  5
673
100
AcDbEntity
  8
0
390
0
100
AcDbBlockBegin
  2
ZU_SYM_C__ZUOU_AC_BLOCK_ZU_SYM_C__ZUOU_AC_BLOCK_ZU_SYM__USR_MELCAD_MD_SYM_SYM_SYM1_-1_-1_00
 70
    64
 10
0.0
 20
0.0
 30
0.0
  3
ZU_SYM_C__ZUOU_AC_BLOCK_ZU_SYM_C__ZUOU_AC_BLOCK_ZU_SYM__USR_MELCAD_MD_SYM_SYM_SYM1_-1_-1_00
  1

  0
ARC
  5
674
100
AcDbEntity
  8
0
370
    -3
390
0
  6
Continuous
100
AcDbCircle
 10
-0.979025
 20
-2.200001
 30
0.0
 40
1.299999
100
AcDbArc
 50
196.601531
 51
270.0
  0
ARC
  5
675
100
AcDbEntity
  8
0
370
    -3
390
0
  6
Continuous
100
AcDbCircle
 10
-0.979025
 20
2.200001
 30
0.0
 40
1.299999
100
AcDbArc
 50
90.0
 51
163.398452
  0
LINE
  5
676
100
AcDbEntity
  8
0
370
    -3
390
0
  6
Continuous
100
AcDbLine
 10
0.0
 20
-3.5
 30
0.0
 11
-0.979025
 21
-3.5
 31
0.0
  0
LINE
  5
677
100
AcDbEntity
  8
0
370
    -3
390
0
  6
Continuous
100
AcDbLine
 10
0.0
 20
3.5
 30
0.0
 11
-0.979025
 21
3.5
 31
0.0
  0
LINE
  5
678
100
AcDbEntity
  8
0
370
    -3
390
0
  6
Continuous
100
AcDbLine
 10
0.0
 20
-3.5
 30
0.0
 11
0.0
 21
3.5
 31
0.0
  0
LINE
  5
679
100
AcDbEntity
  8
0
370
    -3
390
0
  6
Continuous
100
AcDbLine
 10
0.0
 20
-3.5
 30
0.0
 11
0.0
 21
3.5
 31
0.0
  0
POINT
  5
67A
100
AcDbEntity
  8
0
370
    -3
390
0
  6
Continuous
100
AcDbPoint
 10
0.0
 20
0.0
 30
0.0
  0
ARC
  5
67B
100
AcDbEntity
  8
0
370
    -3
390
0
  6
Continuous
100
AcDbCircle
 10
6.4
 20
0.0
 30
0.0
 40
9.0
100
AcDbArc
 50
163.398452
 51
196.601531
  0
ENDBLK
  5
67C
100
AcDbEntity
  8
0
390
0
100
AcDbBlockEnd
  0
BLOCK
  5
67F
100
AcDbEntity
  8
0
390
0
100
AcDbBlockBegin
  2
ZU_SYM_C__ZUOU_AC_BLOCK_ZU_SYM_C__ZUOU_AC_BLOCK_ZU_SYM__USR_MELCAD_MD_SYM_SYM_SYM2_-1_-1_00
 70
    64
 10
0.0
 20
0.0
 30
0.0
  3
ZU_SYM_C__ZUOU_AC_BLOCK_ZU_SYM_C__ZUOU_AC_BLOCK_ZU_SYM__USR_MELCAD_MD_SYM_SYM_SYM2_-1_-1_00
  1

  0
ARC
  5
680
100
AcDbEntity
  8
0
370
    -3
390
0
  6
Continuous
100
AcDbCircle
 10
-0.979025
 20
-2.200001
 30
0.0
 40
1.299999
100
AcDbArc
 50
196.601531
 51
270.0
  0
ARC
  5
681
100
AcDbEntity
  8
0
370
    -3
390
0
  6
Continuous
100
AcDbCircle
 10
-0.979025
 20
2.200001
 30
0.0
 40
1.299999
100
AcDbArc
 50
90.0
 51
163.398452
  0
LINE
  5
682
100
AcDbEntity
  8
0
370
    -3
390
0
  6
Continuous
100
AcDbLine
 10
0.0
 20
-3.5
 30
0.0
 11
-0.979025
 21
-3.5
 31
0.0
  0
LINE
  5
683
100
AcDbEntity
  8
0
370
    -3
390
0
  6
Continuous
100
AcDbLine
 10
0.0
 20
3.5
 30
0.0
 11
-0.979025
 21
3.5
 31
0.0
  0
LINE
  5
684
100
AcDbEntity
  8
0
370
    -3
390
0
  6
Continuous
100
AcDbLine
 10
0.0
 20
-3.5
 30
0.0
 11
0.0
 21
3.5
 31
0.0
  0
LINE
  5
685
100
AcDbEntity
  8
0
370
    -3
390
0
  6
Continuous
100
AcDbLine
 10
0.0
 20
-3.5
 30
0.0
 11
0.0
 21
3.5
 31
0.0
  0
POINT
  5
686
100
AcDbEntity
  8
0
370
    -3
390
0
  6
Continuous
100
AcDbPoint
 10
0.0
 20
0.0
 30
0.0
  0
ARC
  5
687
100
AcDbEntity
  8
0
370
    -3
390
0
  6
Continuous
100
AcDbCircle
 10
6.4
 20
0.0
 30
0.0
 40
9.0
100
AcDbArc
 50
163.398452
 51
196.601531
  0
ENDBLK
  5
688
100
AcDbEntity
  8
0
390
0
100
AcDbBlockEnd
  0
BLOCK
  5
68B
100
AcDbEntity
  8
0
390
0
100
AcDbBlockBegin
  2
ZU_SYM_C__ZUOU_AC_BLOCK_ZU_SYM_C__ZUOU_AC_BLOCK_ZU_SYM__USR_MELCAD_MD_SYM_SYM_SYM3_-1_-1_00
 70
    64
 10
0.0
 20
0.0
 30
0.0
  3
ZU_SYM_C__ZUOU_AC_BLOCK_ZU_SYM_C__ZUOU_AC_BLOCK_ZU_SYM__USR_MELCAD_MD_SYM_SYM_SYM3_-1_-1_00
  1

  0
ARC
  5
68C
100
AcDbEntity
  8
0
370
    -3
390
0
  6
Continuous
100
AcDbCircle
 10
-0.979025
 20
-2.200001
 30
0.0
 40
1.299999
100
AcDbArc
 50
196.601531
 51
270.0
  0
ARC
  5
68D
100
AcDbEntity
  8
0
370
    -3
390
0
  6
Continuous
100
AcDbCircle
 10
-0.979025
 20
2.200001
 30
0.0
 40
1.299999
100
AcDbArc
 50
90.0
 51
163.398452
  0
LINE
  5
68E
100
AcDbEntity
  8
0
370
    -3
390
0
  6
Continuous
100
AcDbLine
 10
0.0
 20
-3.5
 30
0.0
 11
-0.979025
 21
-3.5
 31
0.0
  0
LINE
  5
68F
100
AcDbEntity
  8
0
370
    -3
390
0
  6
Continuous
100
AcDbLine
 10
0.0
 20
3.5
 30
0.0
 11
-0.979025
 21
3.5
 31
0.0
  0
LINE
  5
690
100
AcDbEntity
  8
0
370
    -3
390
0
  6
Continuous
100
AcDbLine
 10
0.0
 20
-3.5
 30
0.0
 11
0.0
 21
3.5
 31
0.0
  0
LINE
  5
691
100
AcDbEntity
  8
0
370
    -3
390
0
  6
Continuous
100
AcDbLine
 10
0.0
 20
-3.5
 30
0.0
 11
0.0
 21
3.5
 31
0.0
  0
POINT
  5
692
100
AcDbEntity
  8
0
370
    -3
390
0
  6
Continuous
100
AcDbPoint
 10
0.0
 20
0.0
 30
0.0
  0
ARC
  5
693
100
AcDbEntity
  8
0
370
    -3
390
0
  6
Continuous
100
AcDbCircle
 10
6.4
 20
0.0
 30
0.0
 40
9.0
100
AcDbArc
 50
163.398452
 51
196.601531
  0
ENDBLK
  5
694
100
AcDbEntity
  8
0
390
0
100
AcDbBlockEnd
  0
BLOCK
  5
697
100
AcDbEntity
  8
0
390
0
100
AcDbBlockBegin
  2
ZU_SYM_C__ZUOU_AC_BLOCK_ZU_SYM_C__ZUOU_AC_BLOCK_ZU_SYM__USR_MELCAD_MD_SYM_SYM_SYM4_-1_-1_00
 70
    64
 10
0.0
 20
0.0
 30
0.0
  3
ZU_SYM_C__ZUOU_AC_BLOCK_ZU_SYM_C__ZUOU_AC_BLOCK_ZU_SYM__USR_MELCAD_MD_SYM_SYM_SYM4_-1_-1_00
  1

  0
ARC
  5
698
100
AcDbEntity
  8
0
370
    -3
390
0
  6
Continuous
100
AcDbCircle
 10
-0.979025
 20
-2.200001
 30
0.0
 40
1.299999
100
AcDbArc
 50
196.601531
 51
270.0
  0
ARC
  5
699
100
AcDbEntity
  8
0
370
    -3
390
0
  6
Continuous
100
AcDbCircle
 10
-0.979025
 20
2.200001
 30
0.0
 40
1.299999
100
AcDbArc
 50
90.0
 51
163.398452
  0
LINE
  5
69A
100
AcDbEntity
  8
0
370
    -3
390
0
  6
Continuous
100
AcDbLine
 10
0.0
 20
-3.5
 30
0.0
 11
-0.979025
 21
-3.5
 31
0.0
  0
LINE
  5
69B
100
AcDbEntity
  8
0
370
    -3
390
0
  6
Continuous
100
AcDbLine
 10
0.0
 20
3.5
 30
0.0
 11
-0.979025
 21
3.5
 31
0.0
  0
LINE
  5
69C
100
AcDbEntity
  8
0
370
    -3
390
0
  6
Continuous
100
AcDbLine
 10
0.0
 20
-3.5
 30
0.0
 11
0.0
 21
3.5
 31
0.0
  0
LINE
  5
69D
100
AcDbEntity
  8
0
370
    -3
390
0
  6
Continuous
100
AcDbLine
 10
0.0
 20
-3.5
 30
0.0
 11
0.0
 21
3.5
 31
0.0
  0
POINT
  5
69E
100
AcDbEntity
  8
0
370
    -3
390
0
  6
Continuous
100
AcDbPoint
 10
0.0
 20
0.0
 30
0.0
  0
ARC
  5
69F
100
AcDbEntity
  8
0
370
    -3
390
0
  6
Continuous
100
AcDbCircle
 10
6.4
 20
0.0
 30
0.0
 40
9.0
100
AcDbArc
 50
163.398452
 51
196.601531
  0
ENDBLK
  5
6A0
100
AcDbEntity
  8
0
390
0
100
AcDbBlockEnd
  0
ENDSEC
  0
SECTION
  2
ENTITIES
  0
LINE
  5
29
100
AcDbEntity
  8
0
370
    -3
390
0
  6
Continuous
100
AcDbLine
 10
427.004665
 20
-83.58766
 30
0.0
 11
427.004665
 21
-105.58766
 31
0.0
  0
LINE
  5
2A
100
AcDbEntity
  8
0
370
    -3
390
0
  6
Continuous
100
AcDbLine
 10
427.004665
 20
-105.58766
 30
0.0
 11
423.004665
 21
-105.58766
 31
0.0
  0
LINE
  5
2B
100
AcDbEntity
  8
0
370
    -3
390
0
  6
Continuous
100
AcDbLine
 10
427.004665
 20
-83.58766
 30
0.0
 11
427.004665
 21
-61.58766
 31
0.0
  0
LINE
  5
2C
100
AcDbEntity
  8
0
370
    -3
390
0
  6
Continuous
100
AcDbLine
 10
427.004665
 20
-61.58766
 30
0.0
 11
423.004665
 21
-61.58766
 31
0.0
  0
LINE
  5
2D
100
AcDbEntity
  8
0
370
    -3
390
0
  6
Continuous
100
AcDbLine
 10
313.004443
 20
-83.58766
 30
0.0
 11
313.004443
 21
-105.58766
 31
0.0
  0
LINE
  5
2E
100
AcDbEntity
  8
0
370
    -3
390
0
  6
Continuous
100
AcDbLine
 10
313.004443
 20
-105.58766
 30
0.0
 11
317.004443
 21
-105.58766
 31
0.0
  0
LINE
  5
2F
100
AcDbEntity
  8
0
370
    -3
390
0
  6
Continuous
100
AcDbLine
 10
313.004443
 20
-61.58766
 30
0.0
 11
317.004443
 21
-61.58766
 31
0.0
  0
LINE
  5
30
100
AcDbEntity
  8
0
370
    -3
390
0
  6
Continuous
100
AcDbLine
 10
313.004443
 20
-83.58766
 30
0.0
 11
313.004443
 21
-61.58766
 31
0.0
  0
CIRCLE
  5
31
100
AcDbEntity
  8
0
370
    -3
390
0
  6
Continuous
100
AcDbCircle
 10
-26.266815
 20
-83.58766
 30
0.0
 40
22.0
  0
ARC
  5
32
100
AcDbEntity
  8
0
370
    -3
390
0
  6
Continuous
100
AcDbCircle
 10
-26.266815
 20
-83.58766
 30
0.0
 40
15.0
100
AcDbArc
 50
105.46601
 51
74.53399
  0
LINE
  5
33
100
AcDbEntity
  8
0
370
    -3
390
0
  6
Continuous
100
AcDbLine
 10
-30.266815
 20
-65.28766
 30
0.0
 11
-22.266815
 21
-65.28766
 31
0.0
  0
LINE
  5
34
100
AcDbEntity
  8
0
370
    -3
390
0
  6
Continuous
100
AcDbLine
 10
-22.266815
 20
-65.28766
 30
0.0
 11
-22.266815
 21
-69.130827
 31
0.0
  0
LINE
  5
35
100
AcDbEntity
  8
0
370
    -3
390
0
  6
Continuous
100
AcDbLine
 10
-30.266815
 20
-65.28766
 30
0.0
 11
-30.266815
 21
-69.130827
 31
0.0
  0
ARC
  5
36
100
AcDbEntity
  8
0
370
    -3
390
0
  6
Continuous
100
AcDbCircle
 10
147.307567
 20
-100.5876
 30
0.0
 40
2.0
100
AcDbArc
 50
90.0
 51
180.0
  0
ARC
  5
37
100
AcDbEntity
  8
0
370
    -3
390
0
  6
Continuous
100
AcDbCircle
 10
145.707567
 20
-105.1876
 30
0.0
 40
0.4
100
AcDbArc
 50
180.0
 51
270.0
  0
LINE
  5
38
100
AcDbEntity
  8
0
370
    -3
390
0
  6
Continuous
100
AcDbLine
 10
145.307567
 20
-105.1876
 30
0.0
 11
145.307567
 21
-61.9876
 31
0.0
  0
LINE
  5
39
100
AcDbEntity
  8
0
370
    -3
390
0
  6
Continuous
100
AcDbLine
 10
167.307567
 20
-67.33766
 30
0.0
 11
165.307567
 21
-67.33766
 31
0.0
  0
LINE
  5
3A
100
AcDbEntity
  8
0
370
    -3
390
0
  6
Continuous
100
AcDbLine
 10
167.307567
 20
-67.33766
 30
0.0
 11
167.307567
 21
-83.5876
 31
0.0
  0
LINE
  5
3B
100
AcDbEntity
  8
0
370
    -3
390
0
  6
Continuous
100
AcDbLine
 10
165.307567
 20
-68.5876
 30
0.0
 11
147.307567
 21
-68.5876
 31
0.0
  0
ARC
  5
3C
100
AcDbEntity
  8
0
370
    -3
390
0
  6
Continuous
100
AcDbCircle
 10
160.907838
 20
-61.1876
 30
0.0
 40
0.4
100
AcDbArc
 50
270.0
 51
350.405932
  0
LINE
  5
3D
100
AcDbEntity
  8
0
370
    -3
390
0
  6
Continuous
100
AcDbLine
 10
160.907838
 20
-61.5876
 30
0.0
 11
145.707567
 21
-61.5876
 31
0.0
  0
ARC
  5
3E
100
AcDbEntity
  8
0
370
    -3
390
0
  6
Continuous
100
AcDbCircle
 10
145.707567
 20
-61.9876
 30
0.0
 40
0.4
100
AcDbArc
 50
90.0
 51
180.0
  0
ARC
  5
3F
100
AcDbEntity
  8
0
370
    -3
390
0
  6
Continuous
100
AcDbCircle
 10
147.307567
 20
-66.5876
 30
0.0
 40
2.0
100
AcDbArc
 50
180.0
 51
270.0
  0
LINE
  5
40
100
AcDbEntity
  8
0
370
    -3
390
0
  6
Continuous
100
AcDbLine
 10
174.80784
 20
-61.087617
 30
0.0
 11
161.80784
 21
-61.087632
 31
0.0
  0
ARC
  5
41
100
AcDbEntity
  8
0
370
    -3
390
0
  6
Continuous
100
AcDbCircle
 10
161.499446
 20
-61.2876
 30
0.0
 40
0.2
100
AcDbArc
 50
90.0
 51
170.405932
  0
LINE
  5
42
100
AcDbEntity
  8
0
370
    -3
390
0
  6
Continuous
100
AcDbLine
 10
165.307567
 20
-67.33766
 30
0.0
 11
165.307567
 21
-99.83766
 31
0.0
  0
LINE
  5
43
100
AcDbEntity
  8
0
370
    -3
390
0
  6
Continuous
100
AcDbLine
 10
167.307567
 20
-99.83766
 30
0.0
 11
165.307567
 21
-99.83766
 31
0.0
  0
LINE
  5
44
100
AcDbEntity
  8
0
370
    -3
390
0
  6
Continuous
100
AcDbLine
 10
174.807894
 20
-106.087602
 30
0.0
 11
161.807894
 21
-106.087617
 31
0.0
  0
LINE
  5
45
100
AcDbEntity
  8
0
370
    -3
390
0
  6
Continuous
100
AcDbLine
 10
161.499446
 20
-106.0876
 30
0.0
 11
191.907851
 21
-106.0876
 31
0.0
  0
ARC
  5
46
100
AcDbEntity
  8
0
370
    -3
390
0
  6
Continuous
100
AcDbCircle
 10
161.499446
 20
-105.8876
 30
0.0
 40
0.2
100
AcDbArc
 50
189.594068
 51
270.0
  0
ARC
  5
47
100
AcDbEntity
  8
0
370
    -3
390
0
  6
Continuous
100
AcDbCircle
 10
160.907838
 20
-105.9876
 30
0.0
 40
0.4
100
AcDbArc
 50
9.594068
 51
90.0
  0
LINE
  5
48
100
AcDbEntity
  8
0
370
    -3
390
0
  6
Continuous
100
AcDbLine
 10
165.307567
 20
-98.5876
 30
0.0
 11
147.307567
 21
-98.5876
 31
0.0
  0
LINE
  5
49
100
AcDbEntity
  8
0
370
    -3
390
0
  6
Continuous
100
AcDbLine
 10
160.907838
 20
-105.5876
 30
0.0
 11
145.707567
 21
-105.5876
 31
0.0
  0
LINE
  5
4A
100
AcDbEntity
  8
0
370
    -3
390
0
  6
Continuous
100
AcDbLine
 10
191.307567
 20
-98.5876
 30
0.0
 11
167.307567
 21
-98.5876
 31
0.0
  0
LINE
  5
4B
100
AcDbEntity
  8
0
370
    -3
390
0
  6
Continuous
100
AcDbLine
 10
167.307567
 20
-99.83766
 30
0.0
 11
167.307567
 21
-83.5876
 31
0.0
  0
LINE
  5
4C
100
AcDbEntity
  8
0
370
    -3
390
0
  6
Continuous
100
AcDbLine
 10
192.307851
 20
-108.08766
 30
0.0
 11
192.307851
 21
-106.4876
 31
0.0
  0
ARC
  5
4D
100
AcDbEntity
  8
0
370
    -3
390
0
  6
Continuous
100
AcDbCircle
 10
191.907851
 20
-106.4876
 30
0.0
 40
0.4
100
AcDbArc
 50
0.0
 51
90.0
  0
LINE
  5
4E
100
AcDbEntity
  8
0
370
    -3
390
0
  6
Continuous
100
AcDbLine
 10
191.307567
 20
-98.8876
 30
0.0
 11
191.307567
 21
-83.5876
 31
0.0
  0
LINE
  5
4F
100
AcDbEntity
  8
0
370
    -3
390
0
  6
Continuous
100
AcDbLine
 10
161.499446
 20
-61.0876
 30
0.0
 11
191.907851
 21
-61.0876
 31
0.0
  0
LINE
  5
50
100
AcDbEntity
  8
0
370
    -3
390
0
  6
Continuous
100
AcDbLine
 10
191.307567
 20
-68.5876
 30
0.0
 11
167.307567
 21
-68.5876
 31
0.0
  0
LINE
  5
51
100
AcDbEntity
  8
0
370
    -3
390
0
  6
Continuous
100
AcDbLine
 10
191.307567
 20
-68.3876
 30
0.0
 11
191.307567
 21
-83.5876
 31
0.0
  0
LINE
  5
52
100
AcDbEntity
  8
0
370
    -3
390
0
  6
Continuous
100
AcDbLine
 10
192.307851
 20
-59.73766
 30
0.0
 11
192.307851
 21
-60.6876
 31
0.0
  0
ARC
  5
53
100
AcDbEntity
  8
0
370
    -3
390
0
  6
Continuous
100
AcDbCircle
 10
192.707851
 20
-59.73766
 30
0.0
 40
0.4
100
AcDbArc
 50
90.0
 51
180.0
  0
ARC
  5
54
100
AcDbEntity
  8
0
370
    -3
390
0
  6
Continuous
100
AcDbCircle
 10
191.907851
 20
-60.6876
 30
0.0
 40
0.4
100
AcDbArc
 50
270.0
 51
0.0
  0
LINE
  5
55
100
AcDbEntity
  8
0
370
    -3
390
0
  6
Continuous
100
AcDbLine
 10
145.307567
 20
-65.28766
 30
0.0
 11
259.307567
 21
-65.28766
 31
0.0
  0
LINE
  5
56
100
AcDbEntity
  8
0
370
    -3
390
0
  6
Continuous
100
AcDbLine
 10
192.707851
 20
-59.33766
 30
0.0
 11
206.307299
 21
-59.33766
 31
0.0
  0
LINE
  5
57
100
AcDbEntity
  8
0
370
    -3
390
0
  6
Continuous
100
AcDbLine
 10
191.307567
 20
-68.3876
 30
0.0
 11
213.307567
 21
-68.3876
 31
0.0
  0
LINE
  5
58
100
AcDbEntity
  8
0
370
    -3
390
0
  6
Continuous
100
AcDbLine
 10
228.307298
 20
-60.6876
 30
0.0
 11
228.3073
 21
-58.58766
 31
0.0
  0
ARC
  5
59
100
AcDbEntity
  8
0
370
    -3
390
0
  6
Continuous
100
AcDbCircle
 10
228.707298
 20
-60.6876
 30
0.0
 40
0.4
100
AcDbArc
 50
179.999927
 51
270.0
  0
ARC
  5
5A
100
AcDbEntity
  8
0
370
    -3
390
0
  6
Continuous
100
AcDbCircle
 10
228.707298
 20
-60.68766
 30
0.0
 40
0.4
100
AcDbArc
 50
179.999927
 51
270.0
  0
LINE
  5
5B
100
AcDbEntity
  8
0
370
    -3
390
0
  6
Continuous
100
AcDbLine
 10
228.307298
 20
-60.687659
 30
0.0
 11
228.3073
 21
-58.58766
 31
0.0
  0
ARC
  5
5C
100
AcDbEntity
  8
0
370
    -3
390
0
  6
Continuous
100
AcDbCircle
 10
227.9073
 20
-58.58766
 30
0.0
 40
0.4
100
AcDbArc
 50
359.999927
 51
90.0
  0
LINE
  5
5D
100
AcDbEntity
  8
0
370
    -3
390
0
  6
Continuous
100
AcDbLine
 10
206.307301
 20
-58.18766
 30
0.0
 11
227.9073
 21
-58.18766
 31
0.0
  0
LINE
  5
5E
100
AcDbEntity
  8
0
370
    -3
390
0
  6
Continuous
100
AcDbLine
 10
206.307299
 20
-59.33766
 30
0.0
 11
206.307301
 21
-58.18766
 31
0.0
  0
LINE
  5
5F
100
AcDbEntity
  8
0
370
    -3
390
0
  6
Continuous
100
AcDbLine
 10
213.307567
 20
-68.2876
 30
0.0
 11
213.307567
 21
-83.5876
 31
0.0
  0
LINE
  5
60
100
AcDbEntity
  8
0
370
    -3
390
0
  6
Continuous
100
AcDbLine
 10
191.307567
 20
-98.7876
 30
0.0
 11
213.307567
 21
-98.7876
 31
0.0
  0
LINE
  5
61
100
AcDbEntity
  8
0
370
    -3
390
0
  6
Continuous
100
AcDbLine
 10
213.307567
 20
-98.8876
 30
0.0
 11
213.307567
 21
-83.5876
 31
0.0
  0
LINE
  5
62
100
AcDbEntity
  8
0
370
    -3
390
0
  6
Continuous
100
AcDbLine
 10
228.307298
 20
-106.487601
 30
0.0
 11
228.307301
 21
-108.98766
 31
0.0
  0
ARC
  5
63
100
AcDbEntity
  8
0
370
    -3
390
0
  6
Continuous
100
AcDbCircle
 10
228.707298
 20
-106.4876
 30
0.0
 40
0.4
100
AcDbArc
 50
90.0
 51
180.000073
  0
LINE
  5
64
100
AcDbEntity
  8
0
370
    -3
390
0
  6
Continuous
100
AcDbLine
 10
210.807851
 20
-108.98766
 30
0.0
 11
228.307315
 21
-108.98766
 31
0.0
  0
LINE
  5
65
100
AcDbEntity
  8
0
370
    -3
390
0
  6
Continuous
100
AcDbLine
 10
192.307851
 20
-108.08766
 30
0.0
 11
210.807851
 21
-108.08766
 31
0.0
  0
LINE
  5
66
100
AcDbEntity
  8
0
370
    -3
390
0
  6
Continuous
100
AcDbLine
 10
210.807851
 20
-108.98766
 30
0.0
 11
210.807851
 21
-108.08766
 31
0.0
  0
LINE
  5
67
100
AcDbEntity
  8
0
370
    -3
390
0
  6
Continuous
100
AcDbLine
 10
228.707298
 20
-106.0876
 30
0.0
 11
243.107297
 21
-106.0876
 31
0.0
  0
LINE
  5
68
100
AcDbEntity
  8
0
370
    -3
390
0
  6
Continuous
100
AcDbLine
 10
239.307567
 20
-99.83766
 30
0.0
 11
237.307567
 21
-99.83766
 31
0.0
  0
LINE
  5
69
100
AcDbEntity
  8
0
370
    -3
390
0
  6
Continuous
100
AcDbLine
 10
257.307567
 20
-98.5876
 30
0.0
 11
239.307567
 21
-98.5876
 31
0.0
  0
LINE
  5
6A
100
AcDbEntity
  8
0
370
    -3
390
0
  6
Continuous
100
AcDbLine
 10
237.307567
 20
-98.5876
 30
0.0
 11
213.307567
 21
-98.5876
 31
0.0
  0
ARC
  5
6B
100
AcDbEntity
  8
0
370
    -3
390
0
  6
Continuous
100
AcDbCircle
 10
243.698905
 20
-105.9876
 30
0.0
 40
0.4
100
AcDbArc
 50
90.0
 51
170.405932
  0
ARC
  5
6C
100
AcDbEntity
  8
0
370
    -3
390
0
  6
Continuous
100
AcDbCircle
 10
243.107297
 20
-105.8876
 30
0.0
 40
0.2
100
AcDbArc
 50
270.0
 51
350.405932
  0
LINE
  5
6D
100
AcDbEntity
  8
0
370
    -3
390
0
  6
Continuous
100
AcDbLine
 10
243.698905
 20
-105.5876
 30
0.0
 11
258.907567
 21
-105.5876
 31
0.0
  0
ARC
  5
6E
100
AcDbEntity
  8
0
370
    -3
390
0
  6
Continuous
100
AcDbCircle
 10
258.907567
 20
-105.1876
 30
0.0
 40
0.4
100
AcDbArc
 50
270.0
 51
0.0
  0
LINE
  5
6F
100
AcDbEntity
  8
0
370
    -3
390
0
  6
Continuous
100
AcDbLine
 10
259.307567
 20
-105.1876
 30
0.0
 11
259.307567
 21
-61.5876
 31
0.0
  0
ARC
  5
70
100
AcDbEntity
  8
0
370
    -3
390
0
  6
Continuous
100
AcDbCircle
 10
257.307567
 20
-100.5876
 30
0.0
 40
2.0
100
AcDbArc
 50
0.0
 51
90.0
  0
LINE
  5
71
100
AcDbEntity
  8
0
370
    -3
390
0
  6
Continuous
100
AcDbLine
 10
239.307567
 20
-67.33766
 30
0.0
 11
239.307567
 21
-99.83766
 31
0.0
  0
LINE
  5
72
100
AcDbEntity
  8
0
370
    -3
390
0
  6
Continuous
100
AcDbLine
 10
237.307567
 20
-68.5876
 30
0.0
 11
213.307567
 21
-68.5876
 31
0.0
  0
LINE
  5
73
100
AcDbEntity
  8
0
370
    -3
390
0
  6
Continuous
100
AcDbLine
 10
257.307567
 20
-68.5876
 30
0.0
 11
239.307567
 21
-68.5876
 31
0.0
  0
LINE
  5
74
100
AcDbEntity
  8
0
370
    -3
390
0
  6
Continuous
100
AcDbLine
 10
237.307567
 20
-67.33766
 30
0.0
 11
237.307567
 21
-83.5876
 31
0.0
  0
LINE
  5
75
100
AcDbEntity
  8
0
370
    -3
390
0
  6
Continuous
100
AcDbLine
 10
237.307567
 20
-99.83766
 30
0.0
 11
237.307567
 21
-83.5876
 31
0.0
  0
LINE
  5
76
100
AcDbEntity
  8
0
370
    -3
390
0
  6
CENTER
100
AcDbLine
 10
262.873105
 20
-83.58766
 30
0.0
 11
141.405291
 21
-83.58766
 31
0.0
  0
LINE
  5
77
100
AcDbEntity
  8
0
370
    -3
390
0
  6
Continuous
100
AcDbLine
 10
239.307567
 20
-67.33766
 30
0.0
 11
237.307567
 21
-67.33766
 31
0.0
  0
ARC
  5
78
100
AcDbEntity
  8
0
370
    -3
390
0
  6
Continuous
100
AcDbCircle
 10
243.698905
 20
-61.1876
 30
0.0
 40
0.4
100
AcDbArc
 50
189.594068
 51
270.0
  0
LINE
  5
79
100
AcDbEntity
  8
0
370
    -3
390
0
  6
Continuous
100
AcDbLine
 10
243.698905
 20
-61.5876
 30
0.0
 11
259.307567
 21
-61.5876
 31
0.0
  0
LINE
  5
7A
100
AcDbEntity
  8
0
370
    -3
390
0
  6
Continuous
100
AcDbLine
 10
228.707298
 20
-61.0876
 30
0.0
 11
243.107297
 21
-61.0876
 31
0.0
  0
ARC
  5
7B
100
AcDbEntity
  8
0
370
    -3
390
0
  6
Continuous
100
AcDbCircle
 10
243.107297
 20
-61.2876
 30
0.0
 40
0.2
100
AcDbArc
 50
9.594068
 51
90.0
  0
LINE
  5
7C
100
AcDbEntity
  8
0
370
    -3
390
0
  6
CENTER
100
AcDbLine
 10
87.677854
 20
-56.134305
 30
0.0
 11
87.677854
 21
-110.409961
 31
0.0
  0
CIRCLE
  5
7D
100
AcDbEntity
  8
0
370
    -3
390
0
  6
Continuous
100
AcDbCircle
 10
87.677854
 20
-83.58766
 30
0.0
 40
22.0
  0
ARC
  5
7E
100
AcDbEntity
  8
0
370
    -3
390
0
  6
Continuous
100
AcDbCircle
 10
87.677854
 20
-83.58766
 30
0.0
 40
15.0
100
AcDbArc
 50
105.46601
 51
74.53399
  0
LINE
  5
7F
100
AcDbEntity
  8
0
370
    -3
390
0
  6
CENTER
100
AcDbLine
 10
112.963705
 20
-83.58766
 30
0.0
 11
61.896463
 21
-83.58766
 31
0.0
  0
LINE
  5
80
100
AcDbEntity
  8
0
370
    -3
390
0
  6
Continuous
100
AcDbLine
 10
91.677854
 20
-65.28766
 30
0.0
 11
83.677854
 21
-65.28766
 31
0.0
  0
LINE
  5
81
100
AcDbEntity
  8
0
370
    -3
390
0
  6
Continuous
100
AcDbLine
 10
91.677854
 20
-65.28766
 30
0.0
 11
91.677854
 21
-69.130827
 31
0.0
  0
LINE
  5
82
100
AcDbEntity
  8
0
370
    -3
390
0
  6
Continuous
100
AcDbLine
 10
83.677854
 20
-65.28766
 30
0.0
 11
83.677854
 21
-69.130827
 31
0.0
  0
LINE
  5
83
100
AcDbEntity
  8
0
370
    -3
390
0
  6
CENTER
100
AcDbLine
 10
-26.266815
 20
-21.901598
 30
0.0
 11
-26.266815
 21
-145.165914
 31
0.0
  0
LINE
  5
84
100
AcDbEntity
  8
0
370
    -3
390
0
  6
CENTER
100
AcDbLine
 10
433.658656
 20
-83.58766
 30
0.0
 11
306.659644
 21
-83.58766
 31
0.0
  0
ARC
  5
85
100
AcDbEntity
  8
0
370
    -3
390
0
  6
Continuous
100
AcDbCircle
 10
388.922621
 20
-78.304474
 30
0.0
 40
50.8
100
AcDbArc
 50
79.738654
 51
85.66015
  0
ARC
  5
86
100
AcDbEntity
  8
0
370
    -3
390
0
  6
Continuous
100
AcDbCircle
 10
596.004554
 20
-101.58766
 30
0.0
 40
300.8
100
AcDbArc
 50
175.66015
 51
180.0
  0
ARC
  5
87
100
AcDbEntity
  8
0
370
    -3
390
0
  6
Continuous
100
AcDbCircle
 10
346.721368
 20
-82.669593
 30
0.0
 40
50.8
100
AcDbArc
 50
140.905432
 51
175.66015
  0
ARC
  5
88
100
AcDbEntity
  8
0
370
    -3
390
0
  6
Continuous
100
AcDbCircle
 10
370.004554
 20
-101.58766
 30
0.0
 40
80.8
100
AcDbArc
 50
129.094568
 51
140.905432
  0
ARC
  5
89
100
AcDbEntity
  8
0
370
    -3
390
0
  6
Continuous
100
AcDbCircle
 10
370.004554
 20
-327.58766
 30
0.0
 40
300.8
100
AcDbArc
 50
90.0
 51
93.654253
  0
ARC
  5
8A
100
AcDbEntity
  8
0
370
    -3
390
0
  6
Continuous
100
AcDbCircle
 10
351.086487
 20
-78.304474
 30
0.0
 40
50.8
100
AcDbArc
 50
126.310726
 51
129.094568
  0
ARC
  5
8B
100
AcDbEntity
  8
0
370
    -3
390
0
  6
Continuous
100
AcDbCircle
 10
370.004554
 20
-327.58766
 30
0.0
 40
300.8
100
AcDbArc
 50
85.66015
 51
90.0
  0
ARC
  5
8C
100
AcDbEntity
  8
0
370
    -3
390
0
  6
Continuous
100
AcDbCircle
 10
388.922621
 20
-78.304474
 30
0.0
 40
50.8
100
AcDbArc
 50
50.905432
 51
53.689274
  0
ARC
  5
8D
100
AcDbEntity
  8
0
370
    -3
390
0
  6
Continuous
100
AcDbCircle
 10
370.004554
 20
-101.58766
 30
0.0
 40
80.8
100
AcDbArc
 50
39.094568
 51
50.905432
  0
ARC
  5
8E
100
AcDbEntity
  8
0
370
    -3
390
0
  6
Continuous
100
AcDbCircle
 10
393.28774
 20
-82.669593
 30
0.0
 40
50.8
100
AcDbArc
 50
4.33985
 51
39.094568
  0
ARC
  5
8F
100
AcDbEntity
  8
0
370
    -3
390
0
  6
Continuous
100
AcDbCircle
 10
144.004554
 20
-101.58766
 30
0.0
 40
300.8
100
AcDbArc
 50
355.66015
 51
0.0
  0
ARC
  5
90
100
AcDbEntity
  8
0
370
    -3
390
0
  6
Continuous
100
AcDbCircle
 10
393.28774
 20
-120.505727
 30
0.0
 40
50.8
100
AcDbArc
 50
320.905432
 51
355.66015
  0
ARC
  5
91
100
AcDbEntity
  8
0
370
    -3
390
0
  6
Continuous
100
AcDbCircle
 10
144.004554
 20
-101.58766
 30
0.0
 40
300.8
100
AcDbArc
 50
360.0
 51
4.33985
  0
ARC
  5
92
100
AcDbEntity
  8
0
370
    -3
390
0
  6
Continuous
100
AcDbCircle
 10
370.004554
 20
-101.58766
 30
0.0
 40
80.8
100
AcDbArc
 50
309.094568
 51
320.905432
  0
ARC
  5
93
100
AcDbEntity
  8
0
370
    -3
390
0
  6
Continuous
100
AcDbCircle
 10
596.004554
 20
-101.58766
 30
0.0
 40
300.8
100
AcDbArc
 50
180.0
 51
184.33985
  0
ARC
  5
94
100
AcDbEntity
  8
0
370
    -3
390
0
  6
Continuous
100
AcDbCircle
 10
346.721368
 20
-120.505727
 30
0.0
 40
50.8
100
AcDbArc
 50
184.33985
 51
219.094568
  0
ARC
  5
95
100
AcDbEntity
  8
0
370
    -3
390
0
  6
Continuous
100
AcDbCircle
 10
370.004554
 20
-101.58766
 30
0.0
 40
80.8
100
AcDbArc
 50
219.094568
 51
230.905432
  0
ARC
  5
96
100
AcDbEntity
  8
0
370
    -3
390
0
  6
Continuous
100
AcDbCircle
 10
388.922621
 20
-124.870845
 30
0.0
 40
50.8
100
AcDbArc
 50
277.503709
 51
309.094568
  0
ARC
  5
97
100
AcDbEntity
  8
0
370
    -3
390
0
  6
Continuous
100
AcDbCircle
 10
351.086487
 20
-124.870845
 30
0.0
 40
50.8
100
AcDbArc
 50
230.905432
 51
262.496291
  0
ARC
  5
98
100
AcDbEntity
  8
0
370
    -3
390
0
  6
Continuous
100
AcDbCircle
 10
426.181461
 20
-230.469267
 30
0.0
 40
9.0
100
AcDbArc
 50
229.398469
 51
262.601548
  0
ARC
  5
99
100
AcDbEntity
  8
0
370
    -3
390
0
  6
Continuous
100
AcDbCircle
 10
425.189942
 20
-238.105163
 30
0.0
 40
1.299999
100
AcDbArc
 50
262.601548
 51
336.000018
  0
LINE
  5
9A
100
AcDbEntity
  8
0
370
    -3
390
0
  6
CENTER
100
AcDbLine
 10
402.12203
 20
-212.58766
 30
0.0
 11
424.990539
 21
-212.58766
 31
0.0
  0
LINE
  5
9B
100
AcDbEntity
  8
0
370
    -3
390
0
  6
Continuous
100
AcDbLine
 10
328.653546
 20
-189.893096
 30
0.0
 11
431.336055
 21
-235.610294
 31
0.0
  0
LINE
  5
9C
100
AcDbEntity
  8
0
370
    -3
390
0
  6
Continuous
100
AcDbLine
 10
339.004554
 20
-187.58766
 30
0.0
 11
401.004554
 21
-187.58766
 31
0.0
  0
LINE
  5
9D
100
AcDbEntity
  8
0
370
    -3
390
0
  6
Continuous
100
AcDbLine
 10
337.312949
 20
-188.58766
 30
0.0
 11
411.504554
 21
-188.58766
 31
0.0
  0
LINE
  5
9E
100
AcDbEntity
  8
0
370
    -3
390
0
  6
Continuous
100
AcDbLine
 10
401.004554
 20
-187.58766
 30
0.0
 11
401.004554
 21
-188.58766
 31
0.0
  0
LINE
  5
9F
100
AcDbEntity
  8
0
370
    -3
390
0
  6
Continuous
100
AcDbLine
 10
426.951037
 20
-233.657958
 30
0.0
 11
428.516973
 21
-230.140808
 31
0.0
  0
LINE
  5
A0
100
AcDbEntity
  8
0
370
    -3
390
0
  6
Continuous
100
AcDbLine
 10
423.296855
 20
-232.031012
 30
0.0
 11
424.862791
 21
-228.513862
 31
0.0
  0
ARC
  5
A1
100
AcDbEntity
  8
0
370
    -3
390
0
  6
Continuous
100
AcDbCircle
 10
414.127189
 20
-232.957673
 30
0.0
 40
2.0
100
AcDbArc
 50
274.231338
 51
336.0
  0
ARC
  5
A2
100
AcDbEntity
  8
0
370
    -3
390
0
  6
Continuous
100
AcDbCircle
 10
416.776792
 20
-234.382347
 30
0.0
 40
1.0
100
AcDbArc
 50
66.0
 51
156.0
  0
LINE
  5
A3
100
AcDbEntity
  8
0
370
    -3
390
0
  6
Continuous
100
AcDbLine
 10
370.004554
 20
-212.463369
 30
0.0
 11
428.87691
 21
-238.67503
 31
0.0
  0
ARC
  5
A4
100
AcDbEntity
  8
0
370
    -3
390
0
  6
Continuous
100
AcDbCircle
 10
429.283647
 20
-237.761485
 30
0.0
 40
1.0
100
AcDbArc
 50
246.0
 51
336.0
  0
LINE
  5
A5
100
AcDbEntity
  8
0
370
    -3
390
0
  6
Continuous
100
AcDbLine
 10
430.197192
 20
-238.168222
 30
0.0
 11
431.336055
 21
-235.610294
 31
0.0
  0
LINE
  5
A6
100
AcDbEntity
  8
0
370
    -3
390
0
  6
Continuous
100
AcDbLine
 10
416.504554
 20
-193.58766
 30
0.0
 11
416.504554
 21
-229.006885
 31
0.0
  0
ARC
  5
A7
100
AcDbEntity
  8
0
370
    -3
390
0
  6
Continuous
100
AcDbCircle
 10
411.504554
 20
-193.58766
 30
0.0
 40
5.0
100
AcDbArc
 50
0.0
 51
90.0
  0
LINE
  5
A8
100
AcDbEntity
  8
0
370
    -3
390
0
  6
Continuous
100
AcDbLine
 10
339.004554
 20
-187.58766
 30
0.0
 11
339.004554
 21
-188.58766
 31
0.0
  0
ARC
  5
A9
100
AcDbEntity
  8
0
370
    -3
390
0
  6
Continuous
100
AcDbCircle
 10
337.312949
 20
-191.58766
 30
0.0
 40
3.0
100
AcDbArc
 50
90.0
 51
156.0
  0
LINE
  5
AA
100
AcDbEntity
  8
0
370
    -3
390
0
  6
Continuous
100
AcDbLine
 10
333.7694
 20
-192.170821
 30
0.0
 11
334.572313
 21
-190.36745
 31
0.0
  0
LINE
  5
AB
100
AcDbEntity
  8
0
370
    -3
390
0
  6
Continuous
100
AcDbLine
 10
327.514683
 20
-192.451023
 30
0.0
 11
328.653546
 21
-189.893096
 31
0.0
  0
ARC
  5
AC
100
AcDbEntity
  8
0
370
    -3
390
0
  6
Continuous
100
AcDbCircle
 10
419.407713
 20
-235.553709
 30
0.0
 40
1.0
100
AcDbArc
 50
66.0
 51
94.715125
  0
ARC
  5
AD
100
AcDbEntity
  8
0
370
    -3
390
0
  6
Continuous
100
AcDbCircle
 10
370.004554
 20
363.41234
 30
0.0
 40
600.0
100
AcDbArc
 50
268.317231
 51
274.715125
  0
ARC
  5
AE
100
AcDbEntity
  8
0
370
    -3
390
0
  6
Continuous
100
AcDbCircle
 10
352.825658
 20
-221.335371
 30
0.0
 40
15.0
100
AcDbArc
 50
189.318123
 51
268.317231
  0
LINE
  5
AF
100
AcDbEntity
  8
0
370
    -3
390
0
  6
Continuous
100
AcDbLine
 10
333.764761
 20
-197.808473
 30
0.0
 11
338.02359
 21
-223.76411
 31
0.0
  0
ARC
  5
B0
100
AcDbEntity
  8
0
370
    -3
390
0
  6
Continuous
100
AcDbCircle
 10
330.804347
 20
-198.294221
 30
0.0
 40
3.0
100
AcDbArc
 50
9.318123
 51
66.0
  0
LINE
  5
B1
100
AcDbEntity
  8
0
370
    -3
390
0
  6
Continuous
100
AcDbLine
 10
328.021492
 20
-193.771305
 30
0.0
 11
370.004554
 21
-212.463369
 31
0.0
  0
LINE
  5
B2
100
AcDbEntity
  8
0
370
    -3
390
0
  6
Continuous
100
AcDbLine
 10
331.347883
 20
-190.222256
 30
0.0
 11
331.660468
 21
-190.95866
 31
0.0
  0
LINE
  5
B3
100
AcDbEntity
  8
0
370
    -3
390
0
  6
Continuous
100
AcDbLine
 10
331.346334
 20
-191.092002
 30
0.0
 11
331.660468
 21
-190.95866
 31
0.0
  0
LINE
  5
B4
100
AcDbEntity
  8
0
370
    -3
390
0
  6
Continuous
100
AcDbLine
 10
330.347042
 20
-190.647089
 30
0.0
 11
331.347883
 21
-190.222256
 31
0.0
  0
ARC
  5
B5
100
AcDbEntity
  8
0
370
    -3
390
0
  6
Continuous
100
AcDbCircle
 10
421.170341
 20
-236.315521
 30
0.0
 40
1.299999
100
AcDbArc
 50
155.999999
 51
229.398469
  0
LINE
  5
B6
100
AcDbEntity
  8
0
370
    -3
390
0
  6
Continuous
100
AcDbLine
 10
420.380938
 20
-234.89238
 30
0.0
 11
419.982732
 21
-235.786764
 31
0.0
  0
LINE
  5
B7
100
AcDbEntity
  8
0
370
    -3
390
0
  6
Continuous
100
AcDbLine
 10
426.775756
 20
-237.739536
 30
0.0
 11
426.37755
 21
-238.63392
 31
0.0
  0
LINE
  5
B8
100
AcDbEntity
  8
0
370
    -3
390
0
  6
Continuous
100
AcDbLine
 10
420.380938
 20
-234.89238
 30
0.0
 11
426.775756
 21
-237.739536
 31
0.0
  0
LINE
  5
B9
100
AcDbEntity
  8
0
370
    -3
390
0
  6
Continuous
100
AcDbLine
 10
420.380938
 20
-234.89238
 30
0.0
 11
426.775756
 21
-237.739536
 31
0.0
  0
POINT
  5
BA
100
AcDbEntity
  8
0
370
    -3
390
0
  6
Continuous
100
AcDbPoint
 10
423.578347
 20
-236.315958
 30
0.0
  0
LINE
  5
BB
100
AcDbEntity
  8
0
370
    -3
390
0
  6
Continuous
100
AcDbLine
 10
425.32489
 20
-228.336479
 30
0.0
 11
428.33959
 21
-229.67871
 31
0.0
  0
LINE
  5
BC
100
AcDbEntity
  8
0
370
    -3
390
0
  6
Continuous
100
AcDbLine
 10
428.516973
 20
-230.140808
 30
0.0
 11
428.33959
 21
-229.67871
 31
0.0
  0
LINE
  5
BD
100
AcDbEntity
  8
0
370
    -3
390
0
  6
Continuous
100
AcDbLine
 10
424.862791
 20
-228.513862
 30
0.0
 11
425.32489
 21
-228.336479
 31
0.0
  0
LINE
  5
BE
100
AcDbEntity
  8
0
370
    -3
390
0
  6
Continuous
100
AcDbLine
 10
423.616596
 20
-232.17337
 30
0.0
 11
425.32489
 21
-228.336479
 31
0.0
  0
LINE
  5
BF
100
AcDbEntity
  8
0
370
    -3
390
0
  6
Continuous
100
AcDbLine
 10
426.631296
 20
-233.515601
 30
0.0
 11
428.33959
 21
-229.67871
 31
0.0
  0
ARC
  5
C0
100
AcDbEntity
  8
0
370
    -3
390
0
  6
Continuous
100
AcDbCircle
 10
328.428229
 20
-192.85776
 30
0.0
 40
1.0
100
AcDbArc
 50
156.0
 51
246.0
  0
LINE
  5
C1
100
AcDbEntity
  8
0
370
    -3
390
0
  6
Continuous
100
AcDbLine
 10
401.004554
 20
-187.58766
 30
0.0
 11
401.004554
 21
-185.98766
 31
0.0
  0
LINE
  5
C2
100
AcDbEntity
  8
0
370
    -3
390
0
  6
Continuous
100
AcDbLine
 10
370.004554
 20
-187.58766
 30
0.0
 11
401.004554
 21
-187.58766
 31
0.0
  0
LINE
  5
C3
100
AcDbEntity
  8
0
370
    -3
390
0
  6
Continuous
100
AcDbLine
 10
370.004554
 20
-187.58766
 30
0.0
 11
339.004554
 21
-187.58766
 31
0.0
  0
LINE
  5
C4
100
AcDbEntity
  8
0
370
    -3
390
0
  6
Continuous
100
AcDbLine
 10
339.004554
 20
-187.58766
 30
0.0
 11
339.004554
 21
-185.98766
 31
0.0
  0
LINE
  5
C5
100
AcDbEntity
  8
0
370
    -3
390
0
  6
Continuous
100
AcDbLine
 10
401.004554
 20
-185.98766
 30
0.0
 11
339.004554
 21
-185.98766
 31
0.0
  0
LINE
  5
C6
100
AcDbEntity
  8
0
370
    -3
390
0
  6
Continuous
100
AcDbLine
 10
332.004554
 20
-83.58766
 30
0.0
 11
332.004554
 21
-26.58766
 31
0.0
  0
LINE
  5
C7
100
AcDbEntity
  8
0
370
    -3
390
0
  6
Continuous
100
AcDbLine
 10
332.004554
 20
-83.58766
 30
0.0
 11
332.004554
 21
-140.58766
 31
0.0
  0
LINE
  5
C8
100
AcDbEntity
  8
0
370
    -3
390
0
  6
Continuous
100
AcDbLine
 10
409.504554
 20
-28.541525
 30
0.0
 11
332.004554
 21
-27.032667
 31
0.0
  0
LINE
  5
C9
100
AcDbEntity
  8
0
370
    -3
390
0
  6
Continuous
100
AcDbLine
 10
409.504554
 20
-138.633794
 30
0.0
 11
332.004554
 21
-140.142653
 31
0.0
  0
LINE
  5
CA
100
AcDbEntity
  8
0
370
    -3
390
0
  6
Continuous
100
AcDbLine
 10
418.504706
 20
-138.633794
 30
0.0
 11
409.504554
 21
-138.633794
 31
0.0
  0
LINE
  5
CB
100
AcDbEntity
  8
0
370
    -3
390
0
  6
CENTER
100
AcDbLine
 10
352.500845
 20
-101.58766
 30
0.0
 11
389.912071
 21
-101.58766
 31
0.0
  0
LINE
  5
CC
100
AcDbEntity
  8
0
370
    -3
390
0
  6
Continuous
100
AcDbLine
 10
441.504554
 20
-85.347278
 30
0.0
 11
441.504554
 21
-117.828041
 31
0.0
  0
ARC
  5
CD
100
AcDbEntity
  8
0
370
    -3
390
0
  6
Continuous
100
AcDbCircle
 10
421.504554
 20
-85.347278
 30
0.0
 40
20.0
100
AcDbArc
 50
0.0
 51
17.502524
  0
ARC
  5
CE
100
AcDbEntity
  8
0
370
    -3
390
0
  6
Continuous
100
AcDbCircle
 10
370.004554
 20
-101.58766
 30
0.0
 40
74.0
100
AcDbArc
 50
287.502524
 51
342.497476
  0
ARC
  5
CF
100
AcDbEntity
  8
0
370
    -3
390
0
  6
Continuous
100
AcDbCircle
 10
421.504554
 20
-117.828041
 30
0.0
 40
20.0
100
AcDbArc
 50
342.497476
 51
0.0
  0
LINE
  5
D0
100
AcDbEntity
  8
0
370
    -3
390
0
  6
Continuous
100
AcDbLine
 10
386.244936
 20
-173.08766
 30
0.0
 11
353.764172
 21
-173.08766
 31
0.0
  0
ARC
  5
D1
100
AcDbEntity
  8
0
370
    -3
390
0
  6
Continuous
100
AcDbCircle
 10
386.244936
 20
-153.08766
 30
0.0
 40
20.0
100
AcDbArc
 50
270.0
 51
287.502524
  0
ARC
  5
D2
100
AcDbEntity
  8
0
370
    -3
390
0
  6
Continuous
100
AcDbCircle
 10
370.004554
 20
-101.58766
 30
0.0
 40
74.0
100
AcDbArc
 50
197.502524
 51
252.497476
  0
ARC
  5
D3
100
AcDbEntity
  8
0
370
    -3
390
0
  6
Continuous
100
AcDbCircle
 10
353.764172
 20
-153.08766
 30
0.0
 40
20.0
100
AcDbArc
 50
252.497476
 51
270.0
  0
LINE
  5
D4
100
AcDbEntity
  8
0
370
    -3
390
0
  6
Continuous
100
AcDbLine
 10
298.504554
 20
-117.828041
 30
0.0
 11
298.504554
 21
-85.347278
 31
0.0
  0
ARC
  5
D5
100
AcDbEntity
  8
0
370
    -3
390
0
  6
Continuous
100
AcDbCircle
 10
318.504554
 20
-117.828041
 30
0.0
 40
20.0
100
AcDbArc
 50
180.0
 51
197.502524
  0
ARC
  5
D6
100
AcDbEntity
  8
0
370
    -3
390
0
  6
Continuous
100
AcDbCircle
 10
318.504554
 20
-85.347278
 30
0.0
 40
20.0
100
AcDbArc
 50
162.497476
 51
180.0
  0
LINE
  5
D7
100
AcDbEntity
  8
0
370
    -3
390
0
  6
CENTER
100
AcDbLine
 10
317.790546
 20
-38.58766
 30
0.0
 11
423.595031
 21
-38.58766
 31
0.0
  0
LINE
  5
D8
100
AcDbEntity
  8
0
370
    -3
390
0
  6
CENTER
100
AcDbLine
 10
317.373993
 20
-128.58766
 30
0.0
 11
423.595031
 21
-128.58766
 31
0.0
  0
LINE
  5
D9
100
AcDbEntity
  8
0
370
    -3
390
0
  6
DASHED
100
AcDbLine
 10
334.504554
 20
-32.587863
 30
0.0
 11
358.004554
 21
-32.587728
 31
0.0
  0
LINE
  5
DA
100
AcDbEntity
  8
0
370
    -3
390
0
  6
DASHED
100
AcDbLine
 10
334.504537
 20
-33.537761
 30
0.0
 11
358.004554
 21
-33.537626
 31
0.0
  0
LINE
  5
DB
100
AcDbEntity
  8
0
370
    -3
390
0
  6
DASHED
100
AcDbLine
 10
334.504554
 20
-44.587863
 30
0.0
 11
358.004554
 21
-44.587728
 31
0.0
  0
LINE
  5
DC
100
AcDbEntity
  8
0
370
    -3
390
0
  6
DASHED
100
AcDbLine
 10
334.504594
 20
-43.637965
 30
0.0
 11
358.004554
 21
-43.637829
 31
0.0
  0
LINE
  5
DD
100
AcDbEntity
  8
0
370
    -3
390
0
  6
DASHED
100
AcDbLine
 10
334.004554
 20
-29.587863
 30
0.0
 11
334.004554
 21
-47.587863
 31
0.0
  0
LINE
  5
DE
100
AcDbEntity
  8
0
370
    -3
390
0
  6
DASHED
100
AcDbLine
 10
405.504588
 20
-32.587863
 30
0.0
 11
382.004554
 21
-32.587728
 31
0.0
  0
LINE
  5
DF
100
AcDbEntity
  8
0
370
    -3
390
0
  6
DASHED
100
AcDbLine
 10
405.504571
 20
-33.537761
 30
0.0
 11
382.004554
 21
-33.537626
 31
0.0
  0
LINE
  5
E0
100
AcDbEntity
  8
0
370
    -3
390
0
  6
DASHED
100
AcDbLine
 10
406.004554
 20
-29.587456
 30
0.0
 11
406.004554
 21
-47.587456
 31
0.0
  0
LINE
  5
E1
100
AcDbEntity
  8
0
370
    -3
390
0
  6
DASHED
100
AcDbLine
 10
358.004554
 20
-33.337727
 30
0.0
 11
382.004554
 21
-33.337592
 31
0.0
  0
LINE
  5
E2
100
AcDbEntity
  8
0
370
    -3
390
0
  6
DASHED
100
AcDbLine
 10
406.004554
 20
-29.587456
 30
0.0
 11
419.004554
 21
-29.587383
 31
0.0
  0
LINE
  5
E3
100
AcDbEntity
  8
0
370
    -3
390
0
  6
DASHED
100
AcDbLine
 10
406.004554
 20
-29.587456
 30
0.0
 11
419.004554
 21
-29.587383
 31
0.0
  0
LINE
  5
E4
100
AcDbEntity
  8
0
370
    -3
390
0
  6
DASHED
100
AcDbLine
 10
406.004554
 20
-47.587456
 30
0.0
 11
419.004554
 21
-47.587383
 31
0.0
  0
LINE
  5
E5
100
AcDbEntity
  8
0
370
    -3
390
0
  6
DASHED
100
AcDbLine
 10
406.004554
 20
-47.587456
 30
0.0
 11
419.004554
 21
-47.587383
 31
0.0
  0
LINE
  5
E6
100
AcDbEntity
  8
0
370
    -3
390
0
  6
DASHED
100
AcDbLine
 10
405.504588
 20
-44.587863
 30
0.0
 11
382.004554
 21
-44.587728
 31
0.0
  0
LINE
  5
E7
100
AcDbEntity
  8
0
370
    -3
390
0
  6
DASHED
100
AcDbLine
 10
405.504628
 20
-43.637151
 30
0.0
 11
382.004554
 21
-43.637557
 31
0.0
  0
LINE
  5
E8
100
AcDbEntity
  8
0
370
    -3
390
0
  6
DASHED
100
AcDbLine
 10
358.004554
 20
-43.837727
 30
0.0
 11
382.004554
 21
-43.837592
 31
0.0
  0
LINE
  5
E9
100
AcDbEntity
  8
0
370
    -3
390
0
  6
DASHED
100
AcDbLine
 10
321.004554
 20
-119.587936
 30
0.0
 11
334.004554
 21
-119.587863
 31
0.0
  0
LINE
  5
EA
100
AcDbEntity
  8
0
370
    -3
390
0
  6
DASHED
100
AcDbLine
 10
334.504537
 20
-123.537761
 30
0.0
 11
358.004537
 21
-123.537626
 31
0.0
  0
LINE
  5
EB
100
AcDbEntity
  8
0
370
    -3
390
0
  6
DASHED
100
AcDbLine
 10
334.504554
 20
-122.587863
 30
0.0
 11
358.004537
 21
-122.587728
 31
0.0
  0
LINE
  5
EC
100
AcDbEntity
  8
0
370
    -3
390
0
  6
DASHED
100
AcDbLine
 10
334.504594
 20
-133.637965
 30
0.0
 11
358.004537
 21
-133.637829
 31
0.0
  0
LINE
  5
ED
100
AcDbEntity
  8
0
370
    -3
390
0
  6
DASHED
100
AcDbLine
 10
334.504554
 20
-134.587863
 30
0.0
 11
358.004537
 21
-134.587728
 31
0.0
  0
LINE
  5
EE
100
AcDbEntity
  8
0
370
    -3
390
0
  6
DASHED
100
AcDbLine
 10
321.004554
 20
-137.587936
 30
0.0
 11
334.004554
 21
-137.587863
 31
0.0
  0
LINE
  5
EF
100
AcDbEntity
  8
0
370
    -3
390
0
  6
DASHED
100
AcDbLine
 10
334.004554
 20
-119.587863
 30
0.0
 11
334.004554
 21
-137.587863
 31
0.0
  0
LINE
  5
F0
100
AcDbEntity
  8
0
370
    -3
390
0
  6
DASHED
100
AcDbLine
 10
405.504588
 20
-122.587863
 30
0.0
 11
382.004571
 21
-122.587728
 31
0.0
  0
LINE
  5
F1
100
AcDbEntity
  8
0
370
    -3
390
0
  6
DASHED
100
AcDbLine
 10
405.504571
 20
-123.537761
 30
0.0
 11
382.004571
 21
-123.537626
 31
0.0
  0
LINE
  5
F2
100
AcDbEntity
  8
0
370
    -3
390
0
  6
DASHED
100
AcDbLine
 10
382.004571
 20
-122.58771
 30
0.0
 11
382.004571
 21
-134.58771
 31
0.0
  0
LINE
  5
F3
100
AcDbEntity
  8
0
370
    -3
390
0
  6
DASHED
100
AcDbLine
 10
406.004554
 20
-119.587456
 30
0.0
 11
406.004554
 21
-137.587456
 31
0.0
  0
LINE
  5
F4
100
AcDbEntity
  8
0
370
    -3
390
0
  6
DASHED
100
AcDbLine
 10
358.004537
 20
-123.337727
 30
0.0
 11
382.004571
 21
-123.337592
 31
0.0
  0
LINE
  5
F5
100
AcDbEntity
  8
0
370
    -3
390
0
  6
DASHED
100
AcDbLine
 10
406.004554
 20
-119.587456
 30
0.0
 11
419.004554
 21
-119.587383
 31
0.0
  0
LINE
  5
F6
100
AcDbEntity
  8
0
370
    -3
390
0
  6
DASHED
100
AcDbLine
 10
406.004554
 20
-119.587456
 30
0.0
 11
419.004554
 21
-119.587383
 31
0.0
  0
LINE
  5
F7
100
AcDbEntity
  8
0
370
    -3
390
0
  6
DASHED
100
AcDbLine
 10
406.004554
 20
-119.587456
 30
0.0
 11
419.004554
 21
-119.587383
 31
0.0
  0
LINE
  5
F8
100
AcDbEntity
  8
0
370
    -3
390
0
  6
DASHED
100
AcDbLine
 10
406.004554
 20
-137.587456
 30
0.0
 11
419.004554
 21
-137.587383
 31
0.0
  0
LINE
  5
F9
100
AcDbEntity
  8
0
370
    -3
390
0
  6
DASHED
100
AcDbLine
 10
406.004554
 20
-137.587456
 30
0.0
 11
419.004554
 21
-137.587383
 31
0.0
  0
LINE
  5
FA
100
AcDbEntity
  8
0
370
    -3
390
0
  6
DASHED
100
AcDbLine
 10
405.504588
 20
-134.587863
 30
0.0
 11
382.004571
 21
-134.587728
 31
0.0
  0
LINE
  5
FB
100
AcDbEntity
  8
0
370
    -3
390
0
  6
DASHED
100
AcDbLine
 10
405.504628
 20
-133.637151
 30
0.0
 11
382.004571
 21
-133.637557
 31
0.0
  0
LINE
  5
FC
100
AcDbEntity
  8
0
370
    -3
390
0
  6
DASHED
100
AcDbLine
 10
406.004554
 20
-137.587456
 30
0.0
 11
419.004554
 21
-137.587383
 31
0.0
  0
LINE
  5
FD
100
AcDbEntity
  8
0
370
    -3
390
0
  6
DASHED
100
AcDbLine
 10
358.004537
 20
-133.837727
 30
0.0
 11
382.004571
 21
-133.837592
 31
0.0
  0
LINE
  5
FE
100
AcDbEntity
  8
0
370
    -3
390
0
  6
Continuous
100
AcDbLine
 10
418.004706
 20
-28.541525
 30
0.0
 11
419.004554
 21
-29.558978
 31
0.0
  0
LINE
  5
FF
100
AcDbEntity
  8
0
370
    -3
390
0
  6
Continuous
100
AcDbLine
 10
418.004706
 20
-138.633794
 30
0.0
 11
419.004554
 21
-137.616341
 31
0.0
  0
LINE
  5
100
100
AcDbEntity
  8
0
370
    -3
390
0
  6
Continuous
100
AcDbLine
 10
423.004665
 20
-126.08766
 30
0.0
 11
419.004554
 21
-126.08766
 31
0.0
  0
LINE
  5
101
100
AcDbEntity
  8
0
370
    -3
390
0
  6
Continuous
100
AcDbLine
 10
423.004665
 20
-83.58766
 30
0.0
 11
423.004665
 21
-126.08766
 31
0.0
  0
LINE
  5
102
100
AcDbEntity
  8
0
370
    -3
390
0
  6
Continuous
100
AcDbLine
 10
419.004554
 20
-46.580842
 30
0.0
 11
419.004554
 21
-137.616341
 31
0.0
  0
LINE
  5
103
100
AcDbEntity
  8
0
370
    -3
390
0
  6
Continuous
100
AcDbLine
 10
423.004665
 20
-83.58766
 30
0.0
 11
423.004665
 21
-41.08766
 31
0.0
  0
LINE
  5
104
100
AcDbEntity
  8
0
370
    -3
390
0
  6
Continuous
100
AcDbLine
 10
423.004665
 20
-41.08766
 30
0.0
 11
419.004554
 21
-41.08766
 31
0.0
  0
LINE
  5
105
100
AcDbEntity
  8
0
370
    -3
390
0
  6
Continuous
100
AcDbLine
 10
419.004554
 20
-46.580842
 30
0.0
 11
419.004554
 21
-29.558978
 31
0.0
  0
LINE
  5
106
100
AcDbEntity
  8
0
370
    -3
390
0
  6
Continuous
100
AcDbLine
 10
418.004706
 20
-28.541525
 30
0.0
 11
409.504554
 21
-28.541525
 31
0.0
  0
LINE
  5
107
100
AcDbEntity
  8
0
370
    -3
390
0
  6
DASHED
100
AcDbLine
 10
406.004554
 20
-29.587456
 30
0.0
 11
419.004554
 21
-29.587383
 31
0.0
  0
LINE
  5
108
100
AcDbEntity
  8
0
370
    -3
390
0
  6
DASHED
100
AcDbLine
 10
406.004554
 20
-47.587456
 30
0.0
 11
419.004554
 21
-47.587383
 31
0.0
  0
ARC
  5
109
100
AcDbEntity
  8
0
370
    -3
390
0
  6
Continuous
100
AcDbCircle
 10
370.004554
 20
-101.58766
 30
0.0
 40
74.0
100
AcDbArc
 50
17.502524
 51
44.256915
  0
LINE
  5
10A
100
AcDbEntity
  8
0
370
    -3
390
0
  6
Continuous
100
AcDbLine
 10
317.004443
 20
-126.08766
 30
0.0
 11
321.004554
 21
-126.08766
 31
0.0
  0
LINE
  5
10B
100
AcDbEntity
  8
0
370
    -3
390
0
  6
Continuous
100
AcDbLine
 10
321.004554
 20
-83.58766
 30
0.0
 11
321.004554
 21
-139.565449
 31
0.0
  0
LINE
  5
10C
100
AcDbEntity
  8
0
370
    -3
390
0
  6
Continuous
100
AcDbLine
 10
317.004443
 20
-83.58766
 30
0.0
 11
317.004443
 21
-126.08766
 31
0.0
  0
LINE
  5
10D
100
AcDbEntity
  8
0
370
    -3
390
0
  6
Continuous
100
AcDbLine
 10
317.004443
 20
-83.58766
 30
0.0
 11
317.004443
 21
-41.08766
 31
0.0
  0
LINE
  5
10E
100
AcDbEntity
  8
0
370
    -3
390
0
  6
Continuous
100
AcDbLine
 10
317.004443
 20
-41.08766
 30
0.0
 11
321.004554
 21
-41.08766
 31
0.0
  0
LINE
  5
10F
100
AcDbEntity
  8
0
370
    -3
390
0
  6
Continuous
100
AcDbLine
 10
321.004554
 20
-83.58766
 30
0.0
 11
321.004554
 21
-27.609871
 31
0.0
  0
LINE
  5
110
100
AcDbEntity
  8
0
370
    -3
390
0
  6
Continuous
100
AcDbLine
 10
321.503523
 20
-27.087706
 30
0.0
 11
321.004554
 21
-27.609871
 31
0.0
  0
LINE
  5
111
100
AcDbEntity
  8
0
370
    -3
390
0
  6
Continuous
100
AcDbLine
 10
321.503523
 20
-140.087613
 30
0.0
 11
332.004554
 21
-140.564932
 31
0.0
  0
LINE
  5
112
100
AcDbEntity
  8
0
370
    -3
390
0
  6
Continuous
100
AcDbLine
 10
321.526226
 20
-140.111372
 30
0.0
 11
321.004554
 21
-139.565449
 31
0.0
  0
LINE
  5
113
100
AcDbEntity
  8
0
370
    -3
390
0
  6
Continuous
100
AcDbLine
 10
321.503523
 20
-27.087706
 30
0.0
 11
332.004554
 21
-26.610387
 31
0.0
  0
LINE
  5
114
100
AcDbEntity
  8
0
370
    -3
390
0
  6
DASHED
100
AcDbLine
 10
321.004554
 20
-29.587936
 30
0.0
 11
334.004554
 21
-29.587863
 31
0.0
  0
LINE
  5
115
100
AcDbEntity
  8
0
370
    -3
390
0
  6
DASHED
100
AcDbLine
 10
321.004554
 20
-47.587936
 30
0.0
 11
334.004554
 21
-47.587863
 31
0.0
  0
ARC
  5
116
100
AcDbEntity
  8
0
370
    -3
390
0
  6
Continuous
100
AcDbCircle
 10
370.004554
 20
-101.58766
 30
0.0
 40
74.0
100
AcDbArc
 50
135.743085
 51
162.497476
  0
LINE
  5
117
100
AcDbEntity
  8
0
370
    -3
390
0
  6
Continuous
100
AcDbLine
 10
423.229554
 20
-58.262155
 30
0.0
 11
425.079146
 21
-56.412563
 31
0.0
  0
ARC
  5
118
100
AcDbEntity
  8
0
370
    -3
390
0
  6
Continuous
100
AcDbCircle
 10
422.957825
 20
-54.291243
 30
0.0
 40
3.0
100
AcDbArc
 50
315.0
 51
41.770359
  0
ARC
  5
119
100
AcDbEntity
  8
0
370
    -3
390
0
  6
Continuous
100
AcDbCircle
 10
407.381017
 20
-159.58766
 30
0.0
 40
3.0
100
AcDbArc
 50
90.0
 51
122.798614
  0
LINE
  5
11A
100
AcDbEntity
  8
0
370
    -3
390
0
  6
Continuous
100
AcDbLine
 10
418.347082
 20
-156.58766
 30
0.0
 11
407.381017
 21
-156.58766
 31
0.0
  0
ARC
  5
11B
100
AcDbEntity
  8
0
370
    -3
390
0
  6
Continuous
100
AcDbCircle
 10
418.347082
 20
-153.58766
 30
0.0
 40
3.0
100
AcDbArc
 50
270.0
 51
312.9125
  0
ARC
  5
11C
100
AcDbEntity
  8
0
370
    -3
390
0
  6
Continuous
100
AcDbCircle
 10
422.957825
 20
-148.884077
 30
0.0
 40
3.0
100
AcDbArc
 50
318.229641
 51
45.0
  0
LINE
  5
11D
100
AcDbEntity
  8
0
370
    -3
390
0
  6
Continuous
100
AcDbLine
 10
423.229554
 20
-144.913165
 30
0.0
 11
425.079146
 21
-146.762756
 31
0.0
  0
ARC
  5
11E
100
AcDbEntity
  8
0
370
    -3
390
0
  6
Continuous
100
AcDbCircle
 10
425.350874
 20
-142.791844
 30
0.0
 40
3.0
100
AcDbArc
 50
143.333083
 51
225.0
  0
ARC
  5
11F
100
AcDbEntity
  8
0
370
    -3
390
0
  6
Continuous
100
AcDbCircle
 10
314.658234
 20
-142.791844
 30
0.0
 40
3.0
100
AcDbArc
 50
315.0
 51
36.666917
  0
LINE
  5
120
100
AcDbEntity
  8
0
370
    -3
390
0
  6
Continuous
100
AcDbLine
 10
316.779554
 20
-144.913165
 30
0.0
 11
314.929962
 21
-146.762756
 31
0.0
  0
ARC
  5
121
100
AcDbEntity
  8
0
370
    -3
390
0
  6
Continuous
100
AcDbCircle
 10
317.051283
 20
-148.884077
 30
0.0
 40
3.0
100
AcDbArc
 50
135.0
 51
221.770359
  0
ARC
  5
122
100
AcDbEntity
  8
0
370
    -3
390
0
  6
Continuous
100
AcDbCircle
 10
321.662026
 20
-153.58766
 30
0.0
 40
3.0
100
AcDbArc
 50
227.0875
 51
270.0
  0
LINE
  5
123
100
AcDbEntity
  8
0
370
    -3
390
0
  6
Continuous
100
AcDbLine
 10
321.662026
 20
-156.58766
 30
0.0
 11
332.628091
 21
-156.58766
 31
0.0
  0
ARC
  5
124
100
AcDbEntity
  8
0
370
    -3
390
0
  6
Continuous
100
AcDbCircle
 10
332.628091
 20
-159.58766
 30
0.0
 40
3.0
100
AcDbArc
 50
57.201386
 51
90.0
  0
ARC
  5
125
100
AcDbEntity
  8
0
370
    -3
390
0
  6
Continuous
100
AcDbCircle
 10
370.004554
 20
-101.58766
 30
0.0
 40
66.0
100
AcDbArc
 50
216.666917
 51
323.333083
  0
ARC
  5
126
100
AcDbEntity
  8
0
370
    -3
390
0
  6
Continuous
100
AcDbCircle
 10
317.051283
 20
-54.291243
 30
0.0
 40
3.0
100
AcDbArc
 50
138.229641
 51
225.0
  0
ARC
  5
127
100
AcDbEntity
  8
0
370
    -3
390
0
  6
Continuous
100
AcDbCircle
 10
370.004554
 20
-101.58766
 30
0.0
 40
66.0
100
AcDbArc
 50
323.333083
 51
30.27245
  0
ARC
  5
128
100
AcDbEntity
  8
0
370
    -3
390
0
  6
Continuous
100
AcDbCircle
 10
425.350874
 20
-60.383475
 30
0.0
 40
3.0
100
AcDbArc
 50
135.0
 51
141.450473
  0
ARC
  5
129
100
AcDbEntity
  8
0
370
    -3
390
0
  6
Continuous
100
AcDbCircle
 10
370.004554
 20
-101.58766
 30
0.0
 40
66.0
100
AcDbArc
 50
149.72755
 51
216.666917
  0
ARC
  5
12A
100
AcDbEntity
  8
0
370
    -3
390
0
  6
Continuous
100
AcDbCircle
 10
314.658234
 20
-60.383475
 30
0.0
 40
3.0
100
AcDbArc
 50
38.549527
 51
45.0
  0
LINE
  5
12B
100
AcDbEntity
  8
0
370
    -3
390
0
  6
Continuous
100
AcDbLine
 10
316.779554
 20
-58.262155
 30
0.0
 11
314.929962
 21
-56.412563
 31
0.0
  0
LINE
  5
12C
100
AcDbEntity
  8
0
370
    -3
390
0
  6
Continuous
100
AcDbLine
 10
-165.266815
 20
-171.58766
 30
0.0
 11
-308.266815
 21
-171.58766
 31
0.0
  0
LINE
  5
12D
100
AcDbEntity
  8
0
370
    -3
390
0
  6
Continuous
100
AcDbLine
 10
-308.266815
 20
-172.58766
 30
0.0
 11
-274.266815
 21
-172.58766
 31
0.0
  0
LINE
  5
12E
100
AcDbEntity
  8
0
370
    -3
390
0
  6
Continuous
100
AcDbLine
 10
-274.266815
 20
-171.58766
 30
0.0
 11
-274.266815
 21
-172.58766
 31
0.0
  0
ARC
  5
12F
100
AcDbEntity
  8
0
370
    -3
390
0
  6
Continuous
100
AcDbCircle
 10
-340.01398
 20
-145.58766
 30
0.0
 40
30.8
100
AcDbArc
 50
240.0
 51
270.0
  0
ELLIPSE
  5
130
100
AcDbEntity
  8
0
370
    -3
390
0
  6
Continuous
100
AcDbEllipse
 10
-325.266815
 20
-44.562928
 30
0.0
 11
5.0
 21
0.0
 31
0.0
210
0.0
220
0.0
230
1.0
 40
0.707107
 41
3.1415926535897931
 42
0.0
  0
LINE
  5
131
100
AcDbEntity
  8
0
370
    -3
390
0
  6
Continuous
100
AcDbLine
 10
-330.266815
 20
-43.746325
 30
0.0
 11
-330.266815
 21
-44.562928
 31
0.0
  0
LINE
  5
132
100
AcDbEntity
  8
0
370
    -3
390
0
  6
Continuous
100
AcDbLine
 10
-320.266815
 20
-43.746325
 30
0.0
 11
-320.266815
 21
-44.562928
 31
0.0
  0
ELLIPSE
  5
133
100
AcDbEntity
  8
0
370
    -3
390
0
  6
Continuous
100
AcDbEllipse
 10
-325.266815
 20
-43.746325
 30
0.0
 11
4.5
 21
0.0
 31
0.0
210
0.0
220
0.0
230
1.0
 40
0.707107
 41
3.1415926535897931
 42
0.0
  0
LINE
  5
134
100
AcDbEntity
  8
0
370
    -3
390
0
  6
Continuous
100
AcDbLine
 10
-329.766815
 20
-43.180639
 30
0.0
 11
-329.766815
 21
-43.746325
 31
0.0
  0
LINE
  5
135
100
AcDbEntity
  8
0
370
    -3
390
0
  6
Continuous
100
AcDbLine
 10
-320.766815
 20
-43.180639
 30
0.0
 11
-320.766815
 21
-43.746325
 31
0.0
  0
ELLIPSE
  5
136
100
AcDbEntity
  8
0
370
    -3
390
0
  6
Continuous
100
AcDbEllipse
 10
-325.266815
 20
-43.746325
 30
0.0
 11
5.0
 21
0.0
 31
0.0
210
0.0
220
0.0
230
1.0
 40
0.707107
 41
0.0
 42
0.7392718269406207
  0
ELLIPSE
  5
137
100
AcDbEntity
  8
0
370
    -3
390
0
  6
Continuous
100
AcDbEllipse
 10
-325.266815
 20
-43.746325
 30
0.0
 11
5.0
 21
0.0
 31
0.0
210
0.0
220
0.0
230
1.0
 40
0.707107
 41
2.4023208266491727
 42
3.1415926535897931
  0
ELLIPSE
  5
138
100
AcDbEntity
  8
0
370
    -3
390
0
  6
Continuous
100
AcDbEllipse
 10
-325.266815
 20
-42.644121
 30
0.0
 11
3.5
 21
0.0
 31
0.0
210
0.0
220
0.0
230
1.0
 40
0.860398
 41
0.0
 42
6.2831853071795862
  0
ELLIPSE
  5
139
100
AcDbEntity
  8
0
370
    -3
390
0
  6
Continuous
100
AcDbEllipse
 10
-325.266815
 20
-43.180639
 30
0.0
 11
4.5
 21
0.0
 31
0.0
210
0.0
220
0.0
230
1.0
 40
0.707107
 41
2.158706662346169
 42
0.9828859912436241
  0
LINE
  5
13A
100
AcDbEntity
  8
0
370
    -3
390
0
  6
Continuous
100
AcDbLine
 10
-325.266815
 20
-41.342162
 30
0.0
 11
-323.266815
 21
-42.915499
 31
0.0
  0
LINE
  5
13B
100
AcDbEntity
  8
0
370
    -3
390
0
  6
Continuous
100
AcDbLine
 10
-325.266815
 20
-41.342162
 30
0.0
 11
-323.33761
 21
-40.131499
 31
0.0
  0
LINE
  5
13C
100
AcDbEntity
  8
0
370
    -3
390
0
  6
Continuous
100
AcDbLine
 10
-325.266815
 20
-41.342162
 30
0.0
 11
-327.266815
 21
-42.915499
 31
0.0
  0
LINE
  5
13D
100
AcDbEntity
  8
0
370
    -3
390
0
  6
Continuous
100
AcDbLine
 10
-325.266815
 20
-41.342162
 30
0.0
 11
-327.19602
 21
-40.131499
 31
0.0
  0
ARC
  5
13E
100
AcDbEntity
  8
0
370
    -3
390
0
  6
Continuous
100
AcDbCircle
 10
-368.466815
 20
-160.337322
 30
0.0
 40
3.8
100
AcDbArc
 50
180.0
 51
240.0
  0
LINE
  5
13F
100
AcDbEntity
  8
0
370
    -3
390
0
  6
Continuous
100
AcDbLine
 10
-372.266815
 20
-101.58766
 30
0.0
 11
-372.266815
 21
-160.337322
 31
0.0
  0
LINE
  5
140
100
AcDbEntity
  8
0
370
    -3
390
0
  6
Continuous
100
AcDbLine
 10
-370.366815
 20
-163.628219
 30
0.0
 11
-355.41398
 21
-172.261242
 31
0.0
  0
ARC
  5
141
100
AcDbEntity
  8
0
370
    -3
390
0
  6
Continuous
100
AcDbCircle
 10
-340.01398
 20
-57.58766
 30
0.0
 40
30.8
100
AcDbArc
 50
90.0
 51
120.0
  0
ARC
  5
142
100
AcDbEntity
  8
0
370
    -3
390
0
  6
Continuous
100
AcDbCircle
 10
-368.466815
 20
-42.837997
 30
0.0
 40
3.8
100
AcDbArc
 50
120.0
 51
180.0
  0
LINE
  5
143
100
AcDbEntity
  8
0
370
    -3
390
0
  6
Continuous
100
AcDbLine
 10
-372.266815
 20
-101.58766
 30
0.0
 11
-372.266815
 21
-42.837997
 31
0.0
  0
LINE
  5
144
100
AcDbEntity
  8
0
370
    -3
390
0
  6
Continuous
100
AcDbLine
 10
-370.366815
 20
-39.547101
 30
0.0
 11
-355.41398
 21
-30.914077
 31
0.0
  0
LINE
  5
145
100
AcDbEntity
  8
0
370
    -3
390
0
  6
Continuous
100
AcDbLine
 10
-165.266815
 20
-101.58766
 30
0.0
 11
-165.266815
 21
-30.08766
 31
0.0
  0
LINE
  5
146
100
AcDbEntity
  8
0
370
    -3
390
0
  6
Continuous
100
AcDbLine
 10
-308.266815
 20
-26.78766
 30
0.0
 11
-340.01398
 21
-26.78766
 31
0.0
  0
LINE
  5
147
100
AcDbEntity
  8
0
370
    -3
390
0
  6
Continuous
100
AcDbLine
 10
-308.266815
 20
-26.78766
 30
0.0
 11
-308.266815
 21
-101.58766
 31
0.0
  0
LINE
  5
148
100
AcDbEntity
  8
0
370
    -3
390
0
  6
Continuous
100
AcDbLine
 10
-165.266815
 20
-30.08766
 30
0.0
 11
-308.266815
 21
-30.08766
 31
0.0
  0
LINE
  5
149
100
AcDbEntity
  8
0
370
    -3
390
0
  6
Continuous
100
AcDbLine
 10
-165.266815
 20
-32.08766
 30
0.0
 11
-308.266815
 21
-32.08766
 31
0.0
  0
LINE
  5
14A
100
AcDbEntity
  8
0
370
    -3
390
0
  6
Continuous
100
AcDbLine
 10
-165.266815
 20
-35.08766
 30
0.0
 11
-308.266815
 21
-35.08766
 31
0.0
  0
LINE
  5
14B
100
AcDbEntity
  8
0
370
    -3
390
0
  6
Continuous
100
AcDbLine
 10
-165.266815
 20
-39.58766
 30
0.0
 11
-308.266815
 21
-39.58766
 31
0.0
  0
LINE
  5
14C
100
AcDbEntity
  8
0
370
    -3
390
0
  6
Continuous
100
AcDbLine
 10
-165.266815
 20
-46.00186
 30
0.0
 11
-308.266815
 21
-46.00186
 31
0.0
  0
LINE
  5
14D
100
AcDbEntity
  8
0
370
    -3
390
0
  6
Continuous
100
AcDbLine
 10
-165.266815
 20
-52.365821
 30
0.0
 11
-308.266815
 21
-52.365821
 31
0.0
  0
LINE
  5
14E
100
AcDbEntity
  8
0
370
    -3
390
0
  6
Continuous
100
AcDbLine
 10
-165.266815
 20
-60.738391
 30
0.0
 11
-308.266815
 21
-60.738391
 31
0.0
  0
LINE
  5
14F
100
AcDbEntity
  8
0
370
    -3
390
0
  6
Continuous
100
AcDbLine
 10
-165.266815
 20
-62.387018
 30
0.0
 11
-308.266815
 21
-62.387018
 31
0.0
  0
LINE
  5
150
100
AcDbEntity
  8
0
370
    -3
390
0
  6
Continuous
100
AcDbLine
 10
-165.266815
 20
-68.744888
 30
0.0
 11
-308.266815
 21
-68.744888
 31
0.0
  0
LINE
  5
151
100
AcDbEntity
  8
0
370
    -3
390
0
  6
Continuous
100
AcDbLine
 10
-165.266815
 20
-70.377615
 30
0.0
 11
-308.266815
 21
-70.377615
 31
0.0
  0
LINE
  5
152
100
AcDbEntity
  8
0
370
    -3
390
0
  6
Continuous
100
AcDbLine
 10
-165.266815
 20
-76.773152
 30
0.0
 11
-308.266815
 21
-76.773152
 31
0.0
  0
LINE
  5
153
100
AcDbEntity
  8
0
370
    -3
390
0
  6
Continuous
100
AcDbLine
 10
-165.266815
 20
-100.857864
 30
0.0
 11
-308.266815
 21
-100.857864
 31
0.0
  0
LINE
  5
154
100
AcDbEntity
  8
0
370
    -3
390
0
  6
Continuous
100
AcDbLine
 10
-165.266815
 20
-92.839504
 30
0.0
 11
-308.266815
 21
-92.839504
 31
0.0
  0
LINE
  5
155
100
AcDbEntity
  8
0
370
    -3
390
0
  6
Continuous
100
AcDbLine
 10
-165.266815
 20
-94.324662
 30
0.0
 11
-308.266815
 21
-94.324662
 31
0.0
  0
LINE
  5
156
100
AcDbEntity
  8
0
370
    -3
390
0
  6
Continuous
100
AcDbLine
 10
-165.266815
 20
-84.807659
 30
0.0
 11
-308.266815
 21
-84.807659
 31
0.0
  0
LINE
  5
157
100
AcDbEntity
  8
0
370
    -3
390
0
  6
Continuous
100
AcDbLine
 10
-165.266815
 20
-86.344495
 30
0.0
 11
-308.266815
 21
-86.344495
 31
0.0
  0
LINE
  5
158
100
AcDbEntity
  8
0
370
    -3
390
0
  6
Continuous
100
AcDbLine
 10
-165.266815
 20
-30.58766
 30
0.0
 11
-308.266815
 21
-30.58766
 31
0.0
  0
LINE
  5
159
100
AcDbEntity
  8
0
370
    -3
390
0
  6
Continuous
100
AcDbLine
 10
-165.266815
 20
-78.365404
 30
0.0
 11
-308.266815
 21
-78.365404
 31
0.0
  0
LINE
  5
15A
100
AcDbEntity
  8
0
370
    -3
390
0
  6
Continuous
100
AcDbLine
 10
-165.266815
 20
-101.58766
 30
0.0
 11
-165.266815
 21
-171.58766
 31
0.0
  0
LINE
  5
15B
100
AcDbEntity
  8
0
370
    -3
390
0
  6
Continuous
100
AcDbLine
 10
-165.266815
 20
-168.08766
 30
0.0
 11
-308.266815
 21
-168.08766
 31
0.0
  0
LINE
  5
15C
100
AcDbEntity
  8
0
370
    -3
390
0
  6
Continuous
100
AcDbLine
 10
-165.266815
 20
-163.58766
 30
0.0
 11
-308.266815
 21
-163.58766
 31
0.0
  0
LINE
  5
15D
100
AcDbEntity
  8
0
370
    -3
390
0
  6
Continuous
100
AcDbLine
 10
-165.266815
 20
-157.173459
 30
0.0
 11
-308.266815
 21
-157.173459
 31
0.0
  0
LINE
  5
15E
100
AcDbEntity
  8
0
370
    -3
390
0
  6
Continuous
100
AcDbLine
 10
-165.266815
 20
-150.809498
 30
0.0
 11
-308.266815
 21
-150.809498
 31
0.0
  0
LINE
  5
15F
100
AcDbEntity
  8
0
370
    -3
390
0
  6
Continuous
100
AcDbLine
 10
-165.266815
 20
-142.436929
 30
0.0
 11
-308.266815
 21
-142.436929
 31
0.0
  0
LINE
  5
160
100
AcDbEntity
  8
0
370
    -3
390
0
  6
Continuous
100
AcDbLine
 10
-165.266815
 20
-140.788302
 30
0.0
 11
-308.266815
 21
-140.788302
 31
0.0
  0
LINE
  5
161
100
AcDbEntity
  8
0
370
    -3
390
0
  6
Continuous
100
AcDbLine
 10
-165.266815
 20
-134.430431
 30
0.0
 11
-308.266815
 21
-134.430431
 31
0.0
  0
LINE
  5
162
100
AcDbEntity
  8
0
370
    -3
390
0
  6
Continuous
100
AcDbLine
 10
-165.266815
 20
-132.797704
 30
0.0
 11
-308.266815
 21
-132.797704
 31
0.0
  0
LINE
  5
163
100
AcDbEntity
  8
0
370
    -3
390
0
  6
Continuous
100
AcDbLine
 10
-165.266815
 20
-126.402167
 30
0.0
 11
-308.266815
 21
-126.402167
 31
0.0
  0
LINE
  5
164
100
AcDbEntity
  8
0
370
    -3
390
0
  6
Continuous
100
AcDbLine
 10
-165.266815
 20
-102.317455
 30
0.0
 11
-308.266815
 21
-102.317455
 31
0.0
  0
LINE
  5
165
100
AcDbEntity
  8
0
370
    -3
390
0
  6
Continuous
100
AcDbLine
 10
-165.266815
 20
-110.335816
 30
0.0
 11
-308.266815
 21
-110.335816
 31
0.0
  0
LINE
  5
166
100
AcDbEntity
  8
0
370
    -3
390
0
  6
Continuous
100
AcDbLine
 10
-165.266815
 20
-108.850658
 30
0.0
 11
-308.266815
 21
-108.850658
 31
0.0
  0
LINE
  5
167
100
AcDbEntity
  8
0
370
    -3
390
0
  6
Continuous
100
AcDbLine
 10
-165.266815
 20
-118.36766
 30
0.0
 11
-308.266815
 21
-118.36766
 31
0.0
  0
LINE
  5
168
100
AcDbEntity
  8
0
370
    -3
390
0
  6
Continuous
100
AcDbLine
 10
-165.266815
 20
-116.830824
 30
0.0
 11
-308.266815
 21
-116.830824
 31
0.0
  0
LINE
  5
169
100
AcDbEntity
  8
0
370
    -3
390
0
  6
Continuous
100
AcDbLine
 10
-165.266815
 20
-124.809915
 30
0.0
 11
-308.266815
 21
-124.809915
 31
0.0
  0
ELLIPSE
  5
16A
100
AcDbEntity
  8
0
370
    -3
390
0
  6
Continuous
100
AcDbEllipse
 10
-325.266815
 20
-158.612391
 30
0.0
 11
5.0
 21
0.0
 31
0.0
210
0.0
220
0.0
230
1.0
 40
0.707107
 41
0.0
 42
3.1415926535897931
  0
LINE
  5
16B
100
AcDbEntity
  8
0
370
    -3
390
0
  6
Continuous
100
AcDbLine
 10
-330.266815
 20
-159.428994
 30
0.0
 11
-330.266815
 21
-158.612391
 31
0.0
  0
LINE
  5
16C
100
AcDbEntity
  8
0
370
    -3
390
0
  6
Continuous
100
AcDbLine
 10
-320.266815
 20
-159.428994
 30
0.0
 11
-320.266815
 21
-158.612391
 31
0.0
  0
ELLIPSE
  5
16D
100
AcDbEntity
  8
0
370
    -3
390
0
  6
Continuous
100
AcDbEllipse
 10
-325.266815
 20
-159.428994
 30
0.0
 11
4.5
 21
0.0
 31
0.0
210
0.0
220
0.0
230
1.0
 40
0.707107
 41
0.0
 42
3.1415926535897931
  0
LINE
  5
16E
100
AcDbEntity
  8
0
370
    -3
390
0
  6
Continuous
100
AcDbLine
 10
-329.766815
 20
-159.99468
 30
0.0
 11
-329.766815
 21
-159.428994
 31
0.0
  0
LINE
  5
16F
100
AcDbEntity
  8
0
370
    -3
390
0
  6
Continuous
100
AcDbLine
 10
-320.766815
 20
-159.99468
 30
0.0
 11
-320.766815
 21
-159.428994
 31
0.0
  0
ELLIPSE
  5
170
100
AcDbEntity
  8
0
370
    -3
390
0
  6
Continuous
100
AcDbEllipse
 10
-325.266815
 20
-159.428994
 30
0.0
 11
5.0
 21
0.0
 31
0.0
210
0.0
220
0.0
230
1.0
 40
0.707107
 41
5.5439134802389658
 42
0.0
  0
ELLIPSE
  5
171
100
AcDbEntity
  8
0
370
    -3
390
0
  6
Continuous
100
AcDbEllipse
 10
-325.266815
 20
-159.428994
 30
0.0
 11
5.0
 21
0.0
 31
0.0
210
0.0
220
0.0
230
1.0
 40
0.707107
 41
3.1415926535897931
 42
3.8808644805304136
  0
ELLIPSE
  5
172
100
AcDbEntity
  8
0
370
    -3
390
0
  6
Continuous
100
AcDbEllipse
 10
-325.266815
 20
-160.531198
 30
0.0
 11
3.5
 21
0.0
 31
0.0
210
0.0
220
0.0
230
1.0
 40
0.860398
 41
0.0
 42
6.2831853071795862
  0
ELLIPSE
  5
173
100
AcDbEntity
  8
0
370
    -3
390
0
  6
Continuous
100
AcDbEllipse
 10
-325.266815
 20
-159.99468
 30
0.0
 11
4.5
 21
0.0
 31
0.0
210
0.0
220
0.0
230
1.0
 40
0.707107
 41
5.3002993159359626
 42
4.1244786448334168
  0
LINE
  5
174
100
AcDbEntity
  8
0
370
    -3
390
0
  6
Continuous
100
AcDbLine
 10
-325.266815
 20
-161.833158
 30
0.0
 11
-323.266815
 21
-160.25982
 31
0.0
  0
LINE
  5
175
100
AcDbEntity
  8
0
370
    -3
390
0
  6
Continuous
100
AcDbLine
 10
-325.266815
 20
-161.833158
 30
0.0
 11
-323.33761
 21
-163.04382
 31
0.0
  0
LINE
  5
176
100
AcDbEntity
  8
0
370
    -3
390
0
  6
Continuous
100
AcDbLine
 10
-325.266815
 20
-161.833158
 30
0.0
 11
-327.266815
 21
-160.25982
 31
0.0
  0
LINE
  5
177
100
AcDbEntity
  8
0
370
    -3
390
0
  6
Continuous
100
AcDbLine
 10
-325.266815
 20
-161.833158
 30
0.0
 11
-327.19602
 21
-163.04382
 31
0.0
  0
ARC
  5
178
100
AcDbEntity
  8
0
370
    -3
390
0
  6
Continuous
100
AcDbCircle
 10
-275.866815
 20
-175.78766
 30
0.0
 40
3.2
100
AcDbArc
 50
0.0
 51
90.0
  0
ARC
  5
179
100
AcDbEntity
  8
0
370
    -3
390
0
  6
Continuous
100
AcDbCircle
 10
-271.066815
 20
-184.38766
 30
0.0
 40
1.6
100
AcDbArc
 50
180.0
 51
270.0
  0
LINE
  5
17A
100
AcDbEntity
  8
0
370
    -3
390
0
  6
Continuous
100
AcDbLine
 10
-272.666815
 20
-175.78766
 30
0.0
 11
-272.666815
 21
-184.38766
 31
0.0
  0
LINE
  5
17B
100
AcDbEntity
  8
0
370
    -3
390
0
  6
Continuous
100
AcDbLine
 10
-267.266815
 20
-187.58766
 30
0.0
 11
-267.266815
 21
-185.98766
 31
0.0
  0
LINE
  5
17C
100
AcDbEntity
  8
0
370
    -3
390
0
  6
Continuous
100
AcDbLine
 10
-267.266815
 20
-185.98766
 30
0.0
 11
-298.266815
 21
-185.98766
 31
0.0
  0
LINE
  5
17D
100
AcDbEntity
  8
0
370
    -3
390
0
  6
Continuous
100
AcDbLine
 10
-298.266815
 20
-187.58766
 30
0.0
 11
-267.266815
 21
-187.58766
 31
0.0
  0
ARC
  5
17E
100
AcDbEntity
  8
0
370
    -3
390
0
  6
Continuous
100
AcDbCircle
 10
-325.466815
 20
-184.38766
 30
0.0
 40
1.6
100
AcDbArc
 50
270.0
 51
0.0
  0
LINE
  5
17F
100
AcDbEntity
  8
0
370
    -3
390
0
  6
Continuous
100
AcDbLine
 10
-323.866815
 20
-175.78766
 30
0.0
 11
-323.866815
 21
-184.38766
 31
0.0
  0
LINE
  5
180
100
AcDbEntity
  8
0
370
    -3
390
0
  6
Continuous
100
AcDbLine
 10
-329.266815
 20
-187.58766
 30
0.0
 11
-329.266815
 21
-185.98766
 31
0.0
  0
LINE
  5
181
100
AcDbEntity
  8
0
370
    -3
390
0
  6
Continuous
100
AcDbLine
 10
-329.266815
 20
-185.98766
 30
0.0
 11
-298.266815
 21
-185.98766
 31
0.0
  0
LINE
  5
182
100
AcDbEntity
  8
0
370
    -3
390
0
  6
Continuous
100
AcDbLine
 10
-298.266815
 20
-187.58766
 30
0.0
 11
-329.266815
 21
-187.58766
 31
0.0
  0
LINE
  5
183
100
AcDbEntity
  8
0
370
    -3
390
0
  6
CENTER
100
AcDbLine
 10
-298.266815
 20
-181.753946
 30
0.0
 11
-298.266815
 21
-243.81636
 31
0.0
  0
LINE
  5
184
100
AcDbEntity
  8
0
370
    -3
390
0
  6
Continuous
100
AcDbLine
 10
-333.716815
 20
-238.761485
 30
0.0
 11
-301.324071
 21
-238.761485
 31
0.0
  0
LINE
  5
185
100
AcDbEntity
  8
0
370
    -3
390
0
  6
Continuous
100
AcDbLine
 10
-333.716815
 20
-189.893096
 30
0.0
 11
-262.816815
 21
-189.893096
 31
0.0
  0
LINE
  5
186
100
AcDbEntity
  8
0
370
    -3
390
0
  6
Continuous
100
AcDbLine
 10
-333.716815
 20
-193.364568
 30
0.0
 11
-262.816815
 21
-193.364568
 31
0.0
  0
LINE
  5
187
100
AcDbEntity
  8
0
370
    -3
390
0
  6
Continuous
100
AcDbLine
 10
-251.816815
 20
-200.893096
 30
0.0
 11
-251.816815
 21
-227.761485
 31
0.0
  0
LINE
  5
188
100
AcDbEntity
  8
0
370
    -3
390
0
  6
Continuous
100
AcDbLine
 10
-344.716815
 20
-200.893096
 30
0.0
 11
-344.716815
 21
-227.761485
 31
0.0
  0
LINE
  5
189
100
AcDbEntity
  8
0
370
    -3
390
0
  6
Continuous
100
AcDbLine
 10
-258.216815
 20
-230.78766
 30
0.0
 11
-258.216815
 21
-201.211725
 31
0.0
  0
LINE
  5
18A
100
AcDbEntity
  8
0
370
    -3
390
0
  6
Continuous
100
AcDbLine
 10
-338.316815
 20
-230.78766
 30
0.0
 11
-338.316815
 21
-201.211725
 31
0.0
  0
LINE
  5
18B
100
AcDbEntity
  8
0
370
    -3
390
0
  6
Continuous
100
AcDbLine
 10
-333.316815
 20
-196.211725
 30
0.0
 11
-263.216815
 21
-196.211725
 31
0.0
  0
ARC
  5
18C
100
AcDbEntity
  8
0
370
    -3
390
0
  6
Continuous
100
AcDbCircle
 10
-263.216815
 20
-201.211725
 30
0.0
 40
5.0
100
AcDbArc
 50
0.0
 51
90.0
  0
ARC
  5
18D
100
AcDbEntity
  8
0
370
    -3
390
0
  6
Continuous
100
AcDbCircle
 10
-333.316815
 20
-201.211725
 30
0.0
 40
5.0
100
AcDbArc
 50
90.0
 51
180.0
  0
ARC
  5
18E
100
AcDbEntity
  8
0
370
    -3
390
0
  6
Continuous
100
AcDbCircle
 10
-262.816815
 20
-227.761485
 30
0.0
 40
11.0
100
AcDbArc
 50
270.0
 51
0.0
  0
ARC
  5
18F
100
AcDbEntity
  8
0
370
    -3
390
0
  6
Continuous
100
AcDbCircle
 10
-333.716815
 20
-227.761485
 30
0.0
 40
11.0
100
AcDbArc
 50
180.0
 51
270.0
  0
LINE
  5
190
100
AcDbEntity
  8
0
370
    -3
390
0
  6
Continuous
100
AcDbLine
 10
-332.516815
 20
-236.58766
 30
0.0
 11
-264.016815
 21
-236.58766
 31
0.0
  0
ARC
  5
191
100
AcDbEntity
  8
0
370
    -3
390
0
  6
Continuous
100
AcDbCircle
 10
-264.016815
 20
-230.78766
 30
0.0
 40
5.8
100
AcDbArc
 50
270.0
 51
0.0
  0
ARC
  5
192
100
AcDbEntity
  8
0
370
    -3
390
0
  6
Continuous
100
AcDbCircle
 10
-332.516815
 20
-230.78766
 30
0.0
 40
5.8
100
AcDbArc
 50
180.0
 51
270.0
  0
ARC
  5
193
100
AcDbEntity
  8
0
370
    -3
390
0
  6
Continuous
100
AcDbCircle
 10
-262.816815
 20
-204.364568
 30
0.0
 40
11.0
100
AcDbArc
 50
0.0
 51
90.0
  0
ARC
  5
194
100
AcDbEntity
  8
0
370
    -3
390
0
  6
Continuous
100
AcDbCircle
 10
-262.816815
 20
-200.893096
 30
0.0
 40
11.0
100
AcDbArc
 50
0.0
 51
90.0
  0
ARC
  5
195
100
AcDbEntity
  8
0
370
    -3
390
0
  6
Continuous
100
AcDbCircle
 10
-333.716815
 20
-204.364568
 30
0.0
 40
11.0
100
AcDbArc
 50
90.0
 51
180.0
  0
ARC
  5
196
100
AcDbEntity
  8
0
370
    -3
390
0
  6
Continuous
100
AcDbCircle
 10
-333.716815
 20
-200.893096
 30
0.0
 40
11.0
100
AcDbArc
 50
90.0
 51
180.0
  0
LINE
  5
197
100
AcDbEntity
  8
0
370
    -3
390
0
  6
Continuous
100
AcDbLine
 10
-332.066815
 20
-188.58766
 30
0.0
 11
-264.466815
 21
-188.58766
 31
0.0
  0
ARC
  5
198
100
AcDbEntity
  8
0
370
    -3
390
0
  6
Continuous
100
AcDbCircle
 10
-264.466815
 20
-193.58766
 30
0.0
 40
5.0
100
AcDbArc
 50
44.925956
 51
90.0
  0
ARC
  5
199
100
AcDbEntity
  8
0
370
    -3
390
0
  6
Continuous
100
AcDbCircle
 10
-332.066815
 20
-193.58766
 30
0.0
 40
5.0
100
AcDbArc
 50
90.0
 51
135.074044
  0
LINE
  5
19A
100
AcDbEntity
  8
0
370
    -3
390
0
  6
Continuous
100
AcDbLine
 10
-267.266815
 20
-187.58766
 30
0.0
 11
-267.266815
 21
-188.58766
 31
0.0
  0
LINE
  5
19B
100
AcDbEntity
  8
0
370
    -3
390
0
  6
Continuous
100
AcDbLine
 10
-329.266815
 20
-187.58766
 30
0.0
 11
-267.266815
 21
-187.58766
 31
0.0
  0
LINE
  5
19C
100
AcDbEntity
  8
0
370
    -3
390
0
  6
Continuous
100
AcDbLine
 10
-329.266815
 20
-187.58766
 30
0.0
 11
-329.266815
 21
-188.58766
 31
0.0
  0
LINE
  5
19D
100
AcDbEntity
  8
0
370
    -3
390
0
  6
CENTER
100
AcDbLine
 10
-321.090446
 20
-212.58766
 30
0.0
 11
-276.802728
 21
-212.58766
 31
0.0
  0
CIRCLE
  5
19E
100
AcDbEntity
  8
0
370
    -3
390
0
  6
DASHED
100
AcDbCircle
 10
-298.266815
 20
-212.58766
 30
0.0
 40
13.5
  0
LINE
  5
19F
100
AcDbEntity
  8
0
370
    -3
390
0
  6
Continuous
100
AcDbLine
 10
-295.209559
 20
-238.761485
 30
0.0
 11
-262.816815
 21
-238.761485
 31
0.0
  0
LINE
  5
1A0
100
AcDbEntity
  8
0
370
    -3
390
0
  6
Continuous
100
AcDbLine
 10
-308.266815
 20
-172.305457
 30
0.0
 11
-308.266815
 21
-101.58766
 31
0.0
  0
ARC
  5
1A1
100
AcDbEntity
  8
0
370
    -3
390
0
  6
Continuous
100
AcDbCircle
 10
-311.266815
 20
-172.305457
 30
0.0
 40
3.0
100
AcDbArc
 50
270.0
 51
0.0
  0
LINE
  5
1A2
100
AcDbEntity
  8
0
370
    -3
390
0
  6
Continuous
100
AcDbLine
 10
-328.266815
 20
-176.38766
 30
0.0
 11
-340.01398
 21
-176.38766
 31
0.0
  0
LINE
  5
1A3
100
AcDbEntity
  8
0
370
    -3
390
0
  6
Continuous
100
AcDbLine
 10
-328.266815
 20
-176.38766
 30
0.0
 11
-328.266815
 21
-176.305457
 31
0.0
  0
LINE
  5
1A4
100
AcDbEntity
  8
0
370
    -3
390
0
  6
Continuous
100
AcDbLine
 10
-327.266815
 20
-175.305457
 30
0.0
 11
-311.266815
 21
-175.305457
 31
0.0
  0
ARC
  5
1A5
100
AcDbEntity
  8
0
370
    -3
390
0
  6
Continuous
100
AcDbCircle
 10
-327.266815
 20
-176.305457
 30
0.0
 40
1.0
100
AcDbArc
 50
90.0
 51
180.0
  0
ARC
  5
1A6
100
AcDbEntity
  8
0
370
    -3
390
0
  6
Continuous
100
AcDbCircle
 10
-320.666815
 20
-175.78766
 30
0.0
 40
3.2
100
AcDbArc
 50
171.333191
 51
180.0
  0
CIRCLE
  5
1A7
100
AcDbEntity
  8
0
370
    -3
390
0
  6
Continuous
100
AcDbCircle
 10
-127.266815
 20
-38.58766
 30
0.0
 40
6.0
  0
CIRCLE
  5
1A8
100
AcDbEntity
  8
0
370
    -3
390
0
  6
Continuous
100
AcDbCircle
 10
-127.266815
 20
-38.58766
 30
0.0
 40
5.4
  0
CIRCLE
  5
1A9
100
AcDbEntity
  8
0
370
    -3
390
0
  6
Continuous
100
AcDbCircle
 10
-127.266815
 20
-128.58766
 30
0.0
 40
6.0
  0
CIRCLE
  5
1AA
100
AcDbEntity
  8
0
370
    -3
390
0
  6
Continuous
100
AcDbCircle
 10
-127.266815
 20
-128.58766
 30
0.0
 40
5.4
  0
CIRCLE
  5
1AB
100
AcDbEntity
  8
0
370
    -3
390
0
  6
Continuous
100
AcDbCircle
 10
18.733185
 20
-128.58766
 30
0.0
 40
6.0
  0
CIRCLE
  5
1AC
100
AcDbEntity
  8
0
370
    -3
390
0
  6
Continuous
100
AcDbCircle
 10
18.733185
 20
-128.58766
 30
0.0
 40
5.4
  0
CIRCLE
  5
1AD
100
AcDbEntity
  8
0
370
    -3
390
0
  6
Continuous
100
AcDbCircle
 10
18.733185
 20
-38.58766
 30
0.0
 40
6.0
  0
CIRCLE
  5
1AE
100
AcDbEntity
  8
0
370
    -3
390
0
  6
Continuous
100
AcDbCircle
 10
18.733185
 20
-38.58766
 30
0.0
 40
5.4
  0
LINE
  5
1AF
100
AcDbEntity
  8
0
370
    -3
390
0
  6
CENTER
100
AcDbLine
 10
-114.808515
 20
-101.58766
 30
0.0
 11
-380.509698
 21
-101.58766
 31
0.0
  0
LINE
  5
1B0
100
AcDbEntity
  8
0
370
    -3
390
0
  6
CENTER
100
AcDbLine
 10
33.783509
 20
-83.58766
 30
0.0
 11
-91.344571
 21
-83.58766
 31
0.0
  0
ARC
  5
1B1
100
AcDbEntity
  8
0
370
    -3
390
0
  6
Continuous
100
AcDbCircle
 10
-147.266815
 20
-51.58766
 30
0.0
 40
5.0
100
AcDbArc
 50
360.0
 51
90.0
  0
LINE
  5
1B2
100
AcDbEntity
  8
0
370
    -3
390
0
  6
Continuous
100
AcDbLine
 10
-155.766815
 20
-46.58766
 30
0.0
 11
-147.266815
 21
-46.58766
 31
0.0
  0
ARC
  5
1B3
100
AcDbEntity
  8
0
370
    -3
390
0
  6
Continuous
100
AcDbCircle
 10
-155.766815
 20
-43.58766
 30
0.0
 40
3.0
100
AcDbArc
 50
180.0
 51
270.0
  0
LINE
  5
1B4
100
AcDbEntity
  8
0
370
    -3
390
0
  6
Continuous
100
AcDbLine
 10
-158.766815
 20
-101.58766
 30
0.0
 11
-158.766815
 21
-32.08766
 31
0.0
  0
ARC
  5
1B5
100
AcDbEntity
  8
0
370
    -3
390
0
  6
Continuous
100
AcDbCircle
 10
-147.266815
 20
-40.58766
 30
0.0
 40
5.0
100
AcDbArc
 50
360.0
 51
90.0
  0
LINE
  5
1B6
100
AcDbEntity
  8
0
370
    -3
390
0
  6
Continuous
100
AcDbLine
 10
-142.266815
 20
-101.58766
 30
0.0
 11
-142.266815
 21
-40.58766
 31
0.0
  0
ARC
  5
1B7
100
AcDbEntity
  8
0
370
    -3
390
0
  6
Continuous
100
AcDbCircle
 10
-141.083469
 20
-33.58766
 30
0.0
 40
2.0
100
AcDbArc
 50
270.0
 51
349.524318
  0
LINE
  5
1B8
100
AcDbEntity
  8
0
370
    -3
390
0
  6
Continuous
100
AcDbLine
 10
-141.083469
 20
-35.58766
 30
0.0
 11
-156.766815
 21
-35.58766
 31
0.0
  0
ARC
  5
1B9
100
AcDbEntity
  8
0
370
    -3
390
0
  6
Continuous
100
AcDbCircle
 10
-156.766815
 20
-33.58766
 30
0.0
 40
2.0
100
AcDbArc
 50
180.0
 51
270.0
  0
ARC
  5
1BA
100
AcDbEntity
  8
0
370
    -3
390
0
  6
Continuous
100
AcDbCircle
 10
-160.766815
 20
-32.08766
 30
0.0
 40
2.0
100
AcDbArc
 50
0.0
 51
90.0
  0
ARC
  5
1BB
100
AcDbEntity
  8
0
370
    -3
390
0
  6
Continuous
100
AcDbCircle
 10
-160.766815
 20
-32.08766
 30
0.0
 40
2.0
100
AcDbArc
 50
0.0
 51
90.0
  0
ARC
  5
1BC
100
AcDbEntity
  8
0
370
    -3
390
0
  6
Continuous
100
AcDbCircle
 10
-156.766815
 20
-33.58766
 30
0.0
 40
2.0
100
AcDbArc
 50
180.0
 51
270.0
  0
LINE
  5
1BD
100
AcDbEntity
  8
0
370
    -3
390
0
  6
Continuous
100
AcDbLine
 10
-141.083469
 20
-35.58766
 30
0.0
 11
-156.766815
 21
-35.58766
 31
0.0
  0
ARC
  5
1BE
100
AcDbEntity
  8
0
370
    -3
390
0
  6
Continuous
100
AcDbCircle
 10
-141.083469
 20
-33.58766
 30
0.0
 40
2.0
100
AcDbArc
 50
270.0
 51
349.524318
  0
LINE
  5
1BF
100
AcDbEntity
  8
0
370
    -3
390
0
  6
Continuous
100
AcDbLine
 10
-142.266815
 20
-101.58766
 30
0.0
 11
-142.266815
 21
-40.58766
 31
0.0
  0
ARC
  5
1C0
100
AcDbEntity
  8
0
370
    -3
390
0
  6
Continuous
100
AcDbCircle
 10
-147.266815
 20
-40.58766
 30
0.0
 40
5.0
100
AcDbArc
 50
360.0
 51
90.0
  0
LINE
  5
1C1
100
AcDbEntity
  8
0
370
    -3
390
0
  6
Continuous
100
AcDbLine
 10
-158.766815
 20
-101.58766
 30
0.0
 11
-158.766815
 21
-32.08766
 31
0.0
  0
ARC
  5
1C2
100
AcDbEntity
  8
0
370
    -3
390
0
  6
Continuous
100
AcDbCircle
 10
-155.766815
 20
-43.58766
 30
0.0
 40
3.0
100
AcDbArc
 50
180.0
 51
270.0
  0
LINE
  5
1C3
100
AcDbEntity
  8
0
370
    -3
390
0
  6
Continuous
100
AcDbLine
 10
-155.766815
 20
-46.58766
 30
0.0
 11
-147.266815
 21
-46.58766
 31
0.0
  0
ARC
  5
1C4
100
AcDbEntity
  8
0
370
    -3
390
0
  6
Continuous
100
AcDbCircle
 10
-147.266815
 20
-51.58766
 30
0.0
 40
5.0
100
AcDbArc
 50
360.0
 51
90.0
  0
ARC
  5
1C5
100
AcDbEntity
  8
0
370
    -3
390
0
  6
Continuous
100
AcDbCircle
 10
-147.266815
 20
-59.830714
 30
0.0
 40
5.0
100
AcDbArc
 50
360.0
 51
90.0
  0
LINE
  5
1C6
100
AcDbEntity
  8
0
370
    -3
390
0
  6
Continuous
100
AcDbLine
 10
-155.766815
 20
-54.830714
 30
0.0
 11
-147.266815
 21
-54.830714
 31
0.0
  0
ARC
  5
1C7
100
AcDbEntity
  8
0
370
    -3
390
0
  6
Continuous
100
AcDbCircle
 10
-155.766815
 20
-62.947885
 30
0.0
 40
3.0
100
AcDbArc
 50
90.0
 51
180.0
  0
LINE
  5
1C8
100
AcDbEntity
  8
0
370
    -3
390
0
  6
Continuous
100
AcDbLine
 10
-155.766815
 20
-59.947885
 30
0.0
 11
-144.705586
 21
-59.947885
 31
0.0
  0
ARC
  5
1C9
100
AcDbEntity
  8
0
370
    -3
390
0
  6
Continuous
100
AcDbCircle
 10
-155.766815
 20
-57.830714
 30
0.0
 40
3.0
100
AcDbArc
 50
90.0
 51
180.0
  0
ARC
  5
1CA
100
AcDbEntity
  8
0
370
    -3
390
0
  6
Continuous
100
AcDbCircle
 10
-155.766815
 20
-57.830714
 30
0.0
 40
3.0
100
AcDbArc
 50
90.0
 51
180.0
  0
LINE
  5
1CB
100
AcDbEntity
  8
0
370
    -3
390
0
  6
Continuous
100
AcDbLine
 10
-155.766815
 20
-59.947885
 30
0.0
 11
-144.705586
 21
-59.947885
 31
0.0
  0
ARC
  5
1CC
100
AcDbEntity
  8
0
370
    -3
390
0
  6
Continuous
100
AcDbCircle
 10
-155.766815
 20
-62.947885
 30
0.0
 40
3.0
100
AcDbArc
 50
90.0
 51
180.0
  0
LINE
  5
1CD
100
AcDbEntity
  8
0
370
    -3
390
0
  6
Continuous
100
AcDbLine
 10
-155.766815
 20
-54.830714
 30
0.0
 11
-147.266815
 21
-54.830714
 31
0.0
  0
ARC
  5
1CE
100
AcDbEntity
  8
0
370
    -3
390
0
  6
Continuous
100
AcDbCircle
 10
-147.266815
 20
-59.830714
 30
0.0
 40
5.0
100
AcDbArc
 50
360.0
 51
90.0
  0
LINE
  5
1CF
100
AcDbEntity
  8
0
370
    -3
390
0
  6
Continuous
100
AcDbLine
 10
-158.766815
 20
-101.58766
 30
0.0
 11
-158.766815
 21
-171.08766
 31
0.0
  0
LINE
  5
1D0
100
AcDbEntity
  8
0
370
    -3
390
0
  6
Continuous
100
AcDbLine
 10
-142.266815
 20
-101.58766
 30
0.0
 11
-142.266815
 21
-162.58766
 31
0.0
  0
LINE
  5
1D1
100
AcDbEntity
  8
0
370
    -3
390
0
  6
Continuous
100
AcDbLine
 10
-142.266815
 20
-101.58766
 30
0.0
 11
-142.266815
 21
-162.58766
 31
0.0
  0
LINE
  5
1D2
100
AcDbEntity
  8
0
370
    -3
390
0
  6
Continuous
100
AcDbLine
 10
-158.766815
 20
-101.58766
 30
0.0
 11
-158.766815
 21
-171.08766
 31
0.0
  0
ARC
  5
1D3
100
AcDbEntity
  8
0
370
    -3
390
0
  6
Continuous
100
AcDbCircle
 10
-147.266815
 20
-143.344606
 30
0.0
 40
5.0
100
AcDbArc
 50
270.0
 51
0.0
  0
LINE
  5
1D4
100
AcDbEntity
  8
0
370
    -3
390
0
  6
Continuous
100
AcDbLine
 10
-155.766815
 20
-148.344606
 30
0.0
 11
-147.266815
 21
-148.344606
 31
0.0
  0
ARC
  5
1D5
100
AcDbEntity
  8
0
370
    -3
390
0
  6
Continuous
100
AcDbCircle
 10
-147.266815
 20
-151.58766
 30
0.0
 40
5.0
100
AcDbArc
 50
270.0
 51
0.0
  0
ARC
  5
1D6
100
AcDbEntity
  8
0
370
    -3
390
0
  6
Continuous
100
AcDbCircle
 10
-155.766815
 20
-140.227434
 30
0.0
 40
3.0
100
AcDbArc
 50
180.0
 51
270.0
  0
LINE
  5
1D7
100
AcDbEntity
  8
0
370
    -3
390
0
  6
Continuous
100
AcDbLine
 10
-155.766815
 20
-143.227434
 30
0.0
 11
-144.705586
 21
-143.227434
 31
0.0
  0
ARC
  5
1D8
100
AcDbEntity
  8
0
370
    -3
390
0
  6
Continuous
100
AcDbCircle
 10
-155.766815
 20
-145.344606
 30
0.0
 40
3.0
100
AcDbArc
 50
180.0
 51
270.0
  0
ARC
  5
1D9
100
AcDbEntity
  8
0
370
    -3
390
0
  6
Continuous
100
AcDbCircle
 10
-139.266815
 20
-149.58766
 30
0.0
 40
3.0
100
AcDbArc
 50
90.0
 51
180.0
  0
ARC
  5
1DA
100
AcDbEntity
  8
0
370
    -3
390
0
  6
Continuous
100
AcDbCircle
 10
-139.266815
 20
-149.58766
 30
0.0
 40
3.0
100
AcDbArc
 50
90.0
 51
180.0
  0
ARC
  5
1DB
100
AcDbEntity
  8
0
370
    -3
390
0
  6
Continuous
100
AcDbCircle
 10
-155.766815
 20
-145.344606
 30
0.0
 40
3.0
100
AcDbArc
 50
180.0
 51
270.0
  0
LINE
  5
1DC
100
AcDbEntity
  8
0
370
    -3
390
0
  6
Continuous
100
AcDbLine
 10
-155.766815
 20
-143.227434
 30
0.0
 11
-144.705586
 21
-143.227434
 31
0.0
  0
ARC
  5
1DD
100
AcDbEntity
  8
0
370
    -3
390
0
  6
Continuous
100
AcDbCircle
 10
-155.766815
 20
-140.227434
 30
0.0
 40
3.0
100
AcDbArc
 50
180.0
 51
270.0
  0
ARC
  5
1DE
100
AcDbEntity
  8
0
370
    -3
390
0
  6
Continuous
100
AcDbCircle
 10
-147.266815
 20
-151.58766
 30
0.0
 40
5.0
100
AcDbArc
 50
270.0
 51
0.0
  0
LINE
  5
1DF
100
AcDbEntity
  8
0
370
    -3
390
0
  6
Continuous
100
AcDbLine
 10
-155.766815
 20
-148.344606
 30
0.0
 11
-147.266815
 21
-148.344606
 31
0.0
  0
ARC
  5
1E0
100
AcDbEntity
  8
0
370
    -3
390
0
  6
Continuous
100
AcDbCircle
 10
-147.266815
 20
-143.344606
 30
0.0
 40
5.0
100
AcDbArc
 50
270.0
 51
0.0
  0
LINE
  5
1E1
100
AcDbEntity
  8
0
370
    -3
390
0
  6
Continuous
100
AcDbLine
 10
-139.266815
 20
-146.58766
 30
0.0
 11
-136.266815
 21
-146.58766
 31
0.0
  0
ARC
  5
1E2
100
AcDbEntity
  8
0
370
    -3
390
0
  6
Continuous
100
AcDbCircle
 10
-136.266815
 20
-143.58766
 30
0.0
 40
3.0
100
AcDbArc
 50
270.0
 51
0.0
  0
ARC
  5
1E3
100
AcDbEntity
  8
0
370
    -3
390
0
  6
Continuous
100
AcDbCircle
 10
-130.266815
 20
-143.58766
 30
0.0
 40
3.0
100
AcDbArc
 50
90.0
 51
180.0
  0
ARC
  5
1E4
100
AcDbEntity
  8
0
370
    -3
390
0
  6
Continuous
100
AcDbCircle
 10
-130.266815
 20
-143.58766
 30
0.0
 40
3.0
100
AcDbArc
 50
90.0
 51
180.0
  0
ARC
  5
1E5
100
AcDbEntity
  8
0
370
    -3
390
0
  6
Continuous
100
AcDbCircle
 10
-136.266815
 20
-143.58766
 30
0.0
 40
3.0
100
AcDbArc
 50
270.0
 51
0.0
  0
LINE
  5
1E6
100
AcDbEntity
  8
0
370
    -3
390
0
  6
Continuous
100
AcDbLine
 10
-139.266815
 20
-146.58766
 30
0.0
 11
-136.266815
 21
-146.58766
 31
0.0
  0
LINE
  5
1E7
100
AcDbEntity
  8
0
370
    -3
390
0
  6
Continuous
100
AcDbLine
 10
-147.266815
 20
-167.58766
 30
0.0
 11
-156.766815
 21
-167.58766
 31
0.0
  0
LINE
  5
1E8
100
AcDbEntity
  8
0
370
    -3
390
0
  6
Continuous
100
AcDbLine
 10
-155.766815
 20
-156.58766
 30
0.0
 11
-147.266815
 21
-156.58766
 31
0.0
  0
ARC
  5
1E9
100
AcDbEntity
  8
0
370
    -3
390
0
  6
Continuous
100
AcDbCircle
 10
-155.766815
 20
-159.58766
 30
0.0
 40
3.0
100
AcDbArc
 50
90.0
 51
180.0
  0
ARC
  5
1EA
100
AcDbEntity
  8
0
370
    -3
390
0
  6
Continuous
100
AcDbCircle
 10
-147.266815
 20
-162.58766
 30
0.0
 40
5.0
100
AcDbArc
 50
270.0
 51
0.0
  0
ARC
  5
1EB
100
AcDbEntity
  8
0
370
    -3
390
0
  6
Continuous
100
AcDbCircle
 10
-156.766815
 20
-169.58766
 30
0.0
 40
2.0
100
AcDbArc
 50
90.0
 51
180.0
  0
ARC
  5
1EC
100
AcDbEntity
  8
0
370
    -3
390
0
  6
Continuous
100
AcDbCircle
 10
-160.766815
 20
-171.08766
 30
0.0
 40
2.0
100
AcDbArc
 50
270.0
 51
0.0
  0
ARC
  5
1ED
100
AcDbEntity
  8
0
370
    -3
390
0
  6
Continuous
100
AcDbCircle
 10
-147.266815
 20
-162.58766
 30
0.0
 40
5.0
100
AcDbArc
 50
270.0
 51
0.0
  0
ARC
  5
1EE
100
AcDbEntity
  8
0
370
    -3
390
0
  6
Continuous
100
AcDbCircle
 10
-147.266815
 20
-162.58766
 30
0.0
 40
5.0
100
AcDbArc
 50
270.0
 51
0.0
  0
ARC
  5
1EF
100
AcDbEntity
  8
0
370
    -3
390
0
  6
Continuous
100
AcDbCircle
 10
-160.766815
 20
-171.08766
 30
0.0
 40
2.0
100
AcDbArc
 50
270.0
 51
0.0
  0
ARC
  5
1F0
100
AcDbEntity
  8
0
370
    -3
390
0
  6
Continuous
100
AcDbCircle
 10
-156.766815
 20
-169.58766
 30
0.0
 40
2.0
100
AcDbArc
 50
90.0
 51
180.0
  0
ARC
  5
1F1
100
AcDbEntity
  8
0
370
    -3
390
0
  6
Continuous
100
AcDbCircle
 10
-147.266815
 20
-162.58766
 30
0.0
 40
5.0
100
AcDbArc
 50
270.0
 51
0.0
  0
ARC
  5
1F2
100
AcDbEntity
  8
0
370
    -3
390
0
  6
Continuous
100
AcDbCircle
 10
-155.766815
 20
-159.58766
 30
0.0
 40
3.0
100
AcDbArc
 50
90.0
 51
180.0
  0
LINE
  5
1F3
100
AcDbEntity
  8
0
370
    -3
390
0
  6
Continuous
100
AcDbLine
 10
-155.766815
 20
-156.58766
 30
0.0
 11
-147.266815
 21
-156.58766
 31
0.0
  0
LINE
  5
1F4
100
AcDbEntity
  8
0
370
    -3
390
0
  6
Continuous
100
AcDbLine
 10
-147.266815
 20
-167.58766
 30
0.0
 11
-156.766815
 21
-167.58766
 31
0.0
  0
LINE
  5
1F5
100
AcDbEntity
  8
0
370
    -3
390
0
  6
CENTER
100
AcDbLine
 10
-127.266815
 20
-142.572445
 30
0.0
 11
-127.266815
 21
-117.073719
 31
0.0
  0
LINE
  5
1F6
100
AcDbEntity
  8
0
370
    -3
390
0
  6
CENTER
100
AcDbLine
 10
-116.729374
 20
-128.58766
 30
0.0
 11
-143.217433
 21
-128.58766
 31
0.0
  0
LINE
  5
1F7
100
AcDbEntity
  8
0
370
    -3
390
0
  6
CENTER
100
AcDbLine
 10
18.733185
 20
-142.572445
 30
0.0
 11
18.733185
 21
-116.342545
 31
0.0
  0
LINE
  5
1F8
100
AcDbEntity
  8
0
370
    -3
390
0
  6
CENTER
100
AcDbLine
 10
32.515138
 20
-128.58766
 30
0.0
 11
8.087369
 21
-128.58766
 31
0.0
  0
LINE
  5
1F9
100
AcDbEntity
  8
0
370
    -3
390
0
  6
CENTER
100
AcDbLine
 10
18.733185
 20
-50.160547
 30
0.0
 11
18.733185
 21
-24.239262
 31
0.0
  0
LINE
  5
1FA
100
AcDbEntity
  8
0
370
    -3
390
0
  6
CENTER
100
AcDbLine
 10
33.149065
 20
-38.58766
 30
0.0
 11
6.429664
 21
-38.58766
 31
0.0
  0
LINE
  5
1FB
100
AcDbEntity
  8
0
370
    -3
390
0
  6
CENTER
100
AcDbLine
 10
-118.582528
 20
-133.58766
 30
0.0
 11
-105.703106
 21
-133.58766
 31
0.0
  0
LINE
  5
1FC
100
AcDbEntity
  8
0
370
    -3
390
0
  6
CENTER
100
AcDbLine
 10
-112.266815
 20
-140.802118
 30
0.0
 11
-112.266815
 21
-127.830039
 31
0.0
  0
LINE
  5
1FD
100
AcDbEntity
  8
0
370
    -3
390
0
  6
CENTER
100
AcDbLine
 10
-2.582528
 20
-133.58766
 30
0.0
 11
10.296894
 21
-133.58766
 31
0.0
  0
LINE
  5
1FE
100
AcDbEntity
  8
0
370
    -3
390
0
  6
CENTER
100
AcDbLine
 10
3.733185
 20
-140.802118
 30
0.0
 11
3.733185
 21
-127.830039
 31
0.0
  0
LINE
  5
1FF
100
AcDbEntity
  8
0
370
    -3
390
0
  6
CENTER
100
AcDbLine
 10
-2.582528
 20
-33.58766
 30
0.0
 11
10.296894
 21
-33.58766
 31
0.0
  0
LINE
  5
200
100
AcDbEntity
  8
0
370
    -3
390
0
  6
CENTER
100
AcDbLine
 10
3.733185
 20
-40.802118
 30
0.0
 11
3.733185
 21
-27.830039
 31
0.0
  0
LINE
  5
201
100
AcDbEntity
  8
0
370
    -3
390
0
  6
CENTER
100
AcDbLine
 10
-127.266815
 20
-50.160547
 30
0.0
 11
-127.266815
 21
-23.605334
 31
0.0
  0
LINE
  5
202
100
AcDbEntity
  8
0
370
    -3
390
0
  6
CENTER
100
AcDbLine
 10
-116.729374
 20
-38.58766
 30
0.0
 11
-141.998808
 21
-38.58766
 31
0.0
  0
LINE
  5
203
100
AcDbEntity
  8
0
370
    -3
390
0
  6
CENTER
100
AcDbLine
 10
-112.266815
 20
-40.802118
 30
0.0
 11
-112.266815
 21
-27.830039
 31
0.0
  0
LINE
  5
204
100
AcDbEntity
  8
0
370
    -3
390
0
  6
CENTER
100
AcDbLine
 10
-118.582528
 20
-33.58766
 30
0.0
 11
-105.703106
 21
-33.58766
 31
0.0
  0
LINE
  5
205
100
AcDbEntity
  8
0
370
    -3
390
0
  6
Continuous
100
AcDbLine
 10
30.233185
 20
-131.08766
 30
0.0
 11
30.233185
 21
-84.453685
 31
0.0
  0
LINE
  5
206
100
AcDbEntity
  8
0
370
    -3
390
0
  6
Continuous
100
AcDbLine
 10
21.233185
 20
-140.08766
 30
0.0
 11
-25.400789
 21
-140.08766
 31
0.0
  0
ARC
  5
207
100
AcDbEntity
  8
0
370
    -3
390
0
  6
Continuous
100
AcDbCircle
 10
21.233185
 20
-131.08766
 30
0.0
 40
9.0
100
AcDbArc
 50
270.0
 51
0.0
  0
ARC
  5
208
100
AcDbEntity
  8
0
370
    -3
390
0
  6
Continuous
100
AcDbCircle
 10
21.233185
 20
-36.08766
 30
0.0
 40
9.0
100
AcDbArc
 50
0.0
 51
90.0
  0
LINE
  5
209
100
AcDbEntity
  8
0
370
    -3
390
0
  6
Continuous
100
AcDbLine
 10
-25.400789
 20
-27.08766
 30
0.0
 11
21.233185
 21
-27.08766
 31
0.0
  0
LINE
  5
20A
100
AcDbEntity
  8
0
370
    -3
390
0
  6
Continuous
100
AcDbLine
 10
30.233185
 20
-82.721634
 30
0.0
 11
30.233185
 21
-36.08766
 31
0.0
  0
LINE
  5
20B
100
AcDbEntity
  8
0
370
    -3
390
0
  6
Continuous
100
AcDbLine
 10
-117.766815
 20
-33.58766
 30
0.0
 11
-117.766815
 21
-26.98766
 31
0.0
  0
LINE
  5
20C
100
AcDbEntity
  8
0
370
    -3
390
0
  6
Continuous
100
AcDbLine
 10
-117.766815
 20
-26.98766
 30
0.0
 11
-118.166815
 21
-26.58766
 31
0.0
  0
LINE
  5
20D
100
AcDbEntity
  8
0
370
    -3
390
0
  6
Continuous
100
AcDbLine
 10
-106.766815
 20
-33.58766
 30
0.0
 11
-106.766815
 21
-26.98766
 31
0.0
  0
LINE
  5
20E
100
AcDbEntity
  8
0
370
    -3
390
0
  6
Continuous
100
AcDbLine
 10
-106.766815
 20
-26.98766
 30
0.0
 11
-106.366815
 21
-26.58766
 31
0.0
  0
ARC
  5
20F
100
AcDbEntity
  8
0
370
    -3
390
0
  6
Continuous
100
AcDbCircle
 10
-112.266815
 20
-33.58766
 30
0.0
 40
5.5
100
AcDbArc
 50
180.0
 51
0.0
  0
LINE
  5
210
100
AcDbEntity
  8
0
370
    -3
390
0
  6
Continuous
100
AcDbLine
 10
-1.766815
 20
-33.58766
 30
0.0
 11
-1.766815
 21
-26.98766
 31
0.0
  0
LINE
  5
211
100
AcDbEntity
  8
0
370
    -3
390
0
  6
Continuous
100
AcDbLine
 10
-1.766815
 20
-26.98766
 30
0.0
 11
-2.166815
 21
-26.58766
 31
0.0
  0
LINE
  5
212
100
AcDbEntity
  8
0
370
    -3
390
0
  6
Continuous
100
AcDbLine
 10
9.233185
 20
-33.58766
 30
0.0
 11
9.233185
 21
-26.98766
 31
0.0
  0
LINE
  5
213
100
AcDbEntity
  8
0
370
    -3
390
0
  6
Continuous
100
AcDbLine
 10
9.233185
 20
-26.98766
 30
0.0
 11
9.633185
 21
-26.58766
 31
0.0
  0
ARC
  5
214
100
AcDbEntity
  8
0
370
    -3
390
0
  6
Continuous
100
AcDbCircle
 10
3.733185
 20
-33.58766
 30
0.0
 40
5.5
100
AcDbArc
 50
180.0
 51
0.0
  0
ARC
  5
215
100
AcDbEntity
  8
0
370
    -3
390
0
  6
Continuous
100
AcDbCircle
 10
3.733185
 20
-133.58766
 30
0.0
 40
5.5
100
AcDbArc
 50
0.0
 51
180.0
  0
LINE
  5
216
100
AcDbEntity
  8
0
370
    -3
390
0
  6
Continuous
100
AcDbLine
 10
9.233185
 20
-133.58766
 30
0.0
 11
9.233185
 21
-140.18766
 31
0.0
  0
LINE
  5
217
100
AcDbEntity
  8
0
370
    -3
390
0
  6
Continuous
100
AcDbLine
 10
9.233185
 20
-140.18766
 30
0.0
 11
9.633185
 21
-140.58766
 31
0.0
  0
LINE
  5
218
100
AcDbEntity
  8
0
370
    -3
390
0
  6
Continuous
100
AcDbLine
 10
-1.766815
 20
-133.58766
 30
0.0
 11
-1.766815
 21
-140.18766
 31
0.0
  0
LINE
  5
219
100
AcDbEntity
  8
0
370
    -3
390
0
  6
Continuous
100
AcDbLine
 10
-1.766815
 20
-140.18766
 30
0.0
 11
-2.166815
 21
-140.58766
 31
0.0
  0
ARC
  5
21A
100
AcDbEntity
  8
0
370
    -3
390
0
  6
Continuous
100
AcDbCircle
 10
21.733185
 20
-35.58766
 30
0.0
 40
9.0
100
AcDbArc
 50
0.0
 51
90.0
  0
LINE
  5
21B
100
AcDbEntity
  8
0
370
    -3
390
0
  6
Continuous
100
AcDbLine
 10
30.733185
 20
-83.58766
 30
0.0
 11
30.733185
 21
-35.58766
 31
0.0
  0
LINE
  5
21C
100
AcDbEntity
  8
0
370
    -3
390
0
  6
Continuous
100
AcDbLine
 10
30.733185
 20
-83.58766
 30
0.0
 11
30.733185
 21
-131.58766
 31
0.0
  0
ARC
  5
21D
100
AcDbEntity
  8
0
370
    -3
390
0
  6
Continuous
100
AcDbCircle
 10
21.733185
 20
-131.58766
 30
0.0
 40
9.0
100
AcDbArc
 50
270.0
 51
0.0
  0
LINE
  5
21E
100
AcDbEntity
  8
0
370
    -3
390
0
  6
Continuous
100
AcDbLine
 10
21.733185
 20
-140.58766
 30
0.0
 11
-26.266815
 21
-140.58766
 31
0.0
  0
LINE
  5
21F
100
AcDbEntity
  8
0
370
    -3
390
0
  6
Continuous
100
AcDbLine
 10
21.733185
 20
-26.58766
 30
0.0
 11
-26.266815
 21
-26.58766
 31
0.0
  0
CIRCLE
  5
220
100
AcDbEntity
  8
0
370
    -3
390
0
  6
Continuous
100
AcDbCircle
 10
18.733185
 20
-38.58766
 30
0.0
 40
9.0
  0
CIRCLE
  5
221
100
AcDbEntity
  8
0
370
    -3
390
0
  6
Continuous
100
AcDbCircle
 10
18.733185
 20
-128.58766
 30
0.0
 40
9.0
  0
CIRCLE
  5
222
100
AcDbEntity
  8
0
370
    -3
390
0
  6
Continuous
100
AcDbCircle
 10
-112.266815
 20
-33.58766
 30
0.0
 40
3.3
  0
CIRCLE
  5
223
100
AcDbEntity
  8
0
370
    -3
390
0
  6
Continuous
100
AcDbCircle
 10
3.733185
 20
-33.58766
 30
0.0
 40
3.3
  0
CIRCLE
  5
224
100
AcDbEntity
  8
0
370
    -3
390
0
  6
Continuous
100
AcDbCircle
 10
-112.266815
 20
-133.58766
 30
0.0
 40
3.3
  0
CIRCLE
  5
225
100
AcDbEntity
  8
0
370
    -3
390
0
  6
Continuous
100
AcDbCircle
 10
3.733185
 20
-133.58766
 30
0.0
 40
3.3
  0
ARC
  5
226
100
AcDbEntity
  8
0
370
    -3
390
0
  6
Continuous
100
AcDbCircle
 10
17.733185
 20
-56.059065
 30
0.0
 40
5.0
100
AcDbArc
 50
0.0
 51
86.724171
  0
ARC
  5
227
100
AcDbEntity
  8
0
370
    -3
390
0
  6
Continuous
100
AcDbCircle
 10
17.733185
 20
-56.059065
 30
0.0
 40
3.5
100
AcDbArc
 50
0.0
 51
86.724171
  0
CIRCLE
  5
228
100
AcDbEntity
  8
0
370
    -3
390
0
  6
Continuous
100
AcDbCircle
 10
-26.266815
 20
-83.58766
 30
0.0
 40
44.25
  0
LINE
  5
229
100
AcDbEntity
  8
0
370
    -3
390
0
  6
Continuous
100
AcDbLine
 10
21.233185
 20
-56.059065
 30
0.0
 11
21.233185
 21
-111.116254
 31
0.0
  0
CIRCLE
  5
22A
100
AcDbEntity
  8
0
370
    -3
390
0
  6
Continuous
100
AcDbCircle
 10
-26.266815
 20
-83.58766
 30
0.0
 40
45.5
  0
LINE
  5
22B
100
AcDbEntity
  8
0
370
    -3
390
0
  6
Continuous
100
AcDbLine
 10
22.733185
 20
-56.059065
 30
0.0
 11
22.733185
 21
-111.116254
 31
0.0
  0
ARC
  5
22C
100
AcDbEntity
  8
0
370
    -3
390
0
  6
Continuous
100
AcDbCircle
 10
17.733185
 20
-111.116254
 30
0.0
 40
5.0
100
AcDbArc
 50
273.275829
 51
0.0
  0
ARC
  5
22D
100
AcDbEntity
  8
0
370
    -3
390
0
  6
Continuous
100
AcDbCircle
 10
17.733185
 20
-111.116254
 30
0.0
 40
3.5
100
AcDbArc
 50
273.275829
 51
0.0
  0
ARC
  5
22E
100
AcDbEntity
  8
0
370
    -3
390
0
  6
Continuous
100
AcDbCircle
 10
-53.79541
 20
-127.58766
 30
0.0
 40
3.5
100
AcDbArc
 50
183.275829
 51
270.0
  0
ARC
  5
22F
100
AcDbEntity
  8
0
370
    -3
390
0
  6
Continuous
100
AcDbCircle
 10
-53.79541
 20
-127.58766
 30
0.0
 40
4.0
100
AcDbArc
 50
183.275829
 51
270.0
  0
ARC
  5
230
100
AcDbEntity
  8
0
370
    -3
390
0
  6
Continuous
100
AcDbCircle
 10
-71.266815
 20
-128.58766
 30
0.0
 40
14.0
100
AcDbArc
 50
3.275829
 51
86.724171
  0
ARC
  5
231
100
AcDbEntity
  8
0
370
    -3
390
0
  6
Continuous
100
AcDbCircle
 10
-71.266815
 20
-128.58766
 30
0.0
 40
13.5
100
AcDbArc
 50
3.275829
 51
86.724171
  0
LINE
  5
232
100
AcDbEntity
  8
0
370
    -3
390
0
  6
Continuous
100
AcDbLine
 10
-73.766815
 20
-56.059065
 30
0.0
 11
-73.766815
 21
-111.116254
 31
0.0
  0
LINE
  5
233
100
AcDbEntity
  8
0
370
    -3
390
0
  6
Continuous
100
AcDbLine
 10
-74.266815
 20
-56.059065
 30
0.0
 11
-74.266815
 21
-111.116254
 31
0.0
  0
ARC
  5
234
100
AcDbEntity
  8
0
370
    -3
390
0
  6
Continuous
100
AcDbCircle
 10
-70.266815
 20
-111.116254
 30
0.0
 40
3.5
100
AcDbArc
 50
180.0
 51
266.724171
  0
ARC
  5
235
100
AcDbEntity
  8
0
370
    -3
390
0
  6
Continuous
100
AcDbCircle
 10
-70.266815
 20
-111.116254
 30
0.0
 40
4.0
100
AcDbArc
 50
180.0
 51
266.724171
  0
ARC
  5
236
100
AcDbEntity
  8
0
370
    -3
390
0
  6
Continuous
100
AcDbCircle
 10
-70.266815
 20
-56.059065
 30
0.0
 40
3.5
100
AcDbArc
 50
93.275829
 51
180.0
  0
ARC
  5
237
100
AcDbEntity
  8
0
370
    -3
390
0
  6
Continuous
100
AcDbCircle
 10
-70.266815
 20
-56.059065
 30
0.0
 40
4.0
100
AcDbArc
 50
93.275829
 51
180.0
  0
ARC
  5
238
100
AcDbEntity
  8
0
370
    -3
390
0
  6
Continuous
100
AcDbCircle
 10
-71.266815
 20
-38.58766
 30
0.0
 40
14.0
100
AcDbArc
 50
273.275829
 51
356.724171
  0
ARC
  5
239
100
AcDbEntity
  8
0
370
    -3
390
0
  6
Continuous
100
AcDbCircle
 10
-71.266815
 20
-38.58766
 30
0.0
 40
13.5
100
AcDbArc
 50
273.275829
 51
356.724171
  0
ARC
  5
23A
100
AcDbEntity
  8
0
370
    -3
390
0
  6
Continuous
100
AcDbCircle
 10
-53.79541
 20
-39.58766
 30
0.0
 40
4.0
100
AcDbArc
 50
90.0
 51
176.724171
  0
ARC
  5
23B
100
AcDbEntity
  8
0
370
    -3
390
0
  6
Continuous
100
AcDbCircle
 10
-53.79541
 20
-39.58766
 30
0.0
 40
3.5
100
AcDbArc
 50
90.0
 51
176.724171
  0
ARC
  5
23C
100
AcDbEntity
  8
0
370
    -3
390
0
  6
Continuous
100
AcDbCircle
 10
-27.998866
 20
-27.58766
 30
0.0
 40
1.0
100
AcDbArc
 50
30.0
 51
90.0
  0
ARC
  5
23D
100
AcDbEntity
  8
0
370
    -3
390
0
  6
Continuous
100
AcDbCircle
 10
-24.534764
 20
-27.58766
 30
0.0
 40
1.0
100
AcDbArc
 50
90.0
 51
150.0
  0
ARC
  5
23E
100
AcDbEntity
  8
0
370
    -3
390
0
  6
Continuous
100
AcDbCircle
 10
-26.266815
 20
-26.58766
 30
0.0
 40
1.0
100
AcDbArc
 50
210.0
 51
330.0
  0
ARC
  5
23F
100
AcDbEntity
  8
0
370
    -3
390
0
  6
Continuous
100
AcDbCircle
 10
29.733185
 20
-81.855609
 30
0.0
 40
1.0
100
AcDbArc
 50
300.0
 51
0.0
  0
ARC
  5
240
100
AcDbEntity
  8
0
370
    -3
390
0
  6
Continuous
100
AcDbCircle
 10
29.733185
 20
-85.31971
 30
0.0
 40
1.0
100
AcDbArc
 50
0.0
 51
60.0
  0
ARC
  5
241
100
AcDbEntity
  8
0
370
    -3
390
0
  6
Continuous
100
AcDbCircle
 10
30.733185
 20
-83.58766
 30
0.0
 40
1.0
100
AcDbArc
 50
120.0
 51
240.0
  0
ARC
  5
242
100
AcDbEntity
  8
0
370
    -3
390
0
  6
Continuous
100
AcDbCircle
 10
-24.534764
 20
-139.58766
 30
0.0
 40
1.0
100
AcDbArc
 50
210.0
 51
270.0
  0
ARC
  5
243
100
AcDbEntity
  8
0
370
    -3
390
0
  6
Continuous
100
AcDbCircle
 10
-27.998866
 20
-139.58766
 30
0.0
 40
1.0
100
AcDbArc
 50
270.0
 51
330.0
  0
ARC
  5
244
100
AcDbEntity
  8
0
370
    -3
390
0
  6
Continuous
100
AcDbCircle
 10
-26.266815
 20
-140.58766
 30
0.0
 40
1.0
100
AcDbArc
 50
30.0
 51
150.0
  0
CIRCLE
  5
245
100
AcDbEntity
  8
0
370
    -3
390
0
  6
Continuous
100
AcDbCircle
 10
-26.266815
 20
-83.58766
 30
0.0
 40
43.0
  0
ARC
  5
246
100
AcDbEntity
  8
0
370
    -3
390
0
  6
Continuous
100
AcDbCircle
 10
-7.232671
 20
-39.58766
 30
0.0
 40
5.0
100
AcDbArc
 50
28.685402
 51
90.0
  0
ARC
  5
247
100
AcDbEntity
  8
0
370
    -3
390
0
  6
Continuous
100
AcDbCircle
 10
18.733185
 20
-38.58766
 30
0.0
 40
12.5
100
AcDbArc
 50
210.012476
 51
266.724171
  0
ARC
  5
248
100
AcDbEntity
  8
0
370
    -3
390
0
  6
Continuous
100
AcDbCircle
 10
3.733185
 20
-33.58766
 30
0.0
 40
7.5
100
AcDbArc
 50
208.685402
 51
259.77568
  0
ARC
  5
249
100
AcDbEntity
  8
0
370
    -3
390
0
  6
Continuous
100
AcDbCircle
 10
0.981897
 20
-48.841525
 30
0.0
 40
8.0
100
AcDbArc
 50
30.012476
 51
79.77568
  0
LINE
  5
24A
100
AcDbEntity
  8
0
370
    -3
390
0
  6
Continuous
100
AcDbLine
 10
-53.79541
 20
-36.08766
 30
0.0
 11
-7.232671
 21
-36.08766
 31
0.0
  0
ARC
  5
24B
100
AcDbEntity
  8
0
370
    -3
390
0
  6
Continuous
100
AcDbCircle
 10
-7.232671
 20
-39.58766
 30
0.0
 40
3.5
100
AcDbArc
 50
28.685402
 51
90.0
  0
ARC
  5
24C
100
AcDbEntity
  8
0
370
    -3
390
0
  6
Continuous
100
AcDbCircle
 10
18.733185
 20
-38.58766
 30
0.0
 40
14.0
100
AcDbArc
 50
210.012476
 51
266.724171
  0
ARC
  5
24D
100
AcDbEntity
  8
0
370
    -3
390
0
  6
Continuous
100
AcDbCircle
 10
3.733185
 20
-33.58766
 30
0.0
 40
9.0
100
AcDbArc
 50
208.685402
 51
259.77568
  0
ARC
  5
24E
100
AcDbEntity
  8
0
370
    -3
390
0
  6
Continuous
100
AcDbCircle
 10
0.981897
 20
-48.841525
 30
0.0
 40
6.5
100
AcDbArc
 50
30.012476
 51
79.77568
  0
ARC
  5
24F
100
AcDbEntity
  8
0
370
    -3
390
0
  6
Continuous
100
AcDbCircle
 10
-109.515526
 20
-48.841525
 30
0.0
 40
8.0
100
AcDbArc
 50
100.22432
 51
149.987524
  0
LINE
  5
250
100
AcDbEntity
  8
0
370
    -3
390
0
  6
Continuous
100
AcDbLine
 10
-7.232671
 20
-34.58766
 30
0.0
 11
-101.300959
 21
-34.58766
 31
0.0
  0
ARC
  5
251
100
AcDbEntity
  8
0
370
    -3
390
0
  6
Continuous
100
AcDbCircle
 10
-112.266815
 20
-33.58766
 30
0.0
 40
7.5
100
AcDbArc
 50
280.22432
 51
331.314598
  0
ARC
  5
252
100
AcDbEntity
  8
0
370
    -3
390
0
  6
Continuous
100
AcDbCircle
 10
-101.300959
 20
-39.58766
 30
0.0
 40
5.0
100
AcDbArc
 50
90.0
 51
151.314598
  0
ARC
  5
253
100
AcDbEntity
  8
0
370
    -3
390
0
  6
Continuous
100
AcDbCircle
 10
-109.515526
 20
-48.841525
 30
0.0
 40
7.0
100
AcDbArc
 50
100.22432
 51
149.987524
  0
ARC
  5
254
100
AcDbEntity
  8
0
370
    -3
390
0
  6
Continuous
100
AcDbCircle
 10
-112.266815
 20
-33.58766
 30
0.0
 40
8.5
100
AcDbArc
 50
280.22432
 51
331.314598
  0
ARC
  5
255
100
AcDbEntity
  8
0
370
    -3
390
0
  6
Continuous
100
AcDbCircle
 10
-101.300959
 20
-39.58766
 30
0.0
 40
4.0
100
AcDbArc
 50
90.0
 51
151.314598
  0
LINE
  5
256
100
AcDbEntity
  8
0
370
    -3
390
0
  6
Continuous
100
AcDbLine
 10
-53.79541
 20
-35.58766
 30
0.0
 11
-101.300959
 21
-35.58766
 31
0.0
  0
ARC
  5
257
100
AcDbEntity
  8
0
370
    -3
390
0
  6
Continuous
100
AcDbCircle
 10
18.733185
 20
-128.58766
 30
0.0
 40
12.5
100
AcDbArc
 50
93.275829
 51
149.987524
  0
ARC
  5
258
100
AcDbEntity
  8
0
370
    -3
390
0
  6
Continuous
100
AcDbCircle
 10
0.981897
 20
-118.333794
 30
0.0
 40
8.0
100
AcDbArc
 50
280.22432
 51
329.987524
  0
ARC
  5
259
100
AcDbEntity
  8
0
370
    -3
390
0
  6
Continuous
100
AcDbCircle
 10
-109.515526
 20
-118.333794
 30
0.0
 40
8.0
100
AcDbArc
 50
210.012476
 51
259.77568
  0
ARC
  5
25A
100
AcDbEntity
  8
0
370
    -3
390
0
  6
Continuous
100
AcDbCircle
 10
-112.266815
 20
-133.58766
 30
0.0
 40
7.5
100
AcDbArc
 50
28.685402
 51
79.77568
  0
ARC
  5
25B
100
AcDbEntity
  8
0
370
    -3
390
0
  6
Continuous
100
AcDbCircle
 10
-101.300959
 20
-127.58766
 30
0.0
 40
5.0
100
AcDbArc
 50
208.685402
 51
270.0
  0
LINE
  5
25C
100
AcDbEntity
  8
0
370
    -3
390
0
  6
Continuous
100
AcDbLine
 10
-101.300959
 20
-131.58766
 30
0.0
 11
-53.79541
 21
-131.58766
 31
0.0
  0
ARC
  5
25D
100
AcDbEntity
  8
0
370
    -3
390
0
  6
Continuous
100
AcDbCircle
 10
-101.300959
 20
-127.58766
 30
0.0
 40
4.0
100
AcDbArc
 50
208.685402
 51
270.0
  0
ARC
  5
25E
100
AcDbEntity
  8
0
370
    -3
390
0
  6
Continuous
100
AcDbCircle
 10
-112.266815
 20
-133.58766
 30
0.0
 40
8.5
100
AcDbArc
 50
28.685402
 51
79.77568
  0
ARC
  5
25F
100
AcDbEntity
  8
0
370
    -3
390
0
  6
Continuous
100
AcDbCircle
 10
-109.515526
 20
-118.333794
 30
0.0
 40
7.0
100
AcDbArc
 50
210.012476
 51
259.77568
  0
LINE
  5
260
100
AcDbEntity
  8
0
370
    -3
390
0
  6
Continuous
100
AcDbLine
 10
-7.232671
 20
-132.58766
 30
0.0
 11
-101.300959
 21
-132.58766
 31
0.0
  0
ARC
  5
261
100
AcDbEntity
  8
0
370
    -3
390
0
  6
Continuous
100
AcDbCircle
 10
3.733185
 20
-133.58766
 30
0.0
 40
7.5
100
AcDbArc
 50
100.22432
 51
151.314598
  0
ARC
  5
262
100
AcDbEntity
  8
0
370
    -3
390
0
  6
Continuous
100
AcDbCircle
 10
-7.232671
 20
-127.58766
 30
0.0
 40
5.0
100
AcDbArc
 50
270.0
 51
331.314598
  0
LINE
  5
263
100
AcDbEntity
  8
0
370
    -3
390
0
  6
Continuous
100
AcDbLine
 10
-7.232671
 20
-131.08766
 30
0.0
 11
-53.79541
 21
-131.08766
 31
0.0
  0
ARC
  5
264
100
AcDbEntity
  8
0
370
    -3
390
0
  6
Continuous
100
AcDbCircle
 10
-7.232671
 20
-127.58766
 30
0.0
 40
3.5
100
AcDbArc
 50
270.0
 51
331.314598
  0
ARC
  5
265
100
AcDbEntity
  8
0
370
    -3
390
0
  6
Continuous
100
AcDbCircle
 10
18.733185
 20
-128.58766
 30
0.0
 40
14.0
100
AcDbArc
 50
93.275829
 51
149.987524
  0
ARC
  5
266
100
AcDbEntity
  8
0
370
    -3
390
0
  6
Continuous
100
AcDbCircle
 10
3.733185
 20
-133.58766
 30
0.0
 40
9.0
100
AcDbArc
 50
100.22432
 51
151.314598
  0
ARC
  5
267
100
AcDbEntity
  8
0
370
    -3
390
0
  6
Continuous
100
AcDbCircle
 10
0.981897
 20
-118.333794
 30
0.0
 40
6.5
100
AcDbArc
 50
280.22432
 51
329.987524
  0
ARC
  5
268
100
AcDbEntity
  8
0
370
    -3
390
0
  6
Continuous
100
AcDbCircle
 10
-112.266815
 20
-133.58766
 30
0.0
 40
5.5
100
AcDbArc
 50
0.0
 51
180.0
  0
LINE
  5
269
100
AcDbEntity
  8
0
370
    -3
390
0
  6
Continuous
100
AcDbLine
 10
-117.766815
 20
-133.58766
 30
0.0
 11
-117.766815
 21
-140.18766
 31
0.0
  0
LINE
  5
26A
100
AcDbEntity
  8
0
370
    -3
390
0
  6
Continuous
100
AcDbLine
 10
-117.766815
 20
-140.18766
 30
0.0
 11
-118.166815
 21
-140.58766
 31
0.0
  0
LINE
  5
26B
100
AcDbEntity
  8
0
370
    -3
390
0
  6
Continuous
100
AcDbLine
 10
-106.766815
 20
-133.58766
 30
0.0
 11
-106.766815
 21
-140.18766
 31
0.0
  0
LINE
  5
26C
100
AcDbEntity
  8
0
370
    -3
390
0
  6
Continuous
100
AcDbLine
 10
-106.766815
 20
-140.18766
 30
0.0
 11
-106.366815
 21
-140.58766
 31
0.0
  0
LINE
  5
26D
100
AcDbEntity
  8
0
370
    -3
390
0
  6
Continuous
100
AcDbLine
 10
-106.766815
 20
-140.18766
 30
0.0
 11
-106.366815
 21
-140.58766
 31
0.0
  0
LINE
  5
26E
100
AcDbEntity
  8
0
370
    -3
390
0
  6
Continuous
100
AcDbLine
 10
-106.766815
 20
-133.58766
 30
0.0
 11
-106.766815
 21
-140.18766
 31
0.0
  0
LINE
  5
26F
100
AcDbEntity
  8
0
370
    -3
390
0
  6
Continuous
100
AcDbLine
 10
-117.766815
 20
-140.18766
 30
0.0
 11
-118.166815
 21
-140.58766
 31
0.0
  0
LINE
  5
270
100
AcDbEntity
  8
0
370
    -3
390
0
  6
Continuous
100
AcDbLine
 10
-117.766815
 20
-133.58766
 30
0.0
 11
-117.766815
 21
-140.18766
 31
0.0
  0
ARC
  5
271
100
AcDbEntity
  8
0
370
    -3
390
0
  6
Continuous
100
AcDbCircle
 10
-112.266815
 20
-133.58766
 30
0.0
 40
5.5
100
AcDbArc
 50
0.0
 51
180.0
  0
ARC
  5
272
100
AcDbEntity
  8
0
370
    -3
390
0
  6
Continuous
100
AcDbCircle
 10
0.981897
 20
-118.333794
 30
0.0
 40
6.5
100
AcDbArc
 50
280.22432
 51
329.987524
  0
ARC
  5
273
100
AcDbEntity
  8
0
370
    -3
390
0
  6
Continuous
100
AcDbCircle
 10
3.733185
 20
-133.58766
 30
0.0
 40
9.0
100
AcDbArc
 50
100.22432
 51
151.314598
  0
ARC
  5
274
100
AcDbEntity
  8
0
370
    -3
390
0
  6
Continuous
100
AcDbCircle
 10
18.733185
 20
-128.58766
 30
0.0
 40
14.0
100
AcDbArc
 50
93.275829
 51
149.987524
  0
ARC
  5
275
100
AcDbEntity
  8
0
370
    -3
390
0
  6
Continuous
100
AcDbCircle
 10
-7.232671
 20
-127.58766
 30
0.0
 40
3.5
100
AcDbArc
 50
270.0
 51
331.314598
  0
LINE
  5
276
100
AcDbEntity
  8
0
370
    -3
390
0
  6
Continuous
100
AcDbLine
 10
-7.232671
 20
-131.08766
 30
0.0
 11
-53.79541
 21
-131.08766
 31
0.0
  0
ARC
  5
277
100
AcDbEntity
  8
0
370
    -3
390
0
  6
Continuous
100
AcDbCircle
 10
-7.232671
 20
-127.58766
 30
0.0
 40
5.0
100
AcDbArc
 50
270.0
 51
331.314598
  0
ARC
  5
278
100
AcDbEntity
  8
0
370
    -3
390
0
  6
Continuous
100
AcDbCircle
 10
3.733185
 20
-133.58766
 30
0.0
 40
7.5
100
AcDbArc
 50
100.22432
 51
151.314598
  0
LINE
  5
279
100
AcDbEntity
  8
0
370
    -3
390
0
  6
Continuous
100
AcDbLine
 10
-7.232671
 20
-132.58766
 30
0.0
 11
-101.300959
 21
-132.58766
 31
0.0
  0
ARC
  5
27A
100
AcDbEntity
  8
0
370
    -3
390
0
  6
Continuous
100
AcDbCircle
 10
-109.515526
 20
-118.333794
 30
0.0
 40
7.0
100
AcDbArc
 50
210.012476
 51
259.77568
  0
ARC
  5
27B
100
AcDbEntity
  8
0
370
    -3
390
0
  6
Continuous
100
AcDbCircle
 10
-112.266815
 20
-133.58766
 30
0.0
 40
8.5
100
AcDbArc
 50
28.685402
 51
79.77568
  0
ARC
  5
27C
100
AcDbEntity
  8
0
370
    -3
390
0
  6
Continuous
100
AcDbCircle
 10
-101.300959
 20
-127.58766
 30
0.0
 40
4.0
100
AcDbArc
 50
208.685402
 51
270.0
  0
LINE
  5
27D
100
AcDbEntity
  8
0
370
    -3
390
0
  6
Continuous
100
AcDbLine
 10
-101.300959
 20
-131.58766
 30
0.0
 11
-53.79541
 21
-131.58766
 31
0.0
  0
ARC
  5
27E
100
AcDbEntity
  8
0
370
    -3
390
0
  6
Continuous
100
AcDbCircle
 10
-101.300959
 20
-127.58766
 30
0.0
 40
5.0
100
AcDbArc
 50
208.685402
 51
270.0
  0
ARC
  5
27F
100
AcDbEntity
  8
0
370
    -3
390
0
  6
Continuous
100
AcDbCircle
 10
-112.266815
 20
-133.58766
 30
0.0
 40
7.5
100
AcDbArc
 50
28.685402
 51
79.77568
  0
ARC
  5
280
100
AcDbEntity
  8
0
370
    -3
390
0
  6
Continuous
100
AcDbCircle
 10
-109.515526
 20
-118.333794
 30
0.0
 40
8.0
100
AcDbArc
 50
210.012476
 51
259.77568
  0
ARC
  5
281
100
AcDbEntity
  8
0
370
    -3
390
0
  6
Continuous
100
AcDbCircle
 10
0.981897
 20
-118.333794
 30
0.0
 40
8.0
100
AcDbArc
 50
280.22432
 51
329.987524
  0
ARC
  5
282
100
AcDbEntity
  8
0
370
    -3
390
0
  6
Continuous
100
AcDbCircle
 10
18.733185
 20
-128.58766
 30
0.0
 40
12.5
100
AcDbArc
 50
93.275829
 51
149.987524
  0
LINE
  5
283
100
AcDbEntity
  8
0
370
    -3
390
0
  6
Continuous
100
AcDbLine
 10
-53.79541
 20
-35.58766
 30
0.0
 11
-101.300959
 21
-35.58766
 31
0.0
  0
ARC
  5
284
100
AcDbEntity
  8
0
370
    -3
390
0
  6
Continuous
100
AcDbCircle
 10
-101.300959
 20
-39.58766
 30
0.0
 40
4.0
100
AcDbArc
 50
90.0
 51
151.314598
  0
ARC
  5
285
100
AcDbEntity
  8
0
370
    -3
390
0
  6
Continuous
100
AcDbCircle
 10
-112.266815
 20
-33.58766
 30
0.0
 40
8.5
100
AcDbArc
 50
280.22432
 51
331.314598
  0
ARC
  5
286
100
AcDbEntity
  8
0
370
    -3
390
0
  6
Continuous
100
AcDbCircle
 10
-109.515526
 20
-48.841525
 30
0.0
 40
7.0
100
AcDbArc
 50
100.22432
 51
149.987524
  0
ARC
  5
287
100
AcDbEntity
  8
0
370
    -3
390
0
  6
Continuous
100
AcDbCircle
 10
-101.300959
 20
-39.58766
 30
0.0
 40
5.0
100
AcDbArc
 50
90.0
 51
151.314598
  0
ARC
  5
288
100
AcDbEntity
  8
0
370
    -3
390
0
  6
Continuous
100
AcDbCircle
 10
-112.266815
 20
-33.58766
 30
0.0
 40
7.5
100
AcDbArc
 50
280.22432
 51
331.314598
  0
LINE
  5
289
100
AcDbEntity
  8
0
370
    -3
390
0
  6
Continuous
100
AcDbLine
 10
-7.232671
 20
-34.58766
 30
0.0
 11
-101.300959
 21
-34.58766
 31
0.0
  0
ARC
  5
28A
100
AcDbEntity
  8
0
370
    -3
390
0
  6
Continuous
100
AcDbCircle
 10
-109.515526
 20
-48.841525
 30
0.0
 40
8.0
100
AcDbArc
 50
100.22432
 51
149.987524
  0
ARC
  5
28B
100
AcDbEntity
  8
0
370
    -3
390
0
  6
Continuous
100
AcDbCircle
 10
0.981897
 20
-48.841525
 30
0.0
 40
6.5
100
AcDbArc
 50
30.012476
 51
79.77568
  0
ARC
  5
28C
100
AcDbEntity
  8
0
370
    -3
390
0
  6
Continuous
100
AcDbCircle
 10
3.733185
 20
-33.58766
 30
0.0
 40
9.0
100
AcDbArc
 50
208.685402
 51
259.77568
  0
ARC
  5
28D
100
AcDbEntity
  8
0
370
    -3
390
0
  6
Continuous
100
AcDbCircle
 10
18.733185
 20
-38.58766
 30
0.0
 40
14.0
100
AcDbArc
 50
210.012476
 51
266.724171
  0
ARC
  5
28E
100
AcDbEntity
  8
0
370
    -3
390
0
  6
Continuous
100
AcDbCircle
 10
-7.232671
 20
-39.58766
 30
0.0
 40
3.5
100
AcDbArc
 50
28.685402
 51
90.0
  0
LINE
  5
28F
100
AcDbEntity
  8
0
370
    -3
390
0
  6
Continuous
100
AcDbLine
 10
-53.79541
 20
-36.08766
 30
0.0
 11
-7.232671
 21
-36.08766
 31
0.0
  0
ARC
  5
290
100
AcDbEntity
  8
0
370
    -3
390
0
  6
Continuous
100
AcDbCircle
 10
0.981897
 20
-48.841525
 30
0.0
 40
8.0
100
AcDbArc
 50
30.012476
 51
79.77568
  0
ARC
  5
291
100
AcDbEntity
  8
0
370
    -3
390
0
  6
Continuous
100
AcDbCircle
 10
3.733185
 20
-33.58766
 30
0.0
 40
7.5
100
AcDbArc
 50
208.685402
 51
259.77568
  0
ARC
  5
292
100
AcDbEntity
  8
0
370
    -3
390
0
  6
Continuous
100
AcDbCircle
 10
18.733185
 20
-38.58766
 30
0.0
 40
12.5
100
AcDbArc
 50
210.012476
 51
266.724171
  0
ARC
  5
293
100
AcDbEntity
  8
0
370
    -3
390
0
  6
Continuous
100
AcDbCircle
 10
-7.232671
 20
-39.58766
 30
0.0
 40
5.0
100
AcDbArc
 50
28.685402
 51
90.0
  0
CIRCLE
  5
294
100
AcDbEntity
  8
0
370
    -3
390
0
  6
Continuous
100
AcDbCircle
 10
-26.266815
 20
-83.58766
 30
0.0
 40
43.0
  0
ARC
  5
295
100
AcDbEntity
  8
0
370
    -3
390
0
  6
Continuous
100
AcDbCircle
 10
-26.266815
 20
-140.58766
 30
0.0
 40
1.0
100
AcDbArc
 50
30.0
 51
150.0
  0
ARC
  5
296
100
AcDbEntity
  8
0
370
    -3
390
0
  6
Continuous
100
AcDbCircle
 10
-27.998866
 20
-139.58766
 30
0.0
 40
1.0
100
AcDbArc
 50
270.0
 51
330.0
  0
ARC
  5
297
100
AcDbEntity
  8
0
370
    -3
390
0
  6
Continuous
100
AcDbCircle
 10
-24.534764
 20
-139.58766
 30
0.0
 40
1.0
100
AcDbArc
 50
210.0
 51
270.0
  0
ARC
  5
298
100
AcDbEntity
  8
0
370
    -3
390
0
  6
Continuous
100
AcDbCircle
 10
30.733185
 20
-83.58766
 30
0.0
 40
1.0
100
AcDbArc
 50
120.0
 51
240.0
  0
ARC
  5
299
100
AcDbEntity
  8
0
370
    -3
390
0
  6
Continuous
100
AcDbCircle
 10
29.733185
 20
-85.31971
 30
0.0
 40
1.0
100
AcDbArc
 50
0.0
 51
60.0
  0
ARC
  5
29A
100
AcDbEntity
  8
0
370
    -3
390
0
  6
Continuous
100
AcDbCircle
 10
29.733185
 20
-81.855609
 30
0.0
 40
1.0
100
AcDbArc
 50
300.0
 51
0.0
  0
ARC
  5
29B
100
AcDbEntity
  8
0
370
    -3
390
0
  6
Continuous
100
AcDbCircle
 10
-26.266815
 20
-26.58766
 30
0.0
 40
1.0
100
AcDbArc
 50
210.0
 51
330.0
  0
ARC
  5
29C
100
AcDbEntity
  8
0
370
    -3
390
0
  6
Continuous
100
AcDbCircle
 10
-24.534764
 20
-27.58766
 30
0.0
 40
1.0
100
AcDbArc
 50
90.0
 51
150.0
  0
ARC
  5
29D
100
AcDbEntity
  8
0
370
    -3
390
0
  6
Continuous
100
AcDbCircle
 10
-27.998866
 20
-27.58766
 30
0.0
 40
1.0
100
AcDbArc
 50
30.0
 51
90.0
  0
ARC
  5
29E
100
AcDbEntity
  8
0
370
    -3
390
0
  6
Continuous
100
AcDbCircle
 10
-53.79541
 20
-39.58766
 30
0.0
 40
3.5
100
AcDbArc
 50
90.0
 51
176.724171
  0
ARC
  5
29F
100
AcDbEntity
  8
0
370
    -3
390
0
  6
Continuous
100
AcDbCircle
 10
-53.79541
 20
-39.58766
 30
0.0
 40
4.0
100
AcDbArc
 50
90.0
 51
176.724171
  0
ARC
  5
2A0
100
AcDbEntity
  8
0
370
    -3
390
0
  6
Continuous
100
AcDbCircle
 10
-71.266815
 20
-38.58766
 30
0.0
 40
13.5
100
AcDbArc
 50
273.275829
 51
356.724171
  0
ARC
  5
2A1
100
AcDbEntity
  8
0
370
    -3
390
0
  6
Continuous
100
AcDbCircle
 10
-71.266815
 20
-38.58766
 30
0.0
 40
14.0
100
AcDbArc
 50
273.275829
 51
356.724171
  0
ARC
  5
2A2
100
AcDbEntity
  8
0
370
    -3
390
0
  6
Continuous
100
AcDbCircle
 10
-70.266815
 20
-56.059065
 30
0.0
 40
4.0
100
AcDbArc
 50
93.275829
 51
180.0
  0
ARC
  5
2A3
100
AcDbEntity
  8
0
370
    -3
390
0
  6
Continuous
100
AcDbCircle
 10
-70.266815
 20
-56.059065
 30
0.0
 40
3.5
100
AcDbArc
 50
93.275829
 51
180.0
  0
ARC
  5
2A4
100
AcDbEntity
  8
0
370
    -3
390
0
  6
Continuous
100
AcDbCircle
 10
-70.266815
 20
-111.116254
 30
0.0
 40
4.0
100
AcDbArc
 50
180.0
 51
266.724171
  0
ARC
  5
2A5
100
AcDbEntity
  8
0
370
    -3
390
0
  6
Continuous
100
AcDbCircle
 10
-70.266815
 20
-111.116254
 30
0.0
 40
3.5
100
AcDbArc
 50
180.0
 51
266.724171
  0
LINE
  5
2A6
100
AcDbEntity
  8
0
370
    -3
390
0
  6
Continuous
100
AcDbLine
 10
-74.266815
 20
-56.059065
 30
0.0
 11
-74.266815
 21
-111.116254
 31
0.0
  0
LINE
  5
2A7
100
AcDbEntity
  8
0
370
    -3
390
0
  6
Continuous
100
AcDbLine
 10
-73.766815
 20
-56.059065
 30
0.0
 11
-73.766815
 21
-111.116254
 31
0.0
  0
ARC
  5
2A8
100
AcDbEntity
  8
0
370
    -3
390
0
  6
Continuous
100
AcDbCircle
 10
-71.266815
 20
-128.58766
 30
0.0
 40
13.5
100
AcDbArc
 50
3.275829
 51
86.724171
  0
ARC
  5
2A9
100
AcDbEntity
  8
0
370
    -3
390
0
  6
Continuous
100
AcDbCircle
 10
-71.266815
 20
-128.58766
 30
0.0
 40
14.0
100
AcDbArc
 50
3.275829
 51
86.724171
  0
ARC
  5
2AA
100
AcDbEntity
  8
0
370
    -3
390
0
  6
Continuous
100
AcDbCircle
 10
-53.79541
 20
-127.58766
 30
0.0
 40
4.0
100
AcDbArc
 50
183.275829
 51
270.0
  0
ARC
  5
2AB
100
AcDbEntity
  8
0
370
    -3
390
0
  6
Continuous
100
AcDbCircle
 10
-53.79541
 20
-127.58766
 30
0.0
 40
3.5
100
AcDbArc
 50
183.275829
 51
270.0
  0
ARC
  5
2AC
100
AcDbEntity
  8
0
370
    -3
390
0
  6
Continuous
100
AcDbCircle
 10
17.733185
 20
-111.116254
 30
0.0
 40
3.5
100
AcDbArc
 50
273.275829
 51
0.0
  0
ARC
  5
2AD
100
AcDbEntity
  8
0
370
    -3
390
0
  6
Continuous
100
AcDbCircle
 10
17.733185
 20
-111.116254
 30
0.0
 40
5.0
100
AcDbArc
 50
273.275829
 51
0.0
  0
LINE
  5
2AE
100
AcDbEntity
  8
0
370
    -3
390
0
  6
Continuous
100
AcDbLine
 10
22.733185
 20
-56.059065
 30
0.0
 11
22.733185
 21
-111.116254
 31
0.0
  0
CIRCLE
  5
2AF
100
AcDbEntity
  8
0
370
    -3
390
0
  6
Continuous
100
AcDbCircle
 10
-26.266815
 20
-83.58766
 30
0.0
 40
45.5
  0
LINE
  5
2B0
100
AcDbEntity
  8
0
370
    -3
390
0
  6
Continuous
100
AcDbLine
 10
21.233185
 20
-56.059065
 30
0.0
 11
21.233185
 21
-111.116254
 31
0.0
  0
CIRCLE
  5
2B1
100
AcDbEntity
  8
0
370
    -3
390
0
  6
Continuous
100
AcDbCircle
 10
-26.266815
 20
-83.58766
 30
0.0
 40
44.25
  0
ARC
  5
2B2
100
AcDbEntity
  8
0
370
    -3
390
0
  6
Continuous
100
AcDbCircle
 10
17.733185
 20
-56.059065
 30
0.0
 40
3.5
100
AcDbArc
 50
0.0
 51
86.724171
  0
ARC
  5
2B3
100
AcDbEntity
  8
0
370
    -3
390
0
  6
Continuous
100
AcDbCircle
 10
17.733185
 20
-56.059065
 30
0.0
 40
5.0
100
AcDbArc
 50
0.0
 51
86.724171
  0
CIRCLE
  5
2B4
100
AcDbEntity
  8
0
370
    -3
390
0
  6
Continuous
100
AcDbCircle
 10
3.733185
 20
-133.58766
 30
0.0
 40
3.3
  0
CIRCLE
  5
2B5
100
AcDbEntity
  8
0
370
    -3
390
0
  6
Continuous
100
AcDbCircle
 10
-112.266815
 20
-133.58766
 30
0.0
 40
3.3
  0
CIRCLE
  5
2B6
100
AcDbEntity
  8
0
370
    -3
390
0
  6
Continuous
100
AcDbCircle
 10
3.733185
 20
-33.58766
 30
0.0
 40
3.3
  0
CIRCLE
  5
2B7
100
AcDbEntity
  8
0
370
    -3
390
0
  6
Continuous
100
AcDbCircle
 10
-112.266815
 20
-33.58766
 30
0.0
 40
3.3
  0
CIRCLE
  5
2B8
100
AcDbEntity
  8
0
370
    -3
390
0
  6
Continuous
100
AcDbCircle
 10
18.733185
 20
-128.58766
 30
0.0
 40
9.0
  0
CIRCLE
  5
2B9
100
AcDbEntity
  8
0
370
    -3
390
0
  6
Continuous
100
AcDbCircle
 10
18.733185
 20
-38.58766
 30
0.0
 40
9.0
  0
LINE
  5
2BA
100
AcDbEntity
  8
0
370
    -3
390
0
  6
Continuous
100
AcDbLine
 10
21.733185
 20
-26.58766
 30
0.0
 11
-26.266815
 21
-26.58766
 31
0.0
  0
LINE
  5
2BB
100
AcDbEntity
  8
0
370
    -3
390
0
  6
Continuous
100
AcDbLine
 10
21.733185
 20
-140.58766
 30
0.0
 11
-26.266815
 21
-140.58766
 31
0.0
  0
ARC
  5
2BC
100
AcDbEntity
  8
0
370
    -3
390
0
  6
Continuous
100
AcDbCircle
 10
21.733185
 20
-131.58766
 30
0.0
 40
9.0
100
AcDbArc
 50
270.0
 51
0.0
  0
LINE
  5
2BD
100
AcDbEntity
  8
0
370
    -3
390
0
  6
Continuous
100
AcDbLine
 10
30.733185
 20
-83.58766
 30
0.0
 11
30.733185
 21
-131.58766
 31
0.0
  0
LINE
  5
2BE
100
AcDbEntity
  8
0
370
    -3
390
0
  6
Continuous
100
AcDbLine
 10
30.733185
 20
-83.58766
 30
0.0
 11
30.733185
 21
-35.58766
 31
0.0
  0
ARC
  5
2BF
100
AcDbEntity
  8
0
370
    -3
390
0
  6
Continuous
100
AcDbCircle
 10
21.733185
 20
-35.58766
 30
0.0
 40
9.0
100
AcDbArc
 50
0.0
 51
90.0
  0
LINE
  5
2C0
100
AcDbEntity
  8
0
370
    -3
390
0
  6
Continuous
100
AcDbLine
 10
-1.766815
 20
-140.18766
 30
0.0
 11
-2.166815
 21
-140.58766
 31
0.0
  0
LINE
  5
2C1
100
AcDbEntity
  8
0
370
    -3
390
0
  6
Continuous
100
AcDbLine
 10
-1.766815
 20
-133.58766
 30
0.0
 11
-1.766815
 21
-140.18766
 31
0.0
  0
LINE
  5
2C2
100
AcDbEntity
  8
0
370
    -3
390
0
  6
Continuous
100
AcDbLine
 10
9.233185
 20
-140.18766
 30
0.0
 11
9.633185
 21
-140.58766
 31
0.0
  0
LINE
  5
2C3
100
AcDbEntity
  8
0
370
    -3
390
0
  6
Continuous
100
AcDbLine
 10
9.233185
 20
-133.58766
 30
0.0
 11
9.233185
 21
-140.18766
 31
0.0
  0
ARC
  5
2C4
100
AcDbEntity
  8
0
370
    -3
390
0
  6
Continuous
100
AcDbCircle
 10
3.733185
 20
-133.58766
 30
0.0
 40
5.5
100
AcDbArc
 50
0.0
 51
180.0
  0
ARC
  5
2C5
100
AcDbEntity
  8
0
370
    -3
390
0
  6
Continuous
100
AcDbCircle
 10
3.733185
 20
-33.58766
 30
0.0
 40
5.5
100
AcDbArc
 50
180.0
 51
0.0
  0
LINE
  5
2C6
100
AcDbEntity
  8
0
370
    -3
390
0
  6
Continuous
100
AcDbLine
 10
9.233185
 20
-26.98766
 30
0.0
 11
9.633185
 21
-26.58766
 31
0.0
  0
LINE
  5
2C7
100
AcDbEntity
  8
0
370
    -3
390
0
  6
Continuous
100
AcDbLine
 10
9.233185
 20
-33.58766
 30
0.0
 11
9.233185
 21
-26.98766
 31
0.0
  0
LINE
  5
2C8
100
AcDbEntity
  8
0
370
    -3
390
0
  6
Continuous
100
AcDbLine
 10
-1.766815
 20
-26.98766
 30
0.0
 11
-2.166815
 21
-26.58766
 31
0.0
  0
LINE
  5
2C9
100
AcDbEntity
  8
0
370
    -3
390
0
  6
Continuous
100
AcDbLine
 10
-1.766815
 20
-33.58766
 30
0.0
 11
-1.766815
 21
-26.98766
 31
0.0
  0
ARC
  5
2CA
100
AcDbEntity
  8
0
370
    -3
390
0
  6
Continuous
100
AcDbCircle
 10
-112.266815
 20
-33.58766
 30
0.0
 40
5.5
100
AcDbArc
 50
180.0
 51
0.0
  0
LINE
  5
2CB
100
AcDbEntity
  8
0
370
    -3
390
0
  6
Continuous
100
AcDbLine
 10
-106.766815
 20
-26.98766
 30
0.0
 11
-106.366815
 21
-26.58766
 31
0.0
  0
LINE
  5
2CC
100
AcDbEntity
  8
0
370
    -3
390
0
  6
Continuous
100
AcDbLine
 10
-106.766815
 20
-33.58766
 30
0.0
 11
-106.766815
 21
-26.98766
 31
0.0
  0
LINE
  5
2CD
100
AcDbEntity
  8
0
370
    -3
390
0
  6
Continuous
100
AcDbLine
 10
-117.766815
 20
-26.98766
 30
0.0
 11
-118.166815
 21
-26.58766
 31
0.0
  0
LINE
  5
2CE
100
AcDbEntity
  8
0
370
    -3
390
0
  6
Continuous
100
AcDbLine
 10
-117.766815
 20
-33.58766
 30
0.0
 11
-117.766815
 21
-26.98766
 31
0.0
  0
LINE
  5
2CF
100
AcDbEntity
  8
0
370
    -3
390
0
  6
Continuous
100
AcDbLine
 10
-138.766815
 20
-131.08766
 30
0.0
 11
-138.766815
 21
-36.08766
 31
0.0
  0
LINE
  5
2D0
100
AcDbEntity
  8
0
370
    -3
390
0
  6
Continuous
100
AcDbLine
 10
-129.766815
 20
-27.08766
 30
0.0
 11
-27.13284
 21
-27.08766
 31
0.0
  0
ARC
  5
2D1
100
AcDbEntity
  8
0
370
    -3
390
0
  6
Continuous
100
AcDbCircle
 10
-129.766815
 20
-36.08766
 30
0.0
 40
9.0
100
AcDbArc
 50
90.0
 51
180.0
  0
ARC
  5
2D2
100
AcDbEntity
  8
0
370
    -3
390
0
  6
Continuous
100
AcDbCircle
 10
-129.766815
 20
-131.08766
 30
0.0
 40
9.0
100
AcDbArc
 50
180.0
 51
270.0
  0
LINE
  5
2D3
100
AcDbEntity
  8
0
370
    -3
390
0
  6
Continuous
100
AcDbLine
 10
-27.13284
 20
-140.08766
 30
0.0
 11
-129.766815
 21
-140.08766
 31
0.0
  0
LINE
  5
2D4
100
AcDbEntity
  8
0
370
    -3
390
0
  6
Continuous
100
AcDbLine
 10
-130.266815
 20
-140.58766
 30
0.0
 11
-26.266815
 21
-140.58766
 31
0.0
  0
ARC
  5
2D5
100
AcDbEntity
  8
0
370
    -3
390
0
  6
Continuous
100
AcDbCircle
 10
-130.266815
 20
-131.58766
 30
0.0
 40
9.0
100
AcDbArc
 50
180.0
 51
270.0
  0
LINE
  5
2D6
100
AcDbEntity
  8
0
370
    -3
390
0
  6
Continuous
100
AcDbLine
 10
-139.266815
 20
-83.58766
 30
0.0
 11
-139.266815
 21
-131.58766
 31
0.0
  0
LINE
  5
2D7
100
AcDbEntity
  8
0
370
    -3
390
0
  6
Continuous
100
AcDbLine
 10
-139.266815
 20
-83.58766
 30
0.0
 11
-139.266815
 21
-35.58766
 31
0.0
  0
ARC
  5
2D8
100
AcDbEntity
  8
0
370
    -3
390
0
  6
Continuous
100
AcDbCircle
 10
-130.266815
 20
-35.58766
 30
0.0
 40
9.0
100
AcDbArc
 50
90.0
 51
180.0
  0
LINE
  5
2D9
100
AcDbEntity
  8
0
370
    -3
390
0
  6
Continuous
100
AcDbLine
 10
-130.266815
 20
-26.58766
 30
0.0
 11
-26.266815
 21
-26.58766
 31
0.0
  0
CIRCLE
  5
2DA
100
AcDbEntity
  8
0
370
    -3
390
0
  6
Continuous
100
AcDbCircle
 10
-127.266815
 20
-38.58766
 30
0.0
 40
9.0
  0
CIRCLE
  5
2DB
100
AcDbEntity
  8
0
370
    -3
390
0
  6
Continuous
100
AcDbCircle
 10
-127.266815
 20
-128.58766
 30
0.0
 40
9.0
  0
ARC
  5
2DC
100
AcDbEntity
  8
0
370
    -3
390
0
  6
Continuous
100
AcDbCircle
 10
-126.266815
 20
-56.059065
 30
0.0
 40
5.0
100
AcDbArc
 50
93.275829
 51
180.0
  0
LINE
  5
2DD
100
AcDbEntity
  8
0
370
    -3
390
0
  6
Continuous
100
AcDbLine
 10
-131.266815
 20
-111.116254
 30
0.0
 11
-131.266815
 21
-56.059065
 31
0.0
  0
ARC
  5
2DE
100
AcDbEntity
  8
0
370
    -3
390
0
  6
Continuous
100
AcDbCircle
 10
-126.266815
 20
-56.059065
 30
0.0
 40
4.0
100
AcDbArc
 50
93.275829
 51
180.0
  0
LINE
  5
2DF
100
AcDbEntity
  8
0
370
    -3
390
0
  6
Continuous
100
AcDbLine
 10
-130.266815
 20
-56.059065
 30
0.0
 11
-130.266815
 21
-111.116254
 31
0.0
  0
ARC
  5
2E0
100
AcDbEntity
  8
0
370
    -3
390
0
  6
Continuous
100
AcDbCircle
 10
-126.266815
 20
-111.116254
 30
0.0
 40
5.0
100
AcDbArc
 50
180.0
 51
266.724171
  0
ARC
  5
2E1
100
AcDbEntity
  8
0
370
    -3
390
0
  6
Continuous
100
AcDbCircle
 10
-126.266815
 20
-111.116254
 30
0.0
 40
4.0
100
AcDbArc
 50
180.0
 51
266.724171
  0
ARC
  5
2E2
100
AcDbEntity
  8
0
370
    -3
390
0
  6
Continuous
100
AcDbCircle
 10
-127.266815
 20
-38.58766
 30
0.0
 40
12.5
100
AcDbArc
 50
273.275829
 51
329.987524
  0
ARC
  5
2E3
100
AcDbEntity
  8
0
370
    -3
390
0
  6
Continuous
100
AcDbCircle
 10
-127.266815
 20
-38.58766
 30
0.0
 40
13.5
100
AcDbArc
 50
273.275829
 51
329.987524
  0
ARC
  5
2E4
100
AcDbEntity
  8
0
370
    -3
390
0
  6
Continuous
100
AcDbCircle
 10
-127.266815
 20
-128.58766
 30
0.0
 40
12.5
100
AcDbArc
 50
30.012476
 51
86.724171
  0
ARC
  5
2E5
100
AcDbEntity
  8
0
370
    -3
390
0
  6
Continuous
100
AcDbCircle
 10
-127.266815
 20
-128.58766
 30
0.0
 40
13.5
100
AcDbArc
 50
30.012476
 51
86.724171
  0
ARC
  5
2E6
100
AcDbEntity
  8
0
370
    -3
390
0
  6
Continuous
100
AcDbCircle
 10
-127.266815
 20
-128.58766
 30
0.0
 40
13.5
100
AcDbArc
 50
30.012476
 51
86.724171
  0
ARC
  5
2E7
100
AcDbEntity
  8
0
370
    -3
390
0
  6
Continuous
100
AcDbCircle
 10
-127.266815
 20
-128.58766
 30
0.0
 40
12.5
100
AcDbArc
 50
30.012476
 51
86.724171
  0
ARC
  5
2E8
100
AcDbEntity
  8
0
370
    -3
390
0
  6
Continuous
100
AcDbCircle
 10
-127.266815
 20
-38.58766
 30
0.0
 40
13.5
100
AcDbArc
 50
273.275829
 51
329.987524
  0
ARC
  5
2E9
100
AcDbEntity
  8
0
370
    -3
390
0
  6
Continuous
100
AcDbCircle
 10
-127.266815
 20
-38.58766
 30
0.0
 40
12.5
100
AcDbArc
 50
273.275829
 51
329.987524
  0
ARC
  5
2EA
100
AcDbEntity
  8
0
370
    -3
390
0
  6
Continuous
100
AcDbCircle
 10
-126.266815
 20
-111.116254
 30
0.0
 40
4.0
100
AcDbArc
 50
180.0
 51
266.724171
  0
ARC
  5
2EB
100
AcDbEntity
  8
0
370
    -3
390
0
  6
Continuous
100
AcDbCircle
 10
-126.266815
 20
-111.116254
 30
0.0
 40
5.0
100
AcDbArc
 50
180.0
 51
266.724171
  0
LINE
  5
2EC
100
AcDbEntity
  8
0
370
    -3
390
0
  6
Continuous
100
AcDbLine
 10
-130.266815
 20
-56.059065
 30
0.0
 11
-130.266815
 21
-111.116254
 31
0.0
  0
ARC
  5
2ED
100
AcDbEntity
  8
0
370
    -3
390
0
  6
Continuous
100
AcDbCircle
 10
-126.266815
 20
-56.059065
 30
0.0
 40
4.0
100
AcDbArc
 50
93.275829
 51
180.0
  0
LINE
  5
2EE
100
AcDbEntity
  8
0
370
    -3
390
0
  6
Continuous
100
AcDbLine
 10
-131.266815
 20
-111.116254
 30
0.0
 11
-131.266815
 21
-56.059065
 31
0.0
  0
ARC
  5
2EF
100
AcDbEntity
  8
0
370
    -3
390
0
  6
Continuous
100
AcDbCircle
 10
-126.266815
 20
-56.059065
 30
0.0
 40
5.0
100
AcDbArc
 50
93.275829
 51
180.0
  0
CIRCLE
  5
2F0
100
AcDbEntity
  8
0
370
    -3
390
0
  6
Continuous
100
AcDbCircle
 10
-127.266815
 20
-128.58766
 30
0.0
 40
9.0
  0
CIRCLE
  5
2F1
100
AcDbEntity
  8
0
370
    -3
390
0
  6
Continuous
100
AcDbCircle
 10
-127.266815
 20
-38.58766
 30
0.0
 40
9.0
  0
LINE
  5
2F2
100
AcDbEntity
  8
0
370
    -3
390
0
  6
Continuous
100
AcDbLine
 10
-130.266815
 20
-26.58766
 30
0.0
 11
-26.266815
 21
-26.58766
 31
0.0
  0
ARC
  5
2F3
100
AcDbEntity
  8
0
370
    -3
390
0
  6
Continuous
100
AcDbCircle
 10
-130.266815
 20
-35.58766
 30
0.0
 40
9.0
100
AcDbArc
 50
90.0
 51
180.0
  0
LINE
  5
2F4
100
AcDbEntity
  8
0
370
    -3
390
0
  6
Continuous
100
AcDbLine
 10
-139.266815
 20
-83.58766
 30
0.0
 11
-139.266815
 21
-35.58766
 31
0.0
  0
LINE
  5
2F5
100
AcDbEntity
  8
0
370
    -3
390
0
  6
Continuous
100
AcDbLine
 10
-139.266815
 20
-83.58766
 30
0.0
 11
-139.266815
 21
-131.58766
 31
0.0
  0
ARC
  5
2F6
100
AcDbEntity
  8
0
370
    -3
390
0
  6
Continuous
100
AcDbCircle
 10
-130.266815
 20
-131.58766
 30
0.0
 40
9.0
100
AcDbArc
 50
180.0
 51
270.0
  0
LINE
  5
2F7
100
AcDbEntity
  8
0
370
    -3
390
0
  6
Continuous
100
AcDbLine
 10
-130.266815
 20
-140.58766
 30
0.0
 11
-26.266815
 21
-140.58766
 31
0.0
  0
LINE
  5
2F8
100
AcDbEntity
  8
0
370
    -3
390
0
  6
Continuous
100
AcDbLine
 10
-27.13284
 20
-140.08766
 30
0.0
 11
-129.766815
 21
-140.08766
 31
0.0
  0
ARC
  5
2F9
100
AcDbEntity
  8
0
370
    -3
390
0
  6
Continuous
100
AcDbCircle
 10
-129.766815
 20
-131.08766
 30
0.0
 40
9.0
100
AcDbArc
 50
180.0
 51
270.0
  0
ARC
  5
2FA
100
AcDbEntity
  8
0
370
    -3
390
0
  6
Continuous
100
AcDbCircle
 10
-129.766815
 20
-36.08766
 30
0.0
 40
9.0
100
AcDbArc
 50
90.0
 51
180.0
  0
LINE
  5
2FB
100
AcDbEntity
  8
0
370
    -3
390
0
  6
Continuous
100
AcDbLine
 10
-129.766815
 20
-27.08766
 30
0.0
 11
-27.13284
 21
-27.08766
 31
0.0
  0
LINE
  5
2FC
100
AcDbEntity
  8
0
370
    -3
390
0
  6
Continuous
100
AcDbLine
 10
-138.766815
 20
-131.08766
 30
0.0
 11
-138.766815
 21
-36.08766
 31
0.0
  0
LINE
  5
2FD
100
AcDbEntity
  8
0
370
    -3
390
0
  6
Continuous
100
AcDbLine
 10
-138.766815
 20
-131.08766
 30
0.0
 11
-138.766815
 21
-36.08766
 31
0.0
  0
LINE
  5
2FE
100
AcDbEntity
  8
0
370
    -3
390
0
  6
Continuous
100
AcDbLine
 10
-129.766815
 20
-27.08766
 30
0.0
 11
-27.13284
 21
-27.08766
 31
0.0
  0
ARC
  5
2FF
100
AcDbEntity
  8
0
370
    -3
390
0
  6
Continuous
100
AcDbCircle
 10
-129.766815
 20
-36.08766
 30
0.0
 40
9.0
100
AcDbArc
 50
90.0
 51
180.0
  0
ARC
  5
300
100
AcDbEntity
  8
0
370
    -3
390
0
  6
Continuous
100
AcDbCircle
 10
-129.766815
 20
-131.08766
 30
0.0
 40
9.0
100
AcDbArc
 50
180.0
 51
270.0
  0
LINE
  5
301
100
AcDbEntity
  8
0
370
    -3
390
0
  6
Continuous
100
AcDbLine
 10
-27.13284
 20
-140.08766
 30
0.0
 11
-129.766815
 21
-140.08766
 31
0.0
  0
LINE
  5
302
100
AcDbEntity
  8
0
370
    -3
390
0
  6
Continuous
100
AcDbLine
 10
-130.266815
 20
-140.58766
 30
0.0
 11
-26.266815
 21
-140.58766
 31
0.0
  0
ARC
  5
303
100
AcDbEntity
  8
0
370
    -3
390
0
  6
Continuous
100
AcDbCircle
 10
-130.266815
 20
-131.58766
 30
0.0
 40
9.0
100
AcDbArc
 50
180.0
 51
270.0
  0
LINE
  5
304
100
AcDbEntity
  8
0
370
    -3
390
0
  6
Continuous
100
AcDbLine
 10
-139.266815
 20
-83.58766
 30
0.0
 11
-139.266815
 21
-131.58766
 31
0.0
  0
LINE
  5
305
100
AcDbEntity
  8
0
370
    -3
390
0
  6
Continuous
100
AcDbLine
 10
-139.266815
 20
-83.58766
 30
0.0
 11
-139.266815
 21
-35.58766
 31
0.0
  0
ARC
  5
306
100
AcDbEntity
  8
0
370
    -3
390
0
  6
Continuous
100
AcDbCircle
 10
-130.266815
 20
-35.58766
 30
0.0
 40
9.0
100
AcDbArc
 50
90.0
 51
180.0
  0
LINE
  5
307
100
AcDbEntity
  8
0
370
    -3
390
0
  6
Continuous
100
AcDbLine
 10
-130.266815
 20
-26.58766
 30
0.0
 11
-26.266815
 21
-26.58766
 31
0.0
  0
CIRCLE
  5
308
100
AcDbEntity
  8
0
370
    -3
390
0
  6
Continuous
100
AcDbCircle
 10
-127.266815
 20
-38.58766
 30
0.0
 40
9.0
  0
CIRCLE
  5
309
100
AcDbEntity
  8
0
370
    -3
390
0
  6
Continuous
100
AcDbCircle
 10
-127.266815
 20
-128.58766
 30
0.0
 40
9.0
  0
ARC
  5
30A
100
AcDbEntity
  8
0
370
    -3
390
0
  6
Continuous
100
AcDbCircle
 10
-126.266815
 20
-56.059065
 30
0.0
 40
5.0
100
AcDbArc
 50
93.275829
 51
180.0
  0
LINE
  5
30B
100
AcDbEntity
  8
0
370
    -3
390
0
  6
Continuous
100
AcDbLine
 10
-131.266815
 20
-111.116254
 30
0.0
 11
-131.266815
 21
-56.059065
 31
0.0
  0
ARC
  5
30C
100
AcDbEntity
  8
0
370
    -3
390
0
  6
Continuous
100
AcDbCircle
 10
-126.266815
 20
-56.059065
 30
0.0
 40
4.0
100
AcDbArc
 50
93.275829
 51
180.0
  0
LINE
  5
30D
100
AcDbEntity
  8
0
370
    -3
390
0
  6
Continuous
100
AcDbLine
 10
-130.266815
 20
-56.059065
 30
0.0
 11
-130.266815
 21
-111.116254
 31
0.0
  0
ARC
  5
30E
100
AcDbEntity
  8
0
370
    -3
390
0
  6
Continuous
100
AcDbCircle
 10
-126.266815
 20
-111.116254
 30
0.0
 40
5.0
100
AcDbArc
 50
180.0
 51
266.724171
  0
ARC
  5
30F
100
AcDbEntity
  8
0
370
    -3
390
0
  6
Continuous
100
AcDbCircle
 10
-126.266815
 20
-111.116254
 30
0.0
 40
4.0
100
AcDbArc
 50
180.0
 51
266.724171
  0
ARC
  5
310
100
AcDbEntity
  8
0
370
    -3
390
0
  6
Continuous
100
AcDbCircle
 10
-127.266815
 20
-38.58766
 30
0.0
 40
12.5
100
AcDbArc
 50
273.275829
 51
329.987524
  0
ARC
  5
311
100
AcDbEntity
  8
0
370
    -3
390
0
  6
Continuous
100
AcDbCircle
 10
-127.266815
 20
-38.58766
 30
0.0
 40
13.5
100
AcDbArc
 50
273.275829
 51
329.987524
  0
ARC
  5
312
100
AcDbEntity
  8
0
370
    -3
390
0
  6
Continuous
100
AcDbCircle
 10
-127.266815
 20
-128.58766
 30
0.0
 40
12.5
100
AcDbArc
 50
30.012476
 51
86.724171
  0
ARC
  5
313
100
AcDbEntity
  8
0
370
    -3
390
0
  6
Continuous
100
AcDbCircle
 10
-127.266815
 20
-128.58766
 30
0.0
 40
13.5
100
AcDbArc
 50
30.012476
 51
86.724171
  0
ARC
  5
314
100
AcDbEntity
  8
0
370
    -3
390
0
  6
Continuous
100
AcDbCircle
 10
-127.266815
 20
-128.58766
 30
0.0
 40
13.5
100
AcDbArc
 50
30.012476
 51
86.724171
  0
ARC
  5
315
100
AcDbEntity
  8
0
370
    -3
390
0
  6
Continuous
100
AcDbCircle
 10
-127.266815
 20
-128.58766
 30
0.0
 40
12.5
100
AcDbArc
 50
30.012476
 51
86.724171
  0
ARC
  5
316
100
AcDbEntity
  8
0
370
    -3
390
0
  6
Continuous
100
AcDbCircle
 10
-127.266815
 20
-38.58766
 30
0.0
 40
13.5
100
AcDbArc
 50
273.275829
 51
329.987524
  0
ARC
  5
317
100
AcDbEntity
  8
0
370
    -3
390
0
  6
Continuous
100
AcDbCircle
 10
-127.266815
 20
-38.58766
 30
0.0
 40
12.5
100
AcDbArc
 50
273.275829
 51
329.987524
  0
ARC
  5
318
100
AcDbEntity
  8
0
370
    -3
390
0
  6
Continuous
100
AcDbCircle
 10
-126.266815
 20
-111.116254
 30
0.0
 40
4.0
100
AcDbArc
 50
180.0
 51
266.724171
  0
ARC
  5
319
100
AcDbEntity
  8
0
370
    -3
390
0
  6
Continuous
100
AcDbCircle
 10
-126.266815
 20
-111.116254
 30
0.0
 40
5.0
100
AcDbArc
 50
180.0
 51
266.724171
  0
LINE
  5
31A
100
AcDbEntity
  8
0
370
    -3
390
0
  6
Continuous
100
AcDbLine
 10
-130.266815
 20
-56.059065
 30
0.0
 11
-130.266815
 21
-111.116254
 31
0.0
  0
ARC
  5
31B
100
AcDbEntity
  8
0
370
    -3
390
0
  6
Continuous
100
AcDbCircle
 10
-126.266815
 20
-56.059065
 30
0.0
 40
4.0
100
AcDbArc
 50
93.275829
 51
180.0
  0
LINE
  5
31C
100
AcDbEntity
  8
0
370
    -3
390
0
  6
Continuous
100
AcDbLine
 10
-131.266815
 20
-111.116254
 30
0.0
 11
-131.266815
 21
-56.059065
 31
0.0
  0
ARC
  5
31D
100
AcDbEntity
  8
0
370
    -3
390
0
  6
Continuous
100
AcDbCircle
 10
-126.266815
 20
-56.059065
 30
0.0
 40
5.0
100
AcDbArc
 50
93.275829
 51
180.0
  0
CIRCLE
  5
31E
100
AcDbEntity
  8
0
370
    -3
390
0
  6
Continuous
100
AcDbCircle
 10
-127.266815
 20
-128.58766
 30
0.0
 40
9.0
  0
CIRCLE
  5
31F
100
AcDbEntity
  8
0
370
    -3
390
0
  6
Continuous
100
AcDbCircle
 10
-127.266815
 20
-38.58766
 30
0.0
 40
9.0
  0
LINE
  5
320
100
AcDbEntity
  8
0
370
    -3
390
0
  6
Continuous
100
AcDbLine
 10
-130.266815
 20
-26.58766
 30
0.0
 11
-26.266815
 21
-26.58766
 31
0.0
  0
ARC
  5
321
100
AcDbEntity
  8
0
370
    -3
390
0
  6
Continuous
100
AcDbCircle
 10
-130.266815
 20
-35.58766
 30
0.0
 40
9.0
100
AcDbArc
 50
90.0
 51
180.0
  0
LINE
  5
322
100
AcDbEntity
  8
0
370
    -3
390
0
  6
Continuous
100
AcDbLine
 10
-139.266815
 20
-83.58766
 30
0.0
 11
-139.266815
 21
-35.58766
 31
0.0
  0
LINE
  5
323
100
AcDbEntity
  8
0
370
    -3
390
0
  6
Continuous
100
AcDbLine
 10
-139.266815
 20
-83.58766
 30
0.0
 11
-139.266815
 21
-131.58766
 31
0.0
  0
ARC
  5
324
100
AcDbEntity
  8
0
370
    -3
390
0
  6
Continuous
100
AcDbCircle
 10
-130.266815
 20
-131.58766
 30
0.0
 40
9.0
100
AcDbArc
 50
180.0
 51
270.0
  0
LINE
  5
325
100
AcDbEntity
  8
0
370
    -3
390
0
  6
Continuous
100
AcDbLine
 10
-130.266815
 20
-140.58766
 30
0.0
 11
-26.266815
 21
-140.58766
 31
0.0
  0
LINE
  5
326
100
AcDbEntity
  8
0
370
    -3
390
0
  6
Continuous
100
AcDbLine
 10
-27.13284
 20
-140.08766
 30
0.0
 11
-129.766815
 21
-140.08766
 31
0.0
  0
ARC
  5
327
100
AcDbEntity
  8
0
370
    -3
390
0
  6
Continuous
100
AcDbCircle
 10
-129.766815
 20
-131.08766
 30
0.0
 40
9.0
100
AcDbArc
 50
180.0
 51
270.0
  0
ARC
  5
328
100
AcDbEntity
  8
0
370
    -3
390
0
  6
Continuous
100
AcDbCircle
 10
-129.766815
 20
-36.08766
 30
0.0
 40
9.0
100
AcDbArc
 50
90.0
 51
180.0
  0
LINE
  5
329
100
AcDbEntity
  8
0
370
    -3
390
0
  6
Continuous
100
AcDbLine
 10
-129.766815
 20
-27.08766
 30
0.0
 11
-27.13284
 21
-27.08766
 31
0.0
  0
LINE
  5
32A
100
AcDbEntity
  8
0
370
    -3
390
0
  6
Continuous
100
AcDbLine
 10
-138.766815
 20
-131.08766
 30
0.0
 11
-138.766815
 21
-36.08766
 31
0.0
  0
ARC
  5
32B
100
AcDbEntity
  8
0
370
    -3
390
0
  6
Continuous
100
AcDbCircle
 10
21.233185
 20
-36.08766
 30
0.0
 40
9.0
100
AcDbArc
 50
0.0
 51
90.0
  0
LINE
  5
32C
100
AcDbEntity
  8
0
370
    -3
390
0
  6
Continuous
100
AcDbLine
 10
-25.400789
 20
-27.08766
 30
0.0
 11
21.233185
 21
-27.08766
 31
0.0
  0
LINE
  5
32D
100
AcDbEntity
  8
0
370
    -3
390
0
  6
Continuous
100
AcDbLine
 10
30.233185
 20
-82.721634
 30
0.0
 11
30.233185
 21
-36.08766
 31
0.0
  0
ARC
  5
32E
100
AcDbEntity
  8
0
370
    -3
390
0
  6
Continuous
100
AcDbCircle
 10
21.733185
 20
-35.58766
 30
0.0
 40
9.0
100
AcDbArc
 50
0.0
 51
90.0
  0
LINE
  5
32F
100
AcDbEntity
  8
0
370
    -3
390
0
  6
Continuous
100
AcDbLine
 10
30.733185
 20
-83.58766
 30
0.0
 11
30.733185
 21
-35.58766
 31
0.0
  0
LINE
  5
330
100
AcDbEntity
  8
0
370
    -3
390
0
  6
Continuous
100
AcDbLine
 10
21.733185
 20
-26.58766
 30
0.0
 11
-26.266815
 21
-26.58766
 31
0.0
  0
CIRCLE
  5
331
100
AcDbEntity
  8
0
370
    -3
390
0
  6
Continuous
100
AcDbCircle
 10
18.733185
 20
-38.58766
 30
0.0
 40
9.0
  0
CIRCLE
  5
332
100
AcDbEntity
  8
0
370
    -3
390
0
  6
Continuous
100
AcDbCircle
 10
18.733185
 20
-38.58766
 30
0.0
 40
9.0
  0
LINE
  5
333
100
AcDbEntity
  8
0
370
    -3
390
0
  6
Continuous
100
AcDbLine
 10
21.733185
 20
-26.58766
 30
0.0
 11
-26.266815
 21
-26.58766
 31
0.0
  0
LINE
  5
334
100
AcDbEntity
  8
0
370
    -3
390
0
  6
Continuous
100
AcDbLine
 10
30.733185
 20
-83.58766
 30
0.0
 11
30.733185
 21
-35.58766
 31
0.0
  0
ARC
  5
335
100
AcDbEntity
  8
0
370
    -3
390
0
  6
Continuous
100
AcDbCircle
 10
21.733185
 20
-35.58766
 30
0.0
 40
9.0
100
AcDbArc
 50
0.0
 51
90.0
  0
LINE
  5
336
100
AcDbEntity
  8
0
370
    -3
390
0
  6
Continuous
100
AcDbLine
 10
30.233185
 20
-82.721634
 30
0.0
 11
30.233185
 21
-36.08766
 31
0.0
  0
LINE
  5
337
100
AcDbEntity
  8
0
370
    -3
390
0
  6
Continuous
100
AcDbLine
 10
-25.400789
 20
-27.08766
 30
0.0
 11
21.233185
 21
-27.08766
 31
0.0
  0
ARC
  5
338
100
AcDbEntity
  8
0
370
    -3
390
0
  6
Continuous
100
AcDbCircle
 10
21.233185
 20
-36.08766
 30
0.0
 40
9.0
100
AcDbArc
 50
0.0
 51
90.0
  0
ARC
  5
339
100
AcDbEntity
  8
0
370
    -3
390
0
  6
Continuous
100
AcDbCircle
 10
21.233185
 20
-36.08766
 30
0.0
 40
9.0
100
AcDbArc
 50
0.0
 51
90.0
  0
LINE
  5
33A
100
AcDbEntity
  8
0
370
    -3
390
0
  6
Continuous
100
AcDbLine
 10
-25.400789
 20
-27.08766
 30
0.0
 11
21.233185
 21
-27.08766
 31
0.0
  0
LINE
  5
33B
100
AcDbEntity
  8
0
370
    -3
390
0
  6
Continuous
100
AcDbLine
 10
30.233185
 20
-82.721634
 30
0.0
 11
30.233185
 21
-36.08766
 31
0.0
  0
ARC
  5
33C
100
AcDbEntity
  8
0
370
    -3
390
0
  6
Continuous
100
AcDbCircle
 10
21.733185
 20
-35.58766
 30
0.0
 40
9.0
100
AcDbArc
 50
0.0
 51
90.0
  0
LINE
  5
33D
100
AcDbEntity
  8
0
370
    -3
390
0
  6
Continuous
100
AcDbLine
 10
30.733185
 20
-83.58766
 30
0.0
 11
30.733185
 21
-35.58766
 31
0.0
  0
LINE
  5
33E
100
AcDbEntity
  8
0
370
    -3
390
0
  6
Continuous
100
AcDbLine
 10
21.733185
 20
-26.58766
 30
0.0
 11
-26.266815
 21
-26.58766
 31
0.0
  0
CIRCLE
  5
33F
100
AcDbEntity
  8
0
370
    -3
390
0
  6
Continuous
100
AcDbCircle
 10
18.733185
 20
-38.58766
 30
0.0
 40
9.0
  0
CIRCLE
  5
340
100
AcDbEntity
  8
0
370
    -3
390
0
  6
Continuous
100
AcDbCircle
 10
18.733185
 20
-38.58766
 30
0.0
 40
9.0
  0
LINE
  5
341
100
AcDbEntity
  8
0
370
    -3
390
0
  6
Continuous
100
AcDbLine
 10
21.733185
 20
-26.58766
 30
0.0
 11
-26.266815
 21
-26.58766
 31
0.0
  0
LINE
  5
342
100
AcDbEntity
  8
0
370
    -3
390
0
  6
Continuous
100
AcDbLine
 10
30.733185
 20
-83.58766
 30
0.0
 11
30.733185
 21
-35.58766
 31
0.0
  0
ARC
  5
343
100
AcDbEntity
  8
0
370
    -3
390
0
  6
Continuous
100
AcDbCircle
 10
21.733185
 20
-35.58766
 30
0.0
 40
9.0
100
AcDbArc
 50
0.0
 51
90.0
  0
LINE
  5
344
100
AcDbEntity
  8
0
370
    -3
390
0
  6
Continuous
100
AcDbLine
 10
30.233185
 20
-82.721634
 30
0.0
 11
30.233185
 21
-36.08766
 31
0.0
  0
LINE
  5
345
100
AcDbEntity
  8
0
370
    -3
390
0
  6
Continuous
100
AcDbLine
 10
-25.400789
 20
-27.08766
 30
0.0
 11
21.233185
 21
-27.08766
 31
0.0
  0
ARC
  5
346
100
AcDbEntity
  8
0
370
    -3
390
0
  6
Continuous
100
AcDbCircle
 10
21.233185
 20
-36.08766
 30
0.0
 40
9.0
100
AcDbArc
 50
0.0
 51
90.0
  0
LINE
  5
347
100
AcDbEntity
  8
0
370
    -3
390
0
  6
Continuous
100
AcDbLine
 10
30.233185
 20
-131.08766
 30
0.0
 11
30.233185
 21
-84.453685
 31
0.0
  0
LINE
  5
348
100
AcDbEntity
  8
0
370
    -3
390
0
  6
Continuous
100
AcDbLine
 10
21.233185
 20
-140.08766
 30
0.0
 11
-25.400789
 21
-140.08766
 31
0.0
  0
ARC
  5
349
100
AcDbEntity
  8
0
370
    -3
390
0
  6
Continuous
100
AcDbCircle
 10
21.233185
 20
-131.08766
 30
0.0
 40
9.0
100
AcDbArc
 50
270.0
 51
0.0
  0
ARC
  5
34A
100
AcDbEntity
  8
0
370
    -3
390
0
  6
Continuous
100
AcDbCircle
 10
21.233185
 20
-36.08766
 30
0.0
 40
9.0
100
AcDbArc
 50
0.0
 51
90.0
  0
LINE
  5
34B
100
AcDbEntity
  8
0
370
    -3
390
0
  6
Continuous
100
AcDbLine
 10
-25.400789
 20
-27.08766
 30
0.0
 11
21.233185
 21
-27.08766
 31
0.0
  0
LINE
  5
34C
100
AcDbEntity
  8
0
370
    -3
390
0
  6
Continuous
100
AcDbLine
 10
30.233185
 20
-82.721634
 30
0.0
 11
30.233185
 21
-36.08766
 31
0.0
  0
LINE
  5
34D
100
AcDbEntity
  8
0
370
    -3
390
0
  6
Continuous
100
AcDbLine
 10
-117.766815
 20
-33.58766
 30
0.0
 11
-117.766815
 21
-26.98766
 31
0.0
  0
LINE
  5
34E
100
AcDbEntity
  8
0
370
    -3
390
0
  6
Continuous
100
AcDbLine
 10
-117.766815
 20
-26.98766
 30
0.0
 11
-118.166815
 21
-26.58766
 31
0.0
  0
LINE
  5
34F
100
AcDbEntity
  8
0
370
    -3
390
0
  6
Continuous
100
AcDbLine
 10
-106.766815
 20
-33.58766
 30
0.0
 11
-106.766815
 21
-26.98766
 31
0.0
  0
LINE
  5
350
100
AcDbEntity
  8
0
370
    -3
390
0
  6
Continuous
100
AcDbLine
 10
-106.766815
 20
-26.98766
 30
0.0
 11
-106.366815
 21
-26.58766
 31
0.0
  0
ARC
  5
351
100
AcDbEntity
  8
0
370
    -3
390
0
  6
Continuous
100
AcDbCircle
 10
-112.266815
 20
-33.58766
 30
0.0
 40
5.5
100
AcDbArc
 50
180.0
 51
0.0
  0
LINE
  5
352
100
AcDbEntity
  8
0
370
    -3
390
0
  6
Continuous
100
AcDbLine
 10
-1.766815
 20
-33.58766
 30
0.0
 11
-1.766815
 21
-26.98766
 31
0.0
  0
LINE
  5
353
100
AcDbEntity
  8
0
370
    -3
390
0
  6
Continuous
100
AcDbLine
 10
-1.766815
 20
-26.98766
 30
0.0
 11
-2.166815
 21
-26.58766
 31
0.0
  0
LINE
  5
354
100
AcDbEntity
  8
0
370
    -3
390
0
  6
Continuous
100
AcDbLine
 10
9.233185
 20
-33.58766
 30
0.0
 11
9.233185
 21
-26.98766
 31
0.0
  0
LINE
  5
355
100
AcDbEntity
  8
0
370
    -3
390
0
  6
Continuous
100
AcDbLine
 10
9.233185
 20
-26.98766
 30
0.0
 11
9.633185
 21
-26.58766
 31
0.0
  0
ARC
  5
356
100
AcDbEntity
  8
0
370
    -3
390
0
  6
Continuous
100
AcDbCircle
 10
3.733185
 20
-33.58766
 30
0.0
 40
5.5
100
AcDbArc
 50
180.0
 51
0.0
  0
ARC
  5
357
100
AcDbEntity
  8
0
370
    -3
390
0
  6
Continuous
100
AcDbCircle
 10
3.733185
 20
-133.58766
 30
0.0
 40
5.5
100
AcDbArc
 50
0.0
 51
180.0
  0
LINE
  5
358
100
AcDbEntity
  8
0
370
    -3
390
0
  6
Continuous
100
AcDbLine
 10
9.233185
 20
-133.58766
 30
0.0
 11
9.233185
 21
-140.18766
 31
0.0
  0
LINE
  5
359
100
AcDbEntity
  8
0
370
    -3
390
0
  6
Continuous
100
AcDbLine
 10
9.233185
 20
-140.18766
 30
0.0
 11
9.633185
 21
-140.58766
 31
0.0
  0
LINE
  5
35A
100
AcDbEntity
  8
0
370
    -3
390
0
  6
Continuous
100
AcDbLine
 10
-1.766815
 20
-133.58766
 30
0.0
 11
-1.766815
 21
-140.18766
 31
0.0
  0
LINE
  5
35B
100
AcDbEntity
  8
0
370
    -3
390
0
  6
Continuous
100
AcDbLine
 10
-1.766815
 20
-140.18766
 30
0.0
 11
-2.166815
 21
-140.58766
 31
0.0
  0
ARC
  5
35C
100
AcDbEntity
  8
0
370
    -3
390
0
  6
Continuous
100
AcDbCircle
 10
21.733185
 20
-35.58766
 30
0.0
 40
9.0
100
AcDbArc
 50
0.0
 51
90.0
  0
LINE
  5
35D
100
AcDbEntity
  8
0
370
    -3
390
0
  6
Continuous
100
AcDbLine
 10
30.733185
 20
-83.58766
 30
0.0
 11
30.733185
 21
-35.58766
 31
0.0
  0
LINE
  5
35E
100
AcDbEntity
  8
0
370
    -3
390
0
  6
Continuous
100
AcDbLine
 10
30.733185
 20
-83.58766
 30
0.0
 11
30.733185
 21
-131.58766
 31
0.0
  0
ARC
  5
35F
100
AcDbEntity
  8
0
370
    -3
390
0
  6
Continuous
100
AcDbCircle
 10
21.733185
 20
-131.58766
 30
0.0
 40
9.0
100
AcDbArc
 50
270.0
 51
0.0
  0
LINE
  5
360
100
AcDbEntity
  8
0
370
    -3
390
0
  6
Continuous
100
AcDbLine
 10
21.733185
 20
-140.58766
 30
0.0
 11
-26.266815
 21
-140.58766
 31
0.0
  0
LINE
  5
361
100
AcDbEntity
  8
0
370
    -3
390
0
  6
Continuous
100
AcDbLine
 10
21.733185
 20
-26.58766
 30
0.0
 11
-26.266815
 21
-26.58766
 31
0.0
  0
CIRCLE
  5
362
100
AcDbEntity
  8
0
370
    -3
390
0
  6
Continuous
100
AcDbCircle
 10
18.733185
 20
-38.58766
 30
0.0
 40
9.0
  0
CIRCLE
  5
363
100
AcDbEntity
  8
0
370
    -3
390
0
  6
Continuous
100
AcDbCircle
 10
18.733185
 20
-128.58766
 30
0.0
 40
9.0
  0
CIRCLE
  5
364
100
AcDbEntity
  8
0
370
    -3
390
0
  6
Continuous
100
AcDbCircle
 10
-112.266815
 20
-33.58766
 30
0.0
 40
3.3
  0
CIRCLE
  5
365
100
AcDbEntity
  8
0
370
    -3
390
0
  6
Continuous
100
AcDbCircle
 10
3.733185
 20
-33.58766
 30
0.0
 40
3.3
  0
CIRCLE
  5
366
100
AcDbEntity
  8
0
370
    -3
390
0
  6
Continuous
100
AcDbCircle
 10
-112.266815
 20
-133.58766
 30
0.0
 40
3.3
  0
CIRCLE
  5
367
100
AcDbEntity
  8
0
370
    -3
390
0
  6
Continuous
100
AcDbCircle
 10
3.733185
 20
-133.58766
 30
0.0
 40
3.3
  0
ARC
  5
368
100
AcDbEntity
  8
0
370
    -3
390
0
  6
Continuous
100
AcDbCircle
 10
17.733185
 20
-56.059065
 30
0.0
 40
5.0
100
AcDbArc
 50
0.0
 51
86.724171
  0
ARC
  5
369
100
AcDbEntity
  8
0
370
    -3
390
0
  6
Continuous
100
AcDbCircle
 10
17.733185
 20
-56.059065
 30
0.0
 40
3.5
100
AcDbArc
 50
0.0
 51
86.724171
  0
CIRCLE
  5
36A
100
AcDbEntity
  8
0
370
    -3
390
0
  6
Continuous
100
AcDbCircle
 10
-26.266815
 20
-83.58766
 30
0.0
 40
44.25
  0
LINE
  5
36B
100
AcDbEntity
  8
0
370
    -3
390
0
  6
Continuous
100
AcDbLine
 10
21.233185
 20
-56.059065
 30
0.0
 11
21.233185
 21
-111.116254
 31
0.0
  0
CIRCLE
  5
36C
100
AcDbEntity
  8
0
370
    -3
390
0
  6
Continuous
100
AcDbCircle
 10
-26.266815
 20
-83.58766
 30
0.0
 40
45.5
  0
LINE
  5
36D
100
AcDbEntity
  8
0
370
    -3
390
0
  6
Continuous
100
AcDbLine
 10
22.733185
 20
-56.059065
 30
0.0
 11
22.733185
 21
-111.116254
 31
0.0
  0
ARC
  5
36E
100
AcDbEntity
  8
0
370
    -3
390
0
  6
Continuous
100
AcDbCircle
 10
17.733185
 20
-111.116254
 30
0.0
 40
5.0
100
AcDbArc
 50
273.275829
 51
0.0
  0
ARC
  5
36F
100
AcDbEntity
  8
0
370
    -3
390
0
  6
Continuous
100
AcDbCircle
 10
17.733185
 20
-111.116254
 30
0.0
 40
3.5
100
AcDbArc
 50
273.275829
 51
0.0
  0
ARC
  5
370
100
AcDbEntity
  8
0
370
    -3
390
0
  6
Continuous
100
AcDbCircle
 10
-53.79541
 20
-127.58766
 30
0.0
 40
3.5
100
AcDbArc
 50
183.275829
 51
270.0
  0
ARC
  5
371
100
AcDbEntity
  8
0
370
    -3
390
0
  6
Continuous
100
AcDbCircle
 10
-53.79541
 20
-127.58766
 30
0.0
 40
4.0
100
AcDbArc
 50
183.275829
 51
270.0
  0
ARC
  5
372
100
AcDbEntity
  8
0
370
    -3
390
0
  6
Continuous
100
AcDbCircle
 10
-71.266815
 20
-128.58766
 30
0.0
 40
14.0
100
AcDbArc
 50
3.275829
 51
86.724171
  0
ARC
  5
373
100
AcDbEntity
  8
0
370
    -3
390
0
  6
Continuous
100
AcDbCircle
 10
-71.266815
 20
-128.58766
 30
0.0
 40
13.5
100
AcDbArc
 50
3.275829
 51
86.724171
  0
LINE
  5
374
100
AcDbEntity
  8
0
370
    -3
390
0
  6
Continuous
100
AcDbLine
 10
-73.766815
 20
-56.059065
 30
0.0
 11
-73.766815
 21
-111.116254
 31
0.0
  0
LINE
  5
375
100
AcDbEntity
  8
0
370
    -3
390
0
  6
Continuous
100
AcDbLine
 10
-74.266815
 20
-56.059065
 30
0.0
 11
-74.266815
 21
-111.116254
 31
0.0
  0
ARC
  5
376
100
AcDbEntity
  8
0
370
    -3
390
0
  6
Continuous
100
AcDbCircle
 10
-70.266815
 20
-111.116254
 30
0.0
 40
3.5
100
AcDbArc
 50
180.0
 51
266.724171
  0
ARC
  5
377
100
AcDbEntity
  8
0
370
    -3
390
0
  6
Continuous
100
AcDbCircle
 10
-70.266815
 20
-111.116254
 30
0.0
 40
4.0
100
AcDbArc
 50
180.0
 51
266.724171
  0
ARC
  5
378
100
AcDbEntity
  8
0
370
    -3
390
0
  6
Continuous
100
AcDbCircle
 10
-70.266815
 20
-56.059065
 30
0.0
 40
3.5
100
AcDbArc
 50
93.275829
 51
180.0
  0
ARC
  5
379
100
AcDbEntity
  8
0
370
    -3
390
0
  6
Continuous
100
AcDbCircle
 10
-70.266815
 20
-56.059065
 30
0.0
 40
4.0
100
AcDbArc
 50
93.275829
 51
180.0
  0
ARC
  5
37A
100
AcDbEntity
  8
0
370
    -3
390
0
  6
Continuous
100
AcDbCircle
 10
-71.266815
 20
-38.58766
 30
0.0
 40
14.0
100
AcDbArc
 50
273.275829
 51
356.724171
  0
ARC
  5
37B
100
AcDbEntity
  8
0
370
    -3
390
0
  6
Continuous
100
AcDbCircle
 10
-71.266815
 20
-38.58766
 30
0.0
 40
13.5
100
AcDbArc
 50
273.275829
 51
356.724171
  0
ARC
  5
37C
100
AcDbEntity
  8
0
370
    -3
390
0
  6
Continuous
100
AcDbCircle
 10
-53.79541
 20
-39.58766
 30
0.0
 40
4.0
100
AcDbArc
 50
90.0
 51
176.724171
  0
ARC
  5
37D
100
AcDbEntity
  8
0
370
    -3
390
0
  6
Continuous
100
AcDbCircle
 10
-53.79541
 20
-39.58766
 30
0.0
 40
3.5
100
AcDbArc
 50
90.0
 51
176.724171
  0
ARC
  5
37E
100
AcDbEntity
  8
0
370
    -3
390
0
  6
Continuous
100
AcDbCircle
 10
-27.998866
 20
-27.58766
 30
0.0
 40
1.0
100
AcDbArc
 50
30.0
 51
90.0
  0
ARC
  5
37F
100
AcDbEntity
  8
0
370
    -3
390
0
  6
Continuous
100
AcDbCircle
 10
-24.534764
 20
-27.58766
 30
0.0
 40
1.0
100
AcDbArc
 50
90.0
 51
150.0
  0
ARC
  5
380
100
AcDbEntity
  8
0
370
    -3
390
0
  6
Continuous
100
AcDbCircle
 10
-26.266815
 20
-26.58766
 30
0.0
 40
1.0
100
AcDbArc
 50
210.0
 51
330.0
  0
ARC
  5
381
100
AcDbEntity
  8
0
370
    -3
390
0
  6
Continuous
100
AcDbCircle
 10
29.733185
 20
-81.855609
 30
0.0
 40
1.0
100
AcDbArc
 50
300.0
 51
0.0
  0
ARC
  5
382
100
AcDbEntity
  8
0
370
    -3
390
0
  6
Continuous
100
AcDbCircle
 10
29.733185
 20
-85.31971
 30
0.0
 40
1.0
100
AcDbArc
 50
0.0
 51
60.0
  0
ARC
  5
383
100
AcDbEntity
  8
0
370
    -3
390
0
  6
Continuous
100
AcDbCircle
 10
30.733185
 20
-83.58766
 30
0.0
 40
1.0
100
AcDbArc
 50
120.0
 51
240.0
  0
ARC
  5
384
100
AcDbEntity
  8
0
370
    -3
390
0
  6
Continuous
100
AcDbCircle
 10
-24.534764
 20
-139.58766
 30
0.0
 40
1.0
100
AcDbArc
 50
210.0
 51
270.0
  0
ARC
  5
385
100
AcDbEntity
  8
0
370
    -3
390
0
  6
Continuous
100
AcDbCircle
 10
-27.998866
 20
-139.58766
 30
0.0
 40
1.0
100
AcDbArc
 50
270.0
 51
330.0
  0
ARC
  5
386
100
AcDbEntity
  8
0
370
    -3
390
0
  6
Continuous
100
AcDbCircle
 10
-26.266815
 20
-140.58766
 30
0.0
 40
1.0
100
AcDbArc
 50
30.0
 51
150.0
  0
CIRCLE
  5
387
100
AcDbEntity
  8
0
370
    -3
390
0
  6
Continuous
100
AcDbCircle
 10
-26.266815
 20
-83.58766
 30
0.0
 40
43.0
  0
ARC
  5
388
100
AcDbEntity
  8
0
370
    -3
390
0
  6
Continuous
100
AcDbCircle
 10
-7.232671
 20
-39.58766
 30
0.0
 40
5.0
100
AcDbArc
 50
28.685402
 51
90.0
  0
ARC
  5
389
100
AcDbEntity
  8
0
370
    -3
390
0
  6
Continuous
100
AcDbCircle
 10
18.733185
 20
-38.58766
 30
0.0
 40
12.5
100
AcDbArc
 50
210.012476
 51
266.724171
  0
ARC
  5
38A
100
AcDbEntity
  8
0
370
    -3
390
0
  6
Continuous
100
AcDbCircle
 10
3.733185
 20
-33.58766
 30
0.0
 40
7.5
100
AcDbArc
 50
208.685402
 51
259.77568
  0
ARC
  5
38B
100
AcDbEntity
  8
0
370
    -3
390
0
  6
Continuous
100
AcDbCircle
 10
0.981897
 20
-48.841525
 30
0.0
 40
8.0
100
AcDbArc
 50
30.012476
 51
79.77568
  0
LINE
  5
38C
100
AcDbEntity
  8
0
370
    -3
390
0
  6
Continuous
100
AcDbLine
 10
-53.79541
 20
-36.08766
 30
0.0
 11
-7.232671
 21
-36.08766
 31
0.0
  0
ARC
  5
38D
100
AcDbEntity
  8
0
370
    -3
390
0
  6
Continuous
100
AcDbCircle
 10
-7.232671
 20
-39.58766
 30
0.0
 40
3.5
100
AcDbArc
 50
28.685402
 51
90.0
  0
ARC
  5
38E
100
AcDbEntity
  8
0
370
    -3
390
0
  6
Continuous
100
AcDbCircle
 10
18.733185
 20
-38.58766
 30
0.0
 40
14.0
100
AcDbArc
 50
210.012476
 51
266.724171
  0
ARC
  5
38F
100
AcDbEntity
  8
0
370
    -3
390
0
  6
Continuous
100
AcDbCircle
 10
3.733185
 20
-33.58766
 30
0.0
 40
9.0
100
AcDbArc
 50
208.685402
 51
259.77568
  0
ARC
  5
390
100
AcDbEntity
  8
0
370
    -3
390
0
  6
Continuous
100
AcDbCircle
 10
0.981897
 20
-48.841525
 30
0.0
 40
6.5
100
AcDbArc
 50
30.012476
 51
79.77568
  0
ARC
  5
391
100
AcDbEntity
  8
0
370
    -3
390
0
  6
Continuous
100
AcDbCircle
 10
-109.515526
 20
-48.841525
 30
0.0
 40
8.0
100
AcDbArc
 50
100.22432
 51
149.987524
  0
LINE
  5
392
100
AcDbEntity
  8
0
370
    -3
390
0
  6
Continuous
100
AcDbLine
 10
-7.232671
 20
-34.58766
 30
0.0
 11
-101.300959
 21
-34.58766
 31
0.0
  0
ARC
  5
393
100
AcDbEntity
  8
0
370
    -3
390
0
  6
Continuous
100
AcDbCircle
 10
-112.266815
 20
-33.58766
 30
0.0
 40
7.5
100
AcDbArc
 50
280.22432
 51
331.314598
  0
ARC
  5
394
100
AcDbEntity
  8
0
370
    -3
390
0
  6
Continuous
100
AcDbCircle
 10
-101.300959
 20
-39.58766
 30
0.0
 40
5.0
100
AcDbArc
 50
90.0
 51
151.314598
  0
ARC
  5
395
100
AcDbEntity
  8
0
370
    -3
390
0
  6
Continuous
100
AcDbCircle
 10
-109.515526
 20
-48.841525
 30
0.0
 40
7.0
100
AcDbArc
 50
100.22432
 51
149.987524
  0
ARC
  5
396
100
AcDbEntity
  8
0
370
    -3
390
0
  6
Continuous
100
AcDbCircle
 10
-112.266815
 20
-33.58766
 30
0.0
 40
8.5
100
AcDbArc
 50
280.22432
 51
331.314598
  0
ARC
  5
397
100
AcDbEntity
  8
0
370
    -3
390
0
  6
Continuous
100
AcDbCircle
 10
-101.300959
 20
-39.58766
 30
0.0
 40
4.0
100
AcDbArc
 50
90.0
 51
151.314598
  0
LINE
  5
398
100
AcDbEntity
  8
0
370
    -3
390
0
  6
Continuous
100
AcDbLine
 10
-53.79541
 20
-35.58766
 30
0.0
 11
-101.300959
 21
-35.58766
 31
0.0
  0
ARC
  5
399
100
AcDbEntity
  8
0
370
    -3
390
0
  6
Continuous
100
AcDbCircle
 10
18.733185
 20
-128.58766
 30
0.0
 40
12.5
100
AcDbArc
 50
93.275829
 51
149.987524
  0
ARC
  5
39A
100
AcDbEntity
  8
0
370
    -3
390
0
  6
Continuous
100
AcDbCircle
 10
0.981897
 20
-118.333794
 30
0.0
 40
8.0
100
AcDbArc
 50
280.22432
 51
329.987524
  0
ARC
  5
39B
100
AcDbEntity
  8
0
370
    -3
390
0
  6
Continuous
100
AcDbCircle
 10
-109.515526
 20
-118.333794
 30
0.0
 40
8.0
100
AcDbArc
 50
210.012476
 51
259.77568
  0
ARC
  5
39C
100
AcDbEntity
  8
0
370
    -3
390
0
  6
Continuous
100
AcDbCircle
 10
-112.266815
 20
-133.58766
 30
0.0
 40
7.5
100
AcDbArc
 50
28.685402
 51
79.77568
  0
ARC
  5
39D
100
AcDbEntity
  8
0
370
    -3
390
0
  6
Continuous
100
AcDbCircle
 10
-101.300959
 20
-127.58766
 30
0.0
 40
5.0
100
AcDbArc
 50
208.685402
 51
270.0
  0
LINE
  5
39E
100
AcDbEntity
  8
0
370
    -3
390
0
  6
Continuous
100
AcDbLine
 10
-101.300959
 20
-131.58766
 30
0.0
 11
-53.79541
 21
-131.58766
 31
0.0
  0
ARC
  5
39F
100
AcDbEntity
  8
0
370
    -3
390
0
  6
Continuous
100
AcDbCircle
 10
-101.300959
 20
-127.58766
 30
0.0
 40
4.0
100
AcDbArc
 50
208.685402
 51
270.0
  0
ARC
  5
3A0
100
AcDbEntity
  8
0
370
    -3
390
0
  6
Continuous
100
AcDbCircle
 10
-112.266815
 20
-133.58766
 30
0.0
 40
8.5
100
AcDbArc
 50
28.685402
 51
79.77568
  0
ARC
  5
3A1
100
AcDbEntity
  8
0
370
    -3
390
0
  6
Continuous
100
AcDbCircle
 10
-109.515526
 20
-118.333794
 30
0.0
 40
7.0
100
AcDbArc
 50
210.012476
 51
259.77568
  0
LINE
  5
3A2
100
AcDbEntity
  8
0
370
    -3
390
0
  6
Continuous
100
AcDbLine
 10
-7.232671
 20
-132.58766
 30
0.0
 11
-101.300959
 21
-132.58766
 31
0.0
  0
ARC
  5
3A3
100
AcDbEntity
  8
0
370
    -3
390
0
  6
Continuous
100
AcDbCircle
 10
3.733185
 20
-133.58766
 30
0.0
 40
7.5
100
AcDbArc
 50
100.22432
 51
151.314598
  0
ARC
  5
3A4
100
AcDbEntity
  8
0
370
    -3
390
0
  6
Continuous
100
AcDbCircle
 10
-7.232671
 20
-127.58766
 30
0.0
 40
5.0
100
AcDbArc
 50
270.0
 51
331.314598
  0
LINE
  5
3A5
100
AcDbEntity
  8
0
370
    -3
390
0
  6
Continuous
100
AcDbLine
 10
-7.232671
 20
-131.08766
 30
0.0
 11
-53.79541
 21
-131.08766
 31
0.0
  0
ARC
  5
3A6
100
AcDbEntity
  8
0
370
    -3
390
0
  6
Continuous
100
AcDbCircle
 10
-7.232671
 20
-127.58766
 30
0.0
 40
3.5
100
AcDbArc
 50
270.0
 51
331.314598
  0
ARC
  5
3A7
100
AcDbEntity
  8
0
370
    -3
390
0
  6
Continuous
100
AcDbCircle
 10
18.733185
 20
-128.58766
 30
0.0
 40
14.0
100
AcDbArc
 50
93.275829
 51
149.987524
  0
ARC
  5
3A8
100
AcDbEntity
  8
0
370
    -3
390
0
  6
Continuous
100
AcDbCircle
 10
3.733185
 20
-133.58766
 30
0.0
 40
9.0
100
AcDbArc
 50
100.22432
 51
151.314598
  0
ARC
  5
3A9
100
AcDbEntity
  8
0
370
    -3
390
0
  6
Continuous
100
AcDbCircle
 10
0.981897
 20
-118.333794
 30
0.0
 40
6.5
100
AcDbArc
 50
280.22432
 51
329.987524
  0
ARC
  5
3AA
100
AcDbEntity
  8
0
370
    -3
390
0
  6
Continuous
100
AcDbCircle
 10
-112.266815
 20
-133.58766
 30
0.0
 40
5.5
100
AcDbArc
 50
0.0
 51
180.0
  0
LINE
  5
3AB
100
AcDbEntity
  8
0
370
    -3
390
0
  6
Continuous
100
AcDbLine
 10
-117.766815
 20
-133.58766
 30
0.0
 11
-117.766815
 21
-140.18766
 31
0.0
  0
LINE
  5
3AC
100
AcDbEntity
  8
0
370
    -3
390
0
  6
Continuous
100
AcDbLine
 10
-117.766815
 20
-140.18766
 30
0.0
 11
-118.166815
 21
-140.58766
 31
0.0
  0
LINE
  5
3AD
100
AcDbEntity
  8
0
370
    -3
390
0
  6
Continuous
100
AcDbLine
 10
-106.766815
 20
-133.58766
 30
0.0
 11
-106.766815
 21
-140.18766
 31
0.0
  0
LINE
  5
3AE
100
AcDbEntity
  8
0
370
    -3
390
0
  6
Continuous
100
AcDbLine
 10
-106.766815
 20
-140.18766
 30
0.0
 11
-106.366815
 21
-140.58766
 31
0.0
  0
LINE
  5
3AF
100
AcDbEntity
  8
0
370
    -3
390
0
  6
Continuous
100
AcDbLine
 10
-106.766815
 20
-140.18766
 30
0.0
 11
-106.366815
 21
-140.58766
 31
0.0
  0
LINE
  5
3B0
100
AcDbEntity
  8
0
370
    -3
390
0
  6
Continuous
100
AcDbLine
 10
-106.766815
 20
-133.58766
 30
0.0
 11
-106.766815
 21
-140.18766
 31
0.0
  0
LINE
  5
3B1
100
AcDbEntity
  8
0
370
    -3
390
0
  6
Continuous
100
AcDbLine
 10
-117.766815
 20
-140.18766
 30
0.0
 11
-118.166815
 21
-140.58766
 31
0.0
  0
LINE
  5
3B2
100
AcDbEntity
  8
0
370
    -3
390
0
  6
Continuous
100
AcDbLine
 10
-117.766815
 20
-133.58766
 30
0.0
 11
-117.766815
 21
-140.18766
 31
0.0
  0
ARC
  5
3B3
100
AcDbEntity
  8
0
370
    -3
390
0
  6
Continuous
100
AcDbCircle
 10
-112.266815
 20
-133.58766
 30
0.0
 40
5.5
100
AcDbArc
 50
0.0
 51
180.0
  0
ARC
  5
3B4
100
AcDbEntity
  8
0
370
    -3
390
0
  6
Continuous
100
AcDbCircle
 10
0.981897
 20
-118.333794
 30
0.0
 40
6.5
100
AcDbArc
 50
280.22432
 51
329.987524
  0
ARC
  5
3B5
100
AcDbEntity
  8
0
370
    -3
390
0
  6
Continuous
100
AcDbCircle
 10
3.733185
 20
-133.58766
 30
0.0
 40
9.0
100
AcDbArc
 50
100.22432
 51
151.314598
  0
ARC
  5
3B6
100
AcDbEntity
  8
0
370
    -3
390
0
  6
Continuous
100
AcDbCircle
 10
18.733185
 20
-128.58766
 30
0.0
 40
14.0
100
AcDbArc
 50
93.275829
 51
149.987524
  0
ARC
  5
3B7
100
AcDbEntity
  8
0
370
    -3
390
0
  6
Continuous
100
AcDbCircle
 10
-7.232671
 20
-127.58766
 30
0.0
 40
3.5
100
AcDbArc
 50
270.0
 51
331.314598
  0
LINE
  5
3B8
100
AcDbEntity
  8
0
370
    -3
390
0
  6
Continuous
100
AcDbLine
 10
-7.232671
 20
-131.08766
 30
0.0
 11
-53.79541
 21
-131.08766
 31
0.0
  0
ARC
  5
3B9
100
AcDbEntity
  8
0
370
    -3
390
0
  6
Continuous
100
AcDbCircle
 10
-7.232671
 20
-127.58766
 30
0.0
 40
5.0
100
AcDbArc
 50
270.0
 51
331.314598
  0
ARC
  5
3BA
100
AcDbEntity
  8
0
370
    -3
390
0
  6
Continuous
100
AcDbCircle
 10
3.733185
 20
-133.58766
 30
0.0
 40
7.5
100
AcDbArc
 50
100.22432
 51
151.314598
  0
LINE
  5
3BB
100
AcDbEntity
  8
0
370
    -3
390
0
  6
Continuous
100
AcDbLine
 10
-7.232671
 20
-132.58766
 30
0.0
 11
-101.300959
 21
-132.58766
 31
0.0
  0
ARC
  5
3BC
100
AcDbEntity
  8
0
370
    -3
390
0
  6
Continuous
100
AcDbCircle
 10
-109.515526
 20
-118.333794
 30
0.0
 40
7.0
100
AcDbArc
 50
210.012476
 51
259.77568
  0
ARC
  5
3BD
100
AcDbEntity
  8
0
370
    -3
390
0
  6
Continuous
100
AcDbCircle
 10
-112.266815
 20
-133.58766
 30
0.0
 40
8.5
100
AcDbArc
 50
28.685402
 51
79.77568
  0
ARC
  5
3BE
100
AcDbEntity
  8
0
370
    -3
390
0
  6
Continuous
100
AcDbCircle
 10
-101.300959
 20
-127.58766
 30
0.0
 40
4.0
100
AcDbArc
 50
208.685402
 51
270.0
  0
LINE
  5
3BF
100
AcDbEntity
  8
0
370
    -3
390
0
  6
Continuous
100
AcDbLine
 10
-101.300959
 20
-131.58766
 30
0.0
 11
-53.79541
 21
-131.58766
 31
0.0
  0
ARC
  5
3C0
100
AcDbEntity
  8
0
370
    -3
390
0
  6
Continuous
100
AcDbCircle
 10
-101.300959
 20
-127.58766
 30
0.0
 40
5.0
100
AcDbArc
 50
208.685402
 51
270.0
  0
ARC
  5
3C1
100
AcDbEntity
  8
0
370
    -3
390
0
  6
Continuous
100
AcDbCircle
 10
-112.266815
 20
-133.58766
 30
0.0
 40
7.5
100
AcDbArc
 50
28.685402
 51
79.77568
  0
ARC
  5
3C2
100
AcDbEntity
  8
0
370
    -3
390
0
  6
Continuous
100
AcDbCircle
 10
-109.515526
 20
-118.333794
 30
0.0
 40
8.0
100
AcDbArc
 50
210.012476
 51
259.77568
  0
ARC
  5
3C3
100
AcDbEntity
  8
0
370
    -3
390
0
  6
Continuous
100
AcDbCircle
 10
0.981897
 20
-118.333794
 30
0.0
 40
8.0
100
AcDbArc
 50
280.22432
 51
329.987524
  0
ARC
  5
3C4
100
AcDbEntity
  8
0
370
    -3
390
0
  6
Continuous
100
AcDbCircle
 10
18.733185
 20
-128.58766
 30
0.0
 40
12.5
100
AcDbArc
 50
93.275829
 51
149.987524
  0
LINE
  5
3C5
100
AcDbEntity
  8
0
370
    -3
390
0
  6
Continuous
100
AcDbLine
 10
-53.79541
 20
-35.58766
 30
0.0
 11
-101.300959
 21
-35.58766
 31
0.0
  0
ARC
  5
3C6
100
AcDbEntity
  8
0
370
    -3
390
0
  6
Continuous
100
AcDbCircle
 10
-101.300959
 20
-39.58766
 30
0.0
 40
4.0
100
AcDbArc
 50
90.0
 51
151.314598
  0
ARC
  5
3C7
100
AcDbEntity
  8
0
370
    -3
390
0
  6
Continuous
100
AcDbCircle
 10
-112.266815
 20
-33.58766
 30
0.0
 40
8.5
100
AcDbArc
 50
280.22432
 51
331.314598
  0
ARC
  5
3C8
100
AcDbEntity
  8
0
370
    -3
390
0
  6
Continuous
100
AcDbCircle
 10
-109.515526
 20
-48.841525
 30
0.0
 40
7.0
100
AcDbArc
 50
100.22432
 51
149.987524
  0
ARC
  5
3C9
100
AcDbEntity
  8
0
370
    -3
390
0
  6
Continuous
100
AcDbCircle
 10
-101.300959
 20
-39.58766
 30
0.0
 40
5.0
100
AcDbArc
 50
90.0
 51
151.314598
  0
ARC
  5
3CA
100
AcDbEntity
  8
0
370
    -3
390
0
  6
Continuous
100
AcDbCircle
 10
-112.266815
 20
-33.58766
 30
0.0
 40
7.5
100
AcDbArc
 50
280.22432
 51
331.314598
  0
LINE
  5
3CB
100
AcDbEntity
  8
0
370
    -3
390
0
  6
Continuous
100
AcDbLine
 10
-7.232671
 20
-34.58766
 30
0.0
 11
-101.300959
 21
-34.58766
 31
0.0
  0
ARC
  5
3CC
100
AcDbEntity
  8
0
370
    -3
390
0
  6
Continuous
100
AcDbCircle
 10
-109.515526
 20
-48.841525
 30
0.0
 40
8.0
100
AcDbArc
 50
100.22432
 51
149.987524
  0
ARC
  5
3CD
100
AcDbEntity
  8
0
370
    -3
390
0
  6
Continuous
100
AcDbCircle
 10
0.981897
 20
-48.841525
 30
0.0
 40
6.5
100
AcDbArc
 50
30.012476
 51
79.77568
  0
ARC
  5
3CE
100
AcDbEntity
  8
0
370
    -3
390
0
  6
Continuous
100
AcDbCircle
 10
3.733185
 20
-33.58766
 30
0.0
 40
9.0
100
AcDbArc
 50
208.685402
 51
259.77568
  0
ARC
  5
3CF
100
AcDbEntity
  8
0
370
    -3
390
0
  6
Continuous
100
AcDbCircle
 10
18.733185
 20
-38.58766
 30
0.0
 40
14.0
100
AcDbArc
 50
210.012476
 51
266.724171
  0
ARC
  5
3D0
100
AcDbEntity
  8
0
370
    -3
390
0
  6
Continuous
100
AcDbCircle
 10
-7.232671
 20
-39.58766
 30
0.0
 40
3.5
100
AcDbArc
 50
28.685402
 51
90.0
  0
LINE
  5
3D1
100
AcDbEntity
  8
0
370
    -3
390
0
  6
Continuous
100
AcDbLine
 10
-53.79541
 20
-36.08766
 30
0.0
 11
-7.232671
 21
-36.08766
 31
0.0
  0
ARC
  5
3D2
100
AcDbEntity
  8
0
370
    -3
390
0
  6
Continuous
100
AcDbCircle
 10
0.981897
 20
-48.841525
 30
0.0
 40
8.0
100
AcDbArc
 50
30.012476
 51
79.77568
  0
ARC
  5
3D3
100
AcDbEntity
  8
0
370
    -3
390
0
  6
Continuous
100
AcDbCircle
 10
3.733185
 20
-33.58766
 30
0.0
 40
7.5
100
AcDbArc
 50
208.685402
 51
259.77568
  0
ARC
  5
3D4
100
AcDbEntity
  8
0
370
    -3
390
0
  6
Continuous
100
AcDbCircle
 10
18.733185
 20
-38.58766
 30
0.0
 40
12.5
100
AcDbArc
 50
210.012476
 51
266.724171
  0
ARC
  5
3D5
100
AcDbEntity
  8
0
370
    -3
390
0
  6
Continuous
100
AcDbCircle
 10
-7.232671
 20
-39.58766
 30
0.0
 40
5.0
100
AcDbArc
 50
28.685402
 51
90.0
  0
CIRCLE
  5
3D6
100
AcDbEntity
  8
0
370
    -3
390
0
  6
Continuous
100
AcDbCircle
 10
-26.266815
 20
-83.58766
 30
0.0
 40
43.0
  0
ARC
  5
3D7
100
AcDbEntity
  8
0
370
    -3
390
0
  6
Continuous
100
AcDbCircle
 10
-26.266815
 20
-140.58766
 30
0.0
 40
1.0
100
AcDbArc
 50
30.0
 51
150.0
  0
ARC
  5
3D8
100
AcDbEntity
  8
0
370
    -3
390
0
  6
Continuous
100
AcDbCircle
 10
-27.998866
 20
-139.58766
 30
0.0
 40
1.0
100
AcDbArc
 50
270.0
 51
330.0
  0
ARC
  5
3D9
100
AcDbEntity
  8
0
370
    -3
390
0
  6
Continuous
100
AcDbCircle
 10
-24.534764
 20
-139.58766
 30
0.0
 40
1.0
100
AcDbArc
 50
210.0
 51
270.0
  0
ARC
  5
3DA
100
AcDbEntity
  8
0
370
    -3
390
0
  6
Continuous
100
AcDbCircle
 10
30.733185
 20
-83.58766
 30
0.0
 40
1.0
100
AcDbArc
 50
120.0
 51
240.0
  0
ARC
  5
3DB
100
AcDbEntity
  8
0
370
    -3
390
0
  6
Continuous
100
AcDbCircle
 10
29.733185
 20
-85.31971
 30
0.0
 40
1.0
100
AcDbArc
 50
0.0
 51
60.0
  0
ARC
  5
3DC
100
AcDbEntity
  8
0
370
    -3
390
0
  6
Continuous
100
AcDbCircle
 10
29.733185
 20
-81.855609
 30
0.0
 40
1.0
100
AcDbArc
 50
300.0
 51
0.0
  0
ARC
  5
3DD
100
AcDbEntity
  8
0
370
    -3
390
0
  6
Continuous
100
AcDbCircle
 10
-26.266815
 20
-26.58766
 30
0.0
 40
1.0
100
AcDbArc
 50
210.0
 51
330.0
  0
ARC
  5
3DE
100
AcDbEntity
  8
0
370
    -3
390
0
  6
Continuous
100
AcDbCircle
 10
-24.534764
 20
-27.58766
 30
0.0
 40
1.0
100
AcDbArc
 50
90.0
 51
150.0
  0
ARC
  5
3DF
100
AcDbEntity
  8
0
370
    -3
390
0
  6
Continuous
100
AcDbCircle
 10
-27.998866
 20
-27.58766
 30
0.0
 40
1.0
100
AcDbArc
 50
30.0
 51
90.0
  0
ARC
  5
3E0
100
AcDbEntity
  8
0
370
    -3
390
0
  6
Continuous
100
AcDbCircle
 10
-53.79541
 20
-39.58766
 30
0.0
 40
3.5
100
AcDbArc
 50
90.0
 51
176.724171
  0
ARC
  5
3E1
100
AcDbEntity
  8
0
370
    -3
390
0
  6
Continuous
100
AcDbCircle
 10
-53.79541
 20
-39.58766
 30
0.0
 40
4.0
100
AcDbArc
 50
90.0
 51
176.724171
  0
ARC
  5
3E2
100
AcDbEntity
  8
0
370
    -3
390
0
  6
Continuous
100
AcDbCircle
 10
-71.266815
 20
-38.58766
 30
0.0
 40
13.5
100
AcDbArc
 50
273.275829
 51
356.724171
  0
ARC
  5
3E3
100
AcDbEntity
  8
0
370
    -3
390
0
  6
Continuous
100
AcDbCircle
 10
-71.266815
 20
-38.58766
 30
0.0
 40
14.0
100
AcDbArc
 50
273.275829
 51
356.724171
  0
ARC
  5
3E4
100
AcDbEntity
  8
0
370
    -3
390
0
  6
Continuous
100
AcDbCircle
 10
-70.266815
 20
-56.059065
 30
0.0
 40
4.0
100
AcDbArc
 50
93.275829
 51
180.0
  0
ARC
  5
3E5
100
AcDbEntity
  8
0
370
    -3
390
0
  6
Continuous
100
AcDbCircle
 10
-70.266815
 20
-56.059065
 30
0.0
 40
3.5
100
AcDbArc
 50
93.275829
 51
180.0
  0
ARC
  5
3E6
100
AcDbEntity
  8
0
370
    -3
390
0
  6
Continuous
100
AcDbCircle
 10
-70.266815
 20
-111.116254
 30
0.0
 40
4.0
100
AcDbArc
 50
180.0
 51
266.724171
  0
ARC
  5
3E7
100
AcDbEntity
  8
0
370
    -3
390
0
  6
Continuous
100
AcDbCircle
 10
-70.266815
 20
-111.116254
 30
0.0
 40
3.5
100
AcDbArc
 50
180.0
 51
266.724171
  0
LINE
  5
3E8
100
AcDbEntity
  8
0
370
    -3
390
0
  6
Continuous
100
AcDbLine
 10
-74.266815
 20
-56.059065
 30
0.0
 11
-74.266815
 21
-111.116254
 31
0.0
  0
LINE
  5
3E9
100
AcDbEntity
  8
0
370
    -3
390
0
  6
Continuous
100
AcDbLine
 10
-73.766815
 20
-56.059065
 30
0.0
 11
-73.766815
 21
-111.116254
 31
0.0
  0
ARC
  5
3EA
100
AcDbEntity
  8
0
370
    -3
390
0
  6
Continuous
100
AcDbCircle
 10
-71.266815
 20
-128.58766
 30
0.0
 40
13.5
100
AcDbArc
 50
3.275829
 51
86.724171
  0
ARC
  5
3EB
100
AcDbEntity
  8
0
370
    -3
390
0
  6
Continuous
100
AcDbCircle
 10
-71.266815
 20
-128.58766
 30
0.0
 40
14.0
100
AcDbArc
 50
3.275829
 51
86.724171
  0
ARC
  5
3EC
100
AcDbEntity
  8
0
370
    -3
390
0
  6
Continuous
100
AcDbCircle
 10
-53.79541
 20
-127.58766
 30
0.0
 40
4.0
100
AcDbArc
 50
183.275829
 51
270.0
  0
ARC
  5
3ED
100
AcDbEntity
  8
0
370
    -3
390
0
  6
Continuous
100
AcDbCircle
 10
-53.79541
 20
-127.58766
 30
0.0
 40
3.5
100
AcDbArc
 50
183.275829
 51
270.0
  0
ARC
  5
3EE
100
AcDbEntity
  8
0
370
    -3
390
0
  6
Continuous
100
AcDbCircle
 10
17.733185
 20
-111.116254
 30
0.0
 40
3.5
100
AcDbArc
 50
273.275829
 51
0.0
  0
ARC
  5
3EF
100
AcDbEntity
  8
0
370
    -3
390
0
  6
Continuous
100
AcDbCircle
 10
17.733185
 20
-111.116254
 30
0.0
 40
5.0
100
AcDbArc
 50
273.275829
 51
0.0
  0
LINE
  5
3F0
100
AcDbEntity
  8
0
370
    -3
390
0
  6
Continuous
100
AcDbLine
 10
22.733185
 20
-56.059065
 30
0.0
 11
22.733185
 21
-111.116254
 31
0.0
  0
CIRCLE
  5
3F1
100
AcDbEntity
  8
0
370
    -3
390
0
  6
Continuous
100
AcDbCircle
 10
-26.266815
 20
-83.58766
 30
0.0
 40
45.5
  0
LINE
  5
3F2
100
AcDbEntity
  8
0
370
    -3
390
0
  6
Continuous
100
AcDbLine
 10
21.233185
 20
-56.059065
 30
0.0
 11
21.233185
 21
-111.116254
 31
0.0
  0
CIRCLE
  5
3F3
100
AcDbEntity
  8
0
370
    -3
390
0
  6
Continuous
100
AcDbCircle
 10
-26.266815
 20
-83.58766
 30
0.0
 40
44.25
  0
ARC
  5
3F4
100
AcDbEntity
  8
0
370
    -3
390
0
  6
Continuous
100
AcDbCircle
 10
17.733185
 20
-56.059065
 30
0.0
 40
3.5
100
AcDbArc
 50
0.0
 51
86.724171
  0
ARC
  5
3F5
100
AcDbEntity
  8
0
370
    -3
390
0
  6
Continuous
100
AcDbCircle
 10
17.733185
 20
-56.059065
 30
0.0
 40
5.0
100
AcDbArc
 50
0.0
 51
86.724171
  0
CIRCLE
  5
3F6
100
AcDbEntity
  8
0
370
    -3
390
0
  6
Continuous
100
AcDbCircle
 10
3.733185
 20
-133.58766
 30
0.0
 40
3.3
  0
CIRCLE
  5
3F7
100
AcDbEntity
  8
0
370
    -3
390
0
  6
Continuous
100
AcDbCircle
 10
-112.266815
 20
-133.58766
 30
0.0
 40
3.3
  0
CIRCLE
  5
3F8
100
AcDbEntity
  8
0
370
    -3
390
0
  6
Continuous
100
AcDbCircle
 10
3.733185
 20
-33.58766
 30
0.0
 40
3.3
  0
CIRCLE
  5
3F9
100
AcDbEntity
  8
0
370
    -3
390
0
  6
Continuous
100
AcDbCircle
 10
-112.266815
 20
-33.58766
 30
0.0
 40
3.3
  0
CIRCLE
  5
3FA
100
AcDbEntity
  8
0
370
    -3
390
0
  6
Continuous
100
AcDbCircle
 10
18.733185
 20
-128.58766
 30
0.0
 40
9.0
  0
CIRCLE
  5
3FB
100
AcDbEntity
  8
0
370
    -3
390
0
  6
Continuous
100
AcDbCircle
 10
18.733185
 20
-38.58766
 30
0.0
 40
9.0
  0
LINE
  5
3FC
100
AcDbEntity
  8
0
370
    -3
390
0
  6
Continuous
100
AcDbLine
 10
21.733185
 20
-26.58766
 30
0.0
 11
-26.266815
 21
-26.58766
 31
0.0
  0
LINE
  5
3FD
100
AcDbEntity
  8
0
370
    -3
390
0
  6
Continuous
100
AcDbLine
 10
21.733185
 20
-140.58766
 30
0.0
 11
-26.266815
 21
-140.58766
 31
0.0
  0
ARC
  5
3FE
100
AcDbEntity
  8
0
370
    -3
390
0
  6
Continuous
100
AcDbCircle
 10
21.733185
 20
-131.58766
 30
0.0
 40
9.0
100
AcDbArc
 50
270.0
 51
0.0
  0
LINE
  5
3FF
100
AcDbEntity
  8
0
370
    -3
390
0
  6
Continuous
100
AcDbLine
 10
30.733185
 20
-83.58766
 30
0.0
 11
30.733185
 21
-131.58766
 31
0.0
  0
LINE
  5
400
100
AcDbEntity
  8
0
370
    -3
390
0
  6
Continuous
100
AcDbLine
 10
30.733185
 20
-83.58766
 30
0.0
 11
30.733185
 21
-35.58766
 31
0.0
  0
ARC
  5
401
100
AcDbEntity
  8
0
370
    -3
390
0
  6
Continuous
100
AcDbCircle
 10
21.733185
 20
-35.58766
 30
0.0
 40
9.0
100
AcDbArc
 50
0.0
 51
90.0
  0
LINE
  5
402
100
AcDbEntity
  8
0
370
    -3
390
0
  6
Continuous
100
AcDbLine
 10
-1.766815
 20
-140.18766
 30
0.0
 11
-2.166815
 21
-140.58766
 31
0.0
  0
LINE
  5
403
100
AcDbEntity
  8
0
370
    -3
390
0
  6
Continuous
100
AcDbLine
 10
-1.766815
 20
-133.58766
 30
0.0
 11
-1.766815
 21
-140.18766
 31
0.0
  0
LINE
  5
404
100
AcDbEntity
  8
0
370
    -3
390
0
  6
Continuous
100
AcDbLine
 10
9.233185
 20
-140.18766
 30
0.0
 11
9.633185
 21
-140.58766
 31
0.0
  0
LINE
  5
405
100
AcDbEntity
  8
0
370
    -3
390
0
  6
Continuous
100
AcDbLine
 10
9.233185
 20
-133.58766
 30
0.0
 11
9.233185
 21
-140.18766
 31
0.0
  0
ARC
  5
406
100
AcDbEntity
  8
0
370
    -3
390
0
  6
Continuous
100
AcDbCircle
 10
3.733185
 20
-133.58766
 30
0.0
 40
5.5
100
AcDbArc
 50
0.0
 51
180.0
  0
ARC
  5
407
100
AcDbEntity
  8
0
370
    -3
390
0
  6
Continuous
100
AcDbCircle
 10
3.733185
 20
-33.58766
 30
0.0
 40
5.5
100
AcDbArc
 50
180.0
 51
0.0
  0
LINE
  5
408
100
AcDbEntity
  8
0
370
    -3
390
0
  6
Continuous
100
AcDbLine
 10
9.233185
 20
-26.98766
 30
0.0
 11
9.633185
 21
-26.58766
 31
0.0
  0
LINE
  5
409
100
AcDbEntity
  8
0
370
    -3
390
0
  6
Continuous
100
AcDbLine
 10
9.233185
 20
-33.58766
 30
0.0
 11
9.233185
 21
-26.98766
 31
0.0
  0
LINE
  5
40A
100
AcDbEntity
  8
0
370
    -3
390
0
  6
Continuous
100
AcDbLine
 10
-1.766815
 20
-26.98766
 30
0.0
 11
-2.166815
 21
-26.58766
 31
0.0
  0
LINE
  5
40B
100
AcDbEntity
  8
0
370
    -3
390
0
  6
Continuous
100
AcDbLine
 10
-1.766815
 20
-33.58766
 30
0.0
 11
-1.766815
 21
-26.98766
 31
0.0
  0
ARC
  5
40C
100
AcDbEntity
  8
0
370
    -3
390
0
  6
Continuous
100
AcDbCircle
 10
-112.266815
 20
-33.58766
 30
0.0
 40
5.5
100
AcDbArc
 50
180.0
 51
0.0
  0
LINE
  5
40D
100
AcDbEntity
  8
0
370
    -3
390
0
  6
Continuous
100
AcDbLine
 10
-106.766815
 20
-26.98766
 30
0.0
 11
-106.366815
 21
-26.58766
 31
0.0
  0
LINE
  5
40E
100
AcDbEntity
  8
0
370
    -3
390
0
  6
Continuous
100
AcDbLine
 10
-106.766815
 20
-33.58766
 30
0.0
 11
-106.766815
 21
-26.98766
 31
0.0
  0
LINE
  5
40F
100
AcDbEntity
  8
0
370
    -3
390
0
  6
Continuous
100
AcDbLine
 10
-117.766815
 20
-26.98766
 30
0.0
 11
-118.166815
 21
-26.58766
 31
0.0
  0
LINE
  5
410
100
AcDbEntity
  8
0
370
    -3
390
0
  6
Continuous
100
AcDbLine
 10
-117.766815
 20
-33.58766
 30
0.0
 11
-117.766815
 21
-26.98766
 31
0.0
  0
LINE
  5
411
100
AcDbEntity
  8
0
370
    -3
390
0
  6
Continuous
100
AcDbLine
 10
30.233185
 20
-82.721634
 30
0.0
 11
30.233185
 21
-36.08766
 31
0.0
  0
LINE
  5
412
100
AcDbEntity
  8
0
370
    -3
390
0
  6
Continuous
100
AcDbLine
 10
-25.400789
 20
-27.08766
 30
0.0
 11
21.233185
 21
-27.08766
 31
0.0
  0
ARC
  5
413
100
AcDbEntity
  8
0
370
    -3
390
0
  6
Continuous
100
AcDbCircle
 10
21.233185
 20
-36.08766
 30
0.0
 40
9.0
100
AcDbArc
 50
0.0
 51
90.0
  0
ARC
  5
414
100
AcDbEntity
  8
0
370
    -3
390
0
  6
Continuous
100
AcDbCircle
 10
21.233185
 20
-131.08766
 30
0.0
 40
9.0
100
AcDbArc
 50
270.0
 51
0.0
  0
LINE
  5
415
100
AcDbEntity
  8
0
370
    -3
390
0
  6
Continuous
100
AcDbLine
 10
21.233185
 20
-140.08766
 30
0.0
 11
-25.400789
 21
-140.08766
 31
0.0
  0
LINE
  5
416
100
AcDbEntity
  8
0
370
    -3
390
0
  6
Continuous
100
AcDbLine
 10
30.233185
 20
-131.08766
 30
0.0
 11
30.233185
 21
-84.453685
 31
0.0
  0
LINE
  5
417
100
AcDbEntity
  8
0
370
    -3
390
0
  6
Continuous
100
AcDbLine
 10
30.233185
 20
-82.721634
 30
0.0
 11
30.233185
 21
-36.08766
 31
0.0
  0
LINE
  5
418
100
AcDbEntity
  8
0
370
    -3
390
0
  6
Continuous
100
AcDbLine
 10
-25.400789
 20
-27.08766
 30
0.0
 11
21.233185
 21
-27.08766
 31
0.0
  0
ARC
  5
419
100
AcDbEntity
  8
0
370
    -3
390
0
  6
Continuous
100
AcDbCircle
 10
21.233185
 20
-36.08766
 30
0.0
 40
9.0
100
AcDbArc
 50
0.0
 51
90.0
  0
ARC
  5
41A
100
AcDbEntity
  8
0
370
    -3
390
0
  6
Continuous
100
AcDbCircle
 10
21.233185
 20
-131.08766
 30
0.0
 40
9.0
100
AcDbArc
 50
270.0
 51
0.0
  0
LINE
  5
41B
100
AcDbEntity
  8
0
370
    -3
390
0
  6
Continuous
100
AcDbLine
 10
21.233185
 20
-140.08766
 30
0.0
 11
-25.400789
 21
-140.08766
 31
0.0
  0
LINE
  5
41C
100
AcDbEntity
  8
0
370
    -3
390
0
  6
Continuous
100
AcDbLine
 10
30.233185
 20
-131.08766
 30
0.0
 11
30.233185
 21
-84.453685
 31
0.0
  0
LINE
  5
41D
100
AcDbEntity
  8
0
370
    -3
390
0
  6
Continuous
100
AcDbLine
 10
-160.766815
 20
-30.08766
 30
0.0
 11
-165.266815
 21
-30.08766
 31
0.0
  0
LINE
  5
41E
100
AcDbEntity
  8
0
370
    -3
390
0
  6
Continuous
100
AcDbLine
 10
-160.766815
 20
-173.08766
 30
0.0
 11
-165.266815
 21
-173.08766
 31
0.0
  0
LINE
  5
41F
100
AcDbEntity
  8
0
370
    -3
390
0
  6
Continuous
100
AcDbLine
 10
-165.266815
 20
-101.58766
 30
0.0
 11
-165.266815
 21
-173.08766
 31
0.0
  0
LINE
  5
420
100
AcDbEntity
  8
0
370
    -3
390
0
  6
Continuous
100
AcDbLine
 10
-165.266815
 20
-101.58766
 30
0.0
 11
-165.266815
 21
-30.08766
 31
0.0
  0
LINE
  5
421
100
AcDbEntity
  8
0
370
    -3
390
0
  6
CENTER
100
AcDbLine
 10
370.004554
 20
-241.911601
 30
0.0
 11
370.004554
 21
-20.879923
 31
0.0
  0
CIRCLE
  5
422
100
AcDbEntity
  8
0
370
    -3
390
0
  6
Continuous
100
AcDbCircle
 10
-26.266815
 20
-83.58766
 30
0.0
 40
30.0
  0
LINE
  5
423
100
AcDbEntity
  8
0
370
    -3
390
0
  6
Continuous
100
AcDbLine
 10
344.404554
 20
-175.78766
 30
0.0
 11
344.404554
 21
-184.38766
 31
0.0
  0
ARC
  5
424
100
AcDbEntity
  8
0
370
    -3
390
0
  6
Continuous
100
AcDbCircle
 10
342.804554
 20
-184.38766
 30
0.0
 40
1.6
100
AcDbArc
 50
270.0
 51
0.0
  0
ARC
  5
425
100
AcDbEntity
  8
0
370
    -3
390
0
  6
Continuous
100
AcDbCircle
 10
397.204554
 20
-184.38766
 30
0.0
 40
1.6
100
AcDbArc
 50
180.0
 51
270.0
  0
LINE
  5
426
100
AcDbEntity
  8
0
370
    -3
390
0
  6
Continuous
100
AcDbLine
 10
395.604554
 20
-175.78766
 30
0.0
 11
395.604554
 21
-184.38766
 31
0.0
  0
ARC
  5
427
100
AcDbEntity
  8
0
370
    -3
390
0
  6
Continuous
100
AcDbCircle
 10
392.404554
 20
-175.78766
 30
0.0
 40
3.2
100
AcDbArc
 50
0.0
 51
90.0
  0
ARC
  5
428
100
AcDbEntity
  8
0
370
    -3
390
0
  6
Continuous
100
AcDbCircle
 10
347.604554
 20
-175.78766
 30
0.0
 40
3.2
100
AcDbArc
 50
90.0
 51
180.0
  0
LINE
  5
429
100
AcDbEntity
  8
0
370
    -3
390
0
  6
Continuous
100
AcDbLine
 10
390.861208
 20
-172.58766
 30
0.0
 11
392.404554
 21
-172.58766
 31
0.0
  0
LINE
  5
42A
100
AcDbEntity
  8
0
370
    -3
390
0
  6
Continuous
100
AcDbLine
 10
347.604554
 20
-172.58766
 30
0.0
 11
349.320075
 21
-172.58766
 31
0.0
  0
LINE
  5
42B
100
AcDbEntity
  8
0
370
    -3
390
0
  6
Continuous
100
AcDbLine
 10
321.004554
 20
-85.08766
 30
0.0
 11
327.504554
 21
-85.08766
 31
0.0
  0
LINE
  5
42C
100
AcDbEntity
  8
0
370
    -3
390
0
  6
Continuous
100
AcDbLine
 10
321.004554
 20
-82.08766
 30
0.0
 11
327.504554
 21
-82.08766
 31
0.0
  0
ARC
  5
42D
100
AcDbEntity
  8
0
370
    -3
390
0
  6
Continuous
100
AcDbCircle
 10
327.504554
 20
-83.58766
 30
0.0
 40
1.5
100
AcDbArc
 50
270.0
 51
90.0
  0
LINE
  5
42E
100
AcDbEntity
  8
0
370
    -3
390
0
  6
Continuous
100
AcDbLine
 10
419.004554
 20
-85.088151
 30
0.0
 11
336.004546
 21
-85.087682
 31
0.0
  0
LINE
  5
42F
100
AcDbEntity
  8
0
370
    -3
390
0
  6
Continuous
100
AcDbLine
 10
419.004554
 20
-82.088151
 30
0.0
 11
336.501652
 21
-82.087685
 31
0.0
  0
ARC
  5
430
100
AcDbEntity
  8
0
370
    -3
390
0
  6
Continuous
100
AcDbCircle
 10
336.504554
 20
-83.587682
 30
0.0
 40
1.5
100
AcDbArc
 50
89.999676
 51
269.999676
  0
LINE
  5
431
100
AcDbEntity
  8
0
370
    -3
390
0
  6
DASHED
100
AcDbLine
 10
358.004554
 20
-32.587728
 30
0.0
 11
358.004554
 21
-44.587728
 31
0.0
  0
LINE
  5
432
100
AcDbEntity
  8
0
370
    -3
390
0
  6
DASHED
100
AcDbLine
 10
382.004554
 20
-32.587728
 30
0.0
 11
382.004554
 21
-44.587728
 31
0.0
  0
LINE
  5
433
100
AcDbEntity
  8
0
370
    -3
390
0
  6
DASHED
100
AcDbLine
 10
358.004537
 20
-122.58771
 30
0.0
 11
358.004537
 21
-134.58771
 31
0.0
  0
LINE
  5
434
100
AcDbEntity
  8
0
370
    -3
390
0
  6
Continuous
100
AcDbLine
 10
-301.766815
 20
-237.784187
 30
0.0
 11
-301.766815
 21
-237.38766
 31
0.0
  0
ARC
  5
435
100
AcDbEntity
  8
0
370
    -3
390
0
  6
Continuous
100
AcDbCircle
 10
-300.466816
 20
-237.784187
 30
0.0
 40
1.299999
100
AcDbArc
 50
180.0
 51
253.398469
  0
ARC
  5
436
100
AcDbEntity
  8
0
370
    -3
390
0
  6
Continuous
100
AcDbCircle
 10
-300.266815
 20
-237.38766
 30
0.0
 40
1.5
100
AcDbArc
 50
147.769047
 51
180.0
  0
ARC
  5
437
100
AcDbEntity
  8
0
370
    -3
390
0
  6
Continuous
100
AcDbCircle
 10
-298.266815
 20
-230.405162
 30
0.0
 40
9.0
100
AcDbArc
 50
253.398469
 51
286.601548
  0
ARC
  5
438
100
AcDbEntity
  8
0
370
    -3
390
0
  6
Continuous
100
AcDbCircle
 10
-296.066814
 20
-237.784187
 30
0.0
 40
1.299999
100
AcDbArc
 50
286.601531
 51
0.0
  0
LINE
  5
439
100
AcDbEntity
  8
0
370
    -3
390
0
  6
Continuous
100
AcDbLine
 10
-294.766815
 20
-237.784187
 30
0.0
 11
-294.766815
 21
-237.38766
 31
0.0
  0
ARC
  5
43A
100
AcDbEntity
  8
0
370
    -3
390
0
  6
Continuous
100
AcDbCircle
 10
-296.266815
 20
-237.38766
 30
0.0
 40
1.5
100
AcDbArc
 50
0.0
 51
32.230953
  0
MTEXT
  5
43C
100
AcDbEntity
  8
0
370
    -3
390
0
  6
Continuous
100
AcDbMText
 10
-505.041595
 20
140.358856
 30
0.0
 40
10.0
 41
0.0
 71
     7
 72
     1
  1
\W0.63;三菱ギヤードモータ  
  7
ZU_SHPTB00001
 11
1.0
 21
0.0
 31
0.0
 73
     1
 44
1.0
  0
MTEXT
  5
43D
100
AcDbEntity
  8
0
370
    -3
390
0
  6
Continuous
100
AcDbMText
 10
-505.041595
 20
129.058853
 30
0.0
 40
10.0
 41
0.0
 71
     7
 72
     1
  1
\W0.47;GM-SSYPF-RH
  7
ZU_SHPTB00001
 11
1.0
 21
0.0
 31
0.0
 73
     1
 44
1.0
  0
MTEXT
  5
43E
100
AcDbEntity
  8
0
370
    -3
390
0
  6
Continuous
100
AcDbMText
 10
-505.041595
 20
117.758858
 30
0.0
 40
10.0
 41
0.0
 71
     7
 72
     1
  1
\W0.47;0.75(kW)
  7
ZU_SHPTB00001
 11
1.0
 21
0.0
 31
0.0
 73
     1
 44
1.0
  0
MTEXT
  5
43F
100
AcDbEntity
  8
0
370
    -3
390
0
  6
Continuous
100
AcDbMText
 10
-505.041595
 20
106.458862
 30
0.0
 40
10.0
 41
0.0
 71
     7
 72
     1
  1
\W0.47;1/7.5\W0.63;～\W0.47;1/30
  7
ZU_SHPTB00001
 11
1.0
 21
0.0
 31
0.0
 73
     1
 44
1.0
  0
MTEXT
  5
440
100
AcDbEntity
  8
0
370
    -3
390
0
  6
Continuous
100
AcDbMText
 10
-505.041595
 20
95.158859
 30
0.0
 40
10.0
 41
0.0
 71
     7
 72
     1
  1
\W0.47;SCALE\W0.78; \W0.47;1/1
  7
ZU_SHPTB00001
 11
1.0
 21
0.0
 31
0.0
 73
     1
 44
1.0
  0
LINE
  5
441
100
AcDbEntity
  8
0
370
    -3
390
0
  6
Continuous
100
AcDbLine
 10
-82.319381
 20
82.623282
 30
0.0
 11
-138.244763
 21
82.62265
 31
0.0
  0
LINE
  5
442
100
AcDbEntity
  8
0
370
    -3
390
0
  6
Continuous
100
AcDbLine
 10
-82.319379
 20
93.620743
 30
0.0
 11
-98.384008
 21
93.620743
 31
0.0
  0
LINE
  5
443
100
AcDbEntity
  8
0
370
    -3
390
0
  6
Continuous
100
AcDbLine
 10
-81.458248
 20
180.618817
 30
0.0
 11
-137.266903
 21
180.618187
 31
0.0
  0
LINE
  5
444
100
AcDbEntity
  8
0
370
    -3
390
0
  6
Continuous
100
AcDbLine
 10
-24.766753
 20
82.621991
 30
0.0
 11
-24.766793
 21
89.620751
 31
0.0
  0
LINE
  5
445
100
AcDbEntity
  8
0
370
    -3
390
0
  6
Continuous
100
AcDbLine
 10
-27.766753
 20
82.622025
 30
0.0
 11
-27.76679
 21
89.123645
 31
0.0
  0
ARC
  5
446
100
AcDbEntity
  8
0
370
    -3
390
0
  6
Continuous
100
AcDbCircle
 10
-26.266793
 20
89.120743
 30
0.0
 40
1.5
100
AcDbArc
 50
0.000324
 51
180.000324
  0
ARC
  5
447
100
AcDbEntity
  8
0
370
    -3
390
0
  6
Continuous
100
AcDbCircle
 10
-147.266815
 20
181.620743
 30
0.0
 40
5.0
100
AcDbArc
 50
0.0
 51
90.0
  0
LINE
  5
448
100
AcDbEntity
  8
0
370
    -3
390
0
  6
Continuous
100
AcDbLine
 10
-155.766815
 20
186.620743
 30
0.0
 11
-147.266815
 21
186.620743
 31
0.0
  0
LINE
  5
449
100
AcDbEntity
  8
0
370
    -3
390
0
  6
Continuous
100
AcDbLine
 10
-155.766815
 20
186.620743
 30
0.0
 11
-147.266815
 21
186.620743
 31
0.0
  0
ARC
  5
44A
100
AcDbEntity
  8
0
370
    -3
390
0
  6
Continuous
100
AcDbCircle
 10
-147.266815
 20
181.620743
 30
0.0
 40
5.0
100
AcDbArc
 50
0.0
 51
90.0
  0
ARC
  5
44B
100
AcDbEntity
  8
0
370
    -3
390
0
  6
Continuous
100
AcDbCircle
 10
-147.266815
 20
173.377689
 30
0.0
 40
5.0
100
AcDbArc
 50
0.0
 51
90.0
  0
LINE
  5
44C
100
AcDbEntity
  8
0
370
    -3
390
0
  6
Continuous
100
AcDbLine
 10
-155.766815
 20
178.377689
 30
0.0
 11
-147.266815
 21
178.377689
 31
0.0
  0
LINE
  5
44D
100
AcDbEntity
  8
0
370
    -3
390
0
  6
Continuous
100
AcDbLine
 10
-155.766815
 20
173.260517
 30
0.0
 11
-144.705586
 21
173.260517
 31
0.0
  0
LINE
  5
44E
100
AcDbEntity
  8
0
370
    -3
390
0
  6
Continuous
100
AcDbLine
 10
-155.766815
 20
173.260517
 30
0.0
 11
-144.705586
 21
173.260517
 31
0.0
  0
LINE
  5
44F
100
AcDbEntity
  8
0
370
    -3
390
0
  6
Continuous
100
AcDbLine
 10
-155.766815
 20
178.377689
 30
0.0
 11
-147.266815
 21
178.377689
 31
0.0
  0
ARC
  5
450
100
AcDbEntity
  8
0
370
    -3
390
0
  6
Continuous
100
AcDbCircle
 10
-147.266815
 20
173.377689
 30
0.0
 40
5.0
100
AcDbArc
 50
0.0
 51
90.0
  0
LINE
  5
451
100
AcDbEntity
  8
0
370
    -3
390
0
  6
Continuous
100
AcDbLine
 10
-158.766815
 20
131.620743
 30
0.0
 11
-158.766815
 21
62.120743
 31
0.0
  0
LINE
  5
452
100
AcDbEntity
  8
0
370
    -3
390
0
  6
Continuous
100
AcDbLine
 10
-158.766815
 20
131.620743
 30
0.0
 11
-158.766815
 21
62.120743
 31
0.0
  0
ARC
  5
453
100
AcDbEntity
  8
0
370
    -3
390
0
  6
Continuous
100
AcDbCircle
 10
-147.266815
 20
89.863797
 30
0.0
 40
5.0
100
AcDbArc
 50
270.0
 51
0.0
  0
LINE
  5
454
100
AcDbEntity
  8
0
370
    -3
390
0
  6
Continuous
100
AcDbLine
 10
-155.766815
 20
84.863797
 30
0.0
 11
-147.266815
 21
84.863797
 31
0.0
  0
ARC
  5
455
100
AcDbEntity
  8
0
370
    -3
390
0
  6
Continuous
100
AcDbCircle
 10
-147.266815
 20
81.620743
 30
0.0
 40
5.0
100
AcDbArc
 50
270.0
 51
0.0
  0
ARC
  5
456
100
AcDbEntity
  8
0
370
    -3
390
0
  6
Continuous
100
AcDbCircle
 10
-155.766815
 20
92.980969
 30
0.0
 40
3.0
100
AcDbArc
 50
180.0
 51
270.0
  0
LINE
  5
457
100
AcDbEntity
  8
0
370
    -3
390
0
  6
Continuous
100
AcDbLine
 10
-155.766815
 20
89.980969
 30
0.0
 11
-144.705586
 21
89.980969
 31
0.0
  0
ARC
  5
458
100
AcDbEntity
  8
0
370
    -3
390
0
  6
Continuous
100
AcDbCircle
 10
-155.766815
 20
87.863797
 30
0.0
 40
3.0
100
AcDbArc
 50
180.0
 51
270.0
  0
ARC
  5
459
100
AcDbEntity
  8
0
370
    -3
390
0
  6
Continuous
100
AcDbCircle
 10
-155.766815
 20
87.863797
 30
0.0
 40
3.0
100
AcDbArc
 50
180.0
 51
270.0
  0
LINE
  5
45A
100
AcDbEntity
  8
0
370
    -3
390
0
  6
Continuous
100
AcDbLine
 10
-155.766815
 20
89.980969
 30
0.0
 11
-144.705586
 21
89.980969
 31
0.0
  0
ARC
  5
45B
100
AcDbEntity
  8
0
370
    -3
390
0
  6
Continuous
100
AcDbCircle
 10
-155.766815
 20
92.980969
 30
0.0
 40
3.0
100
AcDbArc
 50
180.0
 51
270.0
  0
ARC
  5
45C
100
AcDbEntity
  8
0
370
    -3
390
0
  6
Continuous
100
AcDbCircle
 10
-147.266815
 20
81.620743
 30
0.0
 40
5.0
100
AcDbArc
 50
270.0
 51
0.0
  0
LINE
  5
45D
100
AcDbEntity
  8
0
370
    -3
390
0
  6
Continuous
100
AcDbLine
 10
-155.766815
 20
84.863797
 30
0.0
 11
-147.266815
 21
84.863797
 31
0.0
  0
ARC
  5
45E
100
AcDbEntity
  8
0
370
    -3
390
0
  6
Continuous
100
AcDbCircle
 10
-147.266815
 20
89.863797
 30
0.0
 40
5.0
100
AcDbArc
 50
270.0
 51
0.0
  0
LINE
  5
45F
100
AcDbEntity
  8
0
370
    -3
390
0
  6
Continuous
100
AcDbLine
 10
-155.766815
 20
76.620743
 30
0.0
 11
-147.266815
 21
76.620743
 31
0.0
  0
ARC
  5
460
100
AcDbEntity
  8
0
370
    -3
390
0
  6
Continuous
100
AcDbCircle
 10
-155.766815
 20
73.620743
 30
0.0
 40
3.0
100
AcDbArc
 50
90.0
 51
180.0
  0
ARC
  5
461
100
AcDbEntity
  8
0
370
    -3
390
0
  6
Continuous
100
AcDbCircle
 10
-155.766815
 20
73.620743
 30
0.0
 40
3.0
100
AcDbArc
 50
90.0
 51
180.0
  0
LINE
  5
462
100
AcDbEntity
  8
0
370
    -3
390
0
  6
Continuous
100
AcDbLine
 10
-155.766815
 20
76.620743
 30
0.0
 11
-147.266815
 21
76.620743
 31
0.0
  0
LINE
  5
463
100
AcDbEntity
  8
0
370
    -3
390
0
  6
Continuous
100
AcDbLine
 10
-155.766815
 20
186.620743
 30
0.0
 11
-147.266815
 21
186.620743
 31
0.0
  0
ARC
  5
464
100
AcDbEntity
  8
0
370
    -3
390
0
  6
Continuous
100
AcDbCircle
 10
-155.766815
 20
189.620743
 30
0.0
 40
3.0
100
AcDbArc
 50
180.0
 51
270.0
  0
LINE
  5
465
100
AcDbEntity
  8
0
370
    -3
390
0
  6
Continuous
100
AcDbLine
 10
-158.766815
 20
131.620743
 30
0.0
 11
-158.766815
 21
201.120743
 31
0.0
  0
LINE
  5
466
100
AcDbEntity
  8
0
370
    -3
390
0
  6
Continuous
100
AcDbLine
 10
-158.766815
 20
131.620743
 30
0.0
 11
-158.766815
 21
201.120743
 31
0.0
  0
ARC
  5
467
100
AcDbEntity
  8
0
370
    -3
390
0
  6
Continuous
100
AcDbCircle
 10
-155.766815
 20
189.620743
 30
0.0
 40
3.0
100
AcDbArc
 50
180.0
 51
270.0
  0
LINE
  5
468
100
AcDbEntity
  8
0
370
    -3
390
0
  6
Continuous
100
AcDbLine
 10
-155.766815
 20
186.620743
 30
0.0
 11
-147.266815
 21
186.620743
 31
0.0
  0
LINE
  5
469
100
AcDbEntity
  8
0
370
    -3
390
0
  6
Continuous
100
AcDbLine
 10
-155.766815
 20
178.377689
 30
0.0
 11
-147.266815
 21
178.377689
 31
0.0
  0
ARC
  5
46A
100
AcDbEntity
  8
0
370
    -3
390
0
  6
Continuous
100
AcDbCircle
 10
-155.766815
 20
170.260517
 30
0.0
 40
3.0
100
AcDbArc
 50
90.0
 51
180.0
  0
LINE
  5
46B
100
AcDbEntity
  8
0
370
    -3
390
0
  6
Continuous
100
AcDbLine
 10
-155.766815
 20
173.260517
 30
0.0
 11
-144.705586
 21
173.260517
 31
0.0
  0
ARC
  5
46C
100
AcDbEntity
  8
0
370
    -3
390
0
  6
Continuous
100
AcDbCircle
 10
-155.766815
 20
175.377689
 30
0.0
 40
3.0
100
AcDbArc
 50
90.0
 51
180.0
  0
ARC
  5
46D
100
AcDbEntity
  8
0
370
    -3
390
0
  6
Continuous
100
AcDbCircle
 10
-155.766815
 20
175.377689
 30
0.0
 40
3.0
100
AcDbArc
 50
90.0
 51
180.0
  0
LINE
  5
46E
100
AcDbEntity
  8
0
370
    -3
390
0
  6
Continuous
100
AcDbLine
 10
-155.766815
 20
173.260517
 30
0.0
 11
-144.705586
 21
173.260517
 31
0.0
  0
ARC
  5
46F
100
AcDbEntity
  8
0
370
    -3
390
0
  6
Continuous
100
AcDbCircle
 10
-155.766815
 20
170.260517
 30
0.0
 40
3.0
100
AcDbArc
 50
90.0
 51
180.0
  0
LINE
  5
470
100
AcDbEntity
  8
0
370
    -3
390
0
  6
Continuous
100
AcDbLine
 10
-155.766815
 20
178.377689
 30
0.0
 11
-147.266815
 21
178.377689
 31
0.0
  0
LINE
  5
471
100
AcDbEntity
  8
0
370
    -3
390
0
  6
Continuous
100
AcDbLine
 10
-26.465815
 20
184.619589
 30
0.0
 11
15.833375
 21
184.619589
 31
0.0
  0
LINE
  5
472
100
AcDbEntity
  8
0
370
    -3
390
0
  6
Continuous
100
AcDbLine
 10
-26.067815
 20
184.619591
 30
0.0
 11
-68.367006
 21
184.619113
 31
0.0
  0
LINE
  5
473
100
AcDbEntity
  8
0
370
    -3
390
0
  6
Continuous
100
AcDbLine
 10
-68.366815
 20
184.619589
 30
0.0
 11
15.833185
 21
184.619589
 31
0.0
  0
LINE
  5
474
100
AcDbEntity
  8
0
370
    -3
390
0
  6
Continuous
100
AcDbLine
 10
-26.266815
 20
188.619589
 30
0.0
 11
-48.266815
 21
188.619589
 31
0.0
  0
LINE
  5
475
100
AcDbEntity
  8
0
370
    -3
390
0
  6
Continuous
100
AcDbLine
 10
-48.266815
 20
188.619589
 30
0.0
 11
-48.266815
 21
184.619589
 31
0.0
  0
LINE
  5
476
100
AcDbEntity
  8
0
370
    -3
390
0
  6
Continuous
100
AcDbLine
 10
-4.266815
 20
188.619589
 30
0.0
 11
-4.266815
 21
184.619589
 31
0.0
  0
LINE
  5
477
100
AcDbEntity
  8
0
370
    -3
390
0
  6
Continuous
100
AcDbLine
 10
-26.266815
 20
188.619589
 30
0.0
 11
-4.266815
 21
188.619589
 31
0.0
  0
LINE
  5
478
100
AcDbEntity
  8
0
370
    -3
390
0
  6
Continuous
100
AcDbLine
 10
-26.266815
 20
184.619589
 30
0.0
 11
-68.766815
 21
184.619589
 31
0.0
  0
LINE
  5
479
100
AcDbEntity
  8
0
370
    -3
390
0
  6
Continuous
100
AcDbLine
 10
-26.266815
 20
184.619589
 30
0.0
 11
16.233185
 21
184.619589
 31
0.0
  0
ARC
  5
47A
100
AcDbEntity
  8
0
370
    -3
390
0
  6
Continuous
100
AcDbCircle
 10
-3.062631
 20
186.965798
 30
0.0
 40
3.0
100
AcDbArc
 50
308.549527
 51
315.0
  0
LINE
  5
47B
100
AcDbEntity
  8
0
370
    -3
390
0
  6
Continuous
100
AcDbLine
 10
-26.266815
 20
74.621897
 30
0.0
 11
-48.266815
 21
74.621897
 31
0.0
  0
LINE
  5
47C
100
AcDbEntity
  8
0
370
    -3
390
0
  6
Continuous
100
AcDbLine
 10
-48.266815
 20
74.621897
 30
0.0
 11
-48.266815
 21
78.621897
 31
0.0
  0
LINE
  5
47D
100
AcDbEntity
  8
0
370
    -3
390
0
  6
Continuous
100
AcDbLine
 10
-4.266815
 20
74.621897
 30
0.0
 11
-4.266815
 21
78.621897
 31
0.0
  0
LINE
  5
47E
100
AcDbEntity
  8
0
370
    -3
390
0
  6
Continuous
100
AcDbLine
 10
-26.266815
 20
74.621897
 30
0.0
 11
-4.266815
 21
74.621897
 31
0.0
  0
LINE
  5
47F
100
AcDbEntity
  8
0
370
    -3
390
0
  6
Continuous
100
AcDbLine
 10
-26.266815
 20
78.621897
 30
0.0
 11
-68.766815
 21
78.621897
 31
0.0
  0
LINE
  5
480
100
AcDbEntity
  8
0
370
    -3
390
0
  6
Continuous
100
AcDbLine
 10
-26.266815
 20
78.621897
 30
0.0
 11
16.233185
 21
78.621897
 31
0.0
  0
ARC
  5
481
100
AcDbEntity
  8
0
370
    -3
390
0
  6
Continuous
100
AcDbCircle
 10
-3.062631
 20
76.275688
 30
0.0
 40
3.0
100
AcDbArc
 50
45.0
 51
51.450473
  0
ARC
  5
482
100
AcDbEntity
  8
0
370
    -3
390
0
  6
Continuous
100
AcDbCircle
 10
-26.266793
 20
98.120743
 30
0.0
 40
1.5
100
AcDbArc
 50
179.999676
 51
359.999676
  0
LINE
  5
483
100
AcDbEntity
  8
0
370
    -3
390
0
  6
Continuous
100
AcDbLine
 10
-27.766335
 20
178.62076
 30
0.0
 11
-27.76679
 21
98.117841
 31
0.0
  0
LINE
  5
484
100
AcDbEntity
  8
0
370
    -3
390
0
  6
Continuous
100
AcDbLine
 10
-24.766335
 20
178.62076
 30
0.0
 11
-24.766793
 21
97.620735
 31
0.0
  0
LINE
  5
485
100
AcDbEntity
  8
0
370
    -3
390
0
  6
Continuous
100
AcDbLine
 10
-27.766815
 20
180.619478
 30
0.0
 11
-27.76727
 21
100.116558
 31
0.0
  0
LINE
  5
486
100
AcDbEntity
  8
0
370
    -3
390
0
  6
Continuous
100
AcDbLine
 10
-24.766815
 20
180.619478
 30
0.0
 11
-24.767273
 21
99.619452
 31
0.0
  0
LINE
  5
487
100
AcDbEntity
  8
0
370
    -3
390
0
  6
CENTER
100
AcDbLine
 10
34.851093
 20
131.620743
 30
0.0
 11
-382.477973
 21
131.620743
 31
0.0
  0
LINE
  5
488
100
AcDbEntity
  8
0
370
    -3
390
0
  6
Continuous
100
AcDbLine
 10
-320.266815
 20
188.645474
 30
0.0
 11
-320.362889
 21
187.955726
 31
0.0
  0
LINE
  5
489
100
AcDbEntity
  8
0
370
    -3
390
0
  6
Continuous
100
AcDbLine
 10
-320.362889
 20
187.955726
 30
0.0
 11
-320.647417
 21
187.292484
 31
0.0
  0
LINE
  5
48A
100
AcDbEntity
  8
0
370
    -3
390
0
  6
Continuous
100
AcDbLine
 10
-320.647417
 20
187.292484
 30
0.0
 11
-321.109467
 21
186.681237
 31
0.0
  0
LINE
  5
48B
100
AcDbEntity
  8
0
370
    -3
390
0
  6
Continuous
100
AcDbLine
 10
-321.109467
 20
186.681237
 30
0.0
 11
-321.731281
 21
186.145474
 31
0.0
  0
LINE
  5
48C
100
AcDbEntity
  8
0
370
    -3
390
0
  6
Continuous
100
AcDbLine
 10
-321.731281
 20
186.145474
 30
0.0
 11
-322.488964
 21
185.705785
 31
0.0
  0
LINE
  5
48D
100
AcDbEntity
  8
0
370
    -3
390
0
  6
Continuous
100
AcDbLine
 10
-322.488964
 20
185.705785
 30
0.0
 11
-323.353398
 21
185.379067
 31
0.0
  0
LINE
  5
48E
100
AcDbEntity
  8
0
370
    -3
390
0
  6
Continuous
100
AcDbLine
 10
-323.353398
 20
185.379067
 30
0.0
 11
-324.291363
 21
185.177875
 31
0.0
  0
LINE
  5
48F
100
AcDbEntity
  8
0
370
    -3
390
0
  6
Continuous
100
AcDbLine
 10
-324.291363
 20
185.177875
 30
0.0
 11
-325.266815
 21
185.109941
 31
0.0
  0
LINE
  5
490
100
AcDbEntity
  8
0
370
    -3
390
0
  6
Continuous
100
AcDbLine
 10
-325.266815
 20
185.109941
 30
0.0
 11
-326.242267
 21
185.177875
 31
0.0
  0
LINE
  5
491
100
AcDbEntity
  8
0
370
    -3
390
0
  6
Continuous
100
AcDbLine
 10
-326.242267
 20
185.177875
 30
0.0
 11
-327.180232
 21
185.379067
 31
0.0
  0
LINE
  5
492
100
AcDbEntity
  8
0
370
    -3
390
0
  6
Continuous
100
AcDbLine
 10
-327.180232
 20
185.379067
 30
0.0
 11
-328.044666
 21
185.705785
 31
0.0
  0
LINE
  5
493
100
AcDbEntity
  8
0
370
    -3
390
0
  6
Continuous
100
AcDbLine
 10
-328.044666
 20
185.705785
 30
0.0
 11
-328.802349
 21
186.145474
 31
0.0
  0
LINE
  5
494
100
AcDbEntity
  8
0
370
    -3
390
0
  6
Continuous
100
AcDbLine
 10
-328.802349
 20
186.145474
 30
0.0
 11
-329.424163
 21
186.681237
 31
0.0
  0
LINE
  5
495
100
AcDbEntity
  8
0
370
    -3
390
0
  6
Continuous
100
AcDbLine
 10
-329.424163
 20
186.681237
 30
0.0
 11
-329.886213
 21
187.292484
 31
0.0
  0
LINE
  5
496
100
AcDbEntity
  8
0
370
    -3
390
0
  6
Continuous
100
AcDbLine
 10
-329.886213
 20
187.292484
 30
0.0
 11
-330.170741
 21
187.955726
 31
0.0
  0
LINE
  5
497
100
AcDbEntity
  8
0
370
    -3
390
0
  6
Continuous
100
AcDbLine
 10
-330.170741
 20
187.955726
 30
0.0
 11
-330.266815
 21
188.645474
 31
0.0
  0
LINE
  5
498
100
AcDbEntity
  8
0
370
    -3
390
0
  6
Continuous
100
AcDbLine
 10
-330.266815
 20
189.462078
 30
0.0
 11
-330.266815
 21
188.645474
 31
0.0
  0
LINE
  5
499
100
AcDbEntity
  8
0
370
    -3
390
0
  6
Continuous
100
AcDbLine
 10
-320.266815
 20
189.462078
 30
0.0
 11
-320.266815
 21
188.645474
 31
0.0
  0
LINE
  5
49A
100
AcDbEntity
  8
0
370
    -3
390
0
  6
Continuous
100
AcDbLine
 10
-320.766815
 20
189.462078
 30
0.0
 11
-320.853281
 21
188.841304
 31
0.0
  0
LINE
  5
49B
100
AcDbEntity
  8
0
370
    -3
390
0
  6
Continuous
100
AcDbLine
 10
-320.853281
 20
188.841304
 30
0.0
 11
-321.109357
 21
188.244386
 31
0.0
  0
LINE
  5
49C
100
AcDbEntity
  8
0
370
    -3
390
0
  6
Continuous
100
AcDbLine
 10
-321.109357
 20
188.244386
 30
0.0
 11
-321.525202
 21
187.694264
 31
0.0
  0
LINE
  5
49D
100
AcDbEntity
  8
0
370
    -3
390
0
  6
Continuous
100
AcDbLine
 10
-321.525202
 20
187.694264
 30
0.0
 11
-322.084835
 21
187.212078
 31
0.0
  0
LINE
  5
49E
100
AcDbEntity
  8
0
370
    -3
390
0
  6
Continuous
100
AcDbLine
 10
-322.084835
 20
187.212078
 30
0.0
 11
-322.766749
 21
186.816358
 31
0.0
  0
LINE
  5
49F
100
AcDbEntity
  8
0
370
    -3
390
0
  6
Continuous
100
AcDbLine
 10
-322.766749
 20
186.816358
 30
0.0
 11
-323.54474
 21
186.522311
 31
0.0
  0
LINE
  5
4A0
100
AcDbEntity
  8
0
370
    -3
390
0
  6
Continuous
100
AcDbLine
 10
-323.54474
 20
186.522311
 30
0.0
 11
-324.388909
 21
186.341238
 31
0.0
  0
LINE
  5
4A1
100
AcDbEntity
  8
0
370
    -3
390
0
  6
Continuous
100
AcDbLine
 10
-324.388909
 20
186.341238
 30
0.0
 11
-325.266815
 21
186.280097
 31
0.0
  0
LINE
  5
4A2
100
AcDbEntity
  8
0
370
    -3
390
0
  6
Continuous
100
AcDbLine
 10
-325.266815
 20
186.280097
 30
0.0
 11
-326.144721
 21
186.341238
 31
0.0
  0
LINE
  5
4A3
100
AcDbEntity
  8
0
370
    -3
390
0
  6
Continuous
100
AcDbLine
 10
-326.144721
 20
186.341238
 30
0.0
 11
-326.98889
 21
186.522311
 31
0.0
  0
LINE
  5
4A4
100
AcDbEntity
  8
0
370
    -3
390
0
  6
Continuous
100
AcDbLine
 10
-326.98889
 20
186.522311
 30
0.0
 11
-327.766881
 21
186.816358
 31
0.0
  0
LINE
  5
4A5
100
AcDbEntity
  8
0
370
    -3
390
0
  6
Continuous
100
AcDbLine
 10
-327.766881
 20
186.816358
 30
0.0
 11
-328.448796
 21
187.212078
 31
0.0
  0
LINE
  5
4A6
100
AcDbEntity
  8
0
370
    -3
390
0
  6
Continuous
100
AcDbLine
 10
-328.448796
 20
187.212078
 30
0.0
 11
-329.008428
 21
187.694264
 31
0.0
  0
LINE
  5
4A7
100
AcDbEntity
  8
0
370
    -3
390
0
  6
Continuous
100
AcDbLine
 10
-329.008428
 20
187.694264
 30
0.0
 11
-329.424273
 21
188.244386
 31
0.0
  0
LINE
  5
4A8
100
AcDbEntity
  8
0
370
    -3
390
0
  6
Continuous
100
AcDbLine
 10
-329.424273
 20
188.244386
 30
0.0
 11
-329.680349
 21
188.841304
 31
0.0
  0
LINE
  5
4A9
100
AcDbEntity
  8
0
370
    -3
390
0
  6
Continuous
100
AcDbLine
 10
-329.680349
 20
188.841304
 30
0.0
 11
-329.766815
 21
189.462078
 31
0.0
  0
LINE
  5
4AA
100
AcDbEntity
  8
0
370
    -3
390
0
  6
Continuous
100
AcDbLine
 10
-329.766815
 20
190.027763
 30
0.0
 11
-329.766815
 21
189.462078
 31
0.0
  0
LINE
  5
4AB
100
AcDbEntity
  8
0
370
    -3
390
0
  6
Continuous
100
AcDbLine
 10
-320.766815
 20
190.027763
 30
0.0
 11
-320.766815
 21
189.462078
 31
0.0
  0
LINE
  5
4AC
100
AcDbEntity
  8
0
370
    -3
390
0
  6
Continuous
100
AcDbLine
 10
-321.572018
 20
191.844144
 30
0.0
 11
-321.015875
 21
191.323462
 31
0.0
  0
LINE
  5
4AD
100
AcDbEntity
  8
0
370
    -3
390
0
  6
Continuous
100
AcDbLine
 10
-321.015875
 20
191.323462
 30
0.0
 11
-320.60452
 21
190.739381
 31
0.0
  0
LINE
  5
4AE
100
AcDbEntity
  8
0
370
    -3
390
0
  6
Continuous
100
AcDbLine
 10
-320.60452
 20
190.739381
 30
0.0
 11
-320.351966
 21
190.111794
 31
0.0
  0
LINE
  5
4AF
100
AcDbEntity
  8
0
370
    -3
390
0
  6
Continuous
100
AcDbLine
 10
-320.351966
 20
190.111794
 30
0.0
 11
-320.266815
 21
189.462078
 31
0.0
  0
LINE
  5
4B0
100
AcDbEntity
  8
0
370
    -3
390
0
  6
Continuous
100
AcDbLine
 10
-330.266815
 20
189.462078
 30
0.0
 11
-330.181664
 21
190.111794
 31
0.0
  0
LINE
  5
4B1
100
AcDbEntity
  8
0
370
    -3
390
0
  6
Continuous
100
AcDbLine
 10
-330.181664
 20
190.111794
 30
0.0
 11
-329.92911
 21
190.739381
 31
0.0
  0
LINE
  5
4B2
100
AcDbEntity
  8
0
370
    -3
390
0
  6
Continuous
100
AcDbLine
 10
-329.92911
 20
190.739381
 30
0.0
 11
-329.517755
 21
191.323462
 31
0.0
  0
LINE
  5
4B3
100
AcDbEntity
  8
0
370
    -3
390
0
  6
Continuous
100
AcDbLine
 10
-329.517755
 20
191.323462
 30
0.0
 11
-328.961612
 21
191.844144
 31
0.0
  0
LINE
  5
4B4
100
AcDbEntity
  8
0
370
    -3
390
0
  6
Continuous
100
AcDbLine
 10
-321.766815
 20
190.564281
 30
0.0
 11
-321.834067
 21
189.976788
 31
0.0
  0
LINE
  5
4B5
100
AcDbEntity
  8
0
370
    -3
390
0
  6
Continuous
100
AcDbLine
 10
-321.834067
 20
189.976788
 30
0.0
 11
-322.033237
 21
189.411872
 31
0.0
  0
LINE
  5
4B6
100
AcDbEntity
  8
0
370
    -3
390
0
  6
Continuous
100
AcDbLine
 10
-322.033237
 20
189.411872
 30
0.0
 11
-322.356671
 21
188.891242
 31
0.0
  0
LINE
  5
4B7
100
AcDbEntity
  8
0
370
    -3
390
0
  6
Continuous
100
AcDbLine
 10
-322.356671
 20
188.891242
 30
0.0
 11
-322.791941
 21
188.434906
 31
0.0
  0
LINE
  5
4B8
100
AcDbEntity
  8
0
370
    -3
390
0
  6
Continuous
100
AcDbLine
 10
-322.791941
 20
188.434906
 30
0.0
 11
-323.322319
 21
188.0604
 31
0.0
  0
LINE
  5
4B9
100
AcDbEntity
  8
0
370
    -3
390
0
  6
Continuous
100
AcDbLine
 10
-323.322319
 20
188.0604
 30
0.0
 11
-323.927423
 21
187.782118
 31
0.0
  0
LINE
  5
4BA
100
AcDbEntity
  8
0
370
    -3
390
0
  6
Continuous
100
AcDbLine
 10
-323.927423
 20
187.782118
 30
0.0
 11
-324.583999
 21
187.610752
 31
0.0
  0
LINE
  5
4BB
100
AcDbEntity
  8
0
370
    -3
390
0
  6
Continuous
100
AcDbLine
 10
-324.583999
 20
187.610752
 30
0.0
 11
-325.266815
 21
187.552889
 31
0.0
  0
LINE
  5
4BC
100
AcDbEntity
  8
0
370
    -3
390
0
  6
Continuous
100
AcDbLine
 10
-325.266815
 20
187.552889
 30
0.0
 11
-325.949631
 21
187.610752
 31
0.0
  0
LINE
  5
4BD
100
AcDbEntity
  8
0
370
    -3
390
0
  6
Continuous
100
AcDbLine
 10
-325.949631
 20
187.610752
 30
0.0
 11
-326.606207
 21
187.782118
 31
0.0
  0
LINE
  5
4BE
100
AcDbEntity
  8
0
370
    -3
390
0
  6
Continuous
100
AcDbLine
 10
-326.606207
 20
187.782118
 30
0.0
 11
-327.211311
 21
188.0604
 31
0.0
  0
LINE
  5
4BF
100
AcDbEntity
  8
0
370
    -3
390
0
  6
Continuous
100
AcDbLine
 10
-327.211311
 20
188.0604
 30
0.0
 11
-327.741689
 21
188.434906
 31
0.0
  0
LINE
  5
4C0
100
AcDbEntity
  8
0
370
    -3
390
0
  6
Continuous
100
AcDbLine
 10
-327.741689
 20
188.434906
 30
0.0
 11
-328.176959
 21
188.891242
 31
0.0
  0
LINE
  5
4C1
100
AcDbEntity
  8
0
370
    -3
390
0
  6
Continuous
100
AcDbLine
 10
-328.176959
 20
188.891242
 30
0.0
 11
-328.500393
 21
189.411872
 31
0.0
  0
LINE
  5
4C2
100
AcDbEntity
  8
0
370
    -3
390
0
  6
Continuous
100
AcDbLine
 10
-328.500393
 20
189.411872
 30
0.0
 11
-328.699564
 21
189.976788
 31
0.0
  0
LINE
  5
4C3
100
AcDbEntity
  8
0
370
    -3
390
0
  6
Continuous
100
AcDbLine
 10
-328.699564
 20
189.976788
 30
0.0
 11
-328.766815
 21
190.564281
 31
0.0
  0
LINE
  5
4C4
100
AcDbEntity
  8
0
370
    -3
390
0
  6
Continuous
100
AcDbLine
 10
-328.766815
 20
190.564281
 30
0.0
 11
-328.699564
 21
191.151775
 31
0.0
  0
LINE
  5
4C5
100
AcDbEntity
  8
0
370
    -3
390
0
  6
Continuous
100
AcDbLine
 10
-328.699564
 20
191.151775
 30
0.0
 11
-328.500393
 21
191.716691
 31
0.0
  0
LINE
  5
4C6
100
AcDbEntity
  8
0
370
    -3
390
0
  6
Continuous
100
AcDbLine
 10
-328.500393
 20
191.716691
 30
0.0
 11
-328.176959
 21
192.237321
 31
0.0
  0
LINE
  5
4C7
100
AcDbEntity
  8
0
370
    -3
390
0
  6
Continuous
100
AcDbLine
 10
-328.176959
 20
192.237321
 30
0.0
 11
-327.741689
 21
192.693657
 31
0.0
  0
LINE
  5
4C8
100
AcDbEntity
  8
0
370
    -3
390
0
  6
Continuous
100
AcDbLine
 10
-327.741689
 20
192.693657
 30
0.0
 11
-327.211311
 21
193.068162
 31
0.0
  0
LINE
  5
4C9
100
AcDbEntity
  8
0
370
    -3
390
0
  6
Continuous
100
AcDbLine
 10
-327.211311
 20
193.068162
 30
0.0
 11
-326.606207
 21
193.346445
 31
0.0
  0
LINE
  5
4CA
100
AcDbEntity
  8
0
370
    -3
390
0
  6
Continuous
100
AcDbLine
 10
-326.606207
 20
193.346445
 30
0.0
 11
-325.949631
 21
193.51781
 31
0.0
  0
LINE
  5
4CB
100
AcDbEntity
  8
0
370
    -3
390
0
  6
Continuous
100
AcDbLine
 10
-325.949631
 20
193.51781
 30
0.0
 11
-325.266815
 21
193.575673
 31
0.0
  0
LINE
  5
4CC
100
AcDbEntity
  8
0
370
    -3
390
0
  6
Continuous
100
AcDbLine
 10
-325.266815
 20
193.575673
 30
0.0
 11
-324.583999
 21
193.51781
 31
0.0
  0
LINE
  5
4CD
100
AcDbEntity
  8
0
370
    -3
390
0
  6
Continuous
100
AcDbLine
 10
-324.583999
 20
193.51781
 30
0.0
 11
-323.927423
 21
193.346445
 31
0.0
  0
LINE
  5
4CE
100
AcDbEntity
  8
0
370
    -3
390
0
  6
Continuous
100
AcDbLine
 10
-323.927423
 20
193.346445
 30
0.0
 11
-323.322319
 21
193.068162
 31
0.0
  0
LINE
  5
4CF
100
AcDbEntity
  8
0
370
    -3
390
0
  6
Continuous
100
AcDbLine
 10
-323.322319
 20
193.068162
 30
0.0
 11
-322.791941
 21
192.693657
 31
0.0
  0
LINE
  5
4D0
100
AcDbEntity
  8
0
370
    -3
390
0
  6
Continuous
100
AcDbLine
 10
-322.791941
 20
192.693657
 30
0.0
 11
-322.356671
 21
192.237321
 31
0.0
  0
LINE
  5
4D1
100
AcDbEntity
  8
0
370
    -3
390
0
  6
Continuous
100
AcDbLine
 10
-322.356671
 20
192.237321
 30
0.0
 11
-322.033237
 21
191.716691
 31
0.0
  0
LINE
  5
4D2
100
AcDbEntity
  8
0
370
    -3
390
0
  6
Continuous
100
AcDbLine
 10
-322.033237
 20
191.716691
 30
0.0
 11
-321.834067
 21
191.151775
 31
0.0
  0
LINE
  5
4D3
100
AcDbEntity
  8
0
370
    -3
390
0
  6
Continuous
100
AcDbLine
 10
-321.834067
 20
191.151775
 30
0.0
 11
-321.766815
 21
190.564281
 31
0.0
  0
LINE
  5
4D4
100
AcDbEntity
  8
0
370
    -3
390
0
  6
Continuous
100
AcDbLine
 10
-322.77101
 20
192.675494
 30
0.0
 11
-322.111438
 21
192.296419
 31
0.0
  0
LINE
  5
4D5
100
AcDbEntity
  8
0
370
    -3
390
0
  6
Continuous
100
AcDbLine
 10
-322.111438
 20
192.296419
 30
0.0
 11
-321.564437
 21
191.836408
 31
0.0
  0
LINE
  5
4D6
100
AcDbEntity
  8
0
370
    -3
390
0
  6
Continuous
100
AcDbLine
 10
-321.564437
 20
191.836408
 30
0.0
 11
-321.14952
 21
191.311873
 31
0.0
  0
LINE
  5
4D7
100
AcDbEntity
  8
0
370
    -3
390
0
  6
Continuous
100
AcDbLine
 10
-321.14952
 20
191.311873
 30
0.0
 11
-320.881489
 21
190.741527
 31
0.0
  0
LINE
  5
4D8
100
AcDbEntity
  8
0
370
    -3
390
0
  6
Continuous
100
AcDbLine
 10
-320.881489
 20
190.741527
 30
0.0
 11
-320.769908
 21
190.145717
 31
0.0
  0
LINE
  5
4D9
100
AcDbEntity
  8
0
370
    -3
390
0
  6
Continuous
100
AcDbLine
 10
-320.769908
 20
190.145717
 30
0.0
 11
-320.818756
 21
189.545698
 31
0.0
  0
LINE
  5
4DA
100
AcDbEntity
  8
0
370
    -3
390
0
  6
Continuous
100
AcDbLine
 10
-320.818756
 20
189.545698
 30
0.0
 11
-321.026292
 21
188.962878
 31
0.0
  0
LINE
  5
4DB
100
AcDbEntity
  8
0
370
    -3
390
0
  6
Continuous
100
AcDbLine
 10
-321.026292
 20
188.962878
 30
0.0
 11
-321.38511
 21
188.418048
 31
0.0
  0
LINE
  5
4DC
100
AcDbEntity
  8
0
370
    -3
390
0
  6
Continuous
100
AcDbLine
 10
-321.38511
 20
188.418048
 30
0.0
 11
-321.88241
 21
187.930645
 31
0.0
  0
LINE
  5
4DD
100
AcDbEntity
  8
0
370
    -3
390
0
  6
Continuous
100
AcDbLine
 10
-321.88241
 20
187.930645
 30
0.0
 11
-322.500451
 21
187.518059
 31
0.0
  0
LINE
  5
4DE
100
AcDbEntity
  8
0
370
    -3
390
0
  6
Continuous
100
AcDbLine
 10
-322.500451
 20
187.518059
 30
0.0
 11
-323.217184
 21
187.195007
 31
0.0
  0
LINE
  5
4DF
100
AcDbEntity
  8
0
370
    -3
390
0
  6
Continuous
100
AcDbLine
 10
-323.217184
 20
187.195007
 30
0.0
 11
-324.007038
 21
186.973016
 31
0.0
  0
LINE
  5
4E0
100
AcDbEntity
  8
0
370
    -3
390
0
  6
Continuous
100
AcDbLine
 10
-324.007038
 20
186.973016
 30
0.0
 11
-324.841836
 21
186.860004
 31
0.0
  0
LINE
  5
4E1
100
AcDbEntity
  8
0
370
    -3
390
0
  6
Continuous
100
AcDbLine
 10
-324.841836
 20
186.860004
 30
0.0
 11
-325.691794
 21
186.860004
 31
0.0
  0
LINE
  5
4E2
100
AcDbEntity
  8
0
370
    -3
390
0
  6
Continuous
100
AcDbLine
 10
-325.691794
 20
186.860004
 30
0.0
 11
-326.526592
 21
186.973016
 31
0.0
  0
LINE
  5
4E3
100
AcDbEntity
  8
0
370
    -3
390
0
  6
Continuous
100
AcDbLine
 10
-326.526592
 20
186.973016
 30
0.0
 11
-327.316446
 21
187.195007
 31
0.0
  0
LINE
  5
4E4
100
AcDbEntity
  8
0
370
    -3
390
0
  6
Continuous
100
AcDbLine
 10
-327.316446
 20
187.195007
 30
0.0
 11
-328.033179
 21
187.518059
 31
0.0
  0
LINE
  5
4E5
100
AcDbEntity
  8
0
370
    -3
390
0
  6
Continuous
100
AcDbLine
 10
-328.033179
 20
187.518059
 30
0.0
 11
-328.65122
 21
187.930645
 31
0.0
  0
LINE
  5
4E6
100
AcDbEntity
  8
0
370
    -3
390
0
  6
Continuous
100
AcDbLine
 10
-328.65122
 20
187.930645
 30
0.0
 11
-329.14852
 21
188.418048
 31
0.0
  0
LINE
  5
4E7
100
AcDbEntity
  8
0
370
    -3
390
0
  6
Continuous
100
AcDbLine
 10
-329.14852
 20
188.418048
 30
0.0
 11
-329.507338
 21
188.962878
 31
0.0
  0
LINE
  5
4E8
100
AcDbEntity
  8
0
370
    -3
390
0
  6
Continuous
100
AcDbLine
 10
-329.507338
 20
188.962878
 30
0.0
 11
-329.714874
 21
189.545698
 31
0.0
  0
LINE
  5
4E9
100
AcDbEntity
  8
0
370
    -3
390
0
  6
Continuous
100
AcDbLine
 10
-329.714874
 20
189.545698
 30
0.0
 11
-329.763722
 21
190.145717
 31
0.0
  0
LINE
  5
4EA
100
AcDbEntity
  8
0
370
    -3
390
0
  6
Continuous
100
AcDbLine
 10
-329.763722
 20
190.145717
 30
0.0
 11
-329.652141
 21
190.741527
 31
0.0
  0
LINE
  5
4EB
100
AcDbEntity
  8
0
370
    -3
390
0
  6
Continuous
100
AcDbLine
 10
-329.652141
 20
190.741527
 30
0.0
 11
-329.384111
 21
191.311873
 31
0.0
  0
LINE
  5
4EC
100
AcDbEntity
  8
0
370
    -3
390
0
  6
Continuous
100
AcDbLine
 10
-329.384111
 20
191.311873
 30
0.0
 11
-328.969193
 21
191.836408
 31
0.0
  0
LINE
  5
4ED
100
AcDbEntity
  8
0
370
    -3
390
0
  6
Continuous
100
AcDbLine
 10
-328.969193
 20
191.836408
 30
0.0
 11
-328.422192
 21
192.296419
 31
0.0
  0
LINE
  5
4EE
100
AcDbEntity
  8
0
370
    -3
390
0
  6
Continuous
100
AcDbLine
 10
-328.422192
 20
192.296419
 30
0.0
 11
-327.76262
 21
192.675494
 31
0.0
  0
LINE
  5
4EF
100
AcDbEntity
  8
0
370
    -3
390
0
  6
Continuous
100
AcDbLine
 10
-325.266815
 20
191.866241
 30
0.0
 11
-323.266815
 21
190.292903
 31
0.0
  0
LINE
  5
4F0
100
AcDbEntity
  8
0
370
    -3
390
0
  6
Continuous
100
AcDbLine
 10
-325.266815
 20
191.866241
 30
0.0
 11
-323.33761
 21
193.076903
 31
0.0
  0
LINE
  5
4F1
100
AcDbEntity
  8
0
370
    -3
390
0
  6
Continuous
100
AcDbLine
 10
-325.266815
 20
191.866241
 30
0.0
 11
-327.266815
 21
190.292903
 31
0.0
  0
LINE
  5
4F2
100
AcDbEntity
  8
0
370
    -3
390
0
  6
Continuous
100
AcDbLine
 10
-325.266815
 20
191.866241
 30
0.0
 11
-327.19602
 21
193.076903
 31
0.0
  0
ARC
  5
4F3
100
AcDbEntity
  8
0
370
    -3
390
0
  6
Continuous
100
AcDbCircle
 10
-340.01398
 20
175.620743
 30
0.0
 40
30.8
100
AcDbArc
 50
90.0
 51
120.0
  0
LINE
  5
4F4
100
AcDbEntity
  8
0
370
    -3
390
0
  6
Continuous
100
AcDbLine
 10
-330.266815
 20
74.596012
 30
0.0
 11
-330.170741
 21
75.28576
 31
0.0
  0
LINE
  5
4F5
100
AcDbEntity
  8
0
370
    -3
390
0
  6
Continuous
100
AcDbLine
 10
-330.170741
 20
75.28576
 30
0.0
 11
-329.886213
 21
75.949002
 31
0.0
  0
LINE
  5
4F6
100
AcDbEntity
  8
0
370
    -3
390
0
  6
Continuous
100
AcDbLine
 10
-329.886213
 20
75.949002
 30
0.0
 11
-329.424163
 21
76.560249
 31
0.0
  0
LINE
  5
4F7
100
AcDbEntity
  8
0
370
    -3
390
0
  6
Continuous
100
AcDbLine
 10
-329.424163
 20
76.560249
 30
0.0
 11
-328.802349
 21
77.096012
 31
0.0
  0
LINE
  5
4F8
100
AcDbEntity
  8
0
370
    -3
390
0
  6
Continuous
100
AcDbLine
 10
-328.802349
 20
77.096012
 30
0.0
 11
-328.044666
 21
77.535701
 31
0.0
  0
LINE
  5
4F9
100
AcDbEntity
  8
0
370
    -3
390
0
  6
Continuous
100
AcDbLine
 10
-328.044666
 20
77.535701
 30
0.0
 11
-327.180232
 21
77.862419
 31
0.0
  0
LINE
  5
4FA
100
AcDbEntity
  8
0
370
    -3
390
0
  6
Continuous
100
AcDbLine
 10
-327.180232
 20
77.862419
 30
0.0
 11
-326.242267
 21
78.063611
 31
0.0
  0
LINE
  5
4FB
100
AcDbEntity
  8
0
370
    -3
390
0
  6
Continuous
100
AcDbLine
 10
-326.242267
 20
78.063611
 30
0.0
 11
-325.266815
 21
78.131545
 31
0.0
  0
LINE
  5
4FC
100
AcDbEntity
  8
0
370
    -3
390
0
  6
Continuous
100
AcDbLine
 10
-325.266815
 20
78.131545
 30
0.0
 11
-324.291363
 21
78.063611
 31
0.0
  0
LINE
  5
4FD
100
AcDbEntity
  8
0
370
    -3
390
0
  6
Continuous
100
AcDbLine
 10
-324.291363
 20
78.063611
 30
0.0
 11
-323.353398
 21
77.862419
 31
0.0
  0
LINE
  5
4FE
100
AcDbEntity
  8
0
370
    -3
390
0
  6
Continuous
100
AcDbLine
 10
-323.353398
 20
77.862419
 30
0.0
 11
-322.488964
 21
77.535701
 31
0.0
  0
LINE
  5
4FF
100
AcDbEntity
  8
0
370
    -3
390
0
  6
Continuous
100
AcDbLine
 10
-322.488964
 20
77.535701
 30
0.0
 11
-321.731281
 21
77.096012
 31
0.0
  0
LINE
  5
500
100
AcDbEntity
  8
0
370
    -3
390
0
  6
Continuous
100
AcDbLine
 10
-321.731281
 20
77.096012
 30
0.0
 11
-321.109467
 21
76.560249
 31
0.0
  0
LINE
  5
501
100
AcDbEntity
  8
0
370
    -3
390
0
  6
Continuous
100
AcDbLine
 10
-321.109467
 20
76.560249
 30
0.0
 11
-320.647417
 21
75.949002
 31
0.0
  0
LINE
  5
502
100
AcDbEntity
  8
0
370
    -3
390
0
  6
Continuous
100
AcDbLine
 10
-320.647417
 20
75.949002
 30
0.0
 11
-320.362889
 21
75.28576
 31
0.0
  0
LINE
  5
503
100
AcDbEntity
  8
0
370
    -3
390
0
  6
Continuous
100
AcDbLine
 10
-320.362889
 20
75.28576
 30
0.0
 11
-320.266815
 21
74.596012
 31
0.0
  0
LINE
  5
504
100
AcDbEntity
  8
0
370
    -3
390
0
  6
Continuous
100
AcDbLine
 10
-330.266815
 20
73.779408
 30
0.0
 11
-330.266815
 21
74.596012
 31
0.0
  0
LINE
  5
505
100
AcDbEntity
  8
0
370
    -3
390
0
  6
Continuous
100
AcDbLine
 10
-320.266815
 20
73.779408
 30
0.0
 11
-320.266815
 21
74.596012
 31
0.0
  0
LINE
  5
506
100
AcDbEntity
  8
0
370
    -3
390
0
  6
Continuous
100
AcDbLine
 10
-329.766815
 20
73.779408
 30
0.0
 11
-329.680349
 21
74.400182
 31
0.0
  0
LINE
  5
507
100
AcDbEntity
  8
0
370
    -3
390
0
  6
Continuous
100
AcDbLine
 10
-329.680349
 20
74.400182
 30
0.0
 11
-329.424273
 21
74.9971
 31
0.0
  0
LINE
  5
508
100
AcDbEntity
  8
0
370
    -3
390
0
  6
Continuous
100
AcDbLine
 10
-329.424273
 20
74.9971
 30
0.0
 11
-329.008428
 21
75.547222
 31
0.0
  0
LINE
  5
509
100
AcDbEntity
  8
0
370
    -3
390
0
  6
Continuous
100
AcDbLine
 10
-329.008428
 20
75.547222
 30
0.0
 11
-328.448796
 21
76.029408
 31
0.0
  0
LINE
  5
50A
100
AcDbEntity
  8
0
370
    -3
390
0
  6
Continuous
100
AcDbLine
 10
-328.448796
 20
76.029408
 30
0.0
 11
-327.766881
 21
76.425128
 31
0.0
  0
LINE
  5
50B
100
AcDbEntity
  8
0
370
    -3
390
0
  6
Continuous
100
AcDbLine
 10
-327.766881
 20
76.425128
 30
0.0
 11
-326.98889
 21
76.719175
 31
0.0
  0
LINE
  5
50C
100
AcDbEntity
  8
0
370
    -3
390
0
  6
Continuous
100
AcDbLine
 10
-326.98889
 20
76.719175
 30
0.0
 11
-326.144721
 21
76.900248
 31
0.0
  0
LINE
  5
50D
100
AcDbEntity
  8
0
370
    -3
390
0
  6
Continuous
100
AcDbLine
 10
-326.144721
 20
76.900248
 30
0.0
 11
-325.266815
 21
76.961389
 31
0.0
  0
LINE
  5
50E
100
AcDbEntity
  8
0
370
    -3
390
0
  6
Continuous
100
AcDbLine
 10
-325.266815
 20
76.961389
 30
0.0
 11
-324.388909
 21
76.900248
 31
0.0
  0
LINE
  5
50F
100
AcDbEntity
  8
0
370
    -3
390
0
  6
Continuous
100
AcDbLine
 10
-324.388909
 20
76.900248
 30
0.0
 11
-323.54474
 21
76.719175
 31
0.0
  0
LINE
  5
510
100
AcDbEntity
  8
0
370
    -3
390
0
  6
Continuous
100
AcDbLine
 10
-323.54474
 20
76.719175
 30
0.0
 11
-322.766749
 21
76.425128
 31
0.0
  0
LINE
  5
511
100
AcDbEntity
  8
0
370
    -3
390
0
  6
Continuous
100
AcDbLine
 10
-322.766749
 20
76.425128
 30
0.0
 11
-322.084835
 21
76.029408
 31
0.0
  0
LINE
  5
512
100
AcDbEntity
  8
0
370
    -3
390
0
  6
Continuous
100
AcDbLine
 10
-322.084835
 20
76.029408
 30
0.0
 11
-321.525202
 21
75.547222
 31
0.0
  0
LINE
  5
513
100
AcDbEntity
  8
0
370
    -3
390
0
  6
Continuous
100
AcDbLine
 10
-321.525202
 20
75.547222
 30
0.0
 11
-321.109357
 21
74.9971
 31
0.0
  0
LINE
  5
514
100
AcDbEntity
  8
0
370
    -3
390
0
  6
Continuous
100
AcDbLine
 10
-321.109357
 20
74.9971
 30
0.0
 11
-320.853281
 21
74.400182
 31
0.0
  0
LINE
  5
515
100
AcDbEntity
  8
0
370
    -3
390
0
  6
Continuous
100
AcDbLine
 10
-320.853281
 20
74.400182
 30
0.0
 11
-320.766815
 21
73.779408
 31
0.0
  0
LINE
  5
516
100
AcDbEntity
  8
0
370
    -3
390
0
  6
Continuous
100
AcDbLine
 10
-329.766815
 20
73.213723
 30
0.0
 11
-329.766815
 21
73.779408
 31
0.0
  0
LINE
  5
517
100
AcDbEntity
  8
0
370
    -3
390
0
  6
Continuous
100
AcDbLine
 10
-320.766815
 20
73.213723
 30
0.0
 11
-320.766815
 21
73.779408
 31
0.0
  0
LINE
  5
518
100
AcDbEntity
  8
0
370
    -3
390
0
  6
Continuous
100
AcDbLine
 10
-320.266815
 20
73.779408
 30
0.0
 11
-320.351966
 21
73.129692
 31
0.0
  0
LINE
  5
519
100
AcDbEntity
  8
0
370
    -3
390
0
  6
Continuous
100
AcDbLine
 10
-320.351966
 20
73.129692
 30
0.0
 11
-320.60452
 21
72.502105
 31
0.0
  0
LINE
  5
51A
100
AcDbEntity
  8
0
370
    -3
390
0
  6
Continuous
100
AcDbLine
 10
-320.60452
 20
72.502105
 30
0.0
 11
-321.015875
 21
71.918024
 31
0.0
  0
LINE
  5
51B
100
AcDbEntity
  8
0
370
    -3
390
0
  6
Continuous
100
AcDbLine
 10
-321.015875
 20
71.918024
 30
0.0
 11
-321.572018
 21
71.397342
 31
0.0
  0
LINE
  5
51C
100
AcDbEntity
  8
0
370
    -3
390
0
  6
Continuous
100
AcDbLine
 10
-328.961612
 20
71.397342
 30
0.0
 11
-329.517755
 21
71.918024
 31
0.0
  0
LINE
  5
51D
100
AcDbEntity
  8
0
370
    -3
390
0
  6
Continuous
100
AcDbLine
 10
-329.517755
 20
71.918024
 30
0.0
 11
-329.92911
 21
72.502105
 31
0.0
  0
LINE
  5
51E
100
AcDbEntity
  8
0
370
    -3
390
0
  6
Continuous
100
AcDbLine
 10
-329.92911
 20
72.502105
 30
0.0
 11
-330.181664
 21
73.129692
 31
0.0
  0
LINE
  5
51F
100
AcDbEntity
  8
0
370
    -3
390
0
  6
Continuous
100
AcDbLine
 10
-330.181664
 20
73.129692
 30
0.0
 11
-330.266815
 21
73.779408
 31
0.0
  0
LINE
  5
520
100
AcDbEntity
  8
0
370
    -3
390
0
  6
Continuous
100
AcDbLine
 10
-321.766815
 20
72.677205
 30
0.0
 11
-321.834067
 21
72.089711
 31
0.0
  0
LINE
  5
521
100
AcDbEntity
  8
0
370
    -3
390
0
  6
Continuous
100
AcDbLine
 10
-321.834067
 20
72.089711
 30
0.0
 11
-322.033237
 21
71.524795
 31
0.0
  0
LINE
  5
522
100
AcDbEntity
  8
0
370
    -3
390
0
  6
Continuous
100
AcDbLine
 10
-322.033237
 20
71.524795
 30
0.0
 11
-322.356671
 21
71.004165
 31
0.0
  0
LINE
  5
523
100
AcDbEntity
  8
0
370
    -3
390
0
  6
Continuous
100
AcDbLine
 10
-322.356671
 20
71.004165
 30
0.0
 11
-322.791941
 21
70.547829
 31
0.0
  0
LINE
  5
524
100
AcDbEntity
  8
0
370
    -3
390
0
  6
Continuous
100
AcDbLine
 10
-322.791941
 20
70.547829
 30
0.0
 11
-323.322319
 21
70.173324
 31
0.0
  0
LINE
  5
525
100
AcDbEntity
  8
0
370
    -3
390
0
  6
Continuous
100
AcDbLine
 10
-323.322319
 20
70.173324
 30
0.0
 11
-323.927423
 21
69.895041
 31
0.0
  0
LINE
  5
526
100
AcDbEntity
  8
0
370
    -3
390
0
  6
Continuous
100
AcDbLine
 10
-323.927423
 20
69.895041
 30
0.0
 11
-324.583999
 21
69.723676
 31
0.0
  0
LINE
  5
527
100
AcDbEntity
  8
0
370
    -3
390
0
  6
Continuous
100
AcDbLine
 10
-324.583999
 20
69.723676
 30
0.0
 11
-325.266815
 21
69.665813
 31
0.0
  0
LINE
  5
528
100
AcDbEntity
  8
0
370
    -3
390
0
  6
Continuous
100
AcDbLine
 10
-325.266815
 20
69.665813
 30
0.0
 11
-325.949631
 21
69.723676
 31
0.0
  0
LINE
  5
529
100
AcDbEntity
  8
0
370
    -3
390
0
  6
Continuous
100
AcDbLine
 10
-325.949631
 20
69.723676
 30
0.0
 11
-326.606207
 21
69.895041
 31
0.0
  0
LINE
  5
52A
100
AcDbEntity
  8
0
370
    -3
390
0
  6
Continuous
100
AcDbLine
 10
-326.606207
 20
69.895041
 30
0.0
 11
-327.211311
 21
70.173324
 31
0.0
  0
LINE
  5
52B
100
AcDbEntity
  8
0
370
    -3
390
0
  6
Continuous
100
AcDbLine
 10
-327.211311
 20
70.173324
 30
0.0
 11
-327.741689
 21
70.547829
 31
0.0
  0
LINE
  5
52C
100
AcDbEntity
  8
0
370
    -3
390
0
  6
Continuous
100
AcDbLine
 10
-327.741689
 20
70.547829
 30
0.0
 11
-328.176959
 21
71.004165
 31
0.0
  0
LINE
  5
52D
100
AcDbEntity
  8
0
370
    -3
390
0
  6
Continuous
100
AcDbLine
 10
-328.176959
 20
71.004165
 30
0.0
 11
-328.500393
 21
71.524795
 31
0.0
  0
LINE
  5
52E
100
AcDbEntity
  8
0
370
    -3
390
0
  6
Continuous
100
AcDbLine
 10
-328.500393
 20
71.524795
 30
0.0
 11
-328.699564
 21
72.089711
 31
0.0
  0
LINE
  5
52F
100
AcDbEntity
  8
0
370
    -3
390
0
  6
Continuous
100
AcDbLine
 10
-328.699564
 20
72.089711
 30
0.0
 11
-328.766815
 21
72.677205
 31
0.0
  0
LINE
  5
530
100
AcDbEntity
  8
0
370
    -3
390
0
  6
Continuous
100
AcDbLine
 10
-328.766815
 20
72.677205
 30
0.0
 11
-328.699564
 21
73.264698
 31
0.0
  0
LINE
  5
531
100
AcDbEntity
  8
0
370
    -3
390
0
  6
Continuous
100
AcDbLine
 10
-328.699564
 20
73.264698
 30
0.0
 11
-328.500393
 21
73.829614
 31
0.0
  0
LINE
  5
532
100
AcDbEntity
  8
0
370
    -3
390
0
  6
Continuous
100
AcDbLine
 10
-328.500393
 20
73.829614
 30
0.0
 11
-328.176959
 21
74.350244
 31
0.0
  0
LINE
  5
533
100
AcDbEntity
  8
0
370
    -3
390
0
  6
Continuous
100
AcDbLine
 10
-328.176959
 20
74.350244
 30
0.0
 11
-327.741689
 21
74.80658
 31
0.0
  0
LINE
  5
534
100
AcDbEntity
  8
0
370
    -3
390
0
  6
Continuous
100
AcDbLine
 10
-327.741689
 20
74.80658
 30
0.0
 11
-327.211311
 21
75.181086
 31
0.0
  0
LINE
  5
535
100
AcDbEntity
  8
0
370
    -3
390
0
  6
Continuous
100
AcDbLine
 10
-327.211311
 20
75.181086
 30
0.0
 11
-326.606207
 21
75.459368
 31
0.0
  0
LINE
  5
536
100
AcDbEntity
  8
0
370
    -3
390
0
  6
Continuous
100
AcDbLine
 10
-326.606207
 20
75.459368
 30
0.0
 11
-325.949631
 21
75.630734
 31
0.0
  0
LINE
  5
537
100
AcDbEntity
  8
0
370
    -3
390
0
  6
Continuous
100
AcDbLine
 10
-325.949631
 20
75.630734
 30
0.0
 11
-325.266815
 21
75.688597
 31
0.0
  0
LINE
  5
538
100
AcDbEntity
  8
0
370
    -3
390
0
  6
Continuous
100
AcDbLine
 10
-325.266815
 20
75.688597
 30
0.0
 11
-324.583999
 21
75.630734
 31
0.0
  0
LINE
  5
539
100
AcDbEntity
  8
0
370
    -3
390
0
  6
Continuous
100
AcDbLine
 10
-324.583999
 20
75.630734
 30
0.0
 11
-323.927423
 21
75.459368
 31
0.0
  0
LINE
  5
53A
100
AcDbEntity
  8
0
370
    -3
390
0
  6
Continuous
100
AcDbLine
 10
-323.927423
 20
75.459368
 30
0.0
 11
-323.322319
 21
75.181086
 31
0.0
  0
LINE
  5
53B
100
AcDbEntity
  8
0
370
    -3
390
0
  6
Continuous
100
AcDbLine
 10
-323.322319
 20
75.181086
 30
0.0
 11
-322.791941
 21
74.80658
 31
0.0
  0
LINE
  5
53C
100
AcDbEntity
  8
0
370
    -3
390
0
  6
Continuous
100
AcDbLine
 10
-322.791941
 20
74.80658
 30
0.0
 11
-322.356671
 21
74.350244
 31
0.0
  0
LINE
  5
53D
100
AcDbEntity
  8
0
370
    -3
390
0
  6
Continuous
100
AcDbLine
 10
-322.356671
 20
74.350244
 30
0.0
 11
-322.033237
 21
73.829614
 31
0.0
  0
LINE
  5
53E
100
AcDbEntity
  8
0
370
    -3
390
0
  6
Continuous
100
AcDbLine
 10
-322.033237
 20
73.829614
 30
0.0
 11
-321.834067
 21
73.264698
 31
0.0
  0
LINE
  5
53F
100
AcDbEntity
  8
0
370
    -3
390
0
  6
Continuous
100
AcDbLine
 10
-321.834067
 20
73.264698
 30
0.0
 11
-321.766815
 21
72.677205
 31
0.0
  0
LINE
  5
540
100
AcDbEntity
  8
0
370
    -3
390
0
  6
Continuous
100
AcDbLine
 10
-327.76262
 20
70.565992
 30
0.0
 11
-328.422192
 21
70.945067
 31
0.0
  0
LINE
  5
541
100
AcDbEntity
  8
0
370
    -3
390
0
  6
Continuous
100
AcDbLine
 10
-328.422192
 20
70.945067
 30
0.0
 11
-328.969193
 21
71.405078
 31
0.0
  0
LINE
  5
542
100
AcDbEntity
  8
0
370
    -3
390
0
  6
Continuous
100
AcDbLine
 10
-328.969193
 20
71.405078
 30
0.0
 11
-329.384111
 21
71.929613
 31
0.0
  0
LINE
  5
543
100
AcDbEntity
  8
0
370
    -3
390
0
  6
Continuous
100
AcDbLine
 10
-329.384111
 20
71.929613
 30
0.0
 11
-329.652141
 21
72.499959
 31
0.0
  0
LINE
  5
544
100
AcDbEntity
  8
0
370
    -3
390
0
  6
Continuous
100
AcDbLine
 10
-329.652141
 20
72.499959
 30
0.0
 11
-329.763722
 21
73.095769
 31
0.0
  0
LINE
  5
545
100
AcDbEntity
  8
0
370
    -3
390
0
  6
Continuous
100
AcDbLine
 10
-329.763722
 20
73.095769
 30
0.0
 11
-329.714874
 21
73.695788
 31
0.0
  0
LINE
  5
546
100
AcDbEntity
  8
0
370
    -3
390
0
  6
Continuous
100
AcDbLine
 10
-329.714874
 20
73.695788
 30
0.0
 11
-329.507338
 21
74.278608
 31
0.0
  0
LINE
  5
547
100
AcDbEntity
  8
0
370
    -3
390
0
  6
Continuous
100
AcDbLine
 10
-329.507338
 20
74.278608
 30
0.0
 11
-329.14852
 21
74.823438
 31
0.0
  0
LINE
  5
548
100
AcDbEntity
  8
0
370
    -3
390
0
  6
Continuous
100
AcDbLine
 10
-329.14852
 20
74.823438
 30
0.0
 11
-328.65122
 21
75.310841
 31
0.0
  0
LINE
  5
549
100
AcDbEntity
  8
0
370
    -3
390
0
  6
Continuous
100
AcDbLine
 10
-328.65122
 20
75.310841
 30
0.0
 11
-328.033179
 21
75.723427
 31
0.0
  0
LINE
  5
54A
100
AcDbEntity
  8
0
370
    -3
390
0
  6
Continuous
100
AcDbLine
 10
-328.033179
 20
75.723427
 30
0.0
 11
-327.316446
 21
76.046479
 31
0.0
  0
LINE
  5
54B
100
AcDbEntity
  8
0
370
    -3
390
0
  6
Continuous
100
AcDbLine
 10
-327.316446
 20
76.046479
 30
0.0
 11
-326.526592
 21
76.26847
 31
0.0
  0
LINE
  5
54C
100
AcDbEntity
  8
0
370
    -3
390
0
  6
Continuous
100
AcDbLine
 10
-326.526592
 20
76.26847
 30
0.0
 11
-325.691794
 21
76.381482
 31
0.0
  0
LINE
  5
54D
100
AcDbEntity
  8
0
370
    -3
390
0
  6
Continuous
100
AcDbLine
 10
-325.691794
 20
76.381482
 30
0.0
 11
-324.841836
 21
76.381482
 31
0.0
  0
LINE
  5
54E
100
AcDbEntity
  8
0
370
    -3
390
0
  6
Continuous
100
AcDbLine
 10
-324.841836
 20
76.381482
 30
0.0
 11
-324.007038
 21
76.26847
 31
0.0
  0
LINE
  5
54F
100
AcDbEntity
  8
0
370
    -3
390
0
  6
Continuous
100
AcDbLine
 10
-324.007038
 20
76.26847
 30
0.0
 11
-323.217184
 21
76.046479
 31
0.0
  0
LINE
  5
550
100
AcDbEntity
  8
0
370
    -3
390
0
  6
Continuous
100
AcDbLine
 10
-323.217184
 20
76.046479
 30
0.0
 11
-322.500451
 21
75.723427
 31
0.0
  0
LINE
  5
551
100
AcDbEntity
  8
0
370
    -3
390
0
  6
Continuous
100
AcDbLine
 10
-322.500451
 20
75.723427
 30
0.0
 11
-321.88241
 21
75.310841
 31
0.0
  0
LINE
  5
552
100
AcDbEntity
  8
0
370
    -3
390
0
  6
Continuous
100
AcDbLine
 10
-321.88241
 20
75.310841
 30
0.0
 11
-321.38511
 21
74.823438
 31
0.0
  0
LINE
  5
553
100
AcDbEntity
  8
0
370
    -3
390
0
  6
Continuous
100
AcDbLine
 10
-321.38511
 20
74.823438
 30
0.0
 11
-321.026292
 21
74.278608
 31
0.0
  0
LINE
  5
554
100
AcDbEntity
  8
0
370
    -3
390
0
  6
Continuous
100
AcDbLine
 10
-321.026292
 20
74.278608
 30
0.0
 11
-320.818756
 21
73.695788
 31
0.0
  0
LINE
  5
555
100
AcDbEntity
  8
0
370
    -3
390
0
  6
Continuous
100
AcDbLine
 10
-320.818756
 20
73.695788
 30
0.0
 11
-320.769908
 21
73.095769
 31
0.0
  0
LINE
  5
556
100
AcDbEntity
  8
0
370
    -3
390
0
  6
Continuous
100
AcDbLine
 10
-320.769908
 20
73.095769
 30
0.0
 11
-320.881489
 21
72.499959
 31
0.0
  0
LINE
  5
557
100
AcDbEntity
  8
0
370
    -3
390
0
  6
Continuous
100
AcDbLine
 10
-320.881489
 20
72.499959
 30
0.0
 11
-321.14952
 21
71.929613
 31
0.0
  0
LINE
  5
558
100
AcDbEntity
  8
0
370
    -3
390
0
  6
Continuous
100
AcDbLine
 10
-321.14952
 20
71.929613
 30
0.0
 11
-321.564437
 21
71.405078
 31
0.0
  0
LINE
  5
559
100
AcDbEntity
  8
0
370
    -3
390
0
  6
Continuous
100
AcDbLine
 10
-321.564437
 20
71.405078
 30
0.0
 11
-322.111438
 21
70.945067
 31
0.0
  0
LINE
  5
55A
100
AcDbEntity
  8
0
370
    -3
390
0
  6
Continuous
100
AcDbLine
 10
-322.111438
 20
70.945067
 30
0.0
 11
-322.77101
 21
70.565992
 31
0.0
  0
LINE
  5
55B
100
AcDbEntity
  8
0
370
    -3
390
0
  6
Continuous
100
AcDbLine
 10
-325.266815
 20
71.375245
 30
0.0
 11
-323.266815
 21
72.948583
 31
0.0
  0
LINE
  5
55C
100
AcDbEntity
  8
0
370
    -3
390
0
  6
Continuous
100
AcDbLine
 10
-325.266815
 20
71.375245
 30
0.0
 11
-323.33761
 21
70.164583
 31
0.0
  0
LINE
  5
55D
100
AcDbEntity
  8
0
370
    -3
390
0
  6
Continuous
100
AcDbLine
 10
-325.266815
 20
71.375245
 30
0.0
 11
-327.266815
 21
72.948583
 31
0.0
  0
LINE
  5
55E
100
AcDbEntity
  8
0
370
    -3
390
0
  6
Continuous
100
AcDbLine
 10
-325.266815
 20
71.375245
 30
0.0
 11
-327.19602
 21
70.164583
 31
0.0
  0
ARC
  5
55F
100
AcDbEntity
  8
0
370
    -3
390
0
  6
Continuous
100
AcDbCircle
 10
-368.466815
 20
190.370406
 30
0.0
 40
3.8
100
AcDbArc
 50
120.0
 51
180.0
  0
LINE
  5
560
100
AcDbEntity
  8
0
370
    -3
390
0
  6
Continuous
100
AcDbLine
 10
-372.266815
 20
131.620743
 30
0.0
 11
-372.266815
 21
190.370406
 31
0.0
  0
LINE
  5
561
100
AcDbEntity
  8
0
370
    -3
390
0
  6
Continuous
100
AcDbLine
 10
-370.366815
 20
193.661302
 30
0.0
 11
-355.41398
 21
202.294325
 31
0.0
  0
ARC
  5
562
100
AcDbEntity
  8
0
370
    -3
390
0
  6
Continuous
100
AcDbCircle
 10
-340.01398
 20
87.620743
 30
0.0
 40
30.8
100
AcDbArc
 50
240.0
 51
270.0
  0
ARC
  5
563
100
AcDbEntity
  8
0
370
    -3
390
0
  6
Continuous
100
AcDbCircle
 10
-368.466815
 20
72.87108
 30
0.0
 40
3.8
100
AcDbArc
 50
180.0
 51
240.0
  0
LINE
  5
564
100
AcDbEntity
  8
0
370
    -3
390
0
  6
Continuous
100
AcDbLine
 10
-372.266815
 20
131.620743
 30
0.0
 11
-372.266815
 21
72.87108
 31
0.0
  0
LINE
  5
565
100
AcDbEntity
  8
0
370
    -3
390
0
  6
Continuous
100
AcDbLine
 10
-370.366815
 20
69.580184
 30
0.0
 11
-355.41398
 21
60.947161
 31
0.0
  0
LINE
  5
566
100
AcDbEntity
  8
0
370
    -3
390
0
  6
Continuous
100
AcDbLine
 10
-308.266815
 20
65.120743
 30
0.0
 11
-165.266815
 21
65.120743
 31
0.0
  0
LINE
  5
567
100
AcDbEntity
  8
0
370
    -3
390
0
  6
Continuous
100
AcDbLine
 10
-308.266815
 20
60.620743
 30
0.0
 11
-165.266815
 21
60.620743
 31
0.0
  0
LINE
  5
568
100
AcDbEntity
  8
0
370
    -3
390
0
  6
Continuous
100
AcDbLine
 10
-308.266815
 20
62.120743
 30
0.0
 11
-165.266815
 21
62.120743
 31
0.0
  0
LINE
  5
569
100
AcDbEntity
  8
0
370
    -3
390
0
  6
Continuous
100
AcDbLine
 10
-308.266815
 20
60.120743
 30
0.0
 11
-165.266815
 21
60.120743
 31
0.0
  0
LINE
  5
56A
100
AcDbEntity
  8
0
370
    -3
390
0
  6
Continuous
100
AcDbLine
 10
-308.266815
 20
69.620743
 30
0.0
 11
-165.266815
 21
69.620743
 31
0.0
  0
LINE
  5
56B
100
AcDbEntity
  8
0
370
    -3
390
0
  6
Continuous
100
AcDbLine
 10
-308.266815
 20
76.034944
 30
0.0
 11
-165.266815
 21
76.034944
 31
0.0
  0
LINE
  5
56C
100
AcDbEntity
  8
0
370
    -3
390
0
  6
Continuous
100
AcDbLine
 10
-308.266815
 20
82.398905
 30
0.0
 11
-165.266815
 21
82.398905
 31
0.0
  0
LINE
  5
56D
100
AcDbEntity
  8
0
370
    -3
390
0
  6
Continuous
100
AcDbLine
 10
-165.266815
 20
90.771474
 30
0.0
 11
-308.266815
 21
90.771474
 31
0.0
  0
LINE
  5
56E
100
AcDbEntity
  8
0
370
    -3
390
0
  6
Continuous
100
AcDbLine
 10
-165.266815
 20
92.420101
 30
0.0
 11
-308.266815
 21
92.420101
 31
0.0
  0
LINE
  5
56F
100
AcDbEntity
  8
0
370
    -3
390
0
  6
Continuous
100
AcDbLine
 10
-308.266815
 20
98.777971
 30
0.0
 11
-165.266815
 21
98.777971
 31
0.0
  0
LINE
  5
570
100
AcDbEntity
  8
0
370
    -3
390
0
  6
Continuous
100
AcDbLine
 10
-308.266815
 20
100.410699
 30
0.0
 11
-165.266815
 21
100.410699
 31
0.0
  0
LINE
  5
571
100
AcDbEntity
  8
0
370
    -3
390
0
  6
Continuous
100
AcDbLine
 10
-308.266815
 20
107.620743
 30
0.0
 11
-165.266815
 21
107.620743
 31
0.0
  0
LINE
  5
572
100
AcDbEntity
  8
0
370
    -3
390
0
  6
Continuous
100
AcDbLine
 10
-308.266815
 20
198.120743
 30
0.0
 11
-165.266815
 21
198.120743
 31
0.0
  0
LINE
  5
573
100
AcDbEntity
  8
0
370
    -3
390
0
  6
Continuous
100
AcDbLine
 10
-308.266815
 20
202.620743
 30
0.0
 11
-165.266815
 21
202.620743
 31
0.0
  0
LINE
  5
574
100
AcDbEntity
  8
0
370
    -3
390
0
  6
Continuous
100
AcDbLine
 10
-308.266815
 20
201.120743
 30
0.0
 11
-165.266815
 21
201.120743
 31
0.0
  0
LINE
  5
575
100
AcDbEntity
  8
0
370
    -3
390
0
  6
Continuous
100
AcDbLine
 10
-308.266815
 20
203.120743
 30
0.0
 11
-165.266815
 21
203.120743
 31
0.0
  0
LINE
  5
576
100
AcDbEntity
  8
0
370
    -3
390
0
  6
Continuous
100
AcDbLine
 10
-308.266815
 20
193.620743
 30
0.0
 11
-165.266815
 21
193.620743
 31
0.0
  0
LINE
  5
577
100
AcDbEntity
  8
0
370
    -3
390
0
  6
Continuous
100
AcDbLine
 10
-308.266815
 20
164.463515
 30
0.0
 11
-165.266815
 21
164.463515
 31
0.0
  0
LINE
  5
578
100
AcDbEntity
  8
0
370
    -3
390
0
  6
Continuous
100
AcDbLine
 10
-308.266815
 20
162.830787
 30
0.0
 11
-165.266815
 21
162.830787
 31
0.0
  0
LINE
  5
579
100
AcDbEntity
  8
0
370
    -3
390
0
  6
Continuous
100
AcDbLine
 10
-308.266815
 20
155.620743
 30
0.0
 11
-165.266815
 21
155.620743
 31
0.0
  0
LINE
  5
57A
100
AcDbEntity
  8
0
370
    -3
390
0
  6
Continuous
100
AcDbLine
 10
-165.266815
 20
170.821385
 30
0.0
 11
-308.266815
 21
170.821385
 31
0.0
  0
LINE
  5
57B
100
AcDbEntity
  8
0
370
    -3
390
0
  6
Continuous
100
AcDbLine
 10
-165.266815
 20
172.470012
 30
0.0
 11
-308.266815
 21
172.470012
 31
0.0
  0
LINE
  5
57C
100
AcDbEntity
  8
0
370
    -3
390
0
  6
Continuous
100
AcDbLine
 10
-308.266815
 20
180.842581
 30
0.0
 11
-165.266815
 21
180.842581
 31
0.0
  0
LINE
  5
57D
100
AcDbEntity
  8
0
370
    -3
390
0
  6
Continuous
100
AcDbLine
 10
-308.266815
 20
187.206542
 30
0.0
 11
-165.266815
 21
187.206542
 31
0.0
  0
LINE
  5
57E
100
AcDbEntity
  8
0
370
    -3
390
0
  6
Continuous
100
AcDbLine
 10
-308.266815
 20
56.820743
 30
0.0
 11
-340.01398
 21
56.820743
 31
0.0
  0
LINE
  5
57F
100
AcDbEntity
  8
0
370
    -3
390
0
  6
Continuous
100
AcDbLine
 10
-308.266815
 20
56.820743
 30
0.0
 11
-308.266815
 21
206.420743
 31
0.0
  0
LINE
  5
580
100
AcDbEntity
  8
0
370
    -3
390
0
  6
Continuous
100
AcDbLine
 10
-308.266815
 20
206.420743
 30
0.0
 11
-340.01398
 21
206.420743
 31
0.0
  0
LINE
  5
581
100
AcDbEntity
  8
0
370
    -3
390
0
  6
Continuous
100
AcDbLine
 10
29.710974
 20
82.622008
 30
0.0
 11
30.233138
 21
83.120977
 31
0.0
  0
LINE
  5
582
100
AcDbEntity
  8
0
370
    -3
390
0
  6
Continuous
100
AcDbLine
 10
16.233185
 20
82.622008
 30
0.0
 11
29.710974
 21
82.622008
 31
0.0
  0
LINE
  5
583
100
AcDbEntity
  8
0
370
    -3
390
0
  6
Continuous
100
AcDbLine
 10
-138.244763
 20
82.62265
 30
0.0
 11
-138.766928
 21
83.121613
 31
0.0
  0
LINE
  5
584
100
AcDbEntity
  8
0
370
    -3
390
0
  6
Continuous
100
AcDbLine
 10
-68.766815
 20
82.623472
 30
0.0
 11
-84.576381
 21
82.623293
 31
0.0
  0
LINE
  5
585
100
AcDbEntity
  8
0
370
    -3
390
0
  6
Continuous
100
AcDbLine
 10
-138.766928
 20
83.121613
 30
0.0
 11
-139.244247
 21
93.622639
 31
0.0
  0
LINE
  5
586
100
AcDbEntity
  8
0
370
    -3
390
0
  6
Continuous
100
AcDbLine
 10
-130.511205
 20
93.622737
 30
0.0
 11
-139.244247
 21
93.622639
 31
0.0
  0
LINE
  5
587
100
AcDbEntity
  8
0
370
    -3
390
0
  6
Continuous
100
AcDbLine
 10
30.233138
 20
83.120977
 30
0.0
 11
30.710457
 21
93.622008
 31
0.0
  0
LINE
  5
588
100
AcDbEntity
  8
0
370
    -3
390
0
  6
Continuous
100
AcDbLine
 10
25.733185
 20
93.622008
 30
0.0
 11
30.710457
 21
93.622008
 31
0.0
  0
LINE
  5
589
100
AcDbEntity
  8
0
370
    -3
390
0
  6
Continuous
100
AcDbLine
 10
-68.366815
 20
78.621897
 30
0.0
 11
15.833185
 21
78.621897
 31
0.0
  0
LINE
  5
58A
100
AcDbEntity
  8
0
370
    -3
390
0
  6
Continuous
100
AcDbLine
 10
-68.716815
 20
80.123472
 30
0.0
 11
-68.766815
 21
80.123472
 31
0.0
  0
LINE
  5
58B
100
AcDbEntity
  8
0
370
    -3
390
0
  6
Continuous
100
AcDbLine
 10
-68.716815
 20
81.623472
 30
0.0
 11
-68.766815
 21
81.623472
 31
0.0
  0
LINE
  5
58C
100
AcDbEntity
  8
0
370
    -3
390
0
  6
Continuous
100
AcDbLine
 10
-68.766815
 20
79.021897
 30
0.0
 11
-68.766815
 21
80.123472
 31
0.0
  0
LINE
  5
58D
100
AcDbEntity
  8
0
370
    -3
390
0
  6
Continuous
100
AcDbLine
 10
-68.766815
 20
81.623472
 30
0.0
 11
-68.766815
 21
82.623472
 31
0.0
  0
LINE
  5
58E
100
AcDbEntity
  8
0
370
    -3
390
0
  6
Continuous
100
AcDbLine
 10
16.183185
 20
80.123472
 30
0.0
 11
16.233185
 21
80.123472
 31
0.0
  0
LINE
  5
58F
100
AcDbEntity
  8
0
370
    -3
390
0
  6
Continuous
100
AcDbLine
 10
16.183185
 20
81.623472
 30
0.0
 11
16.233185
 21
81.623472
 31
0.0
  0
LINE
  5
590
100
AcDbEntity
  8
0
370
    -3
390
0
  6
Continuous
100
AcDbLine
 10
16.233185
 20
79.021897
 30
0.0
 11
16.233185
 21
80.123472
 31
0.0
  0
LINE
  5
591
100
AcDbEntity
  8
0
370
    -3
390
0
  6
Continuous
100
AcDbLine
 10
16.233185
 20
81.623472
 30
0.0
 11
16.233185
 21
82.623472
 31
0.0
  0
LINE
  5
592
100
AcDbEntity
  8
0
370
    -3
390
0
  6
Continuous
100
AcDbLine
 10
16.233185
 20
81.623472
 30
0.0
 11
16.233185
 21
82.623472
 31
0.0
  0
LINE
  5
593
100
AcDbEntity
  8
0
370
    -3
390
0
  6
Continuous
100
AcDbLine
 10
16.183185
 20
81.623472
 30
0.0
 11
16.233185
 21
81.623472
 31
0.0
  0
LINE
  5
594
100
AcDbEntity
  8
0
370
    -3
390
0
  6
Continuous
100
AcDbLine
 10
16.183185
 20
80.123472
 30
0.0
 11
16.233185
 21
80.123472
 31
0.0
  0
LINE
  5
595
100
AcDbEntity
  8
0
370
    -3
390
0
  6
Continuous
100
AcDbLine
 10
16.083185
 20
81.523473
 30
0.0
 11
16.183185
 21
81.623472
 31
0.0
  0
LINE
  5
596
100
AcDbEntity
  8
0
370
    -3
390
0
  6
Continuous
100
AcDbLine
 10
16.083185
 20
80.223473
 30
0.0
 11
16.183185
 21
80.123472
 31
0.0
  0
LINE
  5
597
100
AcDbEntity
  8
0
370
    -3
390
0
  6
Continuous
100
AcDbLine
 10
-68.766815
 20
81.623472
 30
0.0
 11
-68.766815
 21
82.623472
 31
0.0
  0
LINE
  5
598
100
AcDbEntity
  8
0
370
    -3
390
0
  6
Continuous
100
AcDbLine
 10
-68.716815
 20
81.623472
 30
0.0
 11
-68.766815
 21
81.623472
 31
0.0
  0
LINE
  5
599
100
AcDbEntity
  8
0
370
    -3
390
0
  6
Continuous
100
AcDbLine
 10
-68.716815
 20
80.123472
 30
0.0
 11
-68.766815
 21
80.123472
 31
0.0
  0
LINE
  5
59A
100
AcDbEntity
  8
0
370
    -3
390
0
  6
Continuous
100
AcDbLine
 10
-68.616815
 20
81.523473
 30
0.0
 11
-68.716815
 21
81.623472
 31
0.0
  0
LINE
  5
59B
100
AcDbEntity
  8
0
370
    -3
390
0
  6
Continuous
100
AcDbLine
 10
-68.616815
 20
80.223473
 30
0.0
 11
-68.716815
 21
80.123472
 31
0.0
  0
LINE
  5
59C
100
AcDbEntity
  8
0
370
    -3
390
0
  6
Continuous
100
AcDbLine
 10
25.733185
 20
93.622008
 30
0.0
 11
30.710457
 21
93.622008
 31
0.0
  0
LINE
  5
59D
100
AcDbEntity
  8
0
370
    -3
390
0
  6
Continuous
100
AcDbLine
 10
30.233138
 20
83.120977
 30
0.0
 11
30.710457
 21
93.622008
 31
0.0
  0
LINE
  5
59E
100
AcDbEntity
  8
0
370
    -3
390
0
  6
Continuous
100
AcDbLine
 10
-130.511205
 20
93.622737
 30
0.0
 11
-139.244247
 21
93.622639
 31
0.0
  0
LINE
  5
59F
100
AcDbEntity
  8
0
370
    -3
390
0
  6
Continuous
100
AcDbLine
 10
-138.766928
 20
83.121613
 30
0.0
 11
-139.244247
 21
93.622639
 31
0.0
  0
LINE
  5
5A0
100
AcDbEntity
  8
0
370
    -3
390
0
  6
Continuous
100
AcDbLine
 10
-138.244763
 20
82.62265
 30
0.0
 11
-138.766928
 21
83.121613
 31
0.0
  0
LINE
  5
5A1
100
AcDbEntity
  8
0
370
    -3
390
0
  6
Continuous
100
AcDbLine
 10
16.233185
 20
82.622008
 30
0.0
 11
29.710974
 21
82.622008
 31
0.0
  0
LINE
  5
5A2
100
AcDbEntity
  8
0
370
    -3
390
0
  6
Continuous
100
AcDbLine
 10
29.710974
 20
82.622008
 30
0.0
 11
30.233138
 21
83.120977
 31
0.0
  0
LINE
  5
5A3
100
AcDbEntity
  8
0
370
    -3
390
0
  6
Continuous
100
AcDbLine
 10
-68.366815
 20
78.621897
 30
0.0
 11
-68.766815
 21
79.021897
 31
0.0
  0
LINE
  5
5A4
100
AcDbEntity
  8
0
370
    -3
390
0
  6
Continuous
100
AcDbLine
 10
16.233185
 20
79.021897
 30
0.0
 11
15.833185
 21
78.621897
 31
0.0
  0
LINE
  5
5A5
100
AcDbEntity
  8
0
370
    -3
390
0
  6
Continuous
100
AcDbLine
 10
-68.616815
 20
80.223473
 30
0.0
 11
-68.616815
 21
81.523473
 31
0.0
  0
LINE
  5
5A6
100
AcDbEntity
  8
0
370
    -3
390
0
  6
Continuous
100
AcDbLine
 10
16.083185
 20
80.223473
 30
0.0
 11
16.083185
 21
81.523473
 31
0.0
  0
LINE
  5
5A7
100
AcDbEntity
  8
0
370
    -3
390
0
  6
Continuous
100
AcDbLine
 10
-158.766815
 20
62.620743
 30
0.0
 11
-158.766815
 21
200.620743
 31
0.0
  0
LINE
  5
5A8
100
AcDbEntity
  8
0
370
    -3
390
0
  6
Continuous
100
AcDbLine
 10
-83.086385
 20
180.618836
 30
0.0
 11
-83.715248
 21
180.618829
 31
0.0
  0
LINE
  5
5A9
100
AcDbEntity
  8
0
370
    -3
390
0
  6
Continuous
100
AcDbLine
 10
-84.508779
 20
93.620743
 30
0.0
 11
-140.266815
 21
93.620743
 31
0.0
  0
LINE
  5
5AA
100
AcDbEntity
  8
0
370
    -3
390
0
  6
Continuous
100
AcDbLine
 10
-68.767001
 20
79.022378
 30
0.0
 11
-68.766989
 21
80.122489
 31
0.0
  0
LINE
  5
5AB
100
AcDbEntity
  8
0
370
    -3
390
0
  6
Continuous
100
AcDbLine
 10
-68.616988
 20
80.222487
 30
0.0
 11
-68.716989
 21
80.122488
 31
0.0
  0
LINE
  5
5AC
100
AcDbEntity
  8
0
370
    -3
390
0
  6
Continuous
100
AcDbLine
 10
-68.716989
 20
80.122488
 30
0.0
 11
-68.766989
 21
80.122489
 31
0.0
  0
LINE
  5
5AD
100
AcDbEntity
  8
0
370
    -3
390
0
  6
Continuous
100
AcDbLine
 10
15.833375
 20
78.621897
 30
0.0
 11
16.23337
 21
79.021897
 31
0.0
  0
LINE
  5
5AE
100
AcDbEntity
  8
0
370
    -3
390
0
  6
Continuous
100
AcDbLine
 10
-26.465815
 20
78.621897
 30
0.0
 11
15.833375
 21
78.621897
 31
0.0
  0
LINE
  5
5AF
100
AcDbEntity
  8
0
370
    -3
390
0
  6
Continuous
100
AcDbLine
 10
16.23337
 20
79.021897
 30
0.0
 11
16.233355
 21
80.372489
 31
0.0
  0
LINE
  5
5B0
100
AcDbEntity
  8
0
370
    -3
390
0
  6
Continuous
100
AcDbLine
 10
-68.767001
 20
79.022378
 30
0.0
 11
-68.367006
 21
78.622373
 31
0.0
  0
LINE
  5
5B1
100
AcDbEntity
  8
0
370
    -3
390
0
  6
Continuous
100
AcDbLine
 10
-26.067815
 20
78.621895
 30
0.0
 11
-68.367006
 21
78.622373
 31
0.0
  0
LINE
  5
5B2
100
AcDbEntity
  8
0
370
    -3
390
0
  6
Continuous
100
AcDbLine
 10
16.183355
 20
80.372488
 30
0.0
 11
16.233355
 21
80.372489
 31
0.0
  0
LINE
  5
5B3
100
AcDbEntity
  8
0
370
    -3
390
0
  6
Continuous
100
AcDbLine
 10
16.233341
 20
81.622489
 30
0.0
 11
16.23333
 21
82.622489
 31
0.0
  0
LINE
  5
5B4
100
AcDbEntity
  8
0
370
    -3
390
0
  6
Continuous
100
AcDbLine
 10
16.183341
 20
81.622488
 30
0.0
 11
16.233341
 21
81.622489
 31
0.0
  0
LINE
  5
5B5
100
AcDbEntity
  8
0
370
    -3
390
0
  6
Continuous
100
AcDbLine
 10
16.183355
 20
80.372488
 30
0.0
 11
16.083354
 21
80.472487
 31
0.0
  0
LINE
  5
5B6
100
AcDbEntity
  8
0
370
    -3
390
0
  6
Continuous
100
AcDbLine
 10
16.183341
 20
81.622488
 30
0.0
 11
16.083342
 21
81.522487
 31
0.0
  0
LINE
  5
5B7
100
AcDbEntity
  8
0
370
    -3
390
0
  6
Continuous
100
AcDbLine
 10
-68.766972
 20
81.622489
 30
0.0
 11
-68.76696
 21
82.622489
 31
0.0
  0
LINE
  5
5B8
100
AcDbEntity
  8
0
370
    -3
390
0
  6
Continuous
100
AcDbLine
 10
-68.716972
 20
81.622488
 30
0.0
 11
-68.766972
 21
81.622489
 31
0.0
  0
LINE
  5
5B9
100
AcDbEntity
  8
0
370
    -3
390
0
  6
Continuous
100
AcDbLine
 10
-68.716972
 20
81.622488
 30
0.0
 11
-68.616973
 21
81.522487
 31
0.0
  0
LINE
  5
5BA
100
AcDbEntity
  8
0
370
    -3
390
0
  6
Continuous
100
AcDbLine
 10
16.233375
 20
82.622008
 30
0.0
 11
28.733471
 21
82.622008
 31
0.0
  0
LINE
  5
5BB
100
AcDbEntity
  8
0
370
    -3
390
0
  6
Continuous
100
AcDbLine
 10
16.083354
 20
80.472487
 30
0.0
 11
16.083342
 21
81.522487
 31
0.0
  0
LINE
  5
5BC
100
AcDbEntity
  8
0
370
    -3
390
0
  6
Continuous
100
AcDbLine
 10
-68.616988
 20
80.222487
 30
0.0
 11
-68.616973
 21
81.522487
 31
0.0
  0
LINE
  5
5BD
100
AcDbEntity
  8
0
370
    -3
390
0
  6
Continuous
100
AcDbLine
 10
29.233386
 20
82.621381
 30
0.0
 11
-101.641016
 21
82.62286
 31
0.0
  0
LINE
  5
5BE
100
AcDbEntity
  8
0
370
    -3
390
0
  6
Continuous
100
AcDbLine
 10
-160.766815
 20
203.120743
 30
0.0
 11
-165.266815
 21
203.120743
 31
0.0
  0
LINE
  5
5BF
100
AcDbEntity
  8
0
370
    -3
390
0
  6
Continuous
100
AcDbLine
 10
-165.266815
 20
194.370743
 30
0.0
 11
-165.266815
 21
203.120743
 31
0.0
  0
ARC
  5
5C0
100
AcDbEntity
  8
0
370
    -3
390
0
  6
Continuous
100
AcDbCircle
 10
-155.766815
 20
200.620743
 30
0.0
 40
3.0
100
AcDbArc
 50
180.0
 51
270.0
  0
ARC
  5
5C1
100
AcDbEntity
  8
0
370
    -3
390
0
  6
Continuous
100
AcDbCircle
 10
-160.766815
 20
201.120743
 30
0.0
 40
2.0
100
AcDbArc
 50
0.0
 51
90.0
  0
LINE
  5
5C2
100
AcDbEntity
  8
0
370
    -3
390
0
  6
Continuous
100
AcDbLine
 10
-158.766815
 20
200.620743
 30
0.0
 11
-158.766815
 21
201.120743
 31
0.0
  0
LINE
  5
5C3
100
AcDbEntity
  8
0
370
    -3
390
0
  6
Continuous
100
AcDbLine
 10
-68.767001
 20
184.219108
 30
0.0
 11
-68.766989
 21
183.118997
 31
0.0
  0
LINE
  5
5C4
100
AcDbEntity
  8
0
370
    -3
390
0
  6
Continuous
100
AcDbLine
 10
-68.616988
 20
183.018999
 30
0.0
 11
-68.716989
 21
183.118998
 31
0.0
  0
LINE
  5
5C5
100
AcDbEntity
  8
0
370
    -3
390
0
  6
Continuous
100
AcDbLine
 10
-68.716989
 20
183.118998
 30
0.0
 11
-68.766989
 21
183.118997
 31
0.0
  0
LINE
  5
5C6
100
AcDbEntity
  8
0
370
    -3
390
0
  6
CENTER
100
AcDbLine
 10
-26.266815
 20
194.321015
 30
0.0
 11
-26.266815
 21
71.098582
 31
0.0
  0
LINE
  5
5C7
100
AcDbEntity
  8
0
370
    -3
390
0
  6
Continuous
100
AcDbLine
 10
15.833375
 20
184.619589
 30
0.0
 11
16.23337
 21
184.219589
 31
0.0
  0
LINE
  5
5C8
100
AcDbEntity
  8
0
370
    -3
390
0
  6
Continuous
100
AcDbLine
 10
-26.465815
 20
184.619589
 30
0.0
 11
15.833375
 21
184.619589
 31
0.0
  0
LINE
  5
5C9
100
AcDbEntity
  8
0
370
    -3
390
0
  6
Continuous
100
AcDbLine
 10
16.23337
 20
184.219589
 30
0.0
 11
16.233355
 21
182.868997
 31
0.0
  0
LINE
  5
5CA
100
AcDbEntity
  8
0
370
    -3
390
0
  6
Continuous
100
AcDbLine
 10
-68.767001
 20
184.219108
 30
0.0
 11
-68.367006
 21
184.619113
 31
0.0
  0
LINE
  5
5CB
100
AcDbEntity
  8
0
370
    -3
390
0
  6
Continuous
100
AcDbLine
 10
-26.067815
 20
184.619591
 30
0.0
 11
-68.367006
 21
184.619113
 31
0.0
  0
LINE
  5
5CC
100
AcDbEntity
  8
0
370
    -3
390
0
  6
Continuous
100
AcDbLine
 10
16.183355
 20
182.868998
 30
0.0
 11
16.233355
 21
182.868997
 31
0.0
  0
LINE
  5
5CD
100
AcDbEntity
  8
0
370
    -3
390
0
  6
Continuous
100
AcDbLine
 10
16.233341
 20
181.618997
 30
0.0
 11
16.23333
 21
180.618997
 31
0.0
  0
LINE
  5
5CE
100
AcDbEntity
  8
0
370
    -3
390
0
  6
Continuous
100
AcDbLine
 10
16.183341
 20
181.618998
 30
0.0
 11
16.233341
 21
181.618997
 31
0.0
  0
LINE
  5
5CF
100
AcDbEntity
  8
0
370
    -3
390
0
  6
Continuous
100
AcDbLine
 10
16.183355
 20
182.868998
 30
0.0
 11
16.083354
 21
182.768999
 31
0.0
  0
LINE
  5
5D0
100
AcDbEntity
  8
0
370
    -3
390
0
  6
Continuous
100
AcDbLine
 10
16.183341
 20
181.618998
 30
0.0
 11
16.083342
 21
181.718999
 31
0.0
  0
LINE
  5
5D1
100
AcDbEntity
  8
0
370
    -3
390
0
  6
Continuous
100
AcDbLine
 10
-68.766972
 20
181.618997
 30
0.0
 11
-68.76696
 21
180.618997
 31
0.0
  0
LINE
  5
5D2
100
AcDbEntity
  8
0
370
    -3
390
0
  6
Continuous
100
AcDbLine
 10
-68.716972
 20
181.618998
 30
0.0
 11
-68.766972
 21
181.618997
 31
0.0
  0
LINE
  5
5D3
100
AcDbEntity
  8
0
370
    -3
390
0
  6
Continuous
100
AcDbLine
 10
-68.716972
 20
181.618998
 30
0.0
 11
-68.616973
 21
181.718999
 31
0.0
  0
LINE
  5
5D4
100
AcDbEntity
  8
0
370
    -3
390
0
  6
Continuous
100
AcDbLine
 10
26.733185
 20
93.620743
 30
0.0
 11
-84.576379
 21
93.620743
 31
0.0
  0
LINE
  5
5D5
100
AcDbEntity
  8
0
370
    -3
390
0
  6
Continuous
100
AcDbLine
 10
30.741996
 20
93.620743
 30
0.0
 11
26.733185
 21
93.620743
 31
0.0
  0
LINE
  5
5D6
100
AcDbEntity
  8
0
370
    -3
390
0
  6
Continuous
100
AcDbLine
 10
-135.279877
 20
93.620743
 30
0.0
 11
-140.266815
 21
93.620743
 31
0.0
  0
LINE
  5
5D7
100
AcDbEntity
  8
0
370
    -3
390
0
  6
Continuous
100
AcDbLine
 10
-140.266815
 20
93.620743
 30
0.0
 11
-140.266815
 21
93.120743
 31
0.0
  0
ARC
  5
5D8
100
AcDbEntity
  8
0
370
    -3
390
0
  6
Continuous
100
AcDbCircle
 10
-140.266815
 20
91.120743
 30
0.0
 40
2.0
100
AcDbArc
 50
90.0
 51
180.0
  0
LINE
  5
5D9
100
AcDbEntity
  8
0
370
    -3
390
0
  6
Continuous
100
AcDbLine
 10
28.733471
 20
180.619478
 30
0.0
 11
29.242015
 21
180.119626
 31
0.0
  0
LINE
  5
5DA
100
AcDbEntity
  8
0
370
    -3
390
0
  6
Continuous
100
AcDbLine
 10
16.233375
 20
180.619478
 30
0.0
 11
28.733471
 21
180.619478
 31
0.0
  0
LINE
  5
5DB
100
AcDbEntity
  8
0
370
    -3
390
0
  6
Continuous
100
AcDbLine
 10
-137.266903
 20
180.618187
 30
0.0
 11
-138.715433
 21
179.1944
 31
0.0
  0
LINE
  5
5DC
100
AcDbEntity
  8
0
370
    -3
390
0
  6
Continuous
100
AcDbLine
 10
29.233386
 20
180.620105
 30
0.0
 11
-99.639384
 21
180.618649
 31
0.0
  0
LINE
  5
5DD
100
AcDbEntity
  8
0
370
    -3
390
0
  6
Continuous
100
AcDbLine
 10
30.733375
 20
93.620743
 30
0.0
 11
29.242015
 21
180.119626
 31
0.0
  0
LINE
  5
5DE
100
AcDbEntity
  8
0
370
    -3
390
0
  6
Continuous
100
AcDbLine
 10
-160.766815
 20
60.120743
 30
0.0
 11
-165.266815
 21
60.120743
 31
0.0
  0
LINE
  5
5DF
100
AcDbEntity
  8
0
370
    -3
390
0
  6
Continuous
100
AcDbLine
 10
-165.266815
 20
203.120743
 30
0.0
 11
-165.266815
 21
60.120743
 31
0.0
  0
LINE
  5
5E0
100
AcDbEntity
  8
0
370
    -3
390
0
  6
Continuous
100
AcDbLine
 10
-165.266815
 20
194.370743
 30
0.0
 11
-165.266815
 21
203.120743
 31
0.0
  0
ARC
  5
5E1
100
AcDbEntity
  8
0
370
    -3
390
0
  6
Continuous
100
AcDbCircle
 10
-140.117443
 20
180.620743
 30
0.0
 40
2.0
100
AcDbArc
 50
270.0
 51
314.506443
  0
LINE
  5
5E2
100
AcDbEntity
  8
0
370
    -3
390
0
  6
Continuous
100
AcDbLine
 10
-140.117443
 20
178.620743
 30
0.0
 11
-140.266815
 21
178.620743
 31
0.0
  0
LINE
  5
5E3
100
AcDbEntity
  8
0
370
    -3
390
0
  6
Continuous
100
AcDbLine
 10
-142.266815
 20
192.620743
 30
0.0
 11
-142.266815
 21
70.620743
 31
0.0
  0
ARC
  5
5E4
100
AcDbEntity
  8
0
370
    -3
390
0
  6
Continuous
100
AcDbCircle
 10
-147.266815
 20
192.620743
 30
0.0
 40
5.0
100
AcDbArc
 50
0.0
 51
90.0
  0
ARC
  5
5E5
100
AcDbEntity
  8
0
370
    -3
390
0
  6
Continuous
100
AcDbCircle
 10
-155.766815
 20
200.620743
 30
0.0
 40
3.0
100
AcDbArc
 50
180.0
 51
270.0
  0
ARC
  5
5E6
100
AcDbEntity
  8
0
370
    -3
390
0
  6
Continuous
100
AcDbCircle
 10
-160.766815
 20
201.120743
 30
0.0
 40
2.0
100
AcDbArc
 50
0.0
 51
90.0
  0
LINE
  5
5E7
100
AcDbEntity
  8
0
370
    -3
390
0
  6
Continuous
100
AcDbLine
 10
-158.766815
 20
200.620743
 30
0.0
 11
-158.766815
 21
201.120743
 31
0.0
  0
LINE
  5
5E8
100
AcDbEntity
  8
0
370
    -3
390
0
  6
Continuous
100
AcDbLine
 10
-155.766815
 20
197.620743
 30
0.0
 11
-147.266815
 21
197.620743
 31
0.0
  0
LINE
  5
5E9
100
AcDbEntity
  8
0
370
    -3
390
0
  6
Continuous
100
AcDbLine
 10
-142.266815
 20
180.620743
 30
0.0
 11
-142.266815
 21
192.620743
 31
0.0
  0
ARC
  5
5EA
100
AcDbEntity
  8
0
370
    -3
390
0
  6
Continuous
100
AcDbCircle
 10
-147.266815
 20
70.620743
 30
0.0
 40
5.0
100
AcDbArc
 50
270.0
 51
0.0
  0
ARC
  5
5EB
100
AcDbEntity
  8
0
370
    -3
390
0
  6
Continuous
100
AcDbCircle
 10
-155.766815
 20
62.620743
 30
0.0
 40
3.0
100
AcDbArc
 50
90.0
 51
180.0
  0
LINE
  5
5EC
100
AcDbEntity
  8
0
370
    -3
390
0
  6
Continuous
100
AcDbLine
 10
-155.766815
 20
65.620743
 30
0.0
 11
-147.266815
 21
65.620743
 31
0.0
  0
ARC
  5
5ED
100
AcDbEntity
  8
0
370
    -3
390
0
  6
Continuous
100
AcDbCircle
 10
-140.266815
 20
180.620743
 30
0.0
 40
2.0
100
AcDbArc
 50
180.0
 51
270.0
  0
ARC
  5
5EE
100
AcDbEntity
  8
0
370
    -3
390
0
  6
Continuous
100
AcDbCircle
 10
-160.766815
 20
62.120743
 30
0.0
 40
2.0
100
AcDbArc
 50
270.0
 51
0.0
  0
LINE
  5
5EF
100
AcDbEntity
  8
0
370
    -3
390
0
  6
Continuous
100
AcDbLine
 10
-158.766815
 20
62.620743
 30
0.0
 11
-158.766815
 21
62.120743
 31
0.0
  0
LINE
  5
5F0
100
AcDbEntity
  8
0
370
    -3
390
0
  6
Continuous
100
AcDbLine
 10
16.083354
 20
182.768999
 30
0.0
 11
16.083342
 21
181.718999
 31
0.0
  0
LINE
  5
5F1
100
AcDbEntity
  8
0
370
    -3
390
0
  6
Continuous
100
AcDbLine
 10
-68.616988
 20
183.018999
 30
0.0
 11
-68.616973
 21
181.718999
 31
0.0
  0
LINE
  5
5F2
100
AcDbEntity
  8
0
370
    -3
390
0
  6
Continuous
100
AcDbLine
 10
-460.823352
 20
-27.399239
 30
0.0
 11
-441.994995
 21
-27.032667
 31
0.0
  0
LINE
  5
5F3
100
AcDbEntity
  8
0
370
    -3
390
0
  6
Continuous
100
AcDbLine
 10
-528.994995
 20
-37.368948
 30
0.0
 11
-528.994995
 21
-29.558979
 31
0.0
  0
LINE
  5
5F4
100
AcDbEntity
  8
0
370
    -3
390
0
  6
Continuous
100
AcDbLine
 10
-430.994995
 20
-37.368948
 30
0.0
 11
-430.994995
 21
-27.609871
 31
0.0
  0
LINE
  5
5F5
100
AcDbEntity
  8
0
370
    -3
390
0
  6
Continuous
100
AcDbLine
 10
-441.994995
 20
-31.224544
 30
0.0
 11
-441.994995
 21
-26.58766
 31
0.0
  0
ARC
  5
5F6
100
AcDbEntity
  8
0
370
    -3
390
0
  6
Continuous
100
AcDbCircle
 10
-479.994995
 20
-327.58766
 30
0.0
 40
300.8
100
AcDbArc
 50
86.345747
 51
90.0
  0
ARC
  5
5F7
100
AcDbEntity
  8
0
370
    -3
390
0
  6
Continuous
100
AcDbCircle
 10
-479.994995
 20
-327.58766
 30
0.0
 40
300.8
100
AcDbArc
 50
90.0
 51
94.33985
  0
LINE
  5
5F8
100
AcDbEntity
  8
0
370
    -3
390
0
  6
Continuous
100
AcDbLine
 10
-519.494995
 20
-28.541526
 30
0.0
 11
-507.962494
 21
-28.316998
 31
0.0
  0
LINE
  5
5F9
100
AcDbEntity
  8
0
370
    -3
390
0
  6
Continuous
100
AcDbLine
 10
-527.995148
 20
-28.541526
 30
0.0
 11
-528.994995
 21
-29.558979
 31
0.0
  0
LINE
  5
5FA
100
AcDbEntity
  8
0
370
    -3
390
0
  6
Continuous
100
AcDbLine
 10
-527.995148
 20
-28.541526
 30
0.0
 11
-519.494995
 21
-28.541526
 31
0.0
  0
LINE
  5
5FB
100
AcDbEntity
  8
0
370
    -3
390
0
  6
Continuous
100
AcDbLine
 10
-431.493964
 20
-27.087707
 30
0.0
 11
-430.994995
 21
-27.609871
 31
0.0
  0
LINE
  5
5FC
100
AcDbEntity
  8
0
370
    -3
390
0
  6
Continuous
100
AcDbLine
 10
-431.493964
 20
-27.087707
 30
0.0
 11
-441.994995
 21
-26.610388
 31
0.0
  0
LINE
  5
5FD
100
AcDbEntity
  8
0
370
    -3
390
0
  6
Continuous
100
AcDbLine
 10
-430.994995
 20
-37.368948
 30
0.0
 11
-430.994995
 21
-29.558979
 31
0.0
  0
ARC
  5
5FE
100
AcDbEntity
  8
0
370
    -3
390
0
  6
Continuous
100
AcDbCircle
 10
-469.504037
 20
-72.416788
 30
0.0
 40
2.0
100
AcDbArc
 50
250.21948
 51
330.0
  0
ARC
  5
5FF
100
AcDbEntity
  8
0
370
    -3
390
0
  6
Continuous
100
AcDbCircle
 10
-520.624418
 20
-107.08766
 30
0.0
 40
2.0
100
AcDbArc
 50
7.70926
 51
90.0
  0
ARC
  5
600
100
AcDbEntity
  8
0
370
    -3
390
0
  6
Continuous
100
AcDbCircle
 10
-510.503191
 20
-107.08766
 30
0.0
 40
2.0
100
AcDbArc
 50
10.21948
 51
90.0
  0
ARC
  5
601
100
AcDbEntity
  8
0
370
    -3
390
0
  6
Continuous
100
AcDbCircle
 10
-510.503191
 20
-96.08766
 30
0.0
 40
2.0
100
AcDbArc
 50
270.0
 51
349.78052
  0
ARC
  5
602
100
AcDbEntity
  8
0
370
    -3
390
0
  6
Continuous
100
AcDbCircle
 10
-520.624418
 20
-96.08766
 30
0.0
 40
2.0
100
AcDbArc
 50
270.0
 51
352.29074
  0
ARC
  5
603
100
AcDbEntity
  8
0
370
    -3
390
0
  6
Continuous
100
AcDbCircle
 10
-505.274053
 20
-136.372273
 30
0.0
 40
2.0
100
AcDbArc
 50
233.992931
 51
330.0
  0
ARC
  5
604
100
AcDbEntity
  8
0
370
    -3
390
0
  6
Continuous
100
AcDbCircle
 10
-510.296418
 20
-145.071264
 30
0.0
 40
2.0
100
AcDbArc
 50
235.1294
 51
330.0
  0
ARC
  5
605
100
AcDbEntity
  8
0
370
    -3
390
0
  6
Continuous
100
AcDbCircle
 10
-504.26826
 20
-134.630188
 30
0.0
 40
2.0
100
AcDbArc
 50
330.0
 51
53.698744
  0
ARC
  5
606
100
AcDbEntity
  8
0
370
    -3
390
0
  6
Continuous
100
AcDbCircle
 10
-502.502189
 20
-149.571264
 30
0.0
 40
2.0
100
AcDbArc
 50
150.0
 51
244.8706
  0
ARC
  5
607
100
AcDbEntity
  8
0
370
    -3
390
0
  6
Continuous
100
AcDbCircle
 10
-501.498422
 20
-147.832689
 30
0.0
 40
2.0
100
AcDbArc
 50
65.062093
 51
150.0
  0
ARC
  5
608
100
AcDbEntity
  8
0
370
    -3
390
0
  6
Continuous
100
AcDbCircle
 10
-497.479824
 20
-140.872273
 30
0.0
 40
2.0
100
AcDbArc
 50
150.0
 51
246.007069
  0
ARC
  5
609
100
AcDbEntity
  8
0
370
    -3
390
0
  6
Continuous
100
AcDbCircle
 10
-496.474031
 20
-139.130188
 30
0.0
 40
2.0
100
AcDbArc
 50
66.301256
 51
150.0
  0
ARC
  5
60A
100
AcDbEntity
  8
0
370
    -3
390
0
  6
Continuous
100
AcDbCircle
 10
-492.443752
 20
-132.14954
 30
0.0
 40
2.0
100
AcDbArc
 50
150.0
 51
247.83748
  0
ARC
  5
60B
100
AcDbEntity
  8
0
370
    -3
390
0
  6
Continuous
100
AcDbCircle
 10
-500.237981
 20
-127.64954
 30
0.0
 40
2.0
100
AcDbArc
 50
232.16252
 51
330.0
  0
ARC
  5
60C
100
AcDbEntity
  8
0
370
    -3
390
0
  6
Continuous
100
AcDbCircle
 10
-499.227934
 20
-125.900087
 30
0.0
 40
2.0
100
AcDbArc
 50
330.0
 51
51.653381
  0
ARC
  5
60D
100
AcDbEntity
  8
0
370
    -3
390
0
  6
Continuous
100
AcDbCircle
 10
-491.433705
 20
-130.400087
 30
0.0
 40
2.0
100
AcDbArc
 50
68.346619
 51
150.0
  0
ARC
  5
60E
100
AcDbEntity
  8
0
370
    -3
390
0
  6
Continuous
100
AcDbCircle
 10
-487.375625
 20
-123.371285
 30
0.0
 40
2.0
100
AcDbArc
 50
150.0
 51
251.282824
  0
ARC
  5
60F
100
AcDbEntity
  8
0
370
    -3
390
0
  6
Continuous
100
AcDbCircle
 10
-486.353977
 20
-121.601739
 30
0.0
 40
2.0
100
AcDbArc
 50
72.373625
 51
150.0
  0
ARC
  5
610
100
AcDbEntity
  8
0
370
    -3
390
0
  6
Continuous
100
AcDbCircle
 10
-495.169853
 20
-118.871285
 30
0.0
 40
2.0
100
AcDbArc
 50
228.717176
 51
330.0
  0
ARC
  5
611
100
AcDbEntity
  8
0
370
    -3
390
0
  6
Continuous
100
AcDbCircle
 10
-494.148205
 20
-117.101739
 30
0.0
 40
2.0
100
AcDbArc
 50
330.0
 51
47.626375
  0
ARC
  5
612
100
AcDbEntity
  8
0
370
    -3
390
0
  6
Continuous
100
AcDbCircle
 10
-500.261964
 20
-96.08766
 30
0.0
 40
2.0
100
AcDbArc
 50
270.0
 51
344.816886
  0
ARC
  5
613
100
AcDbEntity
  8
0
370
    -3
390
0
  6
Continuous
100
AcDbCircle
 10
-500.261964
 20
-107.08766
 30
0.0
 40
2.0
100
AcDbArc
 50
15.183114
 51
90.0
  0
ARC
  5
614
100
AcDbEntity
  8
0
370
    -3
390
0
  6
Continuous
100
AcDbCircle
 10
-489.990265
 20
-109.899976
 30
0.0
 40
2.0
100
AcDbArc
 50
219.747753
 51
330.0
  0
ARC
  5
615
100
AcDbEntity
  8
0
370
    -3
390
0
  6
Continuous
100
AcDbCircle
 10
-491.774214
 20
-107.08766
 30
0.0
 40
2.0
100
AcDbArc
 50
90.0
 51
205.028999
  0
ARC
  5
616
100
AcDbEntity
  8
0
370
    -3
390
0
  6
Continuous
100
AcDbCircle
 10
-489.521275
 20
-107.08766
 30
0.0
 40
2.0
100
AcDbArc
 50
30.0
 51
90.0
  0
ARC
  5
617
100
AcDbEntity
  8
0
370
    -3
390
0
  6
Continuous
100
AcDbCircle
 10
-482.196036
 20
-114.399976
 30
0.0
 40
2.0
100
AcDbArc
 50
150.0
 51
260.252247
  0
ARC
  5
618
100
AcDbEntity
  8
0
370
    -3
390
0
  6
Continuous
100
AcDbCircle
 10
-481.116596
 20
-112.53033
 30
0.0
 40
2.0
100
AcDbArc
 50
84.14774
 51
150.0
  0
ARC
  5
619
100
AcDbEntity
  8
0
370
    -3
390
0
  6
Continuous
100
AcDbCircle
 10
-479.994995
 20
-112.58766
 30
0.0
 40
2.0
100
AcDbArc
 50
30.0
 51
90.0
  0
ARC
  5
61A
100
AcDbEntity
  8
0
370
    -3
390
0
  6
Continuous
100
AcDbCircle
 10
-478.868526
 20
-114.538763
 30
0.0
 40
2.0
100
AcDbArc
 50
274.971001
 51
30.0
  0
ARC
  5
61B
100
AcDbEntity
  8
0
370
    -3
390
0
  6
Continuous
100
AcDbCircle
 10
-474.624651
 20
-121.88937
 30
0.0
 40
2.0
100
AcDbArc
 50
30.0
 51
104.816886
  0
ARC
  5
61C
100
AcDbEntity
  8
0
370
    -3
390
0
  6
Continuous
100
AcDbCircle
 10
-473.591779
 20
-123.678356
 30
0.0
 40
2.0
100
AcDbArc
 50
286.164776
 51
30.0
  0
ARC
  5
61D
100
AcDbEntity
  8
0
370
    -3
390
0
  6
Continuous
100
AcDbCircle
 10
-469.504037
 20
-130.758533
 30
0.0
 40
2.0
100
AcDbArc
 50
30.0
 51
109.78052
  0
ARC
  5
61E
100
AcDbEntity
  8
0
370
    -3
390
0
  6
Continuous
100
AcDbCircle
 10
-468.488916
 20
-132.516775
 30
0.0
 40
2.0
100
AcDbArc
 50
290.405932
 51
30.0
  0
ARC
  5
61F
100
AcDbEntity
  8
0
370
    -3
390
0
  6
Continuous
100
AcDbCircle
 10
-464.443424
 20
-139.523773
 30
0.0
 40
2.0
100
AcDbArc
 50
30.0
 51
112.29074
  0
ARC
  5
620
100
AcDbEntity
  8
0
370
    -3
390
0
  6
Continuous
100
AcDbCircle
 10
-463.434732
 20
-141.270877
 30
0.0
 40
2.0
100
AcDbArc
 50
292.651339
 51
30.0
  0
ARC
  5
621
100
AcDbEntity
  8
0
370
    -3
390
0
  6
Continuous
100
AcDbCircle
 10
-459.406853
 20
-148.247369
 30
0.0
 40
2.0
100
AcDbArc
 50
30.0
 51
113.809003
  0
ARC
  5
622
100
AcDbEntity
  8
0
370
    -3
390
0
  6
Continuous
100
AcDbCircle
 10
-458.40121
 20
-149.989194
 30
0.0
 40
2.0
100
AcDbArc
 50
294.043488
 51
30.0
  0
ARC
  5
623
100
AcDbEntity
  8
0
370
    -3
390
0
  6
Continuous
100
AcDbCircle
 10
-450.69734
 20
-143.332689
 30
0.0
 40
2.0
100
AcDbArc
 50
125.062093
 51
210.0
  0
ARC
  5
624
100
AcDbEntity
  8
0
370
    -3
390
0
  6
Continuous
100
AcDbCircle
 10
-449.693573
 20
-145.071264
 30
0.0
 40
2.0
100
AcDbArc
 50
210.0
 51
304.8706
  0
ARC
  5
625
100
AcDbEntity
  8
0
370
    -3
390
0
  6
Continuous
100
AcDbCircle
 10
-447.456557
 20
-107.08766
 30
0.0
 40
2.0
100
AcDbArc
 50
350.405932
 51
90.0
  0
ARC
  5
626
100
AcDbEntity
  8
0
370
    -3
390
0
  6
Continuous
100
AcDbCircle
 10
-449.4868
 20
-107.08766
 30
0.0
 40
2.0
100
AcDbArc
 50
90.0
 51
169.78052
  0
ARC
  5
627
100
AcDbEntity
  8
0
370
    -3
390
0
  6
Continuous
100
AcDbCircle
 10
-460.762057
 20
-125.900087
 30
0.0
 40
2.0
100
AcDbArc
 50
128.346619
 51
210.0
  0
ARC
  5
628
100
AcDbEntity
  8
0
370
    -3
390
0
  6
Continuous
100
AcDbCircle
 10
-459.75201
 20
-127.64954
 30
0.0
 40
2.0
100
AcDbArc
 50
210.0
 51
307.83748
  0
ARC
  5
629
100
AcDbEntity
  8
0
370
    -3
390
0
  6
Continuous
100
AcDbCircle
 10
-455.721731
 20
-134.630188
 30
0.0
 40
2.0
100
AcDbArc
 50
126.301256
 51
210.0
  0
ARC
  5
62A
100
AcDbEntity
  8
0
370
    -3
390
0
  6
Continuous
100
AcDbCircle
 10
-454.715938
 20
-136.372273
 30
0.0
 40
2.0
100
AcDbArc
 50
210.0
 51
306.007069
  0
ARC
  5
62B
100
AcDbEntity
  8
0
370
    -3
390
0
  6
Continuous
100
AcDbCircle
 10
-429.292431
 20
-107.08766
 30
0.0
 40
2.0
100
AcDbArc
 50
90.0
 51
173.809003
  0
ARC
  5
62C
100
AcDbEntity
  8
0
370
    -3
390
0
  6
Continuous
100
AcDbCircle
 10
-427.281145
 20
-107.08766
 30
0.0
 40
2.0
100
AcDbArc
 50
354.043488
 51
90.0
  0
ARC
  5
62D
100
AcDbEntity
  8
0
370
    -3
390
0
  6
Continuous
100
AcDbCircle
 10
-437.34819
 20
-107.08766
 30
0.0
 40
2.0
100
AcDbArc
 50
352.651339
 51
90.0
  0
ARC
  5
62E
100
AcDbEntity
  8
0
370
    -3
390
0
  6
Continuous
100
AcDbCircle
 10
-439.365573
 20
-107.08766
 30
0.0
 40
2.0
100
AcDbArc
 50
90.0
 51
172.29074
  0
ARC
  5
62F
100
AcDbEntity
  8
0
370
    -3
390
0
  6
Continuous
100
AcDbCircle
 10
-439.365573
 20
-96.08766
 30
0.0
 40
2.0
100
AcDbArc
 50
187.70926
 51
270.0
  0
ARC
  5
630
100
AcDbEntity
  8
0
370
    -3
390
0
  6
Continuous
100
AcDbCircle
 10
-449.4868
 20
-96.08766
 30
0.0
 40
2.0
100
AcDbArc
 50
190.21948
 51
270.0
  0
ARC
  5
631
100
AcDbEntity
  8
0
370
    -3
390
0
  6
Continuous
100
AcDbCircle
 10
-457.662284
 20
-107.08766
 30
0.0
 40
2.0
100
AcDbArc
 50
346.164776
 51
90.0
  0
ARC
  5
632
100
AcDbEntity
  8
0
370
    -3
390
0
  6
Continuous
100
AcDbCircle
 10
-464.820137
 20
-118.871285
 30
0.0
 40
2.0
100
AcDbArc
 50
210.0
 51
311.282824
  0
ARC
  5
633
100
AcDbEntity
  8
0
370
    -3
390
0
  6
Continuous
100
AcDbCircle
 10
-465.841785
 20
-117.101739
 30
0.0
 40
2.0
100
AcDbArc
 50
132.373625
 51
210.0
  0
ARC
  5
634
100
AcDbEntity
  8
0
370
    -3
390
0
  6
Continuous
100
AcDbCircle
 10
-459.728027
 20
-107.08766
 30
0.0
 40
2.0
100
AcDbArc
 50
90.0
 51
164.816886
  0
ARC
  5
635
100
AcDbEntity
  8
0
370
    -3
390
0
  6
Continuous
100
AcDbCircle
 10
-468.215776
 20
-107.08766
 30
0.0
 40
2.0
100
AcDbArc
 50
334.971001
 51
90.0
  0
ARC
  5
636
100
AcDbEntity
  8
0
370
    -3
390
0
  6
Continuous
100
AcDbCircle
 10
-469.999726
 20
-109.899976
 30
0.0
 40
2.0
100
AcDbArc
 50
210.0
 51
320.252247
  0
ARC
  5
637
100
AcDbEntity
  8
0
370
    -3
390
0
  6
Continuous
100
AcDbCircle
 10
-471.079166
 20
-108.03033
 30
0.0
 40
2.0
100
AcDbArc
 50
144.14774
 51
210.0
  0
ARC
  5
638
100
AcDbEntity
  8
0
370
    -3
390
0
  6
Continuous
100
AcDbCircle
 10
-470.468716
 20
-107.08766
 30
0.0
 40
2.0
100
AcDbArc
 50
90.0
 51
150.0
  0
ARC
  5
639
100
AcDbEntity
  8
0
370
    -3
390
0
  6
Continuous
100
AcDbCircle
 10
-470.468716
 20
-96.08766
 30
0.0
 40
2.0
100
AcDbArc
 50
210.0
 51
270.0
  0
ARC
  5
63A
100
AcDbEntity
  8
0
370
    -3
390
0
  6
Continuous
100
AcDbCircle
 10
-471.079166
 20
-95.144991
 30
0.0
 40
2.0
100
AcDbArc
 50
150.0
 51
215.85226
  0
ARC
  5
63B
100
AcDbEntity
  8
0
370
    -3
390
0
  6
Continuous
100
AcDbCircle
 10
-479.994995
 20
-90.58766
 30
0.0
 40
2.0
100
AcDbArc
 50
270.0
 51
330.0
  0
ARC
  5
63C
100
AcDbEntity
  8
0
370
    -3
390
0
  6
Continuous
100
AcDbCircle
 10
-481.116596
 20
-90.644991
 30
0.0
 40
2.0
100
AcDbArc
 50
210.0
 51
275.85226
  0
ARC
  5
63D
100
AcDbEntity
  8
0
370
    -3
390
0
  6
Continuous
100
AcDbCircle
 10
-492.443752
 20
-71.025781
 30
0.0
 40
2.0
100
AcDbArc
 50
112.16252
 51
210.0
  0
ARC
  5
63E
100
AcDbEntity
  8
0
370
    -3
390
0
  6
Continuous
100
AcDbCircle
 10
-487.375625
 20
-79.804036
 30
0.0
 40
2.0
100
AcDbArc
 50
108.717176
 51
210.0
  0
ARC
  5
63F
100
AcDbEntity
  8
0
370
    -3
390
0
  6
Continuous
100
AcDbCircle
 10
-486.353977
 20
-81.573582
 30
0.0
 40
2.0
100
AcDbArc
 50
210.0
 51
287.626375
  0
ARC
  5
640
100
AcDbEntity
  8
0
370
    -3
390
0
  6
Continuous
100
AcDbCircle
 10
-482.196036
 20
-88.775345
 30
0.0
 40
2.0
100
AcDbArc
 50
99.747753
 51
210.0
  0
ARC
  5
641
100
AcDbEntity
  8
0
370
    -3
390
0
  6
Continuous
100
AcDbCircle
 10
-478.868526
 20
-88.636558
 30
0.0
 40
2.0
100
AcDbArc
 50
330.0
 51
85.028999
  0
ARC
  5
642
100
AcDbEntity
  8
0
370
    -3
390
0
  6
Continuous
100
AcDbCircle
 10
-474.624651
 20
-81.285951
 30
0.0
 40
2.0
100
AcDbArc
 50
255.183114
 51
330.0
  0
ARC
  5
643
100
AcDbEntity
  8
0
370
    -3
390
0
  6
Continuous
100
AcDbCircle
 10
-473.591779
 20
-79.496965
 30
0.0
 40
2.0
100
AcDbArc
 50
330.0
 51
73.835224
  0
ARC
  5
644
100
AcDbEntity
  8
0
370
    -3
390
0
  6
Continuous
100
AcDbCircle
 10
-468.488916
 20
-70.658546
 30
0.0
 40
2.0
100
AcDbArc
 50
330.0
 51
69.594068
  0
ARC
  5
645
100
AcDbEntity
  8
0
370
    -3
390
0
  6
Continuous
100
AcDbCircle
 10
-459.75201
 20
-75.525781
 30
0.0
 40
2.0
100
AcDbArc
 50
52.16252
 51
150.0
  0
ARC
  5
646
100
AcDbEntity
  8
0
370
    -3
390
0
  6
Continuous
100
AcDbCircle
 10
-460.762057
 20
-77.275234
 30
0.0
 40
2.0
100
AcDbArc
 50
150.0
 51
231.653381
  0
ARC
  5
647
100
AcDbEntity
  8
0
370
    -3
390
0
  6
Continuous
100
AcDbCircle
 10
-464.820137
 20
-84.304036
 30
0.0
 40
2.0
100
AcDbArc
 50
48.717176
 51
150.0
  0
ARC
  5
648
100
AcDbEntity
  8
0
370
    -3
390
0
  6
Continuous
100
AcDbCircle
 10
-465.841785
 20
-86.073582
 30
0.0
 40
2.0
100
AcDbArc
 50
150.0
 51
227.626375
  0
ARC
  5
649
100
AcDbEntity
  8
0
370
    -3
390
0
  6
Continuous
100
AcDbCircle
 10
-469.999726
 20
-93.275345
 30
0.0
 40
2.0
100
AcDbArc
 50
39.747753
 51
150.0
  0
ARC
  5
64A
100
AcDbEntity
  8
0
370
    -3
390
0
  6
Continuous
100
AcDbCircle
 10
-468.215776
 20
-96.08766
 30
0.0
 40
2.0
100
AcDbArc
 50
270.0
 51
25.028999
  0
ARC
  5
64B
100
AcDbEntity
  8
0
370
    -3
390
0
  6
Continuous
100
AcDbCircle
 10
-459.728027
 20
-96.08766
 30
0.0
 40
2.0
100
AcDbArc
 50
195.183114
 51
270.0
  0
ARC
  5
64C
100
AcDbEntity
  8
0
370
    -3
390
0
  6
Continuous
100
AcDbCircle
 10
-457.662284
 20
-96.08766
 30
0.0
 40
2.0
100
AcDbArc
 50
270.0
 51
13.835224
  0
ARC
  5
64D
100
AcDbEntity
  8
0
370
    -3
390
0
  6
Continuous
100
AcDbCircle
 10
-447.456557
 20
-96.08766
 30
0.0
 40
2.0
100
AcDbArc
 50
270.0
 51
9.594068
  0
ARC
  5
64E
100
AcDbEntity
  8
0
370
    -3
390
0
  6
Continuous
100
AcDbCircle
 10
-437.34819
 20
-96.08766
 30
0.0
 40
2.0
100
AcDbArc
 50
270.0
 51
7.348661
  0
ARC
  5
64F
100
AcDbEntity
  8
0
370
    -3
390
0
  6
Continuous
100
AcDbCircle
 10
-429.292431
 20
-96.08766
 30
0.0
 40
2.0
100
AcDbArc
 50
186.190997
 51
270.0
  0
ARC
  5
650
100
AcDbEntity
  8
0
370
    -3
390
0
  6
Continuous
100
AcDbCircle
 10
-427.281145
 20
-96.08766
 30
0.0
 40
2.0
100
AcDbArc
 50
270.0
 51
5.956512
  0
ARC
  5
651
100
AcDbEntity
  8
0
370
    -3
390
0
  6
Continuous
100
AcDbCircle
 10
-455.721731
 20
-68.545133
 30
0.0
 40
2.0
100
AcDbArc
 50
150.0
 51
233.698744
  0
ARC
  5
652
100
AcDbEntity
  8
0
370
    -3
390
0
  6
Continuous
100
AcDbCircle
 10
-454.715938
 20
-66.803048
 30
0.0
 40
2.0
100
AcDbArc
 50
53.992931
 51
150.0
  0
ARC
  5
653
100
AcDbEntity
  8
0
370
    -3
390
0
  6
Continuous
100
AcDbCircle
 10
-463.434732
 20
-61.904444
 30
0.0
 40
2.0
100
AcDbArc
 50
330.0
 51
67.348661
  0
ARC
  5
654
100
AcDbEntity
  8
0
370
    -3
390
0
  6
Continuous
100
AcDbCircle
 10
-496.474031
 20
-64.045133
 30
0.0
 40
2.0
100
AcDbArc
 50
210.0
 51
293.698744
  0
ARC
  5
655
100
AcDbEntity
  8
0
370
    -3
390
0
  6
Continuous
100
AcDbCircle
 10
-497.479824
 20
-62.303048
 30
0.0
 40
2.0
100
AcDbArc
 50
113.992931
 51
210.0
  0
ARC
  5
656
100
AcDbEntity
  8
0
370
    -3
390
0
  6
Continuous
100
AcDbCircle
 10
-505.274053
 20
-66.803048
 30
0.0
 40
2.0
100
AcDbArc
 50
30.0
 51
126.007069
  0
ARC
  5
657
100
AcDbEntity
  8
0
370
    -3
390
0
  6
Continuous
100
AcDbCircle
 10
-504.26826
 20
-68.545133
 30
0.0
 40
2.0
100
AcDbArc
 50
306.301256
 51
30.0
  0
ARC
  5
658
100
AcDbEntity
  8
0
370
    -3
390
0
  6
Continuous
100
AcDbCircle
 10
-500.237981
 20
-75.525781
 30
0.0
 40
2.0
100
AcDbArc
 50
30.0
 51
127.83748
  0
ARC
  5
659
100
AcDbEntity
  8
0
370
    -3
390
0
  6
Continuous
100
AcDbCircle
 10
-499.227934
 20
-77.275234
 30
0.0
 40
2.0
100
AcDbArc
 50
308.346619
 51
30.0
  0
ARC
  5
65A
100
AcDbEntity
  8
0
370
    -3
390
0
  6
Continuous
100
AcDbCircle
 10
-495.169853
 20
-84.304036
 30
0.0
 40
2.0
100
AcDbArc
 50
30.0
 51
131.282824
  0
ARC
  5
65B
100
AcDbEntity
  8
0
370
    -3
390
0
  6
Continuous
100
AcDbCircle
 10
-494.148205
 20
-86.073582
 30
0.0
 40
2.0
100
AcDbArc
 50
312.373625
 51
30.0
  0
ARC
  5
65C
100
AcDbEntity
  8
0
370
    -3
390
0
  6
Continuous
100
AcDbCircle
 10
-491.774214
 20
-96.08766
 30
0.0
 40
2.0
100
AcDbArc
 50
154.971001
 51
270.0
  0
ARC
  5
65D
100
AcDbEntity
  8
0
370
    -3
390
0
  6
Continuous
100
AcDbCircle
 10
-489.990265
 20
-93.275345
 30
0.0
 40
2.0
100
AcDbArc
 50
30.0
 51
140.252247
  0
ARC
  5
65E
100
AcDbEntity
  8
0
370
    -3
390
0
  6
Continuous
100
AcDbCircle
 10
-488.910825
 20
-95.144991
 30
0.0
 40
2.0
100
AcDbArc
 50
324.14774
 51
30.0
  0
ARC
  5
65F
100
AcDbEntity
  8
0
370
    -3
390
0
  6
Continuous
100
AcDbCircle
 10
-489.521275
 20
-96.08766
 30
0.0
 40
2.0
100
AcDbArc
 50
270.0
 51
330.0
  0
ARC
  5
660
100
AcDbEntity
  8
0
370
    -3
390
0
  6
Continuous
100
AcDbCircle
 10
-502.327707
 20
-96.08766
 30
0.0
 40
2.0
100
AcDbArc
 50
166.164776
 51
270.0
  0
ARC
  5
661
100
AcDbEntity
  8
0
370
    -3
390
0
  6
Continuous
100
AcDbCircle
 10
-502.327707
 20
-107.08766
 30
0.0
 40
2.0
100
AcDbArc
 50
90.0
 51
193.835224
  0
ARC
  5
662
100
AcDbEntity
  8
0
370
    -3
390
0
  6
Continuous
100
AcDbCircle
 10
-512.533434
 20
-107.08766
 30
0.0
 40
2.0
100
AcDbArc
 50
90.0
 51
189.594068
  0
ARC
  5
663
100
AcDbEntity
  8
0
370
    -3
390
0
  6
Continuous
100
AcDbCircle
 10
-512.533434
 20
-96.08766
 30
0.0
 40
2.0
100
AcDbArc
 50
170.405932
 51
270.0
  0
ARC
  5
664
100
AcDbEntity
  8
0
370
    -3
390
0
  6
Continuous
100
AcDbCircle
 10
-522.641801
 20
-96.08766
 30
0.0
 40
2.0
100
AcDbArc
 50
172.651339
 51
270.0
  0
ARC
  5
665
100
AcDbEntity
  8
0
370
    -3
390
0
  6
Continuous
100
AcDbCircle
 10
-522.641801
 20
-107.08766
 30
0.0
 40
2.0
100
AcDbArc
 50
90.0
 51
187.348661
  0
ARC
  5
666
100
AcDbEntity
  8
0
370
    -3
390
0
  6
Continuous
100
AcDbCircle
 10
-530.697559
 20
-107.08766
 30
0.0
 40
2.0
100
AcDbArc
 50
6.190997
 51
90.0
  0
ARC
  5
667
100
AcDbEntity
  8
0
370
    -3
390
0
  6
Continuous
100
AcDbCircle
 10
-532.708846
 20
-107.08766
 30
0.0
 40
2.0
100
AcDbArc
 50
90.0
 51
185.956512
  0
ARC
  5
668
100
AcDbEntity
  8
0
370
    -3
390
0
  6
Continuous
100
AcDbCircle
 10
-532.708846
 20
-96.08766
 30
0.0
 40
2.0
100
AcDbArc
 50
174.043488
 51
270.0
  0
ARC
  5
669
100
AcDbEntity
  8
0
370
    -3
390
0
  6
Continuous
100
AcDbCircle
 10
-530.697559
 20
-96.08766
 30
0.0
 40
2.0
100
AcDbArc
 50
270.0
 51
353.809003
  0
ARC
  5
66A
100
AcDbEntity
  8
0
370
    -3
390
0
  6
Continuous
100
AcDbCircle
 10
-509.292651
 20
-59.842632
 30
0.0
 40
2.0
100
AcDbArc
 50
305.062093
 51
30.0
  0
ARC
  5
66B
100
AcDbEntity
  8
0
370
    -3
390
0
  6
Continuous
100
AcDbCircle
 10
-510.296418
 20
-58.104057
 30
0.0
 40
2.0
100
AcDbArc
 50
30.0
 51
124.8706
  0
ARC
  5
66C
100
AcDbEntity
  8
0
370
    -3
390
0
  6
Continuous
100
AcDbCircle
 10
-502.502189
 20
-53.604057
 30
0.0
 40
2.0
100
AcDbArc
 50
115.1294
 51
210.0
  0
ARC
  5
66D
100
AcDbEntity
  8
0
370
    -3
390
0
  6
Continuous
100
AcDbCircle
 10
-501.498422
 20
-55.342632
 30
0.0
 40
2.0
100
AcDbArc
 50
210.0
 51
294.937907
  0
ARC
  5
66E
100
AcDbEntity
  8
0
370
    -3
390
0
  6
Continuous
100
AcDbCircle
 10
-459.406853
 20
-54.927952
 30
0.0
 40
2.0
100
AcDbArc
 50
246.190997
 51
330.0
  0
ARC
  5
66F
100
AcDbEntity
  8
0
370
    -3
390
0
  6
Continuous
100
AcDbCircle
 10
-458.40121
 20
-53.186127
 30
0.0
 40
2.0
100
AcDbArc
 50
330.0
 51
65.956512
  0
ARC
  5
670
100
AcDbEntity
  8
0
370
    -3
390
0
  6
Continuous
100
AcDbCircle
 10
-450.69734
 20
-59.842632
 30
0.0
 40
2.0
100
AcDbArc
 50
150.0
 51
234.937907
  0
ARC
  5
671
100
AcDbEntity
  8
0
370
    -3
390
0
  6
Continuous
100
AcDbCircle
 10
-449.693573
 20
-58.104057
 30
0.0
 40
2.0
100
AcDbArc
 50
55.1294
 51
150.0
  0
INSERT
  5
67D
100
AcDbEntity
  8
0
390
0
100
AcDbBlockReference
  2
ZU_SYM_C__ZUOU_AC_BLOCK_ZU_SYM_C__ZUOU_AC_BLOCK_ZU_SYM__USR_MELCAD_MD_SYM_SYM_SYM1_-1_-1_00
 10
-538.402015
 20
-43.18064
 30
0.0
 41
-1.0
 50
135.0
  0
INSERT
  5
689
100
AcDbEntity
  8
0
390
0
100
AcDbBlockReference
  2
ZU_SYM_C__ZUOU_AC_BLOCK_ZU_SYM_C__ZUOU_AC_BLOCK_ZU_SYM__USR_MELCAD_MD_SYM_SYM_SYM2_-1_-1_00
 10
-421.587975
 20
-43.18064
 30
0.0
 50
225.0
  0
INSERT
  5
695
100
AcDbEntity
  8
0
390
0
100
AcDbBlockReference
  2
ZU_SYM_C__ZUOU_AC_BLOCK_ZU_SYM_C__ZUOU_AC_BLOCK_ZU_SYM__USR_MELCAD_MD_SYM_SYM_SYM3_-1_-1_00
 10
-421.587975
 20
-159.994681
 30
0.0
 41
-1.0
 50
315.0
  0
INSERT
  5
6A1
100
AcDbEntity
  8
0
390
0
100
AcDbBlockReference
  2
ZU_SYM_C__ZUOU_AC_BLOCK_ZU_SYM_C__ZUOU_AC_BLOCK_ZU_SYM__USR_MELCAD_MD_SYM_SYM_SYM4_-1_-1_00
 10
-538.402015
 20
-159.994681
 30
0.0
 50
45.0
  0
ARC
  5
6A2
100
AcDbEntity
  8
0
370
    -3
390
0
  6
Continuous
100
AcDbCircle
 10
-498.913062
 20
-78.304475
 30
0.0
 40
50.8
100
AcDbArc
 50
94.33985
 51
129.094568
  0
ARC
  5
6A3
100
AcDbEntity
  8
0
370
    -3
390
0
  6
Continuous
100
AcDbCircle
 10
-503.278181
 20
-82.669593
 30
0.0
 40
50.8
100
AcDbArc
 50
140.905432
 51
175.66015
  0
LINE
  5
6A4
100
AcDbEntity
  8
0
370
    -3
390
0
  6
Continuous
100
AcDbLine
 10
-541.159732
 20
-47.493992
 30
0.0
 11
-540.555261
 21
-48.098463
 31
0.0
  0
ARC
  5
6A5
100
AcDbEntity
  8
0
370
    -3
390
0
  6
Continuous
100
AcDbCircle
 10
-540.9476
 20
-47.28186
 30
0.0
 40
0.3
100
AcDbArc
 50
135.0
 51
225.0
  0
LINE
  5
6A6
100
AcDbEntity
  8
0
370
    -3
390
0
  6
Continuous
100
AcDbLine
 10
-536.881736
 20
-41.660361
 30
0.0
 11
-535.220035
 21
-39.99866
 31
0.0
  0
LINE
  5
6A7
100
AcDbEntity
  8
0
370
    -3
390
0
  6
Continuous
100
AcDbLine
 10
-535.220035
 20
-39.99866
 30
0.0
 11
-534.65435
 21
-40.564345
 31
0.0
  0
LINE
  5
6A8
100
AcDbEntity
  8
0
370
    -3
390
0
  6
Continuous
100
AcDbLine
 10
-539.922295
 20
-44.70092
 30
0.0
 11
-541.583996
 21
-46.362621
 31
0.0
  0
LINE
  5
6A9
100
AcDbEntity
  8
0
370
    -3
390
0
  6
Continuous
100
AcDbLine
 10
-541.583996
 20
-46.362621
 30
0.0
 11
-541.018311
 21
-46.928306
 31
0.0
  0
LINE
  5
6AA
100
AcDbEntity
  8
0
370
    -3
390
0
  6
Continuous
100
AcDbLine
 10
-534.088664
 20
-40.422924
 30
0.0
 11
-533.484193
 21
-41.027395
 31
0.0
  0
ARC
  5
6AB
100
AcDbEntity
  8
0
370
    -3
390
0
  6
Continuous
100
AcDbCircle
 10
-534.300796
 20
-40.635056
 30
0.0
 40
0.3
100
AcDbArc
 50
45.0
 51
135.0
  0
ARC
  5
6AC
100
AcDbEntity
  8
0
370
    -3
390
0
  6
Continuous
100
AcDbCircle
 10
-506.594995
 20
-183.98766
 30
0.0
 40
2.0
100
AcDbArc
 50
270.0
 51
0.0
  0
LINE
  5
6AD
100
AcDbEntity
  8
0
370
    -3
390
0
  6
Continuous
100
AcDbLine
 10
-504.594995
 20
-183.98766
 30
0.0
 11
-504.594995
 21
-175.78766
 31
0.0
  0
ARC
  5
6AE
100
AcDbEntity
  8
0
370
    -3
390
0
  6
Continuous
100
AcDbCircle
 10
-453.394995
 20
-183.98766
 30
0.0
 40
2.0
100
AcDbArc
 50
180.0
 51
270.0
  0
LINE
  5
6AF
100
AcDbEntity
  8
0
370
    -3
390
0
  6
Continuous
100
AcDbLine
 10
-455.394995
 20
-183.98766
 30
0.0
 11
-455.394995
 21
-175.78766
 31
0.0
  0
LINE
  5
6B0
100
AcDbEntity
  8
0
370
    -3
390
0
  6
Continuous
100
AcDbLine
 10
-510.994995
 20
-185.98766
 30
0.0
 11
-448.994995
 21
-185.98766
 31
0.0
  0
LINE
  5
6B1
100
AcDbEntity
  8
0
370
    -3
390
0
  6
Continuous
100
AcDbLine
 10
-448.994995
 20
-187.58766
 30
0.0
 11
-448.994995
 21
-185.98766
 31
0.0
  0
LINE
  5
6B2
100
AcDbEntity
  8
0
370
    -3
390
0
  6
Continuous
100
AcDbLine
 10
-479.994995
 20
-187.58766
 30
0.0
 11
-448.994995
 21
-187.58766
 31
0.0
  0
LINE
  5
6B3
100
AcDbEntity
  8
0
370
    -3
390
0
  6
Continuous
100
AcDbLine
 10
-479.994995
 20
-187.58766
 30
0.0
 11
-510.994995
 21
-187.58766
 31
0.0
  0
LINE
  5
6B4
100
AcDbEntity
  8
0
370
    -3
390
0
  6
Continuous
100
AcDbLine
 10
-510.994995
 20
-187.58766
 30
0.0
 11
-510.994995
 21
-185.98766
 31
0.0
  0
ARC
  5
6B5
100
AcDbEntity
  8
0
370
    -3
390
0
  6
Continuous
100
AcDbCircle
 10
-438.41867
 20
-192.85776
 30
0.0
 40
1.0
100
AcDbArc
 50
294.0
 51
24.0
  0
LINE
  5
6B6
100
AcDbEntity
  8
0
370
    -3
390
0
  6
Continuous
100
AcDbLine
 10
-536.621737
 20
-233.515601
 30
0.0
 11
-538.330031
 21
-229.678711
 31
0.0
  0
LINE
  5
6B7
100
AcDbEntity
  8
0
370
    -3
390
0
  6
Continuous
100
AcDbLine
 10
-533.607037
 20
-232.173371
 30
0.0
 11
-535.315331
 21
-228.33648
 31
0.0
  0
LINE
  5
6B8
100
AcDbEntity
  8
0
370
    -3
390
0
  6
Continuous
100
AcDbLine
 10
-534.853232
 20
-228.513863
 30
0.0
 11
-535.315331
 21
-228.33648
 31
0.0
  0
LINE
  5
6B9
100
AcDbEntity
  8
0
370
    -3
390
0
  6
Continuous
100
AcDbLine
 10
-538.507414
 20
-230.140809
 30
0.0
 11
-538.330031
 21
-229.678711
 31
0.0
  0
LINE
  5
6BA
100
AcDbEntity
  8
0
370
    -3
390
0
  6
Continuous
100
AcDbLine
 10
-535.315331
 20
-228.33648
 30
0.0
 11
-538.330031
 21
-229.678711
 31
0.0
  0
POINT
  5
6BB
100
AcDbEntity
  8
0
370
    -3
390
0
  6
Continuous
100
AcDbPoint
 10
-533.568788
 20
-236.315959
 30
0.0
  0
LINE
  5
6BC
100
AcDbEntity
  8
0
370
    -3
390
0
  6
Continuous
100
AcDbLine
 10
-530.371379
 20
-234.89238
 30
0.0
 11
-536.766197
 21
-237.739537
 31
0.0
  0
LINE
  5
6BD
100
AcDbEntity
  8
0
370
    -3
390
0
  6
Continuous
100
AcDbLine
 10
-530.371379
 20
-234.89238
 30
0.0
 11
-536.766197
 21
-237.739537
 31
0.0
  0
LINE
  5
6BE
100
AcDbEntity
  8
0
370
    -3
390
0
  6
Continuous
100
AcDbLine
 10
-536.766197
 20
-237.739537
 30
0.0
 11
-536.367992
 21
-238.633921
 31
0.0
  0
LINE
  5
6BF
100
AcDbEntity
  8
0
370
    -3
390
0
  6
Continuous
100
AcDbLine
 10
-530.371379
 20
-234.89238
 30
0.0
 11
-529.973173
 21
-235.786765
 31
0.0
  0
ARC
  5
6C0
100
AcDbEntity
  8
0
370
    -3
390
0
  6
Continuous
100
AcDbCircle
 10
-531.160782
 20
-236.315522
 30
0.0
 40
1.299999
100
AcDbArc
 50
310.601531
 51
24.000001
  0
LINE
  5
6C1
100
AcDbEntity
  8
0
370
    -3
390
0
  6
Continuous
100
AcDbLine
 10
-440.337483
 20
-190.647089
 30
0.0
 11
-441.338325
 21
-190.222257
 31
0.0
  0
LINE
  5
6C2
100
AcDbEntity
  8
0
370
    -3
390
0
  6
Continuous
100
AcDbLine
 10
-441.336775
 20
-191.092003
 30
0.0
 11
-441.65091
 21
-190.958661
 31
0.0
  0
LINE
  5
6C3
100
AcDbEntity
  8
0
370
    -3
390
0
  6
Continuous
100
AcDbLine
 10
-441.338325
 20
-190.222257
 30
0.0
 11
-441.65091
 21
-190.958661
 31
0.0
  0
LINE
  5
6C4
100
AcDbEntity
  8
0
370
    -3
390
0
  6
Continuous
100
AcDbLine
 10
-438.011933
 20
-193.771306
 30
0.0
 11
-479.994995
 21
-212.463369
 31
0.0
  0
ARC
  5
6C5
100
AcDbEntity
  8
0
370
    -3
390
0
  6
Continuous
100
AcDbCircle
 10
-440.794788
 20
-198.294222
 30
0.0
 40
3.0
100
AcDbArc
 50
114.0
 51
170.681877
  0
LINE
  5
6C6
100
AcDbEntity
  8
0
370
    -3
390
0
  6
Continuous
100
AcDbLine
 10
-443.755202
 20
-197.808474
 30
0.0
 11
-448.014031
 21
-223.764111
 31
0.0
  0
ARC
  5
6C7
100
AcDbEntity
  8
0
370
    -3
390
0
  6
Continuous
100
AcDbCircle
 10
-462.816099
 20
-221.335371
 30
0.0
 40
15.0
100
AcDbArc
 50
271.682769
 51
350.681877
  0
ARC
  5
6C8
100
AcDbEntity
  8
0
370
    -3
390
0
  6
Continuous
100
AcDbCircle
 10
-479.994995
 20
363.41234
 30
0.0
 40
600.0
100
AcDbArc
 50
265.284875
 51
271.682769
  0
ARC
  5
6C9
100
AcDbEntity
  8
0
370
    -3
390
0
  6
Continuous
100
AcDbCircle
 10
-529.398155
 20
-235.553709
 30
0.0
 40
1.0
100
AcDbArc
 50
85.284875
 51
114.0
  0
LINE
  5
6CA
100
AcDbEntity
  8
0
370
    -3
390
0
  6
Continuous
100
AcDbLine
 10
-437.505124
 20
-192.451024
 30
0.0
 11
-438.643987
 21
-189.893096
 31
0.0
  0
LINE
  5
6CB
100
AcDbEntity
  8
0
370
    -3
390
0
  6
Continuous
100
AcDbLine
 10
-443.759842
 20
-192.170822
 30
0.0
 11
-444.562754
 21
-190.36745
 31
0.0
  0
ARC
  5
6CC
100
AcDbEntity
  8
0
370
    -3
390
0
  6
Continuous
100
AcDbCircle
 10
-447.30339
 20
-191.58766
 30
0.0
 40
3.0
100
AcDbArc
 50
24.0
 51
90.0
  0
LINE
  5
6CD
100
AcDbEntity
  8
0
370
    -3
390
0
  6
Continuous
100
AcDbLine
 10
-448.994995
 20
-187.58766
 30
0.0
 11
-448.994995
 21
-188.58766
 31
0.0
  0
ARC
  5
6CE
100
AcDbEntity
  8
0
370
    -3
390
0
  6
Continuous
100
AcDbCircle
 10
-521.494995
 20
-193.58766
 30
0.0
 40
5.0
100
AcDbArc
 50
90.0
 51
180.0
  0
LINE
  5
6CF
100
AcDbEntity
  8
0
370
    -3
390
0
  6
Continuous
100
AcDbLine
 10
-526.494995
 20
-193.58766
 30
0.0
 11
-526.494995
 21
-229.006885
 31
0.0
  0
LINE
  5
6D0
100
AcDbEntity
  8
0
370
    -3
390
0
  6
Continuous
100
AcDbLine
 10
-540.187634
 20
-238.168222
 30
0.0
 11
-541.326496
 21
-235.610295
 31
0.0
  0
ARC
  5
6D1
100
AcDbEntity
  8
0
370
    -3
390
0
  6
Continuous
100
AcDbCircle
 10
-539.274088
 20
-237.761486
 30
0.0
 40
1.0
100
AcDbArc
 50
204.0
 51
294.0
  0
LINE
  5
6D2
100
AcDbEntity
  8
0
370
    -3
390
0
  6
Continuous
100
AcDbLine
 10
-479.994995
 20
-212.463369
 30
0.0
 11
-538.867352
 21
-238.675031
 31
0.0
  0
ARC
  5
6D3
100
AcDbEntity
  8
0
370
    -3
390
0
  6
Continuous
100
AcDbCircle
 10
-526.767233
 20
-234.382348
 30
0.0
 40
1.0
100
AcDbArc
 50
24.0
 51
114.0
  0
ARC
  5
6D4
100
AcDbEntity
  8
0
370
    -3
390
0
  6
Continuous
100
AcDbCircle
 10
-524.11763
 20
-232.957674
 30
0.0
 40
2.0
100
AcDbArc
 50
204.0
 51
265.768662
  0
LINE
  5
6D5
100
AcDbEntity
  8
0
370
    -3
390
0
  6
Continuous
100
AcDbLine
 10
-533.287296
 20
-232.031013
 30
0.0
 11
-534.853232
 21
-228.513863
 31
0.0
  0
LINE
  5
6D6
100
AcDbEntity
  8
0
370
    -3
390
0
  6
Continuous
100
AcDbLine
 10
-536.941478
 20
-233.657959
 30
0.0
 11
-538.507414
 21
-230.140809
 31
0.0
  0
LINE
  5
6D7
100
AcDbEntity
  8
0
370
    -3
390
0
  6
Continuous
100
AcDbLine
 10
-510.994995
 20
-187.58766
 30
0.0
 11
-510.994995
 21
-188.58766
 31
0.0
  0
LINE
  5
6D8
100
AcDbEntity
  8
0
370
    -3
390
0
  6
Continuous
100
AcDbLine
 10
-447.30339
 20
-188.58766
 30
0.0
 11
-521.494995
 21
-188.58766
 31
0.0
  0
LINE
  5
6D9
100
AcDbEntity
  8
0
370
    -3
390
0
  6
Continuous
100
AcDbLine
 10
-448.994995
 20
-187.58766
 30
0.0
 11
-510.994995
 21
-187.58766
 31
0.0
  0
LINE
  5
6DA
100
AcDbEntity
  8
0
370
    -3
390
0
  6
Continuous
100
AcDbLine
 10
-438.643987
 20
-189.893096
 30
0.0
 11
-541.326496
 21
-235.610295
 31
0.0
  0
ARC
  5
6DB
100
AcDbEntity
  8
0
370
    -3
390
0
  6
Continuous
100
AcDbCircle
 10
-535.180383
 20
-238.105164
 30
0.0
 40
1.299999
100
AcDbArc
 50
203.999982
 51
277.398452
  0
ARC
  5
6DC
100
AcDbEntity
  8
0
370
    -3
390
0
  6
Continuous
100
AcDbCircle
 10
-536.171902
 20
-230.469268
 30
0.0
 40
9.0
100
AcDbArc
 50
277.398452
 51
310.601531
  0
ARC
  5
6DD
100
AcDbEntity
  8
0
370
    -3
390
0
  6
Continuous
100
AcDbCircle
 10
-458.594995
 20
-175.78766
 30
0.0
 40
3.2
100
AcDbArc
 50
0.0
 51
7.763695
  0
LINE
  5
6DE
100
AcDbEntity
  8
0
370
    -3
390
0
  6
Continuous
100
AcDbLine
 10
-541.159732
 20
-47.069728
 30
0.0
 11
-534.512928
 21
-40.422924
 31
0.0
  0
ARC
  5
6DF
100
AcDbEntity
  8
0
370
    -3
390
0
  6
Continuous
100
AcDbCircle
 10
-479.994995
 20
-101.58766
 30
0.0
 40
80.8
100
AcDbArc
 50
129.094568
 51
140.905432
  0
ARC
  5
6E0
100
AcDbEntity
  8
0
370
    -3
390
0
  6
Continuous
100
AcDbCircle
 10
-479.994995
 20
-327.58766
 30
0.0
 40
300.8
100
AcDbArc
 50
90.0
 51
94.33985
  0
ARC
  5
6E1
100
AcDbEntity
  8
0
370
    -3
390
0
  6
Continuous
100
AcDbCircle
 10
-253.994995
 20
-101.58766
 30
0.0
 40
300.8
100
AcDbArc
 50
175.66015
 51
180.0
  0
ARC
  5
6E2
100
AcDbEntity
  8
0
370
    -3
390
0
  6
Continuous
100
AcDbCircle
 10
-501.394995
 20
-175.78766
 30
0.0
 40
3.2
100
AcDbArc
 50
172.236305
 51
180.0
  0
ARC
  5
6E3
100
AcDbEntity
  8
0
370
    -3
390
0
  6
Continuous
100
AcDbCircle
 10
-461.076928
 20
-78.304475
 30
0.0
 40
50.8
100
AcDbArc
 50
50.905432
 51
85.66015
  0
ARC
  5
6E4
100
AcDbEntity
  8
0
370
    -3
390
0
  6
Continuous
100
AcDbCircle
 10
-456.711809
 20
-82.669593
 30
0.0
 40
50.8
100
AcDbArc
 50
4.33985
 51
39.094568
  0
LINE
  5
6E5
100
AcDbEntity
  8
0
370
    -3
390
0
  6
Continuous
100
AcDbLine
 10
-418.830259
 20
-47.493992
 30
0.0
 11
-419.43473
 21
-48.098463
 31
0.0
  0
ARC
  5
6E6
100
AcDbEntity
  8
0
370
    -3
390
0
  6
Continuous
100
AcDbCircle
 10
-419.042391
 20
-47.28186
 30
0.0
 40
0.3
100
AcDbArc
 50
315.0
 51
45.0
  0
LINE
  5
6E7
100
AcDbEntity
  8
0
370
    -3
390
0
  6
Continuous
100
AcDbLine
 10
-423.108255
 20
-41.660361
 30
0.0
 11
-424.769956
 21
-39.99866
 31
0.0
  0
LINE
  5
6E8
100
AcDbEntity
  8
0
370
    -3
390
0
  6
Continuous
100
AcDbLine
 10
-424.769956
 20
-39.99866
 30
0.0
 11
-425.335641
 21
-40.564345
 31
0.0
  0
LINE
  5
6E9
100
AcDbEntity
  8
0
370
    -3
390
0
  6
Continuous
100
AcDbLine
 10
-420.067696
 20
-44.70092
 30
0.0
 11
-418.405995
 21
-46.362621
 31
0.0
  0
LINE
  5
6EA
100
AcDbEntity
  8
0
370
    -3
390
0
  6
Continuous
100
AcDbLine
 10
-418.405995
 20
-46.362621
 30
0.0
 11
-418.97168
 21
-46.928306
 31
0.0
  0
LINE
  5
6EB
100
AcDbEntity
  8
0
370
    -3
390
0
  6
Continuous
100
AcDbLine
 10
-425.901327
 20
-40.422924
 30
0.0
 11
-426.505798
 21
-41.027395
 31
0.0
  0
ARC
  5
6EC
100
AcDbEntity
  8
0
370
    -3
390
0
  6
Continuous
100
AcDbCircle
 10
-425.689195
 20
-40.635056
 30
0.0
 40
0.3
100
AcDbArc
 50
45.0
 51
135.0
  0
LINE
  5
6ED
100
AcDbEntity
  8
0
370
    -3
390
0
  6
Continuous
100
AcDbLine
 10
-418.830259
 20
-47.069728
 30
0.0
 11
-425.477063
 21
-40.422924
 31
0.0
  0
ARC
  5
6EE
100
AcDbEntity
  8
0
370
    -3
390
0
  6
Continuous
100
AcDbCircle
 10
-479.994995
 20
-101.58766
 30
0.0
 40
80.8
100
AcDbArc
 50
39.094568
 51
50.905432
  0
ARC
  5
6EF
100
AcDbEntity
  8
0
370
    -3
390
0
  6
Continuous
100
AcDbCircle
 10
-479.994995
 20
-327.58766
 30
0.0
 40
300.8
100
AcDbArc
 50
85.66015
 51
90.0
  0
ARC
  5
6F0
100
AcDbEntity
  8
0
370
    -3
390
0
  6
Continuous
100
AcDbCircle
 10
-705.994995
 20
-101.58766
 30
0.0
 40
300.8
100
AcDbArc
 50
360.0
 51
4.33985
  0
ARC
  5
6F1
100
AcDbEntity
  8
0
370
    -3
390
0
  6
Continuous
100
AcDbCircle
 10
-461.076928
 20
-124.870846
 30
0.0
 40
50.8
100
AcDbArc
 50
274.33985
 51
309.094568
  0
ARC
  5
6F2
100
AcDbEntity
  8
0
370
    -3
390
0
  6
Continuous
100
AcDbCircle
 10
-456.711809
 20
-120.505727
 30
0.0
 40
50.8
100
AcDbArc
 50
320.905432
 51
355.66015
  0
LINE
  5
6F3
100
AcDbEntity
  8
0
370
    -3
390
0
  6
Continuous
100
AcDbLine
 10
-418.830259
 20
-155.681329
 30
0.0
 11
-419.43473
 21
-155.076858
 31
0.0
  0
ARC
  5
6F4
100
AcDbEntity
  8
0
370
    -3
390
0
  6
Continuous
100
AcDbCircle
 10
-419.042391
 20
-155.893461
 30
0.0
 40
0.3
100
AcDbArc
 50
315.0
 51
45.0
  0
LINE
  5
6F5
100
AcDbEntity
  8
0
370
    -3
390
0
  6
Continuous
100
AcDbLine
 10
-423.108255
 20
-161.51496
 30
0.0
 11
-424.769956
 21
-163.176661
 31
0.0
  0
LINE
  5
6F6
100
AcDbEntity
  8
0
370
    -3
390
0
  6
Continuous
100
AcDbLine
 10
-424.769956
 20
-163.176661
 30
0.0
 11
-425.335641
 21
-162.610976
 31
0.0
  0
LINE
  5
6F7
100
AcDbEntity
  8
0
370
    -3
390
0
  6
Continuous
100
AcDbLine
 10
-420.067696
 20
-158.474401
 30
0.0
 11
-418.405995
 21
-156.8127
 31
0.0
  0
LINE
  5
6F8
100
AcDbEntity
  8
0
370
    -3
390
0
  6
Continuous
100
AcDbLine
 10
-418.405995
 20
-156.8127
 30
0.0
 11
-418.97168
 21
-156.247015
 31
0.0
  0
LINE
  5
6F9
100
AcDbEntity
  8
0
370
    -3
390
0
  6
Continuous
100
AcDbLine
 10
-425.901327
 20
-162.752397
 30
0.0
 11
-426.505798
 21
-162.147926
 31
0.0
  0
ARC
  5
6FA
100
AcDbEntity
  8
0
370
    -3
390
0
  6
Continuous
100
AcDbCircle
 10
-425.689195
 20
-162.540265
 30
0.0
 40
0.3
100
AcDbArc
 50
225.0
 51
315.0
  0
LINE
  5
6FB
100
AcDbEntity
  8
0
370
    -3
390
0
  6
Continuous
100
AcDbLine
 10
-418.830259
 20
-156.105593
 30
0.0
 11
-425.477063
 21
-162.752397
 31
0.0
  0
ARC
  5
6FC
100
AcDbEntity
  8
0
370
    -3
390
0
  6
Continuous
100
AcDbCircle
 10
-479.994995
 20
-101.58766
 30
0.0
 40
80.8
100
AcDbArc
 50
309.094568
 51
320.905432
  0
ARC
  5
6FD
100
AcDbEntity
  8
0
370
    -3
390
0
  6
Continuous
100
AcDbCircle
 10
-479.994995
 20
124.41234
 30
0.0
 40
300.8
100
AcDbArc
 50
270.0
 51
274.33985
  0
ARC
  5
6FE
100
AcDbEntity
  8
0
370
    -3
390
0
  6
Continuous
100
AcDbCircle
 10
-705.994995
 20
-101.58766
 30
0.0
 40
300.8
100
AcDbArc
 50
355.66015
 51
0.0
  0
ARC
  5
6FF
100
AcDbEntity
  8
0
370
    -3
390
0
  6
Continuous
100
AcDbCircle
 10
-498.913062
 20
-124.870846
 30
0.0
 40
50.8
100
AcDbArc
 50
230.905432
 51
265.66015
  0
ARC
  5
700
100
AcDbEntity
  8
0
370
    -3
390
0
  6
Continuous
100
AcDbCircle
 10
-503.278181
 20
-120.505727
 30
0.0
 40
50.8
100
AcDbArc
 50
184.33985
 51
219.094568
  0
LINE
  5
701
100
AcDbEntity
  8
0
370
    -3
390
0
  6
Continuous
100
AcDbLine
 10
-541.159732
 20
-155.681329
 30
0.0
 11
-540.555261
 21
-155.076858
 31
0.0
  0
ARC
  5
702
100
AcDbEntity
  8
0
370
    -3
390
0
  6
Continuous
100
AcDbCircle
 10
-540.9476
 20
-155.893461
 30
0.0
 40
0.3
100
AcDbArc
 50
135.0
 51
225.0
  0
LINE
  5
703
100
AcDbEntity
  8
0
370
    -3
390
0
  6
Continuous
100
AcDbLine
 10
-536.881736
 20
-161.51496
 30
0.0
 11
-535.220035
 21
-163.176661
 31
0.0
  0
LINE
  5
704
100
AcDbEntity
  8
0
370
    -3
390
0
  6
Continuous
100
AcDbLine
 10
-535.220035
 20
-163.176661
 30
0.0
 11
-534.65435
 21
-162.610976
 31
0.0
  0
LINE
  5
705
100
AcDbEntity
  8
0
370
    -3
390
0
  6
Continuous
100
AcDbLine
 10
-539.922295
 20
-158.474401
 30
0.0
 11
-541.583996
 21
-156.8127
 31
0.0
  0
LINE
  5
706
100
AcDbEntity
  8
0
370
    -3
390
0
  6
Continuous
100
AcDbLine
 10
-541.583996
 20
-156.8127
 30
0.0
 11
-541.018311
 21
-156.247015
 31
0.0
  0
LINE
  5
707
100
AcDbEntity
  8
0
370
    -3
390
0
  6
Continuous
100
AcDbLine
 10
-534.088664
 20
-162.752397
 30
0.0
 11
-533.484193
 21
-162.147926
 31
0.0
  0
ARC
  5
708
100
AcDbEntity
  8
0
370
    -3
390
0
  6
Continuous
100
AcDbCircle
 10
-534.300796
 20
-162.540265
 30
0.0
 40
0.3
100
AcDbArc
 50
225.0
 51
315.0
  0
LINE
  5
709
100
AcDbEntity
  8
0
370
    -3
390
0
  6
Continuous
100
AcDbLine
 10
-541.159732
 20
-156.105593
 30
0.0
 11
-534.512928
 21
-162.752397
 31
0.0
  0
ARC
  5
70A
100
AcDbEntity
  8
0
370
    -3
390
0
  6
Continuous
100
AcDbCircle
 10
-479.994995
 20
-101.58766
 30
0.0
 40
80.8
100
AcDbArc
 50
219.094568
 51
230.905432
  0
ARC
  5
70B
100
AcDbEntity
  8
0
370
    -3
390
0
  6
Continuous
100
AcDbCircle
 10
-479.994995
 20
124.41234
 30
0.0
 40
300.8
100
AcDbArc
 50
265.66015
 51
270.0
  0
ARC
  5
70C
100
AcDbEntity
  8
0
370
    -3
390
0
  6
Continuous
100
AcDbCircle
 10
-253.994995
 20
-101.58766
 30
0.0
 40
300.8
100
AcDbArc
 50
180.0
 51
184.33985
  0
ARC
  5
70D
100
AcDbEntity
  8
0
370
    -3
390
0
  6
Continuous
100
AcDbCircle
 10
-479.994995
 20
124.41234
 30
0.0
 40
286.944
100
AcDbArc
 50
265.66015
 51
274.33985
  0
ARC
  5
70E
100
AcDbEntity
  8
0
370
    -3
390
0
  6
Continuous
100
AcDbCircle
 10
-705.994995
 20
-101.58766
 30
0.0
 40
286.944
100
AcDbArc
 50
355.66015
 51
4.33985
  0
ARC
  5
70F
100
AcDbEntity
  8
0
370
    -3
390
0
  6
Continuous
100
AcDbCircle
 10
-461.076928
 20
-78.304475
 30
0.0
 40
36.944
100
AcDbArc
 50
50.905432
 51
85.66015
  0
ARC
  5
710
100
AcDbEntity
  8
0
370
    -3
390
0
  6
Continuous
100
AcDbCircle
 10
-479.994995
 20
-327.58766
 30
0.0
 40
286.944
100
AcDbArc
 50
85.66015
 51
94.33985
  0
ARC
  5
711
100
AcDbEntity
  8
0
370
    -3
390
0
  6
Continuous
100
AcDbCircle
 10
-498.913062
 20
-78.304475
 30
0.0
 40
36.944
100
AcDbArc
 50
94.33985
 51
129.094568
  0
ARC
  5
712
100
AcDbEntity
  8
0
370
    -3
390
0
  6
Continuous
100
AcDbCircle
 10
-253.994995
 20
-101.58766
 30
0.0
 40
286.944
100
AcDbArc
 50
175.66015
 51
184.33985
  0
CIRCLE
  5
713
100
AcDbEntity
  8
0
370
    -3
390
0
  6
Continuous
100
AcDbCircle
 10
-479.994995
 20
-101.58766
 30
0.0
 40
5.0
  0
LINE
  5
714
100
AcDbEntity
  8
0
370
    -3
390
0
  6
Continuous
100
AcDbLine
 10
-427.281145
 20
-98.08766
 30
0.0
 11
-429.292431
 21
-98.08766
 31
0.0
  0
LINE
  5
715
100
AcDbEntity
  8
0
370
    -3
390
0
  6
Continuous
100
AcDbLine
 10
-451.425623
 20
-57.104057
 30
0.0
 11
-452.42939
 21
-58.842632
 31
0.0
  0
ARC
  5
716
100
AcDbEntity
  8
0
370
    -3
390
0
  6
Continuous
100
AcDbCircle
 10
-479.994995
 20
-101.58766
 30
0.0
 40
55.0
100
AcDbArc
 50
5.956512
 51
55.1294
  0
ARC
  5
717
100
AcDbEntity
  8
0
370
    -3
390
0
  6
Continuous
100
AcDbCircle
 10
-479.994995
 20
-101.58766
 30
0.0
 40
49.0
100
AcDbArc
 50
6.190997
 51
54.937907
  0
ARC
  5
718
100
AcDbEntity
  8
0
370
    -3
390
0
  6
Continuous
100
AcDbCircle
 10
-479.994995
 20
-101.58766
 30
0.0
 40
39.0
100
AcDbArc
 50
7.70926
 51
53.698744
  0
ARC
  5
719
100
AcDbEntity
  8
0
370
    -3
390
0
  6
Continuous
100
AcDbCircle
 10
-479.994995
 20
-101.58766
 30
0.0
 40
35.0
100
AcDbArc
 50
9.594068
 51
52.16252
  0
ARC
  5
71A
100
AcDbEntity
  8
0
370
    -3
390
0
  6
Continuous
100
AcDbCircle
 10
-479.994995
 20
-101.58766
 30
0.0
 40
29.0
100
AcDbArc
 50
10.21948
 51
51.653381
  0
ARC
  5
71B
100
AcDbEntity
  8
0
370
    -3
390
0
  6
Continuous
100
AcDbCircle
 10
-479.994995
 20
-101.58766
 30
0.0
 40
25.0
100
AcDbArc
 50
13.835224
 51
48.717176
  0
ARC
  5
71C
100
AcDbEntity
  8
0
370
    -3
390
0
  6
Continuous
100
AcDbCircle
 10
-479.994995
 20
-101.58766
 30
0.0
 40
19.0
100
AcDbArc
 50
15.183114
 51
47.626375
  0
ARC
  5
71D
100
AcDbEntity
  8
0
370
    -3
390
0
  6
Continuous
100
AcDbCircle
 10
-479.994995
 20
-101.58766
 30
0.0
 40
15.0
100
AcDbArc
 50
25.028999
 51
39.747753
  0
ARC
  5
71E
100
AcDbEntity
  8
0
370
    -3
390
0
  6
Continuous
100
AcDbCircle
 10
-479.994995
 20
-101.58766
 30
0.0
 40
9.0
100
AcDbArc
 50
30.0
 51
35.85226
  0
LINE
  5
71F
100
AcDbEntity
  8
0
370
    -3
390
0
  6
Continuous
100
AcDbLine
 10
-437.34819
 20
-98.08766
 30
0.0
 11
-439.365573
 21
-98.08766
 31
0.0
  0
LINE
  5
720
100
AcDbEntity
  8
0
370
    -3
390
0
  6
Continuous
100
AcDbLine
 10
-447.456557
 20
-98.08766
 30
0.0
 11
-449.4868
 21
-98.08766
 31
0.0
  0
LINE
  5
721
100
AcDbEntity
  8
0
370
    -3
390
0
  6
Continuous
100
AcDbLine
 10
-457.662284
 20
-98.08766
 30
0.0
 11
-459.728027
 21
-98.08766
 31
0.0
  0
LINE
  5
722
100
AcDbEntity
  8
0
370
    -3
390
0
  6
Continuous
100
AcDbLine
 10
-468.215776
 20
-98.08766
 30
0.0
 11
-470.468716
 21
-98.08766
 31
0.0
  0
LINE
  5
723
100
AcDbEntity
  8
0
370
    -3
390
0
  6
Continuous
100
AcDbLine
 10
-471.731776
 20
-92.275345
 30
0.0
 11
-472.811217
 21
-94.144991
 31
0.0
  0
LINE
  5
724
100
AcDbEntity
  8
0
370
    -3
390
0
  6
Continuous
100
AcDbLine
 10
-466.552188
 20
-83.304036
 30
0.0
 11
-467.573836
 21
-85.073582
 31
0.0
  0
LINE
  5
725
100
AcDbEntity
  8
0
370
    -3
390
0
  6
Continuous
100
AcDbLine
 10
-461.484061
 20
-74.525781
 30
0.0
 11
-462.494108
 21
-76.275234
 31
0.0
  0
LINE
  5
726
100
AcDbEntity
  8
0
370
    -3
390
0
  6
Continuous
100
AcDbLine
 10
-456.447989
 20
-65.803048
 30
0.0
 11
-457.453782
 21
-67.545133
 31
0.0
  0
ARC
  5
727
100
AcDbEntity
  8
0
370
    -3
390
0
  6
Continuous
100
AcDbCircle
 10
-479.994995
 20
-101.58766
 30
0.0
 40
35.0
100
AcDbArc
 50
307.83748
 51
350.405932
  0
LINE
  5
728
100
AcDbEntity
  8
0
370
    -3
390
0
  6
Continuous
100
AcDbLine
 10
-447.456557
 20
-105.08766
 30
0.0
 11
-449.4868
 21
-105.08766
 31
0.0
  0
LINE
  5
729
100
AcDbEntity
  8
0
370
    -3
390
0
  6
Continuous
100
AcDbLine
 10
-437.34819
 20
-105.08766
 30
0.0
 11
-439.365573
 21
-105.08766
 31
0.0
  0
ARC
  5
72A
100
AcDbEntity
  8
0
370
    -3
390
0
  6
Continuous
100
AcDbCircle
 10
-479.994995
 20
-101.58766
 30
0.0
 40
39.0
100
AcDbArc
 50
306.301256
 51
352.29074
  0
ARC
  5
72B
100
AcDbEntity
  8
0
370
    -3
390
0
  6
Continuous
100
AcDbCircle
 10
-479.994995
 20
-101.58766
 30
0.0
 40
45.0
100
AcDbArc
 50
306.007069
 51
352.651339
  0
ARC
  5
72C
100
AcDbEntity
  8
0
370
    -3
390
0
  6
Continuous
100
AcDbCircle
 10
-479.994995
 20
-101.58766
 30
0.0
 40
55.0
100
AcDbArc
 50
304.8706
 51
354.043488
  0
LINE
  5
72D
100
AcDbEntity
  8
0
370
    -3
390
0
  6
Continuous
100
AcDbLine
 10
-427.281145
 20
-105.08766
 30
0.0
 11
-429.292431
 21
-105.08766
 31
0.0
  0
ARC
  5
72E
100
AcDbEntity
  8
0
370
    -3
390
0
  6
Continuous
100
AcDbCircle
 10
-479.994995
 20
-101.58766
 30
0.0
 40
49.0
100
AcDbArc
 50
305.062093
 51
353.809003
  0
LINE
  5
72F
100
AcDbEntity
  8
0
370
    -3
390
0
  6
Continuous
100
AcDbLine
 10
-451.425623
 20
-146.071264
 30
0.0
 11
-452.42939
 21
-144.332689
 31
0.0
  0
LINE
  5
730
100
AcDbEntity
  8
0
370
    -3
390
0
  6
Continuous
100
AcDbLine
 10
-456.447989
 20
-137.372273
 30
0.0
 11
-457.453782
 21
-135.630188
 31
0.0
  0
ARC
  5
731
100
AcDbEntity
  8
0
370
    -3
390
0
  6
Continuous
100
AcDbCircle
 10
-479.994995
 20
-101.58766
 30
0.0
 40
29.0
100
AcDbArc
 50
308.346619
 51
349.78052
  0
LINE
  5
732
100
AcDbEntity
  8
0
370
    -3
390
0
  6
Continuous
100
AcDbLine
 10
-461.484061
 20
-128.64954
 30
0.0
 11
-462.494108
 21
-126.900087
 31
0.0
  0
LINE
  5
733
100
AcDbEntity
  8
0
370
    -3
390
0
  6
Continuous
100
AcDbLine
 10
-457.662284
 20
-105.08766
 30
0.0
 11
-459.728027
 21
-105.08766
 31
0.0
  0
ARC
  5
734
100
AcDbEntity
  8
0
370
    -3
390
0
  6
Continuous
100
AcDbCircle
 10
-479.994995
 20
-101.58766
 30
0.0
 40
25.0
100
AcDbArc
 50
311.282824
 51
346.164776
  0
ARC
  5
735
100
AcDbEntity
  8
0
370
    -3
390
0
  6
Continuous
100
AcDbCircle
 10
-479.994995
 20
-101.58766
 30
0.0
 40
19.0
100
AcDbArc
 50
312.373625
 51
344.816886
  0
LINE
  5
736
100
AcDbEntity
  8
0
370
    -3
390
0
  6
Continuous
100
AcDbLine
 10
-466.552188
 20
-119.871285
 30
0.0
 11
-467.573836
 21
-118.101739
 31
0.0
  0
LINE
  5
737
100
AcDbEntity
  8
0
370
    -3
390
0
  6
Continuous
100
AcDbLine
 10
-468.215776
 20
-105.08766
 30
0.0
 11
-470.468716
 21
-105.08766
 31
0.0
  0
ARC
  5
738
100
AcDbEntity
  8
0
370
    -3
390
0
  6
Continuous
100
AcDbCircle
 10
-479.994995
 20
-101.58766
 30
0.0
 40
15.0
100
AcDbArc
 50
320.252247
 51
334.971001
  0
ARC
  5
739
100
AcDbEntity
  8
0
370
    -3
390
0
  6
Continuous
100
AcDbCircle
 10
-479.994995
 20
-101.58766
 30
0.0
 40
9.0
100
AcDbArc
 50
324.14774
 51
330.0
  0
LINE
  5
73A
100
AcDbEntity
  8
0
370
    -3
390
0
  6
Continuous
100
AcDbLine
 10
-471.731776
 20
-110.899976
 30
0.0
 11
-472.811217
 21
-109.03033
 31
0.0
  0
ARC
  5
73B
100
AcDbEntity
  8
0
370
    -3
390
0
  6
Continuous
100
AcDbCircle
 10
-479.994995
 20
-101.58766
 30
0.0
 40
35.0
100
AcDbArc
 50
189.594068
 51
232.16252
  0
LINE
  5
73C
100
AcDbEntity
  8
0
370
    -3
390
0
  6
Continuous
100
AcDbLine
 10
-512.533434
 20
-105.08766
 30
0.0
 11
-510.503191
 21
-105.08766
 31
0.0
  0
LINE
  5
73D
100
AcDbEntity
  8
0
370
    -3
390
0
  6
Continuous
100
AcDbLine
 10
-522.641801
 20
-105.08766
 30
0.0
 11
-520.624418
 21
-105.08766
 31
0.0
  0
ARC
  5
73E
100
AcDbEntity
  8
0
370
    -3
390
0
  6
Continuous
100
AcDbCircle
 10
-479.994995
 20
-101.58766
 30
0.0
 40
39.0
100
AcDbArc
 50
187.70926
 51
233.698744
  0
ARC
  5
73F
100
AcDbEntity
  8
0
370
    -3
390
0
  6
Continuous
100
AcDbCircle
 10
-479.994995
 20
-101.58766
 30
0.0
 40
45.0
100
AcDbArc
 50
187.348661
 51
233.992931
  0
ARC
  5
740
100
AcDbEntity
  8
0
370
    -3
390
0
  6
Continuous
100
AcDbCircle
 10
-479.994995
 20
-101.58766
 30
0.0
 40
55.0
100
AcDbArc
 50
185.956512
 51
235.1294
  0
LINE
  5
741
100
AcDbEntity
  8
0
370
    -3
390
0
  6
Continuous
100
AcDbLine
 10
-532.708846
 20
-105.08766
 30
0.0
 11
-530.697559
 21
-105.08766
 31
0.0
  0
ARC
  5
742
100
AcDbEntity
  8
0
370
    -3
390
0
  6
Continuous
100
AcDbCircle
 10
-479.994995
 20
-101.58766
 30
0.0
 40
49.0
100
AcDbArc
 50
186.190997
 51
235.986013
  0
ARC
  5
743
100
AcDbEntity
  8
0
370
    -3
390
0
  6
Continuous
100
AcDbCircle
 10
-507.964759
 20
-143.032712
 30
0.0
 40
1.0
100
AcDbArc
 50
330.0
 51
55.986013
  0
LINE
  5
744
100
AcDbEntity
  8
0
370
    -3
390
0
  6
Continuous
100
AcDbLine
 10
-508.564367
 20
-146.071264
 30
0.0
 11
-507.098734
 21
-143.532712
 31
0.0
  0
LINE
  5
745
100
AcDbEntity
  8
0
370
    -3
390
0
  6
Continuous
100
AcDbLine
 10
-503.542002
 20
-137.372273
 30
0.0
 11
-502.536209
 21
-135.630188
 31
0.0
  0
ARC
  5
746
100
AcDbEntity
  8
0
370
    -3
390
0
  6
Continuous
100
AcDbCircle
 10
-479.994995
 20
-101.58766
 30
0.0
 40
29.0
100
AcDbArc
 50
190.21948
 51
231.653381
  0
LINE
  5
747
100
AcDbEntity
  8
0
370
    -3
390
0
  6
Continuous
100
AcDbLine
 10
-498.50593
 20
-128.64954
 30
0.0
 11
-497.495883
 21
-126.900087
 31
0.0
  0
LINE
  5
748
100
AcDbEntity
  8
0
370
    -3
390
0
  6
Continuous
100
AcDbLine
 10
-502.327707
 20
-105.08766
 30
0.0
 11
-500.261964
 21
-105.08766
 31
0.0
  0
ARC
  5
749
100
AcDbEntity
  8
0
370
    -3
390
0
  6
Continuous
100
AcDbCircle
 10
-479.994995
 20
-101.58766
 30
0.0
 40
25.0
100
AcDbArc
 50
193.835224
 51
228.717176
  0
ARC
  5
74A
100
AcDbEntity
  8
0
370
    -3
390
0
  6
Continuous
100
AcDbCircle
 10
-479.994995
 20
-101.58766
 30
0.0
 40
19.0
100
AcDbArc
 50
195.183114
 51
227.626375
  0
LINE
  5
74B
100
AcDbEntity
  8
0
370
    -3
390
0
  6
Continuous
100
AcDbLine
 10
-493.437802
 20
-119.871285
 30
0.0
 11
-492.416155
 21
-118.101739
 31
0.0
  0
LINE
  5
74C
100
AcDbEntity
  8
0
370
    -3
390
0
  6
Continuous
100
AcDbLine
 10
-491.774214
 20
-105.08766
 30
0.0
 11
-489.521275
 21
-105.08766
 31
0.0
  0
ARC
  5
74D
100
AcDbEntity
  8
0
370
    -3
390
0
  6
Continuous
100
AcDbCircle
 10
-479.994995
 20
-101.58766
 30
0.0
 40
15.0
100
AcDbArc
 50
205.028999
 51
219.747753
  0
ARC
  5
74E
100
AcDbEntity
  8
0
370
    -3
390
0
  6
Continuous
100
AcDbCircle
 10
-479.994995
 20
-101.58766
 30
0.0
 40
9.0
100
AcDbArc
 50
210.0
 51
219.512685
  0
ARC
  5
74F
100
AcDbEntity
  8
0
370
    -3
390
0
  6
Continuous
100
AcDbCircle
 10
-487.709833
 20
-107.950151
 30
0.0
 40
1.0
100
AcDbArc
 50
330.0
 51
39.512685
  0
LINE
  5
750
100
AcDbEntity
  8
0
370
    -3
390
0
  6
Continuous
100
AcDbLine
 10
-488.258214
 20
-110.899976
 30
0.0
 11
-486.843807
 21
-108.450151
 31
0.0
  0
ARC
  5
751
100
AcDbEntity
  8
0
370
    -3
390
0
  6
Continuous
100
AcDbCircle
 10
-479.994995
 20
-101.58766
 30
0.0
 40
35.0
100
AcDbArc
 50
127.83748
 51
170.405932
  0
LINE
  5
752
100
AcDbEntity
  8
0
370
    -3
390
0
  6
Continuous
100
AcDbLine
 10
-512.533434
 20
-98.08766
 30
0.0
 11
-510.503191
 21
-98.08766
 31
0.0
  0
LINE
  5
753
100
AcDbEntity
  8
0
370
    -3
390
0
  6
Continuous
100
AcDbLine
 10
-522.641801
 20
-98.08766
 30
0.0
 11
-520.624418
 21
-98.08766
 31
0.0
  0
ARC
  5
754
100
AcDbEntity
  8
0
370
    -3
390
0
  6
Continuous
100
AcDbCircle
 10
-479.994995
 20
-101.58766
 30
0.0
 40
39.0
100
AcDbArc
 50
126.301256
 51
172.29074
  0
ARC
  5
755
100
AcDbEntity
  8
0
370
    -3
390
0
  6
Continuous
100
AcDbCircle
 10
-479.994995
 20
-101.58766
 30
0.0
 40
45.0
100
AcDbArc
 50
126.007069
 51
172.651339
  0
ARC
  5
756
100
AcDbEntity
  8
0
370
    -3
390
0
  6
Continuous
100
AcDbCircle
 10
-479.994995
 20
-101.58766
 30
0.0
 40
55.0
100
AcDbArc
 50
124.8706
 51
174.043488
  0
LINE
  5
757
100
AcDbEntity
  8
0
370
    -3
390
0
  6
Continuous
100
AcDbLine
 10
-532.708846
 20
-98.08766
 30
0.0
 11
-530.697559
 21
-98.08766
 31
0.0
  0
ARC
  5
758
100
AcDbEntity
  8
0
370
    -3
390
0
  6
Continuous
100
AcDbCircle
 10
-479.994995
 20
-101.58766
 30
0.0
 40
49.0
100
AcDbArc
 50
125.062093
 51
173.809003
  0
LINE
  5
759
100
AcDbEntity
  8
0
370
    -3
390
0
  6
Continuous
100
AcDbLine
 10
-508.564367
 20
-57.104057
 30
0.0
 11
-507.5606
 21
-58.842632
 31
0.0
  0
LINE
  5
75A
100
AcDbEntity
  8
0
370
    -3
390
0
  6
Continuous
100
AcDbLine
 10
-503.542002
 20
-65.803048
 30
0.0
 11
-502.536209
 21
-67.545133
 31
0.0
  0
ARC
  5
75B
100
AcDbEntity
  8
0
370
    -3
390
0
  6
Continuous
100
AcDbCircle
 10
-479.994995
 20
-101.58766
 30
0.0
 40
29.0
100
AcDbArc
 50
128.346619
 51
169.78052
  0
LINE
  5
75C
100
AcDbEntity
  8
0
370
    -3
390
0
  6
Continuous
100
AcDbLine
 10
-498.50593
 20
-74.525781
 30
0.0
 11
-497.495883
 21
-76.275234
 31
0.0
  0
LINE
  5
75D
100
AcDbEntity
  8
0
370
    -3
390
0
  6
Continuous
100
AcDbLine
 10
-502.327707
 20
-98.08766
 30
0.0
 11
-500.261964
 21
-98.08766
 31
0.0
  0
ARC
  5
75E
100
AcDbEntity
  8
0
370
    -3
390
0
  6
Continuous
100
AcDbCircle
 10
-479.994995
 20
-101.58766
 30
0.0
 40
25.0
100
AcDbArc
 50
131.282824
 51
166.164776
  0
ARC
  5
75F
100
AcDbEntity
  8
0
370
    -3
390
0
  6
Continuous
100
AcDbCircle
 10
-479.994995
 20
-101.58766
 30
0.0
 40
19.0
100
AcDbArc
 50
132.373625
 51
164.816886
  0
LINE
  5
760
100
AcDbEntity
  8
0
370
    -3
390
0
  6
Continuous
100
AcDbLine
 10
-493.437802
 20
-83.304036
 30
0.0
 11
-492.416155
 21
-85.073582
 31
0.0
  0
LINE
  5
761
100
AcDbEntity
  8
0
370
    -3
390
0
  6
Continuous
100
AcDbLine
 10
-491.774214
 20
-98.08766
 30
0.0
 11
-489.521275
 21
-98.08766
 31
0.0
  0
ARC
  5
762
100
AcDbEntity
  8
0
370
    -3
390
0
  6
Continuous
100
AcDbCircle
 10
-479.994995
 20
-101.58766
 30
0.0
 40
15.0
100
AcDbArc
 50
140.252247
 51
154.971001
  0
ARC
  5
763
100
AcDbEntity
  8
0
370
    -3
390
0
  6
Continuous
100
AcDbCircle
 10
-479.994995
 20
-101.58766
 30
0.0
 40
9.0
100
AcDbArc
 50
144.14774
 51
150.0
  0
LINE
  5
764
100
AcDbEntity
  8
0
370
    -3
390
0
  6
Continuous
100
AcDbLine
 10
-488.258214
 20
-92.275345
 30
0.0
 11
-487.178774
 21
-94.144991
 31
0.0
  0
ARC
  5
765
100
AcDbEntity
  8
0
370
    -3
390
0
  6
Continuous
100
AcDbCircle
 10
-479.994995
 20
-101.58766
 30
0.0
 40
35.0
100
AcDbArc
 50
247.83748
 51
290.405932
  0
LINE
  5
766
100
AcDbEntity
  8
0
370
    -3
390
0
  6
Continuous
100
AcDbLine
 10
-466.756865
 20
-131.516775
 30
0.0
 11
-467.771986
 21
-129.758533
 31
0.0
  0
LINE
  5
767
100
AcDbEntity
  8
0
370
    -3
390
0
  6
Continuous
100
AcDbLine
 10
-461.702682
 20
-140.270877
 30
0.0
 11
-462.711373
 21
-138.523773
 31
0.0
  0
ARC
  5
768
100
AcDbEntity
  8
0
370
    -3
390
0
  6
Continuous
100
AcDbCircle
 10
-479.994995
 20
-101.58766
 30
0.0
 40
39.0
100
AcDbArc
 50
246.301256
 51
292.29074
  0
ARC
  5
769
100
AcDbEntity
  8
0
370
    -3
390
0
  6
Continuous
100
AcDbCircle
 10
-479.994995
 20
-101.58766
 30
0.0
 40
45.0
100
AcDbArc
 50
246.007069
 51
292.651339
  0
ARC
  5
76A
100
AcDbEntity
  8
0
370
    -3
390
0
  6
Continuous
100
AcDbCircle
 10
-479.994995
 20
-101.58766
 30
0.0
 40
55.0
100
AcDbArc
 50
244.8706
 51
294.043488
  0
LINE
  5
76B
100
AcDbEntity
  8
0
370
    -3
390
0
  6
Continuous
100
AcDbLine
 10
-456.669159
 20
-148.989194
 30
0.0
 11
-457.674802
 21
-147.247369
 31
0.0
  0
ARC
  5
76C
100
AcDbEntity
  8
0
370
    -3
390
0
  6
Continuous
100
AcDbCircle
 10
-479.994995
 20
-101.58766
 30
0.0
 40
49.0
100
AcDbArc
 50
245.062093
 51
293.809003
  0
ARC
  5
76D
100
AcDbEntity
  8
0
370
    -3
390
0
  6
Continuous
100
AcDbCircle
 10
-479.994995
 20
-101.58766
 30
0.0
 40
29.0
100
AcDbArc
 50
248.346619
 51
289.78052
  0
LINE
  5
76E
100
AcDbEntity
  8
0
370
    -3
390
0
  6
Continuous
100
AcDbLine
 10
-471.859729
 20
-122.678356
 30
0.0
 11
-472.8926
 21
-120.88937
 31
0.0
  0
ARC
  5
76F
100
AcDbEntity
  8
0
370
    -3
390
0
  6
Continuous
100
AcDbCircle
 10
-479.994995
 20
-101.58766
 30
0.0
 40
25.0
100
AcDbArc
 50
251.282824
 51
286.164776
  0
ARC
  5
770
100
AcDbEntity
  8
0
370
    -3
390
0
  6
Continuous
100
AcDbCircle
 10
-479.994995
 20
-101.58766
 30
0.0
 40
19.0
100
AcDbArc
 50
252.373625
 51
284.816886
  0
LINE
  5
771
100
AcDbEntity
  8
0
370
    -3
390
0
  6
Continuous
100
AcDbLine
 10
-477.136475
 20
-113.538763
 30
0.0
 11
-478.262945
 21
-111.58766
 31
0.0
  0
ARC
  5
772
100
AcDbEntity
  8
0
370
    -3
390
0
  6
Continuous
100
AcDbCircle
 10
-479.994995
 20
-101.58766
 30
0.0
 40
15.0
100
AcDbArc
 50
260.252247
 51
274.971001
  0
ARC
  5
773
100
AcDbEntity
  8
0
370
    -3
390
0
  6
Continuous
100
AcDbCircle
 10
-479.994995
 20
-101.58766
 30
0.0
 40
9.0
100
AcDbArc
 50
264.14774
 51
270.0
  0
LINE
  5
774
100
AcDbEntity
  8
0
370
    -3
390
0
  6
Continuous
100
AcDbLine
 10
-483.928087
 20
-113.399976
 30
0.0
 11
-482.848647
 21
-111.53033
 31
0.0
  0
LINE
  5
775
100
AcDbEntity
  8
0
370
    -3
390
0
  6
Continuous
100
AcDbLine
 10
-489.107675
 20
-122.371285
 30
0.0
 11
-488.086028
 21
-120.601739
 31
0.0
  0
LINE
  5
776
100
AcDbEntity
  8
0
370
    -3
390
0
  6
Continuous
100
AcDbLine
 10
-494.175803
 20
-131.14954
 30
0.0
 11
-493.165756
 21
-129.400087
 31
0.0
  0
LINE
  5
777
100
AcDbEntity
  8
0
370
    -3
390
0
  6
Continuous
100
AcDbLine
 10
-499.211875
 20
-139.872273
 30
0.0
 11
-498.206082
 21
-138.130188
 31
0.0
  0
LINE
  5
778
100
AcDbEntity
  8
0
370
    -3
390
0
  6
Continuous
100
AcDbLine
 10
-504.23424
 20
-148.571264
 30
0.0
 11
-503.230473
 21
-146.832689
 31
0.0
  0
ARC
  5
779
100
AcDbEntity
  8
0
370
    -3
390
0
  6
Continuous
100
AcDbCircle
 10
-479.994995
 20
-101.58766
 30
0.0
 40
35.0
100
AcDbArc
 50
69.594068
 51
112.16252
  0
LINE
  5
77A
100
AcDbEntity
  8
0
370
    -3
390
0
  6
Continuous
100
AcDbLine
 10
-466.756865
 20
-71.658546
 30
0.0
 11
-467.771986
 21
-73.416788
 31
0.0
  0
ARC
  5
77B
100
AcDbEntity
  8
0
370
    -3
390
0
  6
Continuous
100
AcDbCircle
 10
-464.019075
 20
-64.916555
 30
0.0
 40
1.0
100
AcDbArc
 50
246.45945
 51
330.0
  0
LINE
  5
77C
100
AcDbEntity
  8
0
370
    -3
390
0
  6
Continuous
100
AcDbLine
 10
-461.702682
 20
-62.904444
 30
0.0
 11
-463.15305
 21
-65.416555
 31
0.0
  0
ARC
  5
77D
100
AcDbEntity
  8
0
370
    -3
390
0
  6
Continuous
100
AcDbCircle
 10
-479.994995
 20
-101.58766
 30
0.0
 40
39.0
100
AcDbArc
 50
66.45945
 51
113.698744
  0
ARC
  5
77E
100
AcDbEntity
  8
0
370
    -3
390
0
  6
Continuous
100
AcDbCircle
 10
-479.994995
 20
-101.58766
 30
0.0
 40
45.0
100
AcDbArc
 50
67.348661
 51
113.992931
  0
ARC
  5
77F
100
AcDbEntity
  8
0
370
    -3
390
0
  6
Continuous
100
AcDbCircle
 10
-479.994995
 20
-101.58766
 30
0.0
 40
55.0
100
AcDbArc
 50
65.956512
 51
115.1294
  0
LINE
  5
780
100
AcDbEntity
  8
0
370
    -3
390
0
  6
Continuous
100
AcDbLine
 10
-456.669159
 20
-54.186127
 30
0.0
 11
-457.674802
 21
-55.927952
 31
0.0
  0
ARC
  5
781
100
AcDbEntity
  8
0
370
    -3
390
0
  6
Continuous
100
AcDbCircle
 10
-479.994995
 20
-101.58766
 30
0.0
 40
49.0
100
AcDbArc
 50
66.190997
 51
114.937907
  0
ARC
  5
782
100
AcDbEntity
  8
0
370
    -3
390
0
  6
Continuous
100
AcDbCircle
 10
-479.994995
 20
-101.58766
 30
0.0
 40
29.0
100
AcDbArc
 50
70.21948
 51
113.300235
  0
LINE
  5
783
100
AcDbEntity
  8
0
370
    -3
390
0
  6
Continuous
100
AcDbLine
 10
-471.859729
 20
-80.496965
 30
0.0
 11
-472.8926
 21
-82.285951
 31
0.0
  0
ARC
  5
784
100
AcDbEntity
  8
0
370
    -3
390
0
  6
Continuous
100
AcDbCircle
 10
-479.994995
 20
-101.58766
 30
0.0
 40
25.0
100
AcDbArc
 50
73.835224
 51
108.717176
  0
ARC
  5
785
100
AcDbEntity
  8
0
370
    -3
390
0
  6
Continuous
100
AcDbCircle
 10
-479.994995
 20
-101.58766
 30
0.0
 40
19.0
100
AcDbArc
 50
75.183114
 51
107.626375
  0
LINE
  5
786
100
AcDbEntity
  8
0
370
    -3
390
0
  6
Continuous
100
AcDbLine
 10
-477.136475
 20
-89.636558
 30
0.0
 11
-478.262945
 21
-91.58766
 31
0.0
  0
ARC
  5
787
100
AcDbEntity
  8
0
370
    -3
390
0
  6
Continuous
100
AcDbCircle
 10
-479.994995
 20
-101.58766
 30
0.0
 40
15.0
100
AcDbArc
 50
85.028999
 51
99.747753
  0
ARC
  5
788
100
AcDbEntity
  8
0
370
    -3
390
0
  6
Continuous
100
AcDbCircle
 10
-479.994995
 20
-101.58766
 30
0.0
 40
9.0
100
AcDbArc
 50
90.0
 51
95.85226
  0
LINE
  5
789
100
AcDbEntity
  8
0
370
    -3
390
0
  6
Continuous
100
AcDbLine
 10
-483.928087
 20
-89.775345
 30
0.0
 11
-482.848647
 21
-91.644991
 31
0.0
  0
LINE
  5
78A
100
AcDbEntity
  8
0
370
    -3
390
0
  6
Continuous
100
AcDbLine
 10
-489.107675
 20
-80.804036
 30
0.0
 11
-488.086028
 21
-82.573582
 31
0.0
  0
ARC
  5
78B
100
AcDbEntity
  8
0
370
    -3
390
0
  6
Continuous
100
AcDbCircle
 10
-491.861473
 20
-74.034318
 30
0.0
 40
1.0
100
AcDbArc
 50
210.0
 51
293.300235
  0
LINE
  5
78C
100
AcDbEntity
  8
0
370
    -3
390
0
  6
Continuous
100
AcDbLine
 10
-494.175803
 20
-72.025781
 30
0.0
 11
-492.727499
 21
-74.534318
 31
0.0
  0
LINE
  5
78D
100
AcDbEntity
  8
0
370
    -3
390
0
  6
Continuous
100
AcDbLine
 10
-499.211875
 20
-63.303048
 30
0.0
 11
-498.206082
 21
-65.045133
 31
0.0
  0
LINE
  5
78E
100
AcDbEntity
  8
0
370
    -3
390
0
  6
Continuous
100
AcDbLine
 10
-504.23424
 20
-54.604057
 30
0.0
 11
-503.230473
 21
-56.342632
 31
0.0
  0
ARC
  5
78F
100
AcDbEntity
  8
0
370
    -3
390
0
  6
Continuous
100
AcDbCircle
 10
-503.278181
 20
-120.505727
 30
0.0
 40
36.944
100
AcDbArc
 50
184.33985
 51
219.094568
  0
ARC
  5
790
100
AcDbEntity
  8
0
370
    -3
390
0
  6
Continuous
100
AcDbCircle
 10
-479.994995
 20
-101.58766
 30
0.0
 40
66.944
100
AcDbArc
 50
219.094568
 51
230.905432
  0
ARC
  5
791
100
AcDbEntity
  8
0
370
    -3
390
0
  6
Continuous
100
AcDbCircle
 10
-498.913062
 20
-124.870846
 30
0.0
 40
36.944
100
AcDbArc
 50
230.905432
 51
265.66015
  0
ARC
  5
792
100
AcDbEntity
  8
0
370
    -3
390
0
  6
Continuous
100
AcDbCircle
 10
-461.076928
 20
-124.870846
 30
0.0
 40
36.944
100
AcDbArc
 50
274.33985
 51
309.094568
  0
ARC
  5
793
100
AcDbEntity
  8
0
370
    -3
390
0
  6
Continuous
100
AcDbCircle
 10
-479.994995
 20
-101.58766
 30
0.0
 40
66.944
100
AcDbArc
 50
309.094568
 51
320.905432
  0
ARC
  5
794
100
AcDbEntity
  8
0
370
    -3
390
0
  6
Continuous
100
AcDbCircle
 10
-456.711809
 20
-120.505727
 30
0.0
 40
36.944
100
AcDbArc
 50
320.905432
 51
355.66015
  0
ARC
  5
795
100
AcDbEntity
  8
0
370
    -3
390
0
  6
Continuous
100
AcDbCircle
 10
-456.711809
 20
-82.669593
 30
0.0
 40
36.944
100
AcDbArc
 50
4.33985
 51
39.094568
  0
ARC
  5
796
100
AcDbEntity
  8
0
370
    -3
390
0
  6
Continuous
100
AcDbCircle
 10
-479.994995
 20
-101.58766
 30
0.0
 40
66.944
100
AcDbArc
 50
39.094568
 51
50.905432
  0
ARC
  5
797
100
AcDbEntity
  8
0
370
    -3
390
0
  6
Continuous
100
AcDbCircle
 10
-479.994995
 20
-101.58766
 30
0.0
 40
66.944
100
AcDbArc
 50
129.094568
 51
140.905432
  0
ARC
  5
798
100
AcDbEntity
  8
0
370
    -3
390
0
  6
Continuous
100
AcDbCircle
 10
-503.278181
 20
-82.669593
 30
0.0
 40
36.944
100
AcDbArc
 50
140.905432
 51
175.66015
  0
ARC
  5
799
100
AcDbEntity
  8
0
370
    -3
390
0
  6
Continuous
100
AcDbCircle
 10
-479.994995
 20
-101.58766
 30
0.0
 40
45.0
100
AcDbArc
 50
7.348661
 51
53.992931
  0
LINE
  5
79A
100
AcDbEntity
  8
0
370
    -3
390
0
  6
CENTER
100
AcDbLine
 10
-410.928543
 20
-83.58766
 30
0.0
 11
-548.229719
 21
-83.58766
 31
0.0
  0
ARC
  5
79B
100
AcDbEntity
  8
0
370
    -3
390
0
  6
Continuous
100
AcDbCircle
 10
-461.076928
 20
-78.304475
 30
0.0
 40
50.8
100
AcDbArc
 50
79.738654
 51
85.66015
  0
ARC
  5
79C
100
AcDbEntity
  8
0
370
    -3
390
0
  6
Continuous
100
AcDbCircle
 10
-253.994995
 20
-101.58766
 30
0.0
 40
300.8
100
AcDbArc
 50
175.66015
 51
180.0
  0
ARC
  5
79D
100
AcDbEntity
  8
0
370
    -3
390
0
  6
Continuous
100
AcDbCircle
 10
-503.278181
 20
-82.669593
 30
0.0
 40
50.8
100
AcDbArc
 50
140.905432
 51
175.66015
  0
ARC
  5
79E
100
AcDbEntity
  8
0
370
    -3
390
0
  6
Continuous
100
AcDbCircle
 10
-479.994995
 20
-101.58766
 30
0.0
 40
80.8
100
AcDbArc
 50
129.094568
 51
140.905432
  0
ARC
  5
79F
100
AcDbEntity
  8
0
370
    -3
390
0
  6
Continuous
100
AcDbCircle
 10
-479.994995
 20
-327.58766
 30
0.0
 40
300.8
100
AcDbArc
 50
90.0
 51
93.654253
  0
ARC
  5
7A0
100
AcDbEntity
  8
0
370
    -3
390
0
  6
Continuous
100
AcDbCircle
 10
-498.913062
 20
-78.304475
 30
0.0
 40
50.8
100
AcDbArc
 50
126.310726
 51
129.094568
  0
ARC
  5
7A1
100
AcDbEntity
  8
0
370
    -3
390
0
  6
Continuous
100
AcDbCircle
 10
-479.994995
 20
-327.58766
 30
0.0
 40
300.8
100
AcDbArc
 50
85.66015
 51
90.0
  0
ARC
  5
7A2
100
AcDbEntity
  8
0
370
    -3
390
0
  6
Continuous
100
AcDbCircle
 10
-461.076928
 20
-78.304475
 30
0.0
 40
50.8
100
AcDbArc
 50
50.905432
 51
53.689274
  0
ARC
  5
7A3
100
AcDbEntity
  8
0
370
    -3
390
0
  6
Continuous
100
AcDbCircle
 10
-479.994995
 20
-101.58766
 30
0.0
 40
80.8
100
AcDbArc
 50
39.094568
 51
50.905432
  0
ARC
  5
7A4
100
AcDbEntity
  8
0
370
    -3
390
0
  6
Continuous
100
AcDbCircle
 10
-456.711809
 20
-82.669593
 30
0.0
 40
50.8
100
AcDbArc
 50
4.33985
 51
39.094568
  0
ARC
  5
7A5
100
AcDbEntity
  8
0
370
    -3
390
0
  6
Continuous
100
AcDbCircle
 10
-705.994995
 20
-101.58766
 30
0.0
 40
300.8
100
AcDbArc
 50
355.66015
 51
0.0
  0
ARC
  5
7A6
100
AcDbEntity
  8
0
370
    -3
390
0
  6
Continuous
100
AcDbCircle
 10
-456.711809
 20
-120.505727
 30
0.0
 40
50.8
100
AcDbArc
 50
320.905432
 51
355.66015
  0
ARC
  5
7A7
100
AcDbEntity
  8
0
370
    -3
390
0
  6
Continuous
100
AcDbCircle
 10
-705.994995
 20
-101.58766
 30
0.0
 40
300.8
100
AcDbArc
 50
360.0
 51
4.33985
  0
ARC
  5
7A8
100
AcDbEntity
  8
0
370
    -3
390
0
  6
Continuous
100
AcDbCircle
 10
-479.994995
 20
-101.58766
 30
0.0
 40
80.8
100
AcDbArc
 50
309.094568
 51
320.905432
  0
ARC
  5
7A9
100
AcDbEntity
  8
0
370
    -3
390
0
  6
Continuous
100
AcDbCircle
 10
-253.994995
 20
-101.58766
 30
0.0
 40
300.8
100
AcDbArc
 50
180.0
 51
184.33985
  0
ARC
  5
7AA
100
AcDbEntity
  8
0
370
    -3
390
0
  6
Continuous
100
AcDbCircle
 10
-503.278181
 20
-120.505727
 30
0.0
 40
50.8
100
AcDbArc
 50
184.33985
 51
219.094568
  0
ARC
  5
7AB
100
AcDbEntity
  8
0
370
    -3
390
0
  6
Continuous
100
AcDbCircle
 10
-479.994995
 20
-101.58766
 30
0.0
 40
80.8
100
AcDbArc
 50
219.094568
 51
230.905432
  0
ARC
  5
7AC
100
AcDbEntity
  8
0
370
    -3
390
0
  6
Continuous
100
AcDbCircle
 10
-461.076928
 20
-124.870846
 30
0.0
 40
50.8
100
AcDbArc
 50
277.503709
 51
309.094568
  0
ARC
  5
7AD
100
AcDbEntity
  8
0
370
    -3
390
0
  6
Continuous
100
AcDbCircle
 10
-498.913062
 20
-124.870846
 30
0.0
 40
50.8
100
AcDbArc
 50
230.905432
 51
262.496291
  0
ARC
  5
7AE
100
AcDbEntity
  8
0
370
    -3
390
0
  6
Continuous
100
AcDbCircle
 10
-536.171902
 20
-230.469268
 30
0.0
 40
9.0
100
AcDbArc
 50
277.398452
 51
310.601531
  0
ARC
  5
7AF
100
AcDbEntity
  8
0
370
    -3
390
0
  6
Continuous
100
AcDbCircle
 10
-535.180383
 20
-238.105164
 30
0.0
 40
1.299999
100
AcDbArc
 50
203.999982
 51
277.398452
  0
LINE
  5
7B0
100
AcDbEntity
  8
0
370
    -3
390
0
  6
CENTER
100
AcDbLine
 10
-512.112472
 20
-212.58766
 30
0.0
 11
-534.980981
 21
-212.58766
 31
0.0
  0
LINE
  5
7B1
100
AcDbEntity
  8
0
370
    -3
390
0
  6
Continuous
100
AcDbLine
 10
-438.643987
 20
-189.893096
 30
0.0
 11
-541.326496
 21
-235.610295
 31
0.0
  0
LINE
  5
7B2
100
AcDbEntity
  8
0
370
    -3
390
0
  6
Continuous
100
AcDbLine
 10
-448.994995
 20
-187.58766
 30
0.0
 11
-510.994995
 21
-187.58766
 31
0.0
  0
LINE
  5
7B3
100
AcDbEntity
  8
0
370
    -3
390
0
  6
Continuous
100
AcDbLine
 10
-447.30339
 20
-188.58766
 30
0.0
 11
-521.494995
 21
-188.58766
 31
0.0
  0
LINE
  5
7B4
100
AcDbEntity
  8
0
370
    -3
390
0
  6
Continuous
100
AcDbLine
 10
-510.994995
 20
-187.58766
 30
0.0
 11
-510.994995
 21
-188.58766
 31
0.0
  0
LINE
  5
7B5
100
AcDbEntity
  8
0
370
    -3
390
0
  6
Continuous
100
AcDbLine
 10
-536.941478
 20
-233.657959
 30
0.0
 11
-538.507414
 21
-230.140809
 31
0.0
  0
LINE
  5
7B6
100
AcDbEntity
  8
0
370
    -3
390
0
  6
Continuous
100
AcDbLine
 10
-533.287296
 20
-232.031013
 30
0.0
 11
-534.853232
 21
-228.513863
 31
0.0
  0
ARC
  5
7B7
100
AcDbEntity
  8
0
370
    -3
390
0
  6
Continuous
100
AcDbCircle
 10
-524.11763
 20
-232.957674
 30
0.0
 40
2.0
100
AcDbArc
 50
204.0
 51
265.768662
  0
ARC
  5
7B8
100
AcDbEntity
  8
0
370
    -3
390
0
  6
Continuous
100
AcDbCircle
 10
-526.767233
 20
-234.382348
 30
0.0
 40
1.0
100
AcDbArc
 50
24.0
 51
114.0
  0
LINE
  5
7B9
100
AcDbEntity
  8
0
370
    -3
390
0
  6
Continuous
100
AcDbLine
 10
-479.994995
 20
-212.463369
 30
0.0
 11
-538.867352
 21
-238.675031
 31
0.0
  0
ARC
  5
7BA
100
AcDbEntity
  8
0
370
    -3
390
0
  6
Continuous
100
AcDbCircle
 10
-539.274088
 20
-237.761486
 30
0.0
 40
1.0
100
AcDbArc
 50
204.0
 51
294.0
  0
LINE
  5
7BB
100
AcDbEntity
  8
0
370
    -3
390
0
  6
Continuous
100
AcDbLine
 10
-540.187634
 20
-238.168222
 30
0.0
 11
-541.326496
 21
-235.610295
 31
0.0
  0
LINE
  5
7BC
100
AcDbEntity
  8
0
370
    -3
390
0
  6
Continuous
100
AcDbLine
 10
-526.494995
 20
-193.58766
 30
0.0
 11
-526.494995
 21
-229.006885
 31
0.0
  0
ARC
  5
7BD
100
AcDbEntity
  8
0
370
    -3
390
0
  6
Continuous
100
AcDbCircle
 10
-521.494995
 20
-193.58766
 30
0.0
 40
5.0
100
AcDbArc
 50
90.0
 51
180.0
  0
LINE
  5
7BE
100
AcDbEntity
  8
0
370
    -3
390
0
  6
Continuous
100
AcDbLine
 10
-448.994995
 20
-187.58766
 30
0.0
 11
-448.994995
 21
-188.58766
 31
0.0
  0
ARC
  5
7BF
100
AcDbEntity
  8
0
370
    -3
390
0
  6
Continuous
100
AcDbCircle
 10
-447.30339
 20
-191.58766
 30
0.0
 40
3.0
100
AcDbArc
 50
24.0
 51
90.0
  0
LINE
  5
7C0
100
AcDbEntity
  8
0
370
    -3
390
0
  6
Continuous
100
AcDbLine
 10
-443.759842
 20
-192.170822
 30
0.0
 11
-444.562754
 21
-190.36745
 31
0.0
  0
LINE
  5
7C1
100
AcDbEntity
  8
0
370
    -3
390
0
  6
Continuous
100
AcDbLine
 10
-437.505124
 20
-192.451024
 30
0.0
 11
-438.643987
 21
-189.893096
 31
0.0
  0
ARC
  5
7C2
100
AcDbEntity
  8
0
370
    -3
390
0
  6
Continuous
100
AcDbCircle
 10
-529.398155
 20
-235.553709
 30
0.0
 40
1.0
100
AcDbArc
 50
85.284875
 51
114.0
  0
ARC
  5
7C3
100
AcDbEntity
  8
0
370
    -3
390
0
  6
Continuous
100
AcDbCircle
 10
-462.816099
 20
-221.335371
 30
0.0
 40
15.0
100
AcDbArc
 50
271.682769
 51
350.681877
  0
LINE
  5
7C4
100
AcDbEntity
  8
0
370
    -3
390
0
  6
Continuous
100
AcDbLine
 10
-443.755202
 20
-197.808474
 30
0.0
 11
-448.014031
 21
-223.764111
 31
0.0
  0
ARC
  5
7C5
100
AcDbEntity
  8
0
370
    -3
390
0
  6
Continuous
100
AcDbCircle
 10
-440.794788
 20
-198.294222
 30
0.0
 40
3.0
100
AcDbArc
 50
114.0
 51
170.681877
  0
LINE
  5
7C6
100
AcDbEntity
  8
0
370
    -3
390
0
  6
Continuous
100
AcDbLine
 10
-438.011933
 20
-193.771306
 30
0.0
 11
-479.994995
 21
-212.463369
 31
0.0
  0
LINE
  5
7C7
100
AcDbEntity
  8
0
370
    -3
390
0
  6
Continuous
100
AcDbLine
 10
-441.338325
 20
-190.222257
 30
0.0
 11
-441.65091
 21
-190.958661
 31
0.0
  0
LINE
  5
7C8
100
AcDbEntity
  8
0
370
    -3
390
0
  6
Continuous
100
AcDbLine
 10
-441.336775
 20
-191.092003
 30
0.0
 11
-441.65091
 21
-190.958661
 31
0.0
  0
LINE
  5
7C9
100
AcDbEntity
  8
0
370
    -3
390
0
  6
Continuous
100
AcDbLine
 10
-440.337483
 20
-190.647089
 30
0.0
 11
-441.338325
 21
-190.222257
 31
0.0
  0
ARC
  5
7CA
100
AcDbEntity
  8
0
370
    -3
390
0
  6
Continuous
100
AcDbCircle
 10
-531.160782
 20
-236.315522
 30
0.0
 40
1.299999
100
AcDbArc
 50
310.601531
 51
24.000001
  0
LINE
  5
7CB
100
AcDbEntity
  8
0
370
    -3
390
0
  6
Continuous
100
AcDbLine
 10
-530.371379
 20
-234.89238
 30
0.0
 11
-529.973173
 21
-235.786765
 31
0.0
  0
LINE
  5
7CC
100
AcDbEntity
  8
0
370
    -3
390
0
  6
Continuous
100
AcDbLine
 10
-536.766197
 20
-237.739537
 30
0.0
 11
-536.367992
 21
-238.633921
 31
0.0
  0
LINE
  5
7CD
100
AcDbEntity
  8
0
370
    -3
390
0
  6
Continuous
100
AcDbLine
 10
-530.371379
 20
-234.89238
 30
0.0
 11
-536.766197
 21
-237.739537
 31
0.0
  0
LINE
  5
7CE
100
AcDbEntity
  8
0
370
    -3
390
0
  6
Continuous
100
AcDbLine
 10
-530.371379
 20
-234.89238
 30
0.0
 11
-536.766197
 21
-237.739537
 31
0.0
  0
POINT
  5
7CF
100
AcDbEntity
  8
0
370
    -3
390
0
  6
Continuous
100
AcDbPoint
 10
-533.568788
 20
-236.315959
 30
0.0
  0
LINE
  5
7D0
100
AcDbEntity
  8
0
370
    -3
390
0
  6
Continuous
100
AcDbLine
 10
-535.315331
 20
-228.33648
 30
0.0
 11
-538.330031
 21
-229.678711
 31
0.0
  0
LINE
  5
7D1
100
AcDbEntity
  8
0
370
    -3
390
0
  6
Continuous
100
AcDbLine
 10
-538.507414
 20
-230.140809
 30
0.0
 11
-538.330031
 21
-229.678711
 31
0.0
  0
LINE
  5
7D2
100
AcDbEntity
  8
0
370
    -3
390
0
  6
Continuous
100
AcDbLine
 10
-534.853232
 20
-228.513863
 30
0.0
 11
-535.315331
 21
-228.33648
 31
0.0
  0
LINE
  5
7D3
100
AcDbEntity
  8
0
370
    -3
390
0
  6
Continuous
100
AcDbLine
 10
-533.607037
 20
-232.173371
 30
0.0
 11
-535.315331
 21
-228.33648
 31
0.0
  0
LINE
  5
7D4
100
AcDbEntity
  8
0
370
    -3
390
0
  6
Continuous
100
AcDbLine
 10
-536.621737
 20
-233.515601
 30
0.0
 11
-538.330031
 21
-229.678711
 31
0.0
  0
ARC
  5
7D5
100
AcDbEntity
  8
0
370
    -3
390
0
  6
Continuous
100
AcDbCircle
 10
-438.41867
 20
-192.85776
 30
0.0
 40
1.0
100
AcDbArc
 50
294.0
 51
24.0
  0
LINE
  5
7D6
100
AcDbEntity
  8
0
370
    -3
390
0
  6
Continuous
100
AcDbLine
 10
-510.994995
 20
-187.58766
 30
0.0
 11
-510.994995
 21
-185.98766
 31
0.0
  0
LINE
  5
7D7
100
AcDbEntity
  8
0
370
    -3
390
0
  6
Continuous
100
AcDbLine
 10
-479.994995
 20
-187.58766
 30
0.0
 11
-510.994995
 21
-187.58766
 31
0.0
  0
LINE
  5
7D8
100
AcDbEntity
  8
0
370
    -3
390
0
  6
Continuous
100
AcDbLine
 10
-479.994995
 20
-187.58766
 30
0.0
 11
-448.994995
 21
-187.58766
 31
0.0
  0
LINE
  5
7D9
100
AcDbEntity
  8
0
370
    -3
390
0
  6
Continuous
100
AcDbLine
 10
-448.994995
 20
-187.58766
 30
0.0
 11
-448.994995
 21
-185.98766
 31
0.0
  0
LINE
  5
7DA
100
AcDbEntity
  8
0
370
    -3
390
0
  6
Continuous
100
AcDbLine
 10
-510.994995
 20
-185.98766
 30
0.0
 11
-448.994995
 21
-185.98766
 31
0.0
  0
LINE
  5
7DB
100
AcDbEntity
  8
0
370
    -3
390
0
  6
CENTER
100
AcDbLine
 10
-511.998651
 20
-101.58766
 30
0.0
 11
-440.326323
 21
-101.58766
 31
0.0
  0
LINE
  5
7DC
100
AcDbEntity
  8
0
370
    -3
390
0
  6
CENTER
100
AcDbLine
 10
-479.994995
 20
-243.337806
 30
0.0
 11
-479.994995
 21
-20.879924
 31
0.0
  0
ENDSEC
  0
SECTION
  2
OBJECTS
  0
DICTIONARY
  5
19
100
AcDbDictionary
280
     0
281
     1
  3
ACAD_GROUP
350
1A
  3
ACAD_MLINESTYLE
350
1B
  3
ACAD_LAYOUT
350
1E
  3
ACAD_PLOTSETTINGS
350
22
  3
ACAD_PLOTSTYLENAME
350
1F
  3
ACAD_WIPEOUT_VARS
350
23
  3
DWGPROPS
350
7DD
  0
DICTIONARY
  5
1A
102
{ACAD_REACTORS
330
19
102
}
100
AcDbDictionary
280
     0
281
     1
  0
DICTIONARY
  5
1B
102
{ACAD_REACTORS
330
19
102
}
100
AcDbDictionary
280
     0
281
     1
  3
Standard
350
1C
  0
MLINESTYLE
  5
1C
102
{ACAD_REACTORS
330
1B
102
}
100
AcDbMlineStyle
  2
Standard
 70
     0
  3

 62
     0
 51
90.0
 52
90.0
 71
     2
 49
0.5
 62
   256
  6
ByLayer
 49
-0.5
 62
   256
  6
ByLayer
  0
ACDBDICTIONARYWDFLT
  5
1F
102
{ACAD_REACTORS
330
19
102
}
100
AcDbDictionary
281
     1
  3
Normal
350
1D
100
AcDbDictionaryWithDefault
340
1D
  0
ACDBPLACEHOLDER
  5
1D
102
{ACAD_REACTORS
330
1F
102
}
  0
LAYOUT
  5
20
102
{ACAD_REACTORS
330
1E
102
}
100
AcDbPlotSettings
  1

  2

  4

  6

 40
0.0
 41
0.0
 42
0.0
 43
0.0
 44
0.0
 45
0.0
 46
0.0
 47
0.0
 48
0.0
 49
0.0
140
0.0
141
0.0
142
1.0
143
1.0
 70
  1024
 72
     0
 73
     0
 74
     0
  7

 75
     0
147
1.0
148
0.0
149
0.0
100
AcDbLayout
  1
Model
 70
     0
 71
     0
 10
0.0
 20
0.0
 11
0.0
 21
0.0
 12
0.0
 22
0.0
 32
0.0
 14
0.0
 24
0.0
 34
0.0
 15
0.0
 25
0.0
 35
0.0
146
0.0
 13
0.0
 23
0.0
 33
0.0
 16
0.0
 26
0.0
 36
0.0
 17
0.0
 27
0.0
 37
0.0
 76
     0
330
A
331
0
345
0
346
0
  0
LAYOUT
  5
21
102
{ACAD_REACTORS
330
1E
102
}
100
AcDbPlotSettings
  1

  2

  4

  6

 40
0.0
 41
0.0
 42
0.0
 43
0.0
 44
0.0
 45
0.0
 46
0.0
 47
0.0
 48
0.0
 49
0.0
140
0.0
141
0.0
142
1.0
143
1.0
 70
     0
 72
     0
 73
     0
 74
     0
  7

 75
     0
147
1.0
148
0.0
149
0.0
100
AcDbLayout
  1
Layout1
 70
     0
 71
     0
 10
0.0
 20
0.0
 11
0.0
 21
0.0
 12
0.0
 22
0.0
 32
0.0
 14
0.0
 24
0.0
 34
0.0
 15
0.0
 25
0.0
 35
0.0
146
0.0
 13
0.0
 23
0.0
 33
0.0
 16
0.0
 26
0.0
 36
0.0
 17
0.0
 27
0.0
 37
0.0
 76
     0
330
B
331
0
345
0
346
0
  0
DICTIONARY
  5
1E
102
{ACAD_REACTORS
330
19
102
}
100
AcDbDictionary
280
     0
281
     1
  3
Layout1
350
21
  3
Model
350
20
  0
DICTIONARY
  5
22
102
{ACAD_REACTORS
330
19
102
}
100
AcDbDictionary
280
     0
281
     1
  0
WIPEOUTVARIABLES
  5
23
100
AcDbWipeoutVariables
 70
     1
  0
XRECORD
  5
7DD
100
AcDbXrecord
280
     1
  1
DWGPROPS COOKIE
  2

  3

  4

  6

  7

  8
YP81315
  9

300
=
301
=
302
=
303
=
304
=
305
=
306
=
307
=
308
=
309
=
 40
0.0
 41
2456812.586123
 42
2456812.586123
  1

 90
        0
  0
ENDSEC
  0
EOF
