  0
SECTION
  2
HEADER
  9
$ACADVER
  1
AC1015
  9
$ACADMAINTVER
 70
     6
  9
$DWGCODEPAGE
  3
ANSI_932
  9
$INSBASE
 10
0.0
 20
0.0
 30
0.0
  9
$EXTMIN
 10
1.000000E+20
 20
1.000000E+20
 30
1.000000E+20
  9
$EXTMAX
 10
-1.000000E+20
 20
-1.000000E+20
 30
-1.000000E+20
  9
$LIMMIN
 10
0.0
 20
0.0
  9
$LIMMAX
 10
0.0
 20
0.0
  9
$ORTHOMODE
 70
     0
  9
$REGENMODE
 70
     1
  9
$FILLMODE
 70
     1
  9
$QTEXTMODE
 70
     0
  9
$MIRRTEXT
 70
     1
  9
$LTSCALE
 40
1.0
  9
$ATTMODE
 70
     1
  9
$TEXTSIZE
 40
3.2
  9
$TRACEWID
 40
0.05
  9
$TEXTSTYLE
  7
Standard
  9
$CLAYER
  8
0
  9
$CELTYPE
  6
Continuous
  9
$CECOLOR
 62
   256
  9
$CELTSCALE
 40
1.0
  9
$DISPSILH
 70
     0
  9
$DIMSCALE
 40
1.0
  9
$DIMASZ
 40
3.863703
  9
$DIMEXO
 40
1.0
  9
$DIMDLI
 40
0.38
  9
$DIMRND
 40
0.0
  9
$DIMDLE
 40
0.0
  9
$DIMEXE
 40
2.0
  9
$DIMTP
 40
0.0
  9
$DIMTM
 40
0.0
  9
$DIMTXT
 40
3.2
  9
$DIMCEN
 40
0.09
  9
$DIMTSZ
 40
0.0
  9
$DIMTOL
 70
     0
  9
$DIMLIM
 70
     0
  9
$DIMTIH
 70
     1
  9
$DIMTOH
 70
     1
  9
$DIMSE1
 70
     0
  9
$DIMSE2
 70
     0
  9
$DIMTAD
 70
     1
  9
$DIMZIN
 70
     0
  9
$DIMBLK
  1

  9
$DIMASO
 70
     1
  9
$DIMSHO
 70
     1
  9
$DIMPOST
  1

  9
$DIMAPOST
  1

  9
$DIMALT
 70
     0
  9
$DIMALTD
 70
     2
  9
$DIMALTF
 40
25.4
  9
$DIMLFAC
 40
1.0
  9
$DIMTOFL
 70
     0
  9
$DIMTVP
 40
0.0
  9
$DIMTIX
 70
     0
  9
$DIMSOXD
 70
     0
  9
$DIMSAH
 70
     0
  9
$DIMBLK1
  1

  9
$DIMBLK2
  1

  9
$DIMSTYLE
  2
Standard
  9
$DIMCLRD
 70
     0
  9
$DIMCLRE
 70
     0
  9
$DIMCLRT
 70
     0
  9
$DIMTFAC
 40
0.625
  9
$DIMGAP
 40
0.09
  9
$DIMJUST
 70
     0
  9
$DIMSD1
 70
     0
  9
$DIMSD2
 70
     0
  9
$DIMTOLJ
 70
     1
  9
$DIMTZIN
 70
     0
  9
$DIMALTZ
 70
     0
  9
$DIMALTTZ
 70
     0
  9
$DIMUPT
 70
     0
  9
$DIMDEC
 70
     4
  9
$DIMTDEC
 70
     4
  9
$DIMALTU
 70
     2
  9
$DIMALTTD
 70
     2
  9
$DIMTXSTY
  7
Standard
  9
$DIMAUNIT
 70
     0
  9
$DIMADEC
 70
     0
  9
$DIMALTRND
 40
0.0
  9
$DIMAZIN
 70
     0
  9
$DIMDSEP
 70
     0
  9
$DIMATFIT
 70
     3
  9
$DIMFRAC
 70
     0
  9
$DIMLDRBLK
  1

  9
$DIMLUNIT
 70
     2
  9
$DIMLWD
 70
     0
  9
$DIMLWE
 70
     0
  9
$DIMTMOVE
 70
     0
  9
$LUNITS
 70
     2
  9
$LUPREC
 70
     3
  9
$SKETCHINC
 40
0.1
  9
$FILLETRAD
 40
0.0
  9
$AUNITS
 70
     0
  9
$AUPREC
 70
     0
  9
$MENU
  1
acad
  9
$ELEVATION
 40
0.0
  9
$PELEVATION
 40
0.0
  9
$THICKNESS
 40
0.0
  9
$LIMCHECK
 70
     0
  9
$CHAMFERA
 40
0.0
  9
$CHAMFERB
 40
0.0
  9
$CHAMFERC
 40
0.0
  9
$CHAMFERD
 40
0.0
  9
$SKPOLY
 70
     0
  9
$TDCREATE
 40
0.000000000
  9
$TDUCREATE
 40
0.000000000
  9
$TDUPDATE
 40
0.000000000
  9
$TDUUPDATE
 40
0.000000000
  9
$TDINDWG
 40
0.0000000000
  9
$TDUSRTIMER
 40
0.0000000000
  9
$USRTIMER
 70
     1
  9
$ANGBASE
 50
0.0
  9
$ANGDIR
 70
     0
  9
$PDMODE
 70
     0
  9
$PDSIZE
 40
0.0
  9
$PLINEWID
 40
0.0
  9
$SPLFRAME
 70
     0
  9
$SPLINETYPE
 70
     6
  9
$SPLINESEGS
 70
     8
  9
$HANDSEED
  5
56F
  9
$SURFTAB1
 70
     6
  9
$SURFTAB2
 70
     6
  9
$SURFTYPE
 70
     6
  9
$SURFU
 70
     6
  9
$SURFV
 70
     6
  9
$UCSBASE
  2

  9
$UCSNAME
  2

  9
$UCSORG
 10
0.0
 20
0.0
 30
0.0
  9
$UCSXDIR
 10
1.0
 20
0.0
 30
0.0
  9
$UCSYDIR
 10
0.0
 20
1.0
 30
0.0
  9
$UCSORTHOREF
  2

  9
$UCSORTHOVIEW
 70
     0
  9
$UCSORGTOP
 10
0.0
 20
0.0
 30
0.0
  9
$UCSORGBOTTOM
 10
0.0
 20
0.0
 30
0.0
  9
$UCSORGLEFT
 10
0.0
 20
0.0
 30
0.0
  9
$UCSORGRIGHT
 10
0.0
 20
0.0
 30
0.0
  9
$UCSORGFRONT
 10
0.0
 20
0.0
 30
0.0
  9
$UCSORGBACK
 10
0.0
 20
0.0
 30
0.0
  9
$PUCSBASE
  2

  9
$PUCSNAME
  2

  9
$PUCSORG
 10
0.0
 20
0.0
 30
0.0
  9
$PUCSXDIR
 10
1.0
 20
0.0
 30
0.0
  9
$PUCSYDIR
 10
0.0
 20
1.0
 30
0.0
  9
$PUCSORTHOREF
  2

  9
$PUCSORTHOVIEW
 70
     0
  9
$PUCSORGTOP
 10
0.0
 20
0.0
 30
0.0
  9
$PUCSORGBOTTOM
 10
0.0
 20
0.0
 30
0.0
  9
$PUCSORGLEFT
 10
0.0
 20
0.0
 30
0.0
  9
$PUCSORGRIGHT
 10
0.0
 20
0.0
 30
0.0
  9
$PUCSORGFRONT
 10
0.0
 20
0.0
 30
0.0
  9
$PUCSORGBACK
 10
0.0
 20
0.0
 30
0.0
  9
$USERI1
 70
     0
  9
$USERI2
 70
     0
  9
$USERI3
 70
     0
  9
$USERI4
 70
     0
  9
$USERI5
 70
     0
  9
$USERR1
 40
0.0
  9
$USERR2
 40
0.0
  9
$USERR3
 40
0.0
  9
$USERR4
 40
0.0
  9
$USERR5
 40
0.0
  9
$WORLDVIEW
 70
     1
  9
$SHADEDGE
 70
     3
  9
$SHADEDIF
 70
    70
  9
$TILEMODE
 70
     1
  9
$MAXACTVP
 70
    16
  9
$PINSBASE
 10
0.0
 20
0.0
 30
0.0
  9
$PLIMCHECK
 70
     0
  9
$PEXTMIN
 10
1.000000E+20
 20
1.000000E+20
 30
1.000000E+20
  9
$PEXTMAX
 10
-1.000000E+20
 20
-1.000000E+20
 30
-1.000000E+20
  9
$PLIMMIN
 10
0.0
 20
0.0
  9
$PLIMMAX
 10
12.0
 20
9.0
  9
$UNITMODE
 70
     0
  9
$VISRETAIN
 70
     0
  9
$PLINEGEN
 70
     1
  9
$PSLTSCALE
 70
     0
  9
$TREEDEPTH
 70
  3020
  9
$CMLSTYLE
  2
Standard
  9
$CMLJUST
 70
     0
  9
$CMLSCALE
 40
1.0
  9
$PROXYGRAPHICS
 70
     0
  9
$MEASUREMENT
 70
     0
  9
$CELWEIGHT
370
     0
  9
$ENDCAPS
280
     0
  9
$JOINSTYLE
280
     0
  9
$LWDISPLAY
290
     0
  9
$INSUNITS
 70
     0
  9
$HYPERLINKBASE
  1

  9
$STYLESHEET
  1

  9
$XEDIT
290
     1
  9
$CEPSNTYPE
380
     0
  9
$PSTYLEMODE
290
     1
  9
$FINGERPRINTGUID
  2

  9
$VERSIONGUID
  2

  9
$EXTNAMES
290
     1
  9
$PSVPSCALE
 40
0.0
  0
ENDSEC
  0
SECTION
  2
CLASSES
  0
CLASS
  1
LWPOLYLINE
  2
AcDbPolyline
  3
AutoCAD 2000
 90
        0
280
     0
281
     1
  0
CLASS
  1
IMAGE
  2
AcDbRasterImage
  3
ISM
 90
      127
280
     0
281
     1
  0
CLASS
  1
OLE2FRAME
  2
AcDbOle2Frame
  3
AutoCAD 2000
 90
        0
280
     0
281
     1
  0
CLASS
  1
HATCH
  2
AcDbHatch
  3
AutoCAD 2000
 90
        0
280
     0
281
     1
  0
CLASS
  1
DICTIONARYVAR
  2
AcDbDictionaryVar
  3
AutoCAD 2000
 90
        0
280
     0
281
     0
  0
CLASS
  1
RASTERVARIABLES
  2
AcDbRasterVariables
  3
ISM
 90
        0
280
     0
281
     0
  0
CLASS
  1
IMAGEDEF
  2
AcDbRasterImageDef
  3
ISM
 90
        0
280
     0
281
     0
  0
CLASS
  1
IMAGEDEF_REACTOR
  2
AcDbRasterImageDefReactor
  3
ISM
 90
        1
280
     0
281
     0
  0
CLASS
  1
IDBUFFER
  2
AcDbIdBuffer
  3
AutoCAD 2000
 90
        0
280
     0
281
     0
  0
CLASS
  1
SPATIAL_FILTER
  2
AcDbSpatialFilter
  3
AutoCAD 2000
 90
        0
280
     0
281
     0
  0
CLASS
  1
XRECORD
  2
AcDbXrecord
  3
AutoCAD 2000
 90
        0
280
     0
281
     0
  0
CLASS
  1
SORTENTSTABLE
  2
AcDbSortentsTable
  3
AutoCAD 2000
 90
        0
280
     0
281
     0
  0
CLASS
  1
LAYER_INDEX
  2
AcDbLayerIndex
  3
AutoCAD 2000
 90
        0
280
     0
281
     0
  0
CLASS
  1
SPATIAL_INDEX
  2
AcDbSpatialIndex
  3
AutoCAD 2000
 90
        0
280
     0
281
     0
  0
CLASS
  1
OBJECT_PTR
  2
CAseDLPNTableRecord
  3
"ASE-LPNTableRecord"
 90
        1
280
     0
281
     0
  0
CLASS
  1
LAYOUT
  2
AcDbLayout
  3
AutoCAD 2000
 90
        0
280
     0
281
     0
  0
CLASS
  1
PLOTSETTINGS
  2
AcDbPlotSettings
  3
AutoCAD 2000
 90
        0
280
     0
281
     0
  0
CLASS
  1
ACDBDICTIONARYWDFLT
  2
AcDbDictionaryWithDefault
  3
AutoCAD 2000
 90
        0
280
     0
281
     0
  0
CLASS
  1
ACDBPLACEHOLDER
  2
AcDbPlaceHolder
  3
AutoCAD 2000
 90
        0
280
     0
281
     0
  0
CLASS
  1
VBA_PROJECT
  2
AcDbVbaProject
  3
acadvba
 90
        0
280
     0
281
     0
  0
CLASS
  1
WIPEOUT
  2
AcDbWipeout
  3
WipeOut|AutoCAD Express Tool|expresstools@autodesk.com
 90
      127
280
     0
281
     1
  0
CLASS
  1
WIPEOUTVARIABLES
  2
AcDbWipeoutVariables
  3
WipeOut|AutoCAD Express Tool|expresstools@autodesk.com
 90
        0
280
     0
281
     0
  0
CLASS
  1
RTEXT
  2
RText
  3
RText|AutoCAD Express Tool|expresstools@autodesk.com
 90
        0
280
     0
281
     1
  0
CLASS
  1
ARCALIGNEDTEXT
  2
AcDbArcAlignedText
  3
ATEXT|AutoCAD Express Tool|expresstools@autodesk.com
 90
        0
280
     0
281
     1
  0
ENDSEC
  0
SECTION
  2
TABLES
  0
TABLE
  2
VPORT
  5
7
100
AcDbSymbolTable
 70
     1
  0
VPORT
  5
15
100
AcDbSymbolTableRecord
100
AcDbViewportTableRecord
  2
*ACTIVE
 70
     0
 10
0.0
 20
0.0
 11
1.0
 21
1.0
 12
0.0
 22
0.0
 13
0.0
 23
0.0
 14
1.0
 24
1.0
 15
0.0
 25
0.0
 16
0.0
 26
0.0
 36
1.0
 17
0.0
 27
0.0
 37
0.0
 40
100.0
 41
1.0
 42
50.0
 43
0.0
 44
0.0
 50
0.0
 51
0.0
 71
     0
 72
   100
 73
     1
 74
     1
 75
     0
 76
     0
 77
     0
 78
     0
281
     0
 65
     0
110
0.0
120
0.0
130
0.0
111
1.0
121
0.0
131
0.0
112
0.0
122
1.0
132
0.0
345
0
346
0
 79
     0
146
0.0
  0
ENDTAB
  0
TABLE
  2
LTYPE
  5
4
100
AcDbSymbolTable
 70
     7
  0
LTYPE
  5
11
100
AcDbSymbolTableRecord
100
AcDbLinetypeTableRecord
  2
ByBlock
 70
    64
  3

 72
    65
 73
     0
 40
0.0
  0
LTYPE
  5
12
100
AcDbSymbolTableRecord
100
AcDbLinetypeTableRecord
  2
ByLayer
 70
    64
  3

 72
    65
 73
     0
 40
0.0
  0
LTYPE
  5
13
100
AcDbSymbolTableRecord
100
AcDbLinetypeTableRecord
  2
Continuous
 70
    64
  3
Solid line
 72
    65
 73
     0
 40
0.0
  0
LTYPE
  5
24
100
AcDbSymbolTableRecord
100
AcDbLinetypeTableRecord
  2
DASHED
 70
    64
  3
Dashed __ __ __ __ __ __ __ __ __ __ __ __ __ _
 72
    65
 73
     2
 40
0.75
 49
0.5
 74
     0
 49
-0.25
 74
     0
  0
LTYPE
  5
25
100
AcDbSymbolTableRecord
100
AcDbLinetypeTableRecord
  2
CENTER
 70
    64
  3
Center ____ _ ____ _ ____ _ ____ _ ____ _ ____
 72
    65
 73
     4
 40
1.0
 49
0.5
 74
     0
 49
-0.25
 74
     0
 49
0.0
 74
     0
 49
-0.25
 74
     0
  0
LTYPE
  5
26
100
AcDbSymbolTableRecord
100
AcDbLinetypeTableRecord
  2
DIVIDE
 70
    64
  3
Divide ____ . . ____ . . ____ . . ____ . . ____
 72
    65
 73
     6
 40
1.25
 49
0.5
 74
     0
 49
-0.25
 74
     0
 49
0.0
 74
     0
 49
-0.25
 74
     0
 49
0.0
 74
     0
 49
-0.25
 74
     0
  0
LTYPE
  5
27
100
AcDbSymbolTableRecord
100
AcDbLinetypeTableRecord
  2
PHANTOM
 70
    64
  3
Phantom ______  __  __  ______  __  __  ______
 72
    65
 73
     6
 40
9.0
 49
4.3
 74
     0
 49
-0.7
 74
     0
 49
1.3
 74
     0
 49
-0.7
 74
     0
 49
1.3
 74
     0
 49
-0.7
 74
     0
  0
ENDTAB
  0
TABLE
  2
LAYER
  5
2
100
AcDbSymbolTable
 70
     1
  0
LAYER
  5
14
100
AcDbSymbolTableRecord
100
AcDbLayerTableRecord
  2
0
 70
    64
 62
     3
  6
Continuous
290
     1
370
    -3
390
1D
  0
ENDTAB
  0
TABLE
  2
STYLE
  5
3
100
AcDbSymbolTable
 70
     2
  0
STYLE
  5
17
100
AcDbSymbolTableRecord
100
AcDbTextStyleTableRecord
  2
Standard
 70
     0
 40
0.0
 41
1.0
 50
0.0
 71
     0
 42
0.0
  3
txt
  4

  0
STYLE
  5
251
100
AcDbSymbolTableRecord
100
AcDbTextStyleTableRecord
  2
ZU_SHPTB00001
 70
     0
 40
0.0
 41
1.0
 50
0.0
 71
     0
 42
0.0
  3
monotxt
  4
bigfont
  0
ENDTAB
  0
TABLE
  2
VIEW
  5
5
100
AcDbSymbolTable
 70
     0
  0
ENDTAB
  0
TABLE
  2
UCS
  5
6
100
AcDbSymbolTable
 70
     0
  0
ENDTAB
  0
TABLE
  2
APPID
  5
8
100
AcDbSymbolTable
 70
     1
  0
APPID
  5
16
100
AcDbSymbolTableRecord
100
AcDbRegAppTableRecord
  2
ACAD
 70
     0
  0
ENDTAB
  0
TABLE
  2
DIMSTYLE
  5
9
100
AcDbSymbolTable
 70
     1
100
AcDbDimStyleTable
 71
     0
  0
DIMSTYLE
105
18
100
AcDbSymbolTableRecord
100
AcDbDimStyleTableRecord
  2
Standard
 70
     0
  3

  4

 40
1.0
 41
0.18
 42
0.0625
 43
0.38
 44
0.18
 45
0.0
 46
0.0
 47
0.0
 48
0.0
 71
     0
 72
     0
 73
     1
 74
     1
 75
     0
 76
     0
 77
     0
 78
     0
 79
     0
140
0.18
141
0.09
142
0.0
143
25.4
144
1.0
145
0.0
146
1.0
147
0.09
148
0.0
170
     0
171
     2
172
     0
173
     0
174
     0
175
     0
176
     0
177
     0
178
     0
179
     0
271
     4
272
     4
273
     2
274
     2
275
     0
276
     0
277
     2
278
    46
279
     0
280
     0
281
     0
282
     0
283
     1
284
     0
285
     0
286
     0
288
     0
289
     3
340
17
341
0
342
0
343
0
344
0
371
    -2
372
    -2
  0
ENDTAB
  0
TABLE
  2
BLOCK_RECORD
  5
1
100
AcDbSymbolTable
 70
     3
  0
BLOCK_RECORD
  5
A
100
AcDbSymbolTableRecord
100
AcDbBlockTableRecord
  2
*MODEL_SPACE
340
20
  0
BLOCK_RECORD
  5
B
100
AcDbSymbolTableRecord
100
AcDbBlockTableRecord
  2
*PAPER_SPACE
340
21
  0
BLOCK_RECORD
  5
181
100
AcDbSymbolTableRecord
100
AcDbBlockTableRecord
  2
ZU_SYM__USERS_HOME_SYMBOL_POO_SYM_B20_05
340
0
102
{BLKREFS
331
18D
102
}
  0
BLOCK_RECORD
  5
18E
100
AcDbSymbolTableRecord
100
AcDbBlockTableRecord
  2
ZU_SYM__USERS_HOME_SYMBOL_POO_SYM_B20_0000105
340
0
102
{BLKREFS
331
19A
102
}
  0
BLOCK_RECORD
  5
1D2
100
AcDbSymbolTableRecord
100
AcDbBlockTableRecord
  2
ZU_SYM__USERS_HOME_SYMBOL_POO_SYM_B20_18
340
0
102
{BLKREFS
331
1DD
102
}
  0
ENDTAB
  0
ENDSEC
  0
SECTION
  2
BLOCKS
  0
BLOCK
  5
D
100
AcDbEntity
  8
0
390
0
100
AcDbBlockBegin
  2
*MODEL_SPACE
 70
     0
 10
0.0
 20
0.0
 30
0.0
  3
*MODEL_SPACE
  1

  0
ENDBLK
  5
E
100
AcDbEntity
  8
0
390
0
100
AcDbBlockEnd
  0
BLOCK
  5
F
100
AcDbEntity
 67
     1
  8
0
390
0
100
AcDbBlockBegin
  2
*PAPER_SPACE
 70
     0
 10
0.0
 20
0.0
 30
0.0
  3
*PAPER_SPACE
  1

  0
ENDBLK
  5
10
100
AcDbEntity
 67
     1
  8
0
390
0
100
AcDbBlockEnd
  0
BLOCK
  5
182
100
AcDbEntity
  8
0
390
0
100
AcDbBlockBegin
  2
ZU_SYM__USERS_HOME_SYMBOL_POO_SYM_B20_05
 70
    64
 10
0.0
 20
0.0
 30
0.0
  3
ZU_SYM__USERS_HOME_SYMBOL_POO_SYM_B20_05
  1

  0
CIRCLE
  5
183
100
AcDbEntity
  8
0
370
    -3
390
0
  6
Continuous
100
AcDbCircle
 10
0.0
 20
0.0
 30
0.0
 40
5.633955
  0
CIRCLE
  5
184
100
AcDbEntity
  8
0
370
    -3
390
0
  6
Continuous
100
AcDbCircle
 10
0.0
 20
0.0
 30
0.0
 40
6.5
  0
POINT
  5
185
100
AcDbEntity
  8
0
370
    -3
390
0
  6
Continuous
100
AcDbPoint
 10
0.0
 20
0.0
 30
0.0
  0
LINE
  5
186
100
AcDbEntity
  8
0
370
    -3
390
0
  6
Continuous
100
AcDbLine
 10
-2.999997
 20
-1.732046
 30
0.0
 11
-2.999998
 21
1.732052
 31
0.0
  0
LINE
  5
187
100
AcDbEntity
  8
0
370
    -3
390
0
  6
Continuous
100
AcDbLine
 10
2.999997
 20
1.732047
 30
0.0
 11
2.999998
 21
-1.732051
 31
0.0
  0
LINE
  5
188
100
AcDbEntity
  8
0
370
    -3
390
0
  6
Continuous
100
AcDbLine
 10
0.000007
 20
3.464097
 30
0.0
 11
-2.999998
 21
1.732052
 31
0.0
  0
LINE
  5
189
100
AcDbEntity
  8
0
370
    -3
390
0
  6
Continuous
100
AcDbLine
 10
2.999998
 20
-1.732051
 30
0.0
 11
-0.000004
 21
-3.464098
 31
0.0
  0
LINE
  5
18A
100
AcDbEntity
  8
0
370
    -3
390
0
  6
Continuous
100
AcDbLine
 10
0.000007
 20
3.464097
 30
0.0
 11
2.999997
 21
1.732047
 31
0.0
  0
LINE
  5
18B
100
AcDbEntity
  8
0
370
    -3
390
0
  6
Continuous
100
AcDbLine
 10
-0.000005
 20
-3.464098
 30
0.0
 11
-2.999998
 21
-1.732046
 31
0.0
  0
ENDBLK
  5
18C
100
AcDbEntity
  8
0
390
0
100
AcDbBlockEnd
  0
BLOCK
  5
18F
100
AcDbEntity
  8
0
390
0
100
AcDbBlockBegin
  2
ZU_SYM__USERS_HOME_SYMBOL_POO_SYM_B20_0000105
 70
    64
 10
0.0
 20
0.0
 30
0.0
  3
ZU_SYM__USERS_HOME_SYMBOL_POO_SYM_B20_0000105
  1

  0
CIRCLE
  5
190
100
AcDbEntity
  8
0
370
    -3
390
0
  6
Continuous
100
AcDbCircle
 10
0.0
 20
0.0
 30
0.0
 40
5.633955
  0
CIRCLE
  5
191
100
AcDbEntity
  8
0
370
    -3
390
0
  6
Continuous
100
AcDbCircle
 10
0.0
 20
0.0
 30
0.0
 40
6.5
  0
POINT
  5
192
100
AcDbEntity
  8
0
370
    -3
390
0
  6
Continuous
100
AcDbPoint
 10
0.0
 20
0.0
 30
0.0
  0
LINE
  5
193
100
AcDbEntity
  8
0
370
    -3
390
0
  6
Continuous
100
AcDbLine
 10
-2.999997
 20
-1.732046
 30
0.0
 11
-2.999998
 21
1.732052
 31
0.0
  0
LINE
  5
194
100
AcDbEntity
  8
0
370
    -3
390
0
  6
Continuous
100
AcDbLine
 10
2.999997
 20
1.732047
 30
0.0
 11
2.999998
 21
-1.732051
 31
0.0
  0
LINE
  5
195
100
AcDbEntity
  8
0
370
    -3
390
0
  6
Continuous
100
AcDbLine
 10
0.000007
 20
3.464097
 30
0.0
 11
-2.999998
 21
1.732052
 31
0.0
  0
LINE
  5
196
100
AcDbEntity
  8
0
370
    -3
390
0
  6
Continuous
100
AcDbLine
 10
2.999998
 20
-1.732051
 30
0.0
 11
-0.000004
 21
-3.464098
 31
0.0
  0
LINE
  5
197
100
AcDbEntity
  8
0
370
    -3
390
0
  6
Continuous
100
AcDbLine
 10
0.000007
 20
3.464097
 30
0.0
 11
2.999997
 21
1.732047
 31
0.0
  0
LINE
  5
198
100
AcDbEntity
  8
0
370
    -3
390
0
  6
Continuous
100
AcDbLine
 10
-0.000005
 20
-3.464098
 30
0.0
 11
-2.999998
 21
-1.732046
 31
0.0
  0
ENDBLK
  5
199
100
AcDbEntity
  8
0
390
0
100
AcDbBlockEnd
  0
BLOCK
  5
1D3
100
AcDbEntity
  8
0
390
0
100
AcDbBlockBegin
  2
ZU_SYM__USERS_HOME_SYMBOL_POO_SYM_B20_18
 70
    64
 10
0.0
 20
0.0
 30
0.0
  3
ZU_SYM__USERS_HOME_SYMBOL_POO_SYM_B20_18
  1

  0
POINT
  5
1D4
100
AcDbEntity
  8
0
370
    -3
390
0
  6
Continuous
100
AcDbPoint
 10
0.0
 20
0.0
 30
0.0
  0
LINE
  5
1D5
100
AcDbEntity
  8
0
370
    -3
390
0
  6
Continuous
100
AcDbLine
 10
0.0
 20
-6.5
 30
0.0
 11
0.0
 21
6.5
 31
0.0
  0
LINE
  5
1D6
100
AcDbEntity
  8
0
370
    -3
390
0
  6
Continuous
100
AcDbLine
 10
-7.999999
 20
5.633876
 30
0.0
 11
-7.999999
 21
-5.63407
 31
0.0
  0
LINE
  5
1D7
100
AcDbEntity
  8
0
370
    -3
390
0
  6
Continuous
100
AcDbLine
 10
0.0
 20
6.5
 30
0.0
 11
-7.499999
 21
6.5
 31
0.0
  0
LINE
  5
1D8
100
AcDbEntity
  8
0
370
    -3
390
0
  6
Continuous
100
AcDbLine
 10
0.0
 20
-6.5
 30
0.0
 11
-7.499998
 21
-6.5
 31
0.0
  0
LINE
  5
1D9
100
AcDbEntity
  8
0
370
    -3
390
0
  6
Continuous
100
AcDbLine
 10
-7.499999
 20
6.5
 30
0.0
 11
-7.999999
 21
5.633876
 31
0.0
  0
LINE
  5
1DA
100
AcDbEntity
  8
0
370
    -3
390
0
  6
Continuous
100
AcDbLine
 10
-7.499998
 20
-6.499999
 30
0.0
 11
-7.999999
 21
-5.63407
 31
0.0
  0
LINE
  5
1DB
100
AcDbEntity
  8
0
370
    -3
390
0
  6
Continuous
100
AcDbLine
 10
-7.499999
 20
6.5
 30
0.0
 11
-7.499999
 21
-6.5
 31
0.0
  0
ENDBLK
  5
1DC
100
AcDbEntity
  8
0
390
0
100
AcDbBlockEnd
  0
ENDSEC
  0
SECTION
  2
ENTITIES
  0
ARC
  5
28
100
AcDbEntity
  8
0
370
    -3
390
0
  6
Continuous
100
AcDbCircle
 10
-352.871225
 20
-298.675203
 30
0.0
 40
9.0
100
AcDbArc
 50
253.398469
 51
286.601548
  0
ARC
  5
29
100
AcDbEntity
  8
0
370
    -3
390
0
  6
Continuous
100
AcDbCircle
 10
-350.871225
 20
-305.6577
 30
0.0
 40
1.5
100
AcDbArc
 50
0.0
 51
32.230953
  0
LINE
  5
2A
100
AcDbEntity
  8
0
370
    -3
390
0
  6
Continuous
100
AcDbLine
 10
-349.371225
 20
-306.054228
 30
0.0
 11
-349.371225
 21
-305.6577
 31
0.0
  0
ARC
  5
2B
100
AcDbEntity
  8
0
370
    -3
390
0
  6
Continuous
100
AcDbCircle
 10
-350.671225
 20
-306.054228
 30
0.0
 40
1.299999
100
AcDbArc
 50
286.601531
 51
0.0
  0
ARC
  5
2C
100
AcDbEntity
  8
0
370
    -3
390
0
  6
Continuous
100
AcDbCircle
 10
-354.871225
 20
-305.6577
 30
0.0
 40
1.5
100
AcDbArc
 50
147.769047
 51
180.0
  0
ARC
  5
2D
100
AcDbEntity
  8
0
370
    -3
390
0
  6
Continuous
100
AcDbCircle
 10
-355.071226
 20
-306.054228
 30
0.0
 40
1.299999
100
AcDbArc
 50
180.0
 51
253.398469
  0
LINE
  5
2E
100
AcDbEntity
  8
0
370
    -3
390
0
  6
Continuous
100
AcDbLine
 10
-356.371225
 20
-306.054228
 30
0.0
 11
-356.371225
 21
-305.6577
 31
0.0
  0
LINE
  5
2F
100
AcDbEntity
  8
0
370
    -3
390
0
  6
CENTER
100
AcDbLine
 10
-329.837032
 20
-280.856894
 30
0.0
 11
-379.529487
 21
-280.856894
 31
0.0
  0
LINE
  5
30
100
AcDbEntity
  8
0
370
    -3
390
0
  6
CENTER
100
AcDbLine
 10
-147.261309
 20
-147.856894
 30
0.0
 11
-467.049306
 21
-147.856894
 31
0.0
  0
ARC
  5
31
100
AcDbEntity
  8
0
370
    -3
390
0
  6
Continuous
100
AcDbCircle
 10
261.523758
 20
-147.856611
 30
0.0
 40
451.0
100
AcDbArc
 50
359.618872
 51
3.229411
  0
ARC
  5
32
100
AcDbEntity
  8
0
370
    -3
390
0
  6
Continuous
100
AcDbCircle
 10
640.920309
 20
-126.449683
 30
0.0
 40
71.0
100
AcDbArc
 50
3.229411
 51
21.128806
  0
ARC
  5
33
100
AcDbEntity
  8
0
370
    -3
390
0
  6
Continuous
100
AcDbCircle
 10
640.920309
 20
-126.449683
 30
0.0
 40
71.0
100
AcDbArc
 50
21.128806
 51
34.287111
  0
ARC
  5
34
100
AcDbEntity
  8
0
370
    -3
390
0
  6
Continuous
100
AcDbCircle
 10
609.523758
 20
-147.856611
 30
0.0
 40
109.0
100
AcDbArc
 50
34.287111
 51
38.756221
  0
ARC
  5
35
100
AcDbEntity
  8
0
370
    -3
390
0
  6
Continuous
100
AcDbCircle
 10
609.523758
 20
-147.856611
 30
0.0
 40
109.0
100
AcDbArc
 50
38.756221
 51
46.522208
  0
ARC
  5
36
100
AcDbEntity
  8
0
370
    -3
390
0
  6
Continuous
100
AcDbCircle
 10
609.523758
 20
-147.856611
 30
0.0
 40
109.0
100
AcDbArc
 50
129.956203
 51
132.393476
  0
ARC
  5
37
100
AcDbEntity
  8
0
370
    -3
390
0
  6
Continuous
100
AcDbCircle
 10
609.523758
 20
-147.856611
 30
0.0
 40
109.0
100
AcDbArc
 50
141.243779
 51
145.712889
  0
ARC
  5
38
100
AcDbEntity
  8
0
370
    -3
390
0
  6
Continuous
100
AcDbCircle
 10
578.127206
 20
-126.449683
 30
0.0
 40
71.0
100
AcDbArc
 50
145.712889
 51
176.770589
  0
ARC
  5
39
100
AcDbEntity
  8
0
370
    -3
390
0
  6
Continuous
100
AcDbCircle
 10
957.523758
 20
-147.856611
 30
0.0
 40
451.0
100
AcDbArc
 50
176.770589
 51
183.229411
  0
ARC
  5
3A
100
AcDbEntity
  8
0
370
    -3
390
0
  6
Continuous
100
AcDbCircle
 10
578.127206
 20
-169.263538
 30
0.0
 40
71.0
100
AcDbArc
 50
183.229411
 51
214.287111
  0
ARC
  5
3B
100
AcDbEntity
  8
0
370
    -3
390
0
  6
Continuous
100
AcDbCircle
 10
609.523758
 20
-147.856611
 30
0.0
 40
109.0
100
AcDbArc
 50
214.287111
 51
222.781859
  0
ARC
  5
3C
100
AcDbEntity
  8
0
370
    -3
390
0
  6
Continuous
100
AcDbCircle
 10
609.523758
 20
-147.856611
 30
0.0
 40
109.0
100
AcDbArc
 50
222.781859
 51
235.712889
  0
ARC
  5
3D
100
AcDbEntity
  8
0
370
    -3
390
0
  6
Continuous
100
AcDbCircle
 10
588.11683
 20
-179.253162
 30
0.0
 40
71.0
100
AcDbArc
 50
235.712889
 51
266.614446
  0
ARC
  5
3E
100
AcDbEntity
  8
0
370
    -3
390
0
  6
Continuous
100
AcDbCircle
 10
630.930685
 20
-179.253162
 30
0.0
 40
71.0
100
AcDbArc
 50
273.385861
 51
304.287111
  0
ARC
  5
3F
100
AcDbEntity
  8
0
370
    -3
390
0
  6
Continuous
100
AcDbCircle
 10
609.523758
 20
-147.856611
 30
0.0
 40
109.0
100
AcDbArc
 50
304.287111
 51
317.218141
  0
ARC
  5
40
100
AcDbEntity
  8
0
370
    -3
390
0
  6
Continuous
100
AcDbCircle
 10
609.523758
 20
-147.856611
 30
0.0
 40
109.0
100
AcDbArc
 50
317.218141
 51
325.712889
  0
ARC
  5
41
100
AcDbEntity
  8
0
370
    -3
390
0
  6
Continuous
100
AcDbCircle
 10
640.920309
 20
-169.263538
 30
0.0
 40
71.0
100
AcDbArc
 50
325.712889
 51
356.770589
  0
ARC
  5
42
100
AcDbEntity
  8
0
370
    -3
390
0
  6
Continuous
100
AcDbCircle
 10
261.523758
 20
-147.856611
 30
0.0
 40
451.0
100
AcDbArc
 50
356.770589
 51
359.618872
  0
LINE
  5
43
100
AcDbEntity
  8
0
370
    -3
390
0
  6
CENTER
100
AcDbLine
 10
629.472021
 20
-147.856611
 30
0.0
 11
586.338943
 21
-147.856611
 31
0.0
  0
LINE
  5
44
100
AcDbEntity
  8
0
370
    -3
390
0
  6
CENTER
100
AcDbLine
 10
609.523608
 20
-27.198394
 30
0.0
 11
609.52396
 21
-316.221538
 31
0.0
  0
LINE
  5
45
100
AcDbEntity
  8
0
370
    -3
390
0
  6
Continuous
100
AcDbLine
 10
-167.871515
 20
-245.356994
 30
0.0
 11
-328.271515
 21
-245.35758
 31
0.0
  0
LINE
  5
46
100
AcDbEntity
  8
0
370
    -3
390
0
  6
Continuous
100
AcDbLine
 10
-167.871513
 20
-245.856994
 30
0.0
 11
-328.271513
 21
-245.85758
 31
0.0
  0
LINE
  5
47
100
AcDbEntity
  8
0
370
    -3
390
0
  6
Continuous
100
AcDbLine
 10
-167.871525
 20
-243.356994
 30
0.0
 11
-328.271525
 21
-243.35758
 31
0.0
  0
LINE
  5
48
100
AcDbEntity
  8
0
370
    -3
390
0
  6
Continuous
100
AcDbLine
 10
-167.871537
 20
-240.856994
 30
0.0
 11
-367.871537
 21
-240.857773
 31
0.0
  0
LINE
  5
49
100
AcDbEntity
  8
0
370
    -3
390
0
  6
Continuous
100
AcDbLine
 10
-167.871518
 20
-244.856994
 30
0.0
 11
-328.271518
 21
-244.85758
 31
0.0
  0
LINE
  5
4A
100
AcDbEntity
  8
0
370
    -3
390
0
  6
Continuous
100
AcDbLine
 10
-367.872491
 20
-44.857773
 30
0.0
 11
-367.871508
 21
-246.7324
 31
0.0
  0
LINE
  5
4B
100
AcDbEntity
  8
0
370
    -3
390
0
  6
Continuous
100
AcDbLine
 10
-367.872491
 20
-44.857773
 30
0.0
 11
-404.527591
 21
-44.857952
 31
0.0
  0
LINE
  5
4C
100
AcDbEntity
  8
0
370
    -3
390
0
  6
CENTER
100
AcDbLine
 10
-352.871492
 20
-250.023987
 30
0.0
 11
-352.87119
 21
-312.0864
 31
0.0
  0
LINE
  5
4D
100
AcDbEntity
  8
0
370
    -3
390
0
  6
Continuous
100
AcDbLine
 10
-388.321215
 20
-307.031698
 30
0.0
 11
-355.928471
 21
-307.03154
 31
0.0
  0
LINE
  5
4E
100
AcDbEntity
  8
0
370
    -3
390
0
  6
Continuous
100
AcDbLine
 10
-388.321453
 20
-258.163309
 30
0.0
 11
-317.421453
 21
-258.162964
 31
0.0
  0
LINE
  5
4F
100
AcDbEntity
  8
0
370
    -3
390
0
  6
Continuous
100
AcDbLine
 10
-388.321436
 20
-261.634782
 30
0.0
 11
-317.421436
 21
-261.634436
 31
0.0
  0
LINE
  5
50
100
AcDbEntity
  8
0
370
    -3
390
0
  6
Continuous
100
AcDbLine
 10
-306.421399
 20
-269.16291
 30
0.0
 11
-306.421268
 21
-296.031299
 31
0.0
  0
LINE
  5
51
100
AcDbEntity
  8
0
370
    -3
390
0
  6
Continuous
100
AcDbLine
 10
-312.821254
 20
-299.057505
 30
0.0
 11
-312.821398
 21
-269.48157
 31
0.0
  0
LINE
  5
52
100
AcDbEntity
  8
0
370
    -3
390
0
  6
Continuous
100
AcDbLine
 10
-392.921254
 20
-299.057895
 30
0.0
 11
-392.921398
 21
-269.48196
 31
0.0
  0
LINE
  5
53
100
AcDbEntity
  8
0
370
    -3
390
0
  6
Continuous
100
AcDbLine
 10
-387.921422
 20
-264.481936
 30
0.0
 11
-317.821422
 21
-264.481595
 31
0.0
  0
ARC
  5
54
100
AcDbEntity
  8
0
370
    -3
390
0
  6
Continuous
100
AcDbCircle
 10
-317.821398
 20
-269.481595
 30
0.0
 40
5.0
100
AcDbArc
 50
0.000279
 51
90.000279
  0
ARC
  5
55
100
AcDbEntity
  8
0
370
    -3
390
0
  6
Continuous
100
AcDbCircle
 10
-387.921398
 20
-269.481936
 30
0.0
 40
5.0
100
AcDbArc
 50
90.000279
 51
180.000279
  0
ARC
  5
56
100
AcDbEntity
  8
0
370
    -3
390
0
  6
Continuous
100
AcDbCircle
 10
-317.421268
 20
-296.031353
 30
0.0
 40
11.0
100
AcDbArc
 50
270.000279
 51
0.000279
  0
ARC
  5
57
100
AcDbEntity
  8
0
370
    -3
390
0
  6
Continuous
100
AcDbCircle
 10
-388.321268
 20
-296.031698
 30
0.0
 40
11.0
100
AcDbArc
 50
180.000279
 51
270.000279
  0
LINE
  5
58
100
AcDbEntity
  8
0
370
    -3
390
0
  6
Continuous
100
AcDbLine
 10
-387.121225
 20
-304.857867
 30
0.0
 11
-318.621225
 21
-304.857533
 31
0.0
  0
ARC
  5
59
100
AcDbEntity
  8
0
370
    -3
390
0
  6
Continuous
100
AcDbCircle
 10
-318.621254
 20
-299.057533
 30
0.0
 40
5.8
100
AcDbArc
 50
270.000279
 51
0.000279
  0
ARC
  5
5A
100
AcDbEntity
  8
0
370
    -3
390
0
  6
Continuous
100
AcDbCircle
 10
-387.121254
 20
-299.057867
 30
0.0
 40
5.8
100
AcDbArc
 50
180.000279
 51
270.000279
  0
ARC
  5
5B
100
AcDbEntity
  8
0
370
    -3
390
0
  6
Continuous
100
AcDbCircle
 10
-317.421382
 20
-272.634436
 30
0.0
 40
11.0
100
AcDbArc
 50
0.000279
 51
90.000279
  0
ARC
  5
5C
100
AcDbEntity
  8
0
370
    -3
390
0
  6
Continuous
100
AcDbCircle
 10
-317.421399
 20
-269.162964
 30
0.0
 40
11.0
100
AcDbArc
 50
0.000279
 51
90.000279
  0
ARC
  5
5D
100
AcDbEntity
  8
0
370
    -3
390
0
  6
Continuous
100
AcDbCircle
 10
-388.321382
 20
-272.634782
 30
0.0
 40
11.0
100
AcDbArc
 50
90.000279
 51
180.000279
  0
ARC
  5
5E
100
AcDbEntity
  8
0
370
    -3
390
0
  6
Continuous
100
AcDbCircle
 10
-388.321399
 20
-269.163309
 30
0.0
 40
11.0
100
AcDbArc
 50
90.000279
 51
180.000279
  0
ARC
  5
5F
100
AcDbEntity
  8
0
370
    -3
390
0
  6
Continuous
100
AcDbCircle
 10
-319.071435
 20
-261.857536
 30
0.0
 40
5.0
100
AcDbArc
 50
44.926235
 51
90.000279
  0
ARC
  5
60
100
AcDbEntity
  8
0
370
    -3
390
0
  6
Continuous
100
AcDbCircle
 10
-386.671435
 20
-261.857865
 30
0.0
 40
5.0
100
AcDbArc
 50
90.000279
 51
135.074323
  0
CIRCLE
  5
61
100
AcDbEntity
  8
0
370
    -3
390
0
  6
DASHED
100
AcDbCircle
 10
-352.871342
 20
-280.8577
 30
0.0
 40
13.5
  0
LINE
  5
62
100
AcDbEntity
  8
0
370
    -3
390
0
  6
Continuous
100
AcDbLine
 10
-349.813959
 20
-307.031511
 30
0.0
 11
-317.421215
 21
-307.031353
 31
0.0
  0
LINE
  5
63
100
AcDbEntity
  8
0
370
    -3
390
0
  6
Continuous
100
AcDbLine
 10
-399.321399
 20
-269.163362
 30
0.0
 11
-399.321268
 21
-296.031752
 31
0.0
  0
LINE
  5
64
100
AcDbEntity
  8
0
370
    -3
390
0
  6
Continuous
100
AcDbLine
 10
-386.671459
 20
-256.857865
 30
0.0
 11
-319.071459
 21
-256.857536
 31
0.0
  0
LINE
  5
65
100
AcDbEntity
  8
0
370
    -3
390
0
  6
Continuous
100
AcDbLine
 10
-321.871464
 20
-255.857549
 30
0.0
 11
-321.871459
 21
-256.857549
 31
0.0
  0
LINE
  5
66
100
AcDbEntity
  8
0
370
    -3
390
0
  6
Continuous
100
AcDbLine
 10
-383.871464
 20
-255.857851
 30
0.0
 11
-383.871459
 21
-256.857851
 31
0.0
  0
LINE
  5
67
100
AcDbEntity
  8
0
370
    -3
390
0
  6
Continuous
100
AcDbLine
 10
-382.871488
 20
-250.857846
 30
0.0
 11
-382.871489
 21
-250.732473
 31
0.0
  0
LINE
  5
68
100
AcDbEntity
  8
0
370
    -3
390
0
  6
Continuous
100
AcDbLine
 10
-377.471482
 20
-252.25782
 30
0.0
 11
-377.471494
 21
-249.732447
 31
0.0
  0
LINE
  5
69
100
AcDbEntity
  8
0
370
    -3
390
0
  6
Continuous
100
AcDbLine
 10
-382.871488
 20
-250.857846
 30
0.0
 11
-404.526588
 21
-250.857952
 31
0.0
  0
ARC
  5
6A
100
AcDbEntity
  8
0
370
    -3
390
0
  6
Continuous
100
AcDbCircle
 10
-370.871508
 20
-246.732415
 30
0.0
 40
3.0
100
AcDbArc
 50
270.000279
 51
0.000279
  0
LINE
  5
6B
100
AcDbEntity
  8
0
370
    -3
390
0
  6
Continuous
100
AcDbLine
 10
-370.871494
 20
-249.732415
 30
0.0
 11
-381.871494
 21
-249.732468
 31
0.0
  0
ARC
  5
6C
100
AcDbEntity
  8
0
370
    -3
390
0
  6
Continuous
100
AcDbCircle
 10
-381.871489
 20
-250.732468
 30
0.0
 40
1.0
100
AcDbArc
 50
90.000279
 51
180.000279
  0
LINE
  5
6D
100
AcDbEntity
  8
0
370
    -3
390
0
  6
Continuous
100
AcDbLine
 10
-352.871537
 20
-240.8577
 30
0.0
 11
-367.871537
 21
-240.857773
 31
0.0
  0
LINE
  5
6E
100
AcDbEntity
  8
0
370
    -3
390
0
  6
Continuous
100
AcDbLine
 10
-321.871472
 20
-254.257549
 30
0.0
 11
-383.871472
 21
-254.257851
 31
0.0
  0
LINE
  5
6F
100
AcDbEntity
  8
0
370
    -3
390
0
  6
Continuous
100
AcDbLine
 10
-321.871464
 20
-255.857549
 30
0.0
 11
-321.871472
 21
-254.257549
 31
0.0
  0
LINE
  5
70
100
AcDbEntity
  8
0
370
    -3
390
0
  6
Continuous
100
AcDbLine
 10
-383.871464
 20
-255.857851
 30
0.0
 11
-383.871472
 21
-254.257851
 31
0.0
  0
ARC
  5
71
100
AcDbEntity
  8
0
370
    -3
390
0
  6
Continuous
100
AcDbCircle
 10
-379.471482
 20
-252.25783
 30
0.0
 40
2.0
100
AcDbArc
 50
270.000279
 51
0.000279
  0
LINE
  5
72
100
AcDbEntity
  8
0
370
    -3
390
0
  6
Continuous
100
AcDbLine
 10
-352.871537
 20
-240.8577
 30
0.0
 11
-328.871537
 21
-240.857583
 31
0.0
  0
ARC
  5
73
100
AcDbEntity
  8
0
370
    -3
390
0
  6
Continuous
100
AcDbCircle
 10
-331.471521
 20
-244.057596
 30
0.0
 40
3.2
100
AcDbArc
 50
0.000279
 51
90.000279
  0
LINE
  5
74
100
AcDbEntity
  8
0
370
    -3
390
0
  6
Continuous
100
AcDbLine
 10
-328.271482
 20
-252.25758
 30
0.0
 11
-328.271521
 21
-244.05758
 31
0.0
  0
ARC
  5
75
100
AcDbEntity
  8
0
370
    -3
390
0
  6
Continuous
100
AcDbCircle
 10
-326.271482
 20
-252.257571
 30
0.0
 40
2.0
100
AcDbArc
 50
180.000279
 51
270.000279
  0
LINE
  5
76
100
AcDbEntity
  8
0
370
    -3
390
0
  6
Continuous
100
AcDbLine
 10
-328.871544
 20
-239.357583
 30
0.0
 11
-328.871537
 21
-240.857583
 31
0.0
  0
LINE
  5
77
100
AcDbEntity
  8
0
370
    -3
390
0
  6
Continuous
100
AcDbLine
 10
-367.871969
 20
-152.107773
 30
0.0
 11
-167.871969
 21
-152.106994
 31
0.0
  0
LINE
  5
78
100
AcDbEntity
  8
0
370
    -3
390
0
  6
Continuous
100
AcDbLine
 10
-367.871932
 20
-159.678616
 30
0.0
 11
-167.871932
 21
-159.677837
 31
0.0
  0
LINE
  5
79
100
AcDbEntity
  8
0
370
    -3
390
0
  6
Continuous
100
AcDbLine
 10
-367.871882
 20
-169.968113
 30
0.0
 11
-167.871882
 21
-169.967334
 31
0.0
  0
LINE
  5
7A
100
AcDbEntity
  8
0
370
    -3
390
0
  6
Continuous
100
AcDbLine
 10
-367.871893
 20
-167.756524
 30
0.0
 11
-167.871893
 21
-167.755745
 31
0.0
  0
LINE
  5
7B
100
AcDbEntity
  8
0
370
    -3
390
0
  6
Continuous
100
AcDbLine
 10
-367.871842
 20
-178.21455
 30
0.0
 11
-167.871842
 21
-178.213771
 31
0.0
  0
LINE
  5
7C
100
AcDbEntity
  8
0
370
    -3
390
0
  6
Continuous
100
AcDbLine
 10
-367.871831
 20
-180.529649
 30
0.0
 11
-167.871831
 21
-180.52887
 31
0.0
  0
LINE
  5
7D
100
AcDbEntity
  8
0
370
    -3
390
0
  6
Continuous
100
AcDbLine
 10
-367.871779
 20
-191.110022
 30
0.0
 11
-167.871779
 21
-191.109244
 31
0.0
  0
LINE
  5
7E
100
AcDbEntity
  8
0
370
    -3
390
0
  6
Continuous
100
AcDbLine
 10
-367.871791
 20
-188.657901
 30
0.0
 11
-167.871791
 21
-188.657122
 31
0.0
  0
LINE
  5
7F
100
AcDbEntity
  8
0
370
    -3
390
0
  6
Continuous
100
AcDbLine
 10
-367.871728
 20
-201.622346
 30
0.0
 11
-167.871728
 21
-201.621567
 31
0.0
  0
LINE
  5
80
100
AcDbEntity
  8
0
370
    -3
390
0
  6
Continuous
100
AcDbLine
 10
-367.87174
 20
-199.091434
 30
0.0
 11
-167.87174
 21
-199.090655
 31
0.0
  0
LINE
  5
81
100
AcDbEntity
  8
0
370
    -3
390
0
  6
Continuous
100
AcDbLine
 10
-367.871655
 20
-216.542215
 30
0.0
 11
-167.871655
 21
-216.541436
 31
0.0
  0
LINE
  5
82
100
AcDbEntity
  8
0
370
    -3
390
0
  6
Continuous
100
AcDbLine
 10
-367.871614
 20
-225.027496
 30
0.0
 11
-167.871614
 21
-225.026717
 31
0.0
  0
LINE
  5
83
100
AcDbEntity
  8
0
370
    -3
390
0
  6
Continuous
100
AcDbLine
 10
-367.871557
 20
-236.857773
 30
0.0
 11
-167.871557
 21
-236.856994
 31
0.0
  0
LINE
  5
84
100
AcDbEntity
  8
0
370
    -3
390
0
  6
Continuous
100
AcDbLine
 10
-367.871544
 20
-239.357773
 30
0.0
 11
-167.871544
 21
-239.356994
 31
0.0
  0
LINE
  5
85
100
AcDbEntity
  8
0
370
    -3
390
0
  6
Continuous
100
AcDbLine
 10
-167.87199
 20
-49.856795
 30
0.0
 11
-167.87199
 21
-245.856795
 31
0.0
  0
LINE
  5
86
100
AcDbEntity
  8
0
370
    -3
390
0
  6
Continuous
100
AcDbLine
 10
-167.872465
 20
-50.356994
 30
0.0
 11
-367.872465
 21
-50.357773
 31
0.0
  0
LINE
  5
87
100
AcDbEntity
  8
0
370
    -3
390
0
  6
Continuous
100
AcDbLine
 10
-167.872467
 20
-49.856994
 30
0.0
 11
-367.872467
 21
-49.857773
 31
0.0
  0
LINE
  5
88
100
AcDbEntity
  8
0
370
    -3
390
0
  6
Continuous
100
AcDbLine
 10
-167.872011
 20
-143.606994
 30
0.0
 11
-367.872011
 21
-143.607773
 31
0.0
  0
LINE
  5
89
100
AcDbEntity
  8
0
370
    -3
390
0
  6
Continuous
100
AcDbLine
 10
-167.872047
 20
-136.036151
 30
0.0
 11
-367.872047
 21
-136.03693
 31
0.0
  0
LINE
  5
8A
100
AcDbEntity
  8
0
370
    -3
390
0
  6
Continuous
100
AcDbLine
 10
-167.872087
 20
-127.958243
 30
0.0
 11
-367.872087
 21
-127.959022
 31
0.0
  0
LINE
  5
8B
100
AcDbEntity
  8
0
370
    -3
390
0
  6
Continuous
100
AcDbLine
 10
-167.872097
 20
-125.746654
 30
0.0
 11
-367.872097
 21
-125.747433
 31
0.0
  0
LINE
  5
8C
100
AcDbEntity
  8
0
370
    -3
390
0
  6
Continuous
100
AcDbLine
 10
-167.872138
 20
-117.500217
 30
0.0
 11
-367.872138
 21
-117.500996
 31
0.0
  0
LINE
  5
8D
100
AcDbEntity
  8
0
370
    -3
390
0
  6
Continuous
100
AcDbLine
 10
-167.872149
 20
-115.185119
 30
0.0
 11
-367.872149
 21
-115.185897
 31
0.0
  0
LINE
  5
8E
100
AcDbEntity
  8
0
370
    -3
390
0
  6
Continuous
100
AcDbLine
 10
-167.872188
 20
-107.056866
 30
0.0
 11
-367.872188
 21
-107.057645
 31
0.0
  0
LINE
  5
8F
100
AcDbEntity
  8
0
370
    -3
390
0
  6
Continuous
100
AcDbLine
 10
-167.8722
 20
-104.604745
 30
0.0
 11
-367.8722
 21
-104.605524
 31
0.0
  0
LINE
  5
90
100
AcDbEntity
  8
0
370
    -3
390
0
  6
Continuous
100
AcDbLine
 10
-167.872239
 20
-96.623333
 30
0.0
 11
-367.872239
 21
-96.624112
 31
0.0
  0
LINE
  5
91
100
AcDbEntity
  8
0
370
    -3
390
0
  6
Continuous
100
AcDbLine
 10
-167.872252
 20
-94.092422
 30
0.0
 11
-367.872252
 21
-94.093201
 31
0.0
  0
LINE
  5
92
100
AcDbEntity
  8
0
370
    -3
390
0
  6
Continuous
100
AcDbLine
 10
-167.872324
 20
-79.172552
 30
0.0
 11
-367.872324
 21
-79.173331
 31
0.0
  0
LINE
  5
93
100
AcDbEntity
  8
0
370
    -3
390
0
  6
Continuous
100
AcDbLine
 10
-167.872366
 20
-70.687271
 30
0.0
 11
-367.872366
 21
-70.68805
 31
0.0
  0
LINE
  5
94
100
AcDbEntity
  8
0
370
    -3
390
0
  6
Continuous
100
AcDbLine
 10
-167.872423
 20
-58.856994
 30
0.0
 11
-367.872423
 21
-58.857773
 31
0.0
  0
LINE
  5
95
100
AcDbEntity
  8
0
370
    -3
390
0
  6
Continuous
100
AcDbLine
 10
-167.872455
 20
-52.356994
 30
0.0
 11
-367.872455
 21
-52.357773
 31
0.0
  0
LINE
  5
96
100
AcDbEntity
  8
0
370
    -3
390
0
  6
Continuous
100
AcDbLine
 10
-167.872443
 20
-54.856994
 30
0.0
 11
-367.872443
 21
-54.857773
 31
0.0
  0
LINE
  5
97
100
AcDbEntity
  8
0
370
    -3
390
0
  6
Continuous
100
AcDbLine
 10
-167.872462
 20
-50.856994
 30
0.0
 11
-367.872462
 21
-50.857773
 31
0.0
  0
LINE
  5
98
100
AcDbEntity
  8
0
370
    -3
390
0
  6
Continuous
100
AcDbLine
 10
-394.371594
 20
-229.104472
 30
0.0
 11
-392.371588
 21
-230.399995
 31
0.0
  0
LINE
  5
99
100
AcDbEntity
  8
0
370
    -3
390
0
  6
Continuous
100
AcDbLine
 10
-394.371594
 20
-229.104472
 30
0.0
 11
-392.371602
 21
-227.571568
 31
0.0
  0
LINE
  5
9A
100
AcDbEntity
  8
0
370
    -3
390
0
  6
Continuous
100
AcDbLine
 10
-394.371594
 20
-229.104472
 30
0.0
 11
-396.371602
 21
-227.571587
 31
0.0
  0
LINE
  5
9B
100
AcDbEntity
  8
0
370
    -3
390
0
  6
Continuous
100
AcDbLine
 10
-394.371594
 20
-229.104472
 30
0.0
 11
-396.371588
 21
-230.400014
 31
0.0
  0
ELLIPSE
  5
9C
100
AcDbEntity
  8
0
370
    -3
390
0
  6
Continuous
100
AcDbEllipse
 10
-394.371609
 20
-226.10178
 30
0.0
 11
5.9999999999288889
 21
0.0000292115218485
 31
0.0
210
0.0
220
0.0
230
1.0
 40
0.689848
 41
6.2831853071795427
 42
3.1415926535898047
  0
ELLIPSE
  5
9D
100
AcDbEntity
  8
0
370
    -3
390
0
  6
Continuous
100
AcDbEllipse
 10
-394.371609
 20
-226.10178
 30
0.0
 11
5.9999999999288889
 21
0.0000292115218485
 31
0.0
210
0.0
220
0.0
230
1.0
 40
0.689848
 41
5.4518476186546128
 42
6.2831853071795427
  0
ELLIPSE
  5
9E
100
AcDbEntity
  8
0
370
    -3
390
0
  6
Continuous
100
AcDbEllipse
 10
-394.371602
 20
-227.460531
 30
0.0
 11
4.4999999999466809
 21
0.0000219086414006
 31
0.0
210
0.0
220
0.0
230
1.0
 40
0.860332
 41
0.0
 42
6.2831853071795862
  0
ELLIPSE
  5
9F
100
AcDbEntity
  8
0
370
    -3
390
0
  6
Continuous
100
AcDbEllipse
 10
-394.371607
 20
-226.488176
 30
0.0
 11
4.9999999999407692
 21
0.0000243429348927
 31
0.0
210
0.0
220
0.0
230
1.0
 40
0.763675
 41
6.2831853071795374
 42
3.1415926535898038
  0
ELLIPSE
  5
A0
100
AcDbEntity
  8
0
370
    -3
390
0
  6
Continuous
100
AcDbEllipse
 10
-394.371606
 20
-226.771019
 30
0.0
 11
4.9999999999407692
 21
0.0000243429348927
 31
0.0
210
0.0
220
0.0
230
1.0
 40
0.707107
 41
5.7540333991808437
 42
3.6707445615885712
  0
LINE
  5
A1
100
AcDbEntity
  8
0
370
    -3
390
0
  6
Continuous
100
AcDbLine
 10
-389.371607
 20
-226.488152
 30
0.0
 11
-389.371606
 21
-226.770995
 31
0.0
  0
LINE
  5
A2
100
AcDbEntity
  8
0
370
    -3
390
0
  6
Continuous
100
AcDbLine
 10
-399.371607
 20
-226.488201
 30
0.0
 11
-399.371606
 21
-226.771043
 31
0.0
  0
ELLIPSE
  5
A3
100
AcDbEntity
  8
0
370
    -3
390
0
  6
Continuous
100
AcDbEllipse
 10
-394.371615
 20
-224.815683
 30
0.0
 11
5.9999999999288889
 21
0.0000292115218485
 31
0.0
210
0.0
220
0.0
230
1.0
 40
0.707107
 41
6.2831853071795445
 42
3.1415926535898047
  0
ELLIPSE
  5
A4
100
AcDbEntity
  8
0
370
    -3
390
0
  6
Continuous
100
AcDbEllipse
 10
-394.371609
 20
-226.10178
 30
0.0
 11
5.9999999999288889
 21
0.0000292115218485
 31
0.0
210
0.0
220
0.0
230
1.0
 40
0.689848
 41
3.1415926535898047
 42
3.9729303421147111
  0
LINE
  5
A5
100
AcDbEntity
  8
0
370
    -3
390
0
  6
Continuous
100
AcDbLine
 10
-388.371615
 20
-224.815654
 30
0.0
 11
-388.371609
 21
-226.101751
 31
0.0
  0
LINE
  5
A6
100
AcDbEntity
  8
0
370
    -3
390
0
  6
Continuous
100
AcDbLine
 10
-400.371615
 20
-224.815712
 30
0.0
 11
-400.371609
 21
-226.101809
 31
0.0
  0
LINE
  5
A7
100
AcDbEntity
  8
0
370
    -3
390
0
  6
Continuous
100
AcDbLine
 10
-450.872393
 20
-65.065437
 30
0.0
 11
-450.87199
 21
-147.858177
 31
0.0
  0
LINE
  5
A8
100
AcDbEntity
  8
0
370
    -3
390
0
  6
Continuous
100
AcDbLine
 10
-448.372414
 20
-60.735298
 30
0.0
 11
-435.027551
 21
-53.030551
 31
0.0
  0
ARC
  5
A9
100
AcDbEntity
  8
0
370
    -3
390
0
  6
Continuous
100
AcDbCircle
 10
-404.527294
 20
-105.857952
 30
0.0
 40
61.0
100
AcDbArc
 50
90.000279
 51
120.000279
  0
ARC
  5
AA
100
AcDbEntity
  8
0
370
    -3
390
0
  6
Continuous
100
AcDbCircle
 10
-445.872393
 20
-65.065412
 30
0.0
 40
5.0
100
AcDbArc
 50
120.000279
 51
180.000279
  0
LINE
  5
AB
100
AcDbEntity
  8
0
370
    -3
390
0
  6
Continuous
100
AcDbLine
 10
-450.871587
 20
-230.650918
 30
0.0
 11
-450.87199
 21
-147.858177
 31
0.0
  0
LINE
  5
AC
100
AcDbEntity
  8
0
370
    -3
390
0
  6
Continuous
100
AcDbLine
 10
-448.371566
 20
-234.981033
 30
0.0
 11
-435.026627
 21
-242.68565
 31
0.0
  0
ARC
  5
AD
100
AcDbEntity
  8
0
370
    -3
390
0
  6
Continuous
100
AcDbCircle
 10
-404.526885
 20
-189.857952
 30
0.0
 40
61.0
100
AcDbArc
 50
240.000279
 51
270.000279
  0
ARC
  5
AE
100
AcDbEntity
  8
0
370
    -3
390
0
  6
Continuous
100
AcDbCircle
 10
-445.871587
 20
-230.650894
 30
0.0
 40
5.0
100
AcDbArc
 50
180.000279
 51
240.000279
  0
LINE
  5
AF
100
AcDbEntity
  8
0
370
    -3
390
0
  6
Continuous
100
AcDbLine
 10
-394.372385
 20
-66.611332
 30
0.0
 11
-392.372392
 21
-65.31579
 31
0.0
  0
LINE
  5
B0
100
AcDbEntity
  8
0
370
    -3
390
0
  6
Continuous
100
AcDbLine
 10
-394.372385
 20
-66.611332
 30
0.0
 11
-392.372378
 21
-68.144217
 31
0.0
  0
LINE
  5
B1
100
AcDbEntity
  8
0
370
    -3
390
0
  6
Continuous
100
AcDbLine
 10
-394.372385
 20
-66.611332
 30
0.0
 11
-396.372378
 21
-68.144237
 31
0.0
  0
LINE
  5
B2
100
AcDbEntity
  8
0
370
    -3
390
0
  6
Continuous
100
AcDbLine
 10
-394.372385
 20
-66.611332
 30
0.0
 11
-396.372392
 21
-65.315809
 31
0.0
  0
ELLIPSE
  5
B3
100
AcDbEntity
  8
0
370
    -3
390
0
  6
Continuous
100
AcDbEllipse
 10
-394.372371
 20
-69.614024
 30
0.0
 11
5.9999999999288889
 21
0.0000292115218627
 31
0.0
210
0.0
220
0.0
230
1.0
 40
0.689848
 41
3.1415926535898047
 42
6.2831853071795427
  0
ELLIPSE
  5
B4
100
AcDbEntity
  8
0
370
    -3
390
0
  6
Continuous
100
AcDbEllipse
 10
-394.372371
 20
-69.614024
 30
0.0
 11
5.9999999999288889
 21
0.0000292115218627
 31
0.0
210
0.0
220
0.0
230
1.0
 40
0.689848
 41
6.2831853071795427
 42
0.8313376885249927
  0
ELLIPSE
  5
B5
100
AcDbEntity
  8
0
370
    -3
390
0
  6
Continuous
100
AcDbEllipse
 10
-394.372377
 20
-68.255273
 30
0.0
 11
4.4999999999466809
 21
0.0000219086413864
 31
0.0
210
0.0
220
0.0
230
1.0
 40
0.860332
 41
0.0
 42
6.2831853071795862
  0
ELLIPSE
  5
B6
100
AcDbEntity
  8
0
370
    -3
390
0
  6
Continuous
100
AcDbEllipse
 10
-394.372373
 20
-69.227628
 30
0.0
 11
4.9999999999407692
 21
0.0000243429348785
 31
0.0
210
0.0
220
0.0
230
1.0
 40
0.763675
 41
3.1415926535898038
 42
6.2831853071795374
  0
ELLIPSE
  5
B7
100
AcDbEntity
  8
0
370
    -3
390
0
  6
Continuous
100
AcDbEllipse
 10
-394.372374
 20
-68.944785
 30
0.0
 11
4.9999999999407692
 21
0.0000243429348785
 31
0.0
210
0.0
220
0.0
230
1.0
 40
0.707107
 41
2.6124407455911047
 42
0.5291519079986785
  0
LINE
  5
B8
100
AcDbEntity
  8
0
370
    -3
390
0
  6
Continuous
100
AcDbLine
 10
-389.372373
 20
-69.227604
 30
0.0
 11
-389.372374
 21
-68.944761
 31
0.0
  0
LINE
  5
B9
100
AcDbEntity
  8
0
370
    -3
390
0
  6
Continuous
100
AcDbLine
 10
-399.372373
 20
-69.227652
 30
0.0
 11
-399.372374
 21
-68.94481
 31
0.0
  0
ELLIPSE
  5
BA
100
AcDbEntity
  8
0
370
    -3
390
0
  6
Continuous
100
AcDbEllipse
 10
-394.372365
 20
-70.900122
 30
0.0
 11
5.9999999999288889
 21
0.0000292115218627
 31
0.0
210
0.0
220
0.0
230
1.0
 40
0.707107
 41
3.1415926535898047
 42
6.2831853071795445
  0
ELLIPSE
  5
BB
100
AcDbEntity
  8
0
370
    -3
390
0
  6
Continuous
100
AcDbEllipse
 10
-394.372371
 20
-69.614024
 30
0.0
 11
5.9999999999288889
 21
0.0000292115218627
 31
0.0
210
0.0
220
0.0
230
1.0
 40
0.689848
 41
2.3102549650649693
 42
3.1415926535898047
  0
LINE
  5
BC
100
AcDbEntity
  8
0
370
    -3
390
0
  6
Continuous
100
AcDbLine
 10
-388.372365
 20
-70.900092
 30
0.0
 11
-388.372371
 21
-69.613995
 31
0.0
  0
LINE
  5
BD
100
AcDbEntity
  8
0
370
    -3
390
0
  6
Continuous
100
AcDbLine
 10
-400.372365
 20
-70.900151
 30
0.0
 11
-400.372371
 21
-69.614053
 31
0.0
  0
ARC
  5
BE
100
AcDbEntity
  8
0
370
    -3
390
0
  6
Continuous
100
AcDbCircle
 10
581.523946
 20
-256.85846
 30
0.0
 40
1.0
100
AcDbArc
 50
90.0
 51
166.657636
  0
LINE
  5
BF
100
AcDbEntity
  8
0
370
    -3
390
0
  6
Continuous
100
AcDbLine
 10
578.523946
 20
-254.85846
 30
0.0
 11
578.523946
 21
-255.85846
 31
0.0
  0
ARC
  5
C0
100
AcDbEntity
  8
0
370
    -3
390
0
  6
Continuous
100
AcDbCircle
 10
637.523946
 20
-256.85846
 30
0.0
 40
1.0
100
AcDbArc
 50
13.342364
 51
90.0
  0
LINE
  5
C1
100
AcDbEntity
  8
0
370
    -3
390
0
  6
Continuous
100
AcDbLine
 10
640.523946
 20
-254.85846
 30
0.0
 11
630.023754
 21
-254.85846
 31
0.0
  0
LINE
  5
C2
100
AcDbEntity
  8
0
370
    -3
390
0
  6
Continuous
100
AcDbLine
 10
640.523946
 20
-255.85846
 30
0.0
 11
630.023754
 21
-255.85846
 31
0.0
  0
LINE
  5
C3
100
AcDbEntity
  8
0
370
    -3
390
0
  6
Continuous
100
AcDbLine
 10
640.523946
 20
-254.85846
 30
0.0
 11
640.523946
 21
-255.85846
 31
0.0
  0
ARC
  5
C4
100
AcDbEntity
  8
0
370
    -3
390
0
  6
Continuous
100
AcDbCircle
 10
580.259035
 20
-256.55846
 30
0.0
 40
0.3
100
AcDbArc
 50
270.0
 51
346.657636
  0
ARC
  5
C5
100
AcDbEntity
  8
0
370
    -3
390
0
  6
Continuous
100
AcDbCircle
 10
638.788857
 20
-256.55846
 30
0.0
 40
0.3
100
AcDbArc
 50
193.342364
 51
270.0
  0
LINE
  5
C6
100
AcDbEntity
  8
0
370
    -3
390
0
  6
Continuous
100
AcDbLine
 10
578.523946
 20
-254.25846
 30
0.0
 11
589.023754
 21
-254.25846
 31
0.0
  0
LINE
  5
C7
100
AcDbEntity
  8
0
370
    -3
390
0
  6
Continuous
100
AcDbLine
 10
578.523946
 20
-255.85846
 30
0.0
 11
578.523946
 21
-254.25846
 31
0.0
  0
LINE
  5
C8
100
AcDbEntity
  8
0
370
    -3
390
0
  6
Continuous
100
AcDbLine
 10
583.923946
 20
-246.494334
 30
0.0
 11
583.923946
 21
-252.65846
 31
0.0
  0
LINE
  5
C9
100
AcDbEntity
  8
0
370
    -3
390
0
  6
Continuous
100
AcDbLine
 10
640.523946
 20
-254.25846
 30
0.0
 11
630.023754
 21
-254.25846
 31
0.0
  0
LINE
  5
CA
100
AcDbEntity
  8
0
370
    -3
390
0
  6
Continuous
100
AcDbLine
 10
640.523946
 20
-255.85846
 30
0.0
 11
640.523946
 21
-254.25846
 31
0.0
  0
LINE
  5
CB
100
AcDbEntity
  8
0
370
    -3
390
0
  6
Continuous
100
AcDbLine
 10
635.123946
 20
-246.494267
 30
0.0
 11
635.123946
 21
-252.65846
 31
0.0
  0
ARC
  5
CC
100
AcDbEntity
  8
0
370
    -3
390
0
  6
Continuous
100
AcDbCircle
 10
665.700853
 20
-298.740068
 30
0.0
 40
9.0
100
AcDbArc
 50
229.398469
 51
262.601548
  0
ARC
  5
CD
100
AcDbEntity
  8
0
370
    -3
390
0
  6
Continuous
100
AcDbCircle
 10
664.709334
 20
-306.375964
 30
0.0
 40
1.299999
100
AcDbArc
 50
262.601548
 51
336.000018
  0
LINE
  5
CE
100
AcDbEntity
  8
0
370
    -3
390
0
  6
Continuous
100
AcDbLine
 10
568.172938
 20
-258.163896
 30
0.0
 11
589.023754
 21
-267.447278
 31
0.0
  0
LINE
  5
CF
100
AcDbEntity
  8
0
370
    -3
390
0
  6
Continuous
100
AcDbLine
 10
666.470429
 20
-301.928759
 30
0.0
 11
668.036365
 21
-298.411609
 31
0.0
  0
LINE
  5
D0
100
AcDbEntity
  8
0
370
    -3
390
0
  6
Continuous
100
AcDbLine
 10
662.816247
 20
-300.301813
 30
0.0
 11
664.382183
 21
-296.784663
 31
0.0
  0
ARC
  5
D1
100
AcDbEntity
  8
0
370
    -3
390
0
  6
Continuous
100
AcDbCircle
 10
653.646581
 20
-301.228474
 30
0.0
 40
2.0
100
AcDbArc
 50
274.231338
 51
336.0
  0
ARC
  5
D2
100
AcDbEntity
  8
0
370
    -3
390
0
  6
Continuous
100
AcDbCircle
 10
656.296184
 20
-302.653148
 30
0.0
 40
1.0
100
AcDbArc
 50
66.0
 51
156.0
  0
LINE
  5
D3
100
AcDbEntity
  8
0
370
    -3
390
0
  6
Continuous
100
AcDbLine
 10
615.087994
 20
-283.211443
 30
0.0
 11
668.396303
 21
-306.945831
 31
0.0
  0
ARC
  5
D4
100
AcDbEntity
  8
0
370
    -3
390
0
  6
Continuous
100
AcDbCircle
 10
668.803039
 20
-306.032286
 30
0.0
 40
1.0
100
AcDbArc
 50
246.0
 51
336.0
  0
LINE
  5
D5
100
AcDbEntity
  8
0
370
    -3
390
0
  6
Continuous
100
AcDbLine
 10
669.716585
 20
-306.439022
 30
0.0
 11
670.855447
 21
-303.881095
 31
0.0
  0
LINE
  5
D6
100
AcDbEntity
  8
0
370
    -3
390
0
  6
Continuous
100
AcDbLine
 10
656.023946
 20
-261.85846
 30
0.0
 11
656.023946
 21
-297.277685
 31
0.0
  0
ARC
  5
D7
100
AcDbEntity
  8
0
370
    -3
390
0
  6
Continuous
100
AcDbCircle
 10
658.927106
 20
-303.824509
 30
0.0
 40
1.0
100
AcDbArc
 50
66.0
 51
94.715125
  0
ARC
  5
D8
100
AcDbEntity
  8
0
370
    -3
390
0
  6
Continuous
100
AcDbCircle
 10
609.523946
 20
295.14154
 30
0.0
 40
600.0
100
AcDbArc
 50
268.317231
 51
274.715125
  0
ARC
  5
D9
100
AcDbEntity
  8
0
370
    -3
390
0
  6
Continuous
100
AcDbCircle
 10
660.689733
 20
-304.586322
 30
0.0
 40
1.299999
100
AcDbArc
 50
155.999999
 51
229.398469
  0
LINE
  5
DA
100
AcDbEntity
  8
0
370
    -3
390
0
  6
Continuous
100
AcDbLine
 10
659.90033
 20
-303.16318
 30
0.0
 11
659.502124
 21
-304.057564
 31
0.0
  0
LINE
  5
DB
100
AcDbEntity
  8
0
370
    -3
390
0
  6
Continuous
100
AcDbLine
 10
666.295148
 20
-306.010337
 30
0.0
 11
665.896943
 21
-306.904721
 31
0.0
  0
LINE
  5
DC
100
AcDbEntity
  8
0
370
    -3
390
0
  6
Continuous
100
AcDbLine
 10
659.90033
 20
-303.16318
 30
0.0
 11
666.295148
 21
-306.010337
 31
0.0
  0
LINE
  5
DD
100
AcDbEntity
  8
0
370
    -3
390
0
  6
Continuous
100
AcDbLine
 10
659.90033
 20
-303.16318
 30
0.0
 11
666.295148
 21
-306.010337
 31
0.0
  0
POINT
  5
DE
100
AcDbEntity
  8
0
370
    -3
390
0
  6
Continuous
100
AcDbPoint
 10
663.097739
 20
-304.586759
 30
0.0
  0
LINE
  5
DF
100
AcDbEntity
  8
0
370
    -3
390
0
  6
Continuous
100
AcDbLine
 10
664.844282
 20
-296.607279
 30
0.0
 11
667.858982
 21
-297.94951
 31
0.0
  0
LINE
  5
E0
100
AcDbEntity
  8
0
370
    -3
390
0
  6
Continuous
100
AcDbLine
 10
668.036365
 20
-298.411609
 30
0.0
 11
667.858982
 21
-297.94951
 31
0.0
  0
LINE
  5
E1
100
AcDbEntity
  8
0
370
    -3
390
0
  6
Continuous
100
AcDbLine
 10
664.382183
 20
-296.784663
 30
0.0
 11
664.844282
 21
-296.607279
 31
0.0
  0
LINE
  5
E2
100
AcDbEntity
  8
0
370
    -3
390
0
  6
Continuous
100
AcDbLine
 10
663.135988
 20
-300.44417
 30
0.0
 11
664.844282
 21
-296.607279
 31
0.0
  0
LINE
  5
E3
100
AcDbEntity
  8
0
370
    -3
390
0
  6
Continuous
100
AcDbLine
 10
666.150688
 20
-301.786401
 30
0.0
 11
667.858982
 21
-297.94951
 31
0.0
  0
ARC
  5
E4
100
AcDbEntity
  8
0
370
    -3
390
0
  6
Continuous
100
AcDbCircle
 10
592.34505
 20
-289.606171
 30
0.0
 40
15.0
100
AcDbArc
 50
189.318123
 51
268.317231
  0
LINE
  5
E5
100
AcDbEntity
  8
0
370
    -3
390
0
  6
Continuous
100
AcDbLine
 10
573.284153
 20
-266.079274
 30
0.0
 11
577.542982
 21
-292.034911
 31
0.0
  0
LINE
  5
E6
100
AcDbEntity
  8
0
370
    -3
390
0
  6
Continuous
100
AcDbLine
 10
567.540884
 20
-262.042106
 30
0.0
 11
589.023754
 21
-271.606896
 31
0.0
  0
LINE
  5
E7
100
AcDbEntity
  8
0
370
    -3
390
0
  6
Continuous
100
AcDbLine
 10
567.034075
 20
-260.721824
 30
0.0
 11
568.172938
 21
-258.163896
 31
0.0
  0
LINE
  5
E8
100
AcDbEntity
  8
0
370
    -3
390
0
  6
Continuous
100
AcDbLine
 10
569.866434
 20
-258.917889
 30
0.0
 11
570.867276
 21
-258.493057
 31
0.0
  0
ARC
  5
E9
100
AcDbEntity
  8
0
370
    -3
390
0
  6
Continuous
100
AcDbCircle
 10
567.947621
 20
-261.12856
 30
0.0
 40
1.0
100
AcDbArc
 50
156.0
 51
246.0
  0
LINE
  5
EA
100
AcDbEntity
  8
0
370
    -3
390
0
  6
Continuous
100
AcDbLine
 10
576.832341
 20
-256.85846
 30
0.0
 11
589.023754
 21
-256.85846
 31
0.0
  0
ARC
  5
EB
100
AcDbEntity
  8
0
370
    -3
390
0
  6
Continuous
100
AcDbCircle
 10
651.023946
 20
-261.85846
 30
0.0
 40
5.0
100
AcDbArc
 50
0.0
 51
90.0
  0
ARC
  5
EC
100
AcDbEntity
  8
0
370
    -3
390
0
  6
Continuous
100
AcDbCircle
 10
576.832341
 20
-259.85846
 30
0.0
 40
3.0
100
AcDbArc
 50
90.0
 51
156.0
  0
LINE
  5
ED
100
AcDbEntity
  8
0
370
    -3
390
0
  6
Continuous
100
AcDbLine
 10
573.288792
 20
-260.441622
 30
0.0
 11
574.091705
 21
-258.63825
 31
0.0
  0
ARC
  5
EE
100
AcDbEntity
  8
0
370
    -3
390
0
  6
Continuous
100
AcDbCircle
 10
570.323739
 20
-266.565022
 30
0.0
 40
3.0
100
AcDbArc
 50
9.318123
 51
66.0
  0
LINE
  5
EF
100
AcDbEntity
  8
0
370
    -3
390
0
  6
Continuous
100
AcDbLine
 10
570.867276
 20
-258.493057
 30
0.0
 11
571.179861
 21
-259.229461
 31
0.0
  0
LINE
  5
F0
100
AcDbEntity
  8
0
370
    -3
390
0
  6
Continuous
100
AcDbLine
 10
570.865726
 20
-259.362803
 30
0.0
 11
571.179861
 21
-259.229461
 31
0.0
  0
LINE
  5
F1
100
AcDbEntity
  8
0
370
    -3
390
0
  6
Continuous
100
AcDbLine
 10
623.238449
 20
-282.680642
 30
0.0
 11
670.855447
 21
-303.881095
 31
0.0
  0
ARC
  5
F2
100
AcDbEntity
  8
0
370
    -3
390
0
  6
Continuous
100
AcDbCircle
 10
609.523758
 20
-147.856611
 30
0.0
 40
109.0
100
AcDbArc
 50
47.606524
 51
50.0438
  0
ARC
  5
F3
100
AcDbEntity
  8
0
370
    -3
390
0
  6
Continuous
100
AcDbCircle
 10
609.523758
 20
-147.856611
 30
0.0
 40
109.0
100
AcDbArc
 50
133.477796
 51
141.243779
  0
LINE
  5
F4
100
AcDbEntity
  8
0
370
    -3
390
0
  6
Continuous
100
AcDbLine
 10
630.023754
 20
-256.85846
 30
0.0
 11
651.023946
 21
-256.85846
 31
0.0
  0
LINE
  5
F5
100
AcDbEntity
  8
0
370
    -3
390
0
  6
Continuous
100
AcDbLine
 10
589.023754
 20
-254.85846
 30
0.0
 11
578.523946
 21
-254.85846
 31
0.0
  0
LINE
  5
F6
100
AcDbEntity
  8
0
370
    -3
390
0
  6
Continuous
100
AcDbLine
 10
589.023754
 20
-255.85846
 30
0.0
 11
578.523946
 21
-255.85846
 31
0.0
  0
LINE
  5
F7
100
AcDbEntity
  8
0
370
    -3
390
0
  6
Continuous
100
AcDbLine
 10
602.746315
 20
-255.85846
 30
0.0
 11
616.301189
 21
-255.85846
 31
0.0
  0
LINE
  5
F8
100
AcDbEntity
  8
0
370
    -3
390
0
  6
Continuous
100
AcDbLine
 10
616.301189
 20
-255.85846
 30
0.0
 11
602.746315
 21
-255.85846
 31
0.0
  0
LINE
  5
F9
100
AcDbEntity
  8
0
370
    -3
390
0
  6
Continuous
100
AcDbLine
 10
601.801083
 20
-256.85846
 30
0.0
 11
617.246421
 21
-256.85846
 31
0.0
  0
LINE
  5
FA
100
AcDbEntity
  8
0
370
    -3
390
0
  6
DASHED
100
AcDbLine
 10
618.523755
 20
-49.856611
 30
0.0
 11
658.523755
 21
-49.856611
 31
0.0
  0
LINE
  5
FB
100
AcDbEntity
  8
0
370
    -3
390
0
  6
DASHED
100
AcDbLine
 10
618.523755
 20
-69.856611
 30
0.0
 11
658.523755
 21
-69.856611
 31
0.0
  0
LINE
  5
FC
100
AcDbEntity
  8
0
370
    -3
390
0
  6
DASHED
100
AcDbLine
 10
560.523755
 20
-69.856611
 30
0.0
 11
600.523755
 21
-69.856611
 31
0.0
  0
LINE
  5
FD
100
AcDbEntity
  8
0
370
    -3
390
0
  6
DASHED
100
AcDbLine
 10
560.523755
 20
-49.856611
 30
0.0
 11
600.523755
 21
-49.856611
 31
0.0
  0
LINE
  5
FE
100
AcDbEntity
  8
0
370
    -3
390
0
  6
DASHED
100
AcDbLine
 10
600.523755
 20
-51.106611
 30
0.0
 11
618.523755
 21
-51.106611
 31
0.0
  0
LINE
  5
FF
100
AcDbEntity
  8
0
370
    -3
390
0
  6
DASHED
100
AcDbLine
 10
618.523755
 20
-49.856611
 30
0.0
 11
618.523755
 21
-69.856611
 31
0.0
  0
LINE
  5
100
100
AcDbEntity
  8
0
370
    -3
390
0
  6
DASHED
100
AcDbLine
 10
618.523755
 20
-51.106611
 30
0.0
 11
658.523755
 21
-51.106611
 31
0.0
  0
LINE
  5
101
100
AcDbEntity
  8
0
370
    -3
390
0
  6
DASHED
100
AcDbLine
 10
618.523755
 20
-68.606611
 30
0.0
 11
658.523755
 21
-68.606611
 31
0.0
  0
LINE
  5
102
100
AcDbEntity
  8
0
370
    -3
390
0
  6
DASHED
100
AcDbLine
 10
600.523755
 20
-68.606611
 30
0.0
 11
618.523755
 21
-68.606611
 31
0.0
  0
LINE
  5
103
100
AcDbEntity
  8
0
370
    -3
390
0
  6
DASHED
100
AcDbLine
 10
600.523755
 20
-49.856611
 30
0.0
 11
600.523755
 21
-69.856611
 31
0.0
  0
LINE
  5
104
100
AcDbEntity
  8
0
370
    -3
390
0
  6
DASHED
100
AcDbLine
 10
560.523755
 20
-68.606611
 30
0.0
 11
600.523755
 21
-68.606611
 31
0.0
  0
LINE
  5
105
100
AcDbEntity
  8
0
370
    -3
390
0
  6
DASHED
100
AcDbLine
 10
560.523755
 20
-51.106611
 30
0.0
 11
600.523755
 21
-51.106611
 31
0.0
  0
LINE
  5
106
100
AcDbEntity
  8
0
370
    -3
390
0
  6
DASHED
100
AcDbLine
 10
658.523755
 20
-46.856611
 30
0.0
 11
679.523755
 21
-46.856611
 31
0.0
  0
LINE
  5
107
100
AcDbEntity
  8
0
370
    -3
390
0
  6
DASHED
100
AcDbLine
 10
658.523755
 20
-46.856611
 30
0.0
 11
658.523755
 21
-72.856611
 31
0.0
  0
LINE
  5
108
100
AcDbEntity
  8
0
370
    -3
390
0
  6
DASHED
100
AcDbLine
 10
658.523755
 20
-72.856611
 30
0.0
 11
679.523755
 21
-72.856611
 31
0.0
  0
LINE
  5
109
100
AcDbEntity
  8
0
370
    -3
390
0
  6
DASHED
100
AcDbLine
 10
539.523755
 20
-72.856611
 30
0.0
 11
560.523755
 21
-72.856611
 31
0.0
  0
LINE
  5
10A
100
AcDbEntity
  8
0
370
    -3
390
0
  6
DASHED
100
AcDbLine
 10
539.523755
 20
-46.856611
 30
0.0
 11
560.523755
 21
-46.856611
 31
0.0
  0
LINE
  5
10B
100
AcDbEntity
  8
0
370
    -3
390
0
  6
DASHED
100
AcDbLine
 10
560.523755
 20
-46.856611
 30
0.0
 11
560.523755
 21
-72.856611
 31
0.0
  0
LINE
  5
10C
100
AcDbEntity
  8
0
370
    -3
390
0
  6
DASHED
100
AcDbLine
 10
618.523913
 20
-179.856611
 30
0.0
 11
658.523913
 21
-179.856611
 31
0.0
  0
LINE
  5
10D
100
AcDbEntity
  8
0
370
    -3
390
0
  6
DASHED
100
AcDbLine
 10
618.523913
 20
-199.856611
 30
0.0
 11
658.523913
 21
-199.856611
 31
0.0
  0
LINE
  5
10E
100
AcDbEntity
  8
0
370
    -3
390
0
  6
DASHED
100
AcDbLine
 10
560.523913
 20
-199.856611
 30
0.0
 11
600.523913
 21
-199.856611
 31
0.0
  0
LINE
  5
10F
100
AcDbEntity
  8
0
370
    -3
390
0
  6
DASHED
100
AcDbLine
 10
560.523913
 20
-179.856611
 30
0.0
 11
600.523913
 21
-179.856611
 31
0.0
  0
LINE
  5
110
100
AcDbEntity
  8
0
370
    -3
390
0
  6
DASHED
100
AcDbLine
 10
600.523913
 20
-181.106611
 30
0.0
 11
618.523913
 21
-181.106611
 31
0.0
  0
LINE
  5
111
100
AcDbEntity
  8
0
370
    -3
390
0
  6
DASHED
100
AcDbLine
 10
618.523913
 20
-179.856611
 30
0.0
 11
618.523913
 21
-199.856611
 31
0.0
  0
LINE
  5
112
100
AcDbEntity
  8
0
370
    -3
390
0
  6
DASHED
100
AcDbLine
 10
618.523913
 20
-181.106611
 30
0.0
 11
658.523913
 21
-181.106611
 31
0.0
  0
LINE
  5
113
100
AcDbEntity
  8
0
370
    -3
390
0
  6
DASHED
100
AcDbLine
 10
618.523913
 20
-198.606611
 30
0.0
 11
658.523913
 21
-198.606611
 31
0.0
  0
LINE
  5
114
100
AcDbEntity
  8
0
370
    -3
390
0
  6
DASHED
100
AcDbLine
 10
600.523913
 20
-198.606611
 30
0.0
 11
618.523913
 21
-198.606611
 31
0.0
  0
LINE
  5
115
100
AcDbEntity
  8
0
370
    -3
390
0
  6
DASHED
100
AcDbLine
 10
600.523913
 20
-179.856611
 30
0.0
 11
600.523913
 21
-199.856611
 31
0.0
  0
LINE
  5
116
100
AcDbEntity
  8
0
370
    -3
390
0
  6
DASHED
100
AcDbLine
 10
560.523913
 20
-198.606611
 30
0.0
 11
600.523913
 21
-198.606611
 31
0.0
  0
LINE
  5
117
100
AcDbEntity
  8
0
370
    -3
390
0
  6
DASHED
100
AcDbLine
 10
560.523913
 20
-181.106611
 30
0.0
 11
600.523913
 21
-181.106611
 31
0.0
  0
LINE
  5
118
100
AcDbEntity
  8
0
370
    -3
390
0
  6
DASHED
100
AcDbLine
 10
658.523913
 20
-176.856611
 30
0.0
 11
679.523913
 21
-176.856611
 31
0.0
  0
LINE
  5
119
100
AcDbEntity
  8
0
370
    -3
390
0
  6
DASHED
100
AcDbLine
 10
658.523913
 20
-176.856611
 30
0.0
 11
658.523913
 21
-202.856611
 31
0.0
  0
LINE
  5
11A
100
AcDbEntity
  8
0
370
    -3
390
0
  6
DASHED
100
AcDbLine
 10
658.523913
 20
-202.856611
 30
0.0
 11
679.523913
 21
-202.856611
 31
0.0
  0
LINE
  5
11B
100
AcDbEntity
  8
0
370
    -3
390
0
  6
DASHED
100
AcDbLine
 10
539.523913
 20
-202.856611
 30
0.0
 11
560.523913
 21
-202.856611
 31
0.0
  0
LINE
  5
11C
100
AcDbEntity
  8
0
370
    -3
390
0
  6
DASHED
100
AcDbLine
 10
539.523913
 20
-176.856611
 30
0.0
 11
560.523913
 21
-176.856611
 31
0.0
  0
LINE
  5
11D
100
AcDbEntity
  8
0
370
    -3
390
0
  6
DASHED
100
AcDbLine
 10
560.523913
 20
-176.856611
 30
0.0
 11
560.523913
 21
-202.856611
 31
0.0
  0
ARC
  5
11E
100
AcDbEntity
  8
0
370
    -3
390
0
  6
Continuous
100
AcDbCircle
 10
636.723946
 20
-252.65846
 30
0.0
 40
1.6
100
AcDbArc
 50
180.0
 51
270.0
  0
ARC
  5
11F
100
AcDbEntity
  8
0
370
    -3
390
0
  6
Continuous
100
AcDbCircle
 10
582.323946
 20
-252.65846
 30
0.0
 40
1.6
100
AcDbArc
 50
270.0
 51
0.0
  0
LINE
  5
120
100
AcDbEntity
  8
0
370
    -3
390
0
  6
CENTER
100
AcDbLine
 10
664.316795
 20
-280.856611
 30
0.0
 11
637.489815
 21
-280.856611
 31
0.0
  0
ARC
  5
121
100
AcDbEntity
  8
0
370
    -3
390
0
  6
Continuous
100
AcDbCircle
 10
531.523755
 20
-155.356611
 30
0.0
 40
1.0
100
AcDbArc
 50
180.0
 51
270.0
  0
LINE
  5
122
100
AcDbEntity
  8
0
370
    -3
390
0
  6
Continuous
100
AcDbLine
 10
531.523755
 20
-156.356611
 30
0.0
 11
534.523755
 21
-156.356611
 31
0.0
  0
ARC
  5
123
100
AcDbEntity
  8
0
370
    -3
390
0
  6
Continuous
100
AcDbCircle
 10
531.523755
 20
-94.356611
 30
0.0
 40
1.0
100
AcDbArc
 50
90.0
 51
180.0
  0
LINE
  5
124
100
AcDbEntity
  8
0
370
    -3
390
0
  6
Continuous
100
AcDbLine
 10
531.523755
 20
-93.356611
 30
0.0
 11
534.523755
 21
-93.356611
 31
0.0
  0
LINE
  5
125
100
AcDbEntity
  8
0
370
    -3
390
0
  6
Continuous
100
AcDbLine
 10
530.523755
 20
-94.356611
 30
0.0
 11
530.523755
 21
-155.356611
 31
0.0
  0
ARC
  5
126
100
AcDbEntity
  8
0
370
    -3
390
0
  6
Continuous
100
AcDbCircle
 10
687.523755
 20
-155.356611
 30
0.0
 40
1.0
100
AcDbArc
 50
270.0
 51
0.0
  0
LINE
  5
127
100
AcDbEntity
  8
0
370
    -3
390
0
  6
Continuous
100
AcDbLine
 10
687.523755
 20
-156.356611
 30
0.0
 11
684.523755
 21
-156.356611
 31
0.0
  0
ARC
  5
128
100
AcDbEntity
  8
0
370
    -3
390
0
  6
Continuous
100
AcDbCircle
 10
687.523755
 20
-94.356611
 30
0.0
 40
1.0
100
AcDbArc
 50
0.0
 51
90.0
  0
LINE
  5
129
100
AcDbEntity
  8
0
370
    -3
390
0
  6
Continuous
100
AcDbLine
 10
687.523755
 20
-93.356611
 30
0.0
 11
684.523755
 21
-93.356611
 31
0.0
  0
LINE
  5
12A
100
AcDbEntity
  8
0
370
    -3
390
0
  6
Continuous
100
AcDbLine
 10
688.523755
 20
-94.356611
 30
0.0
 11
688.523755
 21
-155.356611
 31
0.0
  0
ARC
  5
12B
100
AcDbEntity
  8
0
370
    -3
390
0
  6
Continuous
100
AcDbCircle
 10
40.12801
 20
-124.856894
 30
0.0
 40
22.5
100
AcDbArc
 50
108.126204
 51
71.873796
  0
LINE
  5
12C
100
AcDbEntity
  8
0
370
    -3
390
0
  6
Continuous
100
AcDbLine
 10
33.12801
 20
-103.47349
 30
0.0
 11
33.12801
 21
-98.556894
 31
0.0
  0
LINE
  5
12D
100
AcDbEntity
  8
0
370
    -3
390
0
  6
Continuous
100
AcDbLine
 10
47.12801
 20
-103.47349
 30
0.0
 11
47.12801
 21
-98.556894
 31
0.0
  0
LINE
  5
12E
100
AcDbEntity
  8
0
370
    -3
390
0
  6
Continuous
100
AcDbLine
 10
47.12801
 20
-98.556894
 30
0.0
 11
33.12801
 21
-98.556894
 31
0.0
  0
CIRCLE
  5
12F
100
AcDbEntity
  8
0
370
    -3
390
0
  6
Continuous
100
AcDbCircle
 10
40.12801
 20
-124.856894
 30
0.0
 40
31.5
  0
ARC
  5
130
100
AcDbEntity
  8
0
370
    -3
390
0
  6
Continuous
100
AcDbCircle
 10
199.65359
 20
-124.856894
 30
0.0
 40
22.5
100
AcDbArc
 50
108.126204
 51
71.873796
  0
LINE
  5
131
100
AcDbEntity
  8
0
370
    -3
390
0
  6
CENTER
100
AcDbLine
 10
199.65359
 20
-165.486582
 30
0.0
 11
199.65359
 21
-84.261358
 31
0.0
  0
LINE
  5
132
100
AcDbEntity
  8
0
370
    -3
390
0
  6
CENTER
100
AcDbLine
 10
239.299624
 20
-124.856894
 30
0.0
 11
160.320259
 21
-124.856894
 31
0.0
  0
LINE
  5
133
100
AcDbEntity
  8
0
370
    -3
390
0
  6
Continuous
100
AcDbLine
 10
192.65359
 20
-103.47349
 30
0.0
 11
192.65359
 21
-98.556894
 31
0.0
  0
LINE
  5
134
100
AcDbEntity
  8
0
370
    -3
390
0
  6
Continuous
100
AcDbLine
 10
206.65359
 20
-103.47349
 30
0.0
 11
206.65359
 21
-98.556894
 31
0.0
  0
LINE
  5
135
100
AcDbEntity
  8
0
370
    -3
390
0
  6
Continuous
100
AcDbLine
 10
206.65359
 20
-98.556894
 30
0.0
 11
192.65359
 21
-98.556894
 31
0.0
  0
CIRCLE
  5
136
100
AcDbEntity
  8
0
370
    -3
390
0
  6
Continuous
100
AcDbCircle
 10
199.65359
 20
-124.856894
 30
0.0
 40
31.5
  0
LINE
  5
137
100
AcDbEntity
  8
0
370
    -3
390
0
  6
Continuous
100
AcDbLine
 10
278.065046
 20
-149.356894
 30
0.0
 11
281.529148
 21
-147.356894
 31
0.0
  0
LINE
  5
138
100
AcDbEntity
  8
0
370
    -3
390
0
  6
Continuous
100
AcDbLine
 10
436.065046
 20
-149.356894
 30
0.0
 11
432.600944
 21
-147.356894
 31
0.0
  0
ARC
  5
139
100
AcDbEntity
  8
0
370
    -3
390
0
  6
Continuous
100
AcDbCircle
 10
299.465046
 20
-159.456894
 30
0.0
 40
0.4
100
AcDbArc
 50
180.0
 51
270.0
  0
ARC
  5
13A
100
AcDbEntity
  8
0
370
    -3
390
0
  6
Continuous
100
AcDbCircle
 10
414.665066
 20
-159.456894
 30
0.0
 40
0.4
100
AcDbArc
 50
270.0
 51
0.0
  0
LINE
  5
13B
100
AcDbEntity
  8
0
370
    -3
390
0
  6
Continuous
100
AcDbLine
 10
281.529148
 20
-147.356894
 30
0.0
 11
306.165046
 21
-147.356894
 31
0.0
  0
LINE
  5
13C
100
AcDbEntity
  8
0
370
    -3
390
0
  6
Continuous
100
AcDbLine
 10
308.065046
 20
-147.356894
 30
0.0
 11
345.065046
 21
-147.356894
 31
0.0
  0
LINE
  5
13D
100
AcDbEntity
  8
0
370
    -3
390
0
  6
Continuous
100
AcDbLine
 10
306.115046
 20
-148.606894
 30
0.0
 11
308.065046
 21
-148.606894
 31
0.0
  0
LINE
  5
13E
100
AcDbEntity
  8
0
370
    -3
390
0
  6
Continuous
100
AcDbLine
 10
345.065046
 20
-147.556894
 30
0.0
 11
369.065046
 21
-147.556894
 31
0.0
  0
LINE
  5
13F
100
AcDbEntity
  8
0
370
    -3
390
0
  6
Continuous
100
AcDbLine
 10
369.065046
 20
-147.356894
 30
0.0
 11
406.065046
 21
-147.356894
 31
0.0
  0
LINE
  5
140
100
AcDbEntity
  8
0
370
    -3
390
0
  6
Continuous
100
AcDbLine
 10
407.965046
 20
-147.356894
 30
0.0
 11
432.600944
 21
-147.356894
 31
0.0
  0
LINE
  5
141
100
AcDbEntity
  8
0
370
    -3
390
0
  6
Continuous
100
AcDbLine
 10
406.065046
 20
-148.606894
 30
0.0
 11
408.015046
 21
-148.606894
 31
0.0
  0
ARC
  5
142
100
AcDbEntity
  8
0
370
    -3
390
0
  6
Continuous
100
AcDbCircle
 10
435.065046
 20
-155.356894
 30
0.0
 40
1.0
100
AcDbArc
 50
270.0
 51
0.0
  0
ARC
  5
143
100
AcDbEntity
  8
0
370
    -3
390
0
  6
Continuous
100
AcDbCircle
 10
279.065046
 20
-155.356894
 30
0.0
 40
1.0
100
AcDbArc
 50
180.0
 51
270.0
  0
LINE
  5
144
100
AcDbEntity
  8
0
370
    -3
390
0
  6
Continuous
100
AcDbLine
 10
395.746003
 20
-159.856894
 30
0.0
 11
414.665066
 21
-159.856894
 31
0.0
  0
ARC
  5
145
100
AcDbEntity
  8
0
370
    -3
390
0
  6
Continuous
100
AcDbCircle
 10
395.165056
 20
-159.706894
 30
0.0
 40
0.4
100
AcDbArc
 50
270.0
 51
316.567463
  0
ARC
  5
146
100
AcDbEntity
  8
0
370
    -3
390
0
  6
Continuous
100
AcDbCircle
 10
395.746003
 20
-160.256894
 30
0.0
 40
0.4
100
AcDbArc
 50
90.0
 51
136.567463
  0
LINE
  5
147
100
AcDbEntity
  8
0
370
    -3
390
0
  6
Continuous
100
AcDbLine
 10
395.165056
 20
-160.106894
 30
0.0
 11
378.965056
 21
-160.106894
 31
0.0
  0
ARC
  5
148
100
AcDbEntity
  8
0
370
    -3
390
0
  6
Continuous
100
AcDbCircle
 10
378.965056
 20
-160.506894
 30
0.0
 40
0.4
100
AcDbArc
 50
90.0
 51
180.0
  0
LINE
  5
149
100
AcDbEntity
  8
0
370
    -3
390
0
  6
Continuous
100
AcDbLine
 10
378.565056
 20
-162.456894
 30
0.0
 11
378.565056
 21
-160.506894
 31
0.0
  0
ARC
  5
14A
100
AcDbEntity
  8
0
370
    -3
390
0
  6
Continuous
100
AcDbCircle
 10
378.165056
 20
-162.456894
 30
0.0
 40
0.4
100
AcDbArc
 50
270.0
 51
0.0
  0
LINE
  5
14B
100
AcDbEntity
  8
0
370
    -3
390
0
  6
Continuous
100
AcDbLine
 10
316.965056
 20
-162.856894
 30
0.0
 11
378.165056
 21
-162.856894
 31
0.0
  0
ARC
  5
14C
100
AcDbEntity
  8
0
370
    -3
390
0
  6
Continuous
100
AcDbCircle
 10
316.965056
 20
-162.456894
 30
0.0
 40
0.4
100
AcDbArc
 50
180.0
 51
270.0
  0
LINE
  5
14D
100
AcDbEntity
  8
0
370
    -3
390
0
  6
Continuous
100
AcDbLine
 10
316.565056
 20
-162.456894
 30
0.0
 11
316.565056
 21
-160.256894
 31
0.0
  0
LINE
  5
14E
100
AcDbEntity
  8
0
370
    -3
390
0
  6
Continuous
100
AcDbLine
 10
316.165056
 20
-159.856894
 30
0.0
 11
299.465046
 21
-159.856894
 31
0.0
  0
ARC
  5
14F
100
AcDbEntity
  8
0
370
    -3
390
0
  6
Continuous
100
AcDbCircle
 10
316.165056
 20
-160.256894
 30
0.0
 40
0.4
100
AcDbArc
 50
0.0
 51
90.0
  0
LINE
  5
150
100
AcDbEntity
  8
0
370
    -3
390
0
  6
Continuous
100
AcDbLine
 10
299.065046
 20
-156.756894
 30
0.0
 11
299.065046
 21
-159.456894
 31
0.0
  0
LINE
  5
151
100
AcDbEntity
  8
0
370
    -3
390
0
  6
Continuous
100
AcDbLine
 10
279.065046
 20
-156.356894
 30
0.0
 11
298.665046
 21
-156.356894
 31
0.0
  0
ARC
  5
152
100
AcDbEntity
  8
0
370
    -3
390
0
  6
Continuous
100
AcDbCircle
 10
298.665046
 20
-156.756894
 30
0.0
 40
0.4
100
AcDbArc
 50
0.0
 51
90.0
  0
LINE
  5
153
100
AcDbEntity
  8
0
370
    -3
390
0
  6
Continuous
100
AcDbLine
 10
415.065066
 20
-156.756894
 30
0.0
 11
415.065066
 21
-159.456894
 31
0.0
  0
LINE
  5
154
100
AcDbEntity
  8
0
370
    -3
390
0
  6
Continuous
100
AcDbLine
 10
435.065046
 20
-156.356894
 30
0.0
 11
415.465066
 21
-156.356894
 31
0.0
  0
ARC
  5
155
100
AcDbEntity
  8
0
370
    -3
390
0
  6
Continuous
100
AcDbCircle
 10
415.465066
 20
-156.756894
 30
0.0
 40
0.4
100
AcDbArc
 50
90.0
 51
180.0
  0
LINE
  5
156
100
AcDbEntity
  8
0
370
    -3
390
0
  6
CENTER
100
AcDbLine
 10
444.045104
 20
-124.856894
 30
0.0
 11
267.663447
 21
-124.856894
 31
0.0
  0
ARC
  5
157
100
AcDbEntity
  8
0
370
    -3
390
0
  6
Continuous
100
AcDbCircle
 10
299.465046
 20
-90.256894
 30
0.0
 40
0.4
100
AcDbArc
 50
90.0
 51
180.0
  0
ARC
  5
158
100
AcDbEntity
  8
0
370
    -3
390
0
  6
Continuous
100
AcDbCircle
 10
414.665066
 20
-90.256894
 30
0.0
 40
0.4
100
AcDbArc
 50
0.0
 51
90.0
  0
ARC
  5
159
100
AcDbEntity
  8
0
370
    -3
390
0
  6
Continuous
100
AcDbCircle
 10
435.065046
 20
-94.356894
 30
0.0
 40
1.0
100
AcDbArc
 50
0.0
 51
90.0
  0
ARC
  5
15A
100
AcDbEntity
  8
0
370
    -3
390
0
  6
Continuous
100
AcDbCircle
 10
279.065046
 20
-94.356894
 30
0.0
 40
1.0
100
AcDbArc
 50
90.0
 51
180.0
  0
LINE
  5
15B
100
AcDbEntity
  8
0
370
    -3
390
0
  6
Continuous
100
AcDbLine
 10
395.746003
 20
-89.856894
 30
0.0
 11
414.665066
 21
-89.856894
 31
0.0
  0
ARC
  5
15C
100
AcDbEntity
  8
0
370
    -3
390
0
  6
Continuous
100
AcDbCircle
 10
395.165056
 20
-90.006894
 30
0.0
 40
0.4
100
AcDbArc
 50
43.432537
 51
90.0
  0
ARC
  5
15D
100
AcDbEntity
  8
0
370
    -3
390
0
  6
Continuous
100
AcDbCircle
 10
395.746003
 20
-89.456894
 30
0.0
 40
0.4
100
AcDbArc
 50
223.432537
 51
270.0
  0
LINE
  5
15E
100
AcDbEntity
  8
0
370
    -3
390
0
  6
Continuous
100
AcDbLine
 10
395.165056
 20
-89.606894
 30
0.0
 11
378.965056
 21
-89.606894
 31
0.0
  0
ARC
  5
15F
100
AcDbEntity
  8
0
370
    -3
390
0
  6
Continuous
100
AcDbCircle
 10
378.965056
 20
-89.206894
 30
0.0
 40
0.4
100
AcDbArc
 50
180.0
 51
270.0
  0
LINE
  5
160
100
AcDbEntity
  8
0
370
    -3
390
0
  6
Continuous
100
AcDbLine
 10
378.565056
 20
-87.256894
 30
0.0
 11
378.565056
 21
-89.206894
 31
0.0
  0
ARC
  5
161
100
AcDbEntity
  8
0
370
    -3
390
0
  6
Continuous
100
AcDbCircle
 10
378.165056
 20
-87.256894
 30
0.0
 40
0.4
100
AcDbArc
 50
0.0
 51
90.0
  0
LINE
  5
162
100
AcDbEntity
  8
0
370
    -3
390
0
  6
Continuous
100
AcDbLine
 10
316.965056
 20
-86.856894
 30
0.0
 11
378.165056
 21
-86.856894
 31
0.0
  0
ARC
  5
163
100
AcDbEntity
  8
0
370
    -3
390
0
  6
Continuous
100
AcDbCircle
 10
316.965056
 20
-87.256894
 30
0.0
 40
0.4
100
AcDbArc
 50
90.0
 51
180.0
  0
LINE
  5
164
100
AcDbEntity
  8
0
370
    -3
390
0
  6
Continuous
100
AcDbLine
 10
316.565056
 20
-87.256894
 30
0.0
 11
316.565056
 21
-89.456894
 31
0.0
  0
LINE
  5
165
100
AcDbEntity
  8
0
370
    -3
390
0
  6
Continuous
100
AcDbLine
 10
316.165056
 20
-89.856894
 30
0.0
 11
299.465046
 21
-89.856894
 31
0.0
  0
ARC
  5
166
100
AcDbEntity
  8
0
370
    -3
390
0
  6
Continuous
100
AcDbCircle
 10
316.165056
 20
-89.456894
 30
0.0
 40
0.4
100
AcDbArc
 50
270.0
 51
0.0
  0
LINE
  5
167
100
AcDbEntity
  8
0
370
    -3
390
0
  6
Continuous
100
AcDbLine
 10
299.065046
 20
-92.956894
 30
0.0
 11
299.065046
 21
-90.256894
 31
0.0
  0
LINE
  5
168
100
AcDbEntity
  8
0
370
    -3
390
0
  6
Continuous
100
AcDbLine
 10
279.065046
 20
-93.356894
 30
0.0
 11
298.665046
 21
-93.356894
 31
0.0
  0
ARC
  5
169
100
AcDbEntity
  8
0
370
    -3
390
0
  6
Continuous
100
AcDbCircle
 10
298.665046
 20
-92.956894
 30
0.0
 40
0.4
100
AcDbArc
 50
270.0
 51
0.0
  0
LINE
  5
16A
100
AcDbEntity
  8
0
370
    -3
390
0
  6
Continuous
100
AcDbLine
 10
415.065066
 20
-92.956894
 30
0.0
 11
415.065066
 21
-90.256894
 31
0.0
  0
LINE
  5
16B
100
AcDbEntity
  8
0
370
    -3
390
0
  6
Continuous
100
AcDbLine
 10
435.065046
 20
-93.356894
 30
0.0
 11
415.465066
 21
-93.356894
 31
0.0
  0
ARC
  5
16C
100
AcDbEntity
  8
0
370
    -3
390
0
  6
Continuous
100
AcDbCircle
 10
415.465066
 20
-92.956894
 30
0.0
 40
0.4
100
AcDbArc
 50
180.0
 51
270.0
  0
LINE
  5
16D
100
AcDbEntity
  8
0
370
    -3
390
0
  6
Continuous
100
AcDbLine
 10
278.065046
 20
-98.556894
 30
0.0
 11
436.065046
 21
-98.556894
 31
0.0
  0
LINE
  5
16E
100
AcDbEntity
  8
0
370
    -3
390
0
  6
Continuous
100
AcDbLine
 10
278.065046
 20
-94.356894
 30
0.0
 11
278.065046
 21
-155.356894
 31
0.0
  0
LINE
  5
16F
100
AcDbEntity
  8
0
370
    -3
390
0
  6
Continuous
100
AcDbLine
 10
436.065046
 20
-94.356894
 30
0.0
 11
436.065046
 21
-155.356894
 31
0.0
  0
LINE
  5
170
100
AcDbEntity
  8
0
370
    -3
390
0
  6
Continuous
100
AcDbLine
 10
436.065046
 20
-100.356894
 30
0.0
 11
432.600944
 21
-102.356894
 31
0.0
  0
LINE
  5
171
100
AcDbEntity
  8
0
370
    -3
390
0
  6
Continuous
100
AcDbLine
 10
407.965046
 20
-102.356894
 30
0.0
 11
432.600944
 21
-102.356894
 31
0.0
  0
LINE
  5
172
100
AcDbEntity
  8
0
370
    -3
390
0
  6
Continuous
100
AcDbLine
 10
406.065046
 20
-101.106894
 30
0.0
 11
408.015046
 21
-101.106894
 31
0.0
  0
LINE
  5
173
100
AcDbEntity
  8
0
370
    -3
390
0
  6
Continuous
100
AcDbLine
 10
369.065046
 20
-102.356894
 30
0.0
 11
406.065046
 21
-102.356894
 31
0.0
  0
LINE
  5
174
100
AcDbEntity
  8
0
370
    -3
390
0
  6
Continuous
100
AcDbLine
 10
345.065046
 20
-102.156894
 30
0.0
 11
369.065046
 21
-102.156894
 31
0.0
  0
LINE
  5
175
100
AcDbEntity
  8
0
370
    -3
390
0
  6
Continuous
100
AcDbLine
 10
308.065046
 20
-102.356894
 30
0.0
 11
345.065046
 21
-102.356894
 31
0.0
  0
LINE
  5
176
100
AcDbEntity
  8
0
370
    -3
390
0
  6
Continuous
100
AcDbLine
 10
306.115046
 20
-101.106894
 30
0.0
 11
308.065046
 21
-101.106894
 31
0.0
  0
LINE
  5
177
100
AcDbEntity
  8
0
370
    -3
390
0
  6
Continuous
100
AcDbLine
 10
281.529148
 20
-102.356894
 30
0.0
 11
306.165046
 21
-102.356894
 31
0.0
  0
LINE
  5
178
100
AcDbEntity
  8
0
370
    -3
390
0
  6
Continuous
100
AcDbLine
 10
278.065046
 20
-100.356894
 30
0.0
 11
281.529148
 21
-102.356894
 31
0.0
  0
LINE
  5
179
100
AcDbEntity
  8
0
370
    -3
390
0
  6
Continuous
100
AcDbLine
 10
281.529148
 20
-147.356894
 30
0.0
 11
281.529148
 21
-102.356894
 31
0.0
  0
LINE
  5
17A
100
AcDbEntity
  8
0
370
    -3
390
0
  6
Continuous
100
AcDbLine
 10
432.600944
 20
-147.356894
 30
0.0
 11
432.600944
 21
-102.356894
 31
0.0
  0
LINE
  5
17B
100
AcDbEntity
  8
0
370
    -3
390
0
  6
Continuous
100
AcDbLine
 10
408.015046
 20
-101.106894
 30
0.0
 11
408.015046
 21
-148.606894
 31
0.0
  0
LINE
  5
17C
100
AcDbEntity
  8
0
370
    -3
390
0
  6
Continuous
100
AcDbLine
 10
406.065046
 20
-101.106894
 30
0.0
 11
406.065046
 21
-148.606894
 31
0.0
  0
LINE
  5
17D
100
AcDbEntity
  8
0
370
    -3
390
0
  6
Continuous
100
AcDbLine
 10
306.115046
 20
-101.106894
 30
0.0
 11
306.115046
 21
-148.606894
 31
0.0
  0
LINE
  5
17E
100
AcDbEntity
  8
0
370
    -3
390
0
  6
Continuous
100
AcDbLine
 10
308.065046
 20
-101.106894
 30
0.0
 11
308.065046
 21
-148.606894
 31
0.0
  0
LINE
  5
17F
100
AcDbEntity
  8
0
370
    -3
390
0
  6
Continuous
100
AcDbLine
 10
369.065046
 20
-102.156894
 30
0.0
 11
369.065046
 21
-147.556894
 31
0.0
  0
LINE
  5
180
100
AcDbEntity
  8
0
370
    -3
390
0
  6
Continuous
100
AcDbLine
 10
345.065046
 20
-102.156894
 30
0.0
 11
345.065046
 21
-147.556894
 31
0.0
  0
INSERT
  5
18D
100
AcDbEntity
  8
0
390
0
100
AcDbBlockReference
  2
ZU_SYM__USERS_HOME_SYMBOL_POO_SYM_B20_05
 10
620.023755
 20
-237.856372
 30
0.0
  0
INSERT
  5
19A
100
AcDbEntity
  8
0
390
0
100
AcDbBlockReference
  2
ZU_SYM__USERS_HOME_SYMBOL_POO_SYM_B20_0000105
 10
599.023755
 20
-237.85641
 30
0.0
  0
LINE
  5
19B
100
AcDbEntity
  8
0
370
    -3
390
0
  6
Continuous
100
AcDbLine
 10
509.523755
 20
-137.856611
 30
0.0
 11
509.523755
 21
-157.856611
 31
0.0
  0
LINE
  5
19C
100
AcDbEntity
  8
0
370
    -3
390
0
  6
Continuous
100
AcDbLine
 10
539.523755
 20
-43.856611
 30
0.0
 11
658.523755
 21
-41.856611
 31
0.0
  0
LINE
  5
19D
100
AcDbEntity
  8
0
370
    -3
390
0
  6
Continuous
100
AcDbLine
 10
539.523755
 20
-67.356611
 30
0.0
 11
535.523755
 21
-67.356611
 31
0.0
  0
LINE
  5
19E
100
AcDbEntity
  8
0
370
    -3
390
0
  6
Continuous
100
AcDbLine
 10
535.523755
 20
-67.356611
 30
0.0
 11
534.523755
 21
-68.356611
 31
0.0
  0
LINE
  5
19F
100
AcDbEntity
  8
0
370
    -3
390
0
  6
Continuous
100
AcDbLine
 10
709.523755
 20
-137.856611
 30
0.0
 11
709.523755
 21
-157.856611
 31
0.0
  0
LINE
  5
1A0
100
AcDbEntity
  8
0
370
    -3
390
0
  6
Continuous
100
AcDbLine
 10
658.523755
 20
-41.856611
 30
0.0
 11
679.523755
 21
-43.856611
 31
0.0
  0
LINE
  5
1A1
100
AcDbEntity
  8
0
370
    -3
390
0
  6
Continuous
100
AcDbLine
 10
658.523755
 20
-207.856611
 30
0.0
 11
679.523755
 21
-205.856611
 31
0.0
  0
LINE
  5
1A2
100
AcDbEntity
  8
0
370
    -3
390
0
  6
Continuous
100
AcDbLine
 10
684.523755
 20
-181.356611
 30
0.0
 11
684.523755
 21
-124.856611
 31
0.0
  0
LINE
  5
1A3
100
AcDbEntity
  8
0
370
    -3
390
0
  6
Continuous
100
AcDbLine
 10
683.523755
 20
-182.356611
 30
0.0
 11
684.523755
 21
-181.356611
 31
0.0
  0
LINE
  5
1A4
100
AcDbEntity
  8
0
370
    -3
390
0
  6
Continuous
100
AcDbLine
 10
679.523755
 20
-182.356611
 30
0.0
 11
683.523755
 21
-182.356611
 31
0.0
  0
LINE
  5
1A5
100
AcDbEntity
  8
0
370
    -3
390
0
  6
Continuous
100
AcDbLine
 10
679.523755
 20
-43.856611
 30
0.0
 11
679.523755
 21
-205.856611
 31
0.0
  0
LINE
  5
1A6
100
AcDbEntity
  8
0
370
    -3
390
0
  6
Continuous
100
AcDbLine
 10
679.523755
 20
-67.356611
 30
0.0
 11
683.523755
 21
-67.356611
 31
0.0
  0
LINE
  5
1A7
100
AcDbEntity
  8
0
370
    -3
390
0
  6
Continuous
100
AcDbLine
 10
684.523755
 20
-68.356611
 30
0.0
 11
683.523755
 21
-67.356611
 31
0.0
  0
LINE
  5
1A8
100
AcDbEntity
  8
0
370
    -3
390
0
  6
Continuous
100
AcDbLine
 10
684.523755
 20
-124.856611
 30
0.0
 11
684.523755
 21
-68.356611
 31
0.0
  0
LINE
  5
1A9
100
AcDbEntity
  8
0
370
    -3
390
0
  6
Continuous
100
AcDbLine
 10
683.523755
 20
-67.356611
 30
0.0
 11
683.523755
 21
-182.356611
 31
0.0
  0
ARC
  5
1AA
100
AcDbEntity
  8
0
370
    -3
390
0
  6
Continuous
100
AcDbCircle
 10
658.523755
 20
-65.856611
 30
0.0
 40
1.0
100
AcDbArc
 50
270.0
 51
0.0
  0
ARC
  5
1AB
100
AcDbEntity
  8
0
370
    -3
390
0
  6
Continuous
100
AcDbCircle
 10
658.523755
 20
-183.856611
 30
0.0
 40
1.0
100
AcDbArc
 50
0.0
 51
90.0
  0
LINE
  5
1AC
100
AcDbEntity
  8
0
370
    -3
390
0
  6
Continuous
100
AcDbLine
 10
659.523755
 20
-41.951849
 30
0.0
 11
659.523755
 21
-65.856611
 31
0.0
  0
LINE
  5
1AD
100
AcDbEntity
  8
0
370
    -3
390
0
  6
Continuous
100
AcDbLine
 10
659.523755
 20
-207.761372
 30
0.0
 11
659.523755
 21
-183.856611
 31
0.0
  0
LINE
  5
1AE
100
AcDbEntity
  8
0
370
    -3
390
0
  6
Continuous
100
AcDbLine
 10
658.523755
 20
-41.856611
 30
0.0
 11
658.523755
 21
-207.856611
 31
0.0
  0
ARC
  5
1AF
100
AcDbEntity
  8
0
370
    -3
390
0
  6
Continuous
100
AcDbCircle
 10
658.523755
 20
-65.856611
 30
0.0
 40
1.0
100
AcDbArc
 50
180.0
 51
270.0
  0
LINE
  5
1B0
100
AcDbEntity
  8
0
370
    -3
390
0
  6
Continuous
100
AcDbLine
 10
657.523755
 20
-41.873417
 30
0.0
 11
657.523755
 21
-65.856611
 31
0.0
  0
ARC
  5
1B1
100
AcDbEntity
  8
0
370
    -3
390
0
  6
Continuous
100
AcDbCircle
 10
658.523755
 20
-183.856611
 30
0.0
 40
1.0
100
AcDbArc
 50
90.0
 51
180.0
  0
LINE
  5
1B2
100
AcDbEntity
  8
0
370
    -3
390
0
  6
Continuous
100
AcDbLine
 10
657.523755
 20
-207.839804
 30
0.0
 11
657.523755
 21
-183.856611
 31
0.0
  0
ARC
  5
1B3
100
AcDbEntity
  8
0
370
    -3
390
0
  6
Continuous
100
AcDbCircle
 10
619.523755
 20
-137.856611
 30
0.0
 40
90.0
100
AcDbArc
 50
0.0
 51
43.761743
  0
ARC
  5
1B4
100
AcDbEntity
  8
0
370
    -3
390
0
  6
Continuous
100
AcDbCircle
 10
599.523755
 20
-137.856611
 30
0.0
 40
90.0
100
AcDbArc
 50
136.238257
 51
180.0
  0
LINE
  5
1B5
100
AcDbEntity
  8
0
370
    -3
390
0
  6
Continuous
100
AcDbLine
 10
539.523755
 20
-43.856611
 30
0.0
 11
539.523755
 21
-205.856611
 31
0.0
  0
LINE
  5
1B6
100
AcDbEntity
  8
0
370
    -3
390
0
  6
Continuous
100
AcDbLine
 10
539.523755
 20
-205.856611
 30
0.0
 11
658.523755
 21
-207.856611
 31
0.0
  0
LINE
  5
1B7
100
AcDbEntity
  8
0
370
    -3
390
0
  6
CENTER
100
AcDbLine
 10
698.819891
 20
-124.856611
 30
0.0
 11
523.765076
 21
-124.856611
 31
0.0
  0
LINE
  5
1B8
100
AcDbEntity
  8
0
370
    -3
390
0
  6
CENTER
100
AcDbLine
 10
526.67246
 20
-59.856611
 30
0.0
 11
692.096713
 21
-59.856611
 31
0.0
  0
LINE
  5
1B9
100
AcDbEntity
  8
0
370
    -3
390
0
  6
CENTER
100
AcDbLine
 10
526.67246
 20
-189.856611
 30
0.0
 11
692.096713
 21
-189.856611
 31
0.0
  0
LINE
  5
1BA
100
AcDbEntity
  8
0
370
    -3
390
0
  6
Continuous
100
AcDbLine
 10
539.523755
 20
-182.356611
 30
0.0
 11
535.523755
 21
-182.356611
 31
0.0
  0
LINE
  5
1BB
100
AcDbEntity
  8
0
370
    -3
390
0
  6
Continuous
100
AcDbLine
 10
535.523755
 20
-67.356611
 30
0.0
 11
535.523755
 21
-182.356611
 31
0.0
  0
LINE
  5
1BC
100
AcDbEntity
  8
0
370
    -3
390
0
  6
Continuous
100
AcDbLine
 10
535.523755
 20
-182.356611
 30
0.0
 11
534.523755
 21
-181.356611
 31
0.0
  0
LINE
  5
1BD
100
AcDbEntity
  8
0
370
    -3
390
0
  6
Continuous
100
AcDbLine
 10
534.523755
 20
-181.356611
 30
0.0
 11
534.523755
 21
-68.356611
 31
0.0
  0
ARC
  5
1BE
100
AcDbEntity
  8
0
370
    -3
390
0
  6
Continuous
100
AcDbCircle
 10
653.523755
 20
-124.856611
 30
0.0
 40
2.0
100
AcDbArc
 50
270.0
 51
90.0
  0
LINE
  5
1BF
100
AcDbEntity
  8
0
370
    -3
390
0
  6
Continuous
100
AcDbLine
 10
653.523755
 20
-122.856611
 30
0.0
 11
539.523755
 21
-122.856611
 31
0.0
  0
LINE
  5
1C0
100
AcDbEntity
  8
0
370
    -3
390
0
  6
Continuous
100
AcDbLine
 10
653.523755
 20
-126.856611
 30
0.0
 11
539.523755
 21
-126.856611
 31
0.0
  0
ARC
  5
1C1
100
AcDbEntity
  8
0
370
    -3
390
0
  6
Continuous
100
AcDbCircle
 10
663.523755
 20
-124.856611
 30
0.0
 40
2.0
100
AcDbArc
 50
90.0
 51
270.0
  0
LINE
  5
1C2
100
AcDbEntity
  8
0
370
    -3
390
0
  6
Continuous
100
AcDbLine
 10
663.523755
 20
-126.856611
 30
0.0
 11
679.523755
 21
-126.856611
 31
0.0
  0
LINE
  5
1C3
100
AcDbEntity
  8
0
370
    -3
390
0
  6
Continuous
100
AcDbLine
 10
663.523755
 20
-122.856611
 30
0.0
 11
679.523755
 21
-122.856611
 31
0.0
  0
ARC
  5
1C4
100
AcDbEntity
  8
0
370
    -3
390
0
  6
Continuous
100
AcDbCircle
 10
625.023755
 20
-232.856372
 30
0.0
 40
5.0
100
AcDbArc
 50
0.0
 51
90.0
  0
LINE
  5
1C5
100
AcDbEntity
  8
0
370
    -3
390
0
  6
CENTER
100
AcDbLine
 10
620.023755
 20
-224.408617
 30
0.0
 11
620.023755
 21
-249.287157
 31
0.0
  0
LINE
  5
1C6
100
AcDbEntity
  8
0
370
    -3
390
0
  6
CENTER
100
AcDbLine
 10
599.023696
 20
-229.811435
 30
0.0
 11
599.023814
 21
-245.845847
 31
0.0
  0
ARC
  5
1C7
100
AcDbEntity
  8
0
370
    -3
390
0
  6
Continuous
100
AcDbCircle
 10
594.023755
 20
-232.856372
 30
0.0
 40
5.0
100
AcDbArc
 50
90.0
 51
180.0
  0
LINE
  5
1C8
100
AcDbEntity
  8
0
370
    -3
390
0
  6
Continuous
100
AcDbLine
 10
625.023755
 20
-227.856372
 30
0.0
 11
594.023755
 21
-227.856372
 31
0.0
  0
LINE
  5
1C9
100
AcDbEntity
  8
0
370
    -3
390
0
  6
CENTER
100
AcDbLine
 10
599.023755
 20
-223.647025
 30
0.0
 11
599.023755
 21
-249.794885
 31
0.0
  0
LINE
  5
1CA
100
AcDbEntity
  8
0
370
    -3
390
0
  6
CENTER
100
AcDbLine
 10
635.021954
 20
-237.856372
 30
0.0
 11
582.47761
 21
-237.856372
 31
0.0
  0
ARC
  5
1CB
100
AcDbEntity
  8
0
370
    -3
390
0
  6
Continuous
100
AcDbCircle
 10
620.023752
 20
-272.856611
 30
0.0
 40
10.0
100
AcDbArc
 50
270.0
 51
0.0
  0
ARC
  5
1CC
100
AcDbEntity
  8
0
370
    -3
390
0
  6
Continuous
100
AcDbCircle
 10
599.023752
 20
-272.856611
 30
0.0
 40
10.0
100
AcDbArc
 50
180.0
 51
270.0
  0
LINE
  5
1CD
100
AcDbEntity
  8
0
370
    -3
390
0
  6
Continuous
100
AcDbLine
 10
620.023752
 20
-282.856611
 30
0.0
 11
599.023752
 21
-282.856611
 31
0.0
  0
CIRCLE
  5
1CE
100
AcDbEntity
  8
0
370
    -3
390
0
  6
Continuous
100
AcDbCircle
 10
609.523752
 20
-262.856611
 30
0.0
 40
10.0
  0
LINE
  5
1CF
100
AcDbEntity
  8
0
370
    -3
390
0
  6
CENTER
100
AcDbLine
 10
624.462805
 20
-262.856611
 30
0.0
 11
593.816985
 21
-262.856611
 31
0.0
  0
LINE
  5
1D0
100
AcDbEntity
  8
0
370
    -3
390
0
  6
Continuous
100
AcDbLine
 10
630.023755
 20
-232.856372
 30
0.0
 11
630.023752
 21
-272.856611
 31
0.0
  0
LINE
  5
1D1
100
AcDbEntity
  8
0
370
    -3
390
0
  6
Continuous
100
AcDbLine
 10
589.023755
 20
-232.856372
 30
0.0
 11
589.023752
 21
-272.856611
 31
0.0
  0
INSERT
  5
1DD
100
AcDbEntity
  8
0
390
0
100
AcDbBlockReference
  2
ZU_SYM__USERS_HOME_SYMBOL_POO_SYM_B20_18
 10
-129.953015
 20
-237.856422
 30
0.0
 50
180.0
  0
ARC
  5
1DE
100
AcDbEntity
  8
0
370
    -3
390
0
  6
Continuous
100
AcDbCircle
 10
-24.87199
 20
-189.856894
 30
0.0
 40
20.0
100
AcDbArc
 50
358.854008
 51
88.854008
  0
ARC
  5
1DF
100
AcDbEntity
  8
0
370
    -3
390
0
  6
Continuous
100
AcDbCircle
 10
-24.37199
 20
-164.861895
 30
0.0
 40
5.0
100
AcDbArc
 50
180.0
 51
268.854008
  0
LINE
  5
1E0
100
AcDbEntity
  8
0
370
    -3
390
0
  6
Continuous
100
AcDbLine
 10
-29.37199
 20
-84.851894
 30
0.0
 11
-29.37199
 21
-164.861895
 31
0.0
  0
ARC
  5
1E1
100
AcDbEntity
  8
0
370
    -3
390
0
  6
Continuous
100
AcDbCircle
 10
-24.37199
 20
-84.851894
 30
0.0
 40
5.0
100
AcDbArc
 50
91.145992
 51
180.0
  0
ARC
  5
1E2
100
AcDbEntity
  8
0
370
    -3
390
0
  6
Continuous
100
AcDbCircle
 10
-24.87199
 20
-59.856894
 30
0.0
 40
20.0
100
AcDbArc
 50
271.145992
 51
1.145992
  0
ARC
  5
1E3
100
AcDbEntity
  8
0
370
    -3
390
0
  6
Continuous
100
AcDbCircle
 10
-111.87199
 20
-56.856894
 30
0.0
 40
15.0
100
AcDbArc
 50
90.0
 51
180.0
  0
LINE
  5
1E4
100
AcDbEntity
  8
0
370
    -3
390
0
  6
Continuous
100
AcDbLine
 10
-126.87199
 20
-56.856894
 30
0.0
 11
-126.87199
 21
-192.856894
 31
0.0
  0
ARC
  5
1E5
100
AcDbEntity
  8
0
370
    -3
390
0
  6
Continuous
100
AcDbCircle
 10
-111.87199
 20
-192.856894
 30
0.0
 40
15.0
100
AcDbArc
 50
180.0
 51
270.0
  0
ARC
  5
1E6
100
AcDbEntity
  8
0
370
    -3
390
0
  6
Continuous
100
AcDbCircle
 10
-153.87199
 20
-196.327022
 30
0.0
 40
5.0
100
AcDbArc
 50
180.0
 51
270.0
  0
ARC
  5
1E7
100
AcDbEntity
  8
0
370
    -3
390
0
  6
Continuous
100
AcDbCircle
 10
-161.87199
 20
-244.856894
 30
0.0
 40
3.0
100
AcDbArc
 50
270.0
 51
0.0
  0
ARC
  5
1E8
100
AcDbEntity
  8
0
370
    -3
390
0
  6
Continuous
100
AcDbCircle
 10
-126.453015
 20
-215.856894
 30
0.0
 40
8.0
100
AcDbArc
 50
90.0
 51
180.0
  0
ARC
  5
1E9
100
AcDbEntity
  8
0
370
    -3
390
0
  6
Continuous
100
AcDbCircle
 10
-153.87199
 20
-230.856894
 30
0.0
 40
5.0
100
AcDbArc
 50
90.0
 51
180.0
  0
ARC
  5
1EA
100
AcDbEntity
  8
0
370
    -3
390
0
  6
Continuous
100
AcDbCircle
 10
-153.87199
 20
-210.587736
 30
0.0
 40
5.0
100
AcDbArc
 50
180.0
 51
270.0
  0
LINE
  5
1EB
100
AcDbEntity
  8
0
370
    -3
390
0
  6
Continuous
100
AcDbLine
 10
-158.87199
 20
-244.856894
 30
0.0
 11
-158.87199
 21
-230.856894
 31
0.0
  0
LINE
  5
1EC
100
AcDbEntity
  8
0
370
    -3
390
0
  6
Continuous
100
AcDbLine
 10
-142.453015
 20
-247.856894
 30
0.0
 11
-167.87199
 21
-247.856894
 31
0.0
  0
ARC
  5
1ED
100
AcDbEntity
  8
0
370
    -3
390
0
  6
Continuous
100
AcDbCircle
 10
-142.453015
 20
-239.856894
 30
0.0
 40
8.0
100
AcDbArc
 50
270.0
 51
0.0
  0
ARC
  5
1EE
100
AcDbEntity
  8
0
370
    -3
390
0
  6
Continuous
100
AcDbCircle
 10
-153.87199
 20
-234.317007
 30
0.0
 40
5.0
100
AcDbArc
 50
90.0
 51
180.0
  0
ARC
  5
1EF
100
AcDbEntity
  8
0
370
    -3
390
0
  6
Continuous
100
AcDbCircle
 10
-142.453015
 20
-71.856894
 30
0.0
 40
8.0
100
AcDbArc
 50
0.0
 51
90.0
  0
ARC
  5
1F0
100
AcDbEntity
  8
0
370
    -3
390
0
  6
Continuous
100
AcDbCircle
 10
-134.784868
 20
-55.856894
 30
0.0
 40
8.0
100
AcDbArc
 50
270.0
 51
355.011458
  0
LINE
  5
1F1
100
AcDbEntity
  8
0
370
    -3
390
0
  6
Continuous
100
AcDbLine
 10
-134.784868
 20
-63.856894
 30
0.0
 11
-153.87199
 21
-63.856894
 31
0.0
  0
ARC
  5
1F2
100
AcDbEntity
  8
0
370
    -3
390
0
  6
Continuous
100
AcDbCircle
 10
-153.87199
 20
-58.856894
 30
0.0
 40
5.0
100
AcDbArc
 50
180.0
 51
270.0
  0
ARC
  5
1F3
100
AcDbEntity
  8
0
370
    -3
390
0
  6
Continuous
100
AcDbCircle
 10
-161.87199
 20
-50.856894
 30
0.0
 40
3.0
100
AcDbArc
 50
0.0
 51
90.0
  0
LINE
  5
1F4
100
AcDbEntity
  8
0
370
    -3
390
0
  6
Continuous
100
AcDbLine
 10
-161.87199
 20
-47.856894
 30
0.0
 11
-167.87199
 21
-47.856894
 31
0.0
  0
ARC
  5
1F5
100
AcDbEntity
  8
0
370
    -3
390
0
  6
Continuous
100
AcDbCircle
 10
-153.87199
 20
-64.856894
 30
0.0
 40
5.0
100
AcDbArc
 50
180.0
 51
270.0
  0
ARC
  5
1F6
100
AcDbEntity
  8
0
370
    -3
390
0
  6
Continuous
100
AcDbCircle
 10
-153.87199
 20
-99.386767
 30
0.0
 40
5.0
100
AcDbArc
 50
90.0
 51
180.0
  0
ARC
  5
1F7
100
AcDbEntity
  8
0
370
    -3
390
0
  6
Continuous
100
AcDbCircle
 10
-153.87199
 20
-85.126053
 30
0.0
 40
5.0
100
AcDbArc
 50
90.0
 51
180.0
  0
LINE
  5
1F8
100
AcDbEntity
  8
0
370
    -3
390
0
  6
Continuous
100
AcDbLine
 10
-146.87199
 20
-69.856894
 30
0.0
 11
-153.87199
 21
-69.856894
 31
0.0
  0
LINE
  5
1F9
100
AcDbEntity
  8
0
370
    -3
390
0
  6
Continuous
100
AcDbLine
 10
-146.87199
 20
-80.126053
 30
0.0
 11
-153.87199
 21
-80.126053
 31
0.0
  0
LINE
  5
1FA
100
AcDbEntity
  8
0
370
    -3
390
0
  6
Continuous
100
AcDbLine
 10
-158.87199
 20
-210.587736
 30
0.0
 11
-158.87199
 21
-85.126053
 31
0.0
  0
LINE
  5
1FB
100
AcDbEntity
  8
0
370
    -3
390
0
  6
Continuous
100
AcDbLine
 10
-158.87199
 20
-64.856894
 30
0.0
 11
-158.87199
 21
-50.856894
 31
0.0
  0
LINE
  5
1FC
100
AcDbEntity
  8
0
370
    -3
390
0
  6
Continuous
100
AcDbLine
 10
108.12801
 20
-207.856894
 30
0.0
 11
-126.453015
 21
-207.856894
 31
0.0
  0
LINE
  5
1FD
100
AcDbEntity
  8
0
370
    -3
390
0
  6
Continuous
100
AcDbLine
 10
108.12801
 20
-41.856894
 30
0.0
 11
-111.87199
 21
-41.856894
 31
0.0
  0
ARC
  5
1FE
100
AcDbEntity
  8
0
370
    -3
390
0
  6
Continuous
100
AcDbCircle
 10
108.12801
 20
-192.856894
 30
0.0
 40
15.0
100
AcDbArc
 50
270.0
 51
0.0
  0
ARC
  5
1FF
100
AcDbEntity
  8
0
370
    -3
390
0
  6
Continuous
100
AcDbCircle
 10
108.12801
 20
-56.856894
 30
0.0
 40
15.0
100
AcDbArc
 50
0.0
 51
90.0
  0
LINE
  5
200
100
AcDbEntity
  8
0
370
    -3
390
0
  6
Continuous
100
AcDbLine
 10
123.12801
 20
-56.856894
 30
0.0
 11
123.12801
 21
-192.856894
 31
0.0
  0
ARC
  5
201
100
AcDbEntity
  8
0
370
    -3
390
0
  6
Continuous
100
AcDbCircle
 10
-108.37199
 20
-164.861895
 30
0.0
 40
6.0
100
AcDbArc
 50
180.0
 51
268.854008
  0
ARC
  5
202
100
AcDbEntity
  8
0
370
    -3
390
0
  6
Continuous
100
AcDbCircle
 10
-108.87199
 20
-189.856894
 30
0.0
 40
19.0
100
AcDbArc
 50
1.145992
 51
88.854008
  0
ARC
  5
203
100
AcDbEntity
  8
0
370
    -3
390
0
  6
Continuous
100
AcDbCircle
 10
-83.87699
 20
-189.356894
 30
0.0
 40
6.0
100
AcDbArc
 50
181.145992
 51
270.0
  0
ARC
  5
204
100
AcDbEntity
  8
0
370
    -3
390
0
  6
Continuous
100
AcDbCircle
 10
-108.37199
 20
-84.851894
 30
0.0
 40
6.0
100
AcDbArc
 50
91.145992
 51
180.0
  0
ARC
  5
205
100
AcDbEntity
  8
0
370
    -3
390
0
  6
Continuous
100
AcDbCircle
 10
-108.87199
 20
-59.856894
 30
0.0
 40
19.0
100
AcDbArc
 50
271.145992
 51
358.854008
  0
ARC
  5
206
100
AcDbEntity
  8
0
370
    -3
390
0
  6
Continuous
100
AcDbCircle
 10
-83.87699
 20
-60.356894
 30
0.0
 40
6.0
100
AcDbArc
 50
90.0
 51
178.854008
  0
ARC
  5
207
100
AcDbEntity
  8
0
370
    -3
390
0
  6
Continuous
100
AcDbCircle
 10
104.62801
 20
-84.851894
 30
0.0
 40
6.0
100
AcDbArc
 50
0.0
 51
88.854008
  0
ARC
  5
208
100
AcDbEntity
  8
0
370
    -3
390
0
  6
Continuous
100
AcDbCircle
 10
105.12801
 20
-59.856894
 30
0.0
 40
19.0
100
AcDbArc
 50
181.145992
 51
268.854008
  0
ARC
  5
209
100
AcDbEntity
  8
0
370
    -3
390
0
  6
Continuous
100
AcDbCircle
 10
80.133011
 20
-60.356894
 30
0.0
 40
6.0
100
AcDbArc
 50
1.145992
 51
90.0
  0
ARC
  5
20A
100
AcDbEntity
  8
0
370
    -3
390
0
  6
Continuous
100
AcDbCircle
 10
104.62801
 20
-164.861895
 30
0.0
 40
6.0
100
AcDbArc
 50
271.145992
 51
0.0
  0
ARC
  5
20B
100
AcDbEntity
  8
0
370
    -3
390
0
  6
Continuous
100
AcDbCircle
 10
105.12801
 20
-189.856894
 30
0.0
 40
19.0
100
AcDbArc
 50
91.145992
 51
178.854008
  0
ARC
  5
20C
100
AcDbEntity
  8
0
370
    -3
390
0
  6
Continuous
100
AcDbCircle
 10
80.133011
 20
-189.356894
 30
0.0
 40
6.0
100
AcDbArc
 50
270.0
 51
358.854008
  0
LINE
  5
20D
100
AcDbEntity
  8
0
370
    -3
390
0
  6
Continuous
100
AcDbLine
 10
-83.87699
 20
-54.356894
 30
0.0
 11
80.133011
 21
-54.356894
 31
0.0
  0
LINE
  5
20E
100
AcDbEntity
  8
0
370
    -3
390
0
  6
Continuous
100
AcDbLine
 10
-114.37199
 20
-164.861895
 30
0.0
 11
-114.37199
 21
-84.851894
 31
0.0
  0
LINE
  5
20F
100
AcDbEntity
  8
0
370
    -3
390
0
  6
Continuous
100
AcDbLine
 10
80.133011
 20
-195.356894
 30
0.0
 11
-83.87699
 21
-195.356894
 31
0.0
  0
LINE
  5
210
100
AcDbEntity
  8
0
370
    -3
390
0
  6
Continuous
100
AcDbLine
 10
110.62801
 20
-84.851894
 30
0.0
 11
110.62801
 21
-164.861895
 31
0.0
  0
CIRCLE
  5
211
100
AcDbEntity
  8
0
370
    -3
390
0
  6
Continuous
100
AcDbCircle
 10
-10.37199
 20
-124.856894
 30
0.0
 40
1.8
  0
CIRCLE
  5
212
100
AcDbEntity
  8
0
370
    -3
390
0
  6
Continuous
100
AcDbCircle
 10
40.12801
 20
-175.356894
 30
0.0
 40
1.8
  0
CIRCLE
  5
213
100
AcDbEntity
  8
0
370
    -3
390
0
  6
Continuous
100
AcDbCircle
 10
90.62801
 20
-124.856894
 30
0.0
 40
1.8
  0
CIRCLE
  5
214
100
AcDbEntity
  8
0
370
    -3
390
0
  6
Continuous
100
AcDbCircle
 10
40.12801
 20
-74.356894
 30
0.0
 40
1.8
  0
LINE
  5
215
100
AcDbEntity
  8
0
370
    -3
390
0
  6
Continuous
100
AcDbLine
 10
-167.87199
 20
-147.856894
 30
0.0
 11
-167.87199
 21
-247.856894
 31
0.0
  0
LINE
  5
216
100
AcDbEntity
  8
0
370
    -3
390
0
  6
Continuous
100
AcDbLine
 10
-167.87199
 20
-147.856894
 30
0.0
 11
-167.87199
 21
-47.856894
 31
0.0
  0
CIRCLE
  5
217
100
AcDbEntity
  8
0
370
    -3
390
0
  6
Continuous
100
AcDbCircle
 10
-108.87199
 20
-59.856894
 30
0.0
 40
13.0
  0
CIRCLE
  5
218
100
AcDbEntity
  8
0
370
    -3
390
0
  6
Continuous
100
AcDbCircle
 10
-108.87199
 20
-59.856894
 30
0.0
 40
10.0
  0
CIRCLE
  5
219
100
AcDbEntity
  8
0
370
    -3
390
0
  6
Continuous
100
AcDbCircle
 10
-108.87199
 20
-59.856894
 30
0.0
 40
8.647
  0
CIRCLE
  5
21A
100
AcDbEntity
  8
0
370
    -3
390
0
  6
Continuous
100
AcDbCircle
 10
-108.87199
 20
-189.856894
 30
0.0
 40
13.0
  0
CIRCLE
  5
21B
100
AcDbEntity
  8
0
370
    -3
390
0
  6
Continuous
100
AcDbCircle
 10
-108.87199
 20
-189.856894
 30
0.0
 40
10.0
  0
CIRCLE
  5
21C
100
AcDbEntity
  8
0
370
    -3
390
0
  6
Continuous
100
AcDbCircle
 10
-108.87199
 20
-189.856894
 30
0.0
 40
8.647
  0
CIRCLE
  5
21D
100
AcDbEntity
  8
0
370
    -3
390
0
  6
Continuous
100
AcDbCircle
 10
105.12801
 20
-189.856894
 30
0.0
 40
13.0
  0
CIRCLE
  5
21E
100
AcDbEntity
  8
0
370
    -3
390
0
  6
Continuous
100
AcDbCircle
 10
105.12801
 20
-189.856894
 30
0.0
 40
10.0
  0
CIRCLE
  5
21F
100
AcDbEntity
  8
0
370
    -3
390
0
  6
Continuous
100
AcDbCircle
 10
105.12801
 20
-189.856894
 30
0.0
 40
8.647
  0
CIRCLE
  5
220
100
AcDbEntity
  8
0
370
    -3
390
0
  6
Continuous
100
AcDbCircle
 10
105.12801
 20
-59.856894
 30
0.0
 40
10.0
  0
CIRCLE
  5
221
100
AcDbEntity
  8
0
370
    -3
390
0
  6
Continuous
100
AcDbCircle
 10
105.12801
 20
-59.856894
 30
0.0
 40
8.647
  0
CIRCLE
  5
222
100
AcDbEntity
  8
0
370
    -3
390
0
  6
Continuous
100
AcDbCircle
 10
105.12801
 20
-59.856894
 30
0.0
 40
13.0
  0
CIRCLE
  5
223
100
AcDbEntity
  8
0
370
    -3
390
0
  6
Continuous
100
AcDbCircle
 10
40.12801
 20
-124.856894
 30
0.0
 40
40.0
  0
CIRCLE
  5
224
100
AcDbEntity
  8
0
370
    -3
390
0
  6
Continuous
100
AcDbCircle
 10
40.12801
 20
-124.856894
 30
0.0
 40
57.5
  0
LINE
  5
225
100
AcDbEntity
  8
0
370
    -3
390
0
  6
Continuous
100
AcDbLine
 10
-129.953015
 20
-227.856422
 30
0.0
 11
-134.453015
 21
-227.856422
 31
0.0
  0
LINE
  5
226
100
AcDbEntity
  8
0
370
    -3
390
0
  6
Continuous
100
AcDbLine
 10
-129.953015
 20
-282.856611
 30
0.0
 11
-129.953015
 21
-227.856422
 31
0.0
  0
LINE
  5
227
100
AcDbEntity
  8
0
370
    -3
390
0
  6
Continuous
100
AcDbLine
 10
-134.453015
 20
-282.856611
 30
0.0
 11
-129.953015
 21
-282.856611
 31
0.0
  0
ARC
  5
228
100
AcDbEntity
  8
0
370
    -3
390
0
  6
Continuous
100
AcDbCircle
 10
-146.87199
 20
-88.126053
 30
0.0
 40
8.0
100
AcDbArc
 50
6.240692
 51
90.0
  0
ARC
  5
229
100
AcDbEntity
  8
0
370
    -3
390
0
  6
Continuous
100
AcDbCircle
 10
-146.87199
 20
-77.856894
 30
0.0
 40
8.0
100
AcDbArc
 50
0.0
 51
90.0
  0
LINE
  5
22A
100
AcDbEntity
  8
0
370
    -3
390
0
  6
Continuous
100
AcDbLine
 10
-138.87199
 20
-77.856894
 30
0.0
 11
-138.87199
 21
-87.25641
 31
0.0
  0
LINE
  5
22B
100
AcDbEntity
  8
0
370
    -3
390
0
  6
Continuous
100
AcDbLine
 10
-134.453015
 20
-71.856894
 30
0.0
 11
-134.453015
 21
-282.856611
 31
0.0
  0
ARC
  5
22C
100
AcDbEntity
  8
0
370
    -3
390
0
  6
Continuous
100
AcDbCircle
 10
-130.966806
 20
-76.117608
 30
0.0
 40
8.0
100
AcDbArc
 50
186.240692
 51
224.119609
  0
ARC
  5
22D
100
AcDbEntity
  8
0
370
    -3
390
0
  6
Continuous
100
AcDbCircle
 10
-142.453015
 20
-87.256145
 30
0.0
 40
8.0
100
AcDbArc
 50
0.0
 51
44.119609
  0
ARC
  5
22E
100
AcDbEntity
  8
0
370
    -3
390
0
  6
Continuous
100
AcDbCircle
 10
-142.453015
 20
-97.525303
 30
0.0
 40
8.0
100
AcDbArc
 50
0.0
 51
44.119609
  0
ARC
  5
22F
100
AcDbEntity
  8
0
370
    -3
390
0
  6
Continuous
100
AcDbCircle
 10
-130.966806
 20
-86.386767
 30
0.0
 40
8.0
100
AcDbArc
 50
186.240692
 51
224.119609
  0
ARC
  5
230
100
AcDbEntity
  8
0
370
    -3
390
0
  6
Continuous
100
AcDbCircle
 10
-142.453015
 20
-221.317007
 30
0.0
 40
8.0
100
AcDbArc
 50
270.0
 51
0.0
  0
LINE
  5
231
100
AcDbEntity
  8
0
370
    -3
390
0
  6
Continuous
100
AcDbLine
 10
-153.87199
 20
-229.317007
 30
0.0
 11
-142.453015
 21
-229.317007
 31
0.0
  0
ARC
  5
232
100
AcDbEntity
  8
0
370
    -3
390
0
  6
Continuous
100
AcDbCircle
 10
-142.453015
 20
-198.188486
 30
0.0
 40
8.0
100
AcDbArc
 50
315.880391
 51
0.0
  0
ARC
  5
233
100
AcDbEntity
  8
0
370
    -3
390
0
  6
Continuous
100
AcDbCircle
 10
-130.966806
 20
-209.327022
 30
0.0
 40
8.0
100
AcDbArc
 50
135.880391
 51
173.759308
  0
LINE
  5
234
100
AcDbEntity
  8
0
370
    -3
390
0
  6
Continuous
100
AcDbLine
 10
-146.87199
 20
-215.587736
 30
0.0
 11
-153.87199
 21
-215.587736
 31
0.0
  0
ARC
  5
235
100
AcDbEntity
  8
0
370
    -3
390
0
  6
Continuous
100
AcDbCircle
 10
-146.87199
 20
-207.587736
 30
0.0
 40
8.0
100
AcDbArc
 50
270.0
 51
353.759308
  0
ARC
  5
236
100
AcDbEntity
  8
0
370
    -3
390
0
  6
Continuous
100
AcDbCircle
 10
-146.87199
 20
-217.856894
 30
0.0
 40
8.0
100
AcDbArc
 50
270.0
 51
0.0
  0
LINE
  5
237
100
AcDbEntity
  8
0
370
    -3
390
0
  6
Continuous
100
AcDbLine
 10
-138.87199
 20
-217.856894
 30
0.0
 11
-138.87199
 21
-208.457379
 31
0.0
  0
ARC
  5
238
100
AcDbEntity
  8
0
370
    -3
390
0
  6
Continuous
100
AcDbCircle
 10
-130.966806
 20
-219.59618
 30
0.0
 40
8.0
100
AcDbArc
 50
135.880391
 51
173.759308
  0
ARC
  5
239
100
AcDbEntity
  8
0
370
    -3
390
0
  6
Continuous
100
AcDbCircle
 10
-142.453015
 20
-208.457644
 30
0.0
 40
8.0
100
AcDbArc
 50
315.880391
 51
0.0
  0
LINE
  5
23A
100
AcDbEntity
  8
0
370
    -3
390
0
  6
Continuous
100
AcDbLine
 10
-146.87199
 20
-225.856894
 30
0.0
 11
-153.87199
 21
-225.856894
 31
0.0
  0
LINE
  5
23B
100
AcDbEntity
  8
0
370
    -3
390
0
  6
Continuous
100
AcDbLine
 10
-142.453015
 20
-94.386767
 30
0.0
 11
-153.87199
 21
-94.386767
 31
0.0
  0
LINE
  5
23C
100
AcDbEntity
  8
0
370
    -3
390
0
  6
Continuous
100
AcDbLine
 10
-142.453015
 20
-201.327022
 30
0.0
 11
-153.87199
 21
-201.327022
 31
0.0
  0
LINE
  5
23D
100
AcDbEntity
  8
0
370
    -3
390
0
  6
CENTER
100
AcDbLine
 10
-141.465479
 20
-237.856372
 30
0.0
 11
-115.105795
 21
-237.856308
 31
0.0
  0
LINE
  5
23E
100
AcDbEntity
  8
0
370
    -3
390
0
  6
CENTER
100
AcDbLine
 10
105.12801
 20
-38.856894
 30
0.0
 11
105.12801
 21
-80.856894
 31
0.0
  0
LINE
  5
23F
100
AcDbEntity
  8
0
370
    -3
390
0
  6
CENTER
100
AcDbLine
 10
126.12801
 20
-59.856894
 30
0.0
 11
84.12801
 21
-59.856894
 31
0.0
  0
LINE
  5
240
100
AcDbEntity
  8
0
370
    -3
390
0
  6
CENTER
100
AcDbLine
 10
105.12801
 20
-168.856894
 30
0.0
 11
105.12801
 21
-210.856894
 31
0.0
  0
LINE
  5
241
100
AcDbEntity
  8
0
370
    -3
390
0
  6
CENTER
100
AcDbLine
 10
126.12801
 20
-189.856894
 30
0.0
 11
84.12801
 21
-189.856894
 31
0.0
  0
LINE
  5
242
100
AcDbEntity
  8
0
370
    -3
390
0
  6
CENTER
100
AcDbLine
 10
-108.87199
 20
-168.856894
 30
0.0
 11
-108.87199
 21
-210.856894
 31
0.0
  0
LINE
  5
243
100
AcDbEntity
  8
0
370
    -3
390
0
  6
CENTER
100
AcDbLine
 10
-87.87199
 20
-189.856894
 30
0.0
 11
-129.87199
 21
-189.856894
 31
0.0
  0
LINE
  5
244
100
AcDbEntity
  8
0
370
    -3
390
0
  6
CENTER
100
AcDbLine
 10
-108.87199
 20
-38.856894
 30
0.0
 11
-108.87199
 21
-80.856894
 31
0.0
  0
LINE
  5
245
100
AcDbEntity
  8
0
370
    -3
390
0
  6
CENTER
100
AcDbLine
 10
-87.87199
 20
-59.856894
 30
0.0
 11
-129.87199
 21
-59.856894
 31
0.0
  0
ARC
  5
246
100
AcDbEntity
  8
0
370
    -3
390
0
  6
CENTER
100
AcDbCircle
 10
40.12801
 20
-124.856894
 30
0.0
 40
50.5
100
AcDbArc
 50
80.587369
 51
98.222711
  0
ARC
  5
247
100
AcDbEntity
  8
0
370
    -3
390
0
  6
CENTER
100
AcDbCircle
 10
40.12801
 20
-124.856894
 30
0.0
 40
50.5
100
AcDbArc
 50
351.514955
 51
8.274472
  0
ARC
  5
248
100
AcDbEntity
  8
0
370
    -3
390
0
  6
CENTER
100
AcDbCircle
 10
40.12801
 20
-124.856894
 30
0.0
 40
50.5
100
AcDbArc
 50
261.917844
 51
278.099074
  0
ARC
  5
249
100
AcDbEntity
  8
0
370
    -3
390
0
  6
CENTER
100
AcDbCircle
 10
40.12801
 20
-124.856894
 30
0.0
 40
50.5
100
AcDbArc
 50
171.916952
 51
188.424667
  0
LINE
  5
24A
100
AcDbEntity
  8
0
370
    -3
390
0
  6
CENTER
100
AcDbLine
 10
-144.704345
 20
-262.856611
 30
0.0
 11
-119.714151
 21
-262.856611
 31
0.0
  0
LINE
  5
24B
100
AcDbEntity
  8
0
370
    -3
390
0
  6
CENTER
100
AcDbLine
 10
130.613655
 20
-124.856894
 30
0.0
 11
-131.965881
 21
-124.856894
 31
0.0
  0
LINE
  5
24C
100
AcDbEntity
  8
0
370
    -3
390
0
  6
CENTER
100
AcDbLine
 10
40.12801
 20
-30.485268
 30
0.0
 11
40.12801
 21
-216.72416
 31
0.0
  0
ARC
  5
24D
100
AcDbEntity
  8
0
370
    -3
390
0
  6
Continuous
100
AcDbCircle
 10
619.523755
 20
-157.856611
 30
0.0
 40
90.0
100
AcDbArc
 50
276.699765
 51
0.0
  0
ARC
  5
24E
100
AcDbEntity
  8
0
370
    -3
390
0
  6
Continuous
100
AcDbCircle
 10
599.523755
 20
-157.856611
 30
0.0
 40
90.0
100
AcDbArc
 50
180.0
 51
263.300235
  0
ARC
  5
24F
100
AcDbEntity
  8
0
370
    -3
390
0
  6
Continuous
100
AcDbCircle
 10
0.12301
 20
-190.356894
 30
0.0
 40
5.0
100
AcDbArc
 50
178.854008
 51
270.0
  0
ARC
  5
250
100
AcDbEntity
  8
0
370
    -3
390
0
  6
Continuous
100
AcDbCircle
 10
0.12301
 20
-59.356894
 30
0.0
 40
5.0
100
AcDbArc
 50
90.0
 51
181.145992
  0
MTEXT
  5
252
100
AcDbEntity
  8
0
370
    -3
390
0
  6
Continuous
100
AcDbMText
 10
-659.696228
 20
204.478088
 30
0.0
 40
10.0
 41
0.0
 71
     7
 72
     1
  1
\W0.63;三菱ギヤードモータ  
  7
ZU_SHPTB00001
 11
1.0
 21
0.0
 31
0.0
 73
     1
 44
1.0
  0
MTEXT
  5
253
100
AcDbEntity
  8
0
370
    -3
390
0
  6
Continuous
100
AcDbMText
 10
-659.696228
 20
193.178085
 30
0.0
 40
10.0
 41
0.0
 71
     7
 72
     1
  1
\W0.47;GM-SSYPF-RH
  7
ZU_SHPTB00001
 11
1.0
 21
0.0
 31
0.0
 73
     1
 44
1.0
  0
MTEXT
  5
254
100
AcDbEntity
  8
0
370
    -3
390
0
  6
Continuous
100
AcDbMText
 10
-659.696228
 20
181.878098
 30
0.0
 40
10.0
 41
0.0
 71
     7
 72
     1
  1
\W0.47;2.2(kW)
  7
ZU_SHPTB00001
 11
1.0
 21
0.0
 31
0.0
 73
     1
 44
1.0
  0
MTEXT
  5
255
100
AcDbEntity
  8
0
370
    -3
390
0
  6
Continuous
100
AcDbMText
 10
-659.696228
 20
170.578094
 30
0.0
 40
10.0
 41
0.0
 71
     7
 72
     1
  1
\W0.47;1/7.5\W0.63;～\W0.47;1/30
  7
ZU_SHPTB00001
 11
1.0
 21
0.0
 31
0.0
 73
     1
 44
1.0
  0
MTEXT
  5
256
100
AcDbEntity
  8
0
370
    -3
390
0
  6
Continuous
100
AcDbMText
 10
-659.696228
 20
159.278091
 30
0.0
 40
10.0
 41
0.0
 71
     7
 72
     1
  1
\W0.47;SCALE\W0.78; \W0.47;1/1
  7
ZU_SHPTB00001
 11
1.0
 21
0.0
 31
0.0
 73
     1
 44
1.0
  0
LINE
  5
257
100
AcDbEntity
  8
0
370
    -3
390
0
  6
Continuous
100
AcDbLine
 10
-670.570979
 20
-41.952133
 30
0.0
 11
-670.570979
 21
-51.472373
 31
0.0
  0
LINE
  5
258
100
AcDbEntity
  8
0
370
    -3
390
0
  6
Continuous
100
AcDbLine
 10
-669.570979
 20
-41.856894
 30
0.0
 11
-669.570979
 21
-51.04152
 31
0.0
  0
LINE
  5
259
100
AcDbEntity
  8
0
370
    -3
390
0
  6
Continuous
100
AcDbLine
 10
-690.570979
 20
-43.856894
 30
0.0
 11
-690.570979
 21
-64.304516
 31
0.0
  0
LINE
  5
25A
100
AcDbEntity
  8
0
370
    -3
390
0
  6
Continuous
100
AcDbLine
 10
-550.570979
 20
-43.856894
 30
0.0
 11
-550.570979
 21
-64.304516
 31
0.0
  0
LINE
  5
25B
100
AcDbEntity
  8
0
370
    -3
390
0
  6
Continuous
100
AcDbLine
 10
-550.570979
 20
-43.856894
 30
0.0
 11
-669.570979
 21
-41.856894
 31
0.0
  0
LINE
  5
25C
100
AcDbEntity
  8
0
370
    -3
390
0
  6
Continuous
100
AcDbLine
 10
-669.570979
 20
-41.856894
 30
0.0
 11
-690.570979
 21
-43.856894
 31
0.0
  0
LINE
  5
25D
100
AcDbEntity
  8
0
370
    -3
390
0
  6
CENTER
100
AcDbLine
 10
-707.872876
 20
-124.856894
 30
0.0
 11
-534.8123
 21
-124.856894
 31
0.0
  0
CIRCLE
  5
25E
100
AcDbEntity
  8
0
370
    -3
390
0
  6
Continuous
100
AcDbCircle
 10
-620.570979
 20
-147.856894
 30
0.0
 40
5.0
  0
LINE
  5
25F
100
AcDbEntity
  8
0
370
    -3
390
0
  6
Continuous
100
AcDbLine
 10
-547.817972
 20
-143.856894
 30
0.0
 11
-551.330456
 21
-143.856894
 31
0.0
  0
LINE
  5
260
100
AcDbEntity
  8
0
370
    -3
390
0
  6
Continuous
100
AcDbLine
 10
-581.55862
 20
-86.285506
 30
0.0
 11
-583.312948
 21
-89.324091
 31
0.0
  0
ARC
  5
261
100
AcDbEntity
  8
0
370
    -3
390
0
  6
Continuous
100
AcDbCircle
 10
-620.570979
 20
-147.856894
 30
0.0
 40
75.0
100
AcDbArc
 50
4.714561
 51
56.072557
  0
ARC
  5
262
100
AcDbEntity
  8
0
370
    -3
390
0
  6
Continuous
100
AcDbCircle
 10
-547.817972
 20
-141.856894
 30
0.0
 40
2.0
100
AcDbArc
 50
270.0
 51
4.714561
  0
ARC
  5
263
100
AcDbEntity
  8
0
370
    -3
390
0
  6
Continuous
100
AcDbCircle
 10
-579.826569
 20
-87.285506
 30
0.0
 40
2.0
100
AcDbArc
 50
56.072557
 51
150.0
  0
LINE
  5
264
100
AcDbEntity
  8
0
370
    -3
390
0
  6
Continuous
100
AcDbLine
 10
-600.446367
 20
-143.856894
 30
0.0
 11
-604.665005
 21
-143.856894
 31
0.0
  0
LINE
  5
265
100
AcDbEntity
  8
0
370
    -3
390
0
  6
Continuous
100
AcDbLine
 10
-607.774864
 20
-131.693373
 30
0.0
 11
-609.848865
 21
-135.285647
 31
0.0
  0
LINE
  5
266
100
AcDbEntity
  8
0
370
    -3
390
0
  6
Continuous
100
AcDbLine
 10
-587.104578
 20
-143.856894
 30
0.0
 11
-591.177102
 21
-143.856894
 31
0.0
  0
LINE
  5
267
100
AcDbEntity
  8
0
370
    -3
390
0
  6
Continuous
100
AcDbLine
 10
-573.955531
 20
-143.856894
 30
0.0
 11
-577.991641
 21
-143.856894
 31
0.0
  0
LINE
  5
268
100
AcDbEntity
  8
0
370
    -3
390
0
  6
Continuous
100
AcDbLine
 10
-560.871733
 20
-143.856894
 30
0.0
 11
-564.893336
 21
-143.856894
 31
0.0
  0
LINE
  5
269
100
AcDbEntity
  8
0
370
    -3
390
0
  6
Continuous
100
AcDbLine
 10
-588.077251
 20
-97.576106
 30
0.0
 11
-590.084733
 21
-101.053168
 31
0.0
  0
LINE
  5
26A
100
AcDbEntity
  8
0
370
    -3
390
0
  6
Continuous
100
AcDbLine
 10
-594.60626
 20
-108.884682
 30
0.0
 11
-596.618746
 21
-112.37041
 31
0.0
  0
LINE
  5
26B
100
AcDbEntity
  8
0
370
    -3
390
0
  6
Continuous
100
AcDbLine
 10
-601.157731
 20
-120.232163
 30
0.0
 11
-603.182703
 21
-123.739517
 31
0.0
  0
ARC
  5
26C
100
AcDbEntity
  8
0
370
    -3
390
0
  6
Continuous
100
AcDbCircle
 10
-620.570979
 20
-147.856894
 30
0.0
 40
62.0
100
AcDbArc
 50
5.73917
 51
55.219808
  0
ARC
  5
26D
100
AcDbEntity
  8
0
370
    -3
390
0
  6
Continuous
100
AcDbCircle
 10
-620.570979
 20
-147.856894
 30
0.0
 40
54.0
100
AcDbArc
 50
6.15064
 51
54.877484
  0
ARC
  5
26E
100
AcDbEntity
  8
0
370
    -3
390
0
  6
Continuous
100
AcDbCircle
 10
-620.570979
 20
-147.856894
 30
0.0
 40
49.0
100
AcDbArc
 50
7.334369
 51
53.893148
  0
ARC
  5
26F
100
AcDbEntity
  8
0
370
    -3
390
0
  6
Continuous
100
AcDbCircle
 10
-620.570979
 20
-147.856894
 30
0.0
 40
41.0
100
AcDbArc
 50
8.020933
 51
53.322595
  0
ARC
  5
270
100
AcDbEntity
  8
0
370
    -3
390
0
  6
Continuous
100
AcDbCircle
 10
-620.570979
 20
-147.856894
 30
0.0
 40
36.0
100
AcDbArc
 50
10.164249
 51
51.543481
  0
ARC
  5
271
100
AcDbEntity
  8
0
370
    -3
390
0
  6
Continuous
100
AcDbCircle
 10
-620.570979
 20
-147.856894
 30
0.0
 40
28.0
100
AcDbArc
 50
11.536959
 51
50.405932
  0
ARC
  5
272
100
AcDbEntity
  8
0
370
    -3
390
0
  6
Continuous
100
AcDbCircle
 10
-620.570979
 20
-147.856894
 30
0.0
 40
23.0
100
AcDbArc
 50
16.60155
 51
46.225853
  0
ARC
  5
273
100
AcDbEntity
  8
0
370
    -3
390
0
  6
Continuous
100
AcDbCircle
 10
-620.570979
 20
-147.856894
 30
0.0
 40
15.0
100
AcDbArc
 50
20.667316
 51
42.895365
  0
ARC
  5
274
100
AcDbEntity
  8
0
370
    -3
390
0
  6
Continuous
100
AcDbCircle
 10
-560.871733
 20
-141.856894
 30
0.0
 40
2.0
100
AcDbArc
 50
270.0
 51
5.73917
  0
ARC
  5
275
100
AcDbEntity
  8
0
370
    -3
390
0
  6
Continuous
100
AcDbCircle
 10
-586.3452
 20
-98.576106
 30
0.0
 40
2.0
100
AcDbArc
 50
55.219808
 51
150.0
  0
ARC
  5
276
100
AcDbEntity
  8
0
370
    -3
390
0
  6
Continuous
100
AcDbCircle
 10
-588.352683
 20
-102.053168
 30
0.0
 40
2.0
100
AcDbArc
 50
150.0
 51
234.877484
  0
ARC
  5
277
100
AcDbEntity
  8
0
370
    -3
390
0
  6
Continuous
100
AcDbCircle
 10
-564.893336
 20
-141.856894
 30
0.0
 40
2.0
100
AcDbArc
 50
186.15064
 51
270.0
  0
ARC
  5
278
100
AcDbEntity
  8
0
370
    -3
390
0
  6
Continuous
100
AcDbCircle
 10
-573.955531
 20
-141.856894
 30
0.0
 40
2.0
100
AcDbArc
 50
270.0
 51
7.334369
  0
ARC
  5
279
100
AcDbEntity
  8
0
370
    -3
390
0
  6
Continuous
100
AcDbCircle
 10
-577.991641
 20
-141.856894
 30
0.0
 40
2.0
100
AcDbArc
 50
188.020933
 51
270.0
  0
ARC
  5
27A
100
AcDbEntity
  8
0
370
    -3
390
0
  6
Continuous
100
AcDbCircle
 10
-594.886696
 20
-113.37041
 30
0.0
 40
2.0
100
AcDbArc
 50
150.0
 51
233.322595
  0
ARC
  5
27B
100
AcDbEntity
  8
0
370
    -3
390
0
  6
Continuous
100
AcDbCircle
 10
-592.874209
 20
-109.884682
 30
0.0
 40
2.0
100
AcDbArc
 50
53.893148
 51
150.0
  0
ARC
  5
27C
100
AcDbEntity
  8
0
370
    -3
390
0
  6
Continuous
100
AcDbCircle
 10
-599.42568
 20
-121.232163
 30
0.0
 40
2.0
100
AcDbArc
 50
51.543481
 51
150.0
  0
ARC
  5
27D
100
AcDbEntity
  8
0
370
    -3
390
0
  6
Continuous
100
AcDbCircle
 10
-601.450653
 20
-124.739517
 30
0.0
 40
2.0
100
AcDbArc
 50
150.0
 51
230.405932
  0
ARC
  5
27E
100
AcDbEntity
  8
0
370
    -3
390
0
  6
Continuous
100
AcDbCircle
 10
-591.177102
 20
-141.856894
 30
0.0
 40
2.0
100
AcDbArc
 50
191.536959
 51
270.0
  0
ARC
  5
27F
100
AcDbEntity
  8
0
370
    -3
390
0
  6
Continuous
100
AcDbCircle
 10
-587.104578
 20
-141.856894
 30
0.0
 40
2.0
100
AcDbArc
 50
270.0
 51
10.164249
  0
ARC
  5
280
100
AcDbEntity
  8
0
370
    -3
390
0
  6
Continuous
100
AcDbCircle
 10
-600.446367
 20
-141.856894
 30
0.0
 40
2.0
100
AcDbArc
 50
270.0
 51
16.60155
  0
ARC
  5
281
100
AcDbEntity
  8
0
370
    -3
390
0
  6
Continuous
100
AcDbCircle
 10
-604.665005
 20
-141.856894
 30
0.0
 40
2.0
100
AcDbArc
 50
200.667316
 51
270.0
  0
ARC
  5
282
100
AcDbEntity
  8
0
370
    -3
390
0
  6
Continuous
100
AcDbCircle
 10
-606.042813
 20
-132.693373
 30
0.0
 40
2.0
100
AcDbArc
 50
46.225853
 51
150.0
  0
ARC
  5
283
100
AcDbEntity
  8
0
370
    -3
390
0
  6
Continuous
100
AcDbCircle
 10
-608.116814
 20
-136.285647
 30
0.0
 40
2.0
100
AcDbArc
 50
150.0
 51
222.895365
  0
ARC
  5
284
100
AcDbEntity
  8
0
370
    -3
390
0
  6
Continuous
100
AcDbCircle
 10
-608.116814
 20
-159.428142
 30
0.0
 40
2.0
100
AcDbArc
 50
137.104635
 51
210.0
  0
LINE
  5
285
100
AcDbEntity
  8
0
370
    -3
390
0
  6
Continuous
100
AcDbLine
 10
-607.774864
 20
-164.020416
 30
0.0
 11
-609.848865
 21
-160.428142
 31
0.0
  0
ARC
  5
286
100
AcDbEntity
  8
0
370
    -3
390
0
  6
Continuous
100
AcDbCircle
 10
-620.570979
 20
-147.856894
 30
0.0
 40
15.0
100
AcDbArc
 50
317.104635
 51
339.332684
  0
ARC
  5
287
100
AcDbEntity
  8
0
370
    -3
390
0
  6
Continuous
100
AcDbCircle
 10
-606.042813
 20
-163.020416
 30
0.0
 40
2.0
100
AcDbArc
 50
210.0
 51
313.774147
  0
ARC
  5
288
100
AcDbEntity
  8
0
370
    -3
390
0
  6
Continuous
100
AcDbCircle
 10
-620.570979
 20
-147.856894
 30
0.0
 40
23.0
100
AcDbArc
 50
313.774147
 51
343.39845
  0
ARC
  5
289
100
AcDbEntity
  8
0
370
    -3
390
0
  6
Continuous
100
AcDbCircle
 10
-604.665005
 20
-153.856894
 30
0.0
 40
2.0
100
AcDbArc
 50
90.0
 51
159.332684
  0
ARC
  5
28A
100
AcDbEntity
  8
0
370
    -3
390
0
  6
Continuous
100
AcDbCircle
 10
-600.446367
 20
-153.856894
 30
0.0
 40
2.0
100
AcDbArc
 50
343.39845
 51
90.0
  0
ARC
  5
28B
100
AcDbEntity
  8
0
370
    -3
390
0
  6
Continuous
100
AcDbCircle
 10
-587.104578
 20
-153.856894
 30
0.0
 40
2.0
100
AcDbArc
 50
349.835751
 51
90.0
  0
ARC
  5
28C
100
AcDbEntity
  8
0
370
    -3
390
0
  6
Continuous
100
AcDbCircle
 10
-620.570979
 20
-147.856894
 30
0.0
 40
36.0
100
AcDbArc
 50
308.456519
 51
349.835751
  0
ARC
  5
28D
100
AcDbEntity
  8
0
370
    -3
390
0
  6
Continuous
100
AcDbCircle
 10
-591.177102
 20
-153.856894
 30
0.0
 40
2.0
100
AcDbArc
 50
90.0
 51
168.463041
  0
ARC
  5
28E
100
AcDbEntity
  8
0
370
    -3
390
0
  6
Continuous
100
AcDbCircle
 10
-620.570979
 20
-147.856894
 30
0.0
 40
28.0
100
AcDbArc
 50
309.594068
 51
348.463041
  0
ARC
  5
28F
100
AcDbEntity
  8
0
370
    -3
390
0
  6
Continuous
100
AcDbCircle
 10
-601.450653
 20
-170.974271
 30
0.0
 40
2.0
100
AcDbArc
 50
129.594068
 51
210.0
  0
LINE
  5
290
100
AcDbEntity
  8
0
370
    -3
390
0
  6
Continuous
100
AcDbLine
 10
-601.157731
 20
-175.481626
 30
0.0
 11
-603.182703
 21
-171.974271
 31
0.0
  0
ARC
  5
291
100
AcDbEntity
  8
0
370
    -3
390
0
  6
Continuous
100
AcDbCircle
 10
-599.42568
 20
-174.481626
 30
0.0
 40
2.0
100
AcDbArc
 50
210.0
 51
308.456519
  0
ARC
  5
292
100
AcDbEntity
  8
0
370
    -3
390
0
  6
Continuous
100
AcDbCircle
 10
-592.874209
 20
-185.829107
 30
0.0
 40
2.0
100
AcDbArc
 50
210.0
 51
306.106852
  0
LINE
  5
293
100
AcDbEntity
  8
0
370
    -3
390
0
  6
Continuous
100
AcDbLine
 10
-594.60626
 20
-186.829107
 30
0.0
 11
-596.618746
 21
-183.343378
 31
0.0
  0
ARC
  5
294
100
AcDbEntity
  8
0
370
    -3
390
0
  6
Continuous
100
AcDbCircle
 10
-620.570979
 20
-147.856894
 30
0.0
 40
49.0
100
AcDbArc
 50
306.106852
 51
352.665631
  0
ARC
  5
295
100
AcDbEntity
  8
0
370
    -3
390
0
  6
Continuous
100
AcDbCircle
 10
-594.886696
 20
-182.343378
 30
0.0
 40
2.0
100
AcDbArc
 50
126.677405
 51
210.0
  0
ARC
  5
296
100
AcDbEntity
  8
0
370
    -3
390
0
  6
Continuous
100
AcDbCircle
 10
-620.570979
 20
-147.856894
 30
0.0
 40
41.0
100
AcDbArc
 50
306.677405
 51
351.979067
  0
ARC
  5
297
100
AcDbEntity
  8
0
370
    -3
390
0
  6
Continuous
100
AcDbCircle
 10
-577.991641
 20
-153.856894
 30
0.0
 40
2.0
100
AcDbArc
 50
90.0
 51
171.979067
  0
ARC
  5
298
100
AcDbEntity
  8
0
370
    -3
390
0
  6
Continuous
100
AcDbCircle
 10
-620.570979
 20
-147.856894
 30
0.0
 40
54.0
100
AcDbArc
 50
305.122516
 51
353.84936
  0
ARC
  5
299
100
AcDbEntity
  8
0
370
    -3
390
0
  6
Continuous
100
AcDbCircle
 10
-588.352683
 20
-193.660621
 30
0.0
 40
2.0
100
AcDbArc
 50
125.122516
 51
210.0
  0
LINE
  5
29A
100
AcDbEntity
  8
0
370
    -3
390
0
  6
Continuous
100
AcDbLine
 10
-588.077251
 20
-198.137682
 30
0.0
 11
-590.084733
 21
-194.660621
 31
0.0
  0
ARC
  5
29B
100
AcDbEntity
  8
0
370
    -3
390
0
  6
Continuous
100
AcDbCircle
 10
-586.3452
 20
-197.137682
 30
0.0
 40
2.0
100
AcDbArc
 50
210.0
 51
304.780192
  0
ARC
  5
29C
100
AcDbEntity
  8
0
370
    -3
390
0
  6
Continuous
100
AcDbCircle
 10
-620.570979
 20
-147.856894
 30
0.0
 40
62.0
100
AcDbArc
 50
304.780192
 51
354.26083
  0
LINE
  5
29D
100
AcDbEntity
  8
0
370
    -3
390
0
  6
Continuous
100
AcDbLine
 10
-581.55862
 20
-209.428283
 30
0.0
 11
-583.312948
 21
-206.389698
 31
0.0
  0
ARC
  5
29E
100
AcDbEntity
  8
0
370
    -3
390
0
  6
Continuous
100
AcDbCircle
 10
-579.826569
 20
-208.428283
 30
0.0
 40
2.0
100
AcDbArc
 50
210.0
 51
303.927443
  0
ARC
  5
29F
100
AcDbEntity
  8
0
370
    -3
390
0
  6
Continuous
100
AcDbCircle
 10
-620.570979
 20
-147.856894
 30
0.0
 40
75.0
100
AcDbArc
 50
303.927443
 51
355.285439
  0
LINE
  5
2A0
100
AcDbEntity
  8
0
370
    -3
390
0
  6
Continuous
100
AcDbLine
 10
-600.446367
 20
-151.856894
 30
0.0
 11
-604.665005
 21
-151.856894
 31
0.0
  0
LINE
  5
2A1
100
AcDbEntity
  8
0
370
    -3
390
0
  6
Continuous
100
AcDbLine
 10
-587.104578
 20
-151.856894
 30
0.0
 11
-591.177102
 21
-151.856894
 31
0.0
  0
LINE
  5
2A2
100
AcDbEntity
  8
0
370
    -3
390
0
  6
Continuous
100
AcDbLine
 10
-573.955531
 20
-151.856894
 30
0.0
 11
-577.991641
 21
-151.856894
 31
0.0
  0
ARC
  5
2A3
100
AcDbEntity
  8
0
370
    -3
390
0
  6
Continuous
100
AcDbCircle
 10
-573.955531
 20
-153.856894
 30
0.0
 40
2.0
100
AcDbArc
 50
352.665631
 51
90.0
  0
ARC
  5
2A4
100
AcDbEntity
  8
0
370
    -3
390
0
  6
Continuous
100
AcDbCircle
 10
-564.893336
 20
-153.856894
 30
0.0
 40
2.0
100
AcDbArc
 50
90.0
 51
173.84936
  0
LINE
  5
2A5
100
AcDbEntity
  8
0
370
    -3
390
0
  6
Continuous
100
AcDbLine
 10
-560.871733
 20
-151.856894
 30
0.0
 11
-564.893336
 21
-151.856894
 31
0.0
  0
LINE
  5
2A6
100
AcDbEntity
  8
0
370
    -3
390
0
  6
Continuous
100
AcDbLine
 10
-547.817972
 20
-151.856894
 30
0.0
 11
-551.330456
 21
-151.856894
 31
0.0
  0
ARC
  5
2A7
100
AcDbEntity
  8
0
370
    -3
390
0
  6
Continuous
100
AcDbCircle
 10
-560.871733
 20
-153.856894
 30
0.0
 40
2.0
100
AcDbArc
 50
354.26083
 51
90.0
  0
ARC
  5
2A8
100
AcDbEntity
  8
0
370
    -3
390
0
  6
Continuous
100
AcDbCircle
 10
-547.817972
 20
-153.856894
 30
0.0
 40
2.0
100
AcDbArc
 50
355.285439
 51
90.0
  0
ARC
  5
2A9
100
AcDbEntity
  8
0
370
    -3
390
0
  6
Continuous
100
AcDbCircle
 10
-616.777068
 20
-164.428142
 30
0.0
 40
2.0
100
AcDbArc
 50
30.0
 51
102.895365
  0
LINE
  5
2AA
100
AcDbEntity
  8
0
370
    -3
390
0
  6
Continuous
100
AcDbLine
 10
-612.971016
 20
-167.020416
 30
0.0
 11
-615.045017
 21
-163.428142
 31
0.0
  0
ARC
  5
2AB
100
AcDbEntity
  8
0
370
    -3
390
0
  6
Continuous
100
AcDbCircle
 10
-620.570979
 20
-147.856894
 30
0.0
 40
15.0
100
AcDbArc
 50
260.667316
 51
282.895365
  0
ARC
  5
2AC
100
AcDbEntity
  8
0
370
    -3
390
0
  6
Continuous
100
AcDbCircle
 10
-614.703067
 20
-168.020416
 30
0.0
 40
2.0
100
AcDbArc
 50
286.225853
 51
30.0
  0
ARC
  5
2AD
100
AcDbEntity
  8
0
370
    -3
390
0
  6
Continuous
100
AcDbCircle
 10
-620.570979
 20
-147.856894
 30
0.0
 40
23.0
100
AcDbArc
 50
256.60155
 51
286.225853
  0
ARC
  5
2AE
100
AcDbEntity
  8
0
370
    -3
390
0
  6
Continuous
100
AcDbCircle
 10
-623.327814
 20
-164.631872
 30
0.0
 40
2.0
100
AcDbArc
 50
80.667316
 51
150.0
  0
ARC
  5
2AF
100
AcDbEntity
  8
0
370
    -3
390
0
  6
Continuous
100
AcDbCircle
 10
-625.437133
 20
-168.285319
 30
0.0
 40
2.0
100
AcDbArc
 50
150.0
 51
256.60155
  0
ARC
  5
2B0
100
AcDbEntity
  8
0
370
    -3
390
0
  6
Continuous
100
AcDbCircle
 10
-632.108027
 20
-179.839648
 30
0.0
 40
2.0
100
AcDbArc
 50
150.0
 51
250.164249
  0
ARC
  5
2B1
100
AcDbEntity
  8
0
370
    -3
390
0
  6
Continuous
100
AcDbCircle
 10
-620.570979
 20
-147.856894
 30
0.0
 40
36.0
100
AcDbArc
 50
250.164249
 51
291.543481
  0
ARC
  5
2B2
100
AcDbEntity
  8
0
370
    -3
390
0
  6
Continuous
100
AcDbCircle
 10
-630.071765
 20
-176.312739
 30
0.0
 40
2.0
100
AcDbArc
 50
71.536959
 51
150.0
  0
ARC
  5
2B3
100
AcDbEntity
  8
0
370
    -3
390
0
  6
Continuous
100
AcDbCircle
 10
-620.570979
 20
-147.856894
 30
0.0
 40
28.0
100
AcDbArc
 50
251.536959
 51
290.405932
  0
ARC
  5
2B4
100
AcDbEntity
  8
0
370
    -3
390
0
  6
Continuous
100
AcDbCircle
 10
-610.110907
 20
-175.974271
 30
0.0
 40
2.0
100
AcDbArc
 50
30.0
 51
110.405932
  0
LINE
  5
2B5
100
AcDbEntity
  8
0
370
    -3
390
0
  6
Continuous
100
AcDbLine
 10
-606.353884
 20
-178.481626
 30
0.0
 11
-608.378856
 21
-174.974271
 31
0.0
  0
ARC
  5
2B6
100
AcDbEntity
  8
0
370
    -3
390
0
  6
Continuous
100
AcDbCircle
 10
-608.085934
 20
-179.481626
 30
0.0
 40
2.0
100
AcDbArc
 50
291.543481
 51
30.0
  0
ARC
  5
2B7
100
AcDbEntity
  8
0
370
    -3
390
0
  6
Continuous
100
AcDbCircle
 10
-601.534463
 20
-190.829107
 30
0.0
 40
2.0
100
AcDbArc
 50
293.893148
 51
30.0
  0
LINE
  5
2B8
100
AcDbEntity
  8
0
370
    -3
390
0
  6
Continuous
100
AcDbLine
 10
-599.802412
 20
-189.829107
 30
0.0
 11
-601.814899
 21
-186.343378
 31
0.0
  0
ARC
  5
2B9
100
AcDbEntity
  8
0
370
    -3
390
0
  6
Continuous
100
AcDbCircle
 10
-620.570979
 20
-147.856894
 30
0.0
 40
49.0
100
AcDbArc
 50
247.334369
 51
293.893148
  0
ARC
  5
2BA
100
AcDbEntity
  8
0
370
    -3
390
0
  6
Continuous
100
AcDbCircle
 10
-603.54695
 20
-187.343378
 30
0.0
 40
2.0
100
AcDbArc
 50
30.0
 51
113.322595
  0
ARC
  5
2BB
100
AcDbEntity
  8
0
370
    -3
390
0
  6
Continuous
100
AcDbCircle
 10
-620.570979
 20
-147.856894
 30
0.0
 40
41.0
100
AcDbArc
 50
248.020933
 51
293.322595
  0
ARC
  5
2BC
100
AcDbEntity
  8
0
370
    -3
390
0
  6
Continuous
100
AcDbCircle
 10
-636.664496
 20
-187.731683
 30
0.0
 40
2.0
100
AcDbArc
 50
68.020933
 51
150.0
  0
ARC
  5
2BD
100
AcDbEntity
  8
0
370
    -3
390
0
  6
Continuous
100
AcDbCircle
 10
-620.570979
 20
-147.856894
 30
0.0
 40
54.0
100
AcDbArc
 50
246.15064
 51
294.877484
  0
ARC
  5
2BE
100
AcDbEntity
  8
0
370
    -3
390
0
  6
Continuous
100
AcDbCircle
 10
-597.012937
 20
-198.660621
 30
0.0
 40
2.0
100
AcDbArc
 50
30.0
 51
114.877484
  0
LINE
  5
2BF
100
AcDbEntity
  8
0
370
    -3
390
0
  6
Continuous
100
AcDbLine
 10
-593.273404
 20
-201.137682
 30
0.0
 11
-595.280886
 21
-197.660621
 31
0.0
  0
ARC
  5
2C0
100
AcDbEntity
  8
0
370
    -3
390
0
  6
Continuous
100
AcDbCircle
 10
-595.005454
 20
-202.137682
 30
0.0
 40
2.0
100
AcDbArc
 50
295.219808
 51
30.0
  0
ARC
  5
2C1
100
AcDbEntity
  8
0
370
    -3
390
0
  6
Continuous
100
AcDbCircle
 10
-620.570979
 20
-147.856894
 30
0.0
 40
62.0
100
AcDbArc
 50
245.73917
 51
295.219808
  0
LINE
  5
2C2
100
AcDbEntity
  8
0
370
    -3
390
0
  6
Continuous
100
AcDbLine
 10
-586.754772
 20
-212.428283
 30
0.0
 11
-588.5091
 21
-209.389698
 31
0.0
  0
ARC
  5
2C3
100
AcDbEntity
  8
0
370
    -3
390
0
  6
Continuous
100
AcDbCircle
 10
-588.486823
 20
-213.428283
 30
0.0
 40
2.0
100
AcDbArc
 50
296.072557
 51
30.0
  0
ARC
  5
2C4
100
AcDbEntity
  8
0
370
    -3
390
0
  6
Continuous
100
AcDbCircle
 10
-620.570979
 20
-147.856894
 30
0.0
 40
75.0
100
AcDbArc
 50
244.714561
 51
296.072557
  0
LINE
  5
2C5
100
AcDbEntity
  8
0
370
    -3
390
0
  6
Continuous
100
AcDbLine
 10
-627.169183
 20
-167.285319
 30
0.0
 11
-625.059864
 21
-163.631872
 31
0.0
  0
LINE
  5
2C6
100
AcDbEntity
  8
0
370
    -3
390
0
  6
Continuous
100
AcDbLine
 10
-633.840078
 20
-178.839648
 30
0.0
 11
-631.803816
 21
-175.312739
 31
0.0
  0
LINE
  5
2C7
100
AcDbEntity
  8
0
370
    -3
390
0
  6
Continuous
100
AcDbLine
 10
-640.414602
 20
-190.227057
 30
0.0
 11
-638.396546
 21
-186.731683
 31
0.0
  0
ARC
  5
2C8
100
AcDbEntity
  8
0
370
    -3
390
0
  6
Continuous
100
AcDbCircle
 10
-638.682551
 20
-191.227057
 30
0.0
 40
2.0
100
AcDbArc
 50
150.0
 51
247.334369
  0
ARC
  5
2C9
100
AcDbEntity
  8
0
370
    -3
390
0
  6
Continuous
100
AcDbCircle
 10
-643.213649
 20
-199.075148
 30
0.0
 40
2.0
100
AcDbArc
 50
66.15064
 51
150.0
  0
LINE
  5
2CA
100
AcDbEntity
  8
0
370
    -3
390
0
  6
Continuous
100
AcDbLine
 10
-653.483381
 20
-212.862847
 30
0.0
 11
-651.727139
 21
-209.820946
 31
0.0
  0
ARC
  5
2CB
100
AcDbEntity
  8
0
370
    -3
390
0
  6
Continuous
100
AcDbCircle
 10
-645.22445
 20
-202.557958
 30
0.0
 40
2.0
100
AcDbArc
 50
150.0
 51
245.73917
  0
ARC
  5
2CC
100
AcDbEntity
  8
0
370
    -3
390
0
  6
Continuous
100
AcDbCircle
 10
-651.75133
 20
-213.862847
 30
0.0
 40
2.0
100
AcDbArc
 50
150.0
 51
244.714561
  0
ARC
  5
2CD
100
AcDbEntity
  8
0
370
    -3
390
0
  6
Continuous
100
AcDbCircle
 10
-636.819056
 20
-152.856894
 30
0.0
 40
2.0
100
AcDbArc
 50
17.104635
 51
90.0
  0
LINE
  5
2CE
100
AcDbEntity
  8
0
370
    -3
390
0
  6
Continuous
100
AcDbLine
 10
-640.967057
 20
-150.856894
 30
0.0
 11
-636.819056
 21
-150.856894
 31
0.0
  0
ARC
  5
2CF
100
AcDbEntity
  8
0
370
    -3
390
0
  6
Continuous
100
AcDbCircle
 10
-620.570979
 20
-147.856894
 30
0.0
 40
15.0
100
AcDbArc
 50
197.104635
 51
219.332684
  0
ARC
  5
2D0
100
AcDbEntity
  8
0
370
    -3
390
0
  6
Continuous
100
AcDbCircle
 10
-640.967057
 20
-152.856894
 30
0.0
 40
2.0
100
AcDbArc
 50
90.0
 51
193.774147
  0
ARC
  5
2D1
100
AcDbEntity
  8
0
370
    -3
390
0
  6
Continuous
100
AcDbCircle
 10
-620.570979
 20
-147.856894
 30
0.0
 40
23.0
100
AcDbArc
 50
193.774147
 51
223.39845
  0
ARC
  5
2D2
100
AcDbEntity
  8
0
370
    -3
390
0
  6
Continuous
100
AcDbCircle
 10
-633.720118
 20
-158.631872
 30
0.0
 40
2.0
100
AcDbArc
 50
330.0
 51
39.332684
  0
ARC
  5
2D3
100
AcDbEntity
  8
0
370
    -3
390
0
  6
Continuous
100
AcDbCircle
 10
-635.829437
 20
-162.285319
 30
0.0
 40
2.0
100
AcDbArc
 50
223.39845
 51
330.0
  0
ARC
  5
2D4
100
AcDbEntity
  8
0
370
    -3
390
0
  6
Continuous
100
AcDbCircle
 10
-642.500332
 20
-173.839648
 30
0.0
 40
2.0
100
AcDbArc
 50
229.835751
 51
330.0
  0
ARC
  5
2D5
100
AcDbEntity
  8
0
370
    -3
390
0
  6
Continuous
100
AcDbCircle
 10
-620.570979
 20
-147.856894
 30
0.0
 40
36.0
100
AcDbArc
 50
188.456519
 51
229.835751
  0
ARC
  5
2D6
100
AcDbEntity
  8
0
370
    -3
390
0
  6
Continuous
100
AcDbCircle
 10
-640.46407
 20
-170.312739
 30
0.0
 40
2.0
100
AcDbArc
 50
330.0
 51
48.463041
  0
ARC
  5
2D7
100
AcDbEntity
  8
0
370
    -3
390
0
  6
Continuous
100
AcDbCircle
 10
-620.570979
 20
-147.856894
 30
0.0
 40
28.0
100
AcDbArc
 50
189.594068
 51
228.463041
  0
ARC
  5
2D8
100
AcDbEntity
  8
0
370
    -3
390
0
  6
Continuous
100
AcDbCircle
 10
-650.151378
 20
-152.856894
 30
0.0
 40
2.0
100
AcDbArc
 50
9.594068
 51
90.0
  0
LINE
  5
2D9
100
AcDbEntity
  8
0
370
    -3
390
0
  6
Continuous
100
AcDbLine
 10
-654.201323
 20
-150.856894
 30
0.0
 11
-650.151378
 21
-150.856894
 31
0.0
  0
ARC
  5
2DA
100
AcDbEntity
  8
0
370
    -3
390
0
  6
Continuous
100
AcDbCircle
 10
-654.201323
 20
-152.856894
 30
0.0
 40
2.0
100
AcDbArc
 50
90.0
 51
188.456519
  0
ARC
  5
2DB
100
AcDbEntity
  8
0
370
    -3
390
0
  6
Continuous
100
AcDbCircle
 10
-667.304265
 20
-152.856894
 30
0.0
 40
2.0
100
AcDbArc
 50
90.0
 51
186.106852
  0
LINE
  5
2DC
100
AcDbEntity
  8
0
370
    -3
390
0
  6
Continuous
100
AcDbLine
 10
-667.304265
 20
-150.856894
 30
0.0
 11
-663.279292
 21
-150.856894
 31
0.0
  0
ARC
  5
2DD
100
AcDbEntity
  8
0
370
    -3
390
0
  6
Continuous
100
AcDbCircle
 10
-620.570979
 20
-147.856894
 30
0.0
 40
49.0
100
AcDbArc
 50
186.106852
 51
232.665631
  0
ARC
  5
2DE
100
AcDbEntity
  8
0
370
    -3
390
0
  6
Continuous
100
AcDbCircle
 10
-663.279292
 20
-152.856894
 30
0.0
 40
2.0
100
AcDbArc
 50
6.677405
 51
90.0
  0
ARC
  5
2DF
100
AcDbEntity
  8
0
370
    -3
390
0
  6
Continuous
100
AcDbCircle
 10
-620.570979
 20
-147.856894
 30
0.0
 40
41.0
100
AcDbArc
 50
186.677405
 51
231.979067
  0
ARC
  5
2E0
100
AcDbEntity
  8
0
370
    -3
390
0
  6
Continuous
100
AcDbCircle
 10
-647.0568
 20
-181.731683
 30
0.0
 40
2.0
100
AcDbArc
 50
330.0
 51
51.979067
  0
ARC
  5
2E1
100
AcDbEntity
  8
0
370
    -3
390
0
  6
Continuous
100
AcDbCircle
 10
-620.570979
 20
-147.856894
 30
0.0
 40
54.0
100
AcDbArc
 50
185.122516
 51
233.84936
  0
ARC
  5
2E2
100
AcDbEntity
  8
0
370
    -3
390
0
  6
Continuous
100
AcDbCircle
 10
-676.347318
 20
-152.856894
 30
0.0
 40
2.0
100
AcDbArc
 50
5.122516
 51
90.0
  0
LINE
  5
2E3
100
AcDbEntity
  8
0
370
    -3
390
0
  6
Continuous
100
AcDbLine
 10
-680.362283
 20
-150.856894
 30
0.0
 11
-676.347318
 21
-150.856894
 31
0.0
  0
ARC
  5
2E4
100
AcDbEntity
  8
0
370
    -3
390
0
  6
Continuous
100
AcDbCircle
 10
-680.362283
 20
-152.856894
 30
0.0
 40
2.0
100
AcDbArc
 50
90.0
 51
184.780192
  0
ARC
  5
2E5
100
AcDbEntity
  8
0
370
    -3
390
0
  6
Continuous
100
AcDbCircle
 10
-620.570979
 20
-147.856894
 30
0.0
 40
62.0
100
AcDbArc
 50
184.780192
 51
234.26083
  0
LINE
  5
2E6
100
AcDbEntity
  8
0
370
    -3
390
0
  6
Continuous
100
AcDbLine
 10
-693.399545
 20
-150.856894
 30
0.0
 11
-689.89089
 21
-150.856894
 31
0.0
  0
ARC
  5
2E7
100
AcDbEntity
  8
0
370
    -3
390
0
  6
Continuous
100
AcDbCircle
 10
-693.399545
 20
-152.856894
 30
0.0
 40
2.0
100
AcDbArc
 50
90.0
 51
183.927443
  0
ARC
  5
2E8
100
AcDbEntity
  8
0
370
    -3
390
0
  6
Continuous
100
AcDbCircle
 10
-620.570979
 20
-147.856894
 30
0.0
 40
75.0
100
AcDbArc
 50
183.927443
 51
235.285439
  0
LINE
  5
2E9
100
AcDbEntity
  8
0
370
    -3
390
0
  6
Continuous
100
AcDbLine
 10
-634.097387
 20
-163.285319
 30
0.0
 11
-631.988068
 21
-159.631872
 31
0.0
  0
LINE
  5
2EA
100
AcDbEntity
  8
0
370
    -3
390
0
  6
Continuous
100
AcDbLine
 10
-640.768281
 20
-174.839648
 30
0.0
 11
-638.732019
 21
-171.312739
 31
0.0
  0
LINE
  5
2EB
100
AcDbEntity
  8
0
370
    -3
390
0
  6
Continuous
100
AcDbLine
 10
-653.884704
 20
-197.557958
 30
0.0
 11
-651.873903
 21
-194.075148
 31
0.0
  0
ARC
  5
2EC
100
AcDbEntity
  8
0
370
    -3
390
0
  6
Continuous
100
AcDbCircle
 10
-649.074856
 20
-185.227057
 30
0.0
 40
2.0
100
AcDbArc
 50
232.665631
 51
330.0
  0
ARC
  5
2ED
100
AcDbEntity
  8
0
370
    -3
390
0
  6
Continuous
100
AcDbCircle
 10
-653.605953
 20
-193.075148
 30
0.0
 40
2.0
100
AcDbArc
 50
330.0
 51
53.84936
  0
LINE
  5
2EE
100
AcDbEntity
  8
0
370
    -3
390
0
  6
Continuous
100
AcDbLine
 10
-660.411584
 20
-208.862847
 30
0.0
 11
-658.655342
 21
-205.820946
 31
0.0
  0
ARC
  5
2EF
100
AcDbEntity
  8
0
370
    -3
390
0
  6
Continuous
100
AcDbCircle
 10
-655.616755
 20
-196.557958
 30
0.0
 40
2.0
100
AcDbArc
 50
234.26083
 51
330.0
  0
ARC
  5
2F0
100
AcDbEntity
  8
0
370
    -3
390
0
  6
Continuous
100
AcDbCircle
 10
-662.143635
 20
-207.862847
 30
0.0
 40
2.0
100
AcDbArc
 50
235.285439
 51
330.0
  0
ARC
  5
2F1
100
AcDbEntity
  8
0
370
    -3
390
0
  6
Continuous
100
AcDbCircle
 10
-636.819056
 20
-142.856894
 30
0.0
 40
2.0
100
AcDbArc
 50
270.0
 51
342.895365
  0
LINE
  5
2F2
100
AcDbEntity
  8
0
370
    -3
390
0
  6
Continuous
100
AcDbLine
 10
-640.967057
 20
-144.856894
 30
0.0
 11
-636.819056
 21
-144.856894
 31
0.0
  0
ARC
  5
2F3
100
AcDbEntity
  8
0
370
    -3
390
0
  6
Continuous
100
AcDbCircle
 10
-620.570979
 20
-147.856894
 30
0.0
 40
15.0
100
AcDbArc
 50
140.667316
 51
162.895365
  0
ARC
  5
2F4
100
AcDbEntity
  8
0
370
    -3
390
0
  6
Continuous
100
AcDbCircle
 10
-640.967057
 20
-142.856894
 30
0.0
 40
2.0
100
AcDbArc
 50
166.225853
 51
270.0
  0
ARC
  5
2F5
100
AcDbEntity
  8
0
370
    -3
390
0
  6
Continuous
100
AcDbCircle
 10
-620.570979
 20
-147.856894
 30
0.0
 40
23.0
100
AcDbArc
 50
136.60155
 51
166.225853
  0
ARC
  5
2F6
100
AcDbEntity
  8
0
370
    -3
390
0
  6
Continuous
100
AcDbCircle
 10
-633.720118
 20
-137.081917
 30
0.0
 40
2.0
100
AcDbArc
 50
320.667316
 51
30.0
  0
ARC
  5
2F7
100
AcDbEntity
  8
0
370
    -3
390
0
  6
Continuous
100
AcDbCircle
 10
-635.829437
 20
-133.428469
 30
0.0
 40
2.0
100
AcDbArc
 50
30.0
 51
136.60155
  0
ARC
  5
2F8
100
AcDbEntity
  8
0
370
    -3
390
0
  6
Continuous
100
AcDbCircle
 10
-642.500332
 20
-121.874141
 30
0.0
 40
2.0
100
AcDbArc
 50
30.0
 51
130.164249
  0
ARC
  5
2F9
100
AcDbEntity
  8
0
370
    -3
390
0
  6
Continuous
100
AcDbCircle
 10
-620.570979
 20
-147.856894
 30
0.0
 40
36.0
100
AcDbArc
 50
130.164249
 51
171.543481
  0
ARC
  5
2FA
100
AcDbEntity
  8
0
370
    -3
390
0
  6
Continuous
100
AcDbCircle
 10
-640.46407
 20
-125.40105
 30
0.0
 40
2.0
100
AcDbArc
 50
311.536959
 51
30.0
  0
ARC
  5
2FB
100
AcDbEntity
  8
0
370
    -3
390
0
  6
Continuous
100
AcDbCircle
 10
-620.570979
 20
-147.856894
 30
0.0
 40
28.0
100
AcDbArc
 50
131.536959
 51
170.405932
  0
ARC
  5
2FC
100
AcDbEntity
  8
0
370
    -3
390
0
  6
Continuous
100
AcDbCircle
 10
-650.151378
 20
-142.856894
 30
0.0
 40
2.0
100
AcDbArc
 50
270.0
 51
350.405932
  0
LINE
  5
2FD
100
AcDbEntity
  8
0
370
    -3
390
0
  6
Continuous
100
AcDbLine
 10
-654.201323
 20
-144.856894
 30
0.0
 11
-650.151378
 21
-144.856894
 31
0.0
  0
ARC
  5
2FE
100
AcDbEntity
  8
0
370
    -3
390
0
  6
Continuous
100
AcDbCircle
 10
-654.201323
 20
-142.856894
 30
0.0
 40
2.0
100
AcDbArc
 50
171.543481
 51
270.0
  0
ARC
  5
2FF
100
AcDbEntity
  8
0
370
    -3
390
0
  6
Continuous
100
AcDbCircle
 10
-667.304265
 20
-142.856894
 30
0.0
 40
2.0
100
AcDbArc
 50
173.893148
 51
270.0
  0
LINE
  5
300
100
AcDbEntity
  8
0
370
    -3
390
0
  6
Continuous
100
AcDbLine
 10
-667.304265
 20
-144.856894
 30
0.0
 11
-663.279292
 21
-144.856894
 31
0.0
  0
ARC
  5
301
100
AcDbEntity
  8
0
370
    -3
390
0
  6
Continuous
100
AcDbCircle
 10
-620.570979
 20
-147.856894
 30
0.0
 40
49.0
100
AcDbArc
 50
127.334369
 51
173.893148
  0
ARC
  5
302
100
AcDbEntity
  8
0
370
    -3
390
0
  6
Continuous
100
AcDbCircle
 10
-663.279292
 20
-142.856894
 30
0.0
 40
2.0
100
AcDbArc
 50
270.0
 51
353.322595
  0
ARC
  5
303
100
AcDbEntity
  8
0
370
    -3
390
0
  6
Continuous
100
AcDbCircle
 10
-620.570979
 20
-147.856894
 30
0.0
 40
41.0
100
AcDbArc
 50
128.020933
 51
173.322595
  0
ARC
  5
304
100
AcDbEntity
  8
0
370
    -3
390
0
  6
Continuous
100
AcDbCircle
 10
-647.0568
 20
-113.982106
 30
0.0
 40
2.0
100
AcDbArc
 50
308.020933
 51
30.0
  0
ARC
  5
305
100
AcDbEntity
  8
0
370
    -3
390
0
  6
Continuous
100
AcDbCircle
 10
-620.570979
 20
-147.856894
 30
0.0
 40
54.0
100
AcDbArc
 50
126.15064
 51
174.877484
  0
ARC
  5
306
100
AcDbEntity
  8
0
370
    -3
390
0
  6
Continuous
100
AcDbCircle
 10
-676.347318
 20
-142.856894
 30
0.0
 40
2.0
100
AcDbArc
 50
270.0
 51
354.877484
  0
LINE
  5
307
100
AcDbEntity
  8
0
370
    -3
390
0
  6
Continuous
100
AcDbLine
 10
-680.362283
 20
-144.856894
 30
0.0
 11
-676.347318
 21
-144.856894
 31
0.0
  0
ARC
  5
308
100
AcDbEntity
  8
0
370
    -3
390
0
  6
Continuous
100
AcDbCircle
 10
-680.362283
 20
-142.856894
 30
0.0
 40
2.0
100
AcDbArc
 50
175.219808
 51
270.0
  0
ARC
  5
309
100
AcDbEntity
  8
0
370
    -3
390
0
  6
Continuous
100
AcDbCircle
 10
-620.570979
 20
-147.856894
 30
0.0
 40
62.0
100
AcDbArc
 50
125.73917
 51
175.219808
  0
LINE
  5
30A
100
AcDbEntity
  8
0
370
    -3
390
0
  6
Continuous
100
AcDbLine
 10
-693.399545
 20
-144.856894
 30
0.0
 11
-689.89089
 21
-144.856894
 31
0.0
  0
ARC
  5
30B
100
AcDbEntity
  8
0
370
    -3
390
0
  6
Continuous
100
AcDbCircle
 10
-693.399545
 20
-142.856894
 30
0.0
 40
2.0
100
AcDbArc
 50
176.072557
 51
270.0
  0
ARC
  5
30C
100
AcDbEntity
  8
0
370
    -3
390
0
  6
Continuous
100
AcDbCircle
 10
-620.570979
 20
-147.856894
 30
0.0
 40
75.0
100
AcDbArc
 50
124.714561
 51
176.072557
  0
LINE
  5
30D
100
AcDbEntity
  8
0
370
    -3
390
0
  6
Continuous
100
AcDbLine
 10
-634.097387
 20
-132.428469
 30
0.0
 11
-631.988068
 21
-136.081917
 31
0.0
  0
LINE
  5
30E
100
AcDbEntity
  8
0
370
    -3
390
0
  6
Continuous
100
AcDbLine
 10
-640.768281
 20
-120.874141
 30
0.0
 11
-638.732019
 21
-124.40105
 31
0.0
  0
LINE
  5
30F
100
AcDbEntity
  8
0
370
    -3
390
0
  6
Continuous
100
AcDbLine
 10
-647.342805
 20
-109.486732
 30
0.0
 11
-645.32475
 21
-112.982106
 31
0.0
  0
ARC
  5
310
100
AcDbEntity
  8
0
370
    -3
390
0
  6
Continuous
100
AcDbCircle
 10
-649.074856
 20
-110.486732
 30
0.0
 40
2.0
100
AcDbArc
 50
30.0
 51
127.334369
  0
ARC
  5
311
100
AcDbEntity
  8
0
370
    -3
390
0
  6
Continuous
100
AcDbCircle
 10
-653.605953
 20
-102.638641
 30
0.0
 40
2.0
100
AcDbArc
 50
306.15064
 51
30.0
  0
LINE
  5
312
100
AcDbEntity
  8
0
370
    -3
390
0
  6
Continuous
100
AcDbLine
 10
-653.884704
 20
-98.155831
 30
0.0
 11
-651.873903
 21
-101.638641
 31
0.0
  0
LINE
  5
313
100
AcDbEntity
  8
0
370
    -3
390
0
  6
Continuous
100
AcDbLine
 10
-660.411584
 20
-86.850942
 30
0.0
 11
-658.655342
 21
-89.892843
 31
0.0
  0
ARC
  5
314
100
AcDbEntity
  8
0
370
    -3
390
0
  6
Continuous
100
AcDbCircle
 10
-655.616755
 20
-99.155831
 30
0.0
 40
2.0
100
AcDbArc
 50
30.0
 51
125.73917
  0
ARC
  5
315
100
AcDbEntity
  8
0
370
    -3
390
0
  6
Continuous
100
AcDbCircle
 10
-662.143635
 20
-87.850942
 30
0.0
 40
2.0
100
AcDbArc
 50
30.0
 51
124.714561
  0
ARC
  5
316
100
AcDbEntity
  8
0
370
    -3
390
0
  6
Continuous
100
AcDbCircle
 10
-616.777068
 20
-131.285647
 30
0.0
 40
2.0
100
AcDbArc
 50
257.104635
 51
330.0
  0
LINE
  5
317
100
AcDbEntity
  8
0
370
    -3
390
0
  6
Continuous
100
AcDbLine
 10
-612.971016
 20
-128.693373
 30
0.0
 11
-615.045017
 21
-132.285647
 31
0.0
  0
ARC
  5
318
100
AcDbEntity
  8
0
370
    -3
390
0
  6
Continuous
100
AcDbCircle
 10
-620.570979
 20
-147.856894
 30
0.0
 40
15.0
100
AcDbArc
 50
77.104635
 51
99.332684
  0
ARC
  5
319
100
AcDbEntity
  8
0
370
    -3
390
0
  6
Continuous
100
AcDbCircle
 10
-614.703067
 20
-127.693373
 30
0.0
 40
2.0
100
AcDbArc
 50
330.0
 51
73.774147
  0
ARC
  5
31A
100
AcDbEntity
  8
0
370
    -3
390
0
  6
Continuous
100
AcDbCircle
 10
-620.570979
 20
-147.856894
 30
0.0
 40
23.0
100
AcDbArc
 50
73.774147
 51
103.39845
  0
ARC
  5
31B
100
AcDbEntity
  8
0
370
    -3
390
0
  6
Continuous
100
AcDbCircle
 10
-623.327814
 20
-131.081917
 30
0.0
 40
2.0
100
AcDbArc
 50
210.0
 51
279.332684
  0
ARC
  5
31C
100
AcDbEntity
  8
0
370
    -3
390
0
  6
Continuous
100
AcDbCircle
 10
-625.437133
 20
-127.428469
 30
0.0
 40
2.0
100
AcDbArc
 50
103.39845
 51
210.0
  0
ARC
  5
31D
100
AcDbEntity
  8
0
370
    -3
390
0
  6
Continuous
100
AcDbCircle
 10
-632.108027
 20
-115.874141
 30
0.0
 40
2.0
100
AcDbArc
 50
109.835751
 51
210.0
  0
ARC
  5
31E
100
AcDbEntity
  8
0
370
    -3
390
0
  6
Continuous
100
AcDbCircle
 10
-620.570979
 20
-147.856894
 30
0.0
 40
36.0
100
AcDbArc
 50
68.456519
 51
109.835751
  0
ARC
  5
31F
100
AcDbEntity
  8
0
370
    -3
390
0
  6
Continuous
100
AcDbCircle
 10
-630.071765
 20
-119.40105
 30
0.0
 40
2.0
100
AcDbArc
 50
210.0
 51
288.463041
  0
ARC
  5
320
100
AcDbEntity
  8
0
370
    -3
390
0
  6
Continuous
100
AcDbCircle
 10
-620.570979
 20
-147.856894
 30
0.0
 40
28.0
100
AcDbArc
 50
69.594068
 51
108.463041
  0
ARC
  5
321
100
AcDbEntity
  8
0
370
    -3
390
0
  6
Continuous
100
AcDbCircle
 10
-610.110907
 20
-119.739517
 30
0.0
 40
2.0
100
AcDbArc
 50
249.594068
 51
330.0
  0
LINE
  5
322
100
AcDbEntity
  8
0
370
    -3
390
0
  6
Continuous
100
AcDbLine
 10
-606.353884
 20
-117.232163
 30
0.0
 11
-608.378856
 21
-120.739517
 31
0.0
  0
ARC
  5
323
100
AcDbEntity
  8
0
370
    -3
390
0
  6
Continuous
100
AcDbCircle
 10
-608.085934
 20
-116.232163
 30
0.0
 40
2.0
100
AcDbArc
 50
330.0
 51
68.456519
  0
ARC
  5
324
100
AcDbEntity
  8
0
370
    -3
390
0
  6
Continuous
100
AcDbCircle
 10
-601.534463
 20
-104.884682
 30
0.0
 40
2.0
100
AcDbArc
 50
330.0
 51
66.106852
  0
LINE
  5
325
100
AcDbEntity
  8
0
370
    -3
390
0
  6
Continuous
100
AcDbLine
 10
-599.802412
 20
-105.884682
 30
0.0
 11
-601.814899
 21
-109.37041
 31
0.0
  0
ARC
  5
326
100
AcDbEntity
  8
0
370
    -3
390
0
  6
Continuous
100
AcDbCircle
 10
-620.570979
 20
-147.856894
 30
0.0
 40
49.0
100
AcDbArc
 50
66.106852
 51
112.665631
  0
ARC
  5
327
100
AcDbEntity
  8
0
370
    -3
390
0
  6
Continuous
100
AcDbCircle
 10
-603.54695
 20
-108.37041
 30
0.0
 40
2.0
100
AcDbArc
 50
246.677405
 51
330.0
  0
ARC
  5
328
100
AcDbEntity
  8
0
370
    -3
390
0
  6
Continuous
100
AcDbCircle
 10
-620.570979
 20
-147.856894
 30
0.0
 40
41.0
100
AcDbArc
 50
66.677405
 51
111.979067
  0
ARC
  5
329
100
AcDbEntity
  8
0
370
    -3
390
0
  6
Continuous
100
AcDbCircle
 10
-636.664496
 20
-107.982106
 30
0.0
 40
2.0
100
AcDbArc
 50
210.0
 51
291.979067
  0
ARC
  5
32A
100
AcDbEntity
  8
0
370
    -3
390
0
  6
Continuous
100
AcDbCircle
 10
-620.570979
 20
-147.856894
 30
0.0
 40
54.0
100
AcDbArc
 50
65.122516
 51
113.84936
  0
ARC
  5
32B
100
AcDbEntity
  8
0
370
    -3
390
0
  6
Continuous
100
AcDbCircle
 10
-597.012937
 20
-97.053168
 30
0.0
 40
2.0
100
AcDbArc
 50
245.122516
 51
330.0
  0
LINE
  5
32C
100
AcDbEntity
  8
0
370
    -3
390
0
  6
Continuous
100
AcDbLine
 10
-593.273404
 20
-94.576106
 30
0.0
 11
-595.280886
 21
-98.053168
 31
0.0
  0
ARC
  5
32D
100
AcDbEntity
  8
0
370
    -3
390
0
  6
Continuous
100
AcDbCircle
 10
-595.005454
 20
-93.576106
 30
0.0
 40
2.0
100
AcDbArc
 50
330.0
 51
64.780192
  0
ARC
  5
32E
100
AcDbEntity
  8
0
370
    -3
390
0
  6
Continuous
100
AcDbCircle
 10
-620.570979
 20
-147.856894
 30
0.0
 40
62.0
100
AcDbArc
 50
64.780192
 51
114.26083
  0
LINE
  5
32F
100
AcDbEntity
  8
0
370
    -3
390
0
  6
Continuous
100
AcDbLine
 10
-586.754772
 20
-83.285506
 30
0.0
 11
-588.5091
 21
-86.324091
 31
0.0
  0
ARC
  5
330
100
AcDbEntity
  8
0
370
    -3
390
0
  6
Continuous
100
AcDbCircle
 10
-588.486823
 20
-82.285506
 30
0.0
 40
2.0
100
AcDbArc
 50
330.0
 51
63.927443
  0
ARC
  5
331
100
AcDbEntity
  8
0
370
    -3
390
0
  6
Continuous
100
AcDbCircle
 10
-620.570979
 20
-147.856894
 30
0.0
 40
75.0
100
AcDbArc
 50
63.927443
 51
115.285439
  0
LINE
  5
332
100
AcDbEntity
  8
0
370
    -3
390
0
  6
Continuous
100
AcDbLine
 10
-627.169183
 20
-128.428469
 30
0.0
 11
-625.059864
 21
-132.081917
 31
0.0
  0
LINE
  5
333
100
AcDbEntity
  8
0
370
    -3
390
0
  6
Continuous
100
AcDbLine
 10
-633.840078
 20
-116.874141
 30
0.0
 11
-631.803816
 21
-120.40105
 31
0.0
  0
LINE
  5
334
100
AcDbEntity
  8
0
370
    -3
390
0
  6
Continuous
100
AcDbLine
 10
-640.414602
 20
-105.486732
 30
0.0
 11
-638.396546
 21
-108.982106
 31
0.0
  0
ARC
  5
335
100
AcDbEntity
  8
0
370
    -3
390
0
  6
Continuous
100
AcDbCircle
 10
-638.682551
 20
-104.486732
 30
0.0
 40
2.0
100
AcDbArc
 50
112.665631
 51
210.0
  0
ARC
  5
336
100
AcDbEntity
  8
0
370
    -3
390
0
  6
Continuous
100
AcDbCircle
 10
-643.213649
 20
-96.638641
 30
0.0
 40
2.0
100
AcDbArc
 50
210.0
 51
293.84936
  0
LINE
  5
337
100
AcDbEntity
  8
0
370
    -3
390
0
  6
Continuous
100
AcDbLine
 10
-646.956501
 20
-94.155831
 30
0.0
 11
-644.945699
 21
-97.638641
 31
0.0
  0
LINE
  5
338
100
AcDbEntity
  8
0
370
    -3
390
0
  6
Continuous
100
AcDbLine
 10
-653.483381
 20
-82.850942
 30
0.0
 11
-651.727139
 21
-85.892843
 31
0.0
  0
ARC
  5
339
100
AcDbEntity
  8
0
370
    -3
390
0
  6
Continuous
100
AcDbCircle
 10
-645.22445
 20
-93.155831
 30
0.0
 40
2.0
100
AcDbArc
 50
114.26083
 51
210.0
  0
ARC
  5
33A
100
AcDbEntity
  8
0
370
    -3
390
0
  6
Continuous
100
AcDbCircle
 10
-651.75133
 20
-81.850942
 30
0.0
 40
2.0
100
AcDbArc
 50
115.285439
 51
210.0
  0
LINE
  5
33B
100
AcDbEntity
  8
0
370
    -3
390
0
  6
CENTER
100
AcDbLine
 10
-620.570979
 20
-30.978946
 30
0.0
 11
-620.570979
 21
-313.600462
 31
0.0
  0
LINE
  5
33C
100
AcDbEntity
  8
0
370
    -3
390
0
  6
CENTER
100
AcDbLine
 10
-501.901198
 20
-147.856894
 30
0.0
 11
-731.805686
 21
-147.856894
 31
0.0
  0
ARC
  5
33D
100
AcDbEntity
  8
0
370
    -3
390
0
  6
Continuous
100
AcDbCircle
 10
-651.967531
 20
-126.449967
 30
0.0
 40
71.0
100
AcDbArc
 50
145.712889
 51
176.770589
  0
ARC
  5
33E
100
AcDbEntity
  8
0
370
    -3
390
0
  6
Continuous
100
AcDbCircle
 10
-272.570979
 20
-147.856894
 30
0.0
 40
451.0
100
AcDbArc
 50
176.770589
 51
183.229411
  0
ARC
  5
33F
100
AcDbEntity
  8
0
370
    -3
390
0
  6
Continuous
100
AcDbCircle
 10
-641.977907
 20
-116.460343
 30
0.0
 40
71.0
100
AcDbArc
 50
93.229411
 51
124.287111
  0
ARC
  5
340
100
AcDbEntity
  8
0
370
    -3
390
0
  6
Continuous
100
AcDbCircle
 10
-641.977907
 20
-179.253446
 30
0.0
 40
71.0
100
AcDbArc
 50
235.712889
 51
266.770589
  0
ARC
  5
341
100
AcDbEntity
  8
0
370
    -3
390
0
  6
Continuous
100
AcDbCircle
 10
-651.967531
 20
-169.263822
 30
0.0
 40
71.0
100
AcDbArc
 50
183.229411
 51
214.287111
  0
ARC
  5
342
100
AcDbEntity
  8
0
370
    -3
390
0
  6
Continuous
100
AcDbCircle
 10
-620.570979
 20
-147.856894
 30
0.0
 40
109.0
100
AcDbArc
 50
214.287111
 51
235.712889
  0
ARC
  5
343
100
AcDbEntity
  8
0
370
    -3
390
0
  6
Continuous
100
AcDbCircle
 10
-599.164052
 20
-179.253446
 30
0.0
 40
71.0
100
AcDbArc
 50
273.229411
 51
304.287111
  0
ARC
  5
344
100
AcDbEntity
  8
0
370
    -3
390
0
  6
Continuous
100
AcDbCircle
 10
-620.570979
 20
-147.856894
 30
0.0
 40
109.0
100
AcDbArc
 50
304.287111
 51
325.712889
  0
ARC
  5
345
100
AcDbEntity
  8
0
370
    -3
390
0
  6
Continuous
100
AcDbCircle
 10
-599.164052
 20
-116.460343
 30
0.0
 40
71.0
100
AcDbArc
 50
55.712889
 51
86.770589
  0
ARC
  5
346
100
AcDbEntity
  8
0
370
    -3
390
0
  6
Continuous
100
AcDbCircle
 10
-589.174427
 20
-126.449967
 30
0.0
 40
71.0
100
AcDbArc
 50
3.229411
 51
34.287111
  0
ARC
  5
347
100
AcDbEntity
  8
0
370
    -3
390
0
  6
Continuous
100
AcDbCircle
 10
-620.570979
 20
-147.856894
 30
0.0
 40
109.0
100
AcDbArc
 50
34.287111
 51
55.712889
  0
ARC
  5
348
100
AcDbEntity
  8
0
370
    -3
390
0
  6
Continuous
100
AcDbCircle
 10
-620.570979
 20
200.143106
 30
0.0
 40
451.0
100
AcDbArc
 50
266.770589
 51
273.229411
  0
ARC
  5
349
100
AcDbEntity
  8
0
370
    -3
390
0
  6
Continuous
100
AcDbCircle
 10
-968.570979
 20
-147.856894
 30
0.0
 40
451.0
100
AcDbArc
 50
356.770589
 51
3.229411
  0
ARC
  5
34A
100
AcDbEntity
  8
0
370
    -3
390
0
  6
Continuous
100
AcDbCircle
 10
-620.570979
 20
-495.856894
 30
0.0
 40
451.0
100
AcDbArc
 50
86.770589
 51
93.229411
  0
ARC
  5
34B
100
AcDbEntity
  8
0
370
    -3
390
0
  6
Continuous
100
AcDbCircle
 10
-620.570979
 20
-147.856894
 30
0.0
 40
109.0
100
AcDbArc
 50
124.287111
 51
145.712889
  0
ARC
  5
34C
100
AcDbEntity
  8
0
370
    -3
390
0
  6
Continuous
100
AcDbCircle
 10
-272.570979
 20
-147.856894
 30
0.0
 40
433.679
100
AcDbArc
 50
176.770589
 51
183.229411
  0
ARC
  5
34D
100
AcDbEntity
  8
0
370
    -3
390
0
  6
Continuous
100
AcDbCircle
 10
-651.967531
 20
-169.263822
 30
0.0
 40
53.679
100
AcDbArc
 50
183.229411
 51
214.287111
  0
ARC
  5
34E
100
AcDbEntity
  8
0
370
    -3
390
0
  6
Continuous
100
AcDbCircle
 10
-620.570979
 20
-147.856894
 30
0.0
 40
91.679
100
AcDbArc
 50
214.287111
 51
235.712889
  0
ARC
  5
34F
100
AcDbEntity
  8
0
370
    -3
390
0
  6
Continuous
100
AcDbCircle
 10
-641.977907
 20
-179.253446
 30
0.0
 40
53.679
100
AcDbArc
 50
235.712889
 51
266.770589
  0
ARC
  5
350
100
AcDbEntity
  8
0
370
    -3
390
0
  6
Continuous
100
AcDbCircle
 10
-620.570979
 20
200.143106
 30
0.0
 40
433.679
100
AcDbArc
 50
266.770589
 51
273.229411
  0
ARC
  5
351
100
AcDbEntity
  8
0
370
    -3
390
0
  6
Continuous
100
AcDbCircle
 10
-620.570979
 20
-147.856894
 30
0.0
 40
91.679
100
AcDbArc
 50
304.287111
 51
325.712889
  0
ARC
  5
352
100
AcDbEntity
  8
0
370
    -3
390
0
  6
Continuous
100
AcDbCircle
 10
-599.164052
 20
-179.253446
 30
0.0
 40
53.679
100
AcDbArc
 50
273.229411
 51
304.287111
  0
ARC
  5
353
100
AcDbEntity
  8
0
370
    -3
390
0
  6
Continuous
100
AcDbCircle
 10
-589.174427
 20
-169.263822
 30
0.0
 40
53.679
100
AcDbArc
 50
325.712889
 51
356.770589
  0
ARC
  5
354
100
AcDbEntity
  8
0
370
    -3
390
0
  6
Continuous
100
AcDbCircle
 10
-620.570979
 20
-147.856894
 30
0.0
 40
91.679
100
AcDbArc
 50
34.287111
 51
55.712889
  0
ARC
  5
355
100
AcDbEntity
  8
0
370
    -3
390
0
  6
Continuous
100
AcDbCircle
 10
-599.164052
 20
-116.460343
 30
0.0
 40
53.679
100
AcDbArc
 50
55.712889
 51
86.770589
  0
ARC
  5
356
100
AcDbEntity
  8
0
370
    -3
390
0
  6
Continuous
100
AcDbCircle
 10
-589.174427
 20
-126.449967
 30
0.0
 40
53.679
100
AcDbArc
 50
3.229411
 51
34.287111
  0
ARC
  5
357
100
AcDbEntity
  8
0
370
    -3
390
0
  6
Continuous
100
AcDbCircle
 10
-620.570979
 20
-147.856894
 30
0.0
 40
91.679
100
AcDbArc
 50
124.287111
 51
145.712889
  0
ARC
  5
358
100
AcDbEntity
  8
0
370
    -3
390
0
  6
Continuous
100
AcDbCircle
 10
-641.977907
 20
-116.460343
 30
0.0
 40
53.679
100
AcDbArc
 50
93.229411
 51
124.287111
  0
ARC
  5
359
100
AcDbEntity
  8
0
370
    -3
390
0
  6
Continuous
100
AcDbCircle
 10
-651.967531
 20
-126.449967
 30
0.0
 40
53.679
100
AcDbArc
 50
145.712889
 51
176.770589
  0
ARC
  5
35A
100
AcDbEntity
  8
0
370
    -3
390
0
  6
Continuous
100
AcDbCircle
 10
-620.570979
 20
-495.856894
 30
0.0
 40
433.679
100
AcDbArc
 50
86.770589
 51
93.229411
  0
ARC
  5
35B
100
AcDbEntity
  8
0
370
    -3
390
0
  6
Continuous
100
AcDbCircle
 10
-968.570979
 20
-147.856894
 30
0.0
 40
433.679
100
AcDbArc
 50
356.770589
 51
3.229411
  0
LINE
  5
35C
100
AcDbEntity
  8
0
370
    -3
390
0
  6
Continuous
100
AcDbLine
 10
-646.956501
 20
-201.557958
 30
0.0
 11
-644.945699
 21
-198.075148
 31
0.0
  0
ARC
  5
35D
100
AcDbEntity
  8
0
370
    -3
390
0
  6
Continuous
100
AcDbCircle
 10
-620.570979
 20
-147.856894
 30
0.0
 40
67.5
100
AcDbArc
 50
4.952563
 51
55.874437
  0
ARC
  5
35E
100
AcDbEntity
  8
0
370
    -3
390
0
  6
Continuous
100
AcDbCircle
 10
-620.570979
 20
-147.856894
 30
0.0
 40
67.5
100
AcDbArc
 50
64.125563
 51
115.047437
  0
ARC
  5
35F
100
AcDbEntity
  8
0
370
    -3
390
0
  6
Continuous
100
AcDbCircle
 10
-620.570979
 20
-147.856894
 30
0.0
 40
67.5
100
AcDbArc
 50
124.952563
 51
175.874437
  0
ARC
  5
360
100
AcDbEntity
  8
0
370
    -3
390
0
  6
Continuous
100
AcDbCircle
 10
-620.570979
 20
-147.856894
 30
0.0
 40
67.5
100
AcDbArc
 50
184.125563
 51
235.047437
  0
ARC
  5
361
100
AcDbEntity
  8
0
370
    -3
390
0
  6
Continuous
100
AcDbCircle
 10
-620.570979
 20
-147.856894
 30
0.0
 40
67.5
100
AcDbArc
 50
244.952563
 51
295.874437
  0
ARC
  5
362
100
AcDbEntity
  8
0
370
    -3
390
0
  6
Continuous
100
AcDbCircle
 10
-620.570979
 20
-147.856894
 30
0.0
 40
67.5
100
AcDbArc
 50
304.125563
 51
355.047437
  0
ARC
  5
363
100
AcDbEntity
  8
0
370
    -3
390
0
  6
Continuous
100
AcDbCircle
 10
-551.330456
 20
-153.856894
 30
0.0
 40
2.0
100
AcDbArc
 50
90.0
 51
175.047437
  0
ARC
  5
364
100
AcDbEntity
  8
0
370
    -3
390
0
  6
Continuous
100
AcDbCircle
 10
-581.580897
 20
-205.389698
 30
0.0
 40
2.0
100
AcDbArc
 50
124.125563
 51
210.0
  0
ARC
  5
365
100
AcDbEntity
  8
0
370
    -3
390
0
  6
Continuous
100
AcDbCircle
 10
-551.330456
 20
-141.856894
 30
0.0
 40
2.0
100
AcDbArc
 50
184.952563
 51
270.0
  0
ARC
  5
366
100
AcDbEntity
  8
0
370
    -3
390
0
  6
Continuous
100
AcDbCircle
 10
-581.580897
 20
-90.324091
 30
0.0
 40
2.0
100
AcDbArc
 50
150.0
 51
235.874437
  0
ARC
  5
367
100
AcDbEntity
  8
0
370
    -3
390
0
  6
Continuous
100
AcDbCircle
 10
-590.241151
 20
-85.324091
 30
0.0
 40
2.0
100
AcDbArc
 50
244.125563
 51
330.0
  0
ARC
  5
368
100
AcDbEntity
  8
0
370
    -3
390
0
  6
Continuous
100
AcDbCircle
 10
-649.995088
 20
-84.892843
 30
0.0
 40
2.0
100
AcDbArc
 50
210.0
 51
295.047437
  0
ARC
  5
369
100
AcDbEntity
  8
0
370
    -3
390
0
  6
Continuous
100
AcDbCircle
 10
-660.387393
 20
-90.892843
 30
0.0
 40
2.0
100
AcDbArc
 50
304.952563
 51
30.0
  0
ARC
  5
36A
100
AcDbEntity
  8
0
370
    -3
390
0
  6
Continuous
100
AcDbCircle
 10
-689.89089
 20
-142.856894
 30
0.0
 40
2.0
100
AcDbArc
 50
270.0
 51
355.874437
  0
ARC
  5
36B
100
AcDbEntity
  8
0
370
    -3
390
0
  6
Continuous
100
AcDbCircle
 10
-689.89089
 20
-152.856894
 30
0.0
 40
2.0
100
AcDbArc
 50
4.125563
 51
90.0
  0
ARC
  5
36C
100
AcDbEntity
  8
0
370
    -3
390
0
  6
Continuous
100
AcDbCircle
 10
-660.387393
 20
-204.820946
 30
0.0
 40
2.0
100
AcDbArc
 50
330.0
 51
55.047437
  0
ARC
  5
36D
100
AcDbEntity
  8
0
370
    -3
390
0
  6
Continuous
100
AcDbCircle
 10
-649.995088
 20
-210.820946
 30
0.0
 40
2.0
100
AcDbArc
 50
64.952563
 51
150.0
  0
ARC
  5
36E
100
AcDbEntity
  8
0
370
    -3
390
0
  6
Continuous
100
AcDbCircle
 10
-590.241151
 20
-210.389698
 30
0.0
 40
2.0
100
AcDbArc
 50
30.0
 51
115.874437
  0
LINE
  5
36F
100
AcDbEntity
  8
0
370
    -3
390
0
  6
Continuous
100
AcDbLine
 10
-647.342805
 20
-186.227057
 30
0.0
 11
-645.32475
 21
-182.731683
 31
0.0
  0
ARC
  5
370
100
AcDbEntity
  8
0
370
    -3
390
0
  6
Continuous
100
AcDbCircle
 10
-589.174427
 20
-169.263822
 30
0.0
 40
71.0
100
AcDbArc
 50
325.712889
 51
356.770589
  0
ARC
  5
371
100
AcDbEntity
  8
0
370
    -3
390
0
  6
Continuous
100
AcDbCircle
 10
-542.798077
 20
-229.731017
 30
0.0
 40
1.599999
100
AcDbArc
 50
224.999999
 51
298.808717
  0
LINE
  5
372
100
AcDbEntity
  8
0
370
    -3
390
0
  6
Continuous
100
AcDbLine
 10
-544.839843
 20
-229.951992
 30
0.0
 11
-538.475882
 21
-223.588031
 31
0.0
  0
LINE
  5
373
100
AcDbEntity
  8
0
370
    -3
390
0
  6
Continuous
100
AcDbLine
 10
-544.839843
 20
-229.951992
 30
0.0
 11
-543.929447
 21
-230.862387
 31
0.0
  0
LINE
  5
374
100
AcDbEntity
  8
0
370
    -3
390
0
  6
Continuous
100
AcDbLine
 10
-545.759082
 20
-229.73986
 30
0.0
 11
-545.193396
 21
-230.305545
 31
0.0
  0
ARC
  5
375
100
AcDbEntity
  8
0
370
    -3
390
0
  6
Continuous
100
AcDbCircle
 10
-546.466188
 20
-229.73986
 30
0.0
 40
0.5
100
AcDbArc
 50
225.0
 51
315.0
  0
LINE
  5
376
100
AcDbEntity
  8
0
370
    -3
390
0
  6
Continuous
100
AcDbLine
 10
-547.855839
 20
-229.057316
 30
0.0
 11
-546.819742
 21
-230.093413
 31
0.0
  0
ARC
  5
377
100
AcDbEntity
  8
0
370
    -3
390
0
  6
Continuous
100
AcDbCircle
 10
-538.688014
 20
-221.961685
 30
0.0
 40
0.5
100
AcDbArc
 50
315.0
 51
45.0
  0
LINE
  5
378
100
AcDbEntity
  8
0
370
    -3
390
0
  6
Continuous
100
AcDbLine
 10
-539.370558
 20
-220.572034
 30
0.0
 11
-538.334461
 21
-221.608132
 31
0.0
  0
LINE
  5
379
100
AcDbEntity
  8
0
370
    -3
390
0
  6
Continuous
100
AcDbLine
 10
-538.475882
 20
-223.588031
 30
0.0
 11
-537.565486
 21
-224.498426
 31
0.0
  0
ARC
  5
37A
100
AcDbEntity
  8
0
370
    -3
390
0
  6
Continuous
100
AcDbCircle
 10
-538.696857
 20
-225.629797
 30
0.0
 40
1.599999
100
AcDbArc
 50
331.191409
 51
45.000018
  0
LINE
  5
37B
100
AcDbEntity
  8
0
370
    -3
390
0
  6
Continuous
100
AcDbLine
 10
-538.122328
 20
-223.234477
 30
0.0
 11
-545.193396
 21
-230.305545
 31
0.0
  0
LINE
  5
37C
100
AcDbEntity
  8
0
370
    -3
390
0
  6
Continuous
100
AcDbLine
 10
-538.122328
 20
-223.234477
 30
0.0
 11
-538.688014
 21
-222.668792
 31
0.0
  0
LINE
  5
37D
100
AcDbEntity
  8
0
370
    -3
390
0
  6
Continuous
100
AcDbLine
 10
-546.112635
 20
-230.093413
 30
0.0
 11
-538.334461
 21
-222.315238
 31
0.0
  0
ARC
  5
37E
100
AcDbEntity
  8
0
370
    -3
390
0
  6
Continuous
100
AcDbCircle
 10
-547.80969
 20
-220.618183
 30
0.0
 40
12.0
100
AcDbArc
 50
298.808663
 51
331.191355
  0
LINE
  5
37F
100
AcDbEntity
  8
0
370
    -3
390
0
  6
Continuous
100
AcDbLine
 10
-701.7714
 20
-220.572034
 30
0.0
 11
-702.807498
 21
-221.608132
 31
0.0
  0
LINE
  5
380
100
AcDbEntity
  8
0
370
    -3
390
0
  6
Continuous
100
AcDbLine
 10
-695.382877
 20
-229.73986
 30
0.0
 11
-695.948562
 21
-230.305545
 31
0.0
  0
ARC
  5
381
100
AcDbEntity
  8
0
370
    -3
390
0
  6
Continuous
100
AcDbCircle
 10
-694.67577
 20
-229.73986
 30
0.0
 40
0.5
100
AcDbArc
 50
225.0
 51
315.0
  0
LINE
  5
382
100
AcDbEntity
  8
0
370
    -3
390
0
  6
Continuous
100
AcDbLine
 10
-693.286119
 20
-229.057316
 30
0.0
 11
-694.322216
 21
-230.093413
 31
0.0
  0
ARC
  5
383
100
AcDbEntity
  8
0
370
    -3
390
0
  6
Continuous
100
AcDbCircle
 10
-698.343882
 20
-229.731017
 30
0.0
 40
1.599999
100
AcDbArc
 50
241.191283
 51
315.000001
  0
LINE
  5
384
100
AcDbEntity
  8
0
370
    -3
390
0
  6
Continuous
100
AcDbLine
 10
-696.302116
 20
-229.951992
 30
0.0
 11
-697.212511
 21
-230.862387
 31
0.0
  0
ARC
  5
385
100
AcDbEntity
  8
0
370
    -3
390
0
  6
Continuous
100
AcDbCircle
 10
-693.332268
 20
-220.618183
 30
0.0
 40
12.0
100
AcDbArc
 50
208.808645
 51
241.191337
  0
LINE
  5
386
100
AcDbEntity
  8
0
370
    -3
390
0
  6
Continuous
100
AcDbLine
 10
-696.302116
 20
-229.951992
 30
0.0
 11
-702.666077
 21
-223.588031
 31
0.0
  0
ARC
  5
387
100
AcDbEntity
  8
0
370
    -3
390
0
  6
Continuous
100
AcDbCircle
 10
-702.453944
 20
-221.961685
 30
0.0
 40
0.5
100
AcDbArc
 50
135.0
 51
225.0
  0
LINE
  5
388
100
AcDbEntity
  8
0
370
    -3
390
0
  6
Continuous
100
AcDbLine
 10
-702.666077
 20
-223.588031
 30
0.0
 11
-703.576472
 21
-224.498426
 31
0.0
  0
ARC
  5
389
100
AcDbEntity
  8
0
370
    -3
390
0
  6
Continuous
100
AcDbCircle
 10
-702.445102
 20
-225.629797
 30
0.0
 40
1.599999
100
AcDbArc
 50
134.999982
 51
208.808591
  0
LINE
  5
38A
100
AcDbEntity
  8
0
370
    -3
390
0
  6
Continuous
100
AcDbLine
 10
-703.01963
 20
-223.234477
 30
0.0
 11
-695.948562
 21
-230.305545
 31
0.0
  0
LINE
  5
38B
100
AcDbEntity
  8
0
370
    -3
390
0
  6
Continuous
100
AcDbLine
 10
-703.01963
 20
-223.234477
 30
0.0
 11
-702.453944
 21
-222.668792
 31
0.0
  0
LINE
  5
38C
100
AcDbEntity
  8
0
370
    -3
390
0
  6
Continuous
100
AcDbLine
 10
-695.029323
 20
-230.093413
 30
0.0
 11
-702.807498
 21
-222.315238
 31
0.0
  0
LINE
  5
38D
100
AcDbEntity
  8
0
370
    -3
390
0
  6
Continuous
100
AcDbLine
 10
-701.7714
 20
-75.141754
 30
0.0
 11
-702.807498
 21
-74.105657
 31
0.0
  0
LINE
  5
38E
100
AcDbEntity
  8
0
370
    -3
390
0
  6
Continuous
100
AcDbLine
 10
-695.382877
 20
-65.973929
 30
0.0
 11
-695.948562
 21
-65.408244
 31
0.0
  0
ARC
  5
38F
100
AcDbEntity
  8
0
370
    -3
390
0
  6
Continuous
100
AcDbCircle
 10
-694.67577
 20
-65.973929
 30
0.0
 40
0.5
100
AcDbArc
 50
45.0
 51
135.0
  0
LINE
  5
390
100
AcDbEntity
  8
0
370
    -3
390
0
  6
Continuous
100
AcDbLine
 10
-693.286119
 20
-66.656473
 30
0.0
 11
-694.322216
 21
-65.620376
 31
0.0
  0
ARC
  5
391
100
AcDbEntity
  8
0
370
    -3
390
0
  6
Continuous
100
AcDbCircle
 10
-698.343882
 20
-65.982772
 30
0.0
 40
1.599999
100
AcDbArc
 50
44.999999
 51
118.808717
  0
LINE
  5
392
100
AcDbEntity
  8
0
370
    -3
390
0
  6
Continuous
100
AcDbLine
 10
-696.302116
 20
-65.761797
 30
0.0
 11
-697.212511
 21
-64.851401
 31
0.0
  0
ARC
  5
393
100
AcDbEntity
  8
0
370
    -3
390
0
  6
Continuous
100
AcDbCircle
 10
-693.332268
 20
-75.095606
 30
0.0
 40
12.0
100
AcDbArc
 50
118.808663
 51
151.191355
  0
LINE
  5
394
100
AcDbEntity
  8
0
370
    -3
390
0
  6
Continuous
100
AcDbLine
 10
-696.302116
 20
-65.761797
 30
0.0
 11
-702.666077
 21
-72.125758
 31
0.0
  0
ARC
  5
395
100
AcDbEntity
  8
0
370
    -3
390
0
  6
Continuous
100
AcDbCircle
 10
-702.453944
 20
-73.752104
 30
0.0
 40
0.5
100
AcDbArc
 50
135.0
 51
225.0
  0
LINE
  5
396
100
AcDbEntity
  8
0
370
    -3
390
0
  6
Continuous
100
AcDbLine
 10
-702.666077
 20
-72.125758
 30
0.0
 11
-703.576472
 21
-71.215362
 31
0.0
  0
ARC
  5
397
100
AcDbEntity
  8
0
370
    -3
390
0
  6
Continuous
100
AcDbCircle
 10
-702.445102
 20
-70.083992
 30
0.0
 40
1.599999
100
AcDbArc
 50
151.191409
 51
225.000018
  0
LINE
  5
398
100
AcDbEntity
  8
0
370
    -3
390
0
  6
Continuous
100
AcDbLine
 10
-703.01963
 20
-72.479311
 30
0.0
 11
-695.948562
 21
-65.408244
 31
0.0
  0
LINE
  5
399
100
AcDbEntity
  8
0
370
    -3
390
0
  6
Continuous
100
AcDbLine
 10
-703.01963
 20
-72.479311
 30
0.0
 11
-702.453944
 21
-73.044997
 31
0.0
  0
LINE
  5
39A
100
AcDbEntity
  8
0
370
    -3
390
0
  6
Continuous
100
AcDbLine
 10
-695.029323
 20
-65.620376
 30
0.0
 11
-702.807498
 21
-73.39855
 31
0.0
  0
LINE
  5
39B
100
AcDbEntity
  8
0
370
    -3
390
0
  6
Continuous
100
AcDbLine
 10
-539.370558
 20
-75.141754
 30
0.0
 11
-538.334461
 21
-74.105657
 31
0.0
  0
LINE
  5
39C
100
AcDbEntity
  8
0
370
    -3
390
0
  6
Continuous
100
AcDbLine
 10
-545.759082
 20
-65.973929
 30
0.0
 11
-545.193396
 21
-65.408244
 31
0.0
  0
ARC
  5
39D
100
AcDbEntity
  8
0
370
    -3
390
0
  6
Continuous
100
AcDbCircle
 10
-546.466188
 20
-65.973929
 30
0.0
 40
0.5
100
AcDbArc
 50
45.0
 51
135.0
  0
LINE
  5
39E
100
AcDbEntity
  8
0
370
    -3
390
0
  6
Continuous
100
AcDbLine
 10
-547.855839
 20
-66.656473
 30
0.0
 11
-546.819742
 21
-65.620376
 31
0.0
  0
ARC
  5
39F
100
AcDbEntity
  8
0
370
    -3
390
0
  6
Continuous
100
AcDbCircle
 10
-542.798077
 20
-65.982772
 30
0.0
 40
1.599999
100
AcDbArc
 50
61.191283
 51
135.000001
  0
LINE
  5
3A0
100
AcDbEntity
  8
0
370
    -3
390
0
  6
Continuous
100
AcDbLine
 10
-544.839843
 20
-65.761797
 30
0.0
 11
-543.929447
 21
-64.851401
 31
0.0
  0
ARC
  5
3A1
100
AcDbEntity
  8
0
370
    -3
390
0
  6
Continuous
100
AcDbCircle
 10
-547.80969
 20
-75.095606
 30
0.0
 40
12.0
100
AcDbArc
 50
28.808645
 51
61.191337
  0
LINE
  5
3A2
100
AcDbEntity
  8
0
370
    -3
390
0
  6
Continuous
100
AcDbLine
 10
-544.839843
 20
-65.761797
 30
0.0
 11
-538.475882
 21
-72.125758
 31
0.0
  0
ARC
  5
3A3
100
AcDbEntity
  8
0
370
    -3
390
0
  6
Continuous
100
AcDbCircle
 10
-538.688014
 20
-73.752104
 30
0.0
 40
0.5
100
AcDbArc
 50
315.0
 51
45.0
  0
LINE
  5
3A4
100
AcDbEntity
  8
0
370
    -3
390
0
  6
Continuous
100
AcDbLine
 10
-538.475882
 20
-72.125758
 30
0.0
 11
-537.565486
 21
-71.215362
 31
0.0
  0
ARC
  5
3A5
100
AcDbEntity
  8
0
370
    -3
390
0
  6
Continuous
100
AcDbCircle
 10
-538.696857
 20
-70.083992
 30
0.0
 40
1.599999
100
AcDbArc
 50
314.999982
 51
28.808591
  0
LINE
  5
3A6
100
AcDbEntity
  8
0
370
    -3
390
0
  6
Continuous
100
AcDbLine
 10
-538.122328
 20
-72.479311
 30
0.0
 11
-545.193396
 21
-65.408244
 31
0.0
  0
LINE
  5
3A7
100
AcDbEntity
  8
0
370
    -3
390
0
  6
Continuous
100
AcDbLine
 10
-538.122328
 20
-72.479311
 30
0.0
 11
-538.688014
 21
-73.044997
 31
0.0
  0
LINE
  5
3A8
100
AcDbEntity
  8
0
370
    -3
390
0
  6
Continuous
100
AcDbLine
 10
-546.112635
 20
-65.620376
 30
0.0
 11
-538.334461
 21
-73.39855
 31
0.0
  0
ARC
  5
3A9
100
AcDbEntity
  8
0
370
    -3
390
0
  6
Continuous
100
AcDbCircle
 10
-593.970979
 20
-252.256894
 30
0.0
 40
2.0
100
AcDbArc
 50
180.0
 51
270.0
  0
LINE
  5
3AA
100
AcDbEntity
  8
0
370
    -3
390
0
  6
Continuous
100
AcDbLine
 10
-589.570979
 20
-255.856894
 30
0.0
 11
-589.570979
 21
-254.256894
 31
0.0
  0
LINE
  5
3AB
100
AcDbEntity
  8
0
370
    -3
390
0
  6
Continuous
100
AcDbLine
 10
-589.570979
 20
-254.256894
 30
0.0
 11
-620.570979
 21
-254.256894
 31
0.0
  0
LINE
  5
3AC
100
AcDbEntity
  8
0
370
    -3
390
0
  6
Continuous
100
AcDbLine
 10
-595.970979
 20
-252.256894
 30
0.0
 11
-595.970979
 21
-250.185486
 31
0.0
  0
LINE
  5
3AD
100
AcDbEntity
  8
0
370
    -3
390
0
  6
Continuous
100
AcDbLine
 10
-645.170979
 20
-252.256894
 30
0.0
 11
-645.170979
 21
-250.185486
 31
0.0
  0
ARC
  5
3AE
100
AcDbEntity
  8
0
370
    -3
390
0
  6
Continuous
100
AcDbCircle
 10
-647.170979
 20
-252.256894
 30
0.0
 40
2.0
100
AcDbArc
 50
270.0
 51
0.0
  0
LINE
  5
3AF
100
AcDbEntity
  8
0
370
    -3
390
0
  6
Continuous
100
AcDbLine
 10
-651.570979
 20
-255.856894
 30
0.0
 11
-651.570979
 21
-254.256894
 31
0.0
  0
LINE
  5
3B0
100
AcDbEntity
  8
0
370
    -3
390
0
  6
Continuous
100
AcDbLine
 10
-651.570979
 20
-254.256894
 30
0.0
 11
-620.570979
 21
-254.256894
 31
0.0
  0
ARC
  5
3B1
100
AcDbEntity
  8
0
370
    -3
390
0
  6
Continuous
100
AcDbCircle
 10
-578.994654
 20
-261.126994
 30
0.0
 40
1.0
100
AcDbArc
 50
294.0
 51
24.0
  0
LINE
  5
3B2
100
AcDbEntity
  8
0
370
    -3
390
0
  6
Continuous
100
AcDbLine
 10
-580.913467
 20
-258.916323
 30
0.0
 11
-581.914308
 21
-258.491491
 31
0.0
  0
LINE
  5
3B3
100
AcDbEntity
  8
0
370
    -3
390
0
  6
Continuous
100
AcDbLine
 10
-581.912759
 20
-259.361237
 30
0.0
 11
-582.226893
 21
-259.227895
 31
0.0
  0
LINE
  5
3B4
100
AcDbEntity
  8
0
370
    -3
390
0
  6
Continuous
100
AcDbLine
 10
-581.914308
 20
-258.491491
 30
0.0
 11
-582.226893
 21
-259.227895
 31
0.0
  0
LINE
  5
3B5
100
AcDbEntity
  8
0
370
    -3
390
0
  6
Continuous
100
AcDbLine
 10
-578.587917
 20
-262.04054
 30
0.0
 11
-620.570979
 21
-280.732603
 31
0.0
  0
ARC
  5
3B6
100
AcDbEntity
  8
0
370
    -3
390
0
  6
Continuous
100
AcDbCircle
 10
-581.370772
 20
-266.563456
 30
0.0
 40
3.0
100
AcDbArc
 50
114.0
 51
170.681877
  0
LINE
  5
3B7
100
AcDbEntity
  8
0
370
    -3
390
0
  6
Continuous
100
AcDbLine
 10
-584.331186
 20
-266.077708
 30
0.0
 11
-588.590015
 21
-292.033345
 31
0.0
  0
LINE
  5
3B8
100
AcDbEntity
  8
0
370
    -3
390
0
  6
Continuous
100
AcDbLine
 10
-578.081108
 20
-260.720258
 30
0.0
 11
-579.219971
 21
-258.16233
 31
0.0
  0
LINE
  5
3B9
100
AcDbEntity
  8
0
370
    -3
390
0
  6
Continuous
100
AcDbLine
 10
-584.335825
 20
-260.440056
 30
0.0
 11
-585.138738
 21
-258.636684
 31
0.0
  0
ARC
  5
3BA
100
AcDbEntity
  8
0
370
    -3
390
0
  6
Continuous
100
AcDbCircle
 10
-587.879374
 20
-259.856894
 30
0.0
 40
3.0
100
AcDbArc
 50
24.0
 51
90.0
  0
LINE
  5
3BB
100
AcDbEntity
  8
0
370
    -3
390
0
  6
Continuous
100
AcDbLine
 10
-579.219971
 20
-258.16233
 30
0.0
 11
-681.90248
 21
-303.879529
 31
0.0
  0
LINE
  5
3BC
100
AcDbEntity
  8
0
370
    -3
390
0
  6
Continuous
100
AcDbLine
 10
-677.197721
 20
-301.784835
 30
0.0
 11
-678.906015
 21
-297.947945
 31
0.0
  0
LINE
  5
3BD
100
AcDbEntity
  8
0
370
    -3
390
0
  6
Continuous
100
AcDbLine
 10
-674.183021
 20
-300.442605
 30
0.0
 11
-675.891315
 21
-296.605714
 31
0.0
  0
LINE
  5
3BE
100
AcDbEntity
  8
0
370
    -3
390
0
  6
Continuous
100
AcDbLine
 10
-675.429216
 20
-296.783097
 30
0.0
 11
-675.891315
 21
-296.605714
 31
0.0
  0
LINE
  5
3BF
100
AcDbEntity
  8
0
370
    -3
390
0
  6
Continuous
100
AcDbLine
 10
-679.083398
 20
-298.410043
 30
0.0
 11
-678.906015
 21
-297.947945
 31
0.0
  0
LINE
  5
3C0
100
AcDbEntity
  8
0
370
    -3
390
0
  6
Continuous
100
AcDbLine
 10
-675.891315
 20
-296.605714
 30
0.0
 11
-678.906015
 21
-297.947945
 31
0.0
  0
POINT
  5
3C1
100
AcDbEntity
  8
0
370
    -3
390
0
  6
Continuous
100
AcDbPoint
 10
-674.144772
 20
-304.585193
 30
0.0
  0
LINE
  5
3C2
100
AcDbEntity
  8
0
370
    -3
390
0
  6
Continuous
100
AcDbLine
 10
-670.947363
 20
-303.161614
 30
0.0
 11
-677.342181
 21
-306.008771
 31
0.0
  0
LINE
  5
3C3
100
AcDbEntity
  8
0
370
    -3
390
0
  6
Continuous
100
AcDbLine
 10
-670.947363
 20
-303.161614
 30
0.0
 11
-677.342181
 21
-306.008771
 31
0.0
  0
LINE
  5
3C4
100
AcDbEntity
  8
0
370
    -3
390
0
  6
Continuous
100
AcDbLine
 10
-677.342181
 20
-306.008771
 30
0.0
 11
-676.943975
 21
-306.903155
 31
0.0
  0
LINE
  5
3C5
100
AcDbEntity
  8
0
370
    -3
390
0
  6
Continuous
100
AcDbLine
 10
-670.947363
 20
-303.161614
 30
0.0
 11
-670.549157
 21
-304.055999
 31
0.0
  0
ARC
  5
3C6
100
AcDbEntity
  8
0
370
    -3
390
0
  6
Continuous
100
AcDbCircle
 10
-671.736766
 20
-304.584756
 30
0.0
 40
1.299999
100
AcDbArc
 50
310.601531
 51
24.000001
  0
ARC
  5
3C7
100
AcDbEntity
  8
0
370
    -3
390
0
  6
Continuous
100
AcDbCircle
 10
-620.570979
 20
295.143106
 30
0.0
 40
600.0
100
AcDbArc
 50
265.284875
 51
271.682769
  0
ARC
  5
3C8
100
AcDbEntity
  8
0
370
    -3
390
0
  6
Continuous
100
AcDbCircle
 10
-669.974139
 20
-303.822943
 30
0.0
 40
1.0
100
AcDbArc
 50
85.284875
 51
114.0
  0
ARC
  5
3C9
100
AcDbEntity
  8
0
370
    -3
390
0
  6
Continuous
100
AcDbCircle
 10
-662.070979
 20
-261.856894
 30
0.0
 40
5.0
100
AcDbArc
 50
90.0
 51
180.0
  0
LINE
  5
3CA
100
AcDbEntity
  8
0
370
    -3
390
0
  6
Continuous
100
AcDbLine
 10
-667.070979
 20
-261.856894
 30
0.0
 11
-667.070979
 21
-297.276119
 31
0.0
  0
LINE
  5
3CB
100
AcDbEntity
  8
0
370
    -3
390
0
  6
Continuous
100
AcDbLine
 10
-680.763618
 20
-306.437456
 30
0.0
 11
-681.90248
 21
-303.879529
 31
0.0
  0
ARC
  5
3CC
100
AcDbEntity
  8
0
370
    -3
390
0
  6
Continuous
100
AcDbCircle
 10
-679.850072
 20
-306.03072
 30
0.0
 40
1.0
100
AcDbArc
 50
204.0
 51
294.0
  0
LINE
  5
3CD
100
AcDbEntity
  8
0
370
    -3
390
0
  6
Continuous
100
AcDbLine
 10
-620.570979
 20
-280.732603
 30
0.0
 11
-679.443336
 21
-306.944265
 31
0.0
  0
ARC
  5
3CE
100
AcDbEntity
  8
0
370
    -3
390
0
  6
Continuous
100
AcDbCircle
 10
-667.343217
 20
-302.651582
 30
0.0
 40
1.0
100
AcDbArc
 50
24.0
 51
114.0
  0
ARC
  5
3CF
100
AcDbEntity
  8
0
370
    -3
390
0
  6
Continuous
100
AcDbCircle
 10
-664.693614
 20
-301.226908
 30
0.0
 40
2.0
100
AcDbArc
 50
204.0
 51
265.768662
  0
LINE
  5
3D0
100
AcDbEntity
  8
0
370
    -3
390
0
  6
Continuous
100
AcDbLine
 10
-673.86328
 20
-300.300247
 30
0.0
 11
-675.429216
 21
-296.783097
 31
0.0
  0
LINE
  5
3D1
100
AcDbEntity
  8
0
370
    -3
390
0
  6
Continuous
100
AcDbLine
 10
-677.517462
 20
-301.927193
 30
0.0
 11
-679.083398
 21
-298.410043
 31
0.0
  0
LINE
  5
3D2
100
AcDbEntity
  8
0
370
    -3
390
0
  6
Continuous
100
AcDbLine
 10
-587.879374
 20
-256.856894
 30
0.0
 11
-662.070979
 21
-256.856894
 31
0.0
  0
LINE
  5
3D3
100
AcDbEntity
  8
0
370
    -3
390
0
  6
CENTER
100
AcDbLine
 10
-652.688455
 20
-280.856894
 30
0.0
 11
-675.556965
 21
-280.856894
 31
0.0
  0
ARC
  5
3D4
100
AcDbEntity
  8
0
370
    -3
390
0
  6
Continuous
100
AcDbCircle
 10
-675.756367
 20
-306.374398
 30
0.0
 40
1.299999
100
AcDbArc
 50
203.999982
 51
277.398452
  0
ARC
  5
3D5
100
AcDbEntity
  8
0
370
    -3
390
0
  6
Continuous
100
AcDbCircle
 10
-676.747886
 20
-298.738502
 30
0.0
 40
9.0
100
AcDbArc
 50
277.398452
 51
310.601531
  0
ARC
  5
3D6
100
AcDbEntity
  8
0
370
    -3
390
0
  6
Continuous
100
AcDbCircle
 10
-603.392083
 20
-289.604605
 30
0.0
 40
15.0
100
AcDbArc
 50
271.682769
 51
350.681877
  0
LINE
  5
3D7
100
AcDbEntity
  8
0
370
    -3
390
0
  6
Continuous
100
AcDbLine
 10
-651.570979
 20
-255.856894
 30
0.0
 11
-651.570979
 21
-256.856894
 31
0.0
  0
LINE
  5
3D8
100
AcDbEntity
  8
0
370
    -3
390
0
  6
Continuous
100
AcDbLine
 10
-589.570979
 20
-255.856894
 30
0.0
 11
-589.570979
 21
-256.856894
 31
0.0
  0
LINE
  5
3D9
100
AcDbEntity
  8
0
370
    -3
390
0
  6
Continuous
100
AcDbLine
 10
-651.570979
 20
-255.856894
 30
0.0
 11
-589.570979
 21
-255.856894
 31
0.0
  0
LINE
  5
3DA
100
AcDbEntity
  8
0
370
    -3
390
0
  6
CENTER
100
AcDbLine
 10
129.547946
 20
194.505244
 30
0.0
 11
-471.316588
 21
194.505244
 31
0.0
  0
LINE
  5
3DB
100
AcDbEntity
  8
0
370
    -3
390
0
  6
Continuous
100
AcDbLine
 10
-367.87199
 20
140.740671
 30
0.0
 11
-167.87199
 21
140.740671
 31
0.0
  0
LINE
  5
3DC
100
AcDbEntity
  8
0
370
    -3
390
0
  6
Continuous
100
AcDbLine
 10
-367.87199
 20
143.271582
 30
0.0
 11
-167.87199
 21
143.271582
 31
0.0
  0
LINE
  5
3DD
100
AcDbEntity
  8
0
370
    -3
390
0
  6
Continuous
100
AcDbLine
 10
-367.87199
 20
151.252994
 30
0.0
 11
-167.87199
 21
151.252994
 31
0.0
  0
LINE
  5
3DE
100
AcDbEntity
  8
0
370
    -3
390
0
  6
Continuous
100
AcDbLine
 10
-367.87199
 20
153.705116
 30
0.0
 11
-167.87199
 21
153.705116
 31
0.0
  0
LINE
  5
3DF
100
AcDbEntity
  8
0
370
    -3
390
0
  6
Continuous
100
AcDbLine
 10
-367.87199
 20
164.148467
 30
0.0
 11
-167.87199
 21
164.148467
 31
0.0
  0
LINE
  5
3E0
100
AcDbEntity
  8
0
370
    -3
390
0
  6
Continuous
100
AcDbLine
 10
-367.87199
 20
161.833368
 30
0.0
 11
-167.87199
 21
161.833368
 31
0.0
  0
LINE
  5
3E1
100
AcDbEntity
  8
0
370
    -3
390
0
  6
Continuous
100
AcDbLine
 10
-367.87199
 20
170.505244
 30
0.0
 11
-167.87199
 21
170.505244
 31
0.0
  0
LINE
  5
3E2
100
AcDbEntity
  8
0
370
    -3
390
0
  6
Continuous
100
AcDbLine
 10
-367.87199
 20
224.862021
 30
0.0
 11
-167.87199
 21
224.862021
 31
0.0
  0
LINE
  5
3E3
100
AcDbEntity
  8
0
370
    -3
390
0
  6
Continuous
100
AcDbLine
 10
-367.87199
 20
227.177119
 30
0.0
 11
-167.87199
 21
227.177119
 31
0.0
  0
LINE
  5
3E4
100
AcDbEntity
  8
0
370
    -3
390
0
  6
Continuous
100
AcDbLine
 10
-367.87199
 20
235.305372
 30
0.0
 11
-167.87199
 21
235.305372
 31
0.0
  0
LINE
  5
3E5
100
AcDbEntity
  8
0
370
    -3
390
0
  6
Continuous
100
AcDbLine
 10
-367.87199
 20
218.505244
 30
0.0
 11
-167.87199
 21
218.505244
 31
0.0
  0
LINE
  5
3E6
100
AcDbEntity
  8
0
370
    -3
390
0
  6
Continuous
100
AcDbLine
 10
-367.87199
 20
91.505244
 30
0.0
 11
-404.527089
 21
91.505244
 31
0.0
  0
LINE
  5
3E7
100
AcDbEntity
  8
0
370
    -3
390
0
  6
Continuous
100
AcDbLine
 10
-367.87199
 20
91.505244
 30
0.0
 11
-367.87199
 21
297.505244
 31
0.0
  0
LINE
  5
3E8
100
AcDbEntity
  8
0
370
    -3
390
0
  6
Continuous
100
AcDbLine
 10
-400.37199
 20
271.463024
 30
0.0
 11
-400.37199
 21
272.749122
 31
0.0
  0
LINE
  5
3E9
100
AcDbEntity
  8
0
370
    -3
390
0
  6
Continuous
100
AcDbLine
 10
-388.37199
 20
271.463024
 30
0.0
 11
-388.37199
 21
272.749122
 31
0.0
  0
LINE
  5
3EA
100
AcDbEntity
  8
0
370
    -3
390
0
  6
Continuous
100
AcDbLine
 10
-400.289246
 20
273.434151
 30
0.0
 11
-400.37199
 21
272.749122
 31
0.0
  0
LINE
  5
3EB
100
AcDbEntity
  8
0
370
    -3
390
0
  6
Continuous
100
AcDbLine
 10
-400.043297
 20
274.100286
 30
0.0
 11
-400.289246
 21
273.434151
 31
0.0
  0
LINE
  5
3EC
100
AcDbEntity
  8
0
370
    -3
390
0
  6
Continuous
100
AcDbLine
 10
-399.640926
 20
274.729155
 30
0.0
 11
-400.043297
 21
274.100286
 31
0.0
  0
LINE
  5
3ED
100
AcDbEntity
  8
0
370
    -3
390
0
  6
Continuous
100
AcDbLine
 10
-399.093231
 20
275.303412
 30
0.0
 11
-399.640926
 21
274.729155
 31
0.0
  0
LINE
  5
3EE
100
AcDbEntity
  8
0
370
    -3
390
0
  6
Continuous
100
AcDbLine
 10
-398.415318
 20
275.807218
 30
0.0
 11
-399.093231
 21
275.303412
 31
0.0
  0
LINE
  5
3EF
100
AcDbEntity
  8
0
370
    -3
390
0
  6
Continuous
100
AcDbLine
 10
-388.487278
 20
270.635326
 30
0.0
 11
-388.37199
 21
271.463024
 31
0.0
  0
LINE
  5
3F0
100
AcDbEntity
  8
0
370
    -3
390
0
  6
Continuous
100
AcDbLine
 10
-388.828713
 20
269.839436
 30
0.0
 11
-388.487278
 21
270.635326
 31
0.0
  0
LINE
  5
3F1
100
AcDbEntity
  8
0
370
    -3
390
0
  6
Continuous
100
AcDbLine
 10
-389.383172
 20
269.105939
 30
0.0
 11
-388.828713
 21
269.839436
 31
0.0
  0
LINE
  5
3F2
100
AcDbEntity
  8
0
370
    -3
390
0
  6
Continuous
100
AcDbLine
 10
-390.129349
 20
268.463024
 30
0.0
 11
-389.383172
 21
269.105939
 31
0.0
  0
LINE
  5
3F3
100
AcDbEntity
  8
0
370
    -3
390
0
  6
Continuous
100
AcDbLine
 10
-391.038568
 20
267.935397
 30
0.0
 11
-390.129349
 21
268.463024
 31
0.0
  0
LINE
  5
3F4
100
AcDbEntity
  8
0
370
    -3
390
0
  6
Continuous
100
AcDbLine
 10
-392.075889
 20
267.543335
 30
0.0
 11
-391.038568
 21
267.935397
 31
0.0
  0
LINE
  5
3F5
100
AcDbEntity
  8
0
370
    -3
390
0
  6
Continuous
100
AcDbLine
 10
-393.201448
 20
267.301905
 30
0.0
 11
-392.075889
 21
267.543335
 31
0.0
  0
LINE
  5
3F6
100
AcDbEntity
  8
0
370
    -3
390
0
  6
Continuous
100
AcDbLine
 10
-394.37199
 20
267.220384
 30
0.0
 11
-393.201448
 21
267.301905
 31
0.0
  0
LINE
  5
3F7
100
AcDbEntity
  8
0
370
    -3
390
0
  6
Continuous
100
AcDbLine
 10
-395.542532
 20
267.301905
 30
0.0
 11
-394.37199
 21
267.220384
 31
0.0
  0
LINE
  5
3F8
100
AcDbEntity
  8
0
370
    -3
390
0
  6
Continuous
100
AcDbLine
 10
-396.66809
 20
267.543335
 30
0.0
 11
-395.542532
 21
267.301905
 31
0.0
  0
LINE
  5
3F9
100
AcDbEntity
  8
0
370
    -3
390
0
  6
Continuous
100
AcDbLine
 10
-397.705411
 20
267.935397
 30
0.0
 11
-396.66809
 21
267.543335
 31
0.0
  0
LINE
  5
3FA
100
AcDbEntity
  8
0
370
    -3
390
0
  6
Continuous
100
AcDbLine
 10
-398.614631
 20
268.463024
 30
0.0
 11
-397.705411
 21
267.935397
 31
0.0
  0
LINE
  5
3FB
100
AcDbEntity
  8
0
370
    -3
390
0
  6
Continuous
100
AcDbLine
 10
-399.360808
 20
269.105939
 30
0.0
 11
-398.614631
 21
268.463024
 31
0.0
  0
LINE
  5
3FC
100
AcDbEntity
  8
0
370
    -3
390
0
  6
Continuous
100
AcDbLine
 10
-399.915267
 20
269.839436
 30
0.0
 11
-399.360808
 21
269.105939
 31
0.0
  0
LINE
  5
3FD
100
AcDbEntity
  8
0
370
    -3
390
0
  6
Continuous
100
AcDbLine
 10
-400.256702
 20
270.635326
 30
0.0
 11
-399.915267
 21
269.839436
 31
0.0
  0
LINE
  5
3FE
100
AcDbEntity
  8
0
370
    -3
390
0
  6
Continuous
100
AcDbLine
 10
-400.37199
 20
271.463024
 30
0.0
 11
-400.256702
 21
270.635326
 31
0.0
  0
LINE
  5
3FF
100
AcDbEntity
  8
0
370
    -3
390
0
  6
Continuous
100
AcDbLine
 10
-399.37199
 20
273.135518
 30
0.0
 11
-399.37199
 21
273.418361
 31
0.0
  0
LINE
  5
400
100
AcDbEntity
  8
0
370
    -3
390
0
  6
Continuous
100
AcDbLine
 10
-389.37199
 20
273.135518
 30
0.0
 11
-389.37199
 21
273.418361
 31
0.0
  0
LINE
  5
401
100
AcDbEntity
  8
0
370
    -3
390
0
  6
Continuous
100
AcDbLine
 10
-389.655302
 20
274.591572
 30
0.0
 11
-390.055812
 21
275.203103
 31
0.0
  0
LINE
  5
402
100
AcDbEntity
  8
0
370
    -3
390
0
  6
Continuous
100
AcDbLine
 10
-389.426167
 20
273.937414
 30
0.0
 11
-389.655302
 21
274.591572
 31
0.0
  0
LINE
  5
403
100
AcDbEntity
  8
0
370
    -3
390
0
  6
Continuous
100
AcDbLine
 10
-389.376733
 20
273.264397
 30
0.0
 11
-389.426167
 21
273.937414
 31
0.0
  0
LINE
  5
404
100
AcDbEntity
  8
0
370
    -3
390
0
  6
Continuous
100
AcDbLine
 10
-389.508797
 20
272.596974
 30
0.0
 11
-389.376733
 21
273.264397
 31
0.0
  0
LINE
  5
405
100
AcDbEntity
  8
0
370
    -3
390
0
  6
Continuous
100
AcDbLine
 10
-389.817559
 20
271.959395
 30
0.0
 11
-389.508797
 21
272.596974
 31
0.0
  0
LINE
  5
406
100
AcDbEntity
  8
0
370
    -3
390
0
  6
Continuous
100
AcDbLine
 10
-390.291802
 20
271.374826
 30
0.0
 11
-389.817559
 21
271.959395
 31
0.0
  0
LINE
  5
407
100
AcDbEntity
  8
0
370
    -3
390
0
  6
Continuous
100
AcDbLine
 10
-390.914295
 20
270.864506
 30
0.0
 11
-390.291802
 21
271.374826
 31
0.0
  0
LINE
  5
408
100
AcDbEntity
  8
0
370
    -3
390
0
  6
Continuous
100
AcDbLine
 10
-391.662419
 20
270.446978
 30
0.0
 11
-390.914295
 21
270.864506
 31
0.0
  0
LINE
  5
409
100
AcDbEntity
  8
0
370
    -3
390
0
  6
Continuous
100
AcDbLine
 10
-392.508992
 20
270.137413
 30
0.0
 11
-391.662419
 21
270.446978
 31
0.0
  0
LINE
  5
40A
100
AcDbEntity
  8
0
370
    -3
390
0
  6
Continuous
100
AcDbLine
 10
-393.423255
 20
269.947057
 30
0.0
 11
-392.508992
 21
270.137413
 31
0.0
  0
LINE
  5
40B
100
AcDbEntity
  8
0
370
    -3
390
0
  6
Continuous
100
AcDbLine
 10
-394.37199
 20
269.882827
 30
0.0
 11
-393.423255
 21
269.947057
 31
0.0
  0
LINE
  5
40C
100
AcDbEntity
  8
0
370
    -3
390
0
  6
Continuous
100
AcDbLine
 10
-395.320724
 20
269.947057
 30
0.0
 11
-394.37199
 21
269.882827
 31
0.0
  0
LINE
  5
40D
100
AcDbEntity
  8
0
370
    -3
390
0
  6
Continuous
100
AcDbLine
 10
-396.234988
 20
270.137413
 30
0.0
 11
-395.320724
 21
269.947057
 31
0.0
  0
LINE
  5
40E
100
AcDbEntity
  8
0
370
    -3
390
0
  6
Continuous
100
AcDbLine
 10
-397.081561
 20
270.446978
 30
0.0
 11
-396.234988
 21
270.137413
 31
0.0
  0
LINE
  5
40F
100
AcDbEntity
  8
0
370
    -3
390
0
  6
Continuous
100
AcDbLine
 10
-397.829685
 20
270.864506
 30
0.0
 11
-397.081561
 21
270.446978
 31
0.0
  0
LINE
  5
410
100
AcDbEntity
  8
0
370
    -3
390
0
  6
Continuous
100
AcDbLine
 10
-398.452177
 20
271.374826
 30
0.0
 11
-397.829685
 21
270.864506
 31
0.0
  0
LINE
  5
411
100
AcDbEntity
  8
0
370
    -3
390
0
  6
Continuous
100
AcDbLine
 10
-398.92642
 20
271.959395
 30
0.0
 11
-398.452177
 21
271.374826
 31
0.0
  0
LINE
  5
412
100
AcDbEntity
  8
0
370
    -3
390
0
  6
Continuous
100
AcDbLine
 10
-399.235183
 20
272.596974
 30
0.0
 11
-398.92642
 21
271.959395
 31
0.0
  0
LINE
  5
413
100
AcDbEntity
  8
0
370
    -3
390
0
  6
Continuous
100
AcDbLine
 10
-399.367247
 20
273.264397
 30
0.0
 11
-399.235183
 21
272.596974
 31
0.0
  0
LINE
  5
414
100
AcDbEntity
  8
0
370
    -3
390
0
  6
Continuous
100
AcDbLine
 10
-399.317813
 20
273.937414
 30
0.0
 11
-399.367247
 21
273.264397
 31
0.0
  0
LINE
  5
415
100
AcDbEntity
  8
0
370
    -3
390
0
  6
Continuous
100
AcDbLine
 10
-399.088678
 20
274.591572
 30
0.0
 11
-399.317813
 21
273.937414
 31
0.0
  0
LINE
  5
416
100
AcDbEntity
  8
0
370
    -3
390
0
  6
Continuous
100
AcDbLine
 10
-398.688167
 20
275.203103
 30
0.0
 11
-399.088678
 21
274.591572
 31
0.0
  0
LINE
  5
417
100
AcDbEntity
  8
0
370
    -3
390
0
  6
Continuous
100
AcDbLine
 10
-389.468063
 20
272.390589
 30
0.0
 11
-389.37199
 21
273.135518
 31
0.0
  0
LINE
  5
418
100
AcDbEntity
  8
0
370
    -3
390
0
  6
Continuous
100
AcDbLine
 10
-389.752592
 20
271.674288
 30
0.0
 11
-389.468063
 21
272.390589
 31
0.0
  0
LINE
  5
419
100
AcDbEntity
  8
0
370
    -3
390
0
  6
Continuous
100
AcDbLine
 10
-390.214642
 20
271.014141
 30
0.0
 11
-389.752592
 21
271.674288
 31
0.0
  0
LINE
  5
41A
100
AcDbEntity
  8
0
370
    -3
390
0
  6
Continuous
100
AcDbLine
 10
-390.836456
 20
270.435518
 30
0.0
 11
-390.214642
 21
271.014141
 31
0.0
  0
LINE
  5
41B
100
AcDbEntity
  8
0
370
    -3
390
0
  6
Continuous
100
AcDbLine
 10
-391.594139
 20
269.960654
 30
0.0
 11
-390.836456
 21
270.435518
 31
0.0
  0
LINE
  5
41C
100
AcDbEntity
  8
0
370
    -3
390
0
  6
Continuous
100
AcDbLine
 10
-392.458573
 20
269.607798
 30
0.0
 11
-391.594139
 21
269.960654
 31
0.0
  0
LINE
  5
41D
100
AcDbEntity
  8
0
370
    -3
390
0
  6
Continuous
100
AcDbLine
 10
-393.396538
 20
269.39051
 30
0.0
 11
-392.458573
 21
269.607798
 31
0.0
  0
LINE
  5
41E
100
AcDbEntity
  8
0
370
    -3
390
0
  6
Continuous
100
AcDbLine
 10
-394.37199
 20
269.317141
 30
0.0
 11
-393.396538
 21
269.39051
 31
0.0
  0
LINE
  5
41F
100
AcDbEntity
  8
0
370
    -3
390
0
  6
Continuous
100
AcDbLine
 10
-395.347441
 20
269.39051
 30
0.0
 11
-394.37199
 21
269.317141
 31
0.0
  0
LINE
  5
420
100
AcDbEntity
  8
0
370
    -3
390
0
  6
Continuous
100
AcDbLine
 10
-396.285407
 20
269.607798
 30
0.0
 11
-395.347441
 21
269.39051
 31
0.0
  0
LINE
  5
421
100
AcDbEntity
  8
0
370
    -3
390
0
  6
Continuous
100
AcDbLine
 10
-397.149841
 20
269.960654
 30
0.0
 11
-396.285407
 21
269.607798
 31
0.0
  0
LINE
  5
422
100
AcDbEntity
  8
0
370
    -3
390
0
  6
Continuous
100
AcDbLine
 10
-397.907524
 20
270.435518
 30
0.0
 11
-397.149841
 21
269.960654
 31
0.0
  0
LINE
  5
423
100
AcDbEntity
  8
0
370
    -3
390
0
  6
Continuous
100
AcDbLine
 10
-398.529338
 20
271.014141
 30
0.0
 11
-397.907524
 21
270.435518
 31
0.0
  0
LINE
  5
424
100
AcDbEntity
  8
0
370
    -3
390
0
  6
Continuous
100
AcDbLine
 10
-398.991388
 20
271.674288
 30
0.0
 11
-398.529338
 21
271.014141
 31
0.0
  0
LINE
  5
425
100
AcDbEntity
  8
0
370
    -3
390
0
  6
Continuous
100
AcDbLine
 10
-399.275916
 20
272.390589
 30
0.0
 11
-398.991388
 21
271.674288
 31
0.0
  0
LINE
  5
426
100
AcDbEntity
  8
0
370
    -3
390
0
  6
Continuous
100
AcDbLine
 10
-399.37199
 20
273.135518
 30
0.0
 11
-399.275916
 21
272.390589
 31
0.0
  0
LINE
  5
427
100
AcDbEntity
  8
0
370
    -3
390
0
  6
Continuous
100
AcDbLine
 10
-389.958456
 20
273.352582
 30
0.0
 11
-389.87199
 21
274.107873
 31
0.0
  0
LINE
  5
428
100
AcDbEntity
  8
0
370
    -3
390
0
  6
Continuous
100
AcDbLine
 10
-390.214532
 20
272.626317
 30
0.0
 11
-389.958456
 21
273.352582
 31
0.0
  0
LINE
  5
429
100
AcDbEntity
  8
0
370
    -3
390
0
  6
Continuous
100
AcDbLine
 10
-390.630377
 20
271.956987
 30
0.0
 11
-390.214532
 21
272.626317
 31
0.0
  0
LINE
  5
42A
100
AcDbEntity
  8
0
370
    -3
390
0
  6
Continuous
100
AcDbLine
 10
-391.190009
 20
271.370314
 30
0.0
 11
-390.630377
 21
271.956987
 31
0.0
  0
LINE
  5
42B
100
AcDbEntity
  8
0
370
    -3
390
0
  6
Continuous
100
AcDbLine
 10
-391.871924
 20
270.888844
 30
0.0
 11
-391.190009
 21
271.370314
 31
0.0
  0
LINE
  5
42C
100
AcDbEntity
  8
0
370
    -3
390
0
  6
Continuous
100
AcDbLine
 10
-392.649914
 20
270.53108
 30
0.0
 11
-391.871924
 21
270.888844
 31
0.0
  0
LINE
  5
42D
100
AcDbEntity
  8
0
370
    -3
390
0
  6
Continuous
100
AcDbLine
 10
-393.494083
 20
270.31077
 30
0.0
 11
-392.649914
 21
270.53108
 31
0.0
  0
LINE
  5
42E
100
AcDbEntity
  8
0
370
    -3
390
0
  6
Continuous
100
AcDbLine
 10
-394.37199
 20
270.23638
 30
0.0
 11
-393.494083
 21
270.31077
 31
0.0
  0
LINE
  5
42F
100
AcDbEntity
  8
0
370
    -3
390
0
  6
Continuous
100
AcDbLine
 10
-395.249896
 20
270.31077
 30
0.0
 11
-394.37199
 21
270.23638
 31
0.0
  0
LINE
  5
430
100
AcDbEntity
  8
0
370
    -3
390
0
  6
Continuous
100
AcDbLine
 10
-396.094065
 20
270.53108
 30
0.0
 11
-395.249896
 21
270.31077
 31
0.0
  0
LINE
  5
431
100
AcDbEntity
  8
0
370
    -3
390
0
  6
Continuous
100
AcDbLine
 10
-396.872056
 20
270.888844
 30
0.0
 11
-396.094065
 21
270.53108
 31
0.0
  0
LINE
  5
432
100
AcDbEntity
  8
0
370
    -3
390
0
  6
Continuous
100
AcDbLine
 10
-397.55397
 20
271.370314
 30
0.0
 11
-396.872056
 21
270.888844
 31
0.0
  0
LINE
  5
433
100
AcDbEntity
  8
0
370
    -3
390
0
  6
Continuous
100
AcDbLine
 10
-398.113603
 20
271.956987
 30
0.0
 11
-397.55397
 21
271.370314
 31
0.0
  0
LINE
  5
434
100
AcDbEntity
  8
0
370
    -3
390
0
  6
Continuous
100
AcDbLine
 10
-398.529448
 20
272.626317
 30
0.0
 11
-398.113603
 21
271.956987
 31
0.0
  0
LINE
  5
435
100
AcDbEntity
  8
0
370
    -3
390
0
  6
Continuous
100
AcDbLine
 10
-398.785524
 20
273.352582
 30
0.0
 11
-398.529448
 21
272.626317
 31
0.0
  0
LINE
  5
436
100
AcDbEntity
  8
0
370
    -3
390
0
  6
Continuous
100
AcDbLine
 10
-398.87199
 20
274.107873
 30
0.0
 11
-398.785524
 21
273.352582
 31
0.0
  0
LINE
  5
437
100
AcDbEntity
  8
0
370
    -3
390
0
  6
Continuous
100
AcDbLine
 10
-398.785524
 20
274.863164
 30
0.0
 11
-398.87199
 21
274.107873
 31
0.0
  0
LINE
  5
438
100
AcDbEntity
  8
0
370
    -3
390
0
  6
Continuous
100
AcDbLine
 10
-398.529448
 20
275.589429
 30
0.0
 11
-398.785524
 21
274.863164
 31
0.0
  0
LINE
  5
439
100
AcDbEntity
  8
0
370
    -3
390
0
  6
Continuous
100
AcDbLine
 10
-398.113603
 20
276.258759
 30
0.0
 11
-398.529448
 21
275.589429
 31
0.0
  0
LINE
  5
43A
100
AcDbEntity
  8
0
370
    -3
390
0
  6
Continuous
100
AcDbLine
 10
-397.55397
 20
276.845432
 30
0.0
 11
-398.113603
 21
276.258759
 31
0.0
  0
LINE
  5
43B
100
AcDbEntity
  8
0
370
    -3
390
0
  6
Continuous
100
AcDbLine
 10
-396.872056
 20
277.326901
 30
0.0
 11
-397.55397
 21
276.845432
 31
0.0
  0
LINE
  5
43C
100
AcDbEntity
  8
0
370
    -3
390
0
  6
Continuous
100
AcDbLine
 10
-396.094065
 20
277.684666
 30
0.0
 11
-396.872056
 21
277.326901
 31
0.0
  0
LINE
  5
43D
100
AcDbEntity
  8
0
370
    -3
390
0
  6
Continuous
100
AcDbLine
 10
-395.249896
 20
277.904976
 30
0.0
 11
-396.094065
 21
277.684666
 31
0.0
  0
LINE
  5
43E
100
AcDbEntity
  8
0
370
    -3
390
0
  6
Continuous
100
AcDbLine
 10
-394.37199
 20
277.979366
 30
0.0
 11
-395.249896
 21
277.904976
 31
0.0
  0
LINE
  5
43F
100
AcDbEntity
  8
0
370
    -3
390
0
  6
Continuous
100
AcDbLine
 10
-393.494083
 20
277.904976
 30
0.0
 11
-394.37199
 21
277.979366
 31
0.0
  0
LINE
  5
440
100
AcDbEntity
  8
0
370
    -3
390
0
  6
Continuous
100
AcDbLine
 10
-392.649914
 20
277.684666
 30
0.0
 11
-393.494083
 21
277.904976
 31
0.0
  0
LINE
  5
441
100
AcDbEntity
  8
0
370
    -3
390
0
  6
Continuous
100
AcDbLine
 10
-391.871924
 20
277.326901
 30
0.0
 11
-392.649914
 21
277.684666
 31
0.0
  0
LINE
  5
442
100
AcDbEntity
  8
0
370
    -3
390
0
  6
Continuous
100
AcDbLine
 10
-391.190009
 20
276.845432
 30
0.0
 11
-391.871924
 21
277.326901
 31
0.0
  0
LINE
  5
443
100
AcDbEntity
  8
0
370
    -3
390
0
  6
Continuous
100
AcDbLine
 10
-390.630377
 20
276.258759
 30
0.0
 11
-391.190009
 21
276.845432
 31
0.0
  0
LINE
  5
444
100
AcDbEntity
  8
0
370
    -3
390
0
  6
Continuous
100
AcDbLine
 10
-390.214532
 20
275.589429
 30
0.0
 11
-390.630377
 21
276.258759
 31
0.0
  0
LINE
  5
445
100
AcDbEntity
  8
0
370
    -3
390
0
  6
Continuous
100
AcDbLine
 10
-389.958456
 20
274.863164
 30
0.0
 11
-390.214532
 21
275.589429
 31
0.0
  0
LINE
  5
446
100
AcDbEntity
  8
0
370
    -3
390
0
  6
Continuous
100
AcDbLine
 10
-389.87199
 20
274.107873
 30
0.0
 11
-389.958456
 21
274.863164
 31
0.0
  0
LINE
  5
447
100
AcDbEntity
  8
0
370
    -3
390
0
  6
Continuous
100
AcDbLine
 10
-389.650749
 20
275.303412
 30
0.0
 11
-390.328662
 21
275.807218
 31
0.0
  0
LINE
  5
448
100
AcDbEntity
  8
0
370
    -3
390
0
  6
Continuous
100
AcDbLine
 10
-389.103054
 20
274.729155
 30
0.0
 11
-389.650749
 21
275.303412
 31
0.0
  0
LINE
  5
449
100
AcDbEntity
  8
0
370
    -3
390
0
  6
Continuous
100
AcDbLine
 10
-388.700683
 20
274.100286
 30
0.0
 11
-389.103054
 21
274.729155
 31
0.0
  0
LINE
  5
44A
100
AcDbEntity
  8
0
370
    -3
390
0
  6
Continuous
100
AcDbLine
 10
-388.454734
 20
273.434151
 30
0.0
 11
-388.700683
 21
274.100286
 31
0.0
  0
LINE
  5
44B
100
AcDbEntity
  8
0
370
    -3
390
0
  6
Continuous
100
AcDbLine
 10
-388.37199
 20
272.749122
 30
0.0
 11
-388.454734
 21
273.434151
 31
0.0
  0
LINE
  5
44C
100
AcDbEntity
  8
0
370
    -3
390
0
  6
Continuous
100
AcDbLine
 10
-388.487278
 20
271.941626
 30
0.0
 11
-388.37199
 21
272.749122
 31
0.0
  0
LINE
  5
44D
100
AcDbEntity
  8
0
370
    -3
390
0
  6
Continuous
100
AcDbLine
 10
-388.828713
 20
271.165161
 30
0.0
 11
-388.487278
 21
271.941626
 31
0.0
  0
LINE
  5
44E
100
AcDbEntity
  8
0
370
    -3
390
0
  6
Continuous
100
AcDbLine
 10
-389.383172
 20
270.449568
 30
0.0
 11
-388.828713
 21
271.165161
 31
0.0
  0
LINE
  5
44F
100
AcDbEntity
  8
0
370
    -3
390
0
  6
Continuous
100
AcDbLine
 10
-390.129349
 20
269.822345
 30
0.0
 11
-389.383172
 21
270.449568
 31
0.0
  0
LINE
  5
450
100
AcDbEntity
  8
0
370
    -3
390
0
  6
Continuous
100
AcDbLine
 10
-391.038568
 20
269.307596
 30
0.0
 11
-390.129349
 21
269.822345
 31
0.0
  0
LINE
  5
451
100
AcDbEntity
  8
0
370
    -3
390
0
  6
Continuous
100
AcDbLine
 10
-392.075889
 20
268.925104
 30
0.0
 11
-391.038568
 21
269.307596
 31
0.0
  0
LINE
  5
452
100
AcDbEntity
  8
0
370
    -3
390
0
  6
Continuous
100
AcDbLine
 10
-393.201448
 20
268.689566
 30
0.0
 11
-392.075889
 21
268.925104
 31
0.0
  0
LINE
  5
453
100
AcDbEntity
  8
0
370
    -3
390
0
  6
Continuous
100
AcDbLine
 10
-394.37199
 20
268.610034
 30
0.0
 11
-393.201448
 21
268.689566
 31
0.0
  0
LINE
  5
454
100
AcDbEntity
  8
0
370
    -3
390
0
  6
Continuous
100
AcDbLine
 10
-395.542532
 20
268.689566
 30
0.0
 11
-394.37199
 21
268.610034
 31
0.0
  0
LINE
  5
455
100
AcDbEntity
  8
0
370
    -3
390
0
  6
Continuous
100
AcDbLine
 10
-396.66809
 20
268.925104
 30
0.0
 11
-395.542532
 21
268.689566
 31
0.0
  0
LINE
  5
456
100
AcDbEntity
  8
0
370
    -3
390
0
  6
Continuous
100
AcDbLine
 10
-397.705411
 20
269.307596
 30
0.0
 11
-396.66809
 21
268.925104
 31
0.0
  0
LINE
  5
457
100
AcDbEntity
  8
0
370
    -3
390
0
  6
Continuous
100
AcDbLine
 10
-398.614631
 20
269.822345
 30
0.0
 11
-397.705411
 21
269.307596
 31
0.0
  0
LINE
  5
458
100
AcDbEntity
  8
0
370
    -3
390
0
  6
Continuous
100
AcDbLine
 10
-399.360808
 20
270.449568
 30
0.0
 11
-398.614631
 21
269.822345
 31
0.0
  0
LINE
  5
459
100
AcDbEntity
  8
0
370
    -3
390
0
  6
Continuous
100
AcDbLine
 10
-399.915267
 20
271.165161
 30
0.0
 11
-399.360808
 21
270.449568
 31
0.0
  0
LINE
  5
45A
100
AcDbEntity
  8
0
370
    -3
390
0
  6
Continuous
100
AcDbLine
 10
-400.256702
 20
271.941626
 30
0.0
 11
-399.915267
 21
271.165161
 31
0.0
  0
LINE
  5
45B
100
AcDbEntity
  8
0
370
    -3
390
0
  6
Continuous
100
AcDbLine
 10
-400.37199
 20
272.749122
 30
0.0
 11
-400.256702
 21
271.941626
 31
0.0
  0
LINE
  5
45C
100
AcDbEntity
  8
0
370
    -3
390
0
  6
Continuous
100
AcDbLine
 10
-394.37199
 20
275.751814
 30
0.0
 11
-396.37199
 21
277.047346
 31
0.0
  0
LINE
  5
45D
100
AcDbEntity
  8
0
370
    -3
390
0
  6
Continuous
100
AcDbLine
 10
-394.37199
 20
275.751814
 30
0.0
 11
-396.37199
 21
274.218919
 31
0.0
  0
LINE
  5
45E
100
AcDbEntity
  8
0
370
    -3
390
0
  6
Continuous
100
AcDbLine
 10
-394.37199
 20
275.751814
 30
0.0
 11
-392.37199
 21
274.218919
 31
0.0
  0
LINE
  5
45F
100
AcDbEntity
  8
0
370
    -3
390
0
  6
Continuous
100
AcDbLine
 10
-394.37199
 20
275.751814
 30
0.0
 11
-392.37199
 21
277.047346
 31
0.0
  0
ARC
  5
460
100
AcDbEntity
  8
0
370
    -3
390
0
  6
Continuous
100
AcDbCircle
 10
-445.87199
 20
111.712503
 30
0.0
 40
5.0
100
AcDbArc
 50
180.0
 51
240.0
  0
ARC
  5
461
100
AcDbEntity
  8
0
370
    -3
390
0
  6
Continuous
100
AcDbCircle
 10
-404.527089
 20
152.505244
 30
0.0
 40
61.0
100
AcDbArc
 50
240.0
 51
270.0
  0
LINE
  5
462
100
AcDbEntity
  8
0
370
    -3
390
0
  6
Continuous
100
AcDbLine
 10
-448.37199
 20
107.382376
 30
0.0
 11
-435.027089
 21
99.677694
 31
0.0
  0
LINE
  5
463
100
AcDbEntity
  8
0
370
    -3
390
0
  6
Continuous
100
AcDbLine
 10
-450.87199
 20
111.712503
 30
0.0
 11
-450.87199
 21
194.505244
 31
0.0
  0
ARC
  5
464
100
AcDbEntity
  8
0
370
    -3
390
0
  6
Continuous
100
AcDbCircle
 10
-445.87199
 20
277.297984
 30
0.0
 40
5.0
100
AcDbArc
 50
120.0
 51
180.0
  0
LINE
  5
465
100
AcDbEntity
  8
0
370
    -3
390
0
  6
Continuous
100
AcDbLine
 10
-367.87199
 20
297.505244
 30
0.0
 11
-404.527089
 21
297.505244
 31
0.0
  0
ARC
  5
466
100
AcDbEntity
  8
0
370
    -3
390
0
  6
Continuous
100
AcDbCircle
 10
-404.527089
 20
236.505244
 30
0.0
 40
61.0
100
AcDbArc
 50
90.0
 51
120.0
  0
LINE
  5
467
100
AcDbEntity
  8
0
370
    -3
390
0
  6
Continuous
100
AcDbLine
 10
-448.37199
 20
281.628111
 30
0.0
 11
-435.027089
 21
289.332793
 31
0.0
  0
LINE
  5
468
100
AcDbEntity
  8
0
370
    -3
390
0
  6
Continuous
100
AcDbLine
 10
-450.87199
 20
277.297984
 30
0.0
 11
-450.87199
 21
194.505244
 31
0.0
  0
LINE
  5
469
100
AcDbEntity
  8
0
370
    -3
390
0
  6
Continuous
100
AcDbLine
 10
-367.87199
 20
291.505244
 30
0.0
 11
-167.87199
 21
291.505244
 31
0.0
  0
LINE
  5
46A
100
AcDbEntity
  8
0
370
    -3
390
0
  6
Continuous
100
AcDbLine
 10
-367.87199
 20
294.505244
 30
0.0
 11
-167.87199
 21
294.505244
 31
0.0
  0
LINE
  5
46B
100
AcDbEntity
  8
0
370
    -3
390
0
  6
Continuous
100
AcDbLine
 10
-367.87199
 20
290.005244
 30
0.0
 11
-167.87199
 21
290.005244
 31
0.0
  0
LINE
  5
46C
100
AcDbEntity
  8
0
370
    -3
390
0
  6
Continuous
100
AcDbLine
 10
-367.87199
 20
287.505244
 30
0.0
 11
-167.87199
 21
287.505244
 31
0.0
  0
LINE
  5
46D
100
AcDbEntity
  8
0
370
    -3
390
0
  6
Continuous
100
AcDbLine
 10
-367.87199
 20
283.505244
 30
0.0
 11
-167.87199
 21
283.505244
 31
0.0
  0
LINE
  5
46E
100
AcDbEntity
  8
0
370
    -3
390
0
  6
Continuous
100
AcDbLine
 10
-367.87199
 20
271.674967
 30
0.0
 11
-167.87199
 21
271.674967
 31
0.0
  0
LINE
  5
46F
100
AcDbEntity
  8
0
370
    -3
390
0
  6
Continuous
100
AcDbLine
 10
-367.87199
 20
263.189685
 30
0.0
 11
-167.87199
 21
263.189685
 31
0.0
  0
LINE
  5
470
100
AcDbEntity
  8
0
370
    -3
390
0
  6
Continuous
100
AcDbLine
 10
-367.87199
 20
248.269816
 30
0.0
 11
-167.87199
 21
248.269816
 31
0.0
  0
LINE
  5
471
100
AcDbEntity
  8
0
370
    -3
390
0
  6
Continuous
100
AcDbLine
 10
-367.87199
 20
245.738905
 30
0.0
 11
-167.87199
 21
245.738905
 31
0.0
  0
LINE
  5
472
100
AcDbEntity
  8
0
370
    -3
390
0
  6
Continuous
100
AcDbLine
 10
-367.87199
 20
237.757493
 30
0.0
 11
-167.87199
 21
237.757493
 31
0.0
  0
LINE
  5
473
100
AcDbEntity
  8
0
370
    -3
390
0
  6
Continuous
100
AcDbLine
 10
-367.87199
 20
97.505244
 30
0.0
 11
-167.87199
 21
97.505244
 31
0.0
  0
LINE
  5
474
100
AcDbEntity
  8
0
370
    -3
390
0
  6
Continuous
100
AcDbLine
 10
-367.87199
 20
99.005244
 30
0.0
 11
-167.87199
 21
99.005244
 31
0.0
  0
LINE
  5
475
100
AcDbEntity
  8
0
370
    -3
390
0
  6
Continuous
100
AcDbLine
 10
-367.87199
 20
101.505244
 30
0.0
 11
-167.87199
 21
101.505244
 31
0.0
  0
LINE
  5
476
100
AcDbEntity
  8
0
370
    -3
390
0
  6
Continuous
100
AcDbLine
 10
-367.87199
 20
105.505244
 30
0.0
 11
-167.87199
 21
105.505244
 31
0.0
  0
LINE
  5
477
100
AcDbEntity
  8
0
370
    -3
390
0
  6
Continuous
100
AcDbLine
 10
-367.87199
 20
117.33552
 30
0.0
 11
-167.87199
 21
117.33552
 31
0.0
  0
LINE
  5
478
100
AcDbEntity
  8
0
370
    -3
390
0
  6
Continuous
100
AcDbLine
 10
-367.87199
 20
125.820802
 30
0.0
 11
-167.87199
 21
125.820802
 31
0.0
  0
LINE
  5
479
100
AcDbEntity
  8
0
370
    -3
390
0
  6
Continuous
100
AcDbLine
 10
-167.87199
 20
94.505244
 30
0.0
 11
-167.87199
 21
294.505244
 31
0.0
  0
LINE
  5
47A
100
AcDbEntity
  8
0
370
    -3
390
0
  6
Continuous
100
AcDbLine
 10
-367.87199
 20
94.505244
 30
0.0
 11
-167.87199
 21
94.505244
 31
0.0
  0
LINE
  5
47B
100
AcDbEntity
  8
0
370
    -3
390
0
  6
Continuous
100
AcDbLine
 10
-400.37199
 20
117.547463
 30
0.0
 11
-400.37199
 21
116.261366
 31
0.0
  0
LINE
  5
47C
100
AcDbEntity
  8
0
370
    -3
390
0
  6
Continuous
100
AcDbLine
 10
-388.37199
 20
117.547463
 30
0.0
 11
-388.37199
 21
116.261366
 31
0.0
  0
LINE
  5
47D
100
AcDbEntity
  8
0
370
    -3
390
0
  6
Continuous
100
AcDbLine
 10
-399.093231
 20
113.707076
 30
0.0
 11
-398.415318
 21
113.203269
 31
0.0
  0
LINE
  5
47E
100
AcDbEntity
  8
0
370
    -3
390
0
  6
Continuous
100
AcDbLine
 10
-399.640926
 20
114.281332
 30
0.0
 11
-399.093231
 21
113.707076
 31
0.0
  0
LINE
  5
47F
100
AcDbEntity
  8
0
370
    -3
390
0
  6
Continuous
100
AcDbLine
 10
-400.043297
 20
114.910201
 30
0.0
 11
-399.640926
 21
114.281332
 31
0.0
  0
LINE
  5
480
100
AcDbEntity
  8
0
370
    -3
390
0
  6
Continuous
100
AcDbLine
 10
-400.289246
 20
115.576336
 30
0.0
 11
-400.043297
 21
114.910201
 31
0.0
  0
LINE
  5
481
100
AcDbEntity
  8
0
370
    -3
390
0
  6
Continuous
100
AcDbLine
 10
-400.37199
 20
116.261366
 30
0.0
 11
-400.289246
 21
115.576336
 31
0.0
  0
LINE
  5
482
100
AcDbEntity
  8
0
370
    -3
390
0
  6
Continuous
100
AcDbLine
 10
-400.256702
 20
118.375161
 30
0.0
 11
-400.37199
 21
117.547463
 31
0.0
  0
LINE
  5
483
100
AcDbEntity
  8
0
370
    -3
390
0
  6
Continuous
100
AcDbLine
 10
-399.915267
 20
119.171051
 30
0.0
 11
-400.256702
 21
118.375161
 31
0.0
  0
LINE
  5
484
100
AcDbEntity
  8
0
370
    -3
390
0
  6
Continuous
100
AcDbLine
 10
-399.360808
 20
119.904548
 30
0.0
 11
-399.915267
 21
119.171051
 31
0.0
  0
LINE
  5
485
100
AcDbEntity
  8
0
370
    -3
390
0
  6
Continuous
100
AcDbLine
 10
-398.614631
 20
120.547463
 30
0.0
 11
-399.360808
 21
119.904548
 31
0.0
  0
LINE
  5
486
100
AcDbEntity
  8
0
370
    -3
390
0
  6
Continuous
100
AcDbLine
 10
-397.705411
 20
121.07509
 30
0.0
 11
-398.614631
 21
120.547463
 31
0.0
  0
LINE
  5
487
100
AcDbEntity
  8
0
370
    -3
390
0
  6
Continuous
100
AcDbLine
 10
-396.66809
 20
121.467152
 30
0.0
 11
-397.705411
 21
121.07509
 31
0.0
  0
LINE
  5
488
100
AcDbEntity
  8
0
370
    -3
390
0
  6
Continuous
100
AcDbLine
 10
-395.542532
 20
121.708582
 30
0.0
 11
-396.66809
 21
121.467152
 31
0.0
  0
LINE
  5
489
100
AcDbEntity
  8
0
370
    -3
390
0
  6
Continuous
100
AcDbLine
 10
-394.37199
 20
121.790104
 30
0.0
 11
-395.542532
 21
121.708582
 31
0.0
  0
LINE
  5
48A
100
AcDbEntity
  8
0
370
    -3
390
0
  6
Continuous
100
AcDbLine
 10
-393.201448
 20
121.708582
 30
0.0
 11
-394.37199
 21
121.790104
 31
0.0
  0
LINE
  5
48B
100
AcDbEntity
  8
0
370
    -3
390
0
  6
Continuous
100
AcDbLine
 10
-392.075889
 20
121.467152
 30
0.0
 11
-393.201448
 21
121.708582
 31
0.0
  0
LINE
  5
48C
100
AcDbEntity
  8
0
370
    -3
390
0
  6
Continuous
100
AcDbLine
 10
-391.038568
 20
121.07509
 30
0.0
 11
-392.075889
 21
121.467152
 31
0.0
  0
LINE
  5
48D
100
AcDbEntity
  8
0
370
    -3
390
0
  6
Continuous
100
AcDbLine
 10
-390.129349
 20
120.547463
 30
0.0
 11
-391.038568
 21
121.07509
 31
0.0
  0
LINE
  5
48E
100
AcDbEntity
  8
0
370
    -3
390
0
  6
Continuous
100
AcDbLine
 10
-389.383172
 20
119.904548
 30
0.0
 11
-390.129349
 21
120.547463
 31
0.0
  0
LINE
  5
48F
100
AcDbEntity
  8
0
370
    -3
390
0
  6
Continuous
100
AcDbLine
 10
-388.828713
 20
119.171051
 30
0.0
 11
-389.383172
 21
119.904548
 31
0.0
  0
LINE
  5
490
100
AcDbEntity
  8
0
370
    -3
390
0
  6
Continuous
100
AcDbLine
 10
-388.487278
 20
118.375161
 30
0.0
 11
-388.828713
 21
119.171051
 31
0.0
  0
LINE
  5
491
100
AcDbEntity
  8
0
370
    -3
390
0
  6
Continuous
100
AcDbLine
 10
-388.37199
 20
117.547463
 30
0.0
 11
-388.487278
 21
118.375161
 31
0.0
  0
LINE
  5
492
100
AcDbEntity
  8
0
370
    -3
390
0
  6
Continuous
100
AcDbLine
 10
-399.37199
 20
115.874969
 30
0.0
 11
-399.37199
 21
115.592127
 31
0.0
  0
LINE
  5
493
100
AcDbEntity
  8
0
370
    -3
390
0
  6
Continuous
100
AcDbLine
 10
-389.37199
 20
115.874969
 30
0.0
 11
-389.37199
 21
115.592127
 31
0.0
  0
LINE
  5
494
100
AcDbEntity
  8
0
370
    -3
390
0
  6
Continuous
100
AcDbLine
 10
-399.088678
 20
114.418915
 30
0.0
 11
-398.688167
 21
113.807384
 31
0.0
  0
LINE
  5
495
100
AcDbEntity
  8
0
370
    -3
390
0
  6
Continuous
100
AcDbLine
 10
-399.317813
 20
115.073073
 30
0.0
 11
-399.088678
 21
114.418915
 31
0.0
  0
LINE
  5
496
100
AcDbEntity
  8
0
370
    -3
390
0
  6
Continuous
100
AcDbLine
 10
-399.367247
 20
115.74609
 30
0.0
 11
-399.317813
 21
115.073073
 31
0.0
  0
LINE
  5
497
100
AcDbEntity
  8
0
370
    -3
390
0
  6
Continuous
100
AcDbLine
 10
-399.235183
 20
116.413513
 30
0.0
 11
-399.367247
 21
115.74609
 31
0.0
  0
LINE
  5
498
100
AcDbEntity
  8
0
370
    -3
390
0
  6
Continuous
100
AcDbLine
 10
-398.92642
 20
117.051093
 30
0.0
 11
-399.235183
 21
116.413513
 31
0.0
  0
LINE
  5
499
100
AcDbEntity
  8
0
370
    -3
390
0
  6
Continuous
100
AcDbLine
 10
-398.452177
 20
117.635662
 30
0.0
 11
-398.92642
 21
117.051093
 31
0.0
  0
LINE
  5
49A
100
AcDbEntity
  8
0
370
    -3
390
0
  6
Continuous
100
AcDbLine
 10
-397.829685
 20
118.145981
 30
0.0
 11
-398.452177
 21
117.635662
 31
0.0
  0
LINE
  5
49B
100
AcDbEntity
  8
0
370
    -3
390
0
  6
Continuous
100
AcDbLine
 10
-397.081561
 20
118.563509
 30
0.0
 11
-397.829685
 21
118.145981
 31
0.0
  0
LINE
  5
49C
100
AcDbEntity
  8
0
370
    -3
390
0
  6
Continuous
100
AcDbLine
 10
-396.234988
 20
118.873075
 30
0.0
 11
-397.081561
 21
118.563509
 31
0.0
  0
LINE
  5
49D
100
AcDbEntity
  8
0
370
    -3
390
0
  6
Continuous
100
AcDbLine
 10
-395.320724
 20
119.063431
 30
0.0
 11
-396.234988
 21
118.873075
 31
0.0
  0
LINE
  5
49E
100
AcDbEntity
  8
0
370
    -3
390
0
  6
Continuous
100
AcDbLine
 10
-394.37199
 20
119.127661
 30
0.0
 11
-395.320724
 21
119.063431
 31
0.0
  0
LINE
  5
49F
100
AcDbEntity
  8
0
370
    -3
390
0
  6
Continuous
100
AcDbLine
 10
-393.423255
 20
119.063431
 30
0.0
 11
-394.37199
 21
119.127661
 31
0.0
  0
LINE
  5
4A0
100
AcDbEntity
  8
0
370
    -3
390
0
  6
Continuous
100
AcDbLine
 10
-392.508992
 20
118.873075
 30
0.0
 11
-393.423255
 21
119.063431
 31
0.0
  0
LINE
  5
4A1
100
AcDbEntity
  8
0
370
    -3
390
0
  6
Continuous
100
AcDbLine
 10
-391.662419
 20
118.563509
 30
0.0
 11
-392.508992
 21
118.873075
 31
0.0
  0
LINE
  5
4A2
100
AcDbEntity
  8
0
370
    -3
390
0
  6
Continuous
100
AcDbLine
 10
-390.914295
 20
118.145981
 30
0.0
 11
-391.662419
 21
118.563509
 31
0.0
  0
LINE
  5
4A3
100
AcDbEntity
  8
0
370
    -3
390
0
  6
Continuous
100
AcDbLine
 10
-390.291802
 20
117.635662
 30
0.0
 11
-390.914295
 21
118.145981
 31
0.0
  0
LINE
  5
4A4
100
AcDbEntity
  8
0
370
    -3
390
0
  6
Continuous
100
AcDbLine
 10
-389.817559
 20
117.051093
 30
0.0
 11
-390.291802
 21
117.635662
 31
0.0
  0
LINE
  5
4A5
100
AcDbEntity
  8
0
370
    -3
390
0
  6
Continuous
100
AcDbLine
 10
-389.508797
 20
116.413513
 30
0.0
 11
-389.817559
 21
117.051093
 31
0.0
  0
LINE
  5
4A6
100
AcDbEntity
  8
0
370
    -3
390
0
  6
Continuous
100
AcDbLine
 10
-389.376733
 20
115.74609
 30
0.0
 11
-389.508797
 21
116.413513
 31
0.0
  0
LINE
  5
4A7
100
AcDbEntity
  8
0
370
    -3
390
0
  6
Continuous
100
AcDbLine
 10
-389.426167
 20
115.073073
 30
0.0
 11
-389.376733
 21
115.74609
 31
0.0
  0
LINE
  5
4A8
100
AcDbEntity
  8
0
370
    -3
390
0
  6
Continuous
100
AcDbLine
 10
-389.655302
 20
114.418915
 30
0.0
 11
-389.426167
 21
115.073073
 31
0.0
  0
LINE
  5
4A9
100
AcDbEntity
  8
0
370
    -3
390
0
  6
Continuous
100
AcDbLine
 10
-390.055812
 20
113.807384
 30
0.0
 11
-389.655302
 21
114.418915
 31
0.0
  0
LINE
  5
4AA
100
AcDbEntity
  8
0
370
    -3
390
0
  6
Continuous
100
AcDbLine
 10
-399.275916
 20
116.619898
 30
0.0
 11
-399.37199
 21
115.874969
 31
0.0
  0
LINE
  5
4AB
100
AcDbEntity
  8
0
370
    -3
390
0
  6
Continuous
100
AcDbLine
 10
-398.991388
 20
117.336199
 30
0.0
 11
-399.275916
 21
116.619898
 31
0.0
  0
LINE
  5
4AC
100
AcDbEntity
  8
0
370
    -3
390
0
  6
Continuous
100
AcDbLine
 10
-398.529338
 20
117.996346
 30
0.0
 11
-398.991388
 21
117.336199
 31
0.0
  0
LINE
  5
4AD
100
AcDbEntity
  8
0
370
    -3
390
0
  6
Continuous
100
AcDbLine
 10
-397.907524
 20
118.57497
 30
0.0
 11
-398.529338
 21
117.996346
 31
0.0
  0
LINE
  5
4AE
100
AcDbEntity
  8
0
370
    -3
390
0
  6
Continuous
100
AcDbLine
 10
-397.149841
 20
119.049834
 30
0.0
 11
-397.907524
 21
118.57497
 31
0.0
  0
LINE
  5
4AF
100
AcDbEntity
  8
0
370
    -3
390
0
  6
Continuous
100
AcDbLine
 10
-396.285407
 20
119.40269
 30
0.0
 11
-397.149841
 21
119.049834
 31
0.0
  0
LINE
  5
4B0
100
AcDbEntity
  8
0
370
    -3
390
0
  6
Continuous
100
AcDbLine
 10
-395.347441
 20
119.619977
 30
0.0
 11
-396.285407
 21
119.40269
 31
0.0
  0
LINE
  5
4B1
100
AcDbEntity
  8
0
370
    -3
390
0
  6
Continuous
100
AcDbLine
 10
-394.37199
 20
119.693346
 30
0.0
 11
-395.347441
 21
119.619977
 31
0.0
  0
LINE
  5
4B2
100
AcDbEntity
  8
0
370
    -3
390
0
  6
Continuous
100
AcDbLine
 10
-393.396538
 20
119.619977
 30
0.0
 11
-394.37199
 21
119.693346
 31
0.0
  0
LINE
  5
4B3
100
AcDbEntity
  8
0
370
    -3
390
0
  6
Continuous
100
AcDbLine
 10
-392.458573
 20
119.40269
 30
0.0
 11
-393.396538
 21
119.619977
 31
0.0
  0
LINE
  5
4B4
100
AcDbEntity
  8
0
370
    -3
390
0
  6
Continuous
100
AcDbLine
 10
-391.594139
 20
119.049834
 30
0.0
 11
-392.458573
 21
119.40269
 31
0.0
  0
LINE
  5
4B5
100
AcDbEntity
  8
0
370
    -3
390
0
  6
Continuous
100
AcDbLine
 10
-390.836456
 20
118.57497
 30
0.0
 11
-391.594139
 21
119.049834
 31
0.0
  0
LINE
  5
4B6
100
AcDbEntity
  8
0
370
    -3
390
0
  6
Continuous
100
AcDbLine
 10
-390.214642
 20
117.996346
 30
0.0
 11
-390.836456
 21
118.57497
 31
0.0
  0
LINE
  5
4B7
100
AcDbEntity
  8
0
370
    -3
390
0
  6
Continuous
100
AcDbLine
 10
-389.752592
 20
117.336199
 30
0.0
 11
-390.214642
 21
117.996346
 31
0.0
  0
LINE
  5
4B8
100
AcDbEntity
  8
0
370
    -3
390
0
  6
Continuous
100
AcDbLine
 10
-389.468063
 20
116.619898
 30
0.0
 11
-389.752592
 21
117.336199
 31
0.0
  0
LINE
  5
4B9
100
AcDbEntity
  8
0
370
    -3
390
0
  6
Continuous
100
AcDbLine
 10
-389.37199
 20
115.874969
 30
0.0
 11
-389.468063
 21
116.619898
 31
0.0
  0
LINE
  5
4BA
100
AcDbEntity
  8
0
370
    -3
390
0
  6
Continuous
100
AcDbLine
 10
-389.958456
 20
114.147324
 30
0.0
 11
-389.87199
 21
114.902614
 31
0.0
  0
LINE
  5
4BB
100
AcDbEntity
  8
0
370
    -3
390
0
  6
Continuous
100
AcDbLine
 10
-390.214532
 20
113.421058
 30
0.0
 11
-389.958456
 21
114.147324
 31
0.0
  0
LINE
  5
4BC
100
AcDbEntity
  8
0
370
    -3
390
0
  6
Continuous
100
AcDbLine
 10
-390.630377
 20
112.751728
 30
0.0
 11
-390.214532
 21
113.421058
 31
0.0
  0
LINE
  5
4BD
100
AcDbEntity
  8
0
370
    -3
390
0
  6
Continuous
100
AcDbLine
 10
-391.190009
 20
112.165056
 30
0.0
 11
-390.630377
 21
112.751728
 31
0.0
  0
LINE
  5
4BE
100
AcDbEntity
  8
0
370
    -3
390
0
  6
Continuous
100
AcDbLine
 10
-391.871924
 20
111.683586
 30
0.0
 11
-391.190009
 21
112.165056
 31
0.0
  0
LINE
  5
4BF
100
AcDbEntity
  8
0
370
    -3
390
0
  6
Continuous
100
AcDbLine
 10
-392.649914
 20
111.325821
 30
0.0
 11
-391.871924
 21
111.683586
 31
0.0
  0
LINE
  5
4C0
100
AcDbEntity
  8
0
370
    -3
390
0
  6
Continuous
100
AcDbLine
 10
-393.494083
 20
111.105511
 30
0.0
 11
-392.649914
 21
111.325821
 31
0.0
  0
LINE
  5
4C1
100
AcDbEntity
  8
0
370
    -3
390
0
  6
Continuous
100
AcDbLine
 10
-394.37199
 20
111.031122
 30
0.0
 11
-393.494083
 21
111.105511
 31
0.0
  0
LINE
  5
4C2
100
AcDbEntity
  8
0
370
    -3
390
0
  6
Continuous
100
AcDbLine
 10
-395.249896
 20
111.105511
 30
0.0
 11
-394.37199
 21
111.031122
 31
0.0
  0
LINE
  5
4C3
100
AcDbEntity
  8
0
370
    -3
390
0
  6
Continuous
100
AcDbLine
 10
-396.094065
 20
111.325821
 30
0.0
 11
-395.249896
 21
111.105511
 31
0.0
  0
LINE
  5
4C4
100
AcDbEntity
  8
0
370
    -3
390
0
  6
Continuous
100
AcDbLine
 10
-396.872056
 20
111.683586
 30
0.0
 11
-396.094065
 21
111.325821
 31
0.0
  0
LINE
  5
4C5
100
AcDbEntity
  8
0
370
    -3
390
0
  6
Continuous
100
AcDbLine
 10
-397.55397
 20
112.165056
 30
0.0
 11
-396.872056
 21
111.683586
 31
0.0
  0
LINE
  5
4C6
100
AcDbEntity
  8
0
370
    -3
390
0
  6
Continuous
100
AcDbLine
 10
-398.113603
 20
112.751728
 30
0.0
 11
-397.55397
 21
112.165056
 31
0.0
  0
LINE
  5
4C7
100
AcDbEntity
  8
0
370
    -3
390
0
  6
Continuous
100
AcDbLine
 10
-398.529448
 20
113.421058
 30
0.0
 11
-398.113603
 21
112.751728
 31
0.0
  0
LINE
  5
4C8
100
AcDbEntity
  8
0
370
    -3
390
0
  6
Continuous
100
AcDbLine
 10
-398.785524
 20
114.147324
 30
0.0
 11
-398.529448
 21
113.421058
 31
0.0
  0
LINE
  5
4C9
100
AcDbEntity
  8
0
370
    -3
390
0
  6
Continuous
100
AcDbLine
 10
-398.87199
 20
114.902614
 30
0.0
 11
-398.785524
 21
114.147324
 31
0.0
  0
LINE
  5
4CA
100
AcDbEntity
  8
0
370
    -3
390
0
  6
Continuous
100
AcDbLine
 10
-398.785524
 20
115.657905
 30
0.0
 11
-398.87199
 21
114.902614
 31
0.0
  0
LINE
  5
4CB
100
AcDbEntity
  8
0
370
    -3
390
0
  6
Continuous
100
AcDbLine
 10
-398.529448
 20
116.384171
 30
0.0
 11
-398.785524
 21
115.657905
 31
0.0
  0
LINE
  5
4CC
100
AcDbEntity
  8
0
370
    -3
390
0
  6
Continuous
100
AcDbLine
 10
-398.113603
 20
117.053501
 30
0.0
 11
-398.529448
 21
116.384171
 31
0.0
  0
LINE
  5
4CD
100
AcDbEntity
  8
0
370
    -3
390
0
  6
Continuous
100
AcDbLine
 10
-397.55397
 20
117.640173
 30
0.0
 11
-398.113603
 21
117.053501
 31
0.0
  0
LINE
  5
4CE
100
AcDbEntity
  8
0
370
    -3
390
0
  6
Continuous
100
AcDbLine
 10
-396.872056
 20
118.121643
 30
0.0
 11
-397.55397
 21
117.640173
 31
0.0
  0
LINE
  5
4CF
100
AcDbEntity
  8
0
370
    -3
390
0
  6
Continuous
100
AcDbLine
 10
-396.094065
 20
118.479407
 30
0.0
 11
-396.872056
 21
118.121643
 31
0.0
  0
LINE
  5
4D0
100
AcDbEntity
  8
0
370
    -3
390
0
  6
Continuous
100
AcDbLine
 10
-395.249896
 20
118.699718
 30
0.0
 11
-396.094065
 21
118.479407
 31
0.0
  0
LINE
  5
4D1
100
AcDbEntity
  8
0
370
    -3
390
0
  6
Continuous
100
AcDbLine
 10
-394.37199
 20
118.774107
 30
0.0
 11
-395.249896
 21
118.699718
 31
0.0
  0
LINE
  5
4D2
100
AcDbEntity
  8
0
370
    -3
390
0
  6
Continuous
100
AcDbLine
 10
-393.494083
 20
118.699718
 30
0.0
 11
-394.37199
 21
118.774107
 31
0.0
  0
LINE
  5
4D3
100
AcDbEntity
  8
0
370
    -3
390
0
  6
Continuous
100
AcDbLine
 10
-392.649914
 20
118.479407
 30
0.0
 11
-393.494083
 21
118.699718
 31
0.0
  0
LINE
  5
4D4
100
AcDbEntity
  8
0
370
    -3
390
0
  6
Continuous
100
AcDbLine
 10
-391.871924
 20
118.121643
 30
0.0
 11
-392.649914
 21
118.479407
 31
0.0
  0
LINE
  5
4D5
100
AcDbEntity
  8
0
370
    -3
390
0
  6
Continuous
100
AcDbLine
 10
-391.190009
 20
117.640173
 30
0.0
 11
-391.871924
 21
118.121643
 31
0.0
  0
LINE
  5
4D6
100
AcDbEntity
  8
0
370
    -3
390
0
  6
Continuous
100
AcDbLine
 10
-390.630377
 20
117.053501
 30
0.0
 11
-391.190009
 21
117.640173
 31
0.0
  0
LINE
  5
4D7
100
AcDbEntity
  8
0
370
    -3
390
0
  6
Continuous
100
AcDbLine
 10
-390.214532
 20
116.384171
 30
0.0
 11
-390.630377
 21
117.053501
 31
0.0
  0
LINE
  5
4D8
100
AcDbEntity
  8
0
370
    -3
390
0
  6
Continuous
100
AcDbLine
 10
-389.958456
 20
115.657905
 30
0.0
 11
-390.214532
 21
116.384171
 31
0.0
  0
LINE
  5
4D9
100
AcDbEntity
  8
0
370
    -3
390
0
  6
Continuous
100
AcDbLine
 10
-389.87199
 20
114.902614
 30
0.0
 11
-389.958456
 21
115.657905
 31
0.0
  0
LINE
  5
4DA
100
AcDbEntity
  8
0
370
    -3
390
0
  6
Continuous
100
AcDbLine
 10
-388.454734
 20
115.576336
 30
0.0
 11
-388.37199
 21
116.261366
 31
0.0
  0
LINE
  5
4DB
100
AcDbEntity
  8
0
370
    -3
390
0
  6
Continuous
100
AcDbLine
 10
-388.700683
 20
114.910201
 30
0.0
 11
-388.454734
 21
115.576336
 31
0.0
  0
LINE
  5
4DC
100
AcDbEntity
  8
0
370
    -3
390
0
  6
Continuous
100
AcDbLine
 10
-389.103054
 20
114.281332
 30
0.0
 11
-388.700683
 21
114.910201
 31
0.0
  0
LINE
  5
4DD
100
AcDbEntity
  8
0
370
    -3
390
0
  6
Continuous
100
AcDbLine
 10
-389.650749
 20
113.707076
 30
0.0
 11
-389.103054
 21
114.281332
 31
0.0
  0
LINE
  5
4DE
100
AcDbEntity
  8
0
370
    -3
390
0
  6
Continuous
100
AcDbLine
 10
-390.328662
 20
113.203269
 30
0.0
 11
-389.650749
 21
113.707076
 31
0.0
  0
LINE
  5
4DF
100
AcDbEntity
  8
0
370
    -3
390
0
  6
Continuous
100
AcDbLine
 10
-400.256702
 20
117.068861
 30
0.0
 11
-400.37199
 21
116.261366
 31
0.0
  0
LINE
  5
4E0
100
AcDbEntity
  8
0
370
    -3
390
0
  6
Continuous
100
AcDbLine
 10
-399.915267
 20
117.845326
 30
0.0
 11
-400.256702
 21
117.068861
 31
0.0
  0
LINE
  5
4E1
100
AcDbEntity
  8
0
370
    -3
390
0
  6
Continuous
100
AcDbLine
 10
-399.360808
 20
118.560919
 30
0.0
 11
-399.915267
 21
117.845326
 31
0.0
  0
LINE
  5
4E2
100
AcDbEntity
  8
0
370
    -3
390
0
  6
Continuous
100
AcDbLine
 10
-398.614631
 20
119.188142
 30
0.0
 11
-399.360808
 21
118.560919
 31
0.0
  0
LINE
  5
4E3
100
AcDbEntity
  8
0
370
    -3
390
0
  6
Continuous
100
AcDbLine
 10
-397.705411
 20
119.702891
 30
0.0
 11
-398.614631
 21
119.188142
 31
0.0
  0
LINE
  5
4E4
100
AcDbEntity
  8
0
370
    -3
390
0
  6
Continuous
100
AcDbLine
 10
-396.66809
 20
120.085384
 30
0.0
 11
-397.705411
 21
119.702891
 31
0.0
  0
LINE
  5
4E5
100
AcDbEntity
  8
0
370
    -3
390
0
  6
Continuous
100
AcDbLine
 10
-395.542532
 20
120.320922
 30
0.0
 11
-396.66809
 21
120.085384
 31
0.0
  0
LINE
  5
4E6
100
AcDbEntity
  8
0
370
    -3
390
0
  6
Continuous
100
AcDbLine
 10
-394.37199
 20
120.400453
 30
0.0
 11
-395.542532
 21
120.320922
 31
0.0
  0
LINE
  5
4E7
100
AcDbEntity
  8
0
370
    -3
390
0
  6
Continuous
100
AcDbLine
 10
-393.201448
 20
120.320922
 30
0.0
 11
-394.37199
 21
120.400453
 31
0.0
  0
LINE
  5
4E8
100
AcDbEntity
  8
0
370
    -3
390
0
  6
Continuous
100
AcDbLine
 10
-392.075889
 20
120.085384
 30
0.0
 11
-393.201448
 21
120.320922
 31
0.0
  0
LINE
  5
4E9
100
AcDbEntity
  8
0
370
    -3
390
0
  6
Continuous
100
AcDbLine
 10
-391.038568
 20
119.702891
 30
0.0
 11
-392.075889
 21
120.085384
 31
0.0
  0
LINE
  5
4EA
100
AcDbEntity
  8
0
370
    -3
390
0
  6
Continuous
100
AcDbLine
 10
-390.129349
 20
119.188142
 30
0.0
 11
-391.038568
 21
119.702891
 31
0.0
  0
LINE
  5
4EB
100
AcDbEntity
  8
0
370
    -3
390
0
  6
Continuous
100
AcDbLine
 10
-389.383172
 20
118.560919
 30
0.0
 11
-390.129349
 21
119.188142
 31
0.0
  0
LINE
  5
4EC
100
AcDbEntity
  8
0
370
    -3
390
0
  6
Continuous
100
AcDbLine
 10
-388.828713
 20
117.845326
 30
0.0
 11
-389.383172
 21
118.560919
 31
0.0
  0
LINE
  5
4ED
100
AcDbEntity
  8
0
370
    -3
390
0
  6
Continuous
100
AcDbLine
 10
-388.487278
 20
117.068861
 30
0.0
 11
-388.828713
 21
117.845326
 31
0.0
  0
LINE
  5
4EE
100
AcDbEntity
  8
0
370
    -3
390
0
  6
Continuous
100
AcDbLine
 10
-388.37199
 20
116.261366
 30
0.0
 11
-388.487278
 21
117.068861
 31
0.0
  0
LINE
  5
4EF
100
AcDbEntity
  8
0
370
    -3
390
0
  6
Continuous
100
AcDbLine
 10
-394.37199
 20
113.258673
 30
0.0
 11
-396.37199
 21
111.963141
 31
0.0
  0
LINE
  5
4F0
100
AcDbEntity
  8
0
370
    -3
390
0
  6
Continuous
100
AcDbLine
 10
-394.37199
 20
113.258673
 30
0.0
 11
-396.37199
 21
114.791568
 31
0.0
  0
LINE
  5
4F1
100
AcDbEntity
  8
0
370
    -3
390
0
  6
Continuous
100
AcDbLine
 10
-394.37199
 20
113.258673
 30
0.0
 11
-392.37199
 21
114.791568
 31
0.0
  0
LINE
  5
4F2
100
AcDbEntity
  8
0
370
    -3
390
0
  6
Continuous
100
AcDbLine
 10
-394.37199
 20
113.258673
 30
0.0
 11
-392.37199
 21
111.963141
 31
0.0
  0
ARC
  5
4F3
100
AcDbEntity
  8
0
370
    -3
390
0
  6
Continuous
100
AcDbCircle
 10
9.62801
 20
272.505244
 30
0.0
 40
1.0
100
AcDbArc
 50
90.0
 51
180.0
  0
ARC
  5
4F4
100
AcDbEntity
  8
0
370
    -3
390
0
  6
Continuous
100
AcDbCircle
 10
70.62801
 20
272.505244
 30
0.0
 40
1.0
100
AcDbArc
 50
0.0
 51
90.0
  0
LINE
  5
4F5
100
AcDbEntity
  8
0
370
    -3
390
0
  6
Continuous
100
AcDbLine
 10
70.62801
 20
273.505244
 30
0.0
 11
9.62801
 21
273.505244
 31
0.0
  0
ARC
  5
4F6
100
AcDbEntity
  8
0
370
    -3
390
0
  6
Continuous
100
AcDbCircle
 10
9.62801
 20
116.505244
 30
0.0
 40
1.0
100
AcDbArc
 50
180.0
 51
270.0
  0
ARC
  5
4F7
100
AcDbEntity
  8
0
370
    -3
390
0
  6
Continuous
100
AcDbCircle
 10
70.62801
 20
116.505244
 30
0.0
 40
1.0
100
AcDbArc
 50
270.0
 51
0.0
  0
LINE
  5
4F8
100
AcDbEntity
  8
0
370
    -3
390
0
  6
Continuous
100
AcDbLine
 10
70.62801
 20
115.505244
 30
0.0
 11
9.62801
 21
115.505244
 31
0.0
  0
LINE
  5
4F9
100
AcDbEntity
  8
0
370
    -3
390
0
  6
Continuous
100
AcDbLine
 10
71.62801
 20
116.505244
 30
0.0
 11
71.62801
 21
119.505244
 31
0.0
  0
LINE
  5
4FA
100
AcDbEntity
  8
0
370
    -3
390
0
  6
Continuous
100
AcDbLine
 10
8.62801
 20
116.505244
 30
0.0
 11
8.62801
 21
119.505244
 31
0.0
  0
LINE
  5
4FB
100
AcDbEntity
  8
0
370
    -3
390
0
  6
Continuous
100
AcDbLine
 10
71.62801
 20
272.505244
 30
0.0
 11
71.62801
 21
269.505244
 31
0.0
  0
LINE
  5
4FC
100
AcDbEntity
  8
0
370
    -3
390
0
  6
Continuous
100
AcDbLine
 10
8.62801
 20
272.505244
 30
0.0
 11
8.62801
 21
269.505244
 31
0.0
  0
ARC
  5
4FD
100
AcDbEntity
  8
0
370
    -3
390
0
  6
Continuous
100
AcDbCircle
 10
-161.87699
 20
291.505244
 30
0.0
 40
3.0
100
AcDbArc
 50
0.0
 51
90.0
  0
ARC
  5
4FE
100
AcDbEntity
  8
0
370
    -3
390
0
  6
Continuous
100
AcDbCircle
 10
-153.87699
 20
283.505244
 30
0.0
 40
5.0
100
AcDbArc
 50
180.0
 51
270.0
  0
LINE
  5
4FF
100
AcDbEntity
  8
0
370
    -3
390
0
  6
Continuous
100
AcDbLine
 10
-142.25127
 20
278.505244
 30
0.0
 11
-153.87699
 21
278.505244
 31
0.0
  0
ARC
  5
500
100
AcDbEntity
  8
0
370
    -3
390
0
  6
Continuous
100
AcDbCircle
 10
-142.670245
 20
270.505244
 30
0.0
 40
8.0
100
AcDbArc
 50
1.5
 51
90.0
  0
LINE
  5
501
100
AcDbEntity
  8
0
370
    -3
390
0
  6
Continuous
100
AcDbLine
 10
-127.877131
 20
242.505244
 30
0.0
 11
-132.96014
 21
242.505244
 31
0.0
  0
ARC
  5
502
100
AcDbEntity
  8
0
370
    -3
390
0
  6
Continuous
100
AcDbCircle
 10
-127.877131
 20
243.505244
 30
0.0
 40
1.0
100
AcDbArc
 50
270.0
 51
0.0
  0
ARC
  5
503
100
AcDbEntity
  8
0
370
    -3
390
0
  6
Continuous
100
AcDbCircle
 10
-132.96014
 20
243.505244
 30
0.0
 40
1.0
100
AcDbArc
 50
181.5
 51
270.0
  0
ARC
  5
504
100
AcDbEntity
  8
0
370
    -3
390
0
  6
Continuous
100
AcDbCircle
 10
-129.561045
 20
122.505244
 30
0.0
 40
5.0
100
AcDbArc
 50
90.0
 51
178.5
  0
ARC
  5
505
100
AcDbEntity
  8
0
370
    -3
390
0
  6
Continuous
100
AcDbCircle
 10
-142.670245
 20
118.505244
 30
0.0
 40
8.0
100
AcDbArc
 50
270.0
 51
358.5
  0
LINE
  5
506
100
AcDbEntity
  8
0
370
    -3
390
0
  6
Continuous
100
AcDbLine
 10
-142.25127
 20
110.505244
 30
0.0
 11
-153.87699
 21
110.505244
 31
0.0
  0
ARC
  5
507
100
AcDbEntity
  8
0
370
    -3
390
0
  6
Continuous
100
AcDbCircle
 10
-153.87699
 20
105.505244
 30
0.0
 40
5.0
100
AcDbArc
 50
90.0
 51
180.0
  0
LINE
  5
508
100
AcDbEntity
  8
0
370
    -3
390
0
  6
Continuous
100
AcDbLine
 10
-126.676911
 20
232.505248
 30
0.0
 11
-126.676911
 21
232.505236
 31
0.0
  0
LINE
  5
509
100
AcDbEntity
  8
0
370
    -3
390
0
  6
Continuous
100
AcDbLine
 10
123.12801
 20
243.505244
 30
0.0
 11
-126.877131
 21
243.505244
 31
0.0
  0
LINE
  5
50A
100
AcDbEntity
  8
0
370
    -3
390
0
  6
Continuous
100
AcDbLine
 10
97.62801
 20
124.505244
 30
0.0
 11
97.62801
 21
120.505244
 31
0.0
  0
LINE
  5
50B
100
AcDbEntity
  8
0
370
    -3
390
0
  6
Continuous
100
AcDbLine
 10
97.62801
 20
120.505244
 30
0.0
 11
96.62801
 21
119.505244
 31
0.0
  0
LINE
  5
50C
100
AcDbEntity
  8
0
370
    -3
390
0
  6
Continuous
100
AcDbLine
 10
-17.37199
 20
124.505244
 30
0.0
 11
-17.37199
 21
120.505244
 31
0.0
  0
ARC
  5
50D
100
AcDbEntity
  8
0
370
    -3
390
0
  6
Continuous
100
AcDbCircle
 10
-161.87699
 20
97.505244
 30
0.0
 40
3.0
100
AcDbArc
 50
270.0
 51
0.0
  0
LINE
  5
50E
100
AcDbEntity
  8
0
370
    -3
390
0
  6
Continuous
100
AcDbLine
 10
-132.677372
 20
194.505244
 30
0.0
 11
-134.672986
 21
270.714659
 31
0.0
  0
LINE
  5
50F
100
AcDbEntity
  8
0
370
    -3
390
0
  6
Continuous
100
AcDbLine
 10
-132.677372
 20
194.505244
 30
0.0
 11
-134.672986
 21
118.295828
 31
0.0
  0
LINE
  5
510
100
AcDbEntity
  8
0
370
    -3
390
0
  6
Continuous
100
AcDbLine
 10
-126.872943
 20
127.505244
 30
0.0
 11
-129.561045
 21
127.505244
 31
0.0
  0
ARC
  5
511
100
AcDbEntity
  8
0
370
    -3
390
0
  6
Continuous
100
AcDbCircle
 10
-126.872943
 20
124.505244
 30
0.0
 40
3.0
100
AcDbArc
 50
1.444126
 51
90.0
  0
LINE
  5
512
100
AcDbEntity
  8
0
370
    -3
390
0
  6
Continuous
100
AcDbLine
 10
-126.87199
 20
243.505244
 30
0.0
 11
-123.87199
 21
124.505244
 31
0.0
  0
LINE
  5
513
100
AcDbEntity
  8
0
370
    -3
390
0
  6
Continuous
100
AcDbLine
 10
-17.37199
 20
120.505244
 30
0.0
 11
-16.37199
 21
119.505244
 31
0.0
  0
LINE
  5
514
100
AcDbEntity
  8
0
370
    -3
390
0
  6
Continuous
100
AcDbLine
 10
-16.37199
 20
119.505244
 30
0.0
 11
96.62801
 21
119.505244
 31
0.0
  0
LINE
  5
515
100
AcDbEntity
  8
0
370
    -3
390
0
  6
Continuous
100
AcDbLine
 10
-123.87199
 20
124.505244
 30
0.0
 11
120.12801
 21
124.505244
 31
0.0
  0
LINE
  5
516
100
AcDbEntity
  8
0
370
    -3
390
0
  6
Continuous
100
AcDbLine
 10
123.12801
 20
243.505244
 30
0.0
 11
120.12801
 21
124.505244
 31
0.0
  0
LINE
  5
517
100
AcDbEntity
  8
0
370
    -3
390
0
  6
Continuous
100
AcDbLine
 10
-161.87699
 20
294.505244
 30
0.0
 11
-167.87199
 21
294.505244
 31
0.0
  0
LINE
  5
518
100
AcDbEntity
  8
0
370
    -3
390
0
  6
Continuous
100
AcDbLine
 10
-167.87199
 20
94.505244
 30
0.0
 11
-167.87199
 21
294.505244
 31
0.0
  0
LINE
  5
519
100
AcDbEntity
  8
0
370
    -3
390
0
  6
Continuous
100
AcDbLine
 10
-161.87699
 20
94.505244
 30
0.0
 11
-167.87199
 21
94.505244
 31
0.0
  0
LINE
  5
51A
100
AcDbEntity
  8
0
370
    -3
390
0
  6
CENTER
100
AcDbLine
 10
40.12801
 20
279.585347
 30
0.0
 11
40.12801
 21
110.209034
 31
0.0
  0
ARC
  5
51B
100
AcDbEntity
  8
0
370
    -3
390
0
  6
Continuous
100
AcDbCircle
 10
-141.549039
 20
227.688109
 30
0.0
 40
8.0
100
AcDbArc
 50
1.5
 51
45.548626
  0
ARC
  5
51C
100
AcDbEntity
  8
0
370
    -3
390
0
  6
Continuous
100
AcDbCircle
 10
-130.34418
 20
239.10963
 30
0.0
 40
8.0
100
AcDbArc
 50
181.5
 51
225.548626
  0
ARC
  5
51D
100
AcDbEntity
  8
0
370
    -3
390
0
  6
Continuous
100
AcDbCircle
 10
-141.327948
 20
219.244996
 30
0.0
 40
8.0
100
AcDbArc
 50
1.5
 51
46.647453
  0
ARC
  5
51E
100
AcDbEntity
  8
0
370
    -3
390
0
  6
Continuous
100
AcDbCircle
 10
-130.34418
 20
230.879292
 30
0.0
 40
8.0
100
AcDbArc
 50
181.5
 51
226.647453
  0
LINE
  5
51F
100
AcDbEntity
  8
0
370
    -3
390
0
  6
Continuous
100
AcDbLine
 10
-138.341438
 20
230.669876
 30
0.0
 11
-138.996149
 21
255.672271
 31
0.0
  0
LINE
  5
520
100
AcDbEntity
  8
0
370
    -3
390
0
  6
Continuous
100
AcDbLine
 10
-138.341438
 20
238.900214
 30
0.0
 11
-138.996149
 21
263.902609
 31
0.0
  0
ARC
  5
521
100
AcDbEntity
  8
0
370
    -3
390
0
  6
Continuous
100
AcDbCircle
 10
-146.993408
 20
133.547632
 30
0.0
 40
8.0
100
AcDbArc
 50
270.0
 51
358.5
  0
ARC
  5
522
100
AcDbEntity
  8
0
370
    -3
390
0
  6
Continuous
100
AcDbCircle
 10
-146.993408
 20
125.317294
 30
0.0
 40
8.0
100
AcDbArc
 50
270.0
 51
358.5
  0
ARC
  5
523
100
AcDbEntity
  8
0
370
    -3
390
0
  6
Continuous
100
AcDbCircle
 10
-130.34418
 20
149.900857
 30
0.0
 40
8.0
100
AcDbArc
 50
134.451374
 51
178.5
  0
LINE
  5
524
100
AcDbEntity
  8
0
370
    -3
390
0
  6
Continuous
100
AcDbLine
 10
-138.341438
 20
158.340611
 30
0.0
 11
-138.996149
 21
133.338216
 31
0.0
  0
LINE
  5
525
100
AcDbEntity
  8
0
370
    -3
390
0
  6
Continuous
100
AcDbLine
 10
-138.341438
 20
150.110273
 30
0.0
 11
-138.996149
 21
125.107878
 31
0.0
  0
ARC
  5
526
100
AcDbEntity
  8
0
370
    -3
390
0
  6
Continuous
100
AcDbCircle
 10
-141.549039
 20
161.322378
 30
0.0
 40
8.0
100
AcDbArc
 50
314.451374
 51
358.5
  0
ARC
  5
527
100
AcDbEntity
  8
0
370
    -3
390
0
  6
Continuous
100
AcDbCircle
 10
-141.327948
 20
169.765491
 30
0.0
 40
8.0
100
AcDbArc
 50
313.352547
 51
358.5
  0
ARC
  5
528
100
AcDbEntity
  8
0
370
    -3
390
0
  6
Continuous
100
AcDbCircle
 10
-130.34418
 20
158.131195
 30
0.0
 40
8.0
100
AcDbArc
 50
133.352547
 51
178.5
  0
LINE
  5
529
100
AcDbEntity
  8
0
370
    -3
390
0
  6
Continuous
100
AcDbLine
 10
-138.137435
 20
166.131195
 30
0.0
 11
-153.87699
 21
166.131195
 31
0.0
  0
ARC
  5
52A
100
AcDbEntity
  8
0
370
    -3
390
0
  6
Continuous
100
AcDbCircle
 10
-153.87699
 20
171.131195
 30
0.0
 40
5.0
100
AcDbArc
 50
180.0
 51
270.0
  0
LINE
  5
52B
100
AcDbEntity
  8
0
370
    -3
390
0
  6
Continuous
100
AcDbLine
 10
-146.993408
 20
125.547632
 30
0.0
 11
-153.87699
 21
125.547632
 31
0.0
  0
LINE
  5
52C
100
AcDbEntity
  8
0
370
    -3
390
0
  6
Continuous
100
AcDbLine
 10
-146.993408
 20
117.317294
 30
0.0
 11
-153.87699
 21
117.317294
 31
0.0
  0
ARC
  5
52D
100
AcDbEntity
  8
0
370
    -3
390
0
  6
Continuous
100
AcDbCircle
 10
-153.87699
 20
130.547632
 30
0.0
 40
5.0
100
AcDbArc
 50
180.0
 51
270.0
  0
ARC
  5
52E
100
AcDbEntity
  8
0
370
    -3
390
0
  6
Continuous
100
AcDbCircle
 10
-153.87699
 20
112.317294
 30
0.0
 40
5.0
100
AcDbArc
 50
90.0
 51
180.0
  0
LINE
  5
52F
100
AcDbEntity
  8
0
370
    -3
390
0
  6
Continuous
100
AcDbLine
 10
-138.137435
 20
222.879292
 30
0.0
 11
-153.87699
 21
222.879292
 31
0.0
  0
ARC
  5
530
100
AcDbEntity
  8
0
370
    -3
390
0
  6
Continuous
100
AcDbCircle
 10
-153.87699
 20
217.879292
 30
0.0
 40
5.0
100
AcDbArc
 50
90.0
 51
180.0
  0
LINE
  5
531
100
AcDbEntity
  8
0
370
    -3
390
0
  6
Continuous
100
AcDbLine
 10
-146.993408
 20
263.462855
 30
0.0
 11
-153.87699
 21
263.462855
 31
0.0
  0
LINE
  5
532
100
AcDbEntity
  8
0
370
    -3
390
0
  6
Continuous
100
AcDbLine
 10
-146.993408
 20
271.693194
 30
0.0
 11
-153.87699
 21
271.693194
 31
0.0
  0
ARC
  5
533
100
AcDbEntity
  8
0
370
    -3
390
0
  6
Continuous
100
AcDbCircle
 10
-153.87699
 20
258.462855
 30
0.0
 40
5.0
100
AcDbArc
 50
90.0
 51
180.0
  0
ARC
  5
534
100
AcDbEntity
  8
0
370
    -3
390
0
  6
Continuous
100
AcDbCircle
 10
-153.87699
 20
276.693194
 30
0.0
 40
5.0
100
AcDbArc
 50
180.0
 51
270.0
  0
ARC
  5
535
100
AcDbEntity
  8
0
370
    -3
390
0
  6
Continuous
100
AcDbCircle
 10
-146.993408
 20
255.462855
 30
0.0
 40
8.0
100
AcDbArc
 50
1.5
 51
90.0
  0
ARC
  5
536
100
AcDbEntity
  8
0
370
    -3
390
0
  6
Continuous
100
AcDbCircle
 10
-146.993408
 20
263.693194
 30
0.0
 40
8.0
100
AcDbArc
 50
1.5
 51
90.0
  0
LINE
  5
537
100
AcDbEntity
  8
0
370
    -3
390
0
  6
Continuous
100
AcDbLine
 10
-158.87699
 20
276.693194
 30
0.0
 11
-158.87699
 21
291.505244
 31
0.0
  0
LINE
  5
538
100
AcDbEntity
  8
0
370
    -3
390
0
  6
Continuous
100
AcDbLine
 10
-158.87699
 20
97.505244
 30
0.0
 11
-158.87699
 21
112.317294
 31
0.0
  0
LINE
  5
539
100
AcDbEntity
  8
0
370
    -3
390
0
  6
Continuous
100
AcDbLine
 10
-158.87699
 20
130.547632
 30
0.0
 11
-158.87699
 21
258.462855
 31
0.0
  0
ARC
  5
53A
100
AcDbEntity
  8
0
370
    -3
390
0
  6
Continuous
100
AcDbCircle
 10
40.12801
 20
238.505244
 30
0.0
 40
2.0
100
AcDbArc
 50
0.0
 51
180.0
  0
LINE
  5
53B
100
AcDbEntity
  8
0
370
    -3
390
0
  6
Continuous
100
AcDbLine
 10
38.12801
 20
238.505244
 30
0.0
 11
38.12801
 21
124.505244
 31
0.0
  0
LINE
  5
53C
100
AcDbEntity
  8
0
370
    -3
390
0
  6
Continuous
100
AcDbLine
 10
42.12801
 20
238.505244
 30
0.0
 11
42.12801
 21
124.505244
 31
0.0
  0
LINE
  5
53D
100
AcDbEntity
  8
0
370
    -3
390
0
  6
Continuous
100
AcDbLine
 10
97.62801
 20
120.505244
 30
0.0
 11
-17.37199
 21
120.505244
 31
0.0
  0
ARC
  5
53E
100
AcDbEntity
  8
0
370
    -3
390
0
  6
Continuous
100
AcDbCircle
 10
99.12801
 20
243.505244
 30
0.0
 40
1.0
100
AcDbArc
 50
180.0
 51
270.0
  0
LINE
  5
53F
100
AcDbEntity
  8
0
370
    -3
390
0
  6
Continuous
100
AcDbLine
 10
123.1028
 20
242.505244
 30
0.0
 11
99.12801
 21
242.505244
 31
0.0
  0
LINE
  5
540
100
AcDbEntity
  8
0
370
    -3
390
0
  6
Continuous
100
AcDbLine
 10
-126.87199
 20
243.505244
 30
0.0
 11
-124.87199
 21
264.505244
 31
0.0
  0
LINE
  5
541
100
AcDbEntity
  8
0
370
    -3
390
0
  6
Continuous
100
AcDbLine
 10
-126.671911
 20
232.505248
 30
0.0
 11
-126.671911
 21
232.505236
 31
0.0
  0
LINE
  5
542
100
AcDbEntity
  8
0
370
    -3
390
0
  6
Continuous
100
AcDbLine
 10
97.62801
 20
264.505244
 30
0.0
 11
97.62801
 21
268.505244
 31
0.0
  0
LINE
  5
543
100
AcDbEntity
  8
0
370
    -3
390
0
  6
Continuous
100
AcDbLine
 10
-17.37199
 20
268.505244
 30
0.0
 11
-16.37199
 21
269.505244
 31
0.0
  0
LINE
  5
544
100
AcDbEntity
  8
0
370
    -3
390
0
  6
Continuous
100
AcDbLine
 10
-17.37199
 20
264.505244
 30
0.0
 11
-17.37199
 21
268.505244
 31
0.0
  0
LINE
  5
545
100
AcDbEntity
  8
0
370
    -3
390
0
  6
Continuous
100
AcDbLine
 10
-16.37199
 20
269.505244
 30
0.0
 11
96.62801
 21
269.505244
 31
0.0
  0
LINE
  5
546
100
AcDbEntity
  8
0
370
    -3
390
0
  6
Continuous
100
AcDbLine
 10
96.62801
 20
269.505244
 30
0.0
 11
97.62801
 21
268.505244
 31
0.0
  0
LINE
  5
547
100
AcDbEntity
  8
0
370
    -3
390
0
  6
Continuous
100
AcDbLine
 10
121.12801
 20
264.505244
 30
0.0
 11
-124.87199
 21
264.505244
 31
0.0
  0
LINE
  5
548
100
AcDbEntity
  8
0
370
    -3
390
0
  6
Continuous
100
AcDbLine
 10
123.12801
 20
243.505244
 30
0.0
 11
121.12801
 21
264.505244
 31
0.0
  0
LINE
  5
549
100
AcDbEntity
  8
0
370
    -3
390
0
  6
Continuous
100
AcDbLine
 10
-17.37199
 20
268.505244
 30
0.0
 11
97.62801
 21
268.505244
 31
0.0
  0
ARC
  5
54A
100
AcDbEntity
  8
0
370
    -3
390
0
  6
Continuous
100
AcDbCircle
 10
40.12801
 20
248.505244
 30
0.0
 40
2.0
100
AcDbArc
 50
180.0
 51
0.0
  0
ARC
  5
54B
100
AcDbEntity
  8
0
370
    -3
390
0
  6
Continuous
100
AcDbCircle
 10
99.12801
 20
243.505244
 30
0.0
 40
1.0
100
AcDbArc
 50
90.0
 51
180.0
  0
LINE
  5
54C
100
AcDbEntity
  8
0
370
    -3
390
0
  6
Continuous
100
AcDbLine
 10
42.12801
 20
248.505244
 30
0.0
 11
42.12801
 21
264.505244
 31
0.0
  0
LINE
  5
54D
100
AcDbEntity
  8
0
370
    -3
390
0
  6
Continuous
100
AcDbLine
 10
38.12801
 20
248.505244
 30
0.0
 11
38.12801
 21
264.505244
 31
0.0
  0
LINE
  5
54E
100
AcDbEntity
  8
0
370
    -3
390
0
  6
Continuous
100
AcDbLine
 10
123.032772
 20
244.505244
 30
0.0
 11
99.12801
 21
244.505244
 31
0.0
  0
ARC
  5
54F
100
AcDbEntity
  8
0
370
    -3
390
0
  6
Continuous
100
AcDbCircle
 10
-102.87199
 20
243.505244
 30
0.0
 40
1.0
100
AcDbArc
 50
0.0
 51
90.0
  0
LINE
  5
550
100
AcDbEntity
  8
0
370
    -3
390
0
  6
Continuous
100
AcDbLine
 10
-126.776752
 20
244.505244
 30
0.0
 11
-102.87199
 21
244.505244
 31
0.0
  0
LINE
  5
551
100
AcDbEntity
  8
0
370
    -3
390
0
  6
DASHED
100
AcDbLine
 10
95.12801
 20
189.505244
 30
0.0
 11
115.12801
 21
189.505244
 31
0.0
  0
LINE
  5
552
100
AcDbEntity
  8
0
370
    -3
390
0
  6
DASHED
100
AcDbLine
 10
115.12801
 20
199.505244
 30
0.0
 11
95.12801
 21
199.505244
 31
0.0
  0
LINE
  5
553
100
AcDbEntity
  8
0
370
    -3
390
0
  6
DASHED
100
AcDbLine
 10
95.12801
 20
199.505244
 30
0.0
 11
95.12801
 21
243.505244
 31
0.0
  0
LINE
  5
554
100
AcDbEntity
  8
0
370
    -3
390
0
  6
DASHED
100
AcDbLine
 10
115.12801
 20
199.505244
 30
0.0
 11
115.12801
 21
243.505244
 31
0.0
  0
LINE
  5
555
100
AcDbEntity
  8
0
370
    -3
390
0
  6
DASHED
100
AcDbLine
 10
118.12801
 20
124.905244
 30
0.0
 11
118.12801
 21
145.505244
 31
0.0
  0
LINE
  5
556
100
AcDbEntity
  8
0
370
    -3
390
0
  6
DASHED
100
AcDbLine
 10
92.12801
 20
145.505244
 30
0.0
 11
118.12801
 21
145.505244
 31
0.0
  0
LINE
  5
557
100
AcDbEntity
  8
0
370
    -3
390
0
  6
DASHED
100
AcDbLine
 10
92.12801
 20
124.905244
 30
0.0
 11
92.12801
 21
145.505244
 31
0.0
  0
LINE
  5
558
100
AcDbEntity
  8
0
370
    -3
390
0
  6
DASHED
100
AcDbLine
 10
96.37801
 20
145.505244
 30
0.0
 11
96.37801
 21
243.505244
 31
0.0
  0
LINE
  5
559
100
AcDbEntity
  8
0
370
    -3
390
0
  6
DASHED
100
AcDbLine
 10
113.87801
 20
145.505244
 30
0.0
 11
113.87801
 21
243.505244
 31
0.0
  0
LINE
  5
55A
100
AcDbEntity
  8
0
370
    -3
390
0
  6
DASHED
100
AcDbLine
 10
115.12801
 20
145.505244
 30
0.0
 11
115.12801
 21
189.505244
 31
0.0
  0
LINE
  5
55B
100
AcDbEntity
  8
0
370
    -3
390
0
  6
DASHED
100
AcDbLine
 10
95.12801
 20
145.505244
 30
0.0
 11
95.12801
 21
189.505244
 31
0.0
  0
LINE
  5
55C
100
AcDbEntity
  8
0
370
    -3
390
0
  6
CENTER
100
AcDbLine
 10
105.12801
 20
111.653949
 30
0.0
 11
105.12801
 21
277.078201
 31
0.0
  0
LINE
  5
55D
100
AcDbEntity
  8
0
370
    -3
390
0
  6
DASHED
100
AcDbLine
 10
92.12801
 20
243.905244
 30
0.0
 11
92.12801
 21
264.505244
 31
0.0
  0
LINE
  5
55E
100
AcDbEntity
  8
0
370
    -3
390
0
  6
DASHED
100
AcDbLine
 10
118.12801
 20
243.905244
 30
0.0
 11
118.12801
 21
264.505244
 31
0.0
  0
LINE
  5
55F
100
AcDbEntity
  8
0
370
    -3
390
0
  6
DASHED
100
AcDbLine
 10
-121.87199
 20
243.905244
 30
0.0
 11
-121.87199
 21
264.505244
 31
0.0
  0
LINE
  5
560
100
AcDbEntity
  8
0
370
    -3
390
0
  6
DASHED
100
AcDbLine
 10
-95.87199
 20
243.905244
 30
0.0
 11
-95.87199
 21
264.505244
 31
0.0
  0
LINE
  5
561
100
AcDbEntity
  8
0
370
    -3
390
0
  6
Continuous
100
AcDbLine
 10
-90.87199
 20
243.505244
 30
0.0
 11
-93.87199
 21
124.505244
 31
0.0
  0
LINE
  5
562
100
AcDbEntity
  8
0
370
    -3
390
0
  6
DASHED
100
AcDbLine
 10
-98.87199
 20
199.505244
 30
0.0
 11
-118.87199
 21
199.505244
 31
0.0
  0
LINE
  5
563
100
AcDbEntity
  8
0
370
    -3
390
0
  6
DASHED
100
AcDbLine
 10
-118.87199
 20
199.505244
 30
0.0
 11
-118.87199
 21
243.505244
 31
0.0
  0
LINE
  5
564
100
AcDbEntity
  8
0
370
    -3
390
0
  6
DASHED
100
AcDbLine
 10
-98.87199
 20
199.505244
 30
0.0
 11
-98.87199
 21
243.505244
 31
0.0
  0
LINE
  5
565
100
AcDbEntity
  8
0
370
    -3
390
0
  6
DASHED
100
AcDbLine
 10
-118.87199
 20
189.505244
 30
0.0
 11
-98.87199
 21
189.505244
 31
0.0
  0
LINE
  5
566
100
AcDbEntity
  8
0
370
    -3
390
0
  6
DASHED
100
AcDbLine
 10
-95.87199
 20
124.905244
 30
0.0
 11
-95.87199
 21
145.505244
 31
0.0
  0
LINE
  5
567
100
AcDbEntity
  8
0
370
    -3
390
0
  6
DASHED
100
AcDbLine
 10
-121.87199
 20
145.505244
 30
0.0
 11
-95.87199
 21
145.505244
 31
0.0
  0
LINE
  5
568
100
AcDbEntity
  8
0
370
    -3
390
0
  6
DASHED
100
AcDbLine
 10
-121.87199
 20
124.905244
 30
0.0
 11
-121.87199
 21
145.505244
 31
0.0
  0
LINE
  5
569
100
AcDbEntity
  8
0
370
    -3
390
0
  6
DASHED
100
AcDbLine
 10
-117.62199
 20
145.505244
 30
0.0
 11
-117.62199
 21
243.505244
 31
0.0
  0
LINE
  5
56A
100
AcDbEntity
  8
0
370
    -3
390
0
  6
DASHED
100
AcDbLine
 10
-100.12199
 20
145.505244
 30
0.0
 11
-100.12199
 21
243.505244
 31
0.0
  0
LINE
  5
56B
100
AcDbEntity
  8
0
370
    -3
390
0
  6
DASHED
100
AcDbLine
 10
-98.87199
 20
145.505244
 30
0.0
 11
-98.87199
 21
189.505244
 31
0.0
  0
LINE
  5
56C
100
AcDbEntity
  8
0
370
    -3
390
0
  6
DASHED
100
AcDbLine
 10
-118.87199
 20
145.505244
 30
0.0
 11
-118.87199
 21
189.505244
 31
0.0
  0
LINE
  5
56D
100
AcDbEntity
  8
0
370
    -3
390
0
  6
CENTER
100
AcDbLine
 10
-108.87199
 20
111.653949
 30
0.0
 11
-108.87199
 21
277.078201
 31
0.0
  0
ENDSEC
  0
SECTION
  2
OBJECTS
  0
DICTIONARY
  5
19
100
AcDbDictionary
280
     0
281
     1
  3
ACAD_GROUP
350
1A
  3
ACAD_MLINESTYLE
350
1B
  3
ACAD_LAYOUT
350
1E
  3
ACAD_PLOTSETTINGS
350
22
  3
ACAD_PLOTSTYLENAME
350
1F
  3
ACAD_WIPEOUT_VARS
350
23
  3
DWGPROPS
350
56E
  0
DICTIONARY
  5
1A
102
{ACAD_REACTORS
330
19
102
}
100
AcDbDictionary
280
     0
281
     1
  0
DICTIONARY
  5
1B
102
{ACAD_REACTORS
330
19
102
}
100
AcDbDictionary
280
     0
281
     1
  3
Standard
350
1C
  0
MLINESTYLE
  5
1C
102
{ACAD_REACTORS
330
1B
102
}
100
AcDbMlineStyle
  2
Standard
 70
     0
  3

 62
     0
 51
90.0
 52
90.0
 71
     2
 49
0.5
 62
   256
  6
ByLayer
 49
-0.5
 62
   256
  6
ByLayer
  0
ACDBDICTIONARYWDFLT
  5
1F
102
{ACAD_REACTORS
330
19
102
}
100
AcDbDictionary
281
     1
  3
Normal
350
1D
100
AcDbDictionaryWithDefault
340
1D
  0
ACDBPLACEHOLDER
  5
1D
102
{ACAD_REACTORS
330
1F
102
}
  0
LAYOUT
  5
20
102
{ACAD_REACTORS
330
1E
102
}
100
AcDbPlotSettings
  1

  2

  4

  6

 40
0.0
 41
0.0
 42
0.0
 43
0.0
 44
0.0
 45
0.0
 46
0.0
 47
0.0
 48
0.0
 49
0.0
140
0.0
141
0.0
142
1.0
143
1.0
 70
  1024
 72
     0
 73
     0
 74
     0
  7

 75
     0
147
1.0
148
0.0
149
0.0
100
AcDbLayout
  1
Model
 70
     0
 71
     0
 10
0.0
 20
0.0
 11
0.0
 21
0.0
 12
0.0
 22
0.0
 32
0.0
 14
0.0
 24
0.0
 34
0.0
 15
0.0
 25
0.0
 35
0.0
146
0.0
 13
0.0
 23
0.0
 33
0.0
 16
0.0
 26
0.0
 36
0.0
 17
0.0
 27
0.0
 37
0.0
 76
     0
330
A
331
0
345
0
346
0
  0
LAYOUT
  5
21
102
{ACAD_REACTORS
330
1E
102
}
100
AcDbPlotSettings
  1

  2

  4

  6

 40
0.0
 41
0.0
 42
0.0
 43
0.0
 44
0.0
 45
0.0
 46
0.0
 47
0.0
 48
0.0
 49
0.0
140
0.0
141
0.0
142
1.0
143
1.0
 70
     0
 72
     0
 73
     0
 74
     0
  7

 75
     0
147
1.0
148
0.0
149
0.0
100
AcDbLayout
  1
Layout1
 70
     0
 71
     0
 10
0.0
 20
0.0
 11
0.0
 21
0.0
 12
0.0
 22
0.0
 32
0.0
 14
0.0
 24
0.0
 34
0.0
 15
0.0
 25
0.0
 35
0.0
146
0.0
 13
0.0
 23
0.0
 33
0.0
 16
0.0
 26
0.0
 36
0.0
 17
0.0
 27
0.0
 37
0.0
 76
     0
330
B
331
0
345
0
346
0
  0
DICTIONARY
  5
1E
102
{ACAD_REACTORS
330
19
102
}
100
AcDbDictionary
280
     0
281
     1
  3
Layout1
350
21
  3
Model
350
20
  0
DICTIONARY
  5
22
102
{ACAD_REACTORS
330
19
102
}
100
AcDbDictionary
280
     0
281
     1
  0
WIPEOUTVARIABLES
  5
23
100
AcDbWipeoutVariables
 70
     1
  0
XRECORD
  5
56E
100
AcDbXrecord
280
     1
  1
DWGPROPS COOKIE
  2

  3

  4

  6

  7

  8
YP81315
  9

300
=
301
=
302
=
303
=
304
=
305
=
306
=
307
=
308
=
309
=
 40
0.0
 41
2456812.586134
 42
2456812.586134
  1

 90
        0
  0
ENDSEC
  0
EOF
