  0
SECTION
  2
HEADER
  9
$ACADVER
  1
AC1015
  9
$ACADMAINTVER
 70
    10
  9
$DWGCODEPAGE
  3
ANSI_932
  9
$INSBASE
 10
0.0
 20
0.0
 30
0.0
  9
$EXTMIN
 10
-111.2999972403406
 20
-77.04995224846145
 30
0.0
  9
$EXTMAX
 10
208.0869707407985
 20
250.9500144194583
 30
0.0
  9
$LIMMIN
 10
0.0
 20
0.0
  9
$LIMMAX
 10
12.0
 20
9.0
  9
$ORTHOMODE
 70
     1
  9
$REGENMODE
 70
     1
  9
$FILLMODE
 70
     1
  9
$QTEXTMODE
 70
     0
  9
$MIRRTEXT
 70
     0
  9
$LTSCALE
 40
1.0
  9
$ATTMODE
 70
     1
  9
$TEXTSIZE
 40
2.799999952316284
  9
$TRACEWID
 40
0.05
  9
$TEXTSTYLE
  7
STANDARD1
  9
$CLAYER
  8
18
  9
$CELTYPE
  6
CONTINUOUS
  9
$CECOLOR
 62
   256
  9
$CELTSCALE
 40
1.0
  9
$DISPSILH
 70
     0
  9
$DIMSCALE
 40
0.0
  9
$DIMASZ
 40
2.5
  9
$DIMEXO
 40
1.0
  9
$DIMDLI
 40
8.0
  9
$DIMRND
 40
0.0
  9
$DIMDLE
 40
0.0
  9
$DIMEXE
 40
1.0
  9
$DIMTP
 40
0.0
  9
$DIMTM
 40
0.0
  9
$DIMTXT
 40
3.2
  9
$DIMCEN
 40
-1.0
  9
$DIMTSZ
 40
0.0
  9
$DIMTOL
 70
     0
  9
$DIMLIM
 70
     0
  9
$DIMTIH
 70
     0
  9
$DIMTOH
 70
     0
  9
$DIMSE1
 70
     0
  9
$DIMSE2
 70
     0
  9
$DIMTAD
 70
     3
  9
$DIMZIN
 70
     8
  9
$DIMBLK
  1

  9
$DIMASO
 70
     1
  9
$DIMSHO
 70
     1
  9
$DIMPOST
  1

  9
$DIMAPOST
  1

  9
$DIMALT
 70
     0
  9
$DIMALTD
 70
     2
  9
$DIMALTF
 40
25.4
  9
$DIMLFAC
 40
1.0
  9
$DIMTOFL
 70
     1
  9
$DIMTVP
 40
0.0
  9
$DIMTIX
 70
     0
  9
$DIMSOXD
 70
     0
  9
$DIMSAH
 70
     1
  9
$DIMBLK1
  1
Open30
  9
$DIMBLK2
  1
Open30
  9
$DIMSTYLE
  2
コピー - MEE-STD
  9
$DIMCLRD
 70
     7
  9
$DIMCLRE
 70
     7
  9
$DIMCLRT
 70
     2
  9
$DIMTFAC
 40
1.0
  9
$DIMGAP
 40
1.0
  9
$DIMJUST
 70
     0
  9
$DIMSD1
 70
     0
  9
$DIMSD2
 70
     0
  9
$DIMTOLJ
 70
     1
  9
$DIMTZIN
 70
     8
  9
$DIMALTZ
 70
     0
  9
$DIMALTTZ
 70
     0
  9
$DIMUPT
 70
     0
  9
$DIMDEC
 70
     4
  9
$DIMTDEC
 70
     4
  9
$DIMALTU
 70
     2
  9
$DIMALTTD
 70
     2
  9
$DIMTXSTY
  7
STANDARD1
  9
$DIMAUNIT
 70
     0
  9
$DIMADEC
 70
     1
  9
$DIMALTRND
 40
0.0
  9
$DIMAZIN
 70
     2
  9
$DIMDSEP
 70
    46
  9
$DIMATFIT
 70
     3
  9
$DIMFRAC
 70
     0
  9
$DIMLDRBLK
  1
Open30
  9
$DIMLUNIT
 70
     2
  9
$DIMLWD
 70
    -2
  9
$DIMLWE
 70
    -2
  9
$DIMTMOVE
 70
     0
  9
$LUNITS
 70
     2
  9
$LUPREC
 70
     3
  9
$SKETCHINC
 40
0.1
  9
$FILLETRAD
 40
0.0
  9
$AUNITS
 70
     0
  9
$AUPREC
 70
     0
  9
$MENU
  1
.
  9
$ELEVATION
 40
0.0
  9
$PELEVATION
 40
0.0
  9
$THICKNESS
 40
0.0
  9
$LIMCHECK
 70
     0
  9
$CHAMFERA
 40
0.0
  9
$CHAMFERB
 40
0.0
  9
$CHAMFERC
 40
0.0
  9
$CHAMFERD
 40
0.0
  9
$SKPOLY
 70
     0
  9
$TDCREATE
 40
2453871.486005127
  9
$TDUCREATE
 40
2453871.111005127
  9
$TDUPDATE
 40
2454637.642441388
  9
$TDUUPDATE
 40
2454637.267441388
  9
$TDINDWG
 40
0.4716024769
  9
$TDUSRTIMER
 40
0.4716014005
  9
$USRTIMER
 70
     1
  9
$ANGBASE
 50
0.0
  9
$ANGDIR
 70
     0
  9
$PDMODE
 70
     0
  9
$PDSIZE
 40
0.0
  9
$PLINEWID
 40
0.0
  9
$SPLFRAME
 70
     0
  9
$SPLINETYPE
 70
     6
  9
$SPLINESEGS
 70
     8
  9
$HANDSEED
  5
307F
  9
$SURFTAB1
 70
     6
  9
$SURFTAB2
 70
     6
  9
$SURFTYPE
 70
     6
  9
$SURFU
 70
     6
  9
$SURFV
 70
     6
  9
$UCSBASE
  2

  9
$UCSNAME
  2

  9
$UCSORG
 10
0.0
 20
0.0
 30
0.0
  9
$UCSXDIR
 10
1.0
 20
0.0
 30
0.0
  9
$UCSYDIR
 10
0.0
 20
1.0
 30
0.0
  9
$UCSORTHOREF
  2

  9
$UCSORTHOVIEW
 70
     0
  9
$UCSORGTOP
 10
0.0
 20
0.0
 30
0.0
  9
$UCSORGBOTTOM
 10
0.0
 20
0.0
 30
0.0
  9
$UCSORGLEFT
 10
0.0
 20
0.0
 30
0.0
  9
$UCSORGRIGHT
 10
0.0
 20
0.0
 30
0.0
  9
$UCSORGFRONT
 10
0.0
 20
0.0
 30
0.0
  9
$UCSORGBACK
 10
0.0
 20
0.0
 30
0.0
  9
$PUCSBASE
  2

  9
$PUCSNAME
  2

  9
$PUCSORG
 10
0.0
 20
0.0
 30
0.0
  9
$PUCSXDIR
 10
1.0
 20
0.0
 30
0.0
  9
$PUCSYDIR
 10
0.0
 20
1.0
 30
0.0
  9
$PUCSORTHOREF
  2

  9
$PUCSORTHOVIEW
 70
     0
  9
$PUCSORGTOP
 10
0.0
 20
0.0
 30
0.0
  9
$PUCSORGBOTTOM
 10
0.0
 20
0.0
 30
0.0
  9
$PUCSORGLEFT
 10
0.0
 20
0.0
 30
0.0
  9
$PUCSORGRIGHT
 10
0.0
 20
0.0
 30
0.0
  9
$PUCSORGFRONT
 10
0.0
 20
0.0
 30
0.0
  9
$PUCSORGBACK
 10
0.0
 20
0.0
 30
0.0
  9
$USERI1
 70
     0
  9
$USERI2
 70
     0
  9
$USERI3
 70
     0
  9
$USERI4
 70
     0
  9
$USERI5
 70
     0
  9
$USERR1
 40
0.0
  9
$USERR2
 40
0.0
  9
$USERR3
 40
0.0
  9
$USERR4
 40
0.0
  9
$USERR5
 40
0.0
  9
$WORLDVIEW
 70
     1
  9
$SHADEDGE
 70
     3
  9
$SHADEDIF
 70
    70
  9
$TILEMODE
 70
     1
  9
$MAXACTVP
 70
    64
  9
$PINSBASE
 10
0.0
 20
0.0
 30
0.0
  9
$PLIMCHECK
 70
     0
  9
$PEXTMIN
 10
1.122749993181602
 20
0.7804166500962629
 30
0.0
  9
$PEXTMAX
 10
10.10474993863443
 20
7.023749850866361
 30
0.0
  9
$PLIMMIN
 10
-0.2312499519408218
 20
-0.2312499894870548
  9
$PLIMMAX
 10
11.4587498462106
 20
8.035416452903447
  9
$UNITMODE
 70
     0
  9
$VISRETAIN
 70
     1
  9
$PLINEGEN
 70
     0
  9
$PSLTSCALE
 70
     1
  9
$TREEDEPTH
 70
  3020
  9
$CMLSTYLE
  2
Standard
  9
$CMLJUST
 70
     0
  9
$CMLSCALE
 40
1.0
  9
$PROXYGRAPHICS
 70
     1
  9
$MEASUREMENT
 70
     0
  9
$CELWEIGHT
370
    -1
  9
$ENDCAPS
280
     0
  9
$JOINSTYLE
280
     0
  9
$LWDISPLAY
290
     0
  9
$INSUNITS
 70
     0
  9
$HYPERLINKBASE
  1

  9
$STYLESHEET
  1
MONO_MEE_PLOT.CTB
  9
$XEDIT
290
     1
  9
$CEPSNTYPE
380
     0
  9
$PSTYLEMODE
290
     1
  9
$FINGERPRINTGUID
  2
{883E9E29-CA7A-45C8-9552-45D1A1E1CB91}
  9
$VERSIONGUID
  2
{73F286E4-2611-4D48-8F77-9F1EEFC81151}
  9
$EXTNAMES
290
     1
  9
$PSVPSCALE
 40
0.0
  9
$OLESTARTUP
290
     0
  0
ENDSEC
  0
SECTION
  2
CLASSES
  0
CLASS
  1
ACDBDICTIONARYWDFLT
  2
AcDbDictionaryWithDefault
  3
AutoCAD 2000
 90
        0
280
     0
281
     0
  0
CLASS
  1
TABLESTYLE
  2
AcDbTableStyle
  3
ObjectDBX Classes
 90
     2047
280
     0
281
     0
  0
CLASS
  1
DICTIONARYVAR
  2
AcDbDictionaryVar
  3
AutoCAD 2000
 90
        0
280
     0
281
     0
  0
CLASS
  1
ACDBPLACEHOLDER
  2
AcDbPlaceHolder
  3
AutoCAD 2000
 90
        0
280
     0
281
     0
  0
CLASS
  1
LAYOUT
  2
AcDbLayout
  3
AutoCAD 2000
 90
        0
280
     0
281
     0
  0
ENDSEC
  0
SECTION
  2
TABLES
  0
TABLE
  2
VPORT
  5
8
330
0
100
AcDbSymbolTable
 70
     3
  0
VPORT
  5
307E
330
8
100
AcDbSymbolTableRecord
100
AcDbViewportTableRecord
  2
*Active
 70
     0
 10
0.0
 20
0.0
 11
1.0
 21
1.0
 12
147.3582662533881
 22
60.30737850097546
 13
0.0
 23
0.0
 14
1.0
 24
1.0
 15
0.0
 25
0.0
 16
0.0
 26
0.0
 36
1.0
 17
0.0
 27
0.0
 37
0.0
 40
93.90905816837472
 41
1.527918781725888
 42
50.0
 43
0.0
 44
0.0
 50
0.0
 51
0.0
 71
     0
 72
   100
 73
     1
 74
     1
 75
     0
 76
     0
 77
     0
 78
     0
281
     0
 65
     1
110
0.0
120
0.0
130
0.0
111
1.0
121
0.0
131
0.0
112
0.0
122
1.0
132
0.0
 79
     0
146
0.0
  0
ENDTAB
  0
TABLE
  2
LTYPE
  5
5
330
0
100
AcDbSymbolTable
 70
     7
  0
LTYPE
  5
13
330
5
100
AcDbSymbolTableRecord
100
AcDbLinetypeTableRecord
  2
ByBlock
 70
     0
  3

 72
    65
 73
     0
 40
0.0
  0
LTYPE
  5
14
330
5
100
AcDbSymbolTableRecord
100
AcDbLinetypeTableRecord
  2
ByLayer
 70
     0
  3

 72
    65
 73
     0
 40
0.0
  0
LTYPE
  5
15
330
5
100
AcDbSymbolTableRecord
100
AcDbLinetypeTableRecord
  2
CONTINUOUS
 70
     0
  3
Solid line
 72
    65
 73
     0
 40
0.0
  0
LTYPE
  5
27
330
5
100
AcDbSymbolTableRecord
100
AcDbLinetypeTableRecord
  2
DASHED
 70
     0
  3
-- -- -- -- -- -- -- -- -- -- -- -- -- -- --
 72
    65
 73
     2
 40
0.75
 49
0.5
 74
     0
 49
-0.25
 74
     0
  0
LTYPE
  5
28
330
5
100
AcDbSymbolTableRecord
100
AcDbLinetypeTableRecord
  2
DASHDOT
 70
     0
  3
__ . __ . __ . __ . __ . __ . __ . __ . __ . __
 72
    65
 73
     4
 40
1.0
 49
0.5
 74
     0
 49
-0.25
 74
     0
 49
0.0
 74
     0
 49
-0.25
 74
     0
  0
LTYPE
  5
29
330
5
100
AcDbSymbolTableRecord
100
AcDbLinetypeTableRecord
  2
DIVIDE
 70
     0
  3
__ . . __ . . __ . . __ . . __ . . __ . . __
 72
    65
 73
     6
 40
1.25
 49
0.5
 74
     0
 49
-0.25
 74
     0
 49
0.0
 74
     0
 49
-0.25
 74
     0
 49
0.0
 74
     0
 49
-0.25
 74
     0
  0
LTYPE
  5
EE4
330
5
100
AcDbSymbolTableRecord
100
AcDbLinetypeTableRecord
  2
CENTER
 70
     0
  3
____ _ ____ _ ____ _ ____ _ ____ _ ____ _ ____
 72
    65
 73
     4
 40
0.6
 49
0.375
 74
     0
 49
-0.075
 74
     0
 49
0.075
 74
     0
 49
-0.075
 74
     0
  0
LTYPE
  5
EE5
330
5
100
AcDbSymbolTableRecord
100
AcDbLinetypeTableRecord
  2
PHANTOM
 70
     0
  3
_____ _ _ _____ _ _ _____ _ _ _____
 72
    65
 73
     6
 40
0.8
 49
0.45
 74
     0
 49
-0.05
 74
     0
 49
0.1
 74
     0
 49
-0.05
 74
     0
 49
0.1
 74
     0
 49
-0.05
 74
     0
  0
LTYPE
  5
2CE6
330
5
100
AcDbSymbolTableRecord
100
AcDbLinetypeTableRecord
  2
HIDDEN
 70
     0
  3
Hidden __ __ __ __ __ __ __ __ __ __ __ __ __ _
 72
    65
 73
     2
 40
0.375
 49
0.25
 74
     0
 49
-0.125
 74
     0
  0
ENDTAB
  0
TABLE
  2
LAYER
  5
2
102
{ACAD_XDICTIONARY
360
ED8
102
}
330
0
100
AcDbSymbolTable
 70
     8
  0
LAYER
  5
10
330
2
100
AcDbSymbolTableRecord
100
AcDbLayerTableRecord
  2
0
 70
     0
 62
     3
  6
CONTINUOUS
370
    -3
390
F
  0
LAYER
  5
32
330
2
100
AcDbSymbolTableRecord
100
AcDbLayerTableRecord
  2
10
 70
     0
 62
     4
  6
CONTINUOUS
370
    -3
390
F
  0
LAYER
  5
33
330
2
100
AcDbSymbolTableRecord
100
AcDbLayerTableRecord
  2
11
 70
     0
 62
     7
  6
CONTINUOUS
370
    -3
390
F
  0
LAYER
  5
34
330
2
100
AcDbSymbolTableRecord
100
AcDbLayerTableRecord
  2
12
 70
     0
 62
     3
  6
CONTINUOUS
370
    -3
390
F
  0
LAYER
  5
41
330
2
100
AcDbSymbolTableRecord
100
AcDbLayerTableRecord
  2
70
 70
     0
 62
     3
  6
CONTINUOUS
370
    -3
390
F
  0
LAYER
  5
57
330
2
100
AcDbSymbolTableRecord
100
AcDbLayerTableRecord
  2
DEFPOINTS
 70
     0
 62
     7
  6
CONTINUOUS
290
     0
370
    -3
390
F
  0
LAYER
  5
2CE7
330
2
100
AcDbSymbolTableRecord
100
AcDbLayerTableRecord
  2
18
 70
     0
 62
     1
  6
HIDDEN
370
    -3
390
F
  0
LAYER
  5
2F95
330
2
100
AcDbSymbolTableRecord
100
AcDbLayerTableRecord
  2
19
 70
     0
 62
     7
  6
CONTINUOUS
370
    -3
390
F
  0
ENDTAB
  0
TABLE
  2
STYLE
  5
3
330
0
100
AcDbSymbolTable
 70
     6
  0
STYLE
  5
11
330
3
100
AcDbSymbolTableRecord
100
AcDbTextStyleTableRecord
  2
Standard
 70
     0
 40
0.0
 41
1.0
 50
0.0
 71
     0
 42
0.2
  3
txt
  4

  0
STYLE
  5
26
330
3
100
AcDbSymbolTableRecord
100
AcDbTextStyleTableRecord
  2
STANDARD1
 70
     0
 40
0.0
 41
1.0
 50
0.0
 71
     0
 42
2.799999952316284
  3
MONOTXT
  4
BIGFONT
  0
STYLE
  5
46
330
3
100
AcDbSymbolTableRecord
100
AcDbTextStyleTableRecord
  2
STANDARD2
 70
     4
 40
0.0
 41
1.0
 50
0.0
 71
     0
 42
2.799999952316284
  3
MONOTXT
  4
BIGFONT
  0
STYLE
  5
47
330
3
100
AcDbSymbolTableRecord
100
AcDbTextStyleTableRecord
  2
STANDARD3
 70
     0
 40
0.0
 41
1.0
 50
0.0
 71
     0
 42
2.799999952316284
  3
MONOTXT
  4

  0
STYLE
  5
48
330
3
100
AcDbSymbolTableRecord
100
AcDbTextStyleTableRecord
  2
STANDARD4
 70
     4
 40
0.0
 41
1.0
 50
0.0
 71
     0
 42
2.799999952316284
  3
MONOTXT
  4

  0
STYLE
  5
2CE5
330
3
100
AcDbSymbolTableRecord
100
AcDbTextStyleTableRecord
  2

 70
     1
 40
0.0
 41
1.0
 50
0.0
 71
     0
 42
2.799999952316284
  3
ltypeshp.shx
  4

  0
ENDTAB
  0
TABLE
  2
VIEW
  5
6
330
0
100
AcDbSymbolTable
 70
     0
  0
ENDTAB
  0
TABLE
  2
UCS
  5
7
330
0
100
AcDbSymbolTable
 70
     0
  0
ENDTAB
  0
TABLE
  2
APPID
  5
9
330
0
100
AcDbSymbolTable
 70
    15
  0
APPID
  5
12
330
9
100
AcDbSymbolTableRecord
100
AcDbRegAppTableRecord
  2
ACAD
 70
     0
  0
APPID
  5
ED2
330
9
100
AcDbSymbolTableRecord
100
AcDbRegAppTableRecord
  2
ACAD_PSEXT
 70
     0
  0
APPID
  5
1381
330
9
100
AcDbSymbolTableRecord
100
AcDbRegAppTableRecord
  2
ACAD_EXEMPT_FROM_CAD_STANDARDS
 70
     0
  0
APPID
  5
16D1
330
9
100
AcDbSymbolTableRecord
100
AcDbRegAppTableRecord
  2
CONTENTTABDATA
 70
     0
  0
APPID
  5
16D2
330
9
100
AcDbSymbolTableRecord
100
AcDbRegAppTableRecord
  2
CONTENTCURRENTTAB
 70
     0
  0
APPID
  5
16D3
330
9
100
AcDbSymbolTableRecord
100
AcDbRegAppTableRecord
  2
CONTENTBLOCKICON
 70
     0
  0
APPID
  5
16D4
330
9
100
AcDbSymbolTableRecord
100
AcDbRegAppTableRecord
  2
CONTENTBLOCKDESCRIPTION
 70
     0
  0
APPID
  5
16D8
330
9
100
AcDbSymbolTableRecord
100
AcDbRegAppTableRecord
  2
ACAD_DSTYLE_DIMTEXT_FILL
 70
     0
  0
APPID
  5
16D9
330
9
100
AcDbSymbolTableRecord
100
AcDbRegAppTableRecord
  2
ACAD_DSTYLE_DIMEXT_LENGTH
 70
     0
  0
APPID
  5
16DA
330
9
100
AcDbSymbolTableRecord
100
AcDbRegAppTableRecord
  2
ACAD_DSTYLE_DIMEXT_ENABLED
 70
     0
  0
APPID
  5
16DB
330
9
100
AcDbSymbolTableRecord
100
AcDbRegAppTableRecord
  2
ACAD_DSTYLE_DIM_LINETYPE
 70
     0
  0
APPID
  5
16DC
330
9
100
AcDbSymbolTableRecord
100
AcDbRegAppTableRecord
  2
ACAD_DSTYLE_DIM_EXT1_LINETYPE
 70
     0
  0
APPID
  5
16DD
330
9
100
AcDbSymbolTableRecord
100
AcDbRegAppTableRecord
  2
ACAD_DSTYLE_DIM_EXT2_LINETYPE
 70
     0
  0
APPID
  5
1829
330
9
100
AcDbSymbolTableRecord
100
AcDbRegAppTableRecord
  2
ACAD_DSTYLE_DIMJOGGED_JOGANGLE_SYMBOL
 70
     0
  0
APPID
  5
1A14
330
9
100
AcDbSymbolTableRecord
100
AcDbRegAppTableRecord
  2
ACAD_DSTYLE_DIMARC_LENGTH_SYMBOL
 70
     0
  0
ENDTAB
  0
TABLE
  2
DIMSTYLE
  5
A
330
0
100
AcDbSymbolTable
 70
     2
100
AcDbDimStyleTable
 71
     2
340
1A19
340
ECC
  0
DIMSTYLE
105
ECC
330
A
100
AcDbSymbolTableRecord
100
AcDbDimStyleTableRecord
  2
Standard
 70
     0
340
11
  0
DIMSTYLE
105
1A19
330
A
100
AcDbSymbolTableRecord
100
AcDbDimStyleTableRecord
  2
コピー - MEE-STD
 70
     0
 40
0.0
 41
2.5
 42
1.0
 43
8.0
 44
1.0
 73
     0
 74
     0
 77
     3
 78
     8
 79
     2
140
3.2
141
-1.0
147
1.0
172
     1
173
     1
176
     7
177
     7
178
     2
179
     1
284
     8
340
26
341
19AA
343
19AA
344
19AA
1001
ACAD_DSTYLE_DIMEXT_LENGTH
1070
   378
1040
1.0
1001
ACAD_DSTYLE_DIMEXT_ENABLED
1070
   383
1070
     0
1001
ACAD_DSTYLE_DIMARC_LENGTH_SYMBOL
1070
   379
1070
     0
1001
ACAD_DSTYLE_DIMJOGGED_JOGANGLE_SYMBOL
1070
   384
1040
0.7853981633974483
  0
ENDTAB
  0
TABLE
  2
BLOCK_RECORD
  5
1
330
0
100
AcDbSymbolTable
 70
     1
  0
BLOCK_RECORD
  5
22
330
1
100
AcDbSymbolTableRecord
100
AcDbBlockTableRecord
  2
*Model_Space
340
25
  0
BLOCK_RECORD
  5
2CD7
330
1
100
AcDbSymbolTableRecord
100
AcDbBlockTableRecord
  2
*Paper_Space
340
2CD8
  0
BLOCK_RECORD
  5
19AA
330
1
100
AcDbSymbolTableRecord
100
AcDbBlockTableRecord
  2
_Open30
340
0
102
{BLKREFS
331
2FC3
331
2FC4
331
2FDB
331
2FDC
331
2FE6
331
2FE7
331
2FF3
331
2FF4
331
3027
331
3028
331
3030
331
3031
331
303C
331
303D
331
304A
331
304B
331
3063
331
3064
102
}
  0
ENDTAB
  0
ENDSEC
  0
SECTION
  2
BLOCKS
  0
BLOCK
  5
23
330
22
100
AcDbEntity
  8
0
100
AcDbBlockBegin
  2
*Model_Space
 70
     0
 10
0.0
 20
0.0
 30
0.0
  3
*Model_Space
  1

  0
ENDBLK
  5
24
330
22
100
AcDbEntity
  8
0
100
AcDbBlockEnd
  0
BLOCK
  5
2CD9
330
2CD7
100
AcDbEntity
 67
     1
  8
0
100
AcDbBlockBegin
  2
*Paper_Space
 70
     0
 10
0.0
 20
0.0
 30
0.0
  3
*Paper_Space
  1

  0
ENDBLK
  5
2CDA
330
2CD7
100
AcDbEntity
 67
     1
  8
0
100
AcDbBlockEnd
  0
BLOCK
  5
19AE
330
19AA
100
AcDbEntity
  8
0
100
AcDbBlockBegin
  2
_Open30
 70
     0
 10
0.0
 20
0.0
 30
0.0
  3
_Open30
  1

  0
LINE
  5
19AB
330
19AA
100
AcDbEntity
  8
0
  6
ByBlock
 62
     0
370
    -2
100
AcDbLine
 10
-1.0
 20
0.26794919
 30
0.0
 11
0.0
 21
0.0
 31
0.0
  0
LINE
  5
19AC
330
19AA
100
AcDbEntity
  8
0
  6
ByBlock
 62
     0
370
    -2
100
AcDbLine
 10
0.0
 20
0.0
 30
0.0
 11
-1.0
 21
-0.26794919
 31
0.0
  0
LINE
  5
19AD
330
19AA
100
AcDbEntity
  8
0
  6
ByBlock
 62
     0
370
    -2
100
AcDbLine
 10
0.0
 20
0.0
 30
0.0
 11
-1.0
 21
0.0
 31
0.0
  0
ENDBLK
  5
19AF
330
19AA
100
AcDbEntity
  8
0
100
AcDbBlockEnd
  0
ENDSEC
  0
SECTION
  2
ENTITIES
  0
LINE
  5
5E7
330
22
100
AcDbEntity
  8
10
  6
Continuous
 62
     4
100
AcDbLine
 10
53.8215226982236
 20
22.94999999999999
 30
0.0
 11
111.5215183707235
 21
22.94999999999999
 31
0.0
  0
LINE
  5
5E8
330
22
100
AcDbEntity
  8
10
  6
Continuous
 62
     4
100
AcDbLine
 10
73.52152122072356
 20
23.24999997749998
 30
0.0
 11
72.52152129572356
 21
23.24999997749998
 31
0.0
  0
LINE
  5
5E9
330
22
100
AcDbEntity
  8
10
  6
Continuous
 62
     4
100
AcDbLine
 10
71.52152137072356
 20
23.24999997749998
 30
0.0
 11
70.52152144572359
 21
23.24999997749998
 31
0.0
  0
LINE
  5
5EA
330
22
100
AcDbEntity
  8
10
  6
Continuous
 62
     4
100
AcDbLine
 10
69.52152152072359
 20
23.24999997749998
 30
0.0
 11
68.52152159572357
 21
23.24999997749998
 31
0.0
  0
LINE
  5
5EB
330
22
100
AcDbEntity
  8
10
  6
Continuous
 62
     4
100
AcDbLine
 10
67.52152167072357
 20
23.24999997749998
 30
0.0
 11
66.52152174572361
 21
23.24999997749998
 31
0.0
  0
LINE
  5
5EC
330
22
100
AcDbEntity
  8
10
  6
Continuous
 62
     4
100
AcDbLine
 10
66.52152174572361
 20
22.94999999999999
 30
0.0
 11
66.52152174572361
 21
30.44999943749997
 31
0.0
  0
LINE
  5
5ED
330
22
100
AcDbEntity
  8
10
  6
Continuous
 62
     4
100
AcDbLine
 10
67.52152167072357
 20
22.94999999999999
 30
0.0
 11
67.52152167072357
 21
30.44999943749997
 31
0.0
  0
LINE
  5
5EE
330
22
100
AcDbEntity
  8
10
  6
Continuous
 62
     4
100
AcDbLine
 10
68.52152159572357
 20
22.94999999999999
 30
0.0
 11
68.52152159572357
 21
30.44999943749997
 31
0.0
  0
LINE
  5
5EF
330
22
100
AcDbEntity
  8
10
  6
Continuous
 62
     4
100
AcDbLine
 10
69.52152152072359
 20
22.94999999999999
 30
0.0
 11
69.52152152072359
 21
30.44999943749997
 31
0.0
  0
LINE
  5
5F0
330
22
100
AcDbEntity
  8
10
  6
Continuous
 62
     4
100
AcDbLine
 10
70.52152144572359
 20
22.94999999999999
 30
0.0
 11
70.52152144572359
 21
30.44999943749997
 31
0.0
  0
LINE
  5
5F1
330
22
100
AcDbEntity
  8
10
  6
Continuous
 62
     4
100
AcDbLine
 10
71.52152137072356
 20
22.94999999999999
 30
0.0
 11
71.52152137072356
 21
30.44999943749997
 31
0.0
  0
LINE
  5
5F2
330
22
100
AcDbEntity
  8
10
  6
Continuous
 62
     4
100
AcDbLine
 10
72.52152129572356
 20
22.94999999999999
 30
0.0
 11
72.52152129572356
 21
30.44999943749997
 31
0.0
  0
LINE
  5
5F3
330
22
100
AcDbEntity
  8
10
  6
Continuous
 62
     4
100
AcDbLine
 10
73.52152122072356
 20
22.94999999999999
 30
0.0
 11
73.52152122072356
 21
30.44999943749997
 31
0.0
  0
ARC
  5
5F4
330
22
100
AcDbEntity
  8
10
  6
Continuous
 62
     4
100
AcDbCircle
 10
111.2215183932234
 20
38.64999882249994
 30
0.0
 40
0.2999999775000117
100
AcDbArc
 50
0.0
 51
90.0
  0
ARC
  5
5F5
330
22
100
AcDbEntity
  8
10
  6
Continuous
 62
     4
100
AcDbCircle
 10
53.8215226982236
 20
23.24999997749998
 30
0.0
 40
0.2999999775000047
100
AcDbArc
 50
221.0877338595985
 51
270.0
  0
ARC
  5
5F6
330
22
100
AcDbEntity
  8
10
  6
Continuous
 62
     4
100
AcDbCircle
 10
59.82152224822359
 20
38.64999882249994
 30
0.0
 40
0.2999999775000117
100
AcDbArc
 50
90.0
 51
180.0
  0
ARC
  5
5F7
330
22
100
AcDbEntity
  8
10
  6
Continuous
 62
     4
100
AcDbCircle
 10
59.82152224822359
 20
23.24999997749998
 30
0.0
 40
0.2999999775000117
100
AcDbArc
 50
180.0
 51
270.0
  0
ARC
  5
5F8
330
22
100
AcDbEntity
  8
10
  6
Continuous
 62
     4
100
AcDbCircle
 10
73.02152125822359
 20
30.44999943749997
 30
0.0
 40
0.4999999625000013
100
AcDbArc
 50
0.0
 51
180.0
  0
ARC
  5
5F9
330
22
100
AcDbEntity
  8
10
  6
Continuous
 62
     4
100
AcDbCircle
 10
71.02152140822361
 20
30.44999943749997
 30
0.0
 40
0.4999999625000013
100
AcDbArc
 50
0.0
 51
180.0
  0
ARC
  5
5FA
330
22
100
AcDbEntity
  8
10
  6
Continuous
 62
     4
100
AcDbCircle
 10
69.0215215582236
 20
30.44999943749997
 30
0.0
 40
0.4999999625000013
100
AcDbArc
 50
0.0
 51
180.0
  0
ARC
  5
5FB
330
22
100
AcDbEntity
  8
10
  6
Continuous
 62
     4
100
AcDbCircle
 10
67.0215217082236
 20
30.44999943749997
 30
0.0
 40
0.4999999625000013
100
AcDbArc
 50
0.0
 51
180.0
  0
LINE
  5
5FC
330
22
100
AcDbEntity
  8
10
  6
Continuous
 62
     4
100
AcDbLine
 10
111.5215183707235
 20
38.64999882249994
 30
0.0
 11
111.5215183707235
 21
22.94999999999999
 31
0.0
  0
LINE
  5
762
330
22
100
AcDbEntity
  8
12
  6
CENTER
 48
6.0
100
AcDbLine
 10
166.5215142457234
 20
27.94999962499999
 30
0.0
 11
176.5215134957234
 21
27.94999962499999
 31
0.0
  0
LINE
  5
763
330
22
100
AcDbEntity
  8
12
  6
CENTER
 48
6.0
100
AcDbLine
 10
166.5215142457234
 20
145.949990775
 30
0.0
 11
176.5215134957234
 21
145.949990775
 31
0.0
  0
LINE
  5
764
330
22
100
AcDbEntity
  8
12
  6
CENTER
 48
6.0
100
AcDbLine
 10
-67.30000247500001
 20
140.6499911724999
 30
0.0
 11
-67.30000247500001
 21
151.2499903774999
 31
0.0
  0
LINE
  5
765
330
22
100
AcDbEntity
  8
12
  6
CENTER
 48
6.0
100
AcDbLine
 10
-62.00000287250001
 20
145.949990775
 30
0.0
 11
-72.60000207750005
 21
145.949990775
 31
0.0
  0
ARC
  5
766
330
22
100
AcDbEntity
  8
12
 62
     3
100
AcDbCircle
 10
-73.30000202499999
 20
149.9499904749999
 30
0.0
 40
0.9999999249999927
100
AcDbArc
 50
0.0
 51
90.0
  0
LINE
  5
767
330
22
100
AcDbEntity
  8
12
 62
     3
100
AcDbLine
 10
-72.30000210000003
 20
145.949990775
 30
0.0
 11
-72.30000210000003
 21
149.9499904749999
 31
0.0
  0
ARC
  5
768
330
22
100
AcDbEntity
  8
12
 62
     3
100
AcDbCircle
 10
-67.30000247500001
 20
145.949990775
 30
0.0
 40
4.999999625
100
AcDbArc
 50
180.0
 51
0.0
  0
CIRCLE
  5
769
330
22
100
AcDbEntity
  8
12
  6
Continuous
 62
     3
100
AcDbCircle
 10
-67.30000247500001
 20
145.949990775
 30
0.0
 40
2.299999827499993
  0
ARC
  5
76A
330
22
100
AcDbEntity
  8
12
  6
ByBlock
 62
     3
100
AcDbCircle
 10
-61.30000292500001
 20
149.9499904749999
 30
0.0
 40
0.9999999249999927
100
AcDbArc
 50
90.0
 51
180.0
  0
LINE
  5
76B
330
22
100
AcDbEntity
  8
12
  6
ByBlock
 62
     3
100
AcDbLine
 10
-62.30000285000002
 20
145.949990775
 30
0.0
 11
-62.30000285000002
 21
149.9499904749999
 31
0.0
  0
ARC
  5
76C
330
22
100
AcDbEntity
  8
12
  6
Continuous
 62
     3
100
AcDbCircle
 10
-42.80000431250002
 20
23.94999992499998
 30
0.0
 40
0.9999999250000012
100
AcDbArc
 50
270.0
 51
0.0
  0
ARC
  5
76D
330
22
100
AcDbEntity
  8
12
  6
Continuous
 62
     3
100
AcDbCircle
 10
-45.300004125
 20
23.94999992499998
 30
0.0
 40
0.9999999250000012
100
AcDbArc
 50
270.0
 51
0.0
  0
LINE
  5
76E
330
22
100
AcDbEntity
  8
12
 62
     3
100
AcDbLine
 10
-41.80000438750002
 20
27.94999962499999
 30
0.0
 11
-41.80000438750002
 21
23.94999992499998
 31
0.0
  0
LINE
  5
76F
330
22
100
AcDbEntity
  8
12
 62
     3
100
AcDbLine
 10
-44.30000420000001
 20
27.94999962499999
 30
0.0
 11
-44.30000420000001
 21
23.94999992499998
 31
0.0
  0
LINE
  5
771
330
22
100
AcDbEntity
  8
12
  6
DASHED
 48
6.0
100
AcDbLine
 10
-39.30000457500002
 20
22.65000002249996
 30
0.0
 11
-39.30000457500002
 21
33.2499992275
 31
0.0
  0
LINE
  5
772
330
22
100
AcDbEntity
  8
12
 62
     3
100
AcDbLine
 10
-36.80000476250002
 20
27.94999962499999
 30
0.0
 11
-36.80000476250002
 21
25.44999981249999
 31
0.0
  0
ARC
  5
773
330
22
100
AcDbEntity
  8
12
 62
     3
100
AcDbCircle
 10
-39.30000457500002
 20
27.94999962499999
 30
0.0
 40
2.4999998125
100
AcDbArc
 50
0.0
 51
180.0
  0
ARC
  5
774
330
22
100
AcDbEntity
  8
12
 62
     3
100
AcDbCircle
 10
-39.30000457500002
 20
27.94999962499999
 30
0.0
 40
4.999999625
100
AcDbArc
 50
90.0
 51
180.0
  0
LINE
  5
775
330
22
100
AcDbEntity
  8
12
  6
DASHED
 48
6.0
100
AcDbLine
 10
-34.00000497250001
 20
27.94999962499999
 30
0.0
 11
-44.60000417750004
 21
27.94999962499999
 31
0.0
  0
LINE
  5
776
330
22
100
AcDbEntity
  8
12
 62
     3
100
AcDbLine
 10
-39.30000457500002
 20
32.94999924999999
 30
0.0
 11
-34.30000495000003
 21
32.94999924999999
 31
0.0
  0
LINE
  5
777
330
22
100
AcDbEntity
  8
12
 62
     3
100
AcDbLine
 10
-35.80000483750002
 20
24.4499998875
 30
0.0
 11
-34.30000495000003
 21
24.4499998875
 31
0.0
  0
ARC
  5
778
330
22
100
AcDbEntity
  8
12
  6
Continuous
 62
     3
100
AcDbCircle
 10
-34.30000495000003
 20
25.44999981249999
 30
0.0
 40
0.9999999250000012
100
AcDbArc
 50
270.0
 51
0.0
  0
ARC
  5
779
330
22
100
AcDbEntity
  8
12
  6
Continuous
 62
     3
100
AcDbCircle
 10
-35.80000483750002
 20
25.44999981249999
 30
0.0
 40
0.9999999249999927
100
AcDbArc
 50
180.0
 51
270.0
  0
ARC
  5
77A
330
22
100
AcDbEntity
  8
12
  6
Continuous
 62
     3
100
AcDbCircle
 10
-34.30000495000003
 20
33.94999917499998
 30
0.0
 40
0.9999999249999971
100
AcDbArc
 50
270.0
 51
0.0
  0
ARC
  5
780
330
22
100
AcDbEntity
  8
12
 62
     3
100
AcDbCircle
 10
-89.30000082500001
 20
23.94999992499998
 30
0.0
 40
0.9999999249999927
100
AcDbArc
 50
180.0
 51
270.0
  0
ARC
  5
781
330
22
100
AcDbEntity
  8
12
 62
     3
100
AcDbCircle
 10
-91.80000063750002
 20
23.94999992499998
 30
0.0
 40
0.9999999249999927
100
AcDbArc
 50
180.0
 51
270.0
  0
LINE
  5
783
330
22
100
AcDbEntity
  8
12
  6
DASHED
 48
6.0
100
AcDbLine
 10
-95.30000037500002
 20
22.65000002249996
 30
0.0
 11
-95.30000037500002
 21
33.2499992275
 31
0.0
  0
LINE
  5
784
330
22
100
AcDbEntity
  8
12
  6
DASHED
 48
6.0
100
AcDbLine
 10
-90.0000007725
 20
27.94999962499999
 30
0.0
 11
-100.5999999774999
 21
27.94999962499999
 31
0.0
  0
LINE
  5
785
330
22
100
AcDbEntity
  8
12
100
AcDbLine
 10
-90.30000075000002
 20
27.94999962499999
 30
0.0
 11
-90.30000075000002
 21
23.94999992499998
 31
0.0
  0
ARC
  5
786
330
22
100
AcDbEntity
  8
12
100
AcDbCircle
 10
-95.30000037500002
 20
27.94999962499998
 30
0.0
 40
4.999999625
100
AcDbArc
 50
0.0000000000000958
 51
90.0
  0
LINE
  5
787
330
22
100
AcDbEntity
  8
12
 62
     3
100
AcDbLine
 10
-95.30000037500002
 20
32.94999924999999
 30
0.0
 11
-100.2999999999999
 21
32.94999924999999
 31
0.0
  0
ARC
  5
788
330
22
100
AcDbEntity
  8
12
  6
ByBlock
 62
     3
100
AcDbCircle
 10
-100.2999999999999
 20
33.94999917499998
 30
0.0
 40
0.9999999249999927
100
AcDbArc
 50
180.0
 51
270.0
  0
LINE
  5
789
330
22
100
AcDbEntity
  8
12
 62
     3
100
AcDbLine
 10
-92.80000056250001
 20
27.94999962499999
 30
0.0
 11
-92.80000056250001
 21
23.94999992499998
 31
0.0
  0
ARC
  5
78A
330
22
100
AcDbEntity
  8
12
 62
     3
100
AcDbCircle
 10
-95.30000037500002
 20
27.94999962499999
 30
0.0
 40
2.4999998125
100
AcDbArc
 50
0.0
 51
180.0
  0
LINE
  5
78B
330
22
100
AcDbEntity
  8
12
 62
     3
100
AcDbLine
 10
-97.80000018750001
 20
27.94999962499999
 30
0.0
 11
-97.80000018750001
 21
25.44999981249999
 31
0.0
  0
ARC
  5
78C
330
22
100
AcDbEntity
  8
12
  6
Continuous
 62
     3
100
AcDbCircle
 10
-98.80000011250004
 20
25.44999981249999
 30
0.0
 40
0.9999999250000012
100
AcDbArc
 50
270.0
 51
0.0
  0
LINE
  5
78D
330
22
100
AcDbEntity
  8
12
 62
     3
100
AcDbLine
 10
-100.2999999999999
 20
24.4499998875
 30
0.0
 11
-98.80000011250004
 21
24.4499998875
 31
0.0
  0
ARC
  5
78E
330
22
100
AcDbEntity
  8
12
 62
     3
100
AcDbCircle
 10
-100.2999999999999
 20
25.44999981249999
 30
0.0
 40
0.9999999249999927
100
AcDbArc
 50
180.0
 51
270.0
  0
LINE
  5
793
330
22
100
AcDbEntity
  8
10
 62
     4
100
AcDbLine
 10
169.5215140207233
 20
140.9499911499997
 30
0.0
 11
169.5215140207233
 21
150.9499903999998
 31
0.0
  0
LINE
  5
794
330
22
100
AcDbEntity
  8
10
  6
DASHED
 62
     4
100
AcDbLine
 10
111.5215183707235
 20
140.9499911499997
 30
0.0
 11
169.5215140207233
 21
140.9499911499997
 31
0.0
  0
LINE
  5
795
330
22
100
AcDbEntity
  8
10
  6
Continuous
100
AcDbLine
 10
173.5215137207233
 20
150.9499903999998
 30
0.0
 11
111.5215183707235
 21
150.9499903999998
 31
0.0
  0
LINE
  5
796
330
22
100
AcDbEntity
  8
10
  6
Continuous
 62
     4
100
AcDbLine
 10
111.5215183707235
 20
92.94999475
 30
0.0
 11
111.5215183707235
 21
84.94999534999996
 31
0.0
  0
LINE
  5
797
330
22
100
AcDbEntity
  8
10
  6
Continuous
100
AcDbLine
 10
173.5215137207233
 20
22.94999999999999
 30
0.0
 11
173.5215137207233
 21
150.9499903999998
 31
0.0
  0
LINE
  5
798
330
22
100
AcDbEntity
  8
10
  6
Continuous
 62
     4
100
AcDbLine
 10
111.5215183707235
 20
22.94999999999999
 30
0.0
 11
173.5215137207233
 21
22.94999999999999
 31
0.0
  0
LINE
  5
799
330
22
100
AcDbEntity
  8
10
  6
Continuous
 62
     4
100
AcDbLine
 10
169.5215140207233
 20
22.94999999999999
 30
0.0
 11
169.5215140207233
 21
35.4499990625
 31
0.0
  0
LINE
  5
79A
330
22
100
AcDbEntity
  8
10
  6
Continuous
 62
     4
100
AcDbLine
 10
164.1254469022285
 20
31.44790125005734
 30
0.0
 11
169.5215140207233
 21
31.24545331404091
 31
0.0
  0
LINE
  5
79B
330
22
100
AcDbEntity
  8
10
  6
Continuous
 62
     4
100
AcDbLine
 10
138.6211449900512
 20
31.63481238833897
 30
0.0
 11
164.1254469022285
 21
31.44790125005734
 31
0.0
  0
LINE
  5
79C
330
22
100
AcDbEntity
  8
10
  6
Continuous
 62
     4
100
AcDbLine
 10
133.0086084301913
 20
31.80555824563306
 30
0.0
 11
138.6211449900512
 21
31.63481238833897
 31
0.0
  0
LINE
  5
79D
330
22
100
AcDbEntity
  8
10
  6
Continuous
 62
     4
100
AcDbLine
 10
127.28782928495
 20
31.96202427179811
 30
0.0
 11
133.0086084301913
 21
31.80555824563306
 31
0.0
  0
LINE
  5
79E
330
22
100
AcDbEntity
  8
10
  6
Continuous
 62
     4
100
AcDbLine
 10
173.5215137207233
 20
24.4499998875
 30
0.0
 11
169.5215140207233
 21
24.4499998875
 31
0.0
  0
LINE
  5
79F
330
22
100
AcDbEntity
  8
10
  6
Continuous
 62
     4
100
AcDbLine
 10
169.5215140207233
 20
35.4499990625
 30
0.0
 11
115.5215180707235
 21
35.4499990625
 31
0.0
  0
LINE
  5
7A0
330
22
100
AcDbEntity
  8
10
  6
Continuous
 62
     4
100
AcDbLine
 10
115.5215180707235
 20
35.4499990625
 30
0.0
 11
115.5215180707235
 21
32.23714469786408
 31
0.0
  0
LINE
  5
7A1
330
22
100
AcDbEntity
  8
10
  6
Continuous
 62
     4
100
AcDbLine
 10
121.4587981164275
 20
32.10609591699271
 30
0.0
 11
127.28782928495
 21
31.96202427179811
 31
0.0
  0
LINE
  5
7A2
330
22
100
AcDbEntity
  8
10
  6
Continuous
 62
     4
100
AcDbLine
 10
115.5215180707235
 20
32.23714469786408
 30
0.0
 11
121.4587981164275
 21
32.10609591699271
 31
0.0
  0
LINE
  5
7A3
330
22
100
AcDbEntity
  8
10
  6
Continuous
 62
     4
100
AcDbLine
 10
111.5215183707235
 20
32.94999924999999
 30
0.0
 11
115.5215180707235
 21
32.94999924999999
 31
0.0
  0
LINE
  5
7A4
330
22
100
AcDbEntity
  8
10
  6
Continuous
 62
     4
100
AcDbLine
 10
111.5215183707235
 20
38.94999879999996
 30
0.0
 11
111.5215183707235
 21
38.64999882249994
 31
0.0
  0
LINE
  5
7A5
330
22
100
AcDbEntity
  8
10
  6
Continuous
 62
     4
100
AcDbLine
 10
105.5215188207234
 20
56.94999745
 30
0.0
 11
105.5215188207234
 21
63.949996925
 31
0.0
  0
LINE
  5
7A6
330
22
100
AcDbEntity
  8
10
  6
Continuous
 62
     4
100
AcDbLine
 10
103.5215189707235
 20
56.94999745
 30
0.0
 11
103.5215189707235
 21
63.949996925
 31
0.0
  0
LINE
  5
7A7
330
22
100
AcDbEntity
  8
10
  6
Continuous
 62
     4
100
AcDbLine
 10
103.5215189707235
 20
63.949996925
 30
0.0
 11
106.0215187832235
 21
63.949996925
 31
0.0
  0
LINE
  5
7A8
330
22
100
AcDbEntity
  8
10
  6
Continuous
 62
     4
100
AcDbLine
 10
103.5215189707235
 20
56.94999745
 30
0.0
 11
106.0215187832235
 21
56.94999745
 31
0.0
  0
LINE
  5
7A9
330
22
100
AcDbEntity
  8
10
  6
Continuous
 62
     4
100
AcDbLine
 10
103.5215189707235
 20
120.9499926499999
 30
0.0
 11
106.0215187832235
 21
120.9499926499999
 31
0.0
  0
LINE
  5
7AA
330
22
100
AcDbEntity
  8
10
  6
Continuous
 62
     4
100
AcDbLine
 10
103.5215189707235
 20
113.9499931749996
 30
0.0
 11
106.0215187832235
 21
113.9499931749996
 31
0.0
  0
LINE
  5
7AB
330
22
100
AcDbEntity
  8
10
  6
Continuous
 62
     4
100
AcDbLine
 10
105.5215188207234
 20
113.9499931749996
 30
0.0
 11
105.5215188207234
 21
120.9499926499999
 31
0.0
  0
LINE
  5
7AC
330
22
100
AcDbEntity
  8
10
  6
Continuous
 62
     4
100
AcDbLine
 10
103.5215189707235
 20
113.9499931749996
 30
0.0
 11
103.5215189707235
 21
120.9499926499999
 31
0.0
  0
ARC
  5
7EB
330
22
100
AcDbEntity
  8
10
  6
Continuous
100
AcDbCircle
 10
-100.2999999999999
 20
149.9499904749999
 30
0.0
 40
0.9999999249999927
100
AcDbArc
 50
90.0
 51
180.0
  0
ARC
  5
84C
330
22
100
AcDbEntity
  8
10
  6
Continuous
100
AcDbCircle
 10
-100.2999999999999
 20
23.94999992499998
 30
0.0
 40
0.9999999249999763
100
AcDbArc
 50
180.0000000000004
 51
270.0000000000009
  0
LINE
  5
91F
330
22
100
AcDbEntity
  8
10
  6
Continuous
 62
     4
100
AcDbLine
 10
-33.32648612651391
 20
23.75066861744982
 30
0.0
 11
-33.31039848832051
 21
23.8547353734448
 31
0.0
  0
LINE
  5
920
330
22
100
AcDbEntity
  8
10
  6
Continuous
 62
     4
100
AcDbLine
 10
-33.35504548117194
 20
23.64388941885827
 30
0.0
 11
-33.32648612651391
 21
23.75066861744982
 31
0.0
  0
LINE
  5
921
330
22
100
AcDbEntity
  8
10
  6
Continuous
 62
     4
100
AcDbLine
 10
-33.3967761891422
 20
23.53750325563717
 30
0.0
 11
-33.35504548117194
 21
23.64388941885827
 31
0.0
  0
LINE
  5
922
330
22
100
AcDbEntity
  8
10
  6
Continuous
 62
     4
100
AcDbLine
 10
-33.31039848832051
 20
23.8547353734448
 30
0.0
 11
-33.3053329339004
 21
23.95517552911179
 31
0.0
  0
LINE
  5
923
330
22
100
AcDbEntity
  8
10
  6
Continuous
 62
     4
100
AcDbLine
 10
-33.45179861471549
 20
23.43423118578264
 30
0.0
 11
-33.3967761891422
 21
23.53750325563717
 31
0.0
  0
LINE
  5
924
330
22
100
AcDbEntity
  8
10
  6
Continuous
 62
     4
100
AcDbLine
 10
-33.51962714122837
 20
23.33667157279962
 30
0.0
 11
-33.45179861471549
 21
23.43423118578264
 31
0.0
  0
LINE
  5
925
330
22
100
AcDbEntity
  8
10
  6
Continuous
 62
     4
100
AcDbLine
 10
-33.59914216606473
 20
23.24725598580581
 30
0.0
 11
-33.51962714122837
 21
23.33667157279962
 31
0.0
  0
LINE
  5
926
330
22
100
AcDbEntity
  8
10
  6
Continuous
 62
     4
100
AcDbLine
 10
-33.68872829184573
 20
23.16801102694912
 30
0.0
 11
-33.59914216606473
 21
23.24725598580581
 31
0.0
  0
LINE
  5
927
330
22
100
AcDbEntity
  8
10
  6
Continuous
 62
     4
100
AcDbLine
 10
-33.78633420052532
 20
23.10051636921126
 30
0.0
 11
-33.68872829184573
 21
23.16801102694912
 31
0.0
  0
LINE
  5
928
330
22
100
AcDbEntity
  8
10
  6
Continuous
 62
     4
100
AcDbLine
 10
-33.88950356448761
 20
23.04585635071069
 30
0.0
 11
-33.78633420052532
 21
23.10051636921126
 31
0.0
  0
LINE
  5
929
330
22
100
AcDbEntity
  8
10
  6
Continuous
 62
     4
100
AcDbLine
 10
-33.99562171712872
 20
23.00447622581426
 30
0.0
 11
-33.88950356448761
 21
23.04585635071069
 31
0.0
  0
ARC
  5
92A
330
22
100
AcDbEntity
  8
10
  6
Continuous
 62
     4
100
AcDbCircle
 10
-34.30000495000003
 20
23.94999992499998
 30
0.0
 40
0.9999999250000012
100
AcDbArc
 50
270.0
 51
0.0
  0
LINE
  5
92B
330
22
100
AcDbEntity
  8
10
  6
Continuous
 62
     4
100
AcDbLine
 10
-34.10197102505257
 20
22.97621082723414
 30
0.0
 11
-33.99562171712872
 21
23.00447622581426
 31
0.0
  0
LINE
  5
92C
330
22
100
AcDbEntity
  8
10
  6
Continuous
 62
     4
100
AcDbLine
 10
-34.20545633169115
 20
22.96032138472587
 30
0.0
 11
-34.10197102505257
 21
22.97621082723414
 31
0.0
  0
LINE
  5
92D
330
22
100
AcDbEntity
  8
10
  6
Continuous
 62
     4
100
AcDbLine
 10
-34.3051805541118
 20
22.95532790900036
 30
0.0
 11
-34.20545633169115
 21
22.96032138472587
 31
0.0
  0
ARC
  5
939
330
22
100
AcDbEntity
  8
10
  6
Continuous
100
AcDbCircle
 10
-34.30000495000003
 20
149.9499904749999
 30
0.0
 40
0.9999999249999927
100
AcDbArc
 50
0.0
 51
90.0
  0
LINE
  5
94E
330
22
100
AcDbEntity
  8
10
  6
Continuous
100
AcDbLine
 10
-100.2999999999999
 20
150.9499903999999
 30
0.0
 11
-34.30000495000003
 21
150.9499903999999
 31
0.0
  0
ARC
  5
998
330
22
100
AcDbEntity
  8
11
  6
Continuous
 62
     7
100
AcDbCircle
 10
-67.30000247500001
 20
262.2499820524999
 30
0.0
 40
175.2999868525004
100
AcDbArc
 50
260.8694598375578
 51
279.1305401624421
  0
ARC
  5
999
330
22
100
AcDbEntity
  8
11
  6
Continuous
 62
     7
100
AcDbCircle
 10
-39.80000453750002
 20
91.14581609361342
 30
0.0
 40
1.999999849999993
100
AcDbArc
 50
279.1305401624001
 51
0.0
  0
LINE
  5
99A
330
22
100
AcDbEntity
  8
11
  6
Continuous
 62
     7
100
AcDbLine
 10
-37.80000468750002
 20
138.9499912999999
 30
0.0
 11
-37.80000468750002
 21
91.14581609361342
 31
0.0
  0
ARC
  5
99B
330
22
100
AcDbEntity
  8
11
  6
Continuous
 62
     7
100
AcDbCircle
 10
-38.80000461250002
 20
138.9499912999999
 30
0.0
 40
0.9999999250000012
100
AcDbArc
 50
0.0
 51
90.0
  0
LINE
  5
99C
330
22
100
AcDbEntity
  8
11
  6
Continuous
 62
     7
100
AcDbLine
 10
-38.80000461250002
 20
139.9499912249998
 30
0.0
 11
-95.8000003375
 21
139.9499912249998
 31
0.0
  0
ARC
  5
99D
330
22
100
AcDbEntity
  8
11
  6
Continuous
 62
     7
100
AcDbCircle
 10
-95.8000003375
 20
138.9499912999999
 30
0.0
 40
0.9999999249999927
100
AcDbArc
 50
90.0
 51
180.0
  0
LINE
  5
99E
330
22
100
AcDbEntity
  8
11
  6
Continuous
 62
     7
100
AcDbLine
 10
-96.80000026250002
 20
91.14581609361342
 30
0.0
 11
-96.80000026250002
 21
138.9499912999999
 31
0.0
  0
ARC
  5
99F
330
22
100
AcDbEntity
  8
11
  6
Continuous
 62
     7
100
AcDbCircle
 10
-94.80000041250002
 20
91.14581609361342
 30
0.0
 40
1.999999850000003
100
AcDbArc
 50
180.0
 51
260.869459837558
  0
LINE
  5
9E3
330
22
100
AcDbEntity
  8
10
  6
Continuous
 62
     4
100
AcDbLine
 10
-101.299999925
 20
23.94999992499998
 30
0.0
 11
-101.299999925
 21
149.9499904749999
 31
0.0
  0
LINE
  5
9E6
330
22
100
AcDbEntity
  8
10
  6
Continuous
100
AcDbLine
 10
-33.30528724250385
 20
23.95517552911179
 30
0.0
 11
-33.30528724250385
 21
149.9448148706879
 31
0.0
  0
LINE
  5
9E7
330
22
100
AcDbEntity
  8
10
  6
Continuous
 62
     4
100
AcDbLine
 10
-33.30000502499999
 20
23.94999992499998
 30
0.0
 11
-33.30000502499999
 21
149.9499904749999
 31
0.0
  0
ARC
  5
9F4
330
22
100
AcDbEntity
  8
10
  6
Continuous
 62
     4
100
AcDbCircle
 10
52.02152283322357
 20
148.8187729168411
 30
0.0
 40
1.999999850000028
100
AcDbArc
 50
91.00000000000013
 51
180.0
  0
LINE
  5
9F5
330
22
100
AcDbEntity
  8
10
  6
Continuous
 62
     4
100
AcDbLine
 10
59.21628657171631
 20
150.9446624910992
 30
0.0
 11
51.98661802294147
 21
150.8184681571639
 31
0.0
  0
LINE
  5
9F6
330
22
100
AcDbEntity
  8
10
  6
Continuous
 62
     4
100
AcDbLine
 10
50.02152298322357
 20
148.8187729168411
 30
0.0
 11
50.02152298322357
 21
102.8555702727816
 31
0.0
  0
ARC
  5
9F7
330
22
100
AcDbEntity
  8
10
  6
Continuous
 62
     4
100
AcDbCircle
 10
59.22152229322357
 20
150.644708204996
 30
0.0
 40
0.2999999775000117
100
AcDbArc
 50
0.0
 51
90.99999999999743
  0
LINE
  5
9F8
330
22
100
AcDbEntity
  8
10
  6
Continuous
 62
     4
100
AcDbLine
 10
59.52152227072359
 20
23.24999997749998
 30
0.0
 11
59.52152227072359
 21
150.6499904224999
 31
0.0
  0
ARC
  5
9F9
330
22
100
AcDbEntity
  8
10
  6
Continuous
 62
     4
100
AcDbCircle
 10
55.4215225782236
 20
135.9999915212499
 30
0.0
 40
0.4999999624999968
100
AcDbArc
 50
90.0
 51
180.0
  0
ARC
  5
9FA
330
22
100
AcDbEntity
  8
10
  6
Continuous
 62
     4
100
AcDbCircle
 10
56.62152248822362
 20
135.9999915212499
 30
0.0
 40
0.4999999624999988
100
AcDbArc
 50
0.0
 51
90.0
  0
LINE
  5
9FB
330
22
100
AcDbEntity
  8
10
  6
Continuous
 62
     4
100
AcDbLine
 10
56.62152248822362
 20
136.4999914837498
 30
0.0
 11
55.4215225782236
 21
136.4999914837498
 31
0.0
  0
LINE
  5
9FC
330
22
100
AcDbEntity
  8
10
  6
Continuous
 62
     4
100
AcDbLine
 10
54.92152261572361
 20
135.9999915212499
 30
0.0
 11
54.92152261572361
 21
132.8999917537497
 31
0.0
  0
ARC
  5
9FD
330
22
100
AcDbEntity
  8
10
  6
Continuous
 62
     4
100
AcDbCircle
 10
55.4215225782236
 20
132.8999917537497
 30
0.0
 40
0.4999999625000013
100
AcDbArc
 50
180.0
 51
270.0
  0
LINE
  5
9FE
330
22
100
AcDbEntity
  8
10
  6
Continuous
 62
     4
100
AcDbLine
 10
56.62152248822362
 20
132.3999917912497
 30
0.0
 11
55.4215225782236
 21
132.3999917912497
 31
0.0
  0
ARC
  5
9FF
330
22
100
AcDbEntity
  8
10
  6
Continuous
 62
     4
100
AcDbCircle
 10
56.62152248822362
 20
132.8999917537497
 30
0.0
 40
0.4999999624999968
100
AcDbArc
 50
270.0
 51
0.0
  0
LINE
  5
A00
330
22
100
AcDbEntity
  8
10
  6
Continuous
 62
     4
100
AcDbLine
 10
57.12152245072362
 20
135.9999915212499
 30
0.0
 11
57.12152245072362
 21
132.8999917537497
 31
0.0
  0
ARC
  5
A01
330
22
100
AcDbEntity
  8
10
  6
Continuous
 62
     4
100
AcDbCircle
 10
-29.97847101677641
 20
102.8555702727816
 30
0.0
 40
79.999994
100
AcDbArc
 50
340.6911693152
 51
0.0
  0
ARC
  5
A02
330
22
100
AcDbEntity
  8
10
  6
Continuous
 62
     4
100
AcDbCircle
 10
121.0215176582235
 20
49.94999797499997
 30
0.0
 40
79.999994
100
AcDbArc
 50
160.6911693151999
 51
198.5251531004028
  0
LINE
  5
A03
330
22
100
AcDbEntity
  8
10
  6
Continuous
 62
     4
100
AcDbLine
 10
47.0282456717194
 20
23.16807095424466
 30
0.0
 11
59.21628657171631
 21
22.95532790900036
 31
0.0
  0
ARC
  5
A04
330
22
100
AcDbEntity
  8
10
  6
Continuous
 62
     4
100
AcDbCircle
 10
59.22152229322357
 20
23.25528741730339
 30
0.0
 40
0.2999999774999953
100
AcDbArc
 50
269.000017406399
 51
359.9990026204025
  0
ARC
  5
A05
330
22
100
AcDbEntity
  8
10
  6
Continuous
 62
     4
100
AcDbCircle
 10
56.62152248822362
 20
45.99999827124999
 30
0.0
 40
0.4999999624999988
100
AcDbArc
 50
0.0
 51
90.0
  0
ARC
  5
A06
330
22
100
AcDbEntity
  8
10
  6
Continuous
 62
     4
100
AcDbCircle
 10
55.4215225782236
 20
45.99999827124999
 30
0.0
 40
0.4999999624999968
100
AcDbArc
 50
90.0
 51
180.0
  0
LINE
  5
A07
330
22
100
AcDbEntity
  8
10
  6
Continuous
 62
     4
100
AcDbLine
 10
56.62152248822362
 20
46.49999823374999
 30
0.0
 11
55.4215225782236
 21
46.49999823374999
 31
0.0
  0
ARC
  5
A08
330
22
100
AcDbEntity
  8
10
  6
Continuous
 62
     4
100
AcDbCircle
 10
55.4215225782236
 20
42.89999850374996
 30
0.0
 40
0.4999999625000013
100
AcDbArc
 50
180.0
 51
270.0
  0
LINE
  5
A09
330
22
100
AcDbEntity
  8
10
  6
Continuous
 62
     4
100
AcDbLine
 10
54.92152261572361
 20
45.99999827124999
 30
0.0
 11
54.92152261572361
 21
42.89999850374996
 31
0.0
  0
ARC
  5
A0A
330
22
100
AcDbEntity
  8
10
  6
Continuous
 62
     4
100
AcDbCircle
 10
56.62152248822362
 20
42.89999850374996
 30
0.0
 40
0.4999999625000048
100
AcDbArc
 50
270.0
 51
0.0
  0
LINE
  5
A0B
330
22
100
AcDbEntity
  8
10
  6
Continuous
 62
     4
100
AcDbLine
 10
56.62152248822362
 20
42.39999854124993
 30
0.0
 11
55.4215225782236
 21
42.39999854124993
 31
0.0
  0
LINE
  5
A0C
330
22
100
AcDbEntity
  8
10
  6
Continuous
 62
     4
100
AcDbLine
 10
57.12152245072362
 20
45.99999827124999
 30
0.0
 11
57.12152245072362
 21
42.89999850374996
 31
0.0
  0
LINE
  5
A0D
330
22
100
AcDbEntity
  8
10
  6
Continuous
 62
     4
100
AcDbLine
 10
59.52152227072359
 20
150.6499904224999
 30
0.0
 11
59.52152227072359
 21
149.3890939235059
 31
0.0
  0
ARC
  5
A10
330
22
100
AcDbEntity
  8
10
  6
Continuous
 62
     4
100
AcDbCircle
 10
47.06315048194245
 20
25.16776619458088
 30
0.0
 40
1.999999850000014
100
AcDbArc
 50
198.5251531004029
 51
269.00000000006
  0
LINE
  5
A33
330
22
100
AcDbEntity
  8
11
  6
Continuous
 62
     7
100
AcDbLine
 10
-69.00604685834665
 20
138.3543657541717
 30
0.0
 11
-71.22487331123467
 21
137.3246048137038
 31
0.0
  0
LINE
  5
A34
330
22
100
AcDbEntity
  8
11
  6
Continuous
 62
     7
100
AcDbLine
 10
-71.22487331123467
 20
137.3246048137038
 30
0.0
 11
-71.22487331123467
 21
125.5753789112959
 31
0.0
  0
LINE
  5
A35
330
22
100
AcDbEntity
  8
11
  6
Continuous
 62
     7
100
AcDbLine
 10
-71.80000213750003
 20
125.9499922749997
 30
0.0
 11
-71.80000213750003
 21
136.9499914499995
 31
0.0
  0
LINE
  5
A36
330
22
100
AcDbEntity
  8
11
  6
Continuous
 62
     7
100
AcDbLine
 10
-71.22487331123467
 20
125.5753789112959
 30
0.0
 11
-69.00604685834665
 21
124.5456179708279
 31
0.0
  0
LINE
  5
A37
330
22
100
AcDbEntity
  8
11
  6
Continuous
 62
     7
100
AcDbLine
 10
-92.80000056250001
 20
125.9499922749997
 30
0.0
 11
-71.80000213750003
 21
125.9499922749997
 31
0.0
  0
LINE
  5
A38
330
22
100
AcDbEntity
  8
11
  6
Continuous
 62
     7
100
AcDbLine
 10
-71.22487331123467
 20
125.5753789112959
 30
0.0
 11
-93.37512938876534
 21
125.5753789112959
 31
0.0
  0
LINE
  5
A39
330
22
100
AcDbEntity
  8
11
  6
Continuous
 62
     7
100
AcDbLine
 10
-93.37512938876534
 20
125.5753789112959
 30
0.0
 11
-95.59395584165331
 21
124.5456179708279
 31
0.0
  0
LINE
  5
A3A
330
22
100
AcDbEntity
  8
11
  6
Continuous
 62
     7
100
AcDbLine
 10
-92.80000056250001
 20
136.9499914499995
 30
0.0
 11
-92.80000056250001
 21
125.9499922749997
 31
0.0
  0
LINE
  5
A3B
330
22
100
AcDbEntity
  8
11
  6
Continuous
 62
     7
100
AcDbLine
 10
-93.37512938876534
 20
125.5753789112959
 30
0.0
 11
-93.37512938876534
 21
137.3246048137038
 31
0.0
  0
LINE
  5
A3C
330
22
100
AcDbEntity
  8
11
  6
Continuous
 62
     7
100
AcDbLine
 10
-93.37512938876534
 20
137.3246048137038
 30
0.0
 11
-71.22487331123467
 21
137.3246048137038
 31
0.0
  0
LINE
  5
A3D
330
22
100
AcDbEntity
  8
11
  6
Continuous
 62
     7
100
AcDbLine
 10
-71.80000213750003
 20
136.9499914499995
 30
0.0
 11
-92.80000056250001
 21
136.9499914499995
 31
0.0
  0
LINE
  5
A3E
330
22
100
AcDbEntity
  8
11
  6
Continuous
 62
     7
100
AcDbLine
 10
-93.37512938876534
 20
137.3246048137038
 30
0.0
 11
-95.59395584165331
 21
138.3543657541717
 31
0.0
  0
LINE
  5
A3F
330
22
100
AcDbEntity
  8
10
  6
Continuous
 62
     4
100
AcDbLine
 10
111.5215183707235
 20
150.9499903999998
 30
0.0
 11
59.82152224822359
 21
150.9499903999998
 31
0.0
  0
ARC
  5
A40
330
22
100
AcDbEntity
  8
10
  6
Continuous
 62
     4
100
AcDbCircle
 10
67.72152165572356
 20
145.4499908125
 30
0.0
 40
1.4999998875
100
AcDbArc
 50
0.0
 51
180.0
  0
ARC
  5
A41
330
22
100
AcDbEntity
  8
10
  6
Continuous
 62
     4
100
AcDbCircle
 10
72.52152129572356
 20
145.4499908125
 30
0.0
 40
1.499999887499995
100
AcDbArc
 50
0.0
 51
180.0
  0
ARC
  5
A42
330
22
100
AcDbEntity
  8
10
  6
Continuous
 62
     4
100
AcDbCircle
 10
77.32152093572358
 20
145.4499908125
 30
0.0
 40
1.499999887499995
100
AcDbArc
 50
0.0
 51
180.0
  0
ARC
  5
A43
330
22
100
AcDbEntity
  8
10
  6
Continuous
 62
     4
100
AcDbCircle
 10
82.12152057572358
 20
145.4499908125
 30
0.0
 40
1.499999887500004
100
AcDbArc
 50
0.0
 51
180.0
  0
ARC
  5
A44
330
22
100
AcDbEntity
  8
10
  6
Continuous
 62
     4
100
AcDbCircle
 10
86.92152021572359
 20
145.4499908125
 30
0.0
 40
1.499999887499995
100
AcDbArc
 50
0.0
 51
180.0
  0
ARC
  5
A45
330
22
100
AcDbEntity
  8
10
  6
Continuous
 62
     4
100
AcDbCircle
 10
91.72151985572352
 20
145.4499908125
 30
0.0
 40
1.499999887499995
100
AcDbArc
 50
0.0
 51
180.0
  0
ARC
  5
A46
330
22
100
AcDbEntity
  8
10
  6
Continuous
 62
     4
100
AcDbCircle
 10
96.52151949572356
 20
145.4499908125
 30
0.0
 40
1.499999887500004
100
AcDbArc
 50
0.0
 51
180.0
  0
LINE
  5
A47
330
22
100
AcDbEntity
  8
10
  6
Continuous
 62
     4
100
AcDbLine
 10
69.22152154322358
 20
141.9499910749999
 30
0.0
 11
66.22152176822353
 21
141.9499910749999
 31
0.0
  0
LINE
  5
A48
330
22
100
AcDbEntity
  8
10
  6
Continuous
 62
     4
100
AcDbLine
 10
74.02152118322359
 20
141.9499910749999
 30
0.0
 11
71.02152140822361
 21
141.9499910749999
 31
0.0
  0
LINE
  5
A49
330
22
100
AcDbEntity
  8
10
  6
Continuous
 62
     4
100
AcDbLine
 10
78.02152088322358
 20
141.9499910749999
 30
0.0
 11
75.82152104822359
 21
141.9499910749999
 31
0.0
  0
LINE
  5
A4A
330
22
100
AcDbEntity
  8
10
  6
Continuous
 62
     4
100
AcDbLine
 10
95.02151960822358
 20
140.7999911612498
 30
0.0
 11
98.02151938322353
 21
140.7999911612498
 31
0.0
  0
LINE
  5
A4B
330
22
100
AcDbEntity
  8
10
  6
Continuous
 62
     4
100
AcDbLine
 10
90.22151996822357
 20
140.7999911612498
 30
0.0
 11
93.22151974322357
 21
140.7999911612498
 31
0.0
  0
LINE
  5
A4C
330
22
100
AcDbEntity
  8
10
  6
Continuous
 62
     4
100
AcDbLine
 10
85.42152032822363
 20
140.7999911612498
 30
0.0
 11
88.42152010322363
 21
140.7999911612498
 31
0.0
  0
LINE
  5
A4D
330
22
100
AcDbEntity
  8
10
  6
Continuous
 62
     4
100
AcDbLine
 10
80.62152068822362
 20
140.7999911612498
 30
0.0
 11
83.62152046322362
 21
140.7999911612498
 31
0.0
  0
LINE
  5
A4E
330
22
100
AcDbEntity
  8
10
  6
Continuous
 62
     4
100
AcDbLine
 10
75.82152104822359
 20
140.7999911612498
 30
0.0
 11
78.8215208232236
 21
140.7999911612498
 31
0.0
  0
LINE
  5
A4F
330
22
100
AcDbEntity
  8
10
  6
Continuous
 62
     4
100
AcDbLine
 10
71.02152140822361
 20
140.7999911612498
 30
0.0
 11
74.02152118322359
 21
140.7999911612498
 31
0.0
  0
LINE
  5
A50
330
22
100
AcDbEntity
  8
10
  6
Continuous
 62
     4
100
AcDbLine
 10
66.22152176822353
 20
140.7999911612498
 30
0.0
 11
69.22152154322358
 21
140.7999911612498
 31
0.0
  0
LINE
  5
A51
330
22
100
AcDbEntity
  8
10
  6
Continuous
 62
     4
100
AcDbLine
 10
69.22152154322358
 20
138.7999913112494
 30
0.0
 11
66.22152176822353
 21
138.7999913112494
 31
0.0
  0
LINE
  5
A52
330
22
100
AcDbEntity
  8
10
  6
Continuous
 62
     4
100
AcDbLine
 10
74.02152118322359
 20
138.7999913112494
 30
0.0
 11
71.02152140822361
 21
138.7999913112494
 31
0.0
  0
LINE
  5
A53
330
22
100
AcDbEntity
  8
10
  6
Continuous
 62
     4
100
AcDbLine
 10
78.8215208232236
 20
138.7999913112494
 30
0.0
 11
75.82152104822359
 21
138.7999913112494
 31
0.0
  0
LINE
  5
A54
330
22
100
AcDbEntity
  8
10
  6
Continuous
 62
     4
100
AcDbLine
 10
83.62152046322362
 20
138.7999913112494
 30
0.0
 11
80.62152068822362
 21
138.7999913112494
 31
0.0
  0
LINE
  5
A55
330
22
100
AcDbEntity
  8
10
  6
Continuous
 62
     4
100
AcDbLine
 10
88.42152010322363
 20
138.7999913112494
 30
0.0
 11
85.42152032822363
 21
138.7999913112494
 31
0.0
  0
LINE
  5
A56
330
22
100
AcDbEntity
  8
10
  6
Continuous
 62
     4
100
AcDbLine
 10
93.22151974322357
 20
138.7999913112494
 30
0.0
 11
90.22151996822357
 21
138.7999913112494
 31
0.0
  0
LINE
  5
A57
330
22
100
AcDbEntity
  8
10
  6
Continuous
 62
     4
100
AcDbLine
 10
90.22151996822357
 20
137.9499913749999
 30
0.0
 11
93.22151974322357
 21
137.9499913749999
 31
0.0
  0
LINE
  5
A58
330
22
100
AcDbEntity
  8
10
  6
Continuous
 62
     4
100
AcDbLine
 10
87.5215201707236
 20
137.9499913749999
 30
0.0
 11
88.42152010322363
 21
137.9499913749999
 31
0.0
  0
LINE
  5
A59
330
22
100
AcDbEntity
  8
10
  6
Continuous
 62
     4
100
AcDbLine
 10
67.22152169322358
 20
136.1999915062497
 30
0.0
 11
66.22152176822353
 21
136.1999915062497
 31
0.0
  0
LINE
  5
A5A
330
22
100
AcDbEntity
  8
10
  6
Continuous
 62
     4
100
AcDbLine
 10
71.02152140822361
 20
135.9499915249999
 30
0.0
 11
74.02152118322359
 21
135.9499915249999
 31
0.0
  0
LINE
  5
A5B
330
22
100
AcDbEntity
  8
10
  6
Continuous
 62
     4
100
AcDbLine
 10
67.22152169322358
 20
135.9499915249999
 30
0.0
 11
69.22152154322358
 21
135.9499915249999
 31
0.0
  0
LINE
  5
A5C
330
22
100
AcDbEntity
  8
10
  6
Continuous
 62
     4
100
AcDbLine
 10
78.59533215318776
 20
136.022030319497
 30
0.0
 11
78.8215208232236
 21
136.0346439888508
 31
0.0
  0
LINE
  5
A5D
330
22
100
AcDbEntity
  8
10
  6
Continuous
 62
     4
100
AcDbLine
 10
78.20005518823355
 20
136.0034981966868
 30
0.0
 11
78.59533215318776
 21
136.022030319497
 31
0.0
  0
LINE
  5
A5E
330
22
100
AcDbEntity
  8
10
  6
Continuous
 62
     4
100
AcDbLine
 10
77.75962369336588
 20
135.9866223072525
 30
0.0
 11
78.20005518823355
 21
136.0034981966868
 31
0.0
  0
LINE
  5
A5F
330
22
100
AcDbEntity
  8
10
  6
Continuous
 62
     4
100
AcDbLine
 10
77.27172803865804
 20
135.9720229333474
 30
0.0
 11
77.75962369336588
 21
135.9866223072525
 31
0.0
  0
LINE
  5
A60
330
22
100
AcDbEntity
  8
10
  6
Continuous
 62
     4
100
AcDbLine
 10
76.73545094117883
 20
135.9604537422153
 30
0.0
 11
77.27172803865804
 21
135.9720229333474
 31
0.0
  0
LINE
  5
A61
330
22
100
AcDbEntity
  8
10
  6
Continuous
 62
     4
100
AcDbLine
 10
76.14999260008826
 20
135.9527719854912
 30
0.0
 11
76.73545094117883
 21
135.9604537422153
 31
0.0
  0
LINE
  5
A62
330
22
100
AcDbEntity
  8
10
  6
Continuous
 62
     4
100
AcDbLine
 10
75.82152104822359
 20
135.9513187738002
 30
0.0
 11
76.14999260008826
 21
135.9527719854912
 31
0.0
  0
LINE
  5
A63
330
22
100
AcDbEntity
  8
10
  6
Continuous
 62
     4
100
AcDbLine
 10
86.77036849345993
 20
137.9462780272781
 30
0.0
 11
87.5215201707236
 21
137.9499913749999
 31
0.0
  0
LINE
  5
A64
330
22
100
AcDbEntity
  8
10
  6
Continuous
 62
     4
100
AcDbLine
 10
86.03277333967957
 20
137.9352486703055
 30
0.0
 11
86.77036849345993
 21
137.9462780272781
 31
0.0
  0
LINE
  5
A65
330
22
100
AcDbEntity
  8
10
  6
Continuous
 62
     4
100
AcDbLine
 10
85.42152032822363
 20
137.9197197643699
 30
0.0
 11
86.03277333967957
 21
137.9352486703055
 31
0.0
  0
LINE
  5
A66
330
22
100
AcDbEntity
  8
10
  6
Continuous
 62
     4
100
AcDbLine
 10
78.02152088322358
 20
141.9499910749999
 30
0.0
 11
78.02152088322358
 21
140.7999911612498
 31
0.0
  0
LINE
  5
A67
330
22
100
AcDbEntity
  8
10
  6
Continuous
 62
     4
100
AcDbLine
 10
83.45852855094797
 20
137.8274999342867
 30
0.0
 11
83.62152046322362
 21
137.8376004930288
 31
0.0
  0
LINE
  5
A68
330
22
100
AcDbEntity
  8
10
  6
Continuous
 62
     4
100
AcDbLine
 10
82.97072658403314
 20
137.7899993986993
 30
0.0
 11
83.45852855094797
 21
137.8274999342867
 31
0.0
  0
LINE
  5
A69
330
22
100
AcDbEntity
  8
10
  6
Continuous
 62
     4
100
AcDbLine
 10
82.54542259743093
 20
137.750054694595
 30
0.0
 11
82.97072658403314
 21
137.7899993986993
 31
0.0
  0
LINE
  5
A6A
330
22
100
AcDbEntity
  8
10
  6
Continuous
 62
     4
100
AcDbLine
 10
82.17899950261266
 20
137.7083401167237
 30
0.0
 11
82.54542259743093
 21
137.750054694595
 31
0.0
  0
LINE
  5
A6B
330
22
100
AcDbEntity
  8
10
  6
Continuous
 62
     4
100
AcDbLine
 10
81.85761008441691
 20
137.6640549928449
 30
0.0
 11
82.17899950261266
 21
137.7083401167237
 31
0.0
  0
LINE
  5
A6C
330
22
100
AcDbEntity
  8
10
  6
Continuous
 62
     4
100
AcDbLine
 10
81.56996666849011
 20
137.6158071076635
 30
0.0
 11
81.85761008441691
 21
137.6640549928449
 31
0.0
  0
LINE
  5
A6D
330
22
100
AcDbEntity
  8
10
  6
Continuous
 62
     4
100
AcDbLine
 10
81.30462776819056
 20
137.5610073956736
 30
0.0
 11
81.56996666849011
 21
137.6158071076635
 31
0.0
  0
LINE
  5
A6E
330
22
100
AcDbEntity
  8
10
  6
Continuous
 62
     4
100
AcDbLine
 10
81.04626530116775
 20
137.4941805665857
 30
0.0
 11
81.30462776819056
 21
137.5610073956736
 31
0.0
  0
LINE
  5
A6F
330
22
100
AcDbEntity
  8
10
  6
Continuous
 62
     4
100
AcDbLine
 10
80.79057546214444
 20
137.4100455888954
 30
0.0
 11
81.04626530116775
 21
137.4941805665857
 31
0.0
  0
LINE
  5
A70
330
22
100
AcDbEntity
  8
10
  6
Continuous
 62
     4
100
AcDbLine
 10
80.62152068822362
 20
137.338507571761
 30
0.0
 11
80.79057546214444
 21
137.4100455888954
 31
0.0
  0
ARC
  5
A71
330
22
100
AcDbEntity
  8
10
  6
Continuous
 62
     4
100
AcDbCircle
 10
59.82152224822359
 20
150.6499904224999
 30
0.0
 40
0.2999999775000282
100
AcDbArc
 50
90.0
 51
180.0
  0
LINE
  5
A72
330
22
100
AcDbEntity
  8
10
  6
Continuous
 62
     4
100
AcDbLine
 10
67.22152169322358
 20
136.1999915062497
 30
0.0
 11
67.22152169322358
 21
130.6999919187499
 31
0.0
  0
LINE
  5
A73
330
22
100
AcDbEntity
  8
10
  6
Continuous
 62
     4
100
AcDbLine
 10
86.85905154810869
 20
132.9469012785317
 30
0.0
 11
87.5215191231237
 21
132.9499917499999
 31
0.0
  0
LINE
  5
A74
330
22
100
AcDbEntity
  8
10
  6
Continuous
 62
     4
100
AcDbLine
 10
86.22855140959625
 20
132.9381039505912
 30
0.0
 11
86.85905154810869
 21
132.9469012785317
 31
0.0
  0
LINE
  5
A75
330
22
100
AcDbEntity
  8
10
  6
Continuous
 62
     4
100
AcDbLine
 10
85.63596989163984
 20
132.9243156021254
 30
0.0
 11
86.22855140959625
 21
132.9381039505912
 31
0.0
  0
LINE
  5
A76
330
22
100
AcDbEntity
  8
10
  6
Continuous
 62
     4
100
AcDbLine
 10
85.42152032822363
 20
132.9172823439532
 30
0.0
 11
85.63596989163984
 21
132.9243156021254
 31
0.0
  0
LINE
  5
A77
330
22
100
AcDbEntity
  8
10
  6
Continuous
 62
     4
100
AcDbLine
 10
90.22151996822357
 20
132.9499917499999
 30
0.0
 11
93.22151974322357
 21
132.9499917499999
 31
0.0
  0
LINE
  5
A78
330
22
100
AcDbEntity
  8
10
  6
Continuous
 62
     4
100
AcDbLine
 10
87.5215201707236
 20
132.9499917499999
 30
0.0
 11
88.42152010322363
 21
132.9499917499999
 31
0.0
  0
LINE
  5
A79
330
22
100
AcDbEntity
  8
10
  6
Continuous
 62
     4
100
AcDbLine
 10
71.02152140822361
 20
130.9499918999995
 30
0.0
 11
74.02152118322359
 21
130.9499918999995
 31
0.0
  0
LINE
  5
A7A
330
22
100
AcDbEntity
  8
10
  6
Continuous
 62
     4
100
AcDbLine
 10
67.22152169322358
 20
130.9499918999995
 30
0.0
 11
69.22152154322358
 21
130.9499918999995
 31
0.0
  0
LINE
  5
A7B
330
22
100
AcDbEntity
  8
10
  6
Continuous
 62
     4
100
AcDbLine
 10
67.22152169322358
 20
130.6999919187499
 30
0.0
 11
66.22152176822353
 21
130.6999919187499
 31
0.0
  0
LINE
  5
A7C
330
22
100
AcDbEntity
  8
10
  6
Continuous
 62
     4
100
AcDbLine
 10
66.22152176822353
 20
129.9499919749997
 30
0.0
 11
69.22152154322358
 21
129.9499919749997
 31
0.0
  0
LINE
  5
A7D
330
22
100
AcDbEntity
  8
10
  6
Continuous
 62
     4
100
AcDbLine
 10
88.42152010322363
 20
128.9499920499997
 30
0.0
 11
86.52152024572357
 21
128.9499920499997
 31
0.0
  0
LINE
  5
A7E
330
22
100
AcDbEntity
  8
10
  6
Continuous
 62
     4
100
AcDbLine
 10
93.22151974322357
 20
128.9499920499997
 30
0.0
 11
90.22151996822357
 21
128.9499920499997
 31
0.0
  0
LINE
  5
A7F
330
22
100
AcDbEntity
  8
10
  6
Continuous
 62
     4
100
AcDbLine
 10
69.22152154322358
 20
127.949992125
 30
0.0
 11
66.22152176822353
 21
127.949992125
 31
0.0
  0
LINE
  5
A80
330
22
100
AcDbEntity
  8
10
  6
Continuous
 62
     4
100
AcDbLine
 10
78.31420820067204
 20
131.0039130518557
 30
0.0
 11
78.8215208232236
 21
131.0273198651001
 31
0.0
  0
LINE
  5
A81
330
22
100
AcDbEntity
  8
10
  6
Continuous
 62
     4
100
AcDbLine
 10
77.69620227482255
 20
130.9819843211004
 30
0.0
 11
78.31420820067204
 21
131.0039130518557
 31
0.0
  0
LINE
  5
A82
330
22
100
AcDbEntity
  8
10
  6
Continuous
 62
     4
100
AcDbLine
 10
77.02047878920172
 20
130.9649405164788
 30
0.0
 11
77.69620227482255
 21
130.9819843211004
 31
0.0
  0
LINE
  5
A83
330
22
100
AcDbEntity
  8
10
  6
Continuous
 62
     4
100
AcDbLine
 10
76.29342678233064
 20
130.9539140594056
 30
0.0
 11
77.02047878920172
 21
130.9649405164788
 31
0.0
  0
LINE
  5
A84
330
22
100
AcDbEntity
  8
10
  6
Continuous
 62
     4
100
AcDbLine
 10
75.82152104822359
 20
130.9515162412855
 30
0.0
 11
76.29342678233064
 21
130.9539140594056
 31
0.0
  0
LINE
  5
A85
330
22
100
AcDbEntity
  8
10
  6
Continuous
 62
     4
100
AcDbLine
 10
83.50750611297462
 20
132.4046049341037
 30
0.0
 11
83.62152046322362
 21
132.576426222917
 31
0.0
  0
LINE
  5
A86
330
22
100
AcDbEntity
  8
10
  6
Continuous
 62
     4
100
AcDbLine
 10
83.31865023013886
 20
132.1812778192534
 30
0.0
 11
83.50750611297462
 21
132.4046049341037
 31
0.0
  0
LINE
  5
A87
330
22
100
AcDbEntity
  8
10
  6
Continuous
 62
     4
100
AcDbLine
 10
83.14148308672644
 20
132.0110640281193
 30
0.0
 11
83.31865023013886
 21
132.1812778192534
 31
0.0
  0
LINE
  5
A88
330
22
100
AcDbEntity
  8
10
  6
Continuous
 62
     4
100
AcDbLine
 10
82.9587488837315
 20
131.8649615363769
 30
0.0
 11
83.14148308672644
 21
132.0110640281193
 31
0.0
  0
LINE
  5
A89
330
22
100
AcDbEntity
  8
10
  6
Continuous
 62
     4
100
AcDbLine
 10
82.74169922761016
 20
131.7218870966077
 30
0.0
 11
82.9587488837315
 21
131.8649615363769
 31
0.0
  0
LINE
  5
A8A
330
22
100
AcDbEntity
  8
10
  6
Continuous
 62
     4
100
AcDbLine
 10
82.52149964752517
 20
131.6039898119498
 30
0.0
 11
82.74169922761016
 21
131.7218870966077
 31
0.0
  0
LINE
  5
A8B
330
22
100
AcDbEntity
  8
10
  6
Continuous
 62
     4
100
AcDbLine
 10
82.33309248335569
 20
131.5210678759689
 30
0.0
 11
82.52149964752517
 21
131.6039898119498
 31
0.0
  0
LINE
  5
A8C
330
22
100
AcDbEntity
  8
10
  6
Continuous
 62
     4
100
AcDbLine
 10
82.15303745465986
 20
131.4547455385433
 30
0.0
 11
82.33309248335569
 21
131.5210678759689
 31
0.0
  0
LINE
  5
A8D
330
22
100
AcDbEntity
  8
10
  6
Continuous
 62
     4
100
AcDbLine
 10
81.96006673183267
 20
131.3953180867003
 30
0.0
 11
82.15303745465986
 21
131.4547455385433
 31
0.0
  0
LINE
  5
A8E
330
22
100
AcDbEntity
  8
10
  6
Continuous
 62
     4
100
AcDbLine
 10
81.75966056496314
 20
131.3439078936561
 30
0.0
 11
81.96006673183267
 21
131.3953180867003
 31
0.0
  0
LINE
  5
A8F
330
22
100
AcDbEntity
  8
10
  6
Continuous
 62
     4
100
AcDbLine
 10
81.55354146052205
 20
131.2995816714806
 30
0.0
 11
81.75966056496314
 21
131.3439078936561
 31
0.0
  0
LINE
  5
A90
330
22
100
AcDbEntity
  8
10
  6
Continuous
 62
     4
100
AcDbLine
 10
81.33293902176722
 20
131.2594589094898
 30
0.0
 11
81.55354146052205
 21
131.2995816714806
 31
0.0
  0
LINE
  5
A91
330
22
100
AcDbEntity
  8
10
  6
Continuous
 62
     4
100
AcDbLine
 10
81.09241169620679
 20
131.222214169083
 30
0.0
 11
81.33293902176722
 21
131.2594589094898
 31
0.0
  0
LINE
  5
A92
330
22
100
AcDbEntity
  8
10
  6
Continuous
 62
     4
100
AcDbLine
 10
80.82530406193979
 20
131.1868421322361
 30
0.0
 11
81.09241169620679
 21
131.222214169083
 31
0.0
  0
LINE
  5
A93
330
22
100
AcDbEntity
  8
10
  6
Continuous
 62
     4
100
AcDbLine
 10
80.62152068822362
 20
131.1637296479692
 30
0.0
 11
80.82530406193979
 21
131.1868421322361
 31
0.0
  0
LINE
  5
A94
330
22
100
AcDbEntity
  8
10
  6
Continuous
 62
     4
100
AcDbLine
 10
83.62152046322362
 20
126.9499921999996
 30
0.0
 11
82.52152054572359
 21
126.9499921999996
 31
0.0
  0
LINE
  5
A95
330
22
100
AcDbEntity
  8
10
  6
Continuous
 62
     4
100
AcDbLine
 10
86.52152024572357
 20
126.9499921999996
 30
0.0
 11
85.42152032822363
 21
126.9499921999996
 31
0.0
  0
LINE
  5
A96
330
22
100
AcDbEntity
  8
10
  6
Continuous
 62
     4
100
AcDbLine
 10
90.22151996822357
 20
117.9499928749999
 30
0.0
 11
93.22151974322357
 21
117.9499928749999
 31
0.0
  0
LINE
  5
A97
330
22
100
AcDbEntity
  8
10
  6
Continuous
 62
     4
100
AcDbLine
 10
85.42152032822363
 20
117.9499928749999
 30
0.0
 11
88.42152010322363
 21
117.9499928749999
 31
0.0
  0
LINE
  5
A98
330
22
100
AcDbEntity
  8
10
  6
Continuous
 62
     4
100
AcDbLine
 10
80.62152068822362
 20
117.9499928749999
 30
0.0
 11
83.62152046322362
 21
117.9499928749999
 31
0.0
  0
LINE
  5
A99
330
22
100
AcDbEntity
  8
10
  6
Continuous
 62
     4
100
AcDbLine
 10
75.82152104822359
 20
117.9499928749999
 30
0.0
 11
78.8215208232236
 21
117.9499928749999
 31
0.0
  0
LINE
  5
A9A
330
22
100
AcDbEntity
  8
10
  6
Continuous
 62
     4
100
AcDbLine
 10
71.02152140822361
 20
117.9499928749999
 30
0.0
 11
74.02152118322359
 21
117.9499928749999
 31
0.0
  0
LINE
  5
A9B
330
22
100
AcDbEntity
  8
10
  6
Continuous
 62
     4
100
AcDbLine
 10
66.22152176822353
 20
117.9499928749999
 30
0.0
 11
69.22152154322358
 21
117.9499928749999
 31
0.0
  0
LINE
  5
A9C
330
22
100
AcDbEntity
  8
10
  6
Continuous
 62
     4
100
AcDbLine
 10
86.52152024572357
 20
117.9499928749999
 30
0.0
 11
86.52152024572357
 21
128.9499920499997
 31
0.0
  0
LINE
  5
A9D
330
22
100
AcDbEntity
  8
10
  6
Continuous
 62
     4
100
AcDbLine
 10
82.52152054572359
 20
117.9499928749999
 30
0.0
 11
82.52152054572359
 21
126.9499921999996
 31
0.0
  0
LINE
  5
A9E
330
22
100
AcDbEntity
  8
10
  6
Continuous
 62
     4
100
AcDbLine
 10
95.02151960822358
 20
145.4499908125
 30
0.0
 11
95.02151960822358
 21
95.44999456250003
 31
0.0
  0
LINE
  5
A9F
330
22
100
AcDbEntity
  8
10
  6
Continuous
 62
     4
100
AcDbLine
 10
93.22151974322357
 20
95.44999456250003
 30
0.0
 11
93.22151974322357
 21
145.4499908125
 31
0.0
  0
LINE
  5
AA0
330
22
100
AcDbEntity
  8
10
  6
Continuous
 62
     4
100
AcDbLine
 10
90.22151996822357
 20
145.4499908125
 30
0.0
 11
90.22151996822357
 21
95.44999456250003
 31
0.0
  0
LINE
  5
AA1
330
22
100
AcDbEntity
  8
10
  6
Continuous
 62
     4
100
AcDbLine
 10
88.42152010322363
 20
95.44999456250003
 30
0.0
 11
88.42152010322363
 21
145.4499908125
 31
0.0
  0
LINE
  5
AA2
330
22
100
AcDbEntity
  8
10
  6
Continuous
 62
     4
100
AcDbLine
 10
85.42152032822363
 20
145.4499908125
 30
0.0
 11
85.42152032822363
 21
95.44999456250003
 31
0.0
  0
LINE
  5
AA3
330
22
100
AcDbEntity
  8
10
  6
Continuous
 62
     4
100
AcDbLine
 10
83.62152046322362
 20
95.44999456250003
 30
0.0
 11
83.62152046322362
 21
145.4499908125
 31
0.0
  0
LINE
  5
AA4
330
22
100
AcDbEntity
  8
10
  6
Continuous
 62
     4
100
AcDbLine
 10
80.62152068822362
 20
145.4499908125
 30
0.0
 11
80.62152068822362
 21
95.44999456250003
 31
0.0
  0
LINE
  5
AA5
330
22
100
AcDbEntity
  8
10
  6
Continuous
 62
     4
100
AcDbLine
 10
78.8215208232236
 20
95.44999456250003
 30
0.0
 11
78.8215208232236
 21
145.4499908125
 31
0.0
  0
LINE
  5
AA6
330
22
100
AcDbEntity
  8
10
  6
Continuous
 62
     4
100
AcDbLine
 10
75.82152104822359
 20
145.4499908125
 30
0.0
 11
75.82152104822359
 21
95.44999456250003
 31
0.0
  0
LINE
  5
AA7
330
22
100
AcDbEntity
  8
10
  6
Continuous
 62
     4
100
AcDbLine
 10
74.02152118322359
 20
95.44999456250003
 30
0.0
 11
74.02152118322359
 21
145.4499908125
 31
0.0
  0
LINE
  5
AA8
330
22
100
AcDbEntity
  8
10
  6
Continuous
 62
     4
100
AcDbLine
 10
71.02152140822361
 20
145.4499908125
 30
0.0
 11
71.02152140822361
 21
95.44999456250003
 31
0.0
  0
LINE
  5
AA9
330
22
100
AcDbEntity
  8
10
  6
Continuous
 62
     4
100
AcDbLine
 10
69.22152154322358
 20
95.44999456250003
 30
0.0
 11
69.22152154322358
 21
145.4499908125
 31
0.0
  0
LINE
  5
AAA
330
22
100
AcDbEntity
  8
10
  6
Continuous
 62
     4
100
AcDbLine
 10
66.22152176822353
 20
145.4499908125
 30
0.0
 11
66.22152176822353
 21
95.44999456250003
 31
0.0
  0
LINE
  5
AAB
330
22
100
AcDbEntity
  8
10
  6
Continuous
 62
     4
100
AcDbLine
 10
74.02152118322359
 20
115.9499930249999
 30
0.0
 11
71.02152140822361
 21
115.9499930249999
 31
0.0
  0
LINE
  5
AAC
330
22
100
AcDbEntity
  8
10
  6
Continuous
 62
     4
100
AcDbLine
 10
78.8215208232236
 20
115.9499930249999
 30
0.0
 11
75.82152104822359
 21
115.9499930249999
 31
0.0
  0
LINE
  5
AAD
330
22
100
AcDbEntity
  8
10
  6
Continuous
 62
     4
100
AcDbLine
 10
83.62152046322362
 20
115.9499930249999
 30
0.0
 11
80.62152068822362
 21
115.9499930249999
 31
0.0
  0
LINE
  5
AAE
330
22
100
AcDbEntity
  8
10
  6
Continuous
 62
     4
100
AcDbLine
 10
88.42152010322363
 20
115.9499930249999
 30
0.0
 11
85.42152032822363
 21
115.9499930249999
 31
0.0
  0
LINE
  5
AAF
330
22
100
AcDbEntity
  8
10
  6
Continuous
 62
     4
100
AcDbLine
 10
93.22151974322357
 20
115.9499930249999
 30
0.0
 11
90.22151996822357
 21
115.9499930249999
 31
0.0
  0
LINE
  5
AB0
330
22
100
AcDbEntity
  8
10
  6
Continuous
 62
     4
100
AcDbLine
 10
86.52152024572357
 20
112.9499932499999
 30
0.0
 11
86.52152024572357
 21
115.9499930249999
 31
0.0
  0
LINE
  5
AB1
330
22
100
AcDbEntity
  8
10
  6
Continuous
 62
     4
100
AcDbLine
 10
82.52152054572359
 20
113.9499931749996
 30
0.0
 11
82.52152054572359
 21
115.9499930249999
 31
0.0
  0
LINE
  5
AB2
330
22
100
AcDbEntity
  8
10
  6
Continuous
 62
     4
100
AcDbLine
 10
98.02151938322353
 20
95.44999456250003
 30
0.0
 11
98.02151938322353
 21
145.4499908125
 31
0.0
  0
ARC
  5
AB3
330
22
100
AcDbEntity
  8
10
  6
Continuous
 62
     4
100
AcDbCircle
 10
67.72152165572356
 20
95.44999456250003
 30
0.0
 40
1.499999887499995
100
AcDbArc
 50
180.0
 51
0.0
  0
ARC
  5
AB4
330
22
100
AcDbEntity
  8
10
  6
Continuous
 62
     4
100
AcDbCircle
 10
72.52152129572356
 20
95.44999456250003
 30
0.0
 40
1.4999998875
100
AcDbArc
 50
180.0
 51
0.0
  0
ARC
  5
AB5
330
22
100
AcDbEntity
  8
10
  6
Continuous
 62
     4
100
AcDbCircle
 10
77.32152093572358
 20
95.44999456250003
 30
0.0
 40
1.4999998875
100
AcDbArc
 50
180.0
 51
0.0
  0
ARC
  5
AB6
330
22
100
AcDbEntity
  8
10
  6
Continuous
 62
     4
100
AcDbCircle
 10
82.12152057572358
 20
95.44999456250003
 30
0.0
 40
1.499999887499995
100
AcDbArc
 50
180.0
 51
0.0
  0
ARC
  5
AB7
330
22
100
AcDbEntity
  8
10
  6
Continuous
 62
     4
100
AcDbCircle
 10
86.92152021572359
 20
95.44999456250003
 30
0.0
 40
1.499999887499995
100
AcDbArc
 50
180.0
 51
0.0
  0
ARC
  5
AB8
330
22
100
AcDbEntity
  8
10
  6
Continuous
 62
     4
100
AcDbCircle
 10
91.72151985572352
 20
95.44999456250003
 30
0.0
 40
1.499999887499995
100
AcDbArc
 50
180.0
 51
0.0
  0
ARC
  5
AB9
330
22
100
AcDbEntity
  8
10
  6
Continuous
 62
     4
100
AcDbCircle
 10
96.52151949572356
 20
95.44999456250003
 30
0.0
 40
1.499999887499995
100
AcDbArc
 50
180.0
 51
0.0
  0
LINE
  5
ABA
330
22
100
AcDbEntity
  8
10
  6
Continuous
 62
     4
100
AcDbLine
 10
83.62152046322362
 20
114.9499930999999
 30
0.0
 11
82.52152054572359
 21
114.9499930999999
 31
0.0
  0
LINE
  5
ABB
330
22
100
AcDbEntity
  8
10
  6
Continuous
 62
     4
100
AcDbLine
 10
86.52152024572357
 20
114.9499930999999
 30
0.0
 11
85.42152032822363
 21
114.9499930999999
 31
0.0
  0
LINE
  5
ABC
330
22
100
AcDbEntity
  8
10
  6
Continuous
 62
     4
100
AcDbLine
 10
83.62152046322362
 20
113.9499931749996
 30
0.0
 11
82.52152054572359
 21
113.9499931749996
 31
0.0
  0
LINE
  5
ABD
330
22
100
AcDbEntity
  8
10
  6
Continuous
 62
     4
100
AcDbLine
 10
86.52152024572357
 20
113.9499931749996
 30
0.0
 11
85.42152032822363
 21
113.9499931749996
 31
0.0
  0
LINE
  5
ABE
330
22
100
AcDbEntity
  8
10
  6
Continuous
 62
     4
100
AcDbLine
 10
88.42152010322363
 20
112.9499932499999
 30
0.0
 11
86.52152024572357
 21
112.9499932499999
 31
0.0
  0
LINE
  5
ABF
330
22
100
AcDbEntity
  8
10
  6
Continuous
 62
     4
100
AcDbLine
 10
93.22151974322357
 20
112.9499932499999
 30
0.0
 11
90.22151996822357
 21
112.9499932499999
 31
0.0
  0
LINE
  5
AC0
330
22
100
AcDbEntity
  8
10
  6
Continuous
 62
     4
100
AcDbLine
 10
74.02152118322359
 20
112.2499933025
 30
0.0
 11
71.02152140822361
 21
112.2499933025
 31
0.0
  0
LINE
  5
AC1
330
22
100
AcDbEntity
  8
10
  6
Continuous
 62
     4
100
AcDbLine
 10
78.8215208232236
 20
112.2499933025
 30
0.0
 11
75.82152104822359
 21
112.2499933025
 31
0.0
  0
LINE
  5
AC2
330
22
100
AcDbEntity
  8
10
  6
Continuous
 62
     4
100
AcDbLine
 10
83.62152046322362
 20
112.2499933025
 30
0.0
 11
80.62152068822362
 21
112.2499933025
 31
0.0
  0
LINE
  5
AC3
330
22
100
AcDbEntity
  8
10
  6
Continuous
 62
     4
100
AcDbLine
 10
88.42152010322363
 20
112.2499933025
 30
0.0
 11
85.42152032822363
 21
112.2499933025
 31
0.0
  0
LINE
  5
AC4
330
22
100
AcDbEntity
  8
10
  6
Continuous
 62
     4
100
AcDbLine
 10
93.22151974322357
 20
112.2499933025
 30
0.0
 11
90.22151996822357
 21
112.2499933025
 31
0.0
  0
LINE
  5
AC5
330
22
100
AcDbEntity
  8
10
  6
Continuous
 62
     4
100
AcDbLine
 10
106.0215187832235
 20
121.19999263125
 30
0.0
 11
103.0215190082234
 21
121.19999263125
 31
0.0
  0
LINE
  5
AC6
330
22
100
AcDbEntity
  8
10
  6
Continuous
 62
     4
100
AcDbLine
 10
106.0215187832235
 20
113.69999319375
 30
0.0
 11
106.0215187832235
 21
121.19999263125
 31
0.0
  0
LINE
  5
AC7
330
22
100
AcDbEntity
  8
10
  6
Continuous
 62
     4
100
AcDbLine
 10
103.0215190082234
 20
121.19999263125
 30
0.0
 11
103.0215190082234
 21
113.69999319375
 31
0.0
  0
LINE
  5
AC8
330
22
100
AcDbEntity
  8
10
  6
Continuous
 62
     4
100
AcDbLine
 10
103.0215190082234
 20
113.69999319375
 30
0.0
 11
106.0215187832235
 21
113.69999319375
 31
0.0
  0
ARC
  5
AC9
330
22
100
AcDbEntity
  8
10
  6
Continuous
 62
     4
100
AcDbCircle
 10
59.82152224822359
 20
39.24999877749996
 30
0.0
 40
0.2999999775000117
100
AcDbArc
 50
180.0
 51
270.0
  0
LINE
  5
ACA
330
22
100
AcDbEntity
  8
10
  6
Continuous
 62
     4
100
AcDbLine
 10
59.82152224822359
 20
38.94999879999996
 30
0.0
 11
111.5215183707235
 21
38.94999879999996
 31
0.0
  0
LINE
  5
ACB
330
22
100
AcDbEntity
  8
10
  6
Continuous
 62
     4
100
AcDbLine
 10
106.0215187832235
 20
56.69999746874999
 30
0.0
 11
106.0215187832235
 21
64.19999690625001
 31
0.0
  0
LINE
  5
ACC
330
22
100
AcDbEntity
  8
10
  6
Continuous
 62
     4
100
AcDbLine
 10
103.0215190082234
 20
64.19999690625001
 30
0.0
 11
103.0215190082234
 21
56.69999746874999
 31
0.0
  0
LINE
  5
ACD
330
22
100
AcDbEntity
  8
10
  6
Continuous
 62
     4
100
AcDbLine
 10
106.0215187832235
 20
64.19999690625001
 30
0.0
 11
103.0215190082234
 21
64.19999690625001
 31
0.0
  0
LINE
  5
ACE
330
22
100
AcDbEntity
  8
10
  6
Continuous
 62
     4
100
AcDbLine
 10
103.0215190082234
 20
56.69999746874999
 30
0.0
 11
106.0215187832235
 21
56.69999746874999
 31
0.0
  0
ARC
  5
ACF
330
22
100
AcDbEntity
  8
10
  6
Continuous
 62
     4
100
AcDbCircle
 10
56.73715705135103
 20
135.8999915287498
 30
0.0
 40
0.2999999775000117
100
AcDbArc
 50
0.0
 51
90.0
  0
ARC
  5
AD0
330
22
100
AcDbEntity
  8
10
  6
Continuous
 62
     4
100
AcDbCircle
 10
55.29871863323394
 20
135.8999915287498
 30
0.0
 40
0.2999999775000117
100
AcDbArc
 50
90.0
 51
180.0
  0
ARC
  5
AD1
330
22
100
AcDbEntity
  8
10
  6
Continuous
 62
     4
100
AcDbCircle
 10
56.73715705135103
 20
132.9999917462499
 30
0.0
 40
0.2999999775000117
100
AcDbArc
 50
270.0
 51
0.0
  0
ARC
  5
AD2
330
22
100
AcDbEntity
  8
10
  6
Continuous
 62
     4
100
AcDbCircle
 10
55.29871863323394
 20
132.9999917462499
 30
0.0
 40
0.2999999775000117
100
AcDbArc
 50
180.0
 51
270.0
  0
LINE
  5
AD3
330
22
100
AcDbEntity
  8
10
  6
Continuous
 62
     4
100
AcDbLine
 10
57.03715702885101
 20
135.8999915287498
 30
0.0
 11
57.03715702885101
 21
132.9999917462499
 31
0.0
  0
LINE
  5
AD4
330
22
100
AcDbEntity
  8
10
  6
Continuous
 62
     4
100
AcDbLine
 10
56.73715705135103
 20
132.6999917687496
 30
0.0
 11
55.29871863323394
 21
132.6999917687496
 31
0.0
  0
LINE
  5
AD5
330
22
100
AcDbEntity
  8
10
  6
Continuous
 62
     4
100
AcDbLine
 10
54.99871865573394
 20
135.8999915287498
 30
0.0
 11
54.99871865573394
 21
132.9999917462499
 31
0.0
  0
LINE
  5
AD6
330
22
100
AcDbEntity
  8
10
  6
Continuous
 62
     4
100
AcDbLine
 10
56.73715705135103
 20
136.1999915062497
 30
0.0
 11
55.29871863323394
 21
136.1999915062497
 31
0.0
  0
LINE
  5
AD7
330
22
100
AcDbEntity
  8
10
  6
Continuous
 62
     4
100
AcDbLine
 10
111.5215183707235
 20
84.94999534999996
 30
0.0
 11
111.5215183707235
 21
38.94999879999996
 31
0.0
  0
LINE
  5
AD8
330
22
100
AcDbEntity
  8
10
  6
Continuous
 62
     4
100
AcDbLine
 10
111.5215183707235
 20
150.9499903999998
 30
0.0
 11
111.5215183707235
 21
92.94999475
 31
0.0
  0
LINE
  5
AD9
330
22
100
AcDbEntity
  8
10
  6
Continuous
 62
     4
100
AcDbLine
 10
110.7215184307234
 20
92.94999475
 30
0.0
 11
110.7215184307234
 21
84.94999534999996
 31
0.0
  0
LINE
  5
ADA
330
22
100
AcDbEntity
  8
10
  6
Continuous
 62
     4
100
AcDbLine
 10
111.5215183707235
 20
92.94999475
 30
0.0
 11
110.7215184307234
 21
92.94999475
 31
0.0
  0
LINE
  5
ADB
330
22
100
AcDbEntity
  8
10
  6
Continuous
 62
     4
100
AcDbLine
 10
111.5215183707235
 20
84.94999534999996
 30
0.0
 11
110.7215184307234
 21
84.94999534999996
 31
0.0
  0
LINE
  5
ADC
330
22
100
AcDbEntity
  8
10
  6
Continuous
 62
     4
100
AcDbLine
 10
55.32145901842836
 20
46.19999825625
 30
0.0
 11
56.72152248072356
 21
46.19999825625
 31
0.0
  0
LINE
  5
ADD
330
22
100
AcDbEntity
  8
10
  6
Continuous
 62
     4
100
AcDbLine
 10
55.02152260822359
 20
45.89999827874996
 30
0.0
 11
55.02152260822359
 21
42.99999849624997
 31
0.0
  0
ARC
  5
ADE
330
22
100
AcDbEntity
  8
10
  6
Continuous
 62
     4
100
AcDbCircle
 10
55.32152258572359
 20
42.99999849624997
 30
0.0
 40
0.2999999775000117
100
AcDbArc
 50
180.0
 51
270.0
  0
LINE
  5
ADF
330
22
100
AcDbEntity
  8
10
  6
Continuous
 62
     4
100
AcDbLine
 10
56.72152248072356
 20
42.69999851874998
 30
0.0
 11
55.32145901842836
 21
42.69999851874998
 31
0.0
  0
ARC
  5
AE0
330
22
100
AcDbEntity
  8
10
  6
Continuous
 62
     4
100
AcDbCircle
 10
56.72152248072356
 20
42.99999849624997
 30
0.0
 40
0.2999999775000117
100
AcDbArc
 50
270.0
 51
0.0
  0
LINE
  5
AE1
330
22
100
AcDbEntity
  8
10
  6
Continuous
 62
     4
100
AcDbLine
 10
57.02152245822357
 20
42.99999849624997
 30
0.0
 11
57.02152245822357
 21
45.89999827874996
 31
0.0
  0
ARC
  5
AE2
330
22
100
AcDbEntity
  8
10
  6
Continuous
 62
     4
100
AcDbCircle
 10
56.72152248072356
 20
45.89999827874996
 30
0.0
 40
0.2999999775000117
100
AcDbArc
 50
0.0
 51
90.0
  0
ARC
  5
AE3
330
22
100
AcDbEntity
  8
10
  6
Continuous
 62
     4
100
AcDbCircle
 10
55.32152258572359
 20
45.89999827874996
 30
0.0
 40
0.2999999775000117
100
AcDbArc
 50
90.0
 51
180.0
  0
LINE
  5
DBE
330
22
100
AcDbEntity
  8
11
  6
Continuous
 62
     7
100
AcDbLine
 10
-68.80000236249999
 20
124.9499923499999
 30
0.0
 11
-68.80000236249999
 21
137.9499913749999
 31
0.0
  0
ARC
  5
DBF
330
22
100
AcDbEntity
  8
11
  6
Continuous
 62
     7
100
AcDbCircle
 10
-69.30000232500002
 20
137.9499913749999
 30
0.0
 40
0.4999999625000131
100
AcDbArc
 50
0.0
 51
90.0
  0
LINE
  5
DC0
330
22
100
AcDbEntity
  8
11
  6
Continuous
 62
     7
100
AcDbLine
 10
-69.30000232500002
 20
138.4499913374996
 30
0.0
 11
-95.30000037500002
 21
138.4499913374996
 31
0.0
  0
ARC
  5
DC1
330
22
100
AcDbEntity
  8
11
  6
Continuous
 62
     7
100
AcDbCircle
 10
-69.30000232500002
 20
124.9499923499999
 30
0.0
 40
0.4999999624999968
100
AcDbArc
 50
270.0
 51
0.0
  0
LINE
  5
DC2
330
22
100
AcDbEntity
  8
11
  6
Continuous
 62
     7
100
AcDbLine
 10
-95.30000037500002
 20
124.4499923874996
 30
0.0
 11
-69.30000232500002
 21
124.4499923874996
 31
0.0
  0
ARC
  5
DC3
330
22
100
AcDbEntity
  8
11
  6
Continuous
 62
     7
100
AcDbCircle
 10
-95.30000037500002
 20
137.9499913749999
 30
0.0
 40
0.4999999624999968
100
AcDbArc
 50
90.0
 51
180.0
  0
LINE
  5
DC4
330
22
100
AcDbEntity
  8
11
  6
Continuous
 62
     7
100
AcDbLine
 10
-95.8000003375
 20
137.9499913749999
 30
0.0
 11
-95.8000003375
 21
124.9499923499999
 31
0.0
  0
ARC
  5
DC5
330
22
100
AcDbEntity
  8
11
  6
Continuous
 62
     7
100
AcDbCircle
 10
-95.30000037500002
 20
124.9499923499999
 30
0.0
 40
0.4999999624999968
100
AcDbArc
 50
180.0
 51
270.0
  0
ARC
  5
DDF
330
22
100
AcDbEntity
  8
11
  6
Continuous
 62
     7
100
AcDbCircle
 10
-92.05000061874995
 20
121.6999925937497
 30
0.0
 40
0.4999999624999968
100
AcDbArc
 50
90.0
 51
180.0
  0
LINE
  5
DE0
330
22
100
AcDbEntity
  8
11
  6
Continuous
 62
     7
100
AcDbLine
 10
-92.05000061874995
 20
122.1999925562494
 30
0.0
 11
-66.05000256874993
 21
122.1999925562494
 31
0.0
  0
LINE
  5
DE1
330
22
100
AcDbEntity
  8
11
  6
Continuous
 62
     7
100
AcDbLine
 10
-92.55000058124997
 20
121.6999925937497
 30
0.0
 11
-92.55000058124997
 21
92.54821282612594
 31
0.0
  0
ARC
  5
DE2
330
22
100
AcDbEntity
  8
11
  6
Continuous
 62
     7
100
AcDbCircle
 10
-92.05000061874995
 20
92.54821282612594
 30
0.0
 40
0.4999999624999968
100
AcDbArc
 50
180.0
 51
262.3877950566245
  0
ARC
  5
DE3
330
22
100
AcDbEntity
  8
11
  6
Continuous
 62
     7
100
AcDbCircle
 10
-79.30000157499994
 20
187.9499876249997
 30
0.0
 40
96.74999274375007
100
AcDbArc
 50
262.3877950566174
 51
277.9125982959986
  0
LINE
  5
DE4
330
22
100
AcDbEntity
  8
11
  6
Continuous
 62
     7
100
AcDbLine
 10
-65.55000260624993
 20
121.6999925937497
 30
0.0
 11
-65.55000260624993
 21
92.6163700668423
 31
0.0
  0
ARC
  5
DE5
330
22
100
AcDbEntity
  8
11
  6
Continuous
 62
     7
100
AcDbCircle
 10
-66.05000256874993
 20
92.6163700668423
 30
0.0
 40
0.4999999625000471
100
AcDbArc
 50
277.9125982960005
 51
0.0
  0
ARC
  5
DE6
330
22
100
AcDbEntity
  8
11
  6
Continuous
 62
     7
100
AcDbCircle
 10
-66.05000256874993
 20
121.6999925937497
 30
0.0
 40
0.4999999624999968
100
AcDbArc
 50
0.0
 51
90.0
  0
ARC
  5
E23
330
22
100
AcDbEntity
  8
11
  6
Continuous
 62
     7
100
AcDbCircle
 10
-65.60000260249998
 20
122.1499925599996
 30
0.0
 40
0.4999999625000131
100
AcDbArc
 50
0.0
 51
90.0
  0
ARC
  5
E24
330
22
100
AcDbEntity
  8
11
  6
Continuous
 62
     7
100
AcDbCircle
 10
-64.80000266249994
 20
122.9499924999996
 30
0.0
 40
0.4999999624999968
100
AcDbArc
 50
0.0
 51
90.0
  0
ARC
  5
E25
330
22
100
AcDbEntity
  8
11
  6
Continuous
 62
     7
100
AcDbCircle
 10
-65.90000257999991
 20
121.8499925824995
 30
0.0
 40
0.4999999624999968
100
AcDbArc
 50
0.0
 51
90.0
  0
LINE
  5
E26
330
22
100
AcDbEntity
  8
11
  6
Continuous
 62
     7
100
AcDbLine
 10
-92.20000060749995
 20
122.3499925449995
 30
0.0
 11
-65.90000257999991
 21
122.3499925449995
 31
0.0
  0
LINE
  5
E27
330
22
100
AcDbEntity
  8
11
  6
Continuous
 62
     7
100
AcDbLine
 10
-92.50000058499997
 20
122.6499925224997
 30
0.0
 11
-65.60000260249998
 21
122.6499925224997
 31
0.0
  0
LINE
  5
E28
330
22
100
AcDbEntity
  8
11
  6
Continuous
 62
     7
100
AcDbLine
 10
-93.30000052499995
 20
123.4499924624995
 30
0.0
 11
-64.80000266249994
 21
123.4499924624995
 31
0.0
  0
ARC
  5
E29
330
22
100
AcDbEntity
  8
11
  6
Continuous
 62
     7
100
AcDbCircle
 10
-92.50000058499997
 20
122.1499925599996
 30
0.0
 40
0.4999999624999968
100
AcDbArc
 50
90.0
 51
180.0
  0
ARC
  5
E2A
330
22
100
AcDbEntity
  8
11
  6
Continuous
 62
     7
100
AcDbCircle
 10
-92.20000060749995
 20
121.8499925824995
 30
0.0
 40
0.4999999624999968
100
AcDbArc
 50
90.0
 51
180.0
  0
LINE
  5
E2B
330
22
100
AcDbEntity
  8
11
  6
Continuous
 62
     7
100
AcDbLine
 10
-93.00000054749997
 20
122.1499925599996
 30
0.0
 11
-93.00000054749997
 21
92.59198514997136
 31
0.0
  0
LINE
  5
E2C
330
22
100
AcDbEntity
  8
11
  6
Continuous
 62
     7
100
AcDbLine
 10
-93.80000048749996
 20
122.9499924999996
 30
0.0
 11
-93.80000048749996
 21
91.89402156360648
 31
0.0
  0
ARC
  5
E2D
330
22
100
AcDbEntity
  8
11
  6
Continuous
 62
     7
100
AcDbCircle
 10
-93.30000052499995
 20
122.9499924999996
 30
0.0
 40
0.4999999624999968
100
AcDbArc
 50
90.0
 51
180.0
  0
LINE
  5
E2E
330
22
100
AcDbEntity
  8
11
  6
Continuous
 62
     7
100
AcDbLine
 10
-92.70000056999995
 20
121.8499925824995
 30
0.0
 11
-92.70000056999995
 21
92.41701619095747
 31
0.0
  0
ARC
  5
E2F
330
22
100
AcDbEntity
  8
11
  6
Continuous
 62
     7
100
AcDbCircle
 10
-92.80000056250001
 20
91.89402156360648
 30
0.0
 40
0.9999999249999927
100
AcDbArc
 50
180.0
 51
261.9998752116223
  0
ARC
  5
E30
330
22
100
AcDbEntity
  8
11
  6
Continuous
 62
     7
100
AcDbCircle
 10
-92.20000060749995
 20
92.41701619095747
 30
0.0
 40
0.4999999624999968
100
AcDbArc
 50
180.0
 51
262.3097569885729
  0
ARC
  5
E31
330
22
100
AcDbEntity
  8
11
  6
Continuous
 62
     7
100
AcDbCircle
 10
-92.00000062249992
 20
92.59198514997136
 30
0.0
 40
0.9999999250000104
100
AcDbArc
 50
180.0
 51
262.4138586545403
  0
ARC
  5
E32
330
22
100
AcDbEntity
  8
11
  6
Continuous
 62
     7
100
AcDbCircle
 10
-79.30000157499994
 20
187.9499876249997
 30
0.0
 40
96.89999273249981
100
AcDbArc
 50
262.3097569885683
 51
277.9902247715369
  0
ARC
  5
E33
330
22
100
AcDbEntity
  8
11
  6
Continuous
 62
     7
100
AcDbCircle
 10
-79.30000157499994
 20
187.9499876249997
 30
0.0
 40
97.19999270999991
100
AcDbArc
 50
262.4138586545408
 51
277.886672272525
  0
ARC
  5
E34
330
22
100
AcDbEntity
  8
11
  6
Continuous
 62
     7
100
AcDbCircle
 10
-79.30000157499994
 20
187.9499876249997
 30
0.0
 40
97.99999264999987
100
AcDbArc
 50
261.9998752116223
 51
278.2984769364773
  0
LINE
  5
E35
330
22
100
AcDbEntity
  8
11
  6
Continuous
 62
     7
100
AcDbLine
 10
-64.30000269999993
 20
122.9499924999996
 30
0.0
 11
-64.30000269999993
 21
91.96562109560058
 31
0.0
  0
LINE
  5
E36
330
22
100
AcDbEntity
  8
11
  6
Continuous
 62
     7
100
AcDbLine
 10
-65.40000261749992
 20
121.8499925824995
 30
0.0
 11
-65.40000261749992
 21
92.48586539580811
 31
0.0
  0
LINE
  5
E37
330
22
100
AcDbEntity
  8
11
  6
Continuous
 62
     7
100
AcDbLine
 10
-65.10000263999995
 20
122.1499925599996
 30
0.0
 11
-65.10000263999995
 21
92.65991134226171
 31
0.0
  0
ARC
  5
E38
330
22
100
AcDbEntity
  8
11
  6
Continuous
 62
     7
100
AcDbCircle
 10
-65.90000257999991
 20
92.48586539580811
 30
0.0
 40
0.4999999624999508
100
AcDbArc
 50
277.9902247715359
 51
0.0
  0
ARC
  5
E39
330
22
100
AcDbEntity
  8
11
  6
Continuous
 62
     7
100
AcDbCircle
 10
-66.10000256499994
 20
92.65991134226171
 30
0.0
 40
0.9999999250000655
100
AcDbArc
 50
277.8866722725239
 51
0.0
  0
ARC
  5
E3A
330
22
100
AcDbEntity
  8
11
  6
Continuous
 62
     7
100
AcDbCircle
 10
-65.30000262499996
 20
91.96562109560058
 30
0.0
 40
0.9999999249999611
100
AcDbArc
 50
278.298476936478
 51
0.0
  0
ARC
  5
150D
330
22
100
AcDbEntity
  8
11
  6
Continuous
 62
     7
100
AcDbCircle
 10
-53.80000348750002
 20
120.9499926499999
 30
0.0
 40
4.009363738597759
100
AcDbArc
 50
90.0
 51
270.0
  0
ARC
  5
150E
330
22
100
AcDbEntity
  8
11
  6
Continuous
 62
     7
100
AcDbCircle
 10
-46.8000040125
 20
120.9499926499999
 30
0.0
 40
4.009363738597759
100
AcDbArc
 50
270.0
 51
90.0
  0
CIRCLE
  5
150F
330
22
100
AcDbEntity
  8
11
  6
Continuous
 62
     7
100
AcDbCircle
 10
-50.30000375000003
 20
132.94999175
 30
0.0
 40
5.00749400783792
  0
CIRCLE
  5
1510
330
22
100
AcDbEntity
  8
11
  6
Continuous
 62
     7
100
AcDbCircle
 10
-44.30000420000001
 20
97.44999441249994
 30
0.0
 40
5.00749400783792
  0
CIRCLE
  5
1511
330
22
100
AcDbEntity
  8
11
  6
Continuous
 62
     7
100
AcDbCircle
 10
-56.30000330000002
 20
97.44999441249994
 30
0.0
 40
5.007494007837914
  0
ARC
  5
1512
330
22
100
AcDbEntity
  8
11
  6
Continuous
 62
     7
100
AcDbCircle
 10
-53.80000348750002
 20
109.949993475
 30
0.0
 40
4.009363738597778
100
AcDbArc
 50
90.0
 51
270.0
  0
ARC
  5
1513
330
22
100
AcDbEntity
  8
11
  6
Continuous
 62
     7
100
AcDbCircle
 10
-46.8000040125
 20
109.949993475
 30
0.0
 40
4.009363738597759
100
AcDbArc
 50
270.0
 51
90.0
  0
LINE
  5
1514
330
22
100
AcDbEntity
  8
11
  6
Continuous
 62
     7
100
AcDbLine
 10
-46.8000040125
 20
124.9593563885975
 30
0.0
 11
-53.80000348750002
 21
124.9593563885975
 31
0.0
  0
LINE
  5
1515
330
22
100
AcDbEntity
  8
11
  6
Continuous
 62
     7
100
AcDbLine
 10
-53.80000348750002
 20
116.9406289114018
 30
0.0
 11
-46.8000040125
 21
116.9406289114018
 31
0.0
  0
LINE
  5
1516
330
22
100
AcDbEntity
  8
11
  6
Continuous
 62
     7
100
AcDbLine
 10
-46.8000040125
 20
113.9593572135977
 30
0.0
 11
-53.80000348750002
 21
113.9593572135977
 31
0.0
  0
LINE
  5
1517
330
22
100
AcDbEntity
  8
11
  6
Continuous
 62
     7
100
AcDbLine
 10
-53.80000348750002
 20
105.940629736402
 30
0.0
 11
-46.8000040125
 21
105.940629736402
 31
0.0
  0
LINE
  5
151A
330
22
100
AcDbEntity
  8
11
  6
Continuous
 62
     7
100
AcDbLine
 10
-50.84044478076108
 20
134.3580016642816
 30
0.0
 11
-51.06103310468752
 21
134.2328452430801
 31
0.0
  0
LINE
  5
151B
330
22
100
AcDbEntity
  8
11
  6
Continuous
 62
     7
100
AcDbLine
 10
-49.62720978798902
 20
131.6671382788018
 30
0.0
 11
-49.84779779638609
 21
131.5419818410125
 31
0.0
  0
LINE
  5
151C
330
22
100
AcDbEntity
  8
11
  6
Continuous
 62
     7
100
AcDbLine
 10
-50.95073910048903
 20
133.8573759793575
 30
0.0
 11
-50.78529793642652
 21
133.9825324005591
 31
0.0
  0
LINE
  5
151D
330
22
100
AcDbEntity
  8
11
  6
Continuous
 62
     7
100
AcDbLine
 10
-49.73750379218752
 20
132.0426076082887
 30
0.0
 11
-49.90294495625001
 21
131.9174511432052
 31
0.0
  0
LINE
  5
151E
330
22
100
AcDbEntity
  8
11
  6
Continuous
 62
     7
100
AcDbLine
 10
-51.06103310468752
 20
134.2328452430801
 30
0.0
 11
-51.28162142861402
 21
133.9825324005591
 31
0.0
  0
LINE
  5
151F
330
22
100
AcDbEntity
  8
11
  6
Continuous
 62
     7
100
AcDbLine
 10
-49.40662146406252
 20
131.9174511432052
 30
0.0
 11
-49.62720978798902
 21
131.6671382788018
 31
0.0
  0
LINE
  5
1520
330
22
100
AcDbEntity
  8
11
  6
Continuous
 62
     7
100
AcDbLine
 10
-51.06103310468752
 20
133.6696411721437
 30
0.0
 11
-50.95073910048903
 21
133.8573759793575
 31
0.0
  0
LINE
  5
1521
330
22
100
AcDbEntity
  8
11
  6
Continuous
 62
     7
100
AcDbLine
 10
-49.62720978798902
 20
132.2303422400913
 30
0.0
 11
-49.73750379218752
 21
132.0426076082887
 31
0.0
  0
LINE
  5
1522
330
22
100
AcDbEntity
  8
11
  6
Continuous
 62
     7
100
AcDbLine
 10
-51.28162142861402
 20
133.9825324005591
 30
0.0
 11
-51.39191543281252
 21
133.7322195580388
 31
0.0
  0
LINE
  5
1523
330
22
100
AcDbEntity
  8
11
  6
Continuous
 62
     7
100
AcDbLine
 10
-49.29632745986403
 20
132.1677640294905
 30
0.0
 11
-49.40662146406252
 21
131.9174511432052
 31
0.0
  0
LINE
  5
1524
330
22
100
AcDbEntity
  8
11
  6
Continuous
 62
     7
100
AcDbLine
 10
-52.38456241718751
 20
134.4205798749999
 30
0.0
 11
-53.21176823750001
 21
131.792294721886
 31
0.0
  0
LINE
  5
1525
330
22
100
AcDbEntity
  8
11
  6
Continuous
 62
     7
100
AcDbLine
 10
-52.21912125312502
 20
133.794797768757
 30
0.0
 11
-52.99118007133827
 21
131.479403625
 31
0.0
  0
LINE
  5
1526
330
22
100
AcDbEntity
  8
11
  6
Continuous
 62
     7
100
AcDbLine
 10
-51.39191543281252
 20
133.7322195580388
 30
0.0
 11
-51.44706259267652
 21
133.4193283296229
 31
0.0
  0
LINE
  5
1527
330
22
100
AcDbEntity
  8
11
  6
Continuous
 62
     7
100
AcDbLine
 10
-51.11618026455152
 20
133.4193283296229
 30
0.0
 11
-51.06103310468752
 21
133.6696411721437
 31
0.0
  0
LINE
  5
1528
330
22
100
AcDbEntity
  8
11
  6
Continuous
 62
     7
100
AcDbLine
 10
-49.57206262812501
 20
132.4806550826119
 30
0.0
 11
-49.62720978798902
 21
132.2303422400913
 31
0.0
  0
LINE
  5
1529
330
22
100
AcDbEntity
  8
11
  6
Continuous
 62
     7
100
AcDbLine
 10
-54.53529755000001
 20
134.4205798749999
 30
0.0
 11
-54.53529755000001
 21
131.479403625
 31
0.0
  0
LINE
  5
152A
330
22
100
AcDbEntity
  8
11
  6
Continuous
 62
     7
100
AcDbLine
 10
-54.20441522187502
 20
133.794797768757
 30
0.0
 11
-54.20441522187502
 21
131.479403625
 31
0.0
  0
LINE
  5
152B
330
22
100
AcDbEntity
  8
11
  6
Continuous
 62
     7
100
AcDbLine
 10
-49.24118030000002
 20
132.4806550826119
 30
0.0
 11
-49.29632745986403
 21
132.1677640294905
 31
0.0
  0
LINE
  5
152C
330
22
100
AcDbEntity
  8
11
  6
Continuous
 62
     7
100
AcDbLine
 10
-52.21912125312502
 20
133.794797768757
 30
0.0
 11
-52.21912125312502
 21
131.479403625
 31
0.0
  0
LINE
  5
152D
330
22
100
AcDbEntity
  8
11
  6
Continuous
 62
     7
100
AcDbLine
 10
-51.88823892500002
 20
134.4205798749999
 30
0.0
 11
-51.88823892500002
 21
131.479403625
 31
0.0
  0
LINE
  5
152E
330
22
100
AcDbEntity
  8
11
  6
Continuous
 62
     7
100
AcDbLine
 10
-51.44706259267652
 20
133.4193283296229
 30
0.0
 11
-51.44706259267652
 21
132.4806550826119
 31
0.0
  0
LINE
  5
152F
330
22
100
AcDbEntity
  8
11
  6
Continuous
 62
     7
100
AcDbLine
 10
-51.11618026455152
 20
132.4806550826119
 30
0.0
 11
-51.11618026455152
 21
133.4193283296229
 31
0.0
  0
LINE
  5
1530
330
22
100
AcDbEntity
  8
11
  6
Continuous
 62
     7
100
AcDbLine
 10
-49.57206262812501
 20
133.4193283296229
 30
0.0
 11
-49.57206262812501
 21
132.4806550826119
 31
0.0
  0
LINE
  5
1531
330
22
100
AcDbEntity
  8
11
  6
Continuous
 62
     7
100
AcDbLine
 10
-49.24118030000002
 20
133.4193283296229
 30
0.0
 11
-49.24118030000002
 21
132.4806550826119
 31
0.0
  0
LINE
  5
1532
330
22
100
AcDbEntity
  8
11
  6
Continuous
 62
     7
100
AcDbLine
 10
-48.8000036521471
 20
134.4205798749999
 30
0.0
 11
-48.8000036521471
 21
131.479403625
 31
0.0
  0
LINE
  5
1533
330
22
100
AcDbEntity
  8
11
  6
Continuous
 62
     7
100
AcDbLine
 10
-48.46912132402213
 20
134.0451106111602
 30
0.0
 11
-48.46912132402213
 21
131.479403625
 31
0.0
  0
LINE
  5
1534
330
22
100
AcDbEntity
  8
11
  6
Continuous
 62
     7
100
AcDbLine
 10
-46.92500400312502
 20
134.4205798749999
 30
0.0
 11
-46.92500400312502
 21
131.9174511432052
 31
0.0
  0
LINE
  5
1535
330
22
100
AcDbEntity
  8
11
  6
Continuous
 62
     7
100
AcDbLine
 10
-46.59412167500001
 20
134.4205798749999
 30
0.0
 11
-46.59412167500001
 21
131.479403625
 31
0.0
  0
LINE
  5
1536
330
22
100
AcDbEntity
  8
11
  6
Continuous
 62
     7
100
AcDbLine
 10
-51.44706259267652
 20
132.4806550826119
 30
0.0
 11
-51.39191543281252
 21
132.1677640294905
 31
0.0
  0
LINE
  5
1537
330
22
100
AcDbEntity
  8
11
  6
Continuous
 62
     7
100
AcDbLine
 10
-54.20441522187502
 20
133.794797768757
 30
0.0
 11
-53.432356482603
 21
131.479403625
 31
0.0
  0
LINE
  5
1538
330
22
100
AcDbEntity
  8
11
  6
Continuous
 62
     7
100
AcDbLine
 10
-54.0389740578125
 20
134.4205798749999
 30
0.0
 11
-53.21176823750001
 21
131.792294721886
 31
0.0
  0
LINE
  5
1539
330
22
100
AcDbEntity
  8
11
  6
Continuous
 62
     7
100
AcDbLine
 10
-51.06103310468752
 20
132.2303422400913
 30
0.0
 11
-51.11618026455152
 21
132.4806550826119
 31
0.0
  0
LINE
  5
153A
330
22
100
AcDbEntity
  8
11
  6
Continuous
 62
     7
100
AcDbLine
 10
-49.62720978798902
 20
133.6696411721437
 30
0.0
 11
-49.57206262812501
 21
133.4193283296229
 31
0.0
  0
LINE
  5
153B
330
22
100
AcDbEntity
  8
11
  6
Continuous
 62
     7
100
AcDbLine
 10
-49.29632745986403
 20
133.7322195580388
 30
0.0
 11
-49.24118030000002
 21
133.4193283296229
 31
0.0
  0
LINE
  5
153C
330
22
100
AcDbEntity
  8
11
  6
Continuous
 62
     7
100
AcDbLine
 10
-51.39191543281252
 20
132.1677640294905
 30
0.0
 11
-51.28162142861402
 21
131.9174511432052
 31
0.0
  0
LINE
  5
153D
330
22
100
AcDbEntity
  8
11
  6
Continuous
 62
     7
100
AcDbLine
 10
-49.90294495625001
 20
131.9174511432052
 30
0.0
 11
-50.12353328017653
 21
131.8548729324868
 31
0.0
  0
LINE
  5
153E
330
22
100
AcDbEntity
  8
11
  6
Continuous
 62
     7
100
AcDbLine
 10
-50.95073910048903
 20
132.0426076082887
 30
0.0
 11
-51.06103310468752
 21
132.2303422400913
 31
0.0
  0
LINE
  5
153F
330
22
100
AcDbEntity
  8
11
  6
Continuous
 62
     7
100
AcDbLine
 10
-48.46912132402213
 20
134.0451106111602
 30
0.0
 11
-47.0904451671875
 21
131.479403625
 31
0.0
  0
LINE
  5
1540
330
22
100
AcDbEntity
  8
11
  6
Continuous
 62
     7
100
AcDbLine
 10
-49.40662146406252
 20
133.9825324005591
 30
0.0
 11
-49.29632745986403
 21
133.7322195580388
 31
0.0
  0
LINE
  5
1541
330
22
100
AcDbEntity
  8
11
  6
Continuous
 62
     7
100
AcDbLine
 10
-50.78529793642652
 20
133.9825324005591
 30
0.0
 11
-50.56470961250002
 21
134.0451106111602
 31
0.0
  0
LINE
  5
1542
330
22
100
AcDbEntity
  8
11
  6
Continuous
 62
     7
100
AcDbLine
 10
-49.84779779638609
 20
131.5419818410125
 30
0.0
 11
-50.12353328017653
 21
131.479403625
 31
0.0
  0
LINE
  5
1543
330
22
100
AcDbEntity
  8
11
  6
Continuous
 62
     7
100
AcDbLine
 10
-50.56470961250002
 20
134.4205798749999
 30
0.0
 11
-50.84044478076108
 21
134.3580016642816
 31
0.0
  0
LINE
  5
1544
330
22
100
AcDbEntity
  8
11
  6
Continuous
 62
     7
100
AcDbLine
 10
-51.28162142861402
 20
131.9174511432052
 30
0.0
 11
-51.06103310468752
 21
131.6671382788018
 31
0.0
  0
LINE
  5
1545
330
22
100
AcDbEntity
  8
11
  6
Continuous
 62
     7
100
AcDbLine
 10
-49.73750379218752
 20
133.8573759793575
 30
0.0
 11
-49.62720978798902
 21
133.6696411721437
 31
0.0
  0
LINE
  5
1546
330
22
100
AcDbEntity
  8
11
  6
Continuous
 62
     7
100
AcDbLine
 10
-48.30368015995961
 20
134.4205798749999
 30
0.0
 11
-46.92500400312502
 21
131.9174511432052
 31
0.0
  0
LINE
  5
1547
330
22
100
AcDbEntity
  8
11
  6
Continuous
 62
     7
100
AcDbLine
 10
-46.59412167500001
 20
131.479403625
 30
0.0
 11
-47.0904451671875
 21
131.479403625
 31
0.0
  0
LINE
  5
1548
330
22
100
AcDbEntity
  8
11
  6
Continuous
 62
     7
100
AcDbLine
 10
-48.46912132402213
 20
131.479403625
 30
0.0
 11
-48.8000036521471
 21
131.479403625
 31
0.0
  0
LINE
  5
1549
330
22
100
AcDbEntity
  8
11
  6
Continuous
 62
     7
100
AcDbLine
 10
-50.12353328017653
 20
131.479403625
 30
0.0
 11
-50.56470961250002
 21
131.479403625
 31
0.0
  0
LINE
  5
154A
330
22
100
AcDbEntity
  8
11
  6
Continuous
 62
     7
100
AcDbLine
 10
-51.88823892500002
 20
131.479403625
 30
0.0
 11
-52.21912125312502
 21
131.479403625
 31
0.0
  0
LINE
  5
154B
330
22
100
AcDbEntity
  8
11
  6
Continuous
 62
     7
100
AcDbLine
 10
-52.99118007133827
 20
131.479403625
 30
0.0
 11
-53.432356482603
 21
131.479403625
 31
0.0
  0
LINE
  5
154C
330
22
100
AcDbEntity
  8
11
  6
Continuous
 62
     7
100
AcDbLine
 10
-54.20441522187502
 20
131.479403625
 30
0.0
 11
-54.53529755000001
 21
131.479403625
 31
0.0
  0
LINE
  5
154D
330
22
100
AcDbEntity
  8
11
  6
Continuous
 62
     7
100
AcDbLine
 10
-50.12353328017653
 20
131.8548729324868
 30
0.0
 11
-50.56470961250002
 21
131.8548729324868
 31
0.0
  0
LINE
  5
154E
330
22
100
AcDbEntity
  8
11
  6
Continuous
 62
     7
100
AcDbLine
 10
-50.56470961250002
 20
134.0451106111602
 30
0.0
 11
-50.12353328017653
 21
134.0451106111602
 31
0.0
  0
LINE
  5
154F
330
22
100
AcDbEntity
  8
11
  6
Continuous
 62
     7
100
AcDbLine
 10
-46.59412167500001
 20
134.4205798749999
 30
0.0
 11
-46.92500400312502
 21
134.4205798749999
 31
0.0
  0
LINE
  5
1550
330
22
100
AcDbEntity
  8
11
  6
Continuous
 62
     7
100
AcDbLine
 10
-48.30368015995961
 20
134.4205798749999
 30
0.0
 11
-48.8000036521471
 21
134.4205798749999
 31
0.0
  0
LINE
  5
1551
330
22
100
AcDbEntity
  8
11
  6
Continuous
 62
     7
100
AcDbLine
 10
-50.12353328017653
 20
134.4205798749999
 30
0.0
 11
-50.56470961250002
 21
134.4205798749999
 31
0.0
  0
LINE
  5
1552
330
22
100
AcDbEntity
  8
11
  6
Continuous
 62
     7
100
AcDbLine
 10
-51.88823892500002
 20
134.4205798749999
 30
0.0
 11
-52.38456241718751
 21
134.4205798749999
 31
0.0
  0
LINE
  5
1553
330
22
100
AcDbEntity
  8
11
  6
Continuous
 62
     7
100
AcDbLine
 10
-54.0389740578125
 20
134.4205798749999
 30
0.0
 11
-54.53529755000001
 21
134.4205798749999
 31
0.0
  0
LINE
  5
1554
330
22
100
AcDbEntity
  8
11
  6
Continuous
 62
     7
100
AcDbLine
 10
-50.56470961250002
 20
131.479403625
 30
0.0
 11
-50.84044478076108
 21
131.5419818410125
 31
0.0
  0
LINE
  5
1555
330
22
100
AcDbEntity
  8
11
  6
Continuous
 62
     7
100
AcDbLine
 10
-50.56470961250002
 20
131.8548729324868
 30
0.0
 11
-50.78529793642652
 21
131.9174511432052
 31
0.0
  0
LINE
  5
1556
330
22
100
AcDbEntity
  8
11
  6
Continuous
 62
     7
100
AcDbLine
 10
-50.84044478076108
 20
131.5419818410125
 30
0.0
 11
-51.06103310468752
 21
131.6671382788018
 31
0.0
  0
LINE
  5
1557
330
22
100
AcDbEntity
  8
11
  6
Continuous
 62
     7
100
AcDbLine
 10
-50.78529793642652
 20
131.9174511432052
 30
0.0
 11
-50.95073910048903
 21
132.0426076082887
 31
0.0
  0
LINE
  5
1558
330
22
100
AcDbEntity
  8
11
  6
Continuous
 62
     7
100
AcDbLine
 10
-49.90294495625001
 20
133.9825324005591
 30
0.0
 11
-49.73750379218752
 21
133.8573759793575
 31
0.0
  0
LINE
  5
1559
330
22
100
AcDbEntity
  8
11
  6
Continuous
 62
     7
100
AcDbLine
 10
-49.62720978798902
 20
134.2328452430801
 30
0.0
 11
-49.40662146406252
 21
133.9825324005591
 31
0.0
  0
LINE
  5
155A
330
22
100
AcDbEntity
  8
11
  6
Continuous
 62
     7
100
AcDbLine
 10
-49.84779779638609
 20
134.3580016642816
 30
0.0
 11
-50.12353328017653
 21
134.4205798749999
 31
0.0
  0
LINE
  5
155B
330
22
100
AcDbEntity
  8
11
  6
Continuous
 62
     7
100
AcDbLine
 10
-50.12353328017653
 20
134.0451106111602
 30
0.0
 11
-49.90294495625001
 21
133.9825324005591
 31
0.0
  0
LINE
  5
155C
330
22
100
AcDbEntity
  8
11
  6
Continuous
 62
     7
100
AcDbLine
 10
-49.62720978798902
 20
134.2328452430801
 30
0.0
 11
-49.84779779638609
 21
134.3580016642816
 31
0.0
  0
LINE
  5
155D
330
22
100
AcDbEntity
  8
11
  6
Continuous
 62
     7
100
AcDbLine
 10
-50.54957083057665
 20
124.2298370694234
 30
0.0
 11
-52.99752498156827
 21
121.7818829184317
 31
0.0
  0
LINE
  5
155E
330
22
100
AcDbEntity
  8
11
  6
Continuous
 62
     7
100
AcDbLine
 10
-52.99752498156827
 20
120.9499926499999
 30
0.0
 11
-50.594121375
 21
123.3533962565682
 31
0.0
  0
LINE
  5
155F
330
22
100
AcDbEntity
  8
11
  6
Continuous
 62
     7
100
AcDbLine
 10
-52.99752498156827
 20
121.7818829184317
 30
0.0
 11
-52.99752498156827
 21
120.9499926499999
 31
0.0
  0
LINE
  5
1560
330
22
100
AcDbEntity
  8
11
  6
Continuous
 62
     7
100
AcDbLine
 10
-50.594121375
 20
123.3533962565682
 30
0.0
 11
-50.594121375
 21
117.4205811499998
 31
0.0
  0
LINE
  5
1561
330
22
100
AcDbEntity
  8
11
  6
Continuous
 62
     7
100
AcDbLine
 10
-50.00588612500001
 20
117.4205811499998
 30
0.0
 11
-50.00588612500001
 21
123.3533962565682
 31
0.0
  0
LINE
  5
1562
330
22
100
AcDbEntity
  8
11
  6
Continuous
 62
     7
100
AcDbLine
 10
-47.60248251843181
 20
120.9499926499999
 30
0.0
 11
-47.60248251843181
 21
121.7818829184317
 31
0.0
  0
LINE
  5
1563
330
22
100
AcDbEntity
  8
11
  6
Continuous
 62
     7
100
AcDbLine
 10
-50.594121375
 20
117.4205811499998
 30
0.0
 11
-50.00588612500001
 21
117.4205811499998
 31
0.0
  0
LINE
  5
1564
330
22
100
AcDbEntity
  8
11
  6
Continuous
 62
     7
100
AcDbLine
 10
-50.00588612500001
 20
123.3533962565682
 30
0.0
 11
-47.60248251843181
 21
120.9499926499999
 31
0.0
  0
LINE
  5
1565
330
22
100
AcDbEntity
  8
11
  6
Continuous
 62
     7
100
AcDbLine
 10
-50.05043666954108
 20
124.2298370694234
 30
0.0
 11
-47.60248251843181
 21
121.7818829184317
 31
0.0
  0
ARC
  5
1566
330
22
100
AcDbEntity
  8
11
  6
Continuous
 62
     7
100
AcDbCircle
 10
-50.30000375000003
 20
123.9802699889642
 30
0.0
 40
0.35294115
100
AcDbArc
 50
45.0000000000002
 51
134.9999999999998
  0
LINE
  5
1567
330
22
100
AcDbEntity
  8
11
  6
Continuous
 62
     7
100
AcDbLine
 10
-47.60248251843181
 20
109.949993475
 30
0.0
 11
-50.00588612500001
 21
107.5465898684317
 31
0.0
  0
LINE
  5
1568
330
22
100
AcDbEntity
  8
11
  6
Continuous
 62
     7
100
AcDbLine
 10
-50.05043666954108
 20
106.6701490554589
 30
0.0
 11
-47.60248251843181
 21
109.1181032065682
 31
0.0
  0
LINE
  5
1569
330
22
100
AcDbEntity
  8
11
  6
Continuous
 62
     7
100
AcDbLine
 10
-52.99752498156827
 20
109.949993475
 30
0.0
 11
-52.99752498156827
 21
109.1181032065682
 31
0.0
  0
LINE
  5
156A
330
22
100
AcDbEntity
  8
11
  6
Continuous
 62
     7
100
AcDbLine
 10
-50.594121375
 20
113.4794049749999
 30
0.0
 11
-50.594121375
 21
107.5465898684317
 31
0.0
  0
LINE
  5
156B
330
22
100
AcDbEntity
  8
11
  6
Continuous
 62
     7
100
AcDbLine
 10
-50.00588612500001
 20
107.5465898684317
 30
0.0
 11
-50.00588612500001
 21
113.4794049749999
 31
0.0
  0
LINE
  5
156C
330
22
100
AcDbEntity
  8
11
  6
Continuous
 62
     7
100
AcDbLine
 10
-47.60248251843181
 20
109.1181032065682
 30
0.0
 11
-47.60248251843181
 21
109.949993475
 31
0.0
  0
LINE
  5
156D
330
22
100
AcDbEntity
  8
11
  6
Continuous
 62
     7
100
AcDbLine
 10
-50.00588612500001
 20
113.4794049749999
 30
0.0
 11
-50.594121375
 21
113.4794049749999
 31
0.0
  0
LINE
  5
156E
330
22
100
AcDbEntity
  8
11
  6
Continuous
 62
     7
100
AcDbLine
 10
-52.99752498156827
 20
109.1181032065682
 30
0.0
 11
-50.54957083057665
 21
106.6701490554589
 31
0.0
  0
LINE
  5
156F
330
22
100
AcDbEntity
  8
11
  6
Continuous
 62
     7
100
AcDbLine
 10
-50.594121375
 20
107.5465898684317
 30
0.0
 11
-52.99752498156827
 21
109.949993475
 31
0.0
  0
ARC
  5
1570
330
22
100
AcDbEntity
  8
11
  6
Continuous
 62
     7
100
AcDbCircle
 10
-50.30000375000003
 20
106.9197161360355
 30
0.0
 40
0.35294115
100
AcDbArc
 50
225.0000000000002
 51
314.9999999999998
  0
LINE
  5
1571
330
22
100
AcDbEntity
  8
11
  6
Continuous
 62
     7
100
AcDbLine
 10
-56.92500330394853
 20
97.73159636032104
 30
0.0
 11
-57.0849297625423
 21
97.66901814960263
 31
0.0
  0
LINE
  5
1572
330
22
100
AcDbEntity
  8
11
  6
Continuous
 62
     7
100
AcDbLine
 10
-55.32573856554047
 20
97.91933099212323
 30
0.0
 11
-55.48566502413422
 21
97.85675278152252
 31
0.0
  0
LINE
  5
1573
330
22
100
AcDbEntity
  8
11
  6
Continuous
 62
     7
100
AcDbLine
 10
-56.65845915546876
 20
97.54386172840106
 30
0.0
 11
-56.87169438277024
 21
97.35612709648123
 31
0.0
  0
LINE
  5
1574
330
22
100
AcDbEntity
  8
11
  6
Continuous
 62
     7
100
AcDbLine
 10
-55.48566502413422
 20
97.85675278152252
 30
0.0
 11
-55.645591482728
 21
97.73159636032104
 31
0.0
  0
LINE
  5
1575
330
22
100
AcDbEntity
  8
11
  6
Continuous
 62
     7
100
AcDbLine
 10
-55.37904748671877
 20
97.60643993900185
 30
0.0
 11
-55.59228286649087
 21
97.48128351780035
 31
0.0
  0
LINE
  5
1576
330
22
100
AcDbEntity
  8
11
  6
Continuous
 62
     7
100
AcDbLine
 10
-56.49853269687501
 20
97.79417457092177
 30
0.0
 11
-56.65845915546876
 21
97.54386172840106
 31
0.0
  0
LINE
  5
1577
330
22
100
AcDbEntity
  8
11
  6
Continuous
 62
     7
100
AcDbLine
 10
-55.59228286649087
 20
97.48128351780035
 30
0.0
 11
-55.75220932508461
 21
97.23097067527971
 31
0.0
  0
LINE
  5
1578
330
22
100
AcDbEntity
  8
11
  6
Continuous
 62
     7
100
AcDbLine
 10
-56.81838561406251
 20
97.85675278152252
 30
0.0
 11
-56.92500330394853
 21
97.73159636032104
 31
0.0
  0
LINE
  5
1579
330
22
100
AcDbEntity
  8
11
  6
Continuous
 62
     7
100
AcDbLine
 10
-55.645591482728
 20
97.73159636032104
 30
0.0
 11
-55.75220932508461
 21
97.60643993900185
 31
0.0
  0
LINE
  5
157A
330
22
100
AcDbEntity
  8
11
  6
Continuous
 62
     7
100
AcDbLine
 10
-58.41765019999999
 20
98.92058253749997
 30
0.0
 11
-58.41765019999999
 21
95.97940628749995
 31
0.0
  0
LINE
  5
157B
330
22
100
AcDbEntity
  8
11
  6
Continuous
 62
     7
100
AcDbLine
 10
-56.76507684535478
 20
98.04448741344245
 30
0.0
 11
-56.81838561406251
 21
97.85675278152252
 31
0.0
  0
LINE
  5
157C
330
22
100
AcDbEntity
  8
11
  6
Continuous
 62
     7
100
AcDbLine
 10
-56.44522392816728
 20
97.981909202724
 30
0.0
 11
-56.49853269687501
 21
97.79417457092177
 31
0.0
  0
LINE
  5
157D
330
22
100
AcDbEntity
  8
11
  6
Continuous
 62
     7
100
AcDbLine
 10
-56.87169438277024
 20
97.35612709648123
 30
0.0
 11
-57.13823853125003
 21
97.29354888588041
 31
0.0
  0
LINE
  5
157E
330
22
100
AcDbEntity
  8
11
  6
Continuous
 62
     7
100
AcDbLine
 10
-55.05919456953127
 20
97.981909202724
 30
0.0
 11
-55.32573856554047
 21
97.91933099212323
 31
0.0
  0
LINE
  5
157F
330
22
100
AcDbEntity
  8
11
  6
Continuous
 62
     7
100
AcDbLine
 10
-55.05919456953127
 20
97.66901814960263
 30
0.0
 11
-55.37904748671877
 21
97.60643993900185
 31
0.0
  0
LINE
  5
1580
330
22
100
AcDbEntity
  8
11
  6
Continuous
 62
     7
100
AcDbLine
 10
-55.75220932508461
 20
95.97940628749995
 30
0.0
 11
-56.01875332109376
 21
95.97940628749995
 31
0.0
  0
LINE
  5
1581
330
22
100
AcDbEntity
  8
11
  6
Continuous
 62
     7
100
AcDbLine
 10
-58.09779728281251
 20
95.97940628749995
 30
0.0
 11
-58.41765019999999
 21
95.97940628749995
 31
0.0
  0
LINE
  5
1582
330
22
100
AcDbEntity
  8
11
  6
Continuous
 62
     7
100
AcDbLine
 10
-57.13823853125003
 20
97.29354888588041
 30
0.0
 11
-58.09779728281251
 21
97.29354888588041
 31
0.0
  0
LINE
  5
1583
330
22
100
AcDbEntity
  8
11
  6
Continuous
 62
     7
100
AcDbLine
 10
-58.09779728281251
 20
98.60769148437857
 30
0.0
 11
-58.09779728281251
 21
97.66901814960263
 31
0.0
  0
LINE
  5
1584
330
22
100
AcDbEntity
  8
11
  6
Continuous
 62
     7
100
AcDbLine
 10
-58.09779728281251
 20
97.29354888588041
 30
0.0
 11
-58.09779728281251
 21
95.97940628749995
 31
0.0
  0
LINE
  5
1585
330
22
100
AcDbEntity
  8
11
  6
Continuous
 62
     7
100
AcDbLine
 10
-56.76507684535478
 20
98.23222222053878
 30
0.0
 11
-56.76507684535478
 21
98.04448741344245
 31
0.0
  0
LINE
  5
1586
330
22
100
AcDbEntity
  8
11
  6
Continuous
 62
     7
100
AcDbLine
 10
-56.44522392816728
 20
98.23222222053878
 30
0.0
 11
-56.44522392816728
 21
97.981909202724
 31
0.0
  0
LINE
  5
1587
330
22
100
AcDbEntity
  8
11
  6
Continuous
 62
     7
100
AcDbLine
 10
-56.01875332109376
 20
97.981909202724
 30
0.0
 11
-56.01875332109376
 21
95.97940628749995
 31
0.0
  0
LINE
  5
1588
330
22
100
AcDbEntity
  8
11
  6
Continuous
 62
     7
100
AcDbLine
 10
-55.75220932508461
 20
97.981909202724
 30
0.0
 11
-55.75220932508461
 21
97.60643993900185
 31
0.0
  0
LINE
  5
1589
330
22
100
AcDbEntity
  8
11
  6
Continuous
 62
     7
100
AcDbLine
 10
-55.75220932508461
 20
97.23097067527971
 30
0.0
 11
-55.75220932508461
 21
95.97940628749995
 31
0.0
  0
LINE
  5
158A
330
22
100
AcDbEntity
  8
11
  6
Continuous
 62
     7
100
AcDbLine
 10
-55.05919456953127
 20
97.981909202724
 30
0.0
 11
-55.05919456953127
 21
97.66901814960263
 31
0.0
  0
LINE
  5
158B
330
22
100
AcDbEntity
  8
11
  6
Continuous
 62
     7
100
AcDbLine
 10
-57.0849297625423
 20
97.66901814960263
 30
0.0
 11
-58.09779728281251
 21
97.66901814960263
 31
0.0
  0
LINE
  5
158C
330
22
100
AcDbEntity
  8
11
  6
Continuous
 62
     7
100
AcDbLine
 10
-55.75220932508461
 20
97.981909202724
 30
0.0
 11
-56.01875332109376
 21
97.981909202724
 31
0.0
  0
LINE
  5
158D
330
22
100
AcDbEntity
  8
11
  6
Continuous
 62
     7
100
AcDbLine
 10
-57.0849297625423
 20
98.60769148437857
 30
0.0
 11
-58.09779728281251
 21
98.60769148437857
 31
0.0
  0
LINE
  5
158E
330
22
100
AcDbEntity
  8
11
  6
Continuous
 62
     7
100
AcDbLine
 10
-57.13823853125003
 20
98.92058253749997
 30
0.0
 11
-58.41765019999999
 21
98.92058253749997
 31
0.0
  0
LINE
  5
158F
330
22
100
AcDbEntity
  8
11
  6
Continuous
 62
     7
100
AcDbLine
 10
-56.87169438277024
 20
98.85800432678159
 30
0.0
 11
-57.13823853125003
 21
98.92058253749997
 31
0.0
  0
LINE
  5
1590
330
22
100
AcDbEntity
  8
11
  6
Continuous
 62
     7
100
AcDbLine
 10
-56.92500330394853
 20
98.54511327366012
 30
0.0
 11
-57.0849297625423
 21
98.60769148437857
 31
0.0
  0
LINE
  5
1591
330
22
100
AcDbEntity
  8
11
  6
Continuous
 62
     7
100
AcDbLine
 10
-56.81838561406251
 20
98.41995685245869
 30
0.0
 11
-56.76507684535478
 21
98.23222222053878
 31
0.0
  0
LINE
  5
1592
330
22
100
AcDbEntity
  8
11
  6
Continuous
 62
     7
100
AcDbLine
 10
-56.49853269687501
 20
98.41995685245869
 30
0.0
 11
-56.44522392816728
 21
98.23222222053878
 31
0.0
  0
LINE
  5
1593
330
22
100
AcDbEntity
  8
11
  6
Continuous
 62
     7
100
AcDbLine
 10
-56.65845915546876
 20
98.67026969497937
 30
0.0
 11
-56.87169438277024
 21
98.85800432678159
 31
0.0
  0
LINE
  5
1594
330
22
100
AcDbEntity
  8
11
  6
Continuous
 62
     7
100
AcDbLine
 10
-56.92500330394853
 20
98.54511327366012
 30
0.0
 11
-56.81838561406251
 21
98.41995685245869
 31
0.0
  0
LINE
  5
1595
330
22
100
AcDbEntity
  8
11
  6
Continuous
 62
     7
100
AcDbLine
 10
-56.65845915546876
 20
98.67026969497937
 30
0.0
 11
-56.49853269687501
 21
98.41995685245869
 31
0.0
  0
LINE
  5
1596
330
22
100
AcDbEntity
  8
11
  6
Continuous
 62
     7
100
AcDbLine
 10
-46.23333736850002
 20
100.4499941874999
 30
0.0
 11
-46.40000404250002
 21
100.3968027083893
 31
0.0
  0
LINE
  5
1597
330
22
100
AcDbEntity
  8
11
  6
Continuous
 62
     7
100
AcDbLine
 10
-46.40000404250002
 20
100.3968027083893
 30
0.0
 11
-46.56667068670002
 21
100.290419750368
 31
0.0
  0
LINE
  5
1598
330
22
100
AcDbEntity
  8
11
  6
Continuous
 62
     7
100
AcDbLine
 10
-46.35833735912505
 20
100.0776538342255
 30
0.0
 11
-46.23333736850002
 21
100.1308453132361
 31
0.0
  0
LINE
  5
1599
330
22
100
AcDbEntity
  8
11
  6
Continuous
 62
     7
100
AcDbLine
 10
-44.38750431263755
 20
96.94999444999998
 30
0.0
 11
-44.51250418406252
 21
96.89680297088933
 31
0.0
  0
LINE
  5
159A
330
22
100
AcDbEntity
  8
11
  6
Continuous
 62
     7
100
AcDbLine
 10
-44.20000432670003
 20
94.44999463749995
 30
0.0
 11
-44.04375421921876
 21
94.50318612111059
 31
0.0
  0
LINE
  5
159B
330
22
100
AcDbEntity
  8
11
  6
Continuous
 62
     7
100
AcDbLine
 10
-45.81667071315003
 20
98.3223347654745
 30
0.0
 11
-45.98333738725004
 21
98.26914328636377
 31
0.0
  0
LINE
  5
159C
330
22
100
AcDbEntity
  8
11
  6
Continuous
 62
     7
100
AcDbLine
 10
-46.48333737955002
 20
99.97127087620425
 30
0.0
 11
-46.35833735912505
 21
100.0776538342255
 31
0.0
  0
LINE
  5
159D
330
22
100
AcDbEntity
  8
11
  6
Continuous
 62
     7
100
AcDbLine
 10
-45.77500408937501
 20
98.00318585861065
 30
0.0
 11
-45.608337474975
 21
98.10956883073188
 31
0.0
  0
LINE
  5
159E
330
22
100
AcDbEntity
  8
11
  6
Continuous
 62
     7
100
AcDbLine
 10
-46.82500404042504
 20
95.93935619939784
 30
0.0
 11
-46.9187540333938
 21
95.88616472028723
 31
0.0
  0
LINE
  5
159F
330
22
100
AcDbEntity
  8
11
  6
Continuous
 62
     7
100
AcDbLine
 10
-44.48125430560629
 20
96.57765409672553
 30
0.0
 11
-44.38750431263755
 21
96.63084557573611
 31
0.0
  0
LINE
  5
15A0
330
22
100
AcDbEntity
  8
11
  6
Continuous
 62
     7
100
AcDbLine
 10
-44.07500409767503
 20
94.82233502797448
 30
0.0
 11
-44.20000432670003
 21
94.7691435488638
 31
0.0
  0
LINE
  5
15A1
330
22
100
AcDbEntity
  8
11
  6
Continuous
 62
     7
100
AcDbLine
 10
-45.98333738725004
 20
97.94999437499996
 30
0.0
 11
-45.77500408937501
 21
98.00318585861065
 31
0.0
  0
LINE
  5
15A2
330
22
100
AcDbEntity
  8
11
  6
Continuous
 62
     7
100
AcDbLine
 10
-46.56667068670002
 20
100.290419750368
 30
0.0
 11
-46.73333734590003
 21
100.0776538342255
 31
0.0
  0
LINE
  5
15A3
330
22
100
AcDbEntity
  8
11
  6
Continuous
 62
     7
100
AcDbLine
 10
-45.69167072252503
 20
98.4287177607957
 30
0.0
 11
-45.81667071315003
 21
98.3223347654745
 31
0.0
  0
LINE
  5
15A4
330
22
100
AcDbEntity
  8
11
  6
Continuous
 62
     7
100
AcDbLine
 10
-46.79375398316878
 20
95.67339880424466
 30
0.0
 11
-46.66875402234376
 21
95.77978176226592
 31
0.0
  0
LINE
  5
15A5
330
22
100
AcDbEntity
  8
11
  6
Continuous
 62
     7
100
AcDbLine
 10
-44.51250418406252
 20
96.89680297088933
 30
0.0
 11
-44.63750405548752
 21
96.79042001286802
 31
0.0
  0
LINE
  5
15A6
330
22
100
AcDbEntity
  8
11
  6
Continuous
 62
     7
100
AcDbLine
 10
-44.04375421921876
 20
94.50318612111059
 30
0.0
 11
-43.91875434779378
 21
94.60956909323186
 31
0.0
  0
LINE
  5
15A7
330
22
100
AcDbEntity
  8
11
  6
Continuous
 62
     7
100
AcDbLine
 10
-41.41875441609376
 20
94.44999463749995
 30
0.0
 11
-41.60625440203127
 21
94.44999463749995
 31
0.0
  0
LINE
  5
15A8
330
22
100
AcDbEntity
  8
11
  6
Continuous
 62
     7
100
AcDbLine
 10
-42.35625434578127
 20
94.44999463749995
 30
0.0
 11
-43.48125426140628
 21
94.44999463749995
 31
0.0
  0
LINE
  5
15A9
330
22
100
AcDbEntity
  8
11
  6
Continuous
 62
     7
100
AcDbLine
 10
-45.13750407758752
 20
94.44999463749995
 30
0.0
 11
-46.26250408261252
 21
94.44999463749995
 31
0.0
  0
LINE
  5
15AA
330
22
100
AcDbEntity
  8
11
  6
Continuous
 62
     7
100
AcDbLine
 10
-47.70000394500002
 20
94.44999463749995
 30
0.0
 11
-47.51250395906253
 21
94.44999463749995
 31
0.0
  0
LINE
  5
15AB
330
22
100
AcDbEntity
  8
11
  6
Continuous
 62
     7
100
AcDbLine
 10
-46.73125404745627
 20
94.44999463749995
 30
0.0
 11
-46.51250400426252
 21
94.44999463749995
 31
0.0
  0
LINE
  5
15AC
330
22
100
AcDbEntity
  8
11
  6
Continuous
 62
     7
100
AcDbLine
 10
-44.45000406955004
 20
94.44999463749995
 30
0.0
 11
-44.20000432670003
 21
94.44999463749995
 31
0.0
  0
LINE
  5
15AD
330
22
100
AcDbEntity
  8
11
  6
Continuous
 62
     7
100
AcDbLine
 10
-42.35625434578127
 20
94.7691435488638
 30
0.0
 11
-43.29375427546877
 21
94.7691435488638
 31
0.0
  0
LINE
  5
15AE
330
22
100
AcDbEntity
  8
11
  6
Continuous
 62
     7
100
AcDbLine
 10
-44.20000432670003
 20
94.7691435488638
 30
0.0
 11
-44.45000406955004
 21
94.7691435488638
 31
0.0
  0
LINE
  5
15AF
330
22
100
AcDbEntity
  8
11
  6
Continuous
 62
     7
100
AcDbLine
 10
-45.13750407758752
 20
94.7691435488638
 30
0.0
 11
-46.07500400727501
 21
94.7691435488638
 31
0.0
  0
LINE
  5
15B0
330
22
100
AcDbEntity
  8
11
  6
Continuous
 62
     7
100
AcDbLine
 10
-44.70000417000003
 20
95.14148393933828
 30
0.0
 11
-44.8875041559375
 21
95.14148393933828
 31
0.0
  0
LINE
  5
15B1
330
22
100
AcDbEntity
  8
11
  6
Continuous
 62
     7
100
AcDbLine
 10
-47.51250395906253
 20
95.56701584612335
 30
0.0
 11
-46.98125401380628
 21
95.56701584612335
 31
0.0
  0
LINE
  5
15B2
330
22
100
AcDbEntity
  8
11
  6
Continuous
 62
     7
100
AcDbLine
 10
-44.38750431263755
 20
95.56701584612335
 30
0.0
 11
-44.20000432670003
 21
95.56701584612335
 31
0.0
  0
LINE
  5
15B3
330
22
100
AcDbEntity
  8
11
  6
Continuous
 62
     7
100
AcDbLine
 10
-42.48125421720629
 20
95.62020732513405
 30
0.0
 11
-43.29375427546877
 21
95.62020732513405
 31
0.0
  0
LINE
  5
15B4
330
22
100
AcDbEntity
  8
11
  6
Continuous
 62
     7
100
AcDbLine
 10
-45.26250412781251
 20
95.62020732513405
 30
0.0
 11
-46.07500400727501
 21
95.62020732513405
 31
0.0
  0
LINE
  5
15B5
330
22
100
AcDbEntity
  8
11
  6
Continuous
 62
     7
100
AcDbLine
 10
-44.20000432670003
 20
95.88616472028723
 30
0.0
 11
-44.38750431263755
 21
95.88616472028723
 31
0.0
  0
LINE
  5
15B6
330
22
100
AcDbEntity
  8
11
  6
Continuous
 62
     7
100
AcDbLine
 10
-46.9187540333938
 20
95.88616472028723
 30
0.0
 11
-47.51250395906253
 21
95.88616472028723
 31
0.0
  0
LINE
  5
15B7
330
22
100
AcDbEntity
  8
11
  6
Continuous
 62
     7
100
AcDbLine
 10
-42.48125421720629
 20
95.93935619939784
 30
0.0
 11
-43.29375427546877
 21
95.93935619939784
 31
0.0
  0
LINE
  5
15B8
330
22
100
AcDbEntity
  8
11
  6
Continuous
 62
     7
100
AcDbLine
 10
-45.26250412781251
 20
95.93935619939784
 30
0.0
 11
-46.07500400727501
 21
95.93935619939784
 31
0.0
  0
LINE
  5
15B9
330
22
100
AcDbEntity
  8
11
  6
Continuous
 62
     7
100
AcDbLine
 10
-44.01250434076253
 20
96.36488818058296
 30
0.0
 11
-43.82500435482504
 21
96.36488818058296
 31
0.0
  0
LINE
  5
15BA
330
22
100
AcDbEntity
  8
11
  6
Continuous
 62
     7
100
AcDbLine
 10
-42.35625434578127
 20
96.63084557573611
 30
0.0
 11
-43.29375427546877
 21
96.63084557573611
 31
0.0
  0
LINE
  5
15BB
330
22
100
AcDbEntity
  8
11
  6
Continuous
 62
     7
100
AcDbLine
 10
-45.13750407758752
 20
96.63084557573611
 30
0.0
 11
-46.07500400727501
 21
96.63084557573611
 31
0.0
  0
LINE
  5
15BC
330
22
100
AcDbEntity
  8
11
  6
Continuous
 62
     7
100
AcDbLine
 10
-44.38750431263755
 20
96.63084557573611
 30
0.0
 11
-44.20000432670003
 21
96.63084557573611
 31
0.0
  0
LINE
  5
15BD
330
22
100
AcDbEntity
  8
11
  6
Continuous
 62
     7
100
AcDbLine
 10
-40.91875421519378
 20
96.68403705484678
 30
0.0
 11
-41.41875441609376
 21
96.68403705484678
 31
0.0
  0
LINE
  5
15BE
330
22
100
AcDbEntity
  8
11
  6
Continuous
 62
     7
100
AcDbLine
 10
-41.60625440203127
 20
96.68403705484678
 30
0.0
 11
-42.10625424533128
 21
96.68403705484678
 31
0.0
  0
LINE
  5
15BF
330
22
100
AcDbEntity
  8
11
  6
Continuous
 62
     7
100
AcDbLine
 10
-46.9187540333938
 20
96.68403705484678
 30
0.0
 11
-47.51250395906253
 21
96.68403705484678
 31
0.0
  0
LINE
  5
15C0
330
22
100
AcDbEntity
  8
11
  6
Continuous
 62
     7
100
AcDbLine
 10
-40.91875421519378
 20
96.94999444999998
 30
0.0
 11
-42.10625424533128
 21
96.94999444999998
 31
0.0
  0
LINE
  5
15C1
330
22
100
AcDbEntity
  8
11
  6
Continuous
 62
     7
100
AcDbLine
 10
-42.35625434578127
 20
96.94999444999998
 30
0.0
 11
-43.48125426140628
 21
96.94999444999998
 31
0.0
  0
LINE
  5
15C2
330
22
100
AcDbEntity
  8
11
  6
Continuous
 62
     7
100
AcDbLine
 10
-44.23125420515627
 20
96.94999444999998
 30
0.0
 11
-44.38750431263755
 21
96.94999444999998
 31
0.0
  0
LINE
  5
15C3
330
22
100
AcDbEntity
  8
11
  6
Continuous
 62
     7
100
AcDbLine
 10
-45.13750407758752
 20
96.94999444999998
 30
0.0
 11
-46.26250408261252
 21
96.94999444999998
 31
0.0
  0
LINE
  5
15C4
330
22
100
AcDbEntity
  8
11
  6
Continuous
 62
     7
100
AcDbLine
 10
-46.95000400125002
 20
96.94999444999998
 30
0.0
 11
-47.70000394500002
 21
96.94999444999998
 31
0.0
  0
LINE
  5
15C5
330
22
100
AcDbEntity
  8
11
  6
Continuous
 62
     7
100
AcDbLine
 10
-45.608337474975
 20
98.58829219782762
 30
0.0
 11
-45.69167072252503
 21
98.4287177607957
 31
0.0
  0
LINE
  5
15C6
330
22
100
AcDbEntity
  8
11
  6
Continuous
 62
     7
100
AcDbLine
 10
-46.76250401531251
 20
96.04573915741916
 30
0.0
 11
-46.82500404042504
 21
95.93935619939784
 31
0.0
  0
LINE
  5
15C7
330
22
100
AcDbEntity
  8
11
  6
Continuous
 62
     7
100
AcDbLine
 10
-45.608337474975
 20
98.10956883073188
 30
0.0
 11
-45.44167074127503
 21
98.3223347654745
 31
0.0
  0
LINE
  5
15C8
330
22
100
AcDbEntity
  8
11
  6
Continuous
 62
     7
100
AcDbLine
 10
-44.57500429857502
 20
96.47127113870425
 30
0.0
 11
-44.48125430560629
 21
96.57765409672553
 31
0.0
  0
LINE
  5
15C9
330
22
100
AcDbEntity
  8
11
  6
Continuous
 62
     7
100
AcDbLine
 10
-43.98125410470629
 20
94.92871802329572
 30
0.0
 11
-44.07500409767503
 21
94.82233502797448
 31
0.0
  0
LINE
  5
15CA
330
22
100
AcDbEntity
  8
11
  6
Continuous
 62
     7
100
AcDbLine
 10
-48.30000390000002
 20
97.32499442187496
 30
0.0
 11
-40.30000450000001
 21
97.32499442187496
 31
0.0
  0
LINE
  5
15CB
330
22
100
AcDbEntity
  8
11
  6
Continuous
 62
     7
100
AcDbLine
 10
-40.30000450000001
 20
97.57499440312498
 30
0.0
 11
-48.30000390000002
 21
97.57499440312498
 31
0.0
  0
LINE
  5
15CC
330
22
100
AcDbEntity
  8
11
  6
Continuous
 62
     7
100
AcDbLine
 10
-42.27500435187502
 20
97.94999437499996
 30
0.0
 11
-42.525004333125
 21
97.94999437499996
 31
0.0
  0
LINE
  5
15CD
330
22
100
AcDbEntity
  8
11
  6
Continuous
 62
     7
100
AcDbLine
 10
-43.52500425812499
 20
97.94999437499996
 30
0.0
 11
-45.025004145625
 21
97.94999437499996
 31
0.0
  0
LINE
  5
15CE
330
22
100
AcDbEntity
  8
11
  6
Continuous
 62
     7
100
AcDbLine
 10
-46.31667073524999
 20
97.94999437499996
 30
0.0
 11
-45.98333738725004
 21
97.94999437499996
 31
0.0
  0
LINE
  5
15CF
330
22
100
AcDbEntity
  8
11
  6
Continuous
 62
     7
100
AcDbLine
 10
-43.52500425812499
 20
98.26914328636377
 30
0.0
 11
-44.77500416437502
 21
98.26914328636377
 31
0.0
  0
LINE
  5
15D0
330
22
100
AcDbEntity
  8
11
  6
Continuous
 62
     7
100
AcDbLine
 10
-45.98333738725004
 20
98.26914328636377
 30
0.0
 11
-46.31667073524999
 21
98.26914328636377
 31
0.0
  0
LINE
  5
15D1
330
22
100
AcDbEntity
  8
11
  6
Continuous
 62
     7
100
AcDbLine
 10
-46.65000402375002
 20
98.64148367683831
 30
0.0
 11
-46.90000400499999
 21
98.64148367683831
 31
0.0
  0
LINE
  5
15D2
330
22
100
AcDbEntity
  8
11
  6
Continuous
 62
     7
100
AcDbLine
 10
-46.23333736850002
 20
99.06701558362335
 30
0.0
 11
-45.98333738725004
 21
99.06701558362335
 31
0.0
  0
LINE
  5
15D3
330
22
100
AcDbEntity
  8
11
  6
Continuous
 62
     7
100
AcDbLine
 10
-43.69167099172503
 20
99.12020706263405
 30
0.0
 11
-44.77500416437502
 21
99.12020706263405
 31
0.0
  0
LINE
  5
15D4
330
22
100
AcDbEntity
  8
11
  6
Continuous
 62
     7
100
AcDbLine
 10
-45.98333738725004
 20
99.38616445778723
 30
0.0
 11
-46.23333736850002
 21
99.38616445778723
 31
0.0
  0
LINE
  5
15D5
330
22
100
AcDbEntity
  8
11
  6
Continuous
 62
     7
100
AcDbLine
 10
-43.69167099172503
 20
99.43935593689786
 30
0.0
 11
-44.77500416437502
 21
99.43935593689786
 31
0.0
  0
LINE
  5
15D6
330
22
100
AcDbEntity
  8
11
  6
Continuous
 62
     7
100
AcDbLine
 10
-45.7333374656
 20
99.86488791808296
 30
0.0
 11
-45.48333748435
 21
99.86488791808296
 31
0.0
  0
LINE
  5
15D7
330
22
100
AcDbEntity
  8
11
  6
Continuous
 62
     7
100
AcDbLine
 10
-43.52500425812499
 20
100.1308453132361
 30
0.0
 11
-44.77500416437502
 21
100.1308453132361
 31
0.0
  0
LINE
  5
15D8
330
22
100
AcDbEntity
  8
11
  6
Continuous
 62
     7
100
AcDbLine
 10
-46.23333736850002
 20
100.1308453132361
 30
0.0
 11
-45.98333738725004
 21
100.1308453132361
 31
0.0
  0
LINE
  5
15D9
330
22
100
AcDbEntity
  8
11
  6
Continuous
 62
     7
100
AcDbLine
 10
-41.60833789417501
 20
100.1840367923467
 30
0.0
 11
-42.27500435187502
 21
100.1840367923467
 31
0.0
  0
LINE
  5
15DA
330
22
100
AcDbEntity
  8
11
  6
Continuous
 62
     7
100
AcDbLine
 10
-42.525004333125
 20
100.1840367923467
 30
0.0
 11
-43.19167102922502
 21
100.1840367923467
 31
0.0
  0
LINE
  5
15DB
330
22
100
AcDbEntity
  8
11
  6
Continuous
 62
     7
100
AcDbLine
 10
-41.60833789417501
 20
100.4499941874999
 30
0.0
 11
-43.19167102922502
 21
100.4499941874999
 31
0.0
  0
LINE
  5
15DC
330
22
100
AcDbEntity
  8
11
  6
Continuous
 62
     7
100
AcDbLine
 10
-43.52500425812499
 20
100.4499941874999
 30
0.0
 11
-45.025004145625
 21
100.4499941874999
 31
0.0
  0
LINE
  5
15DD
330
22
100
AcDbEntity
  8
11
  6
Continuous
 62
     7
100
AcDbLine
 10
-46.02500407062501
 20
100.4499941874999
 30
0.0
 11
-46.23333736850002
 21
100.4499941874999
 31
0.0
  0
LINE
  5
15DE
330
22
100
AcDbEntity
  8
11
  6
Continuous
 62
     7
100
AcDbLine
 10
-44.60625417703128
 20
94.50318612111059
 30
0.0
 11
-44.45000406955004
 21
94.44999463749995
 31
0.0
  0
LINE
  5
15DF
330
22
100
AcDbEntity
  8
11
  6
Continuous
 62
     7
100
AcDbLine
 10
-48.30000390000002
 20
97.57499440312498
 30
0.0
 11
-48.30000390000002
 21
97.32499442187496
 31
0.0
  0
LINE
  5
15E0
330
22
100
AcDbEntity
  8
11
  6
Continuous
 62
     7
100
AcDbLine
 10
-46.73333734590003
 20
100.0776538342255
 30
0.0
 11
-46.77500401437501
 21
99.86488791808296
 31
0.0
  0
LINE
  5
15E1
330
22
100
AcDbEntity
  8
11
  6
Continuous
 62
     7
100
AcDbLine
 10
-46.73125404745627
 20
96.20531359455105
 30
0.0
 11
-46.76250401531251
 21
96.04573915741916
 31
0.0
  0
LINE
  5
15E2
330
22
100
AcDbEntity
  8
11
  6
Continuous
 62
     7
100
AcDbLine
 10
-46.575004029375
 20
95.99254767840848
 30
0.0
 11
-46.54375406151879
 21
96.15212211544045
 31
0.0
  0
LINE
  5
15E3
330
22
100
AcDbEntity
  8
11
  6
Continuous
 62
     7
100
AcDbLine
 10
-46.52500403312502
 20
99.81169629007231
 30
0.0
 11
-46.48333737955002
 21
99.97127087620425
 31
0.0
  0
LINE
  5
15E4
330
22
100
AcDbEntity
  8
11
  6
Continuous
 62
     7
100
AcDbLine
 10
-45.44167074127503
 20
98.3223347654745
 30
0.0
 11
-45.35833749372502
 21
98.535100718817
 31
0.0
  0
LINE
  5
15E5
330
22
100
AcDbEntity
  8
11
  6
Continuous
 62
     7
100
AcDbLine
 10
-43.91875434779378
 20
95.08829246032762
 30
0.0
 11
-43.98125410470629
 21
94.92871802329572
 31
0.0
  0
LINE
  5
15E6
330
22
100
AcDbEntity
  8
11
  6
Continuous
 62
     7
100
AcDbLine
 10
-46.66875402234376
 20
95.77978176226592
 30
0.0
 11
-46.575004029375
 21
95.99254767840848
 31
0.0
  0
LINE
  5
15E7
330
22
100
AcDbEntity
  8
11
  6
Continuous
 62
     7
100
AcDbLine
 10
-44.63750405548752
 20
96.79042001286802
 30
0.0
 11
-44.7625041057125
 21
96.57765409672553
 31
0.0
  0
LINE
  5
15E8
330
22
100
AcDbEntity
  8
11
  6
Continuous
 62
     7
100
AcDbLine
 10
-43.91875434779378
 20
94.60956909323186
 30
0.0
 11
-43.79375411876877
 21
94.82233502797448
 31
0.0
  0
LINE
  5
15E9
330
22
100
AcDbEntity
  8
11
  6
Continuous
 62
     7
100
AcDbLine
 10
-46.52500403312502
 20
98.00318585861065
 30
0.0
 11
-46.31667073524999
 21
97.94999437499996
 31
0.0
  0
LINE
  5
15EA
330
22
100
AcDbEntity
  8
11
  6
Continuous
 62
     7
100
AcDbLine
 10
-45.77500408937501
 20
99.33297297877658
 30
0.0
 11
-45.98333738725004
 21
99.38616445778723
 31
0.0
  0
LINE
  5
15EB
330
22
100
AcDbEntity
  8
11
  6
Continuous
 62
     7
100
AcDbLine
 10
-45.81667071315003
 20
100.3968027083893
 30
0.0
 11
-46.02500407062501
 21
100.4499941874999
 31
0.0
  0
LINE
  5
15EC
330
22
100
AcDbEntity
  8
11
  6
Continuous
 62
     7
100
AcDbLine
 10
-46.31667073524999
 20
98.26914328636377
 30
0.0
 11
-46.48333737955002
 21
98.3223347654745
 31
0.0
  0
LINE
  5
15ED
330
22
100
AcDbEntity
  8
11
  6
Continuous
 62
     7
100
AcDbLine
 10
-46.40000404250002
 20
99.12020706263405
 30
0.0
 11
-46.23333736850002
 21
99.06701558362335
 31
0.0
  0
LINE
  5
15EE
330
22
100
AcDbEntity
  8
11
  6
Continuous
 62
     7
100
AcDbLine
 10
-45.98333738725004
 20
99.06701558362335
 30
0.0
 11
-45.81667071315003
 21
99.01382410461271
 31
0.0
  0
LINE
  5
15EF
330
22
100
AcDbEntity
  8
11
  6
Continuous
 62
     7
100
AcDbLine
 10
-44.04375421921876
 20
95.83297324127659
 30
0.0
 11
-44.20000432670003
 21
95.88616472028723
 31
0.0
  0
LINE
  5
15F0
330
22
100
AcDbEntity
  8
11
  6
Continuous
 62
     7
100
AcDbLine
 10
-46.79375398316878
 20
96.89680297088933
 30
0.0
 11
-46.95000400125002
 21
96.94999444999998
 31
0.0
  0
LINE
  5
15F1
330
22
100
AcDbEntity
  8
11
  6
Continuous
 62
     7
100
AcDbLine
 10
-44.07500409767503
 20
96.89680297088933
 30
0.0
 11
-44.23125420515627
 21
96.94999444999998
 31
0.0
  0
LINE
  5
15F2
330
22
100
AcDbEntity
  8
11
  6
Continuous
 62
     7
100
AcDbLine
 10
-44.45000406955004
 20
94.7691435488638
 30
0.0
 11
-44.57500429857502
 21
94.82233502797448
 31
0.0
  0
LINE
  5
15F3
330
22
100
AcDbEntity
  8
11
  6
Continuous
 62
     7
100
AcDbLine
 10
-44.51250418406252
 20
95.62020732513405
 30
0.0
 11
-44.38750431263755
 21
95.56701584612335
 31
0.0
  0
LINE
  5
15F4
330
22
100
AcDbEntity
  8
11
  6
Continuous
 62
     7
100
AcDbLine
 10
-44.20000432670003
 20
95.56701584612335
 30
0.0
 11
-44.07500409767503
 21
95.51382436711277
 31
0.0
  0
LINE
  5
15F5
330
22
100
AcDbEntity
  8
11
  6
Continuous
 62
     7
100
AcDbLine
 10
-46.23333736850002
 20
99.38616445778723
 30
0.0
 11
-46.35833735912505
 21
99.43935593689786
 31
0.0
  0
LINE
  5
15F6
330
22
100
AcDbEntity
  8
11
  6
Continuous
 62
     7
100
AcDbLine
 10
-46.82500404042504
 20
96.63084557573611
 30
0.0
 11
-46.9187540333938
 21
96.68403705484678
 31
0.0
  0
LINE
  5
15F7
330
22
100
AcDbEntity
  8
11
  6
Continuous
 62
     7
100
AcDbLine
 10
-44.38750431263755
 20
95.88616472028723
 30
0.0
 11
-44.48125430560629
 21
95.93935619939784
 31
0.0
  0
LINE
  5
15F8
330
22
100
AcDbEntity
  8
11
  6
Continuous
 62
     7
100
AcDbLine
 10
-47.70000394500002
 20
96.94999444999998
 30
0.0
 11
-47.70000394500002
 21
94.44999463749995
 31
0.0
  0
LINE
  5
15F9
330
22
100
AcDbEntity
  8
11
  6
Continuous
 62
     7
100
AcDbLine
 10
-47.51250395906253
 20
96.68403705484678
 30
0.0
 11
-47.51250395906253
 21
95.88616472028723
 31
0.0
  0
LINE
  5
15FA
330
22
100
AcDbEntity
  8
11
  6
Continuous
 62
     7
100
AcDbLine
 10
-47.51250395906253
 20
94.44999463749995
 30
0.0
 11
-47.51250395906253
 21
95.56701584612335
 31
0.0
  0
LINE
  5
15FB
330
22
100
AcDbEntity
  8
11
  6
Continuous
 62
     7
100
AcDbLine
 10
-46.77500401437501
 20
99.86488791808296
 30
0.0
 11
-46.77500401437501
 21
99.65212185294037
 31
0.0
  0
LINE
  5
15FC
330
22
100
AcDbEntity
  8
11
  6
Continuous
 62
     7
100
AcDbLine
 10
-46.73125404745627
 20
96.36488818058296
 30
0.0
 11
-46.73125404745627
 21
96.20531359455105
 31
0.0
  0
LINE
  5
15FD
330
22
100
AcDbEntity
  8
11
  6
Continuous
 62
     7
100
AcDbLine
 10
-46.54375406151879
 20
96.15212211544045
 30
0.0
 11
-46.54375406151879
 21
96.36488818058296
 31
0.0
  0
LINE
  5
15FE
330
22
100
AcDbEntity
  8
11
  6
Continuous
 62
     7
100
AcDbLine
 10
-46.52500403312502
 20
99.70531333205109
 30
0.0
 11
-46.52500403312502
 21
99.81169629007231
 31
0.0
  0
LINE
  5
15FF
330
22
100
AcDbEntity
  8
11
  6
Continuous
 62
     7
100
AcDbLine
 10
-46.26250408261252
 20
96.94999444999998
 30
0.0
 11
-46.26250408261252
 21
94.44999463749995
 31
0.0
  0
LINE
  5
1600
330
22
100
AcDbEntity
  8
11
  6
Continuous
 62
     7
100
AcDbLine
 10
-46.07500400727501
 20
96.63084557573611
 30
0.0
 11
-46.07500400727501
 21
95.93935619939784
 31
0.0
  0
LINE
  5
1601
330
22
100
AcDbEntity
  8
11
  6
Continuous
 62
     7
100
AcDbLine
 10
-46.07500400727501
 20
95.62020732513405
 30
0.0
 11
-46.07500400727501
 21
94.7691435488638
 31
0.0
  0
LINE
  5
1602
330
22
100
AcDbEntity
  8
11
  6
Continuous
 62
     7
100
AcDbLine
 10
-45.608337474975
 20
98.7478666349596
 30
0.0
 11
-45.608337474975
 21
98.58829219782762
 31
0.0
  0
LINE
  5
1603
330
22
100
AcDbEntity
  8
11
  6
Continuous
 62
     7
100
AcDbLine
 10
-45.35833749372502
 20
98.535100718817
 30
0.0
 11
-45.35833749372502
 21
98.80105811397017
 31
0.0
  0
LINE
  5
1604
330
22
100
AcDbEntity
  8
11
  6
Continuous
 62
     7
100
AcDbLine
 10
-45.26250412781251
 20
95.93935619939784
 30
0.0
 11
-45.26250412781251
 21
95.62020732513405
 31
0.0
  0
LINE
  5
1605
330
22
100
AcDbEntity
  8
11
  6
Continuous
 62
     7
100
AcDbLine
 10
-45.13750407758752
 20
96.94999444999998
 30
0.0
 11
-45.13750407758752
 21
96.63084557573611
 31
0.0
  0
LINE
  5
1606
330
22
100
AcDbEntity
  8
11
  6
Continuous
 62
     7
100
AcDbLine
 10
-45.13750407758752
 20
94.7691435488638
 30
0.0
 11
-45.13750407758752
 21
94.44999463749995
 31
0.0
  0
LINE
  5
1607
330
22
100
AcDbEntity
  8
11
  6
Continuous
 62
     7
100
AcDbLine
 10
-45.025004145625
 20
100.4499941874999
 30
0.0
 11
-45.025004145625
 21
97.94999437499996
 31
0.0
  0
LINE
  5
1608
330
22
100
AcDbEntity
  8
11
  6
Continuous
 62
     7
100
AcDbLine
 10
-44.79375416296877
 20
96.36488818058296
 30
0.0
 11
-44.79375416296877
 21
96.15212211544045
 31
0.0
  0
LINE
  5
1609
330
22
100
AcDbEntity
  8
11
  6
Continuous
 62
     7
100
AcDbLine
 10
-44.77500416437502
 20
100.1308453132361
 30
0.0
 11
-44.77500416437502
 21
99.43935593689786
 31
0.0
  0
LINE
  5
160A
330
22
100
AcDbEntity
  8
11
  6
Continuous
 62
     7
100
AcDbLine
 10
-44.77500416437502
 20
99.12020706263405
 30
0.0
 11
-44.77500416437502
 21
98.26914328636377
 31
0.0
  0
LINE
  5
160B
330
22
100
AcDbEntity
  8
11
  6
Continuous
 62
     7
100
AcDbLine
 10
-44.60625417703128
 20
96.20531359455105
 30
0.0
 11
-44.60625417703128
 21
96.31169655257231
 31
0.0
  0
LINE
  5
160C
330
22
100
AcDbEntity
  8
11
  6
Continuous
 62
     7
100
AcDbLine
 10
-43.91875434779378
 20
95.24786689745956
 30
0.0
 11
-43.91875434779378
 21
95.08829246032762
 31
0.0
  0
LINE
  5
160D
330
22
100
AcDbEntity
  8
11
  6
Continuous
 62
     7
100
AcDbLine
 10
-43.73125436185627
 20
95.035100981317
 30
0.0
 11
-43.73125436185627
 21
95.3010583764702
 31
0.0
  0
LINE
  5
160E
330
22
100
AcDbEntity
  8
11
  6
Continuous
 62
     7
100
AcDbLine
 10
-43.69167099172503
 20
99.43935593689786
 30
0.0
 11
-43.69167099172503
 21
99.12020706263405
 31
0.0
  0
LINE
  5
160F
330
22
100
AcDbEntity
  8
11
  6
Continuous
 62
     7
100
AcDbLine
 10
-43.52500425812499
 20
100.4499941874999
 30
0.0
 11
-43.52500425812499
 21
100.1308453132361
 31
0.0
  0
LINE
  5
1610
330
22
100
AcDbEntity
  8
11
  6
Continuous
 62
     7
100
AcDbLine
 10
-43.52500425812499
 20
98.26914328636377
 30
0.0
 11
-43.52500425812499
 21
97.94999437499996
 31
0.0
  0
LINE
  5
1611
330
22
100
AcDbEntity
  8
11
  6
Continuous
 62
     7
100
AcDbLine
 10
-43.48125426140628
 20
96.94999444999998
 30
0.0
 11
-43.48125426140628
 21
94.44999463749995
 31
0.0
  0
LINE
  5
1612
330
22
100
AcDbEntity
  8
11
  6
Continuous
 62
     7
100
AcDbLine
 10
-43.29375427546877
 20
96.63084557573611
 30
0.0
 11
-43.29375427546877
 21
95.93935619939784
 31
0.0
  0
LINE
  5
1613
330
22
100
AcDbEntity
  8
11
  6
Continuous
 62
     7
100
AcDbLine
 10
-43.29375427546877
 20
95.62020732513405
 30
0.0
 11
-43.29375427546877
 21
94.7691435488638
 31
0.0
  0
LINE
  5
1614
330
22
100
AcDbEntity
  8
11
  6
Continuous
 62
     7
100
AcDbLine
 10
-44.7625041057125
 20
96.57765409672553
 30
0.0
 11
-44.79375416296877
 21
96.36488818058296
 31
0.0
  0
LINE
  5
1615
330
22
100
AcDbEntity
  8
11
  6
Continuous
 62
     7
100
AcDbLine
 10
-44.60625417703128
 20
96.31169655257231
 30
0.0
 11
-44.57500429857502
 21
96.47127113870425
 31
0.0
  0
LINE
  5
1616
330
22
100
AcDbEntity
  8
11
  6
Continuous
 62
     7
100
AcDbLine
 10
-43.79375411876877
 20
94.82233502797448
 30
0.0
 11
-43.73125436185627
 21
95.035100981317
 31
0.0
  0
LINE
  5
1617
330
22
100
AcDbEntity
  8
11
  6
Continuous
 62
     7
100
AcDbLine
 10
-45.98333738725004
 20
100.1308453132361
 30
0.0
 11
-45.85833745622502
 21
100.0776538342255
 31
0.0
  0
LINE
  5
1618
330
22
100
AcDbEntity
  8
11
  6
Continuous
 62
     7
100
AcDbLine
 10
-44.20000432670003
 20
96.63084557573611
 30
0.0
 11
-44.10625433373127
 21
96.57765409672553
 31
0.0
  0
LINE
  5
1619
330
22
100
AcDbEntity
  8
11
  6
Continuous
 62
     7
100
AcDbLine
 10
-46.56667068670002
 20
99.2265900207553
 30
0.0
 11
-46.40000404250002
 21
99.12020706263405
 31
0.0
  0
LINE
  5
161A
330
22
100
AcDbEntity
  8
11
  6
Continuous
 62
     7
100
AcDbLine
 10
-45.608337474975
 20
99.2265900207553
 30
0.0
 11
-45.77500408937501
 21
99.33297297877658
 31
0.0
  0
LINE
  5
161B
330
22
100
AcDbEntity
  8
11
  6
Continuous
 62
     7
100
AcDbLine
 10
-46.73333734590003
 20
98.1627603097425
 30
0.0
 11
-46.52500403312502
 21
98.00318585861065
 31
0.0
  0
LINE
  5
161C
330
22
100
AcDbEntity
  8
11
  6
Continuous
 62
     7
100
AcDbLine
 10
-44.63750405548752
 20
95.7265902832553
 30
0.0
 11
-44.51250418406252
 21
95.62020732513405
 31
0.0
  0
LINE
  5
161D
330
22
100
AcDbEntity
  8
11
  6
Continuous
 62
     7
100
AcDbLine
 10
-43.91875434779378
 20
95.7265902832553
 30
0.0
 11
-44.04375421921876
 21
95.83297324127659
 31
0.0
  0
LINE
  5
161E
330
22
100
AcDbEntity
  8
11
  6
Continuous
 62
     7
100
AcDbLine
 10
-46.35833735912505
 20
99.43935593689786
 30
0.0
 11
-46.48333737955002
 21
99.54573889491916
 31
0.0
  0
LINE
  5
161F
330
22
100
AcDbEntity
  8
11
  6
Continuous
 62
     7
100
AcDbLine
 10
-45.81667071315003
 20
99.01382410461271
 30
0.0
 11
-45.69167072252503
 21
98.90744114659142
 31
0.0
  0
LINE
  5
1620
330
22
100
AcDbEntity
  8
11
  6
Continuous
 62
     7
100
AcDbLine
 10
-44.7625041057125
 20
94.6627605722425
 30
0.0
 11
-44.60625417703128
 21
94.50318612111059
 31
0.0
  0
LINE
  5
1621
330
22
100
AcDbEntity
  8
11
  6
Continuous
 62
     7
100
AcDbLine
 10
-44.48125430560629
 20
95.93935619939784
 30
0.0
 11
-44.57500429857502
 21
96.04573915741916
 31
0.0
  0
LINE
  5
1622
330
22
100
AcDbEntity
  8
11
  6
Continuous
 62
     7
100
AcDbLine
 10
-44.07500409767503
 20
95.51382436711277
 30
0.0
 11
-43.98125410470629
 21
95.40744140909144
 31
0.0
  0
LINE
  5
1623
330
22
100
AcDbEntity
  8
11
  6
Continuous
 62
     7
100
AcDbLine
 10
-46.66875402234376
 20
96.73722853385745
 30
0.0
 11
-46.79375398316878
 21
96.89680297088933
 31
0.0
  0
LINE
  5
1624
330
22
100
AcDbEntity
  8
11
  6
Continuous
 62
     7
100
AcDbLine
 10
-46.48333737955002
 20
98.3223347654745
 30
0.0
 11
-46.60833737017503
 21
98.48190923980634
 31
0.0
  0
LINE
  5
1625
330
22
100
AcDbEntity
  8
11
  6
Continuous
 62
     7
100
AcDbLine
 10
-46.73333734590003
 20
99.43935593689786
 30
0.0
 11
-46.56667068670002
 21
99.2265900207553
 31
0.0
  0
LINE
  5
1626
330
22
100
AcDbEntity
  8
11
  6
Continuous
 62
     7
100
AcDbLine
 10
-46.82500404042504
 20
96.63084557573611
 30
0.0
 11
-46.76250401531251
 21
96.52446261771485
 31
0.0
  0
LINE
  5
1627
330
22
100
AcDbEntity
  8
11
  6
Continuous
 62
     7
100
AcDbLine
 10
-44.57500429857502
 20
94.82233502797448
 30
0.0
 11
-44.66875429154376
 21
94.98190950230636
 31
0.0
  0
LINE
  5
1628
330
22
100
AcDbEntity
  8
11
  6
Continuous
 62
     7
100
AcDbLine
 10
-44.7625041057125
 20
95.93935619939784
 30
0.0
 11
-44.63750405548752
 21
95.7265902832553
 31
0.0
  0
LINE
  5
1629
330
22
100
AcDbEntity
  8
11
  6
Continuous
 62
     7
100
AcDbLine
 10
-46.85833734022504
 20
98.4287177607957
 30
0.0
 11
-46.73333734590003
 21
98.1627603097425
 31
0.0
  0
LINE
  5
162A
330
22
100
AcDbEntity
  8
11
  6
Continuous
 62
     7
100
AcDbLine
 10
-46.575004029375
 20
96.52446261771485
 30
0.0
 11
-46.66875402234376
 21
96.73722853385745
 31
0.0
  0
LINE
  5
162B
330
22
100
AcDbEntity
  8
11
  6
Continuous
 62
     7
100
AcDbLine
 10
-44.85625409868126
 20
94.92871802329572
 30
0.0
 11
-44.7625041057125
 21
94.6627605722425
 31
0.0
  0
LINE
  5
162C
330
22
100
AcDbEntity
  8
11
  6
Continuous
 62
     7
100
AcDbLine
 10
-46.60833737017503
 20
98.48190923980634
 30
0.0
 11
-46.65000402375002
 21
98.64148367683831
 31
0.0
  0
LINE
  5
162D
330
22
100
AcDbEntity
  8
11
  6
Continuous
 62
     7
100
AcDbLine
 10
-46.48333737955002
 20
99.54573889491916
 30
0.0
 11
-46.52500403312502
 21
99.70531333205109
 31
0.0
  0
LINE
  5
162E
330
22
100
AcDbEntity
  8
11
  6
Continuous
 62
     7
100
AcDbLine
 10
-46.51250400426252
 20
94.44999463749995
 30
0.0
 11
-46.79375398316878
 21
95.67339880424466
 31
0.0
  0
LINE
  5
162F
330
22
100
AcDbEntity
  8
11
  6
Continuous
 62
     7
100
AcDbLine
 10
-46.98125401380628
 20
95.56701584612335
 30
0.0
 11
-46.73125404745627
 21
94.44999463749995
 31
0.0
  0
LINE
  5
1630
330
22
100
AcDbEntity
  8
11
  6
Continuous
 62
     7
100
AcDbLine
 10
-46.76250401531251
 20
96.52446261771485
 30
0.0
 11
-46.73125404745627
 21
96.36488818058296
 31
0.0
  0
LINE
  5
1631
330
22
100
AcDbEntity
  8
11
  6
Continuous
 62
     7
100
AcDbLine
 10
-46.54375406151879
 20
96.36488818058296
 30
0.0
 11
-46.575004029375
 21
96.52446261771485
 31
0.0
  0
LINE
  5
1632
330
22
100
AcDbEntity
  8
11
  6
Continuous
 62
     7
100
AcDbLine
 10
-46.90000400499999
 20
98.64148367683831
 30
0.0
 11
-46.85833734022504
 21
98.4287177607957
 31
0.0
  0
LINE
  5
1633
330
22
100
AcDbEntity
  8
11
  6
Continuous
 62
     7
100
AcDbLine
 10
-46.77500401437501
 20
99.65212185294037
 30
0.0
 11
-46.73333734590003
 21
99.43935593689786
 31
0.0
  0
LINE
  5
1634
330
22
100
AcDbEntity
  8
11
  6
Continuous
 62
     7
100
AcDbLine
 10
-44.66875429154376
 20
94.98190950230636
 30
0.0
 11
-44.70000417000003
 21
95.14148393933828
 31
0.0
  0
LINE
  5
1635
330
22
100
AcDbEntity
  8
11
  6
Continuous
 62
     7
100
AcDbLine
 10
-44.8875041559375
 20
95.14148393933828
 30
0.0
 11
-44.85625409868126
 21
94.92871802329572
 31
0.0
  0
LINE
  5
1636
330
22
100
AcDbEntity
  8
11
  6
Continuous
 62
     7
100
AcDbLine
 10
-44.79375416296877
 20
96.15212211544045
 30
0.0
 11
-44.7625041057125
 21
95.93935619939784
 31
0.0
  0
LINE
  5
1637
330
22
100
AcDbEntity
  8
11
  6
Continuous
 62
     7
100
AcDbLine
 10
-43.19167102922502
 20
100.4499941874999
 30
0.0
 11
-43.19167102922502
 21
100.1840367923467
 31
0.0
  0
LINE
  5
1638
330
22
100
AcDbEntity
  8
11
  6
Continuous
 62
     7
100
AcDbLine
 10
-42.525004333125
 20
100.1840367923467
 30
0.0
 11
-42.525004333125
 21
97.94999437499996
 31
0.0
  0
LINE
  5
1639
330
22
100
AcDbEntity
  8
11
  6
Continuous
 62
     7
100
AcDbLine
 10
-42.48125421720629
 20
95.93935619939784
 30
0.0
 11
-42.48125421720629
 21
95.62020732513405
 31
0.0
  0
LINE
  5
163A
330
22
100
AcDbEntity
  8
11
  6
Continuous
 62
     7
100
AcDbLine
 10
-42.35625434578127
 20
96.94999444999998
 30
0.0
 11
-42.35625434578127
 21
96.63084557573611
 31
0.0
  0
LINE
  5
163B
330
22
100
AcDbEntity
  8
11
  6
Continuous
 62
     7
100
AcDbLine
 10
-42.35625434578127
 20
94.7691435488638
 30
0.0
 11
-42.35625434578127
 21
94.44999463749995
 31
0.0
  0
LINE
  5
163C
330
22
100
AcDbEntity
  8
11
  6
Continuous
 62
     7
100
AcDbLine
 10
-42.27500435187502
 20
100.1840367923467
 30
0.0
 11
-42.27500435187502
 21
97.94999437499996
 31
0.0
  0
LINE
  5
163D
330
22
100
AcDbEntity
  8
11
  6
Continuous
 62
     7
100
AcDbLine
 10
-42.10625424533128
 20
96.94999444999998
 30
0.0
 11
-42.10625424533128
 21
96.68403705484678
 31
0.0
  0
LINE
  5
163E
330
22
100
AcDbEntity
  8
11
  6
Continuous
 62
     7
100
AcDbLine
 10
-41.60833789417501
 20
100.4499941874999
 30
0.0
 11
-41.60833789417501
 21
100.1840367923467
 31
0.0
  0
LINE
  5
163F
330
22
100
AcDbEntity
  8
11
  6
Continuous
 62
     7
100
AcDbLine
 10
-41.60625440203127
 20
96.68403705484678
 30
0.0
 11
-41.60625440203127
 21
94.44999463749995
 31
0.0
  0
LINE
  5
1640
330
22
100
AcDbEntity
  8
11
  6
Continuous
 62
     7
100
AcDbLine
 10
-41.41875441609376
 20
96.68403705484678
 30
0.0
 11
-41.41875441609376
 21
94.44999463749995
 31
0.0
  0
LINE
  5
1641
330
22
100
AcDbEntity
  8
11
  6
Continuous
 62
     7
100
AcDbLine
 10
-40.91875421519378
 20
96.94999444999998
 30
0.0
 11
-40.91875421519378
 21
96.68403705484678
 31
0.0
  0
LINE
  5
1642
330
22
100
AcDbEntity
  8
11
  6
Continuous
 62
     7
100
AcDbLine
 10
-40.30000450000001
 20
97.32499442187496
 30
0.0
 11
-40.30000450000001
 21
97.57499440312498
 31
0.0
  0
LINE
  5
1643
330
22
100
AcDbEntity
  8
11
  6
Continuous
 62
     7
100
AcDbLine
 10
-45.65000409875
 20
100.2372282713574
 30
0.0
 11
-45.81667071315003
 21
100.3968027083893
 31
0.0
  0
LINE
  5
1644
330
22
100
AcDbEntity
  8
11
  6
Continuous
 62
     7
100
AcDbLine
 10
-43.95000422625002
 20
96.73722853385745
 30
0.0
 11
-44.07500409767503
 21
96.89680297088933
 31
0.0
  0
LINE
  5
1645
330
22
100
AcDbEntity
  8
11
  6
Continuous
 62
     7
100
AcDbLine
 10
-45.44167074127503
 20
99.01382410461271
 30
0.0
 11
-45.608337474975
 21
99.2265900207553
 31
0.0
  0
LINE
  5
1646
330
22
100
AcDbEntity
  8
11
  6
Continuous
 62
     7
100
AcDbLine
 10
-45.85833745622502
 20
100.0776538342255
 30
0.0
 11
-45.77500408937501
 21
99.97127087620425
 31
0.0
  0
LINE
  5
1647
330
22
100
AcDbEntity
  8
11
  6
Continuous
 62
     7
100
AcDbLine
 10
-43.79375411876877
 20
95.51382436711277
 30
0.0
 11
-43.91875434779378
 21
95.7265902832553
 31
0.0
  0
LINE
  5
1648
330
22
100
AcDbEntity
  8
11
  6
Continuous
 62
     7
100
AcDbLine
 10
-44.10625433373127
 20
96.57765409672553
 30
0.0
 11
-44.04375421921876
 21
96.47127113870425
 31
0.0
  0
LINE
  5
1649
330
22
100
AcDbEntity
  8
11
  6
Continuous
 62
     7
100
AcDbLine
 10
-45.52500410812501
 20
100.0244623552148
 30
0.0
 11
-45.65000409875
 21
100.2372282713574
 31
0.0
  0
LINE
  5
164A
330
22
100
AcDbEntity
  8
11
  6
Continuous
 62
     7
100
AcDbLine
 10
-45.69167072252503
 20
98.90744114659142
 30
0.0
 11
-45.608337474975
 21
98.7478666349596
 31
0.0
  0
LINE
  5
164B
330
22
100
AcDbEntity
  8
11
  6
Continuous
 62
     7
100
AcDbLine
 10
-43.85625423328126
 20
96.52446261771485
 30
0.0
 11
-43.95000422625002
 21
96.73722853385745
 31
0.0
  0
LINE
  5
164C
330
22
100
AcDbEntity
  8
11
  6
Continuous
 62
     7
100
AcDbLine
 10
-45.35833749372502
 20
98.80105811397017
 30
0.0
 11
-45.44167074127503
 21
99.01382410461271
 31
0.0
  0
LINE
  5
164D
330
22
100
AcDbEntity
  8
11
  6
Continuous
 62
     7
100
AcDbLine
 10
-45.77500408937501
 20
99.97127087620425
 30
0.0
 11
-45.7333374656
 21
99.86488791808296
 31
0.0
  0
LINE
  5
164E
330
22
100
AcDbEntity
  8
11
  6
Continuous
 62
     7
100
AcDbLine
 10
-43.98125410470629
 20
95.40744140909144
 30
0.0
 11
-43.91875434779378
 21
95.24786689745956
 31
0.0
  0
LINE
  5
164F
330
22
100
AcDbEntity
  8
11
  6
Continuous
 62
     7
100
AcDbLine
 10
-43.73125436185627
 20
95.3010583764702
 30
0.0
 11
-43.79375411876877
 21
95.51382436711277
 31
0.0
  0
LINE
  5
1650
330
22
100
AcDbEntity
  8
11
  6
Continuous
 62
     7
100
AcDbLine
 10
-44.04375421921876
 20
96.47127113870425
 30
0.0
 11
-44.01250434076253
 21
96.36488818058296
 31
0.0
  0
LINE
  5
1651
330
22
100
AcDbEntity
  8
11
  6
Continuous
 62
     7
100
AcDbLine
 10
-45.48333748435
 20
99.86488791808296
 30
0.0
 11
-45.52500410812501
 21
100.0244623552148
 31
0.0
  0
LINE
  5
1652
330
22
100
AcDbEntity
  8
11
  6
Continuous
 62
     7
100
AcDbLine
 10
-44.57500429857502
 20
96.04573915741916
 30
0.0
 11
-44.60625417703128
 21
96.20531359455105
 31
0.0
  0
LINE
  5
1653
330
22
100
AcDbEntity
  8
11
  6
Continuous
 62
     7
100
AcDbLine
 10
-43.82500435482504
 20
96.36488818058296
 30
0.0
 11
-43.85625423328126
 21
96.52446261771485
 31
0.0
  0
MTEXT
  5
25A0
330
22
100
AcDbEntity
  8
11
  6
Continuous
100
AcDbMText
 10
-89.45485888207157
 20
108.5216920750219
 30
0.0
 40
2.352940999999999
 41
22.8952728136003
 71
     1
 72
     5
  1
BRAKE UNIT
  7
STANDARD1
 73
     1
 44
1.0
1001
ACAD
1000
MTEXTBEGIN
1070
    73
1070
     1
1070
    44
1040
1.0
1070
    74
1070
     0
1000
MTEXTEND
  0
LINE
  5
25A8
330
22
100
AcDbEntity
  8
11
  6
Continuous
100
AcDbLine
 10
-89.87281170155055
 20
109.5796544309301
 30
0.0
 11
-67.52002075296292
 21
109.5796544309301
 31
0.0
  0
LINE
  5
25A9
330
22
100
AcDbEntity
  8
11
  6
Continuous
100
AcDbLine
 10
-89.87281170155055
 20
109.5796544309301
 30
0.0
 11
-67.52002075296292
 21
109.5796544309301
 31
0.0
  0
LINE
  5
25AA
330
22
100
AcDbEntity
  8
11
  6
Continuous
100
AcDbLine
 10
-89.87281170155055
 20
109.9328331326839
 30
0.0
 11
-67.52002075296292
 21
109.9328331326839
 31
0.0
  0
LINE
  5
25AB
330
22
100
AcDbEntity
  8
11
  6
Continuous
100
AcDbLine
 10
-89.87281170155055
 20
110.2860118344374
 30
0.0
 11
-67.52002075296292
 21
110.2860118344374
 31
0.0
  0
LINE
  5
25AD
330
22
100
AcDbEntity
  8
11
  6
Continuous
100
AcDbLine
 10
-89.87281170155055
 20
104.416767458469
 30
0.0
 11
-67.52002075296292
 21
104.416767458469
 31
0.0
  0
LINE
  5
25AE
330
22
100
AcDbEntity
  8
11
  6
Continuous
100
AcDbLine
 10
-89.87281170155055
 20
104.7699461602224
 30
0.0
 11
-67.52002075296292
 21
104.7699461602224
 31
0.0
  0
LINE
  5
25AF
330
22
100
AcDbEntity
  8
11
  6
Continuous
100
AcDbLine
 10
-89.87281170155055
 20
105.1231248619761
 30
0.0
 11
-67.52002075296292
 21
105.1231248619761
 31
0.0
  0
LINE
  5
269A
330
22
100
AcDbEntity
  8
10
  6
Continuous
 62
     4
100
AcDbLine
 10
-33.30000502499999
 20
86.94999520000003
 30
0.0
 11
-101.299999925
 21
86.94999520000003
 31
0.0
  0
LINE
  5
2CA9
330
22
100
AcDbEntity
  8
10
  6
Continuous
100
AcDbLine
 10
-100.2999999999996
 20
22.95000000000002
 30
0.0
 11
-34.3051805541118
 21
22.95532790900036
 31
0.0
  0
LINE
  5
2F21
330
22
100
AcDbEntity
  8
18
  6
Continuous
100
AcDbLine
 10
-23.29997215156594
 20
250.9500144194583
 30
0.0
 11
-111.2999972403406
 21
250.9500144194583
 31
0.0
  0
LINE
  5
2F45
330
22
100
AcDbEntity
  8
18
  6
Continuous
100
AcDbLine
 10
-111.2999972403404
 20
-77.04735224846145
 30
0.0
 11
-23.29997215156594
 21
-77.04735224846145
 31
0.0
  0
LINE
  5
2F5F
330
22
100
AcDbEntity
  8
18
  6
Continuous
100
AcDbLine
 10
-8.978442862034937
 20
250.9500144194582
 30
0.0
 11
173.5215137207233
 21
250.9500144194583
 31
0.0
  0
LINE
  5
2F61
330
22
100
AcDbEntity
  8
18
  6
Continuous
100
AcDbLine
 10
-8.978442862034937
 20
-77.04761798363292
 30
0.0
 11
173.5215137207233
 21
-77.04995224846145
 31
0.0
  0
LINE
  5
2F62
330
22
100
AcDbEntity
  8
18
  6
Continuous
100
AcDbLine
 10
173.5215137207233
 20
150.9499903999998
 30
0.0
 11
173.5215137207233
 21
250.9500144194583
 31
0.0
  0
LINE
  5
2F63
330
22
100
AcDbEntity
  8
18
  6
Continuous
100
AcDbLine
 10
173.5215137207233
 20
22.94999999999999
 30
0.0
 11
173.5215137207233
 21
-77.04995224846145
 31
0.0
  0
MTEXT
  5
2FA1
330
22
100
AcDbEntity
  8
19
  6
Continuous
100
AcDbMText
 10
176.9441135979413
 20
44.84883722434072
 30
0.0
 40
3.0
 41
35.499
 71
     1
 72
     5
  1
{\Fromans.shx;BU201}
  7
STANDARD1
 73
     1
 44
1.0
  0
LINE
  5
2FBC
330
22
100
AcDbEntity
  8
18
  6
Continuous
100
AcDbLine
 10
-23.29997215156594
 20
250.9500144194583
 30
0.0
 11
-23.29997215156594
 21
-77.04735224846145
 31
0.0
  0
LINE
  5
2FBD
330
22
100
AcDbEntity
  8
18
  6
Continuous
100
AcDbLine
 10
-111.2999972403406
 20
-77.04735224846145
 30
0.0
 11
-111.2999972403406
 21
250.9500144194583
 31
0.0
  0
LINE
  5
3044
330
22
100
AcDbEntity
  8
18
  6
Continuous
100
AcDbLine
 10
-8.978442862034937
 20
250.9500144194582
 30
0.0
 11
-8.978442862034937
 21
-77.04761798363292
 31
0.0
  0
VIEWPORT
  5
2CDE
330
2CD7
100
AcDbEntity
 67
     1
  8
0
  6
Continuous
100
AcDbViewport
 10
5.613749947134903
 20
3.902083231708196
 30
0.0
 40
15.70328442245186
 41
8.746133096049151
 68
     1
 69
     1
 12
5.613749947134903
 22
3.902083231708196
 13
0.0
 23
0.0
 14
10.0
 24
10.0
 15
10.0
 25
10.0
 16
0.0
 26
0.0
 36
1.0
 17
0.0
 27
0.0
 37
0.0
 42
50.0
 43
0.0
 44
0.0
 45
8.746133096049151
 50
0.0
 51
0.0
 72
   100
 90
    32800
  1

281
     0
 71
     1
 74
     0
110
0.0
120
0.0
130
0.0
111
1.0
121
0.0
131
0.0
112
0.0
122
1.0
132
0.0
 79
     0
146
0.0
  0
VIEWPORT
  5
2CE0
330
2CD7
100
AcDbEntity
 67
     1
  8
10
  6
Continuous
100
AcDbViewport
 10
5.613749965908018
 20
3.902083250481312
 30
0.0
 40
8.981999945452834
 41
6.243333200770099
 68
     2
 69
     2
 12
4.086130721114627
 22
77.34999999999995
 13
0.0
 23
0.0
 14
1.0
 24
1.0
 15
0.0
 25
0.0
 16
0.0
 26
0.0
 36
1.0
 17
0.0
 27
0.0
 37
0.0
 42
50.0
 43
0.0
 44
0.0
 45
148.167953386877
 50
0.0
 51
0.0
 72
   100
 90
    32800
  1

281
     0
 71
     1
 74
     0
110
0.0
120
0.0
130
0.0
111
1.0
121
0.0
131
0.0
112
0.0
122
1.0
132
0.0
 79
     0
146
0.0
  0
ENDSEC
  0
SECTION
  2
OBJECTS
  0
DICTIONARY
  5
C
330
0
100
AcDbDictionary
281
     1
  3
ACAD_COLOR
350
1B
  3
ACAD_GROUP
350
D
  3
ACAD_LAYOUT
350
19
  3
ACAD_MATERIAL
350
1A
  3
ACAD_MLINESTYLE
350
16
  3
ACAD_PLOTSETTINGS
350
18
  3
ACAD_PLOTSTYLENAME
350
E
  3
ACAD_TABLESTYLE
350
1C
  3
AcDbVariableDictionary
350
EE1
  3
DWGPROPS
350
2C59
  0
DICTIONARY
  5
ED8
330
2
100
AcDbDictionary
280
     1
281
     1
  3
ACAD_LAYERFILTERS
360
2CA8
  3
ACAD_LAYERSTATES
360
ED9
  0
DICTIONARY
  5
1B
102
{ACAD_REACTORS
330
C
102
}
330
C
100
AcDbDictionary
281
     1
  0
DICTIONARY
  5
D
102
{ACAD_REACTORS
330
C
102
}
330
C
100
AcDbDictionary
281
     1
  0
DICTIONARY
  5
19
102
{ACAD_REACTORS
330
C
102
}
330
C
100
AcDbDictionary
281
     1
  3
Model
350
25
  3
ﾚｲｱｳﾄ1
350
2CD8
  0
DICTIONARY
  5
1A
102
{ACAD_REACTORS
330
C
102
}
330
C
100
AcDbDictionary
281
     1
  0
DICTIONARY
  5
16
102
{ACAD_REACTORS
330
C
102
}
330
C
100
AcDbDictionary
281
     1
  3
Standard
350
17
  0
DICTIONARY
  5
18
102
{ACAD_REACTORS
330
C
102
}
330
C
100
AcDbDictionary
281
     1
  0
ACDBDICTIONARYWDFLT
  5
E
102
{ACAD_REACTORS
330
C
102
}
330
C
100
AcDbDictionary
281
     1
  3
Normal
350
F
100
AcDbDictionaryWithDefault
340
F
  0
DICTIONARY
  5
1C
102
{ACAD_REACTORS
330
C
102
}
330
C
100
AcDbDictionary
281
     1
  3
Standard
350
1D
  0
DICTIONARY
  5
EE1
102
{ACAD_REACTORS
330
C
102
}
330
C
100
AcDbDictionary
281
     1
  3
CTABLESTYLE
350
EE2
  3
DIMASSOC
350
2BDE
  3
PROJECTNAME
350
2BDF
  0
XRECORD
  5
2C59
102
{ACAD_REACTORS
330
C
102
}
330
C
100
AcDbXrecord
280
     1
  1
DWGPROPS COOKIE
  2

  3

  4

  6

  7

  8

  9

300
=
301
=
302
=
303
=
304
=
305
=
306
=
307
=
308
=
309
=
 40
0.2254718518518518
 41
2453871.486005128
 42
2453881.650672662
  1

 90
        0
  0
DICTIONARY
  5
2CA8
102
{ACAD_REACTORS
330
ED8
102
}
330
ED8
100
AcDbDictionary
280
     1
281
     1
  0
DICTIONARY
  5
ED9
102
{ACAD_REACTORS
330
ED8
102
}
330
ED8
100
AcDbDictionary
281
     1
  0
LAYOUT
  5
25
102
{ACAD_XDICTIONARY
360
2C5C
102
}
102
{ACAD_REACTORS
330
19
102
}
330
19
100
AcDbPlotSettings
  1

  2
Adobe PDF
  4
A4
  6

 40
3.174999952316281
 41
3.174999952316281
 42
3.175003051757812
 43
3.17498779296875
 44
209.9733276367186
 45
297.0318298339843
 46
0.0
 47
1.186237682317965
 48
-147.9815603503543
 49
-209.3192666463071
140
146.9073652238076
141
208.2126616807088
142
1.0
143
1.448207989463725
 70
 11956
 72
     1
 73
     0
 74
     4
  7
mono_mee_plot.ctb
 75
     0
147
0.6905085507574791
148
147.9815603503543
149
209.3192666463071
100
AcDbLayout
  1
Model
 70
     1
 71
     0
 10
0.0
 20
0.0
 11
12.0
 21
9.0
 12
0.0
 22
0.0
 32
0.0
 14
0.0
 24
0.0
 34
0.0
 15
0.0
 25
0.0
 35
0.0
146
0.0
 13
0.0
 23
0.0
 33
0.0
 16
1.0
 26
0.0
 36
0.0
 17
0.0
 27
1.0
 37
0.0
 76
     0
330
22
1001
ACAD_PSEXT
1000
Adobe PDF
1000
Adobe PDF Converter
1000
My Documents
1000

1070
     0
  0
LAYOUT
  5
2CD8
102
{ACAD_REACTORS
330
19
102
}
330
19
100
AcDbPlotSettings
  1

  2
Canon LASER SHOT LBP-1820
  4
A4
  6

 40
5.873749732971191
 41
5.873747825622557
 42
5.873748779296875
 43
5.873748779296875
 44
209.9733276367186
 45
296.9259948730469
 46
0.0
 47
0.0
 48
0.0
 49
0.0
140
0.0
141
0.0
142
1.0
143
1.0
 70
   688
 72
     0
 73
     1
 74
     5
  7

 75
    16
147
1.0
148
0.0
149
0.0
100
AcDbLayout
  1
ﾚｲｱｳﾄ1
 70
     1
 71
     1
 10
-0.2312499519408218
 20
-0.2312499894870548
 11
11.4587498462106
 21
8.035416452903447
 12
0.0
 22
0.0
 32
0.0
 14
1.122749993181602
 24
0.7804166500962629
 34
0.0
 15
10.10474993863443
 25
7.023749850866361
 35
0.0
146
0.0
 13
0.0
 23
0.0
 33
0.0
 16
1.0
 26
0.0
 36
0.0
 17
0.0
 27
1.0
 37
0.0
 76
     0
330
2CD7
331
2CDE
  0
MLINESTYLE
  5
17
102
{ACAD_REACTORS
330
16
102
}
330
16
100
AcDbMlineStyle
  2
STANDARD
 70
     0
  3

 62
   256
 51
90.0
 52
90.0
 71
     2
 49
0.5
 62
   256
  6
BYLAYER
 49
-0.5
 62
   256
  6
BYLAYER
  0
ACDBPLACEHOLDER
  5
F
102
{ACAD_REACTORS
330
E
102
}
330
E
  0
TABLESTYLE
  5
1D
102
{ACAD_REACTORS
330
1C
102
}
330
1C
100
AcDbTableStyle
  3
Standard
 70
     0
 71
     0
 40
0.06
 41
0.06
280
     0
281
     0
  7
Standard
140
0.18
170
     2
 62
     0
 63
     7
283
     0
274
    -2
284
     1
 64
     0
275
    -2
285
     1
 65
     0
276
    -2
286
     1
 66
     0
277
    -2
287
     1
 67
     0
278
    -2
288
     1
 68
     0
279
    -2
289
     1
 69
     0
  7
Standard
140
0.25
170
     5
 62
     0
 63
     7
283
     0
274
    -2
284
     1
 64
     0
275
    -2
285
     1
 65
     0
276
    -2
286
     1
 66
     0
277
    -2
287
     1
 67
     0
278
    -2
288
     1
 68
     0
279
    -2
289
     1
 69
     0
  7
Standard
140
0.18
170
     5
 62
     0
 63
     7
283
     0
274
    -2
284
     1
 64
     0
275
    -2
285
     1
 65
     0
276
    -2
286
     1
 66
     0
277
    -2
287
     1
 67
     0
278
    -2
288
     1
 68
     0
279
    -2
289
     1
 69
     0
  0
DICTIONARYVAR
  5
EE2
102
{ACAD_REACTORS
330
EE1
102
}
330
EE1
100
DictionaryVariables
280
     0
  1
STANDARD
  0
DICTIONARYVAR
  5
2BDE
102
{ACAD_REACTORS
330
EE1
102
}
330
EE1
100
DictionaryVariables
280
     0
  1
1
  0
DICTIONARYVAR
  5
2BDF
102
{ACAD_REACTORS
330
EE1
102
}
330
EE1
100
DictionaryVariables
280
     0
  1

  0
DICTIONARY
  5
2C5C
330
25
100
AcDbDictionary
280
     1
281
     1
  3
ACAD_XREC_ROUNDTRIP
360
2C5D
  0
XRECORD
  5
2C5D
102
{ACAD_REACTORS
330
2C5C
102
}
330
2C5C
100
AcDbXrecord
280
     1
102
SHADEPLOT
 70
     0
102
SHADEPLOTRESLEVEL
 70
     2
102
SHADEPLOTCUSTOMDPI
 70
   300
  0
ENDSEC
  0
EOF
