  0
SECTION
  2
HEADER
  9
$ACADVER
  1
AC1015
  9
$ACADMAINTVER
 70
    10
  9
$DWGCODEPAGE
  3
ANSI_932
  9
$INSBASE
 10
0.0
 20
0.0
 30
0.0
  9
$EXTMIN
 10
-182.5941192369831
 20
-77.04997967133781
 30
0.0
  9
$EXTMAX
 10
188.7982705972201
 20
250.9500247726685
 30
0.0
  9
$LIMMIN
 10
0.0
 20
0.0
  9
$LIMMAX
 10
12.0
 20
9.0
  9
$ORTHOMODE
 70
     1
  9
$REGENMODE
 70
     1
  9
$FILLMODE
 70
     1
  9
$QTEXTMODE
 70
     0
  9
$MIRRTEXT
 70
     0
  9
$LTSCALE
 40
1.0
  9
$ATTMODE
 70
     1
  9
$TEXTSIZE
 40
3.200000047683716
  9
$TRACEWID
 40
0.05
  9
$TEXTSTYLE
  7
STANDARD1
  9
$CLAYER
  8
18
  9
$CELTYPE
  6
ByLayer
  9
$CECOLOR
 62
   256
  9
$CELTSCALE
 40
1.0
  9
$DISPSILH
 70
     0
  9
$DIMSCALE
 40
1.0
  9
$DIMASZ
 40
1.931851648807023
  9
$DIMEXO
 40
1.0
  9
$DIMDLI
 40
0.38
  9
$DIMRND
 40
0.0
  9
$DIMDLE
 40
0.0
  9
$DIMEXE
 40
2.0
  9
$DIMTP
 40
0.0
  9
$DIMTM
 40
0.0
  9
$DIMTXT
 40
2.799999952316284
  9
$DIMCEN
 40
0.09
  9
$DIMTSZ
 40
0.0
  9
$DIMTOL
 70
     0
  9
$DIMLIM
 70
     0
  9
$DIMTIH
 70
     0
  9
$DIMTOH
 70
     0
  9
$DIMSE1
 70
     0
  9
$DIMSE2
 70
     0
  9
$DIMTAD
 70
     1
  9
$DIMZIN
 70
     0
  9
$DIMBLK
  1

  9
$DIMASO
 70
     1
  9
$DIMSHO
 70
     1
  9
$DIMPOST
  1

  9
$DIMAPOST
  1

  9
$DIMALT
 70
     0
  9
$DIMALTD
 70
     2
  9
$DIMALTF
 40
25.4
  9
$DIMLFAC
 40
1.0
  9
$DIMTOFL
 70
     0
  9
$DIMTVP
 40
0.0
  9
$DIMTIX
 70
     0
  9
$DIMSOXD
 70
     0
  9
$DIMSAH
 70
     0
  9
$DIMBLK1
  1

  9
$DIMBLK2
  1

  9
$DIMSTYLE
  2
Standard
  9
$DIMCLRD
 70
     0
  9
$DIMCLRE
 70
     0
  9
$DIMCLRT
 70
     0
  9
$DIMTFAC
 40
0.5357142686843872
  9
$DIMGAP
 40
0.09
  9
$DIMJUST
 70
     0
  9
$DIMSD1
 70
     0
  9
$DIMSD2
 70
     0
  9
$DIMTOLJ
 70
     1
  9
$DIMTZIN
 70
     0
  9
$DIMALTZ
 70
     0
  9
$DIMALTTZ
 70
     0
  9
$DIMUPT
 70
     0
  9
$DIMDEC
 70
     4
  9
$DIMTDEC
 70
     4
  9
$DIMALTU
 70
     2
  9
$DIMALTTD
 70
     2
  9
$DIMTXSTY
  7
Standard
  9
$DIMAUNIT
 70
     0
  9
$DIMADEC
 70
     0
  9
$DIMALTRND
 40
0.0
  9
$DIMAZIN
 70
     0
  9
$DIMDSEP
 70
    46
  9
$DIMATFIT
 70
     3
  9
$DIMFRAC
 70
     0
  9
$DIMLDRBLK
  1

  9
$DIMLUNIT
 70
     2
  9
$DIMLWD
 70
    -2
  9
$DIMLWE
 70
    -2
  9
$DIMTMOVE
 70
     0
  9
$LUNITS
 70
     2
  9
$LUPREC
 70
     3
  9
$SKETCHINC
 40
0.1
  9
$FILLETRAD
 40
0.0
  9
$AUNITS
 70
     0
  9
$AUPREC
 70
     0
  9
$MENU
  1
.
  9
$ELEVATION
 40
0.0
  9
$PELEVATION
 40
0.0
  9
$THICKNESS
 40
0.0
  9
$LIMCHECK
 70
     0
  9
$CHAMFERA
 40
0.0
  9
$CHAMFERB
 40
0.0
  9
$CHAMFERC
 40
0.0
  9
$CHAMFERD
 40
0.0
  9
$SKPOLY
 70
     0
  9
$TDCREATE
 40
2453871.428574572
  9
$TDUCREATE
 40
2453871.053574571
  9
$TDUPDATE
 40
2454637.645185763
  9
$TDUUPDATE
 40
2454637.270185763
  9
$TDINDWG
 40
0.4648744560
  9
$TDUSRTIMER
 40
0.4648742824
  9
$USRTIMER
 70
     1
  9
$ANGBASE
 50
0.0
  9
$ANGDIR
 70
     0
  9
$PDMODE
 70
     0
  9
$PDSIZE
 40
0.0
  9
$PLINEWID
 40
0.0
  9
$SPLFRAME
 70
     0
  9
$SPLINETYPE
 70
     6
  9
$SPLINESEGS
 70
     8
  9
$HANDSEED
  5
3717
  9
$SURFTAB1
 70
     6
  9
$SURFTAB2
 70
     6
  9
$SURFTYPE
 70
     6
  9
$SURFU
 70
     6
  9
$SURFV
 70
     6
  9
$UCSBASE
  2

  9
$UCSNAME
  2

  9
$UCSORG
 10
0.0
 20
0.0
 30
0.0
  9
$UCSXDIR
 10
1.0
 20
0.0
 30
0.0
  9
$UCSYDIR
 10
0.0
 20
1.0
 30
0.0
  9
$UCSORTHOREF
  2

  9
$UCSORTHOVIEW
 70
     0
  9
$UCSORGTOP
 10
0.0
 20
0.0
 30
0.0
  9
$UCSORGBOTTOM
 10
0.0
 20
0.0
 30
0.0
  9
$UCSORGLEFT
 10
0.0
 20
0.0
 30
0.0
  9
$UCSORGRIGHT
 10
0.0
 20
0.0
 30
0.0
  9
$UCSORGFRONT
 10
0.0
 20
0.0
 30
0.0
  9
$UCSORGBACK
 10
0.0
 20
0.0
 30
0.0
  9
$PUCSBASE
  2

  9
$PUCSNAME
  2

  9
$PUCSORG
 10
0.0
 20
0.0
 30
0.0
  9
$PUCSXDIR
 10
1.0
 20
0.0
 30
0.0
  9
$PUCSYDIR
 10
0.0
 20
1.0
 30
0.0
  9
$PUCSORTHOREF
  2

  9
$PUCSORTHOVIEW
 70
     0
  9
$PUCSORGTOP
 10
0.0
 20
0.0
 30
0.0
  9
$PUCSORGBOTTOM
 10
0.0
 20
0.0
 30
0.0
  9
$PUCSORGLEFT
 10
0.0
 20
0.0
 30
0.0
  9
$PUCSORGRIGHT
 10
0.0
 20
0.0
 30
0.0
  9
$PUCSORGFRONT
 10
0.0
 20
0.0
 30
0.0
  9
$PUCSORGBACK
 10
0.0
 20
0.0
 30
0.0
  9
$USERI1
 70
     0
  9
$USERI2
 70
     0
  9
$USERI3
 70
     0
  9
$USERI4
 70
     0
  9
$USERI5
 70
     0
  9
$USERR1
 40
0.0
  9
$USERR2
 40
0.0
  9
$USERR3
 40
0.0
  9
$USERR4
 40
0.0
  9
$USERR5
 40
0.0
  9
$WORLDVIEW
 70
     1
  9
$SHADEDGE
 70
     3
  9
$SHADEDIF
 70
    70
  9
$TILEMODE
 70
     1
  9
$MAXACTVP
 70
    64
  9
$PINSBASE
 10
0.0
 20
0.0
 30
0.0
  9
$PLIMCHECK
 70
     0
  9
$PEXTMIN
 10
1.144291386829585
 20
0.8017716417162441
 30
0.0
  9
$PEXTMAX
 10
10.29862248146627
 20
7.215944775446192
 30
0.0
  9
$PLIMMIN
 10
-0.1249995194082185
 20
-0.1249999981226883
  9
$PLIMMAX
 10
11.56791386641855
 20
8.142716537310382
  9
$UNITMODE
 70
     0
  9
$VISRETAIN
 70
     1
  9
$PLINEGEN
 70
     0
  9
$PSLTSCALE
 70
     1
  9
$TREEDEPTH
 70
  3020
  9
$CMLSTYLE
  2
Standard
  9
$CMLJUST
 70
     0
  9
$CMLSCALE
 40
1.0
  9
$PROXYGRAPHICS
 70
     1
  9
$MEASUREMENT
 70
     0
  9
$CELWEIGHT
370
    -1
  9
$ENDCAPS
280
     0
  9
$JOINSTYLE
280
     0
  9
$LWDISPLAY
290
     0
  9
$INSUNITS
 70
     0
  9
$HYPERLINKBASE
  1

  9
$STYLESHEET
  1
MONO_MEE_PLOT.CTB
  9
$XEDIT
290
     1
  9
$CEPSNTYPE
380
     0
  9
$PSTYLEMODE
290
     1
  9
$FINGERPRINTGUID
  2
{6E6EAF59-1EB5-4400-9BE6-CAA8F444F536}
  9
$VERSIONGUID
  2
{E59E8026-F350-4BF0-815A-99657AC17F9C}
  9
$EXTNAMES
290
     1
  9
$PSVPSCALE
 40
0.0
  9
$OLESTARTUP
290
     0
  0
ENDSEC
  0
SECTION
  2
CLASSES
  0
CLASS
  1
ACDBDICTIONARYWDFLT
  2
AcDbDictionaryWithDefault
  3
AutoCAD 2000
 90
        0
280
     0
281
     0
  0
CLASS
  1
TABLESTYLE
  2
AcDbTableStyle
  3
ObjectDBX Classes
 90
     2047
280
     0
281
     0
  0
CLASS
  1
DICTIONARYVAR
  2
AcDbDictionaryVar
  3
AutoCAD 2000
 90
        0
280
     0
281
     0
  0
CLASS
  1
ACDBPLACEHOLDER
  2
AcDbPlaceHolder
  3
AutoCAD 2000
 90
        0
280
     0
281
     0
  0
CLASS
  1
LAYOUT
  2
AcDbLayout
  3
AutoCAD 2000
 90
        0
280
     0
281
     0
  0
ENDSEC
  0
SECTION
  2
TABLES
  0
TABLE
  2
VPORT
  5
8
330
0
100
AcDbSymbolTable
 70
     3
  0
VPORT
  5
3716
330
8
100
AcDbSymbolTableRecord
100
AcDbViewportTableRecord
  2
*Active
 70
     0
 10
0.0
 20
0.0
 11
1.0
 21
1.0
 12
130.3580201157406
 22
25.10246818574295
 13
0.0
 23
0.0
 14
1.0
 24
1.0
 15
0.0
 25
0.0
 16
0.0
 26
0.0
 36
1.0
 17
0.0
 27
0.0
 37
0.0
 40
86.36330073093402
 41
1.527918781725888
 42
50.0
 43
0.0
 44
0.0
 50
0.0
 51
0.0
 71
     0
 72
   100
 73
     1
 74
     1
 75
     0
 76
     0
 77
     0
 78
     0
281
     0
 65
     1
110
0.0
120
0.0
130
0.0
111
1.0
121
0.0
131
0.0
112
0.0
122
1.0
132
0.0
 79
     0
146
0.0
  0
ENDTAB
  0
TABLE
  2
LTYPE
  5
5
330
0
100
AcDbSymbolTable
 70
     7
  0
LTYPE
  5
13
330
5
100
AcDbSymbolTableRecord
100
AcDbLinetypeTableRecord
  2
ByBlock
 70
     0
  3

 72
    65
 73
     0
 40
0.0
  0
LTYPE
  5
14
330
5
100
AcDbSymbolTableRecord
100
AcDbLinetypeTableRecord
  2
ByLayer
 70
     0
  3

 72
    65
 73
     0
 40
0.0
  0
LTYPE
  5
15
330
5
100
AcDbSymbolTableRecord
100
AcDbLinetypeTableRecord
  2
CONTINUOUS
 70
     0
  3
Solid line
 72
    65
 73
     0
 40
0.0
  0
LTYPE
  5
27
330
5
100
AcDbSymbolTableRecord
100
AcDbLinetypeTableRecord
  2
DASHED
 70
     0
  3
-- -- -- -- -- -- -- -- -- -- -- -- -- -- --
 72
    65
 73
     2
 40
0.75
 49
0.5
 74
     0
 49
-0.25
 74
     0
  0
LTYPE
  5
28
330
5
100
AcDbSymbolTableRecord
100
AcDbLinetypeTableRecord
  2
DASHDOT
 70
     0
  3
__ . __ . __ . __ . __ . __ . __ . __ . __ . __
 72
    65
 73
     4
 40
1.0
 49
0.5
 74
     0
 49
-0.25
 74
     0
 49
0.0
 74
     0
 49
-0.25
 74
     0
  0
LTYPE
  5
29
330
5
100
AcDbSymbolTableRecord
100
AcDbLinetypeTableRecord
  2
DIVIDE
 70
     0
  3
__ . . __ . . __ . . __ . . __ . . __ . . __
 72
    65
 73
     6
 40
1.25
 49
0.5
 74
     0
 49
-0.25
 74
     0
 49
0.0
 74
     0
 49
-0.25
 74
     0
 49
0.0
 74
     0
 49
-0.25
 74
     0
  0
LTYPE
  5
14A6
330
5
100
AcDbSymbolTableRecord
100
AcDbLinetypeTableRecord
  2
PHANTOM
 70
     0
  3
_____ _ _ _____ _ _ _____ _ _ _____
 72
    65
 73
     6
 40
0.8
 49
0.45
 74
     0
 49
-0.05
 74
     0
 49
0.1
 74
     0
 49
-0.05
 74
     0
 49
0.1
 74
     0
 49
-0.05
 74
     0
  0
LTYPE
  5
3220
330
5
100
AcDbSymbolTableRecord
100
AcDbLinetypeTableRecord
  2
CENTER
 70
     0
  3
Center ____ _ ____ _ ____ _ ____ _ ____ _ ____
 72
    65
 73
     4
 40
2.0
 49
1.25
 74
     0
 49
-0.25
 74
     0
 49
0.25
 74
     0
 49
-0.25
 74
     0
  0
LTYPE
  5
3330
330
5
100
AcDbSymbolTableRecord
100
AcDbLinetypeTableRecord
  2
HIDDEN
 70
     0
  3
Hidden __ __ __ __ __ __ __ __ __ __ __ __ __ _
 72
    65
 73
     2
 40
0.375
 49
0.25
 74
     0
 49
-0.125
 74
     0
  0
ENDTAB
  0
TABLE
  2
LAYER
  5
2
102
{ACAD_XDICTIONARY
360
115C
102
}
330
0
100
AcDbSymbolTable
 70
     7
  0
LAYER
  5
10
330
2
100
AcDbSymbolTableRecord
100
AcDbLayerTableRecord
  2
0
 70
     0
 62
     3
  6
CONTINUOUS
370
    -3
390
F
  0
LAYER
  5
36
330
2
100
AcDbSymbolTableRecord
100
AcDbLayerTableRecord
  2
18
 70
     0
 62
     1
  6
HIDDEN
370
    -3
390
F
  0
LAYER
  5
48
330
2
100
AcDbSymbolTableRecord
100
AcDbLayerTableRecord
  2
DEFPOINTS
 70
     0
 62
     7
  6
CONTINUOUS
290
     0
370
    -3
390
F
  0
LAYER
  5
331E
330
2
100
AcDbSymbolTableRecord
100
AcDbLayerTableRecord
  2
11
 70
     0
 62
     7
  6
CONTINUOUS
370
    -3
390
F
  0
LAYER
  5
3320
330
2
100
AcDbSymbolTableRecord
100
AcDbLayerTableRecord
  2
10
 70
     0
 62
     4
  6
CONTINUOUS
370
    -3
390
F
  0
LAYER
  5
3328
330
2
100
AcDbSymbolTableRecord
100
AcDbLayerTableRecord
  2
12
 70
     0
 62
     3
  6
CONTINUOUS
370
    -3
390
F
  0
LAYER
  5
34E3
330
2
100
AcDbSymbolTableRecord
100
AcDbLayerTableRecord
  2
19
 70
     0
 62
     7
  6
CONTINUOUS
370
    -3
390
F
  0
ENDTAB
  0
TABLE
  2
STYLE
  5
3
330
0
100
AcDbSymbolTable
 70
     6
  0
STYLE
  5
11
330
3
100
AcDbSymbolTableRecord
100
AcDbTextStyleTableRecord
  2
Standard
 70
     0
 40
0.0
 41
1.0
 50
0.0
 71
     0
 42
0.2
  3
txt
  4

  0
STYLE
  5
26
330
3
100
AcDbSymbolTableRecord
100
AcDbTextStyleTableRecord
  2
STANDARD1
 70
     0
 40
0.0
 41
1.0
 50
0.0
 71
     0
 42
3.200000047683716
  3
MONOTXT
  4
BIGFONT
  0
STYLE
  5
37
330
3
100
AcDbSymbolTableRecord
100
AcDbTextStyleTableRecord
  2
STANDARD2
 70
     4
 40
0.0
 41
1.0
 50
0.0
 71
     0
 42
3.200000047683716
  3
MONOTXT
  4
BIGFONT
  0
STYLE
  5
38
330
3
100
AcDbSymbolTableRecord
100
AcDbTextStyleTableRecord
  2
STANDARD3
 70
     0
 40
0.0
 41
1.0
 50
0.0
 71
     0
 42
3.200000047683716
  3
MONOTXT
  4

  0
STYLE
  5
39
330
3
100
AcDbSymbolTableRecord
100
AcDbTextStyleTableRecord
  2
STANDARD4
 70
     4
 40
0.0
 41
1.0
 50
0.0
 71
     0
 42
3.200000047683716
  3
MONOTXT
  4

  0
STYLE
  5
321F
330
3
100
AcDbSymbolTableRecord
100
AcDbTextStyleTableRecord
  2

 70
     1
 40
0.0
 41
1.0
 50
0.0
 71
     0
 42
3.200000047683716
  3
ltypeshp.shx
  4

  0
ENDTAB
  0
TABLE
  2
VIEW
  5
6
330
0
100
AcDbSymbolTable
 70
     0
  0
ENDTAB
  0
TABLE
  2
UCS
  5
7
330
0
100
AcDbSymbolTable
 70
     0
  0
ENDTAB
  0
TABLE
  2
APPID
  5
9
330
0
100
AcDbSymbolTable
 70
     7
  0
APPID
  5
12
330
9
100
AcDbSymbolTableRecord
100
AcDbRegAppTableRecord
  2
ACAD
 70
     0
  0
APPID
  5
114B
330
9
100
AcDbSymbolTableRecord
100
AcDbRegAppTableRecord
  2
ACAD_PSEXT
 70
     0
  0
APPID
  5
31F1
330
9
100
AcDbSymbolTableRecord
100
AcDbRegAppTableRecord
  2
ACAD_DSTYLE_DIMEXT_LENGTH
 70
     0
  0
APPID
  5
31F2
330
9
100
AcDbSymbolTableRecord
100
AcDbRegAppTableRecord
  2
ACAD_DSTYLE_DIMEXT_ENABLED
 70
     0
  0
APPID
  5
31F3
330
9
100
AcDbSymbolTableRecord
100
AcDbRegAppTableRecord
  2
ACAD_DSTYLE_DIMJOGGED_JOGANGLE_SYMBOL
 70
     0
  0
APPID
  5
31F4
330
9
100
AcDbSymbolTableRecord
100
AcDbRegAppTableRecord
  2
ACAD_DSTYLE_DIMARC_LENGTH_SYMBOL
 70
     0
  0
APPID
  5
3212
330
9
100
AcDbSymbolTableRecord
100
AcDbRegAppTableRecord
  2
ACAD_EXEMPT_FROM_CAD_STANDARDS
 70
     0
  0
ENDTAB
  0
TABLE
  2
DIMSTYLE
  5
A
330
0
100
AcDbSymbolTable
 70
     2
100
AcDbDimStyleTable
 71
     1
340
1145
  0
DIMSTYLE
105
1145
330
A
100
AcDbSymbolTableRecord
100
AcDbDimStyleTableRecord
  2
Standard
 70
     0
340
11
  0
DIMSTYLE
105
31F0
330
A
100
AcDbSymbolTableRecord
100
AcDbDimStyleTableRecord
  2
コピー - MEE-STD
 70
     0
 40
0.0
 41
2.5
 42
1.0
 43
8.0
 44
1.0
 73
     0
 74
     0
 77
     3
 78
     8
 79
     2
140
3.2
141
-1.0
144
1.176470587999999
147
1.0
172
     1
173
     1
176
     7
177
     7
178
     2
179
     1
271
     1
272
     1
284
     8
340
26
341
31EA
343
31EA
344
31EA
1001
ACAD_DSTYLE_DIMEXT_LENGTH
1070
   378
1040
1.0
1001
ACAD_DSTYLE_DIMEXT_ENABLED
1070
   383
1070
     0
1001
ACAD_DSTYLE_DIMARC_LENGTH_SYMBOL
1070
   379
1070
     0
1001
ACAD_DSTYLE_DIMJOGGED_JOGANGLE_SYMBOL
1070
   384
1040
0.7853981633974483
  0
ENDTAB
  0
TABLE
  2
BLOCK_RECORD
  5
1
330
0
100
AcDbSymbolTable
 70
    23
  0
BLOCK_RECORD
  5
22
330
1
100
AcDbSymbolTableRecord
100
AcDbBlockTableRecord
  2
*Model_Space
340
25
  0
BLOCK_RECORD
  5
1E
330
1
100
AcDbSymbolTableRecord
100
AcDbBlockTableRecord
  2
*Paper_Space
340
21
  0
BLOCK_RECORD
  5
31EA
330
1
100
AcDbSymbolTableRecord
100
AcDbBlockTableRecord
  2
_Open30
340
0
  0
BLOCK_RECORD
  5
350D
330
1
100
AcDbSymbolTableRecord
100
AcDbBlockTableRecord
  2
*D1
340
0
  0
BLOCK_RECORD
  5
351A
330
1
100
AcDbSymbolTableRecord
100
AcDbBlockTableRecord
  2
*D2
340
0
  0
BLOCK_RECORD
  5
3528
330
1
100
AcDbSymbolTableRecord
100
AcDbBlockTableRecord
  2
*D3
340
0
  0
BLOCK_RECORD
  5
3535
330
1
100
AcDbSymbolTableRecord
100
AcDbBlockTableRecord
  2
*D4
340
0
  0
BLOCK_RECORD
  5
3543
330
1
100
AcDbSymbolTableRecord
100
AcDbBlockTableRecord
  2
*D5
340
0
  0
BLOCK_RECORD
  5
3550
330
1
100
AcDbSymbolTableRecord
100
AcDbBlockTableRecord
  2
*D6
340
0
  0
BLOCK_RECORD
  5
355D
330
1
100
AcDbSymbolTableRecord
100
AcDbBlockTableRecord
  2
*D7
340
0
  0
BLOCK_RECORD
  5
356A
330
1
100
AcDbSymbolTableRecord
100
AcDbBlockTableRecord
  2
*D8
340
0
  0
BLOCK_RECORD
  5
3577
330
1
100
AcDbSymbolTableRecord
100
AcDbBlockTableRecord
  2
*D9
340
0
  0
BLOCK_RECORD
  5
3585
330
1
100
AcDbSymbolTableRecord
100
AcDbBlockTableRecord
  2
*D10
340
0
  0
BLOCK_RECORD
  5
3592
330
1
100
AcDbSymbolTableRecord
100
AcDbBlockTableRecord
  2
*D11
340
0
  0
BLOCK_RECORD
  5
35A0
330
1
100
AcDbSymbolTableRecord
100
AcDbBlockTableRecord
  2
*D12
340
0
  0
BLOCK_RECORD
  5
35AD
330
1
100
AcDbSymbolTableRecord
100
AcDbBlockTableRecord
  2
*D13
340
0
  0
BLOCK_RECORD
  5
3635
330
1
100
AcDbSymbolTableRecord
100
AcDbBlockTableRecord
  2
*D14
340
0
  0
BLOCK_RECORD
  5
364D
330
1
100
AcDbSymbolTableRecord
100
AcDbBlockTableRecord
  2
*D15
340
0
  0
BLOCK_RECORD
  5
365A
330
1
100
AcDbSymbolTableRecord
100
AcDbBlockTableRecord
  2
*D16
340
0
  0
BLOCK_RECORD
  5
3667
330
1
100
AcDbSymbolTableRecord
100
AcDbBlockTableRecord
  2
*D17
340
0
  0
BLOCK_RECORD
  5
3674
330
1
100
AcDbSymbolTableRecord
100
AcDbBlockTableRecord
  2
*D18
340
0
  0
BLOCK_RECORD
  5
36CB
330
1
100
AcDbSymbolTableRecord
100
AcDbBlockTableRecord
  2
*D19
340
0
  0
BLOCK_RECORD
  5
36E1
330
1
100
AcDbSymbolTableRecord
100
AcDbBlockTableRecord
  2
*D20
340
0
  0
BLOCK_RECORD
  5
36EE
330
1
100
AcDbSymbolTableRecord
100
AcDbBlockTableRecord
  2
*D21
340
0
  0
BLOCK_RECORD
  5
36FB
330
1
100
AcDbSymbolTableRecord
100
AcDbBlockTableRecord
  2
*D22
340
0
  0
ENDTAB
  0
ENDSEC
  0
SECTION
  2
BLOCKS
  0
BLOCK
  5
23
330
22
100
AcDbEntity
  8
0
100
AcDbBlockBegin
  2
*Model_Space
 70
     0
 10
0.0
 20
0.0
 30
0.0
  3
*Model_Space
  1

  0
ENDBLK
  5
24
330
22
100
AcDbEntity
  8
0
100
AcDbBlockEnd
  0
BLOCK
  5
1F
330
1E
100
AcDbEntity
 67
     1
  8
0
100
AcDbBlockBegin
  2
*Paper_Space
 70
     0
 10
0.0
 20
0.0
 30
0.0
  3
*Paper_Space
  1

  0
ENDBLK
  5
20
330
1E
100
AcDbEntity
 67
     1
  8
0
100
AcDbBlockEnd
  0
BLOCK
  5
31EB
330
31EA
100
AcDbEntity
  8
0
100
AcDbBlockBegin
  2
_Open30
 70
     0
 10
0.0
 20
0.0
 30
0.0
  3
_Open30
  1

  0
LINE
  5
31EC
330
31EA
100
AcDbEntity
  8
0
  6
ByBlock
 62
     0
370
    -2
100
AcDbLine
 10
-1.0
 20
0.26794919
 30
0.0
 11
0.0
 21
0.0
 31
0.0
  0
LINE
  5
31ED
330
31EA
100
AcDbEntity
  8
0
  6
ByBlock
 62
     0
370
    -2
100
AcDbLine
 10
0.0
 20
0.0
 30
0.0
 11
-1.0
 21
-0.26794919
 31
0.0
  0
LINE
  5
31EE
330
31EA
100
AcDbEntity
  8
0
  6
ByBlock
 62
     0
370
    -2
100
AcDbLine
 10
0.0
 20
0.0
 30
0.0
 11
-1.0
 21
0.0
 31
0.0
  0
ENDBLK
  5
31EF
330
31EA
100
AcDbEntity
  8
0
100
AcDbBlockEnd
  0
BLOCK
  5
3517
330
350D
100
AcDbEntity
  8
0
100
AcDbBlockBegin
  2
*D1
 70
     1
 10
0.0
 20
0.0
 30
0.0
  3
*D1
  1

  0
LINE
  5
35D5
330
350D
100
AcDbEntity
  8
18
 62
     0
370
    -2
100
AcDbLine
 10
-172.5940933999999
 20
22.949999925
 30
0.0
 11
-172.5940933999999
 21
-6.131839389863253
 31
0.0
  0
LINE
  5
35D6
330
350D
100
AcDbEntity
  8
18
 62
     0
370
    -2
100
AcDbLine
 10
-64.5941015
 20
22.949999925
 30
0.0
 11
-64.5941015
 21
-6.131839389863253
 31
0.0
  0
LINE
  5
35D7
330
350D
100
AcDbEntity
  8
18
 62
     0
370
    -2
100
AcDbLine
 10
-170.6622417511929
 20
-4.131839389863253
 30
0.0
 11
-66.52595314880702
 21
-4.131839389863253
 31
0.0
  0
SOLID
  5
35D8
330
350D
100
AcDbEntity
  8
18
 62
     0
100
AcDbTrace
 10
-170.6622417511929
 20
-3.809864115062081
 30
0.0
 11
-170.6622417511929
 21
-4.453814664664422
 31
0.0
 12
-172.5940933999999
 22
-4.131839389863253
 32
0.0
 13
-172.5940933999999
 23
-4.131839389863253
 33
0.0
  0
SOLID
  5
35D9
330
350D
100
AcDbEntity
  8
18
 62
     0
100
AcDbTrace
 10
-66.52595314880702
 20
-3.809864115062081
 30
0.0
 11
-66.52595314880702
 21
-4.453814664664422
 31
0.0
 12
-64.5941015
 22
-4.131839389863253
 32
0.0
 13
-64.5941015
 23
-4.131839389863253
 33
0.0
  0
MTEXT
  5
35DA
330
350D
100
AcDbEntity
  8
18
 62
     0
100
AcDbMText
 10
-118.5940974499999
 20
-2.641839413705109
 30
0.0
 40
2.799999952316284
 41
0.0
 71
     5
 72
     1
  1
\A1;108.0000
 73
     1
 44
1.0
  0
POINT
  5
35DB
330
350D
100
AcDbEntity
  8
DEFPOINTS
 62
     0
100
AcDbPoint
 10
-172.5940933999999
 20
23.949999925
 30
0.0
  0
POINT
  5
35DC
330
350D
100
AcDbEntity
  8
DEFPOINTS
 62
     0
100
AcDbPoint
 10
-64.5941015
 20
23.949999925
 30
0.0
  0
POINT
  5
35DD
330
350D
100
AcDbEntity
  8
DEFPOINTS
 62
     0
100
AcDbPoint
 10
-64.5941015
 20
-4.131839389863253
 30
0.0
  0
ENDBLK
  5
3518
330
350D
100
AcDbEntity
  8
0
100
AcDbBlockEnd
  0
BLOCK
  5
3525
330
351A
100
AcDbEntity
  8
0
100
AcDbBlockBegin
  2
*D2
 70
     1
 10
0.0
 20
0.0
 30
0.0
  3
*D2
  1

  0
LINE
  5
35E8
330
351A
100
AcDbEntity
  8
18
 62
     0
370
    -2
100
AcDbLine
 10
-172.5940933999999
 20
22.949999925
 30
0.0
 11
-172.5940933999999
 21
1.33987278301718
 31
0.0
  0
LINE
  5
35E9
330
351A
100
AcDbEntity
  8
18
 62
     0
370
    -2
100
AcDbLine
 10
-166.5940938499999
 20
26.94999962499998
 30
0.0
 11
-166.5940938499999
 21
1.33987278301718
 31
0.0
  0
LINE
  5
35EA
330
351A
100
AcDbEntity
  8
18
 62
     0
370
    -2
100
AcDbLine
 10
-170.6622417511929
 20
3.33987278301718
 30
0.0
 11
-168.525945498807
 21
3.33987278301718
 31
0.0
  0
LINE
  5
35EB
330
351A
100
AcDbEntity
  8
18
 62
     0
370
    -2
100
AcDbLine
 10
-166.5940938499999
 20
3.33987278301718
 30
0.0
 11
-152.348909074489
 21
3.33987278301718
 31
0.0
  0
SOLID
  5
35EC
330
351A
100
AcDbEntity
  8
18
 62
     0
100
AcDbTrace
 10
-170.6622417511929
 20
3.66184805781835
 30
0.0
 11
-170.6622417511929
 21
3.017897508216009
 31
0.0
 12
-172.5940933999999
 22
3.33987278301718
 32
0.0
 13
-172.5940933999999
 23
3.33987278301718
 33
0.0
  0
SOLID
  5
35ED
330
351A
100
AcDbEntity
  8
18
 62
     0
100
AcDbTrace
 10
-168.525945498807
 20
3.66184805781835
 30
0.0
 11
-168.525945498807
 21
3.017897508216009
 31
0.0
 12
-166.5940938499999
 22
3.33987278301718
 32
0.0
 13
-166.5940938499999
 23
3.33987278301718
 33
0.0
  0
MTEXT
  5
35EE
330
351A
100
AcDbEntity
  8
18
 62
     0
100
AcDbMText
 10
-158.505575637841
 20
4.829872759175321
 30
0.0
 40
2.799999952316284
 41
0.0
 71
     5
 72
     1
  1
\A1;6.0000
 73
     1
 44
1.0
  0
POINT
  5
35EF
330
351A
100
AcDbEntity
  8
DEFPOINTS
 62
     0
100
AcDbPoint
 10
-172.5940933999999
 20
23.949999925
 30
0.0
  0
POINT
  5
35F0
330
351A
100
AcDbEntity
  8
DEFPOINTS
 62
     0
100
AcDbPoint
 10
-166.5940938499999
 20
27.94999962499999
 30
0.0
  0
POINT
  5
35F1
330
351A
100
AcDbEntity
  8
DEFPOINTS
 62
     0
100
AcDbPoint
 10
-166.5940938499999
 20
3.33987278301718
 30
0.0
  0
ENDBLK
  5
3526
330
351A
100
AcDbEntity
  8
0
100
AcDbBlockEnd
  0
BLOCK
  5
3532
330
3528
100
AcDbEntity
  8
0
100
AcDbBlockBegin
  2
*D3
 70
     1
 10
0.0
 20
0.0
 30
0.0
  3
*D3
  1

  0
LINE
  5
35CC
330
3528
100
AcDbEntity
  8
18
 62
     0
370
    -2
100
AcDbLine
 10
-166.5940938499999
 20
26.94999962499998
 30
0.0
 11
-166.5940938499999
 21
1.33987278301718
 31
0.0
  0
LINE
  5
35CD
330
3528
100
AcDbEntity
  8
18
 62
     0
370
    -2
100
AcDbLine
 10
-70.59410105000002
 20
26.94999962499998
 30
0.0
 11
-70.59410105000002
 21
1.33987278301718
 31
0.0
  0
LINE
  5
35CE
330
3528
100
AcDbEntity
  8
18
 62
     0
370
    -2
100
AcDbLine
 10
-164.6622422011929
 20
3.33987278301718
 30
0.0
 11
-72.52595269880703
 21
3.33987278301718
 31
0.0
  0
SOLID
  5
35CF
330
3528
100
AcDbEntity
  8
18
 62
     0
100
AcDbTrace
 10
-164.6622422011929
 20
3.66184805781835
 30
0.0
 11
-164.6622422011929
 21
3.017897508216009
 31
0.0
 12
-166.5940938499999
 22
3.33987278301718
 32
0.0
 13
-166.5940938499999
 23
3.33987278301718
 33
0.0
  0
SOLID
  5
35D0
330
3528
100
AcDbEntity
  8
18
 62
     0
100
AcDbTrace
 10
-72.52595269880703
 20
3.66184805781835
 30
0.0
 11
-72.52595269880703
 21
3.017897508216009
 31
0.0
 12
-70.59410105000002
 22
3.33987278301718
 32
0.0
 13
-70.59410105000002
 23
3.33987278301718
 33
0.0
  0
MTEXT
  5
35D1
330
3528
100
AcDbEntity
  8
18
 62
     0
100
AcDbMText
 10
-118.59409745
 20
4.829872759175321
 30
0.0
 40
2.799999952316284
 41
0.0
 71
     5
 72
     1
  1
\A1;96.0000
 73
     1
 44
1.0
  0
POINT
  5
35D2
330
3528
100
AcDbEntity
  8
DEFPOINTS
 62
     0
100
AcDbPoint
 10
-166.5940938499999
 20
27.94999962499999
 30
0.0
  0
POINT
  5
35D3
330
3528
100
AcDbEntity
  8
DEFPOINTS
 62
     0
100
AcDbPoint
 10
-70.59410105000002
 20
27.94999962499999
 30
0.0
  0
POINT
  5
35D4
330
3528
100
AcDbEntity
  8
DEFPOINTS
 62
     0
100
AcDbPoint
 10
-70.59410105000002
 20
3.33987278301718
 30
0.0
  0
ENDBLK
  5
3533
330
3528
100
AcDbEntity
  8
0
100
AcDbBlockEnd
  0
BLOCK
  5
3540
330
3535
100
AcDbEntity
  8
0
100
AcDbBlockBegin
  2
*D4
 70
     1
 10
0.0
 20
0.0
 30
0.0
  3
*D4
  1

  0
LINE
  5
35F2
330
3535
100
AcDbEntity
  8
18
 62
     0
370
    -2
100
AcDbLine
 10
-70.59410105000002
 20
26.94999962499998
 30
0.0
 11
-70.59410105000002
 21
1.33987278301718
 31
0.0
  0
LINE
  5
35F3
330
3535
100
AcDbEntity
  8
18
 62
     0
370
    -2
100
AcDbLine
 10
-64.59410150000048
 20
22.949999925
 30
0.0
 11
-64.59410150000048
 21
1.33987278301718
 31
0.0
  0
LINE
  5
35F4
330
3535
100
AcDbEntity
  8
18
 62
     0
370
    -2
100
AcDbLine
 10
-68.66224940119298
 20
3.33987278301718
 30
0.0
 11
-66.5259531488075
 21
3.33987278301718
 31
0.0
  0
LINE
  5
35F5
330
3535
100
AcDbEntity
  8
18
 62
     0
370
    -2
100
AcDbLine
 10
-64.59410150000048
 20
3.33987278301718
 30
0.0
 11
-50.34891672448956
 21
3.33987278301718
 31
0.0
  0
SOLID
  5
35F6
330
3535
100
AcDbEntity
  8
18
 62
     0
100
AcDbTrace
 10
-68.66224940119298
 20
3.66184805781835
 30
0.0
 11
-68.66224940119298
 21
3.017897508216009
 31
0.0
 12
-70.59410105000002
 22
3.33987278301718
 32
0.0
 13
-70.59410105000002
 23
3.33987278301718
 33
0.0
  0
SOLID
  5
35F7
330
3535
100
AcDbEntity
  8
18
 62
     0
100
AcDbTrace
 10
-66.5259531488075
 20
3.66184805781835
 30
0.0
 11
-66.5259531488075
 21
3.017897508216009
 31
0.0
 12
-64.59410150000048
 22
3.33987278301718
 32
0.0
 13
-64.59410150000048
 23
3.33987278301718
 33
0.0
  0
MTEXT
  5
35F8
330
3535
100
AcDbEntity
  8
18
 62
     0
100
AcDbMText
 10
-56.5055832878415
 20
4.829872759175321
 30
0.0
 40
2.799999952316284
 41
0.0
 71
     5
 72
     1
  1
\A1;6.0000
 73
     1
 44
1.0
  0
POINT
  5
35F9
330
3535
100
AcDbEntity
  8
DEFPOINTS
 62
     0
100
AcDbPoint
 10
-70.59410105000002
 20
27.94999962499999
 30
0.0
  0
POINT
  5
35FA
330
3535
100
AcDbEntity
  8
DEFPOINTS
 62
     0
100
AcDbPoint
 10
-64.59410150000048
 20
23.949999925
 30
0.0
  0
POINT
  5
35FB
330
3535
100
AcDbEntity
  8
DEFPOINTS
 62
     0
100
AcDbPoint
 10
-64.59410150000048
 20
3.33987278301718
 30
0.0
  0
ENDBLK
  5
3541
330
3535
100
AcDbEntity
  8
0
100
AcDbBlockEnd
  0
BLOCK
  5
354D
330
3543
100
AcDbEntity
  8
0
100
AcDbBlockBegin
  2
*D5
 70
     1
 10
0.0
 20
0.0
 30
0.0
  3
*D5
  1

  0
LINE
  5
360F
330
3543
100
AcDbEntity
  8
18
 62
     0
370
    -2
100
AcDbLine
 10
21.2000097125
 20
48.94999797500002
 30
0.0
 11
21.2000097125
 21
-6.131839389863253
 31
0.0
  0
LINE
  5
3610
330
3543
100
AcDbEntity
  8
18
 62
     0
370
    -2
100
AcDbLine
 10
150.6999999999998
 20
21.94999999999999
 30
0.0
 11
150.6999999999998
 21
-6.131839389863253
 31
0.0
  0
LINE
  5
3611
330
3543
100
AcDbEntity
  8
18
 62
     0
370
    -2
100
AcDbLine
 10
23.13186136130702
 20
-4.131839389863253
 30
0.0
 11
148.7681483511929
 21
-4.131839389863253
 31
0.0
  0
SOLID
  5
3612
330
3543
100
AcDbEntity
  8
18
 62
     0
100
AcDbTrace
 10
23.13186136130702
 20
-3.809864115062081
 30
0.0
 11
23.13186136130702
 21
-4.453814664664422
 31
0.0
 12
21.2000097125
 22
-4.131839389863253
 32
0.0
 13
21.2000097125
 23
-4.131839389863253
 33
0.0
  0
SOLID
  5
3613
330
3543
100
AcDbEntity
  8
18
 62
     0
100
AcDbTrace
 10
148.7681483511929
 20
-3.809864115062081
 30
0.0
 11
148.7681483511929
 21
-4.453814664664422
 31
0.0
 12
150.6999999999998
 22
-4.131839389863253
 32
0.0
 13
150.6999999999998
 23
-4.131839389863253
 33
0.0
  0
MTEXT
  5
3614
330
3543
100
AcDbEntity
  8
18
 62
     0
100
AcDbMText
 10
85.95000485624998
 20
-2.641839413705109
 30
0.0
 40
2.799999952316284
 41
0.0
 71
     5
 72
     1
  1
\A1;129.5000
 73
     1
 44
1.0
  0
POINT
  5
3615
330
3543
100
AcDbEntity
  8
DEFPOINTS
 62
     0
100
AcDbPoint
 10
21.2000097125
 20
49.94999797500002
 30
0.0
  0
POINT
  5
3616
330
3543
100
AcDbEntity
  8
DEFPOINTS
 62
     0
100
AcDbPoint
 10
150.6999999999998
 20
22.94999999999999
 30
0.0
  0
POINT
  5
3617
330
3543
100
AcDbEntity
  8
DEFPOINTS
 62
     0
100
AcDbPoint
 10
150.6999999999998
 20
-4.131839389863253
 30
0.0
  0
ENDBLK
  5
354E
330
3543
100
AcDbEntity
  8
0
100
AcDbBlockEnd
  0
BLOCK
  5
355A
330
3550
100
AcDbEntity
  8
0
100
AcDbBlockBegin
  2
*D6
 70
     1
 10
0.0
 20
0.0
 30
0.0
  3
*D6
  1

  0
LINE
  5
3621
330
3550
100
AcDbEntity
  8
18
 62
     0
370
    -2
100
AcDbLine
 10
21.2000097125
 20
48.94999797500002
 30
0.0
 11
21.2000097125
 21
1.339872783017177
 31
0.0
  0
LINE
  5
3622
330
3550
100
AcDbEntity
  8
18
 62
     0
370
    -2
100
AcDbLine
 10
39.70000832500001
 20
21.94999999999999
 30
0.0
 11
39.70000832500001
 21
1.33987278301718
 31
0.0
  0
LINE
  5
3623
330
3550
100
AcDbEntity
  8
18
 62
     0
370
    -2
100
AcDbLine
 10
23.13186136130702
 20
3.33987278301718
 30
0.0
 11
37.76815667619297
 21
3.33987278301718
 31
0.0
  0
SOLID
  5
3624
330
3550
100
AcDbEntity
  8
18
 62
     0
100
AcDbTrace
 10
23.13186136130702
 20
3.66184805781835
 30
0.0
 11
23.13186136130702
 21
3.017897508216009
 31
0.0
 12
21.2000097125
 22
3.33987278301718
 32
0.0
 13
21.2000097125
 23
3.33987278301718
 33
0.0
  0
SOLID
  5
3625
330
3550
100
AcDbEntity
  8
18
 62
     0
100
AcDbTrace
 10
37.76815667619297
 20
3.66184805781835
 30
0.0
 11
37.76815667619297
 21
3.017897508216009
 31
0.0
 12
39.70000832500001
 22
3.33987278301718
 32
0.0
 13
39.70000832500001
 23
3.33987278301718
 33
0.0
  0
MTEXT
  5
3626
330
3550
100
AcDbEntity
  8
18
 62
     0
100
AcDbMText
 10
30.45000901874999
 20
4.829872759175323
 30
0.0
 40
2.799999952316284
 41
0.0
 71
     5
 72
     1
  1
\A1;18.5000
 73
     1
 44
1.0
  0
POINT
  5
3627
330
3550
100
AcDbEntity
  8
DEFPOINTS
 62
     0
100
AcDbPoint
 10
21.2000097125
 20
49.94999797500002
 30
0.0
  0
POINT
  5
3628
330
3550
100
AcDbEntity
  8
DEFPOINTS
 62
     0
100
AcDbPoint
 10
39.70000832500001
 20
22.94999999999999
 30
0.0
  0
POINT
  5
3629
330
3550
100
AcDbEntity
  8
DEFPOINTS
 62
     0
100
AcDbPoint
 10
39.70000832500001
 20
3.33987278301718
 30
0.0
  0
ENDBLK
  5
355B
330
3550
100
AcDbEntity
  8
0
100
AcDbBlockEnd
  0
BLOCK
  5
3567
330
355D
100
AcDbEntity
  8
0
100
AcDbBlockBegin
  2
*D7
 70
     1
 10
0.0
 20
0.0
 30
0.0
  3
*D7
  1

  0
LINE
  5
3618
330
355D
100
AcDbEntity
  8
18
 62
     0
370
    -2
100
AcDbLine
 10
39.700008325
 20
21.94999999999999
 30
0.0
 11
39.700008325
 21
1.33987278301718
 31
0.0
  0
LINE
  5
3619
330
355D
100
AcDbEntity
  8
18
 62
     0
370
    -2
100
AcDbLine
 10
91.70000442500001
 20
21.94999999999999
 30
0.0
 11
91.70000442500001
 21
1.33987278301718
 31
0.0
  0
LINE
  5
361A
330
355D
100
AcDbEntity
  8
18
 62
     0
370
    -2
100
AcDbLine
 10
41.63185997380702
 20
3.33987278301718
 30
0.0
 11
89.768152776193
 21
3.33987278301718
 31
0.0
  0
SOLID
  5
361B
330
355D
100
AcDbEntity
  8
18
 62
     0
100
AcDbTrace
 10
41.63185997380702
 20
3.66184805781835
 30
0.0
 11
41.63185997380702
 21
3.017897508216009
 31
0.0
 12
39.700008325
 22
3.33987278301718
 32
0.0
 13
39.700008325
 23
3.33987278301718
 33
0.0
  0
SOLID
  5
361C
330
355D
100
AcDbEntity
  8
18
 62
     0
100
AcDbTrace
 10
89.768152776193
 20
3.66184805781835
 30
0.0
 11
89.768152776193
 21
3.017897508216009
 31
0.0
 12
91.70000442500001
 22
3.33987278301718
 32
0.0
 13
91.70000442500001
 23
3.33987278301718
 33
0.0
  0
MTEXT
  5
361D
330
355D
100
AcDbEntity
  8
18
 62
     0
100
AcDbMText
 10
65.700006375
 20
4.829872759175321
 30
0.0
 40
2.799999952316284
 41
0.0
 71
     5
 72
     1
  1
\A1;52.0000
 73
     1
 44
1.0
  0
POINT
  5
361E
330
355D
100
AcDbEntity
  8
DEFPOINTS
 62
     0
100
AcDbPoint
 10
39.700008325
 20
22.94999999999999
 30
0.0
  0
POINT
  5
361F
330
355D
100
AcDbEntity
  8
DEFPOINTS
 62
     0
100
AcDbPoint
 10
91.70000442500001
 20
22.94999999999999
 30
0.0
  0
POINT
  5
3620
330
355D
100
AcDbEntity
  8
DEFPOINTS
 62
     0
100
AcDbPoint
 10
91.70000442500001
 20
3.33987278301718
 30
0.0
  0
ENDBLK
  5
3568
330
355D
100
AcDbEntity
  8
0
100
AcDbBlockEnd
  0
BLOCK
  5
3574
330
356A
100
AcDbEntity
  8
0
100
AcDbBlockBegin
  2
*D8
 70
     1
 10
0.0
 20
0.0
 30
0.0
  3
*D8
  1

  0
LINE
  5
3606
330
356A
100
AcDbEntity
  8
18
 62
     0
370
    -2
100
AcDbLine
 10
91.70000442500001
 20
21.94999999999999
 30
0.0
 11
91.70000442500001
 21
1.33987278301718
 31
0.0
  0
LINE
  5
3607
330
356A
100
AcDbEntity
  8
18
 62
     0
370
    -2
100
AcDbLine
 10
150.6999999999998
 20
21.94999999999999
 30
0.0
 11
150.6999999999998
 21
1.33987278301718
 31
0.0
  0
LINE
  5
3608
330
356A
100
AcDbEntity
  8
18
 62
     0
370
    -2
100
AcDbLine
 10
93.63185607380705
 20
3.33987278301718
 30
0.0
 11
148.7681483511929
 21
3.33987278301718
 31
0.0
  0
SOLID
  5
3609
330
356A
100
AcDbEntity
  8
18
 62
     0
100
AcDbTrace
 10
93.63185607380705
 20
3.66184805781835
 30
0.0
 11
93.63185607380705
 21
3.017897508216009
 31
0.0
 12
91.70000442500001
 22
3.33987278301718
 32
0.0
 13
91.70000442500001
 23
3.33987278301718
 33
0.0
  0
SOLID
  5
360A
330
356A
100
AcDbEntity
  8
18
 62
     0
100
AcDbTrace
 10
148.7681483511929
 20
3.66184805781835
 30
0.0
 11
148.7681483511929
 21
3.017897508216009
 31
0.0
 12
150.6999999999998
 22
3.33987278301718
 32
0.0
 13
150.6999999999998
 23
3.33987278301718
 33
0.0
  0
MTEXT
  5
360B
330
356A
100
AcDbEntity
  8
18
 62
     0
100
AcDbMText
 10
121.2000022125
 20
4.829872759175321
 30
0.0
 40
2.799999952316284
 41
0.0
 71
     5
 72
     1
  1
\A1;59.0000
 73
     1
 44
1.0
  0
POINT
  5
360C
330
356A
100
AcDbEntity
  8
DEFPOINTS
 62
     0
100
AcDbPoint
 10
91.70000442500001
 20
22.94999999999999
 30
0.0
  0
POINT
  5
360D
330
356A
100
AcDbEntity
  8
DEFPOINTS
 62
     0
100
AcDbPoint
 10
150.6999999999998
 20
22.94999999999999
 30
0.0
  0
POINT
  5
360E
330
356A
100
AcDbEntity
  8
DEFPOINTS
 62
     0
100
AcDbPoint
 10
150.6999999999998
 20
3.33987278301718
 30
0.0
  0
ENDBLK
  5
3575
330
356A
100
AcDbEntity
  8
0
100
AcDbBlockEnd
  0
BLOCK
  5
3582
330
3577
100
AcDbEntity
  8
0
100
AcDbBlockBegin
  2
*D9
 70
     1
 10
0.0
 20
0.0
 30
0.0
  3
*D9
  1

  0
LINE
  5
362A
330
3577
100
AcDbEntity
  8
18
 62
     0
370
    -2
100
AcDbLine
 10
145.7000003749999
 20
21.94999999999999
 30
0.0
 11
145.7000003749999
 21
9.95843291452372
 31
0.0
  0
LINE
  5
362B
330
3577
100
AcDbEntity
  8
18
 62
     0
370
    -2
100
AcDbLine
 10
150.6999999999998
 20
21.95000000000001
 30
0.0
 11
150.6999999999998
 21
9.95843291452372
 31
0.0
  0
LINE
  5
362C
330
3577
100
AcDbEntity
  8
18
 62
     0
370
    -2
100
AcDbLine
 10
147.6318520238069
 20
11.95843291452372
 30
0.0
 11
148.7681483511929
 21
11.95843291452372
 31
0.0
  0
LINE
  5
362D
330
3577
100
AcDbEntity
  8
18
 62
     0
370
    -2
100
AcDbLine
 10
150.6999999999998
 20
11.95843291452372
 30
0.0
 11
164.9451847755107
 21
11.95843291452372
 31
0.0
  0
SOLID
  5
362E
330
3577
100
AcDbEntity
  8
18
 62
     0
100
AcDbTrace
 10
147.6318520238069
 20
12.28040818932488
 30
0.0
 11
147.6318520238069
 21
11.63645763972253
 31
0.0
 12
145.7000003749999
 22
11.95843291452372
 32
0.0
 13
145.7000003749999
 23
11.95843291452372
 33
0.0
  0
SOLID
  5
362F
330
3577
100
AcDbEntity
  8
18
 62
     0
100
AcDbTrace
 10
148.7681483511929
 20
12.28040818932488
 30
0.0
 11
148.7681483511929
 21
11.63645763972253
 31
0.0
 12
150.6999999999998
 22
11.95843291452372
 32
0.0
 13
150.6999999999998
 23
11.95843291452372
 33
0.0
  0
MTEXT
  5
3630
330
3577
100
AcDbEntity
  8
18
 62
     0
100
AcDbMText
 10
158.7885182121588
 20
13.44843289068186
 30
0.0
 40
2.799999952316284
 41
0.0
 71
     5
 72
     1
  1
\A1;5.0000
 73
     1
 44
1.0
  0
POINT
  5
3631
330
3577
100
AcDbEntity
  8
DEFPOINTS
 62
     0
100
AcDbPoint
 10
145.7000003749999
 20
22.94999999999999
 30
0.0
  0
POINT
  5
3632
330
3577
100
AcDbEntity
  8
DEFPOINTS
 62
     0
100
AcDbPoint
 10
150.6999999999998
 20
22.95000000000001
 30
0.0
  0
POINT
  5
3633
330
3577
100
AcDbEntity
  8
DEFPOINTS
 62
     0
100
AcDbPoint
 10
150.6999999999998
 20
11.95843291452372
 30
0.0
  0
ENDBLK
  5
3583
330
3577
100
AcDbEntity
  8
0
100
AcDbBlockEnd
  0
BLOCK
  5
358F
330
3585
100
AcDbEntity
  8
0
100
AcDbBlockBegin
  2
*D10
 70
     1
 10
0.0
 20
0.0
 30
0.0
  3
*D10
  1

  0
LINE
  5
35C3
330
3585
100
AcDbEntity
  8
18
 62
     0
370
    -2
100
AcDbLine
 10
-172.5940934749999
 20
150.9499903999999
 30
0.0
 11
-200.551063375055
 21
150.9499904
 31
0.0
  0
LINE
  5
35C4
330
3585
100
AcDbEntity
  8
18
 62
     0
370
    -2
100
AcDbLine
 10
-172.5940934749999
 20
22.94999999999999
 30
0.0
 11
-200.5510633750552
 21
22.94999999999999
 31
0.0
  0
LINE
  5
35C5
330
3585
100
AcDbEntity
  8
18
 62
     0
370
    -2
100
AcDbLine
 10
-198.5510633750551
 20
149.0181387511929
 30
0.0
 11
-198.5510633750552
 21
24.88185164880702
 31
0.0
  0
SOLID
  5
35C6
330
3585
100
AcDbEntity
  8
18
 62
     0
100
AcDbTrace
 10
-198.8730386498563
 20
149.0181387511929
 30
0.0
 11
-198.2290881002539
 21
149.0181387511929
 31
0.0
 12
-198.5510633750551
 22
150.9499904
 32
0.0
 13
-198.5510633750551
 23
150.9499904
 33
0.0
  0
SOLID
  5
35C7
330
3585
100
AcDbEntity
  8
18
 62
     0
100
AcDbTrace
 10
-198.8730386498563
 20
24.88185164880702
 30
0.0
 11
-198.2290881002539
 21
24.88185164880702
 31
0.0
 12
-198.5510633750552
 22
22.94999999999999
 32
0.0
 13
-198.5510633750552
 23
22.94999999999999
 33
0.0
  0
MTEXT
  5
35C8
330
3585
100
AcDbEntity
  8
18
 62
     0
100
AcDbMText
 10
-200.0410633512132
 20
86.94999519999996
 30
0.0
 40
2.799999952316284
 41
0.0
 71
     5
 72
     1
  1
\A1;128.0000
 11
0.0000000000000001
 21
1.0
 31
0.0
 73
     1
 44
1.0
  0
POINT
  5
35C9
330
3585
100
AcDbEntity
  8
DEFPOINTS
 62
     0
100
AcDbPoint
 10
-171.5940934749999
 20
150.9499903999999
 30
0.0
  0
POINT
  5
35CA
330
3585
100
AcDbEntity
  8
DEFPOINTS
 62
     0
100
AcDbPoint
 10
-171.5940934749999
 20
22.94999999999999
 30
0.0
  0
POINT
  5
35CB
330
3585
100
AcDbEntity
  8
DEFPOINTS
 62
     0
100
AcDbPoint
 10
-198.5510633750552
 20
22.94999999999999
 30
0.0
  0
ENDBLK
  5
3590
330
3585
100
AcDbEntity
  8
0
100
AcDbBlockEnd
  0
BLOCK
  5
359D
330
3592
100
AcDbEntity
  8
0
100
AcDbBlockBegin
  2
*D11
 70
     1
 10
0.0
 20
0.0
 30
0.0
  3
*D11
  1

  0
LINE
  5
35FC
330
3592
100
AcDbEntity
  8
18
 62
     0
370
    -2
100
AcDbLine
 10
-172.5940934749999
 20
150.9499903999999
 30
0.0
 11
-190.1031509986201
 21
150.9499903999999
 31
0.0
  0
LINE
  5
35FD
330
3592
100
AcDbEntity
  8
18
 62
     0
370
    -2
100
AcDbLine
 10
-167.5940938499999
 20
145.949990775
 30
0.0
 11
-190.1031509986201
 21
145.949990775
 31
0.0
  0
LINE
  5
35FE
330
3592
100
AcDbEntity
  8
18
 62
     0
370
    -2
100
AcDbLine
 10
-188.1031509986201
 20
149.0181387511929
 30
0.0
 11
-188.1031509986201
 21
147.8818424238069
 31
0.0
  0
LINE
  5
35FF
330
3592
100
AcDbEntity
  8
18
 62
     0
370
    -2
100
AcDbLine
 10
-188.1031509986201
 20
145.949990775
 30
0.0
 11
-188.1031509986201
 21
131.7048059994891
 31
0.0
  0
SOLID
  5
3600
330
3592
100
AcDbEntity
  8
18
 62
     0
100
AcDbTrace
 10
-188.4251262734213
 20
149.0181387511929
 30
0.0
 11
-187.7811757238189
 21
149.0181387511929
 31
0.0
 12
-188.1031509986201
 22
150.9499903999999
 32
0.0
 13
-188.1031509986201
 23
150.9499903999999
 33
0.0
  0
SOLID
  5
3601
330
3592
100
AcDbEntity
  8
18
 62
     0
100
AcDbTrace
 10
-188.4251262734213
 20
147.8818424238069
 30
0.0
 11
-187.7811757238189
 21
147.8818424238069
 31
0.0
 12
-188.1031509986201
 22
145.949990775
 32
0.0
 13
-188.1031509986201
 23
145.949990775
 33
0.0
  0
MTEXT
  5
3602
330
3592
100
AcDbEntity
  8
18
 62
     0
100
AcDbMText
 10
-189.5931509747783
 20
137.8614725628409
 30
0.0
 40
2.799999952316284
 41
0.0
 71
     5
 72
     1
  1
\A1;5.0000
 11
0.0000000000000001
 21
1.0
 31
0.0
 73
     1
 44
1.0
  0
POINT
  5
3603
330
3592
100
AcDbEntity
  8
DEFPOINTS
 62
     0
100
AcDbPoint
 10
-171.5940934749999
 20
150.9499903999999
 30
0.0
  0
POINT
  5
3604
330
3592
100
AcDbEntity
  8
DEFPOINTS
 62
     0
100
AcDbPoint
 10
-166.5940938499999
 20
145.949990775
 30
0.0
  0
POINT
  5
3605
330
3592
100
AcDbEntity
  8
DEFPOINTS
 62
     0
100
AcDbPoint
 10
-188.1031509986201
 20
145.949990775
 30
0.0
  0
ENDBLK
  5
359E
330
3592
100
AcDbEntity
  8
0
100
AcDbBlockEnd
  0
BLOCK
  5
35AA
330
35A0
100
AcDbEntity
  8
0
100
AcDbBlockBegin
  2
*D12
 70
     1
 10
0.0
 20
0.0
 30
0.0
  3
*D12
  1

  0
LINE
  5
35BA
330
35A0
100
AcDbEntity
  8
18
 62
     0
370
    -2
100
AcDbLine
 10
-167.5940938499999
 20
145.949990775
 30
0.0
 11
-190.1031509986201
 21
145.949990775
 31
0.0
  0
LINE
  5
35BB
330
35A0
100
AcDbEntity
  8
18
 62
     0
370
    -2
100
AcDbLine
 10
-167.5940938499999
 20
27.94999962499999
 30
0.0
 11
-190.1031509986201
 21
27.949999625
 31
0.0
  0
LINE
  5
35BC
330
35A0
100
AcDbEntity
  8
18
 62
     0
370
    -2
100
AcDbLine
 10
-188.1031509986201
 20
144.0181391261929
 30
0.0
 11
-188.1031509986201
 21
29.88185127380702
 31
0.0
  0
SOLID
  5
35BD
330
35A0
100
AcDbEntity
  8
18
 62
     0
100
AcDbTrace
 10
-188.4251262734213
 20
144.0181391261929
 30
0.0
 11
-187.781175723819
 21
144.0181391261929
 31
0.0
 12
-188.1031509986201
 22
145.949990775
 32
0.0
 13
-188.1031509986201
 23
145.949990775
 33
0.0
  0
SOLID
  5
35BE
330
35A0
100
AcDbEntity
  8
18
 62
     0
100
AcDbTrace
 10
-188.4251262734213
 20
29.88185127380702
 30
0.0
 11
-187.781175723819
 21
29.88185127380702
 31
0.0
 12
-188.1031509986201
 22
27.949999625
 32
0.0
 13
-188.1031509986201
 23
27.949999625
 33
0.0
  0
MTEXT
  5
35BF
330
35A0
100
AcDbEntity
  8
18
 62
     0
100
AcDbMText
 10
-189.5931509747783
 20
86.94999519999996
 30
0.0
 40
2.799999952316284
 41
0.0
 71
     5
 72
     1
  1
\A1;118.0000
 11
0.0000000000000001
 21
1.0
 31
0.0
 73
     1
 44
1.0
  0
POINT
  5
35C0
330
35A0
100
AcDbEntity
  8
DEFPOINTS
 62
     0
100
AcDbPoint
 10
-166.5940938499999
 20
145.949990775
 30
0.0
  0
POINT
  5
35C1
330
35A0
100
AcDbEntity
  8
DEFPOINTS
 62
     0
100
AcDbPoint
 10
-166.5940938499999
 20
27.94999962499999
 30
0.0
  0
POINT
  5
35C2
330
35A0
100
AcDbEntity
  8
DEFPOINTS
 62
     0
100
AcDbPoint
 10
-188.1031509986201
 20
27.949999625
 30
0.0
  0
ENDBLK
  5
35AB
330
35A0
100
AcDbEntity
  8
0
100
AcDbBlockEnd
  0
BLOCK
  5
35B8
330
35AD
100
AcDbEntity
  8
0
100
AcDbBlockBegin
  2
*D13
 70
     1
 10
0.0
 20
0.0
 30
0.0
  3
*D13
  1

  0
LINE
  5
35DE
330
35AD
100
AcDbEntity
  8
18
 62
     0
370
    -2
100
AcDbLine
 10
-167.5940938499999
 20
27.94999962499999
 30
0.0
 11
-190.1031509986201
 21
27.949999625
 31
0.0
  0
LINE
  5
35DF
330
35AD
100
AcDbEntity
  8
18
 62
     0
370
    -2
100
AcDbLine
 10
-172.5940934749999
 20
22.94999999999999
 30
0.0
 11
-190.1031509986201
 21
22.95000000000001
 31
0.0
  0
LINE
  5
35E0
330
35AD
100
AcDbEntity
  8
18
 62
     0
370
    -2
100
AcDbLine
 10
-188.1031509986201
 20
26.01814797619298
 30
0.0
 11
-188.1031509986201
 21
24.88185164880702
 31
0.0
  0
LINE
  5
35E1
330
35AD
100
AcDbEntity
  8
18
 62
     0
370
    -2
100
AcDbLine
 10
-188.1031509986201
 20
22.95000000000001
 30
0.0
 11
-188.1031509986201
 21
8.704815224489092
 31
0.0
  0
SOLID
  5
35E2
330
35AD
100
AcDbEntity
  8
18
 62
     0
100
AcDbTrace
 10
-188.4251262734213
 20
26.01814797619298
 30
0.0
 11
-187.781175723819
 21
26.01814797619298
 31
0.0
 12
-188.1031509986201
 22
27.949999625
 32
0.0
 13
-188.1031509986201
 23
27.949999625
 33
0.0
  0
SOLID
  5
35E3
330
35AD
100
AcDbEntity
  8
18
 62
     0
100
AcDbTrace
 10
-188.4251262734213
 20
24.88185164880702
 30
0.0
 11
-187.781175723819
 21
24.88185164880702
 31
0.0
 12
-188.1031509986201
 22
22.95000000000001
 32
0.0
 13
-188.1031509986201
 23
22.95000000000001
 33
0.0
  0
MTEXT
  5
35E4
330
35AD
100
AcDbEntity
  8
18
 62
     0
100
AcDbMText
 10
-189.5931509747783
 20
14.86148178784101
 30
0.0
 40
2.799999952316284
 41
0.0
 71
     5
 72
     1
  1
\A1;5.0000
 11
0.0000000000000001
 21
1.0
 31
0.0
 73
     1
 44
1.0
  0
POINT
  5
35E5
330
35AD
100
AcDbEntity
  8
DEFPOINTS
 62
     0
100
AcDbPoint
 10
-166.5940938499999
 20
27.94999962499999
 30
0.0
  0
POINT
  5
35E6
330
35AD
100
AcDbEntity
  8
DEFPOINTS
 62
     0
100
AcDbPoint
 10
-171.5940934749999
 20
22.94999999999999
 30
0.0
  0
POINT
  5
35E7
330
35AD
100
AcDbEntity
  8
DEFPOINTS
 62
     0
100
AcDbPoint
 10
-188.1031509986201
 20
22.95000000000001
 30
0.0
  0
ENDBLK
  5
35B9
330
35AD
100
AcDbEntity
  8
0
100
AcDbBlockEnd
  0
BLOCK
  5
3640
330
3635
100
AcDbEntity
  8
0
100
AcDbBlockBegin
  2
*D14
 70
     1
 10
0.0
 20
0.0
 30
0.0
  3
*D14
  1

  0
LINE
  5
3636
330
3635
100
AcDbEntity
  8
18
 62
     0
370
    -2
100
AcDbLine
 10
-73.0941008625
 20
22.949999925
 30
0.0
 11
-73.0941008625
 21
12.25962908082942
 31
0.0
  0
LINE
  5
3637
330
3635
100
AcDbEntity
  8
18
 62
     0
370
    -2
100
AcDbLine
 10
-68.09410123750001
 20
24.4499998125
 30
0.0
 11
-68.09410123750001
 21
12.25962908082942
 31
0.0
  0
LINE
  5
3638
330
3635
100
AcDbEntity
  8
18
 62
     0
370
    -2
100
AcDbLine
 10
-71.16224921369298
 20
14.25962908082942
 30
0.0
 11
-70.02595288630704
 21
14.25962908082942
 31
0.0
  0
LINE
  5
3639
330
3635
100
AcDbEntity
  8
18
 62
     0
370
    -2
100
AcDbLine
 10
-68.09410123750001
 20
14.25962908082942
 30
0.0
 11
-53.8489164619891
 21
14.25962908082942
 31
0.0
  0
SOLID
  5
363A
330
3635
100
AcDbEntity
  8
18
 62
     0
100
AcDbTrace
 10
-71.16224921369298
 20
14.58160435563059
 30
0.0
 11
-71.16224921369298
 21
13.93765380602824
 31
0.0
 12
-73.0941008625
 22
14.25962908082942
 32
0.0
 13
-73.0941008625
 23
14.25962908082942
 33
0.0
  0
SOLID
  5
363B
330
3635
100
AcDbEntity
  8
18
 62
     0
100
AcDbTrace
 10
-70.02595288630704
 20
14.58160435563059
 30
0.0
 11
-70.02595288630704
 21
13.93765380602824
 31
0.0
 12
-68.09410123750001
 22
14.25962908082942
 32
0.0
 13
-68.09410123750001
 23
14.25962908082942
 33
0.0
  0
MTEXT
  5
363C
330
3635
100
AcDbEntity
  8
18
 62
     0
100
AcDbMText
 10
-60.00558302534105
 20
15.74962905698757
 30
0.0
 40
2.799999952316284
 41
0.0
 71
     5
 72
     1
  1
\A1;5.0000
 73
     1
 44
1.0
  0
POINT
  5
363D
330
3635
100
AcDbEntity
  8
DEFPOINTS
 62
     0
100
AcDbPoint
 10
-73.0941008625
 20
23.949999925
 30
0.0
  0
POINT
  5
363E
330
3635
100
AcDbEntity
  8
DEFPOINTS
 62
     0
100
AcDbPoint
 10
-68.09410123750001
 20
25.4499998125
 30
0.0
  0
POINT
  5
363F
330
3635
100
AcDbEntity
  8
DEFPOINTS
 62
     0
100
AcDbPoint
 10
-68.09410123750001
 20
14.25962908082942
 30
0.0
  0
ENDBLK
  5
3641
330
3635
100
AcDbEntity
  8
0
100
AcDbBlockEnd
  0
BLOCK
  5
3657
330
364D
100
AcDbEntity
  8
0
100
AcDbBlockBegin
  2
*D15
 70
     1
 10
0.0
 20
0.0
 30
0.0
  3
*D15
  1

  0
LINE
  5
36B6
330
364D
100
AcDbEntity
  8
18
 62
     0
370
    -2
100
AcDbLine
 10
-182.5941192369831
 20
251.9500542578383
 30
0.0
 11
-182.5941192369831
 21
265.8394411492057
 31
0.0
  0
LINE
  5
36B7
330
364D
100
AcDbEntity
  8
18
 62
     0
370
    -2
100
AcDbLine
 10
-172.5940933999999
 20
150.9499904749999
 30
0.0
 11
-172.5940933999999
 21
265.8394411492057
 31
0.0
  0
LINE
  5
36B8
330
364D
100
AcDbEntity
  8
18
 62
     0
370
    -2
100
AcDbLine
 10
-180.662267588176
 20
263.8394411492057
 30
0.0
 11
-174.5259450488068
 21
263.8394411492057
 31
0.0
  0
LINE
  5
36B9
330
364D
100
AcDbEntity
  8
18
 62
     0
370
    -2
100
AcDbLine
 10
-172.5940933999999
 20
263.8394411492057
 30
0.0
 11
-156.9489086483309
 21
263.8394411492057
 31
0.0
  0
SOLID
  5
36BA
330
364D
100
AcDbEntity
  8
18
 62
     0
100
AcDbTrace
 10
-180.662267588176
 20
264.1614164240069
 30
0.0
 11
-180.662267588176
 21
263.5174658744046
 31
0.0
 12
-182.5941192369831
 22
263.8394411492057
 32
0.0
 13
-182.5941192369831
 23
263.8394411492057
 33
0.0
  0
SOLID
  5
36BB
330
364D
100
AcDbEntity
  8
18
 62
     0
100
AcDbTrace
 10
-174.5259450488068
 20
264.1614164240069
 30
0.0
 11
-174.5259450488068
 21
263.5174658744046
 31
0.0
 12
-172.5940933999999
 22
263.8394411492057
 32
0.0
 13
-172.5940933999999
 23
263.8394411492057
 33
0.0
  0
MTEXT
  5
36BC
330
364D
100
AcDbEntity
  8
18
 62
     0
100
AcDbMText
 10
-163.8055751997619
 20
265.3294411253638
 30
0.0
 40
2.799999952316284
 41
0.0
 71
     5
 72
     1
  1
\A1;10.0000
 73
     1
 44
1.0
  0
POINT
  5
36BD
330
364D
100
AcDbEntity
  8
DEFPOINTS
 62
     0
100
AcDbPoint
 10
-182.5941192369831
 20
250.9500542578384
 30
0.0
  0
POINT
  5
36BE
330
364D
100
AcDbEntity
  8
DEFPOINTS
 62
     0
100
AcDbPoint
 10
-172.5940933999999
 20
149.9499904749999
 30
0.0
  0
POINT
  5
36BF
330
364D
100
AcDbEntity
  8
DEFPOINTS
 62
     0
100
AcDbPoint
 10
-172.5940933999999
 20
263.8394411492057
 30
0.0
  0
ENDBLK
  5
3658
330
364D
100
AcDbEntity
  8
0
100
AcDbBlockEnd
  0
BLOCK
  5
3664
330
365A
100
AcDbEntity
  8
0
100
AcDbBlockBegin
  2
*D16
 70
     1
 10
0.0
 20
0.0
 30
0.0
  3
*D16
  1

  0
LINE
  5
36C0
330
365A
100
AcDbEntity
  8
18
 62
     0
370
    -2
100
AcDbLine
 10
-64.5941015
 20
150.9499904749999
 30
0.0
 11
-64.5941015
 21
265.8394411492057
 31
0.0
  0
LINE
  5
36C1
330
365A
100
AcDbEntity
  8
18
 62
     0
370
    -2
100
AcDbLine
 10
-54.59406279147261
 20
251.9500247726686
 30
0.0
 11
-54.59406279147261
 21
265.8394411492057
 31
0.0
  0
LINE
  5
36C2
330
365A
100
AcDbEntity
  8
18
 62
     0
370
    -2
100
AcDbLine
 10
-62.66224985119297
 20
263.8394411492057
 30
0.0
 11
-56.52591444027963
 21
263.8394411492057
 31
0.0
  0
LINE
  5
36C3
330
365A
100
AcDbEntity
  8
18
 62
     0
370
    -2
100
AcDbLine
 10
-54.59406279147261
 20
263.8394411492057
 30
0.0
 11
-38.94887803980354
 21
263.8394411492057
 31
0.0
  0
SOLID
  5
36C4
330
365A
100
AcDbEntity
  8
18
 62
     0
100
AcDbTrace
 10
-62.66224985119297
 20
264.1614164240069
 30
0.0
 11
-62.66224985119297
 21
263.5174658744046
 31
0.0
 12
-64.5941015
 22
263.8394411492057
 32
0.0
 13
-64.5941015
 23
263.8394411492057
 33
0.0
  0
SOLID
  5
36C5
330
365A
100
AcDbEntity
  8
18
 62
     0
100
AcDbTrace
 10
-56.52591444027963
 20
264.1614164240069
 30
0.0
 11
-56.52591444027963
 21
263.5174658744046
 31
0.0
 12
-54.59406279147261
 22
263.8394411492057
 32
0.0
 13
-54.59406279147261
 23
263.8394411492057
 33
0.0
  0
MTEXT
  5
36C6
330
365A
100
AcDbEntity
  8
18
 62
     0
100
AcDbMText
 10
-45.80554459123455
 20
265.3294411253638
 30
0.0
 40
2.799999952316284
 41
0.0
 71
     5
 72
     1
  1
\A1;10.0000
 73
     1
 44
1.0
  0
POINT
  5
36C7
330
365A
100
AcDbEntity
  8
DEFPOINTS
 62
     0
100
AcDbPoint
 10
-64.5941015
 20
149.9499904749999
 30
0.0
  0
POINT
  5
36C8
330
365A
100
AcDbEntity
  8
DEFPOINTS
 62
     0
100
AcDbPoint
 10
-54.59406279147261
 20
250.9500247726685
 30
0.0
  0
POINT
  5
36C9
330
365A
100
AcDbEntity
  8
DEFPOINTS
 62
     0
100
AcDbPoint
 10
-54.59406279147261
 20
263.8394411492057
 30
0.0
  0
ENDBLK
  5
3665
330
365A
100
AcDbEntity
  8
0
100
AcDbBlockEnd
  0
BLOCK
  5
3671
330
3667
100
AcDbEntity
  8
0
100
AcDbBlockBegin
  2
*D17
 70
     1
 10
0.0
 20
0.0
 30
0.0
  3
*D17
  1

  0
LINE
  5
36AD
330
3667
100
AcDbEntity
  8
18
 62
     0
370
    -2
100
AcDbLine
 10
-183.5941192369831
 20
250.9500247726685
 30
0.0
 11
-195.3602891021543
 21
250.9500247726685
 31
0.0
  0
LINE
  5
36AE
330
3667
100
AcDbEntity
  8
18
 62
     0
370
    -2
100
AcDbLine
 10
-172.5940934749999
 20
150.9499903999999
 30
0.0
 11
-195.3602891021544
 21
150.9499904
 31
0.0
  0
LINE
  5
36AF
330
3667
100
AcDbEntity
  8
18
 62
     0
370
    -2
100
AcDbLine
 10
-193.3602891021545
 20
249.0181731238615
 30
0.0
 11
-193.3602891021545
 21
152.8818420488069
 31
0.0
  0
SOLID
  5
36B0
330
3667
100
AcDbEntity
  8
18
 62
     0
100
AcDbTrace
 10
-193.6822643769556
 20
249.0181731238615
 30
0.0
 11
-193.0383138273533
 21
249.0181731238615
 31
0.0
 12
-193.3602891021545
 22
250.9500247726685
 32
0.0
 13
-193.3602891021545
 23
250.9500247726685
 33
0.0
  0
SOLID
  5
36B1
330
3667
100
AcDbEntity
  8
18
 62
     0
100
AcDbTrace
 10
-193.6822643769556
 20
152.8818420488069
 30
0.0
 11
-193.0383138273533
 21
152.8818420488069
 31
0.0
 12
-193.3602891021545
 22
150.9499904
 32
0.0
 13
-193.3602891021545
 23
150.9499904
 33
0.0
  0
MTEXT
  5
36B2
330
3667
100
AcDbEntity
  8
18
 62
     0
100
AcDbMText
 10
-194.8502890783126
 20
200.9500075863341
 30
0.0
 40
2.799999952316284
 41
0.0
 71
     5
 72
     1
  1
\A1;100.0000
 11
0.0000000000000001
 21
1.0
 31
0.0
 73
     1
 44
1.0
  0
POINT
  5
36B3
330
3667
100
AcDbEntity
  8
DEFPOINTS
 62
     0
100
AcDbPoint
 10
-182.5941192369831
 20
250.9500247726685
 30
0.0
  0
POINT
  5
36B4
330
3667
100
AcDbEntity
  8
DEFPOINTS
 62
     0
100
AcDbPoint
 10
-171.5940934749999
 20
150.9499903999999
 30
0.0
  0
POINT
  5
36B5
330
3667
100
AcDbEntity
  8
DEFPOINTS
 62
     0
100
AcDbPoint
 10
-193.3602891021545
 20
150.9499904
 30
0.0
  0
ENDBLK
  5
3672
330
3667
100
AcDbEntity
  8
0
100
AcDbBlockEnd
  0
BLOCK
  5
367E
330
3674
100
AcDbEntity
  8
0
100
AcDbBlockBegin
  2
*D18
 70
     1
 10
0.0
 20
0.0
 30
0.0
  3
*D18
  1

  0
LINE
  5
36A4
330
3674
100
AcDbEntity
  8
18
 62
     0
370
    -2
100
AcDbLine
 10
-172.5940934749999
 20
22.94999999999999
 30
0.0
 11
-195.3602891021543
 21
22.94999999999999
 31
0.0
  0
LINE
  5
36A5
330
3674
100
AcDbEntity
  8
18
 62
     0
370
    -2
100
AcDbLine
 10
-183.5941192369831
 20
-77.04997967133781
 30
0.0
 11
-195.3602891021544
 21
-77.04997967133781
 31
0.0
  0
LINE
  5
36A6
330
3674
100
AcDbEntity
  8
18
 62
     0
370
    -2
100
AcDbLine
 10
-193.3602891021545
 20
21.01814835119298
 30
0.0
 11
-193.3602891021545
 21
-75.11812802253079
 31
0.0
  0
SOLID
  5
36A7
330
3674
100
AcDbEntity
  8
18
 62
     0
100
AcDbTrace
 10
-193.6822643769556
 20
21.01814835119298
 30
0.0
 11
-193.0383138273533
 21
21.01814835119298
 31
0.0
 12
-193.3602891021545
 22
22.94999999999999
 32
0.0
 13
-193.3602891021545
 23
22.94999999999999
 33
0.0
  0
SOLID
  5
36A8
330
3674
100
AcDbEntity
  8
18
 62
     0
100
AcDbTrace
 10
-193.6822643769556
 20
-75.11812802253079
 30
0.0
 11
-193.0383138273533
 21
-75.11812802253079
 31
0.0
 12
-193.3602891021545
 22
-77.04997967133781
 32
0.0
 13
-193.3602891021545
 23
-77.04997967133781
 33
0.0
  0
MTEXT
  5
36A9
330
3674
100
AcDbEntity
  8
18
 62
     0
100
AcDbMText
 10
-194.8502890783126
 20
-27.04998983566893
 30
0.0
 40
2.799999952316284
 41
0.0
 71
     5
 72
     1
  1
\A1;100.0000
 11
0.0000000000000001
 21
1.0
 31
0.0
 73
     1
 44
1.0
  0
POINT
  5
36AA
330
3674
100
AcDbEntity
  8
DEFPOINTS
 62
     0
100
AcDbPoint
 10
-171.5940934749999
 20
22.94999999999999
 30
0.0
  0
POINT
  5
36AB
330
3674
100
AcDbEntity
  8
DEFPOINTS
 62
     0
100
AcDbPoint
 10
-182.5941192369831
 20
-77.04997967133781
 30
0.0
  0
POINT
  5
36AC
330
3674
100
AcDbEntity
  8
DEFPOINTS
 62
     0
100
AcDbPoint
 10
-193.3602891021545
 20
-77.04997967133781
 30
0.0
  0
ENDBLK
  5
367F
330
3674
100
AcDbEntity
  8
0
100
AcDbBlockEnd
  0
BLOCK
  5
36D5
330
36CB
100
AcDbEntity
  8
0
100
AcDbBlockBegin
  2
*D19
 70
     1
 10
0.0
 20
0.0
 30
0.0
  3
*D19
  1

  0
LINE
  5
36D7
330
36CB
100
AcDbEntity
  8
18
 62
     0
370
    -2
100
AcDbLine
 10
21.2000097125
 20
48.94999797500001
 30
0.0
 11
21.20000971249998
 21
-105.2160030742972
 31
0.0
  0
LINE
  5
36D8
330
36CB
100
AcDbEntity
  8
18
 62
     0
370
    -2
100
AcDbLine
 10
-28.80001437995698
 20
-78.04997967133778
 30
0.0
 11
-28.80001437995698
 21
-105.2160030742972
 31
0.0
  0
LINE
  5
36D9
330
36CB
100
AcDbEntity
  8
18
 62
     0
370
    -2
100
AcDbLine
 10
19.26815806369297
 20
-103.2160030742973
 30
0.0
 11
-26.86816273114995
 21
-103.2160030742973
 31
0.0
  0
SOLID
  5
36DA
330
36CB
100
AcDbEntity
  8
18
 62
     0
100
AcDbTrace
 10
19.26815806369297
 20
-102.8940277994961
 30
0.0
 11
19.26815806369297
 21
-103.5379783490984
 31
0.0
 12
21.20000971249998
 22
-103.2160030742973
 32
0.0
 13
21.20000971249998
 23
-103.2160030742973
 33
0.0
  0
SOLID
  5
36DB
330
36CB
100
AcDbEntity
  8
18
 62
     0
100
AcDbTrace
 10
-26.86816273114995
 20
-102.8940277994961
 30
0.0
 11
-26.86816273114995
 21
-103.5379783490984
 31
0.0
 12
-28.80001437995698
 22
-103.2160030742973
 32
0.0
 13
-28.80001437995698
 23
-103.2160030742973
 33
0.0
  0
MTEXT
  5
36DC
330
36CB
100
AcDbEntity
  8
18
 62
     0
100
AcDbMText
 10
-3.800002333728493
 20
-101.726003098139
 30
0.0
 40
2.799999952316284
 41
0.0
 71
     5
 72
     1
  1
\A1;50.0000
 73
     1
 44
1.0
  0
POINT
  5
36DD
330
36CB
100
AcDbEntity
  8
DEFPOINTS
 62
     0
100
AcDbPoint
 10
21.2000097125
 20
49.94999797500001
 30
0.0
  0
POINT
  5
36DE
330
36CB
100
AcDbEntity
  8
DEFPOINTS
 62
     0
100
AcDbPoint
 10
-28.80001437995698
 20
-77.04997967133778
 30
0.0
  0
POINT
  5
36DF
330
36CB
100
AcDbEntity
  8
DEFPOINTS
 62
     0
100
AcDbPoint
 10
-28.80001437995698
 20
-103.2160030742973
 30
0.0
  0
ENDBLK
  5
36D6
330
36CB
100
AcDbEntity
  8
0
100
AcDbBlockEnd
  0
BLOCK
  5
36EB
330
36E1
100
AcDbEntity
  8
0
100
AcDbBlockBegin
  2
*D20
 70
     1
 10
0.0
 20
0.0
 30
0.0
  3
*D20
  1

  0
LINE
  5
36E2
330
36E1
100
AcDbEntity
  8
18
 62
     0
370
    -2
100
AcDbLine
 10
151.6999999999999
 20
150.9499903999999
 30
0.0
 11
184.2766198297011
 21
150.9499903999999
 31
0.0
  0
LINE
  5
36E3
330
36E1
100
AcDbEntity
  8
18
 62
     0
370
    -2
100
AcDbLine
 10
151.6999999999999
 20
250.9500247726685
 30
0.0
 11
184.2766198297013
 21
250.9500247726685
 31
0.0
  0
LINE
  5
36E4
330
36E1
100
AcDbEntity
  8
18
 62
     0
370
    -2
100
AcDbLine
 10
182.2766198297012
 20
152.8818420488069
 30
0.0
 11
182.2766198297013
 21
249.0181731238615
 31
0.0
  0
SOLID
  5
36E5
330
36E1
100
AcDbEntity
  8
18
 62
     0
100
AcDbTrace
 10
181.9546445549
 20
152.8818420488069
 30
0.0
 11
182.5985951045024
 21
152.8818420488069
 31
0.0
 12
182.2766198297012
 22
150.9499903999999
 32
0.0
 13
182.2766198297012
 23
150.9499903999999
 33
0.0
  0
SOLID
  5
36E6
330
36E1
100
AcDbEntity
  8
18
 62
     0
100
AcDbTrace
 10
181.9546445549
 20
249.0181731238615
 30
0.0
 11
182.5985951045024
 21
249.0181731238615
 31
0.0
 12
182.2766198297013
 22
250.9500247726685
 32
0.0
 13
182.2766198297013
 23
250.9500247726685
 33
0.0
  0
MTEXT
  5
36E7
330
36E1
100
AcDbEntity
  8
18
 62
     0
100
AcDbMText
 10
180.786619853543
 20
200.9500075863342
 30
0.0
 40
2.799999952316284
 41
0.0
 71
     5
 72
     1
  1
\A1;100.0000
 11
0.0000000000000001
 21
1.0
 31
0.0
 73
     1
 44
1.0
  0
POINT
  5
36E8
330
36E1
100
AcDbEntity
  8
DEFPOINTS
 62
     0
100
AcDbPoint
 10
150.6999999999998
 20
150.9499903999999
 30
0.0
  0
POINT
  5
36E9
330
36E1
100
AcDbEntity
  8
DEFPOINTS
 62
     0
100
AcDbPoint
 10
150.6999999999998
 20
250.9500247726685
 30
0.0
  0
POINT
  5
36EA
330
36E1
100
AcDbEntity
  8
DEFPOINTS
 62
     0
100
AcDbPoint
 10
182.2766198297013
 20
250.9500247726685
 30
0.0
  0
ENDBLK
  5
36EC
330
36E1
100
AcDbEntity
  8
0
100
AcDbBlockEnd
  0
BLOCK
  5
36F8
330
36EE
100
AcDbEntity
  8
0
100
AcDbBlockBegin
  2
*D21
 70
     1
 10
0.0
 20
0.0
 30
0.0
  3
*D21
  1

  0
LINE
  5
36EF
330
36EE
100
AcDbEntity
  8
18
 62
     0
370
    -2
100
AcDbLine
 10
151.6999999999999
 20
22.94999999999999
 30
0.0
 11
184.2766198297011
 21
22.94999999999999
 31
0.0
  0
LINE
  5
36F0
330
36EE
100
AcDbEntity
  8
18
 62
     0
370
    -2
100
AcDbLine
 10
151.6999999999999
 20
-77.04997967133781
 30
0.0
 11
184.2766198297011
 21
-77.04997967133781
 31
0.0
  0
LINE
  5
36F1
330
36EE
100
AcDbEntity
  8
18
 62
     0
370
    -2
100
AcDbLine
 10
182.2766198297012
 20
21.01814835119296
 30
0.0
 11
182.2766198297012
 21
-75.11812802253079
 31
0.0
  0
SOLID
  5
36F2
330
36EE
100
AcDbEntity
  8
18
 62
     0
100
AcDbTrace
 10
181.9546445549
 20
21.01814835119296
 30
0.0
 11
182.5985951045024
 21
21.01814835119296
 31
0.0
 12
182.2766198297012
 22
22.94999999999999
 32
0.0
 13
182.2766198297012
 23
22.94999999999999
 33
0.0
  0
SOLID
  5
36F3
330
36EE
100
AcDbEntity
  8
18
 62
     0
100
AcDbTrace
 10
181.9546445549
 20
-75.11812802253079
 30
0.0
 11
182.5985951045023
 21
-75.11812802253079
 31
0.0
 12
182.2766198297012
 22
-77.04997967133781
 32
0.0
 13
182.2766198297012
 23
-77.04997967133781
 33
0.0
  0
MTEXT
  5
36F4
330
36EE
100
AcDbEntity
  8
18
 62
     0
100
AcDbMText
 10
180.786619853543
 20
-27.04998983566888
 30
0.0
 40
2.799999952316284
 41
0.0
 71
     5
 72
     1
  1
\A1;100.0000
 11
0.0000000000000001
 21
1.0
 31
0.0
 73
     1
 44
1.0
  0
POINT
  5
36F5
330
36EE
100
AcDbEntity
  8
DEFPOINTS
 62
     0
100
AcDbPoint
 10
150.6999999999998
 20
22.94999999999999
 30
0.0
  0
POINT
  5
36F6
330
36EE
100
AcDbEntity
  8
DEFPOINTS
 62
     0
100
AcDbPoint
 10
150.6999999999998
 20
-77.04997967133781
 30
0.0
  0
POINT
  5
36F7
330
36EE
100
AcDbEntity
  8
DEFPOINTS
 62
     0
100
AcDbPoint
 10
182.2766198297012
 20
-77.04997967133781
 30
0.0
  0
ENDBLK
  5
36F9
330
36EE
100
AcDbEntity
  8
0
100
AcDbBlockEnd
  0
BLOCK
  5
3705
330
36FB
100
AcDbEntity
  8
0
100
AcDbBlockBegin
  2
*D22
 70
     1
 10
0.0
 20
0.0
 30
0.0
  3
*D22
  1

  0
LINE
  5
36FC
330
36FB
100
AcDbEntity
  8
18
 62
     0
370
    -2
100
AcDbLine
 10
-172.5940933999999
 20
22.949999925
 30
0.0
 11
-172.5940933999999
 21
-21.81633976765215
 31
0.0
  0
LINE
  5
36FD
330
36FB
100
AcDbEntity
  8
18
 62
     0
370
    -2
100
AcDbLine
 10
-64.5941015
 20
22.949999925
 30
0.0
 11
-64.5941015
 21
-21.81633976765215
 31
0.0
  0
LINE
  5
36FE
330
36FB
100
AcDbEntity
  8
18
 62
     0
370
    -2
100
AcDbLine
 10
-170.6622417511929
 20
-19.81633976765214
 30
0.0
 11
-66.52595314880702
 21
-19.81633976765214
 31
0.0
  0
SOLID
  5
36FF
330
36FB
100
AcDbEntity
  8
18
 62
     0
100
AcDbTrace
 10
-170.6622417511929
 20
-19.49436449285098
 30
0.0
 11
-170.6622417511929
 21
-20.13831504245332
 31
0.0
 12
-172.5940933999999
 22
-19.81633976765214
 32
0.0
 13
-172.5940933999999
 23
-19.81633976765214
 33
0.0
  0
SOLID
  5
3700
330
36FB
100
AcDbEntity
  8
18
 62
     0
100
AcDbTrace
 10
-66.52595314880702
 20
-19.49436449285098
 30
0.0
 11
-66.52595314880702
 21
-20.13831504245332
 31
0.0
 12
-64.5941015
 22
-19.81633976765214
 32
0.0
 13
-64.5941015
 23
-19.81633976765214
 33
0.0
  0
MTEXT
  5
3701
330
36FB
100
AcDbEntity
  8
18
 62
     0
100
AcDbMText
 10
-118.5940974499999
 20
-18.32633979149401
 30
0.0
 40
2.799999952316284
 41
0.0
 71
     5
 72
     1
  1
\A1;108.0000
 73
     1
 44
1.0
  0
POINT
  5
3702
330
36FB
100
AcDbEntity
  8
DEFPOINTS
 62
     0
100
AcDbPoint
 10
-172.5940933999999
 20
23.949999925
 30
0.0
  0
POINT
  5
3703
330
36FB
100
AcDbEntity
  8
DEFPOINTS
 62
     0
100
AcDbPoint
 10
-64.5941015
 20
23.949999925
 30
0.0
  0
POINT
  5
3704
330
36FB
100
AcDbEntity
  8
DEFPOINTS
 62
     0
100
AcDbPoint
 10
-64.5941015
 20
-19.81633976765214
 30
0.0
  0
ENDBLK
  5
3706
330
36FB
100
AcDbEntity
  8
0
100
AcDbBlockEnd
  0
ENDSEC
  0
SECTION
  2
ENTITIES
  0
ARC
  5
645
330
22
100
AcDbEntity
  8
10
  6
Continuous
100
AcDbCircle
 10
27.24163653621994
 20
25.16776619457768
 30
0.0
 40
1.999999850000003
100
AcDbArc
 50
198.5251531004049
 51
268.999999999818
  0
ARC
  5
646
330
22
100
AcDbEntity
  8
10
  6
Continuous
100
AcDbCircle
 10
-49.79998496249999
 20
102.855570272727
 30
0.0
 40
79.999994
100
AcDbArc
 50
340.6911693152066
 51
0.0
  0
ARC
  5
647
330
22
100
AcDbEntity
  8
10
  6
Continuous
100
AcDbCircle
 10
101.2000037124999
 20
49.949997975
 30
0.0
 40
79.999994
100
AcDbArc
 50
160.6911693152065
 51
198.5251531004051
  0
ARC
  5
64A
330
22
100
AcDbEntity
  8
10
  6
Continuous
100
AcDbCircle
 10
-65.59410142499999
 20
149.9499904749999
 30
0.0
 40
0.9999999250000012
100
AcDbArc
 50
0.0
 51
90.0
  0
ARC
  5
64B
330
22
100
AcDbEntity
  8
10
  6
Continuous
100
AcDbCircle
 10
-171.5940934749999
 20
149.9499904749999
 30
0.0
 40
0.9999999249999927
100
AcDbArc
 50
90.0
 51
180.0
  0
LINE
  5
64C
330
22
100
AcDbEntity
  8
10
  6
Continuous
100
AcDbLine
 10
-172.5940933999999
 20
23.949999925
 30
0.0
 11
-172.5940933999999
 21
149.9499904749999
 31
0.0
  0
LINE
  5
64D
330
22
100
AcDbEntity
  8
10
  6
Continuous
100
AcDbLine
 10
-171.5940934749999
 20
150.9499903999999
 30
0.0
 11
-65.59410142499999
 21
150.9499903999999
 31
0.0
  0
LINE
  5
64E
330
22
100
AcDbEntity
  8
10
  6
Continuous
100
AcDbLine
 10
-64.5941015
 20
23.949999925
 30
0.0
 11
-64.5941015
 21
149.9499904749999
 31
0.0
  0
LINE
  5
64F
330
22
100
AcDbEntity
  8
10
  6
Continuous
 62
     4
100
AcDbLine
 10
-171.3607414970014
 20
76.40278412383118
 30
0.0
 11
-65.8274534029986
 21
76.40278412383118
 31
0.0
  0
LINE
  5
650
330
22
100
AcDbEntity
  8
10
  6
Continuous
100
AcDbLine
 10
-65.57128112331151
 20
76.38996491699263
 30
0.0
 11
-65.8274534029986
 21
76.40278395873121
 31
0.0
  0
LINE
  5
651
330
22
100
AcDbEntity
  8
10
  6
Continuous
 62
     4
100
AcDbLine
 10
-65.33220581564211
 20
76.35523139299775
 30
0.0
 11
-65.57128112331151
 21
76.38996491699263
 31
0.0
  0
LINE
  5
652
330
22
100
AcDbEntity
  8
10
  6
Continuous
 62
     4
100
AcDbLine
 10
-65.12618339849385
 20
76.30090150697248
 30
0.0
 11
-65.33220581564211
 21
76.35523139299775
 31
0.0
  0
LINE
  5
653
330
22
100
AcDbEntity
  8
10
  6
Continuous
 62
     4
100
AcDbLine
 10
-64.96696383583529
 20
76.23060124284484
 30
0.0
 11
-65.12618339849385
 21
76.30090150697248
 31
0.0
  0
LINE
  5
654
330
22
100
AcDbEntity
  8
10
  6
Continuous
 62
     4
100
AcDbLine
 10
-64.86517346286956
 20
76.14902244966335
 30
0.0
 11
-64.96696383583529
 21
76.23060124284484
 31
0.0
  0
LINE
  5
655
330
22
100
AcDbEntity
  8
10
  6
Continuous
 62
     4
100
AcDbLine
 10
-64.82760578278718
 20
76.06160970721929
 30
0.0
 11
-64.86517346286956
 21
76.14902244966335
 31
0.0
  0
ARC
  5
656
330
22
100
AcDbEntity
  8
10
  6
Continuous
100
AcDbCircle
 10
-65.59410142499999
 20
23.949999925
 30
0.0
 40
0.999999924999514
100
AcDbArc
 50
270.2052138073757
 51
0.0
  0
LINE
  5
657
330
22
100
AcDbEntity
  8
10
  6
Continuous
100
AcDbLine
 10
-129.0805657865147
 20
22.95041511106885
 30
0.0
 11
-65.59051977631708
 21
22.95000641412517
 31
0.0
  0
LINE
  5
658
330
22
100
AcDbEntity
  8
11
  6
Continuous
100
AcDbLine
 10
-109.423497886395
 20
83.78503931817178
 30
0.0
 11
-112.9962099962414
 21
83.82261106595381
 31
0.0
  0
LINE
  5
659
330
22
100
AcDbEntity
  8
11
  6
Continuous
100
AcDbLine
 10
-84.03313595067229
 20
85.91026829617947
 30
0.0
 11
-86.27388441111614
 21
85.55486568293469
 31
0.0
  0
LINE
  5
65A
330
22
100
AcDbEntity
  8
11
  6
Continuous
100
AcDbLine
 10
-105.9075817233887
 20
83.82918088326109
 30
0.0
 11
-109.423497886395
 21
83.78503931817178
 31
0.0
  0
LINE
  5
65B
330
22
100
AcDbEntity
  8
11
  6
Continuous
100
AcDbLine
 10
-102.661630787935
 20
83.94153987723418
 30
0.0
 11
-105.9075817233887
 21
83.82918088326109
 31
0.0
  0
LINE
  5
65C
330
22
100
AcDbEntity
  8
11
  6
Continuous
100
AcDbLine
 10
-99.72559121273809
 20
84.10224309278147
 30
0.0
 11
-102.661630787935
 21
83.94153987723418
 31
0.0
  0
LINE
  5
65D
330
22
100
AcDbEntity
  8
11
  6
Continuous
100
AcDbLine
 10
-97.08847432592186
 20
84.29450976376148
 30
0.0
 11
-99.72559121273809
 21
84.10224309278147
 31
0.0
  0
LINE
  5
65E
330
22
100
AcDbEntity
  8
11
  6
Continuous
100
AcDbLine
 10
-94.71368062013139
 20
84.50629271397767
 30
0.0
 11
-97.08847432592186
 21
84.29450976376148
 31
0.0
  0
LINE
  5
65F
330
22
100
AcDbEntity
  8
11
  6
Continuous
100
AcDbLine
 10
-92.52460644091192
 20
84.73394119660412
 30
0.0
 11
-94.71368062013139
 21
84.50629271397767
 31
0.0
  0
LINE
  5
660
330
22
100
AcDbEntity
  8
11
  6
Continuous
100
AcDbLine
 10
-90.44117457976929
 20
84.97954961348337
 30
0.0
 11
-92.52460644091192
 21
84.73394119660412
 31
0.0
  0
LINE
  5
661
330
22
100
AcDbEntity
  8
11
  6
Continuous
100
AcDbLine
 10
-88.38388677986593
 20
85.24962000552813
 30
0.0
 11
-90.44117457976929
 21
84.97954961348337
 31
0.0
  0
LINE
  5
662
330
22
100
AcDbEntity
  8
11
  6
Continuous
100
AcDbLine
 10
-86.27388441111614
 20
85.55486568293469
 30
0.0
 11
-88.38388677986593
 21
85.24962000552813
 31
0.0
  0
LINE
  5
663
330
22
100
AcDbEntity
  8
11
  6
Continuous
100
AcDbLine
 10
-130.8839071421641
 20
85.26061636100342
 30
0.0
 11
-132.9289708600844
 21
85.5570858404682
 31
0.0
  0
LINE
  5
664
330
22
100
AcDbEntity
  8
11
  6
Continuous
100
AcDbLine
 10
-128.8990996541247
 20
84.99857970205615
 30
0.0
 11
-130.8839071421641
 21
85.26061636100342
 31
0.0
  0
LINE
  5
665
330
22
100
AcDbEntity
  8
11
  6
Continuous
100
AcDbLine
 10
-126.8722626734374
 20
84.75726976195444
 30
0.0
 11
-128.8990996541247
 21
84.99857970205615
 31
0.0
  0
LINE
  5
666
330
22
100
AcDbEntity
  8
11
  6
Continuous
100
AcDbLine
 10
-124.7003716112293
 20
84.5283382851243
 30
0.0
 11
-126.8722626734374
 21
84.75726976195444
 31
0.0
  0
LINE
  5
667
330
22
100
AcDbEntity
  8
11
  6
Continuous
100
AcDbLine
 10
-122.2797145375785
 20
84.30928192815349
 30
0.0
 11
-124.7003716112293
 21
84.5283382851243
 31
0.0
  0
LINE
  5
668
330
22
100
AcDbEntity
  8
11
  6
Continuous
100
AcDbLine
 10
-119.5127952561976
 20
84.1054790257387
 30
0.0
 11
-122.2797145375785
 21
84.30928192815349
 31
0.0
  0
LINE
  5
669
330
22
100
AcDbEntity
  8
11
  6
Continuous
100
AcDbLine
 10
-116.396255742138
 20
83.93570847417141
 30
0.0
 11
-119.5127952561976
 21
84.1054790257387
 31
0.0
  0
LINE
  5
66A
330
22
100
AcDbEntity
  8
11
  6
Continuous
100
AcDbLine
 10
-112.9962099962414
 20
83.82261106595381
 30
0.0
 11
-116.396255742138
 21
83.93570847417141
 31
0.0
  0
LINE
  5
66B
330
22
100
AcDbEntity
  8
10
  6
Continuous
 62
     4
100
AcDbLine
 10
-171.6169138991884
 20
76.38996516869264
 30
0.0
 11
-171.3607414970014
 21
76.40278422333128
 31
0.0
  0
LINE
  5
66C
330
22
100
AcDbEntity
  8
10
  6
Continuous
 62
     4
100
AcDbLine
 10
-171.8559893033578
 20
76.3552316112976
 30
0.0
 11
-171.6169138991884
 21
76.38996516869264
 31
0.0
  0
LINE
  5
66D
330
22
100
AcDbEntity
  8
10
  6
Continuous
 62
     4
100
AcDbLine
 10
-172.062011769206
 20
76.30090167577241
 30
0.0
 11
-171.8559893033578
 21
76.3552316112976
 31
0.0
  0
LINE
  5
66E
330
22
100
AcDbEntity
  8
10
  6
Continuous
 62
     4
100
AcDbLine
 10
-172.2212313158644
 20
76.23060135294486
 30
0.0
 11
-172.062011769206
 21
76.30090167577241
 31
0.0
  0
LINE
  5
66F
330
22
100
AcDbEntity
  8
10
  6
Continuous
 62
     4
100
AcDbLine
 10
-172.3230215988304
 20
76.1490225004634
 30
0.0
 11
-172.2212313158644
 21
76.23060135294486
 31
0.0
  0
LINE
  5
670
330
22
100
AcDbEntity
  8
10
  6
Continuous
 62
     4
100
AcDbLine
 10
-172.3605891141128
 20
76.06160970721929
 30
0.0
 11
-172.3230215988304
 21
76.1490225004634
 31
0.0
  0
ARC
  5
671
330
22
100
AcDbEntity
  8
10
  6
Continuous
100
AcDbCircle
 10
-171.5940934749999
 20
23.949999925
 30
0.0
 40
0.9999999249999927
100
AcDbArc
 50
180.0
 51
270.0
  0
LINE
  5
672
330
22
100
AcDbEntity
  8
10
  6
Continuous
100
AcDbLine
 10
-171.5940934749999
 20
22.94999999999999
 30
0.0
 11
-129.1088109885963
 21
22.94999999999999
 31
0.0
  0
LINE
  5
673
330
22
100
AcDbEntity
  8
11
  6
Continuous
100
AcDbLine
 10
-79.94051595231879
 20
87.26472346879534
 30
0.0
 11
-80.23829070768568
 21
86.97933540119949
 31
0.0
  0
LINE
  5
674
330
22
100
AcDbEntity
  8
11
  6
Continuous
100
AcDbLine
 10
-79.65152686109295
 20
87.62591869560564
 30
0.0
 11
-79.94051595231879
 21
87.26472346879534
 31
0.0
  0
LINE
  5
675
330
22
100
AcDbEntity
  8
11
  6
Continuous
100
AcDbLine
 10
-79.38546674794746
 20
88.07645603431547
 30
0.0
 11
-79.65152686109295
 21
87.62591869560564
 31
0.0
  0
LINE
  5
676
330
22
100
AcDbEntity
  8
11
  6
Continuous
100
AcDbLine
 10
-79.16524719456394
 20
88.62520948565892
 30
0.0
 11
-79.38546674794746
 21
88.07645603431547
 31
0.0
  0
LINE
  5
677
330
22
100
AcDbEntity
  8
11
  6
Continuous
100
AcDbLine
 10
-79.02404211705436
 20
89.26247193706421
 30
0.0
 11
-79.16524719456394
 21
88.62520948565892
 31
0.0
  0
LINE
  5
678
330
22
100
AcDbEntity
  8
11
  6
Continuous
100
AcDbLine
 10
-81.62063524090982
 20
86.53551503808596
 30
0.0
 11
-81.63789172861561
 21
86.61589467025754
 31
0.0
  0
LINE
  5
679
330
22
100
AcDbEntity
  8
11
  6
Continuous
100
AcDbLine
 10
-81.60142303765079
 20
86.44065448840056
 30
0.0
 11
-81.62063524090982
 21
86.53551503808596
 31
0.0
  0
LINE
  5
67A
330
22
100
AcDbEntity
  8
11
  6
Continuous
100
AcDbLine
 10
-81.58120810696692
 20
86.33601840854824
 30
0.0
 11
-81.60142303765079
 21
86.44065448840056
 31
0.0
  0
LINE
  5
67B
330
22
100
AcDbEntity
  8
11
  6
Continuous
100
AcDbLine
 10
-81.34116512877014
 20
86.39099848692469
 30
0.0
 11
-81.58120810696692
 21
86.33601840924825
 31
0.0
  0
LINE
  5
67C
330
22
100
AcDbEntity
  8
11
  6
Continuous
100
AcDbLine
 10
-81.08740368360221
 20
86.47463371305212
 30
0.0
 11
-81.34116512877014
 21
86.39099848692469
 31
0.0
  0
LINE
  5
67D
330
22
100
AcDbEntity
  8
11
  6
Continuous
100
AcDbLine
 10
-80.8179047789147
 20
86.59418612068561
 30
0.0
 11
-81.08740368360221
 21
86.47463371305212
 31
0.0
  0
LINE
  5
67E
330
22
100
AcDbEntity
  8
11
  6
Continuous
100
AcDbLine
 10
-80.53343460054987
 20
86.75903601632183
 30
0.0
 11
-80.8179047789147
 21
86.59418612068561
 31
0.0
  0
LINE
  5
67F
330
22
100
AcDbEntity
  8
11
  6
Continuous
100
AcDbLine
 10
-80.23829070768568
 20
86.97933540119949
 30
0.0
 11
-80.53343460054987
 21
86.75903601632183
 31
0.0
  0
LINE
  5
680
330
22
100
AcDbEntity
  8
11
  6
Continuous
100
AcDbLine
 10
-81.77673148660261
 20
89.17115751371278
 30
0.0
 11
-81.63789173521561
 21
86.61589471355757
 31
0.0
  0
LINE
  5
681
330
22
100
AcDbEntity
  8
11
  6
Continuous
100
AcDbLine
 10
-81.58120810696692
 20
86.33601840924825
 30
0.0
 11
-84.03313595067229
 21
85.91026829617947
 31
0.0
  0
ARC
  5
682
330
22
100
AcDbEntity
  8
11
  6
Continuous
100
AcDbCircle
 10
-109.594098125
 20
262.2499820524999
 30
0.0
 40
175.2999868525
100
AcDbArc
 50
260.8694598376
 51
279.1305401624
  0
LINE
  5
683
330
22
100
AcDbEntity
  8
11
  6
Continuous
100
AcDbLine
 10
-79.47266290060778
 20
89.87182168596298
 30
0.0
 11
-80.09410033749999
 21
91.14581609351349
 31
0.0
  0
LINE
  5
684
330
22
100
AcDbEntity
  8
11
  6
Continuous
100
AcDbLine
 10
-78.9926637948077
 20
89.94172441132027
 30
0.0
 11
-79.02404211705436
 21
89.26247193706421
 31
0.0
  0
LINE
  5
685
330
22
100
AcDbEntity
  8
11
  6
Continuous
100
AcDbLine
 10
-79.404033560155
 20
89.89487764663381
 30
0.0
 11
-79.4726709694072
 21
89.87182168656302
 31
0.0
  0
LINE
  5
686
330
22
100
AcDbEntity
  8
11
  6
Continuous
100
AcDbLine
 10
-79.29298987958325
 20
89.9155576676828
 30
0.0
 11
-79.404033560155
 21
89.89487764663381
 31
0.0
  0
LINE
  5
687
330
22
100
AcDbEntity
  8
11
  6
Continuous
100
AcDbLine
 10
-79.15098707903351
 20
89.93172957606985
 30
0.0
 11
-79.29298987958325
 21
89.9155576676828
 31
0.0
  0
LINE
  5
688
330
22
100
AcDbEntity
  8
11
  6
Continuous
100
AcDbLine
 10
-78.9926637947077
 20
89.9417259427202
 30
0.0
 11
-79.15098707903351
 21
89.93172957606985
 31
0.0
  0
ARC
  5
689
330
22
100
AcDbEntity
  8
11
  6
Continuous
100
AcDbCircle
 10
-82.0941001875
 20
91.14581609351349
 30
0.0
 40
1.999999849999996
100
AcDbArc
 50
279.1305401624001
 51
0.0
  0
LINE
  5
68A
330
22
100
AcDbEntity
  8
11
  6
Continuous
100
AcDbLine
 10
-135.1355859628881
 20
85.90704122392152
 30
0.0
 11
-137.606988143033
 21
86.33601840924825
 31
0.0
  0
LINE
  5
68B
330
22
100
AcDbEntity
  8
11
  6
Continuous
100
AcDbLine
 10
-132.9289708600844
 20
85.5570858404682
 30
0.0
 11
-135.1355859628881
 21
85.90704122392152
 31
0.0
  0
LINE
  5
68C
330
22
100
AcDbEntity
  8
11
  6
Continuous
100
AcDbLine
 10
-140.1132278887651
 20
88.96905465477054
 30
0.0
 11
-140.1613523059556
 21
89.24248029626362
 31
0.0
  0
LINE
  5
68D
330
22
100
AcDbEntity
  8
11
  6
Continuous
100
AcDbLine
 10
-140.0371579833702
 20
88.67138757859555
 30
0.0
 11
-140.1132278887651
 21
88.96905465477054
 31
0.0
  0
LINE
  5
68E
330
22
100
AcDbEntity
  8
11
  6
Continuous
100
AcDbLine
 10
-139.9248350635945
 20
88.34944044564158
 30
0.0
 11
-140.0371579833702
 21
88.67138757859555
 31
0.0
  0
LINE
  5
68F
330
22
100
AcDbEntity
  8
11
  6
Continuous
100
AcDbLine
 10
-139.7656525009332
 20
88.00396214495242
 30
0.0
 11
-139.9248350635945
 21
88.34944044564158
 31
0.0
  0
LINE
  5
690
330
22
100
AcDbEntity
  8
11
  6
Continuous
100
AcDbLine
 10
-139.5476583968828
 20
87.64178252211593
 30
0.0
 11
-139.7656525009332
 21
88.00396214495242
 31
0.0
  0
LINE
  5
691
330
22
100
AcDbEntity
  8
11
  6
Continuous
100
AcDbLine
 10
-139.2694472520485
 20
87.28862456440287
 30
0.0
 11
-139.5476583968828
 21
87.64178252211593
 31
0.0
  0
LINE
  5
692
330
22
100
AcDbEntity
  8
11
  6
Continuous
100
AcDbLine
 10
-138.9468878622406
 20
86.97676764089207
 30
0.0
 11
-139.2694472520485
 21
87.28862456440287
 31
0.0
  0
LINE
  5
693
330
22
100
AcDbEntity
  8
11
  6
Continuous
100
AcDbLine
 10
-138.6004773010214
 20
86.7242710800293
 30
0.0
 11
-138.9468878622406
 21
86.97676764089207
 31
0.0
  0
LINE
  5
694
330
22
100
AcDbEntity
  8
11
  6
Continuous
100
AcDbLine
 10
-138.2488837933909
 20
86.53619818333467
 30
0.0
 11
-138.6004773010214
 21
86.7242710800293
 31
0.0
  0
LINE
  5
695
330
22
100
AcDbEntity
  8
11
  6
Continuous
100
AcDbLine
 10
-137.9116016422869
 20
86.40974508001875
 30
0.0
 11
-138.2488837933909
 21
86.53619818333467
 31
0.0
  0
LINE
  5
696
330
22
100
AcDbEntity
  8
11
  6
Continuous
100
AcDbLine
 10
-137.606988143033
 20
86.33601840924825
 30
0.0
 11
-137.9116016422869
 21
86.40974508001875
 31
0.0
  0
LINE
  5
697
330
22
100
AcDbEntity
  8
11
  6
Continuous
100
AcDbLine
 10
-137.56756095179
 20
86.535515383186
 30
0.0
 11
-137.5503044412842
 21
86.61589519625755
 31
0.0
  0
LINE
  5
698
330
22
100
AcDbEntity
  8
11
  6
Continuous
100
AcDbLine
 10
-137.5867731803491
 20
86.44065468560048
 30
0.0
 11
-137.56756095179
 21
86.535515383186
 31
0.0
  0
LINE
  5
699
330
22
100
AcDbEntity
  8
11
  6
Continuous
100
AcDbLine
 10
-137.606988143033
 20
86.33601849494819
 30
0.0
 11
-137.5867731803491
 21
86.44065468560048
 31
0.0
  0
LINE
  5
69A
330
22
100
AcDbEntity
  8
11
  6
Continuous
100
AcDbLine
 10
-137.5503045147842
 20
86.61589471355757
 30
0.0
 11
-137.4114647634973
 21
89.17115751381286
 31
0.0
  0
LINE
  5
69B
330
22
100
AcDbEntity
  8
11
  6
Continuous
100
AcDbLine
 10
-139.7841692273444
 20
89.89487815173379
 30
0.0
 11
-139.715533354592
 21
89.87182168596298
 31
0.0
  0
LINE
  5
69C
330
22
100
AcDbEntity
  8
11
  6
Continuous
100
AcDbLine
 10
-139.8952108102162
 20
89.91555783168276
 30
0.0
 11
-139.7841692273444
 21
89.89487815173379
 31
0.0
  0
LINE
  5
69D
330
22
100
AcDbEntity
  8
11
  6
Continuous
100
AcDbLine
 10
-140.0372112960662
 20
89.93172894516991
 30
0.0
 11
-139.8952108102162
 21
89.91555783168276
 31
0.0
  0
LINE
  5
69E
330
22
100
AcDbEntity
  8
11
  6
Continuous
100
AcDbLine
 10
-140.1955324551922
 20
89.94172448042027
 30
0.0
 11
-140.0372112960662
 21
89.93172894516991
 31
0.0
  0
LINE
  5
69F
330
22
100
AcDbEntity
  8
11
  6
Continuous
100
AcDbLine
 10
-140.1984300096748
 20
89.72546463873975
 30
0.0
 11
-140.1955324551922
 21
89.94172441132027
 31
0.0
  0
LINE
  5
6A0
330
22
100
AcDbEntity
  8
11
  6
Continuous
100
AcDbLine
 10
-140.1881522682456
 20
89.49361265942862
 30
0.0
 11
-140.1984300096748
 21
89.72546463873975
 31
0.0
  0
LINE
  5
6A1
330
22
100
AcDbEntity
  8
11
  6
Continuous
100
AcDbLine
 10
-139.7155333493922
 20
89.87182168596298
 30
0.0
 11
-139.0940959124999
 21
91.14581609351349
 31
0.0
  0
LINE
  5
6A2
330
22
100
AcDbEntity
  8
11
  6
Continuous
100
AcDbLine
 10
-140.1613523059556
 20
89.24248029626362
 30
0.0
 11
-140.1881522682456
 21
89.49361265942862
 31
0.0
  0
ARC
  5
6A3
330
22
100
AcDbEntity
  8
11
  6
Continuous
100
AcDbCircle
 10
-137.0940960625
 20
91.14581609351349
 30
0.0
 40
1.999999850000003
100
AcDbArc
 50
180.0
 51
260.8694598376
  0
LINE
  5
6A4
330
22
100
AcDbEntity
  8
11
  6
Continuous
100
AcDbLine
 10
-139.6521362167469
 20
140.1266809815481
 30
0.0
 11
-139.4580792644013
 21
140.3515618994821
 31
0.0
  0
LINE
  5
6A5
330
22
100
AcDbEntity
  8
11
  6
Continuous
100
AcDbLine
 10
-139.4580792644013
 20
140.3515618994821
 30
0.0
 11
-139.229053512678
 21
140.5370340117717
 31
0.0
  0
LINE
  5
6A6
330
22
100
AcDbEntity
  8
11
  6
Continuous
100
AcDbLine
 10
-139.229053512678
 20
140.5370340117717
 30
0.0
 11
-138.980466566722
 21
140.6749512853278
 31
0.0
  0
LINE
  5
6A7
330
22
100
AcDbEntity
  8
11
  6
Continuous
100
AcDbLine
 10
-138.980466566722
 20
140.6749512853278
 30
0.0
 11
-138.7307271920525
 21
140.7637256087698
 31
0.0
  0
LINE
  5
6A8
330
22
100
AcDbEntity
  8
11
  6
Continuous
100
AcDbLine
 10
-138.7307271920525
 20
140.7637256087698
 30
0.0
 11
-138.4978841755158
 21
140.8087604132921
 31
0.0
  0
LINE
  5
6A9
330
22
100
AcDbEntity
  8
11
  6
Continuous
100
AcDbLine
 10
-138.4978841755158
 20
140.8087604132921
 30
0.0
 11
-138.2970337377795
 21
140.8208334054866
 31
0.0
  0
LINE
  5
6AA
330
22
100
AcDbEntity
  8
11
  6
Continuous
100
AcDbLine
 10
-138.2970337377795
 20
140.3408342996868
 30
0.0
 11
-138.2970337377795
 21
140.8208334054866
 31
0.0
  0
LINE
  5
6AB
330
22
100
AcDbEntity
  8
11
  6
Continuous
100
AcDbLine
 10
-138.0940959874999
 20
139.949991225
 30
0.0
 11
-138.2970337377795
 21
140.3408342996868
 31
0.0
  0
LINE
  5
6AC
330
22
100
AcDbEntity
  8
11
  6
Continuous
100
AcDbLine
 10
-138.2970337377795
 20
140.8208334054866
 30
0.0
 11
-80.89116251222032
 21
140.8208334054866
 31
0.0
  0
LINE
  5
6AD
330
22
100
AcDbEntity
  8
11
  6
Continuous
100
AcDbLine
 10
-139.4849383838868
 20
139.1529289240795
 30
0.0
 11
-139.9649380929867
 21
139.1529289154795
 31
0.0
  0
LINE
  5
6AE
330
22
100
AcDbEntity
  8
11
  6
Continuous
100
AcDbLine
 10
-139.0940959124999
 20
138.9499912999999
 30
0.0
 11
-139.4849389871867
 21
139.1529290502796
 31
0.0
  0
LINE
  5
6AF
330
22
100
AcDbEntity
  8
11
  6
Continuous
 62
     0
100
AcDbLine
 10
-139.9649380929867
 20
139.1529290502796
 30
0.0
 11
-139.9506152077609
 21
139.3715950988797
 31
0.0
  0
LINE
  5
6B0
330
22
100
AcDbEntity
  8
11
  6
Continuous
100
AcDbLine
 10
-139.9506152077609
 20
139.3715950988797
 30
0.0
 11
-139.8990056685315
 21
139.6182605663796
 31
0.0
  0
LINE
  5
6B1
330
22
100
AcDbEntity
  8
11
  6
Continuous
100
AcDbLine
 10
-139.8990056685315
 20
139.6182605663796
 30
0.0
 11
-139.8005519054157
 21
139.8762466597309
 31
0.0
  0
LINE
  5
6B2
330
22
100
AcDbEntity
  8
11
  6
Continuous
100
AcDbLine
 10
-139.8005519054157
 20
139.8762466597309
 30
0.0
 11
-139.6521362167469
 21
140.1266809815481
 31
0.0
  0
ARC
  5
6B3
330
22
100
AcDbEntity
  8
11
  6
Continuous
100
AcDbCircle
 10
-138.0940959874999
 20
138.9499912999999
 30
0.0
 40
0.9999999249999927
100
AcDbArc
 50
90.0
 51
180.0
  0
LINE
  5
6B4
330
22
100
AcDbEntity
  8
11
  6
Continuous
100
AcDbLine
 10
-81.09410026249998
 20
139.949991225
 30
0.0
 11
-138.0940959874999
 21
139.949991225
 31
0.0
  0
LINE
  5
6B5
330
22
100
AcDbEntity
  8
11
  6
Continuous
100
AcDbLine
 10
-79.23533114920767
 20
139.3537794879158
 30
0.0
 11
-79.22325815701312
 21
139.1529290502796
 31
0.0
  0
LINE
  5
6B6
330
22
100
AcDbEntity
  8
11
  6
Continuous
100
AcDbLine
 10
-79.28036595373005
 20
139.5866225045525
 30
0.0
 11
-79.23533114920767
 21
139.3537794879158
 31
0.0
  0
LINE
  5
6B7
330
22
100
AcDbEntity
  8
11
  6
Continuous
100
AcDbLine
 10
-79.36914027717197
 20
139.8363618791222
 30
0.0
 11
-79.28036595373005
 21
139.5866225045525
 31
0.0
  0
LINE
  5
6B8
330
22
100
AcDbEntity
  8
11
  6
Continuous
100
AcDbLine
 10
-79.50705755072821
 20
140.084948825178
 30
0.0
 11
-79.36914027717197
 21
139.8363618791222
 31
0.0
  0
LINE
  5
6B9
330
22
100
AcDbEntity
  8
11
  6
Continuous
100
AcDbLine
 10
-79.69252966301775
 20
140.3139745769012
 30
0.0
 11
-79.50705755072821
 21
140.084948825178
 31
0.0
  0
LINE
  5
6BA
330
22
100
AcDbEntity
  8
11
  6
Continuous
100
AcDbLine
 10
-79.91741058095169
 20
140.5080315291469
 30
0.0
 11
-79.69252966301775
 21
140.3139745769012
 31
0.0
  0
LINE
  5
6BB
330
22
100
AcDbEntity
  8
11
  6
Continuous
100
AcDbLine
 10
-80.16784490286914
 20
140.6564472179157
 30
0.0
 11
-79.91741058095169
 21
140.5080315291469
 31
0.0
  0
LINE
  5
6BC
330
22
100
AcDbEntity
  8
11
  6
Continuous
100
AcDbLine
 10
-79.70325726281321
 20
139.1529290502796
 30
0.0
 11
-79.22325815701312
 21
139.1529290502796
 31
0.0
  0
LINE
  5
6BD
330
22
100
AcDbEntity
  8
11
  6
Continuous
100
AcDbLine
 10
-80.09410033749999
 20
138.9499912999999
 30
0.0
 11
-79.70325726281321
 21
139.1529290502796
 31
0.0
  0
LINE
  5
6BE
330
22
100
AcDbEntity
  8
11
  6
Continuous
100
AcDbLine
 10
-80.42583099612015
 20
140.7549009810316
 30
0.0
 11
-80.16784490286914
 21
140.6564472179157
 31
0.0
  0
LINE
  5
6BF
330
22
100
AcDbEntity
  8
11
  6
Continuous
100
AcDbLine
 10
-80.6724964636202
 20
140.806510520261
 30
0.0
 11
-80.42583099612015
 21
140.7549009810316
 31
0.0
  0
LINE
  5
6C0
330
22
100
AcDbEntity
  8
11
  6
Continuous
100
AcDbLine
 10
-80.89116251222032
 20
140.8208334054866
 30
0.0
 11
-80.6724964636202
 21
140.806510520261
 31
0.0
  0
LINE
  5
6C1
330
22
100
AcDbEntity
  8
11
  6
Continuous
100
AcDbLine
 10
-80.8911626471203
 20
140.3408336963867
 30
0.0
 11
-80.89116263842033
 21
140.8208334054866
 31
0.0
  0
LINE
  5
6C2
330
22
100
AcDbEntity
  8
11
  6
Continuous
100
AcDbLine
 10
-81.09410026249998
 20
139.949991225
 30
0.0
 11
-80.89116251222032
 21
140.3408342996868
 31
0.0
  0
ARC
  5
6C3
330
22
100
AcDbEntity
  8
11
  6
Continuous
100
AcDbCircle
 10
-81.09410026249998
 20
138.9499912999999
 30
0.0
 40
0.9999999249999927
100
AcDbArc
 50
0.0
 51
90.0
  0
LINE
  5
6C4
330
22
100
AcDbEntity
  8
11
  6
Continuous
100
AcDbLine
 10
-140.0674812384961
 20
93.65758975273031
 30
0.0
 11
-139.9905732365641
 21
97.38886259018489
 31
0.0
  0
LINE
  5
6C5
330
22
100
AcDbEntity
  8
11
  6
Continuous
100
AcDbLine
 10
-139.0940959124999
 20
91.14581609351349
 30
0.0
 11
-139.0940959124999
 21
138.9499912999999
 31
0.0
  0
LINE
  5
6C6
330
22
100
AcDbEntity
  8
11
  6
Continuous
100
AcDbLine
 10
-139.9649380929867
 20
101.1261604644875
 30
0.0
 11
-139.9649380929867
 21
139.1529290502796
 31
0.0
  0
LINE
  5
6C7
330
22
100
AcDbEntity
  8
11
  6
Continuous
100
AcDbLine
 10
-140.1955324551922
 20
89.94172441132027
 30
0.0
 11
-140.0674812384961
 21
93.65758975273031
 31
0.0
  0
LINE
  5
6C8
330
22
100
AcDbEntity
  8
10
  6
Continuous
 62
     4
100
AcDbLine
 10
-172.4454207263503
 20
102.8555702727268
 30
0.0
 11
-139.9649380929867
 21
102.8555702727268
 31
0.0
  0
LINE
  5
6C9
330
22
100
AcDbEntity
  8
11
  6
Continuous
100
AcDbLine
 10
-139.9905732365641
 20
97.38886259018489
 30
0.0
 11
-139.9649380929867
 21
101.1261604644875
 31
0.0
  0
LINE
  5
6CA
330
22
100
AcDbEntity
  8
11
  6
Continuous
100
AcDbLine
 10
-80.09410033749999
 20
138.9499912999999
 30
0.0
 11
-80.09410033749999
 21
91.14581609351349
 31
0.0
  0
LINE
  5
6CB
330
22
100
AcDbEntity
  8
11
  6
Continuous
100
AcDbLine
 10
-79.22325815701312
 20
139.1529290502796
 30
0.0
 11
-79.22325815701312
 21
101.1261604644875
 31
0.0
  0
LINE
  5
6CC
330
22
100
AcDbEntity
  8
11
  6
Continuous
100
AcDbLine
 10
-79.12071507050388
 20
93.65759232083004
 30
0.0
 11
-78.9926637948077
 21
89.94172441132027
 31
0.0
  0
LINE
  5
6CD
330
22
100
AcDbEntity
  8
10
  6
Continuous
 62
     4
100
AcDbLine
 10
-79.22325815701316
 20
102.8555702727332
 30
0.0
 11
-64.74277417924952
 21
102.8555702729268
 31
0.0
  0
LINE
  5
6CE
330
22
100
AcDbEntity
  8
11
  6
Continuous
100
AcDbLine
 10
-79.22325815701312
 20
101.1261604644875
 30
0.0
 11
-79.1976230208358
 21
97.38886241608485
 31
0.0
  0
LINE
  5
6CF
330
22
100
AcDbEntity
  8
11
  6
Continuous
100
AcDbLine
 10
-79.1976230208358
 20
97.38886241608485
 30
0.0
 11
-79.12071507050388
 21
93.65759232083004
 31
0.0
  0
LINE
  5
6E6
330
22
100
AcDbEntity
  8
10
  6
Continuous
100
AcDbLine
 10
39.70000832500001
 20
22.94999999999999
 30
0.0
 11
39.700008325
 21
150.9499903999999
 31
0.0
  0
LINE
  5
6E7
330
22
100
AcDbEntity
  8
10
  6
Continuous
100
AcDbLine
 10
27.20673172595688
 20
23.16807095424215
 30
0.0
 11
39.700008325
 21
22.94999999999999
 31
0.0
  0
ARC
  5
6E8
330
22
100
AcDbEntity
  8
10
  6
Continuous
100
AcDbCircle
 10
32.2000088875
 20
148.8187729168413
 30
0.0
 40
1.999999850000031
100
AcDbArc
 50
91.00000000000013
 51
180.0
  0
LINE
  5
6E9
330
22
100
AcDbEntity
  8
10
  6
Continuous
100
AcDbLine
 10
39.700008325
 20
150.9499903999999
 30
0.0
 11
32.16510407721782
 21
150.818468157164
 31
0.0
  0
LINE
  5
6EA
330
22
100
AcDbEntity
  8
10
  6
Continuous
100
AcDbLine
 10
30.20000903750001
 20
148.8187729168413
 30
0.0
 11
30.20000903750001
 21
102.855570272727
 31
0.0
  0
LINE
  5
6EB
330
22
100
AcDbEntity
  8
10
  6
Continuous
100
AcDbLine
 10
37.30000850499996
 20
135.9999915212499
 30
0.0
 11
37.30000850499996
 21
132.8999917537499
 31
0.0
  0
ARC
  5
6EC
330
22
100
AcDbEntity
  8
10
  6
Continuous
100
AcDbCircle
 10
36.80000854249996
 20
135.9999915212499
 30
0.0
 40
0.4999999625000013
100
AcDbArc
 50
0.0
 51
90.0
  0
LINE
  5
6ED
330
22
100
AcDbEntity
  8
10
  6
Continuous
100
AcDbLine
 10
36.80000854249996
 20
136.49999148375
 30
0.0
 11
35.60000863249998
 21
136.49999148375
 31
0.0
  0
ARC
  5
6EE
330
22
100
AcDbEntity
  8
10
  6
Continuous
100
AcDbCircle
 10
35.60000863249998
 20
135.9999915212499
 30
0.0
 40
0.4999999624999967
100
AcDbArc
 50
90.0
 51
180.0
  0
LINE
  5
6EF
330
22
100
AcDbEntity
  8
10
  6
Continuous
100
AcDbLine
 10
35.10000866999998
 20
135.9999915212499
 30
0.0
 11
35.10000866999998
 21
132.8999917537499
 31
0.0
  0
ARC
  5
6F0
330
22
100
AcDbEntity
  8
10
  6
Continuous
100
AcDbCircle
 10
35.60000863249998
 20
132.8999917537499
 30
0.0
 40
0.4999999625000013
100
AcDbArc
 50
180.0
 51
270.0
  0
LINE
  5
6F1
330
22
100
AcDbEntity
  8
10
  6
Continuous
100
AcDbLine
 10
36.80000854249996
 20
132.3999917912499
 30
0.0
 11
35.60000863249998
 21
132.3999917912499
 31
0.0
  0
ARC
  5
6F2
330
22
100
AcDbEntity
  8
10
  6
Continuous
100
AcDbCircle
 10
36.80000854249996
 20
132.8999917537499
 30
0.0
 40
0.4999999624999967
100
AcDbArc
 50
270.0
 51
0.0
  0
LINE
  5
6F3
330
22
100
AcDbEntity
  8
10
  6
Continuous
100
AcDbLine
 10
37.30000850499996
 20
55.99999752125004
 30
0.0
 11
37.30000850499996
 21
52.89999775374994
 31
0.0
  0
ARC
  5
6F4
330
22
100
AcDbEntity
  8
10
  6
Continuous
100
AcDbCircle
 10
36.80000854249996
 20
55.99999752125004
 30
0.0
 40
0.4999999625000013
100
AcDbArc
 50
0.0
 51
90.0
  0
LINE
  5
6F5
330
22
100
AcDbEntity
  8
10
  6
Continuous
100
AcDbLine
 10
36.80000854249996
 20
56.49999748375006
 30
0.0
 11
35.60000863249998
 21
56.49999748375006
 31
0.0
  0
ARC
  5
6F6
330
22
100
AcDbEntity
  8
10
  6
Continuous
100
AcDbCircle
 10
35.60000863249998
 20
55.99999752125004
 30
0.0
 40
0.4999999625000048
100
AcDbArc
 50
90.0
 51
180.0
  0
LINE
  5
6F7
330
22
100
AcDbEntity
  8
10
  6
Continuous
100
AcDbLine
 10
35.10000866999998
 20
55.99999752125004
 30
0.0
 11
35.10000866999998
 21
52.89999775374994
 31
0.0
  0
ARC
  5
6F8
330
22
100
AcDbEntity
  8
10
  6
Continuous
100
AcDbCircle
 10
35.60000863249998
 20
52.89999775374994
 30
0.0
 40
0.4999999625000013
100
AcDbArc
 50
180.0
 51
270.0
  0
LINE
  5
6F9
330
22
100
AcDbEntity
  8
10
  6
Continuous
100
AcDbLine
 10
36.80000854249996
 20
52.39999779124993
 30
0.0
 11
35.60000863249998
 21
52.39999779124993
 31
0.0
  0
ARC
  5
6FA
330
22
100
AcDbEntity
  8
10
  6
Continuous
100
AcDbCircle
 10
36.80000854249996
 20
52.89999775374994
 30
0.0
 40
0.4999999625000048
100
AcDbArc
 50
270.0
 51
0.0
  0
LINE
  5
9D8
330
22
100
AcDbEntity
  8
10
  6
Continuous
100
AcDbLine
 10
46.4000078225
 20
97.94999437500001
 30
0.0
 11
46.4000078225
 21
134.9499916
 31
0.0
  0
LINE
  5
9D9
330
22
100
AcDbEntity
  8
10
  6
Continuous
100
AcDbLine
 10
49.40000759750001
 20
97.94999437500001
 30
0.0
 11
49.40000759750001
 21
134.9499916
 31
0.0
  0
LINE
  5
9DA
330
22
100
AcDbEntity
  8
10
  6
Continuous
100
AcDbLine
 10
49.40000759750001
 20
109.1692171271583
 30
0.0
 11
46.4000078225
 21
109.1692171271583
 31
0.0
  0
LINE
  5
9DB
330
22
100
AcDbEntity
  8
10
  6
Continuous
100
AcDbLine
 10
49.40000759750001
 20
110.69999341875
 30
0.0
 11
46.4000078225
 21
110.69999341875
 31
0.0
  0
LINE
  5
9DC
330
22
100
AcDbEntity
  8
10
  6
Continuous
100
AcDbLine
 10
49.40000759750001
 20
117.19999293125
 30
0.0
 11
46.4000078225
 21
117.19999293125
 31
0.0
  0
LINE
  5
9DD
330
22
100
AcDbEntity
  8
10
  6
Continuous
100
AcDbLine
 10
49.40000759750001
 20
118.7307692228415
 30
0.0
 11
46.4000078225
 21
118.7307692228415
 31
0.0
  0
ARC
  5
9DE
330
22
100
AcDbEntity
  8
10
  6
Continuous
100
AcDbCircle
 10
47.90000770999998
 20
97.94999437500001
 30
0.0
 40
1.499999887499997
100
AcDbArc
 50
180.0
 51
0.0
  0
ARC
  5
9DF
330
22
100
AcDbEntity
  8
10
  6
Continuous
100
AcDbCircle
 10
47.90000770999998
 20
134.9499916
 30
0.0
 40
1.499999887499997
100
AcDbArc
 50
0.0
 51
180.0
  0
LINE
  5
9E0
330
22
100
AcDbEntity
  8
10
  6
Continuous
100
AcDbLine
 10
46.40000782249997
 20
117.6999928937499
 30
0.0
 11
49.40000759750001
 21
117.6999928937499
 31
0.0
  0
LINE
  5
9E1
330
22
100
AcDbEntity
  8
10
  6
Continuous
100
AcDbLine
 10
46.40000782249997
 20
110.19999345625
 30
0.0
 11
49.40000759750001
 21
110.19999345625
 31
0.0
  0
LINE
  5
9E2
330
22
100
AcDbEntity
  8
10
  6
Continuous
100
AcDbLine
 10
46.4000078225
 20
52.69999776875
 30
0.0
 11
46.4000078225
 21
61.19999713125
 31
0.0
  0
LINE
  5
9E3
330
22
100
AcDbEntity
  8
10
  6
Continuous
100
AcDbLine
 10
49.40000759750001
 20
52.69999776875
 30
0.0
 11
49.40000759750001
 21
61.19999713125
 31
0.0
  0
LINE
  5
9E4
330
22
100
AcDbEntity
  8
10
  6
Continuous
100
AcDbLine
 10
49.40000759750001
 20
52.69999776875
 30
0.0
 11
46.4000078225
 21
52.69999776875
 31
0.0
  0
LINE
  5
9E5
330
22
100
AcDbEntity
  8
10
  6
Continuous
100
AcDbLine
 10
46.4000078225
 20
53.19999773124999
 30
0.0
 11
49.40000759750001
 21
53.19999773124999
 31
0.0
  0
LINE
  5
9E6
330
22
100
AcDbEntity
  8
10
  6
Continuous
100
AcDbLine
 10
46.4000078225
 20
60.69999716874999
 30
0.0
 11
49.40000759750001
 21
60.69999716874999
 31
0.0
  0
LINE
  5
9E7
330
22
100
AcDbEntity
  8
10
  6
Continuous
100
AcDbLine
 10
49.40000759750001
 20
61.19999713125
 30
0.0
 11
46.4000078225
 21
61.19999713125
 31
0.0
  0
LINE
  5
9E9
330
22
100
AcDbEntity
  8
10
  6
Continuous
100
AcDbLine
 10
90.90000448499999
 20
86.44999523749998
 30
0.0
 11
90.90000448499999
 21
94.44999463749995
 31
0.0
  0
LINE
  5
9EA
330
22
100
AcDbEntity
  8
10
  6
Continuous
100
AcDbLine
 10
91.70000442500001
 20
94.44999463750001
 30
0.0
 11
90.90000448499999
 21
94.44999463749995
 31
0.0
  0
LINE
  5
9EB
330
22
100
AcDbEntity
  8
10
  6
Continuous
100
AcDbLine
 10
91.70000442500001
 20
86.44999523749998
 30
0.0
 11
90.90000448499999
 21
86.44999523749998
 31
0.0
  0
LINE
  5
9EC
330
22
100
AcDbEntity
  8
10
  6
Continuous
100
AcDbLine
 10
86.20000483750002
 20
109.6999934937499
 30
0.0
 11
80.00000530249998
 21
109.6999934937499
 31
0.0
  0
LINE
  5
9ED
330
22
100
AcDbEntity
  8
10
  6
Continuous
100
AcDbLine
 10
88.00000470250003
 20
110.19999345625
 30
0.0
 11
91.70000442500001
 21
110.19999345625
 31
0.0
  0
LINE
  5
9EE
330
22
100
AcDbEntity
  8
10
  6
Continuous
100
AcDbLine
 10
88.00000470250003
 20
117.6999928937499
 30
0.0
 11
91.70000442500001
 21
117.6999928937499
 31
0.0
  0
LINE
  5
9EF
330
22
100
AcDbEntity
  8
10
  6
Continuous
100
AcDbLine
 10
86.20000483750002
 20
118.19999285625
 30
0.0
 11
80.00000530249998
 21
118.19999285625
 31
0.0
  0
LINE
  5
9F0
330
22
100
AcDbEntity
  8
10
  6
Continuous
100
AcDbLine
 10
70.40000602249998
 20
110.19999345625
 30
0.0
 11
73.40000579749997
 21
110.19999345625
 31
0.0
  0
LINE
  5
9F1
330
22
100
AcDbEntity
  8
10
  6
Continuous
100
AcDbLine
 10
70.40000602249998
 20
117.6999928937499
 30
0.0
 11
73.40000579749997
 21
117.6999928937499
 31
0.0
  0
LINE
  5
9F2
330
22
100
AcDbEntity
  8
10
  6
Continuous
100
AcDbLine
 10
65.60000638249999
 20
110.19999345625
 30
0.0
 11
68.60000615749997
 21
110.19999345625
 31
0.0
  0
LINE
  5
9F3
330
22
100
AcDbEntity
  8
10
  6
Continuous
100
AcDbLine
 10
65.60000638249999
 20
117.6999928937499
 30
0.0
 11
68.60000615749997
 21
117.6999928937499
 31
0.0
  0
LINE
  5
9F4
330
22
100
AcDbEntity
  8
10
  6
Continuous
100
AcDbLine
 10
60.80000674249999
 20
110.19999345625
 30
0.0
 11
63.80000651749998
 21
110.19999345625
 31
0.0
  0
LINE
  5
9F5
330
22
100
AcDbEntity
  8
10
  6
Continuous
100
AcDbLine
 10
60.80000674249999
 20
117.6999928937499
 30
0.0
 11
63.80000651749998
 21
117.6999928937499
 31
0.0
  0
LINE
  5
9F6
330
22
100
AcDbEntity
  8
10
  6
Continuous
100
AcDbLine
 10
56.00000710249998
 20
110.19999345625
 30
0.0
 11
59.0000068775
 21
110.19999345625
 31
0.0
  0
LINE
  5
9F7
330
22
100
AcDbEntity
  8
10
  6
Continuous
100
AcDbLine
 10
56.00000710249998
 20
117.6999928937499
 30
0.0
 11
59.0000068775
 21
117.6999928937499
 31
0.0
  0
LINE
  5
9F8
330
22
100
AcDbEntity
  8
10
  6
Continuous
100
AcDbLine
 10
51.20000746250001
 20
110.19999345625
 30
0.0
 11
54.20000723749999
 21
110.19999345625
 31
0.0
  0
LINE
  5
9F9
330
22
100
AcDbEntity
  8
10
  6
Continuous
100
AcDbLine
 10
51.20000746250001
 20
117.6999928937499
 30
0.0
 11
54.20000723749999
 21
117.6999928937499
 31
0.0
  0
LINE
  5
9FA
330
22
100
AcDbEntity
  8
10
  6
Continuous
100
AcDbLine
 10
75.20000566249997
 20
52.69999776875
 30
0.0
 11
75.20000566249997
 21
61.19999713125
 31
0.0
  0
LINE
  5
9FB
330
22
100
AcDbEntity
  8
10
  6
Continuous
100
AcDbLine
 10
78.20000543749998
 20
52.69999776875
 30
0.0
 11
78.20000543749998
 21
61.19999713125
 31
0.0
  0
LINE
  5
9FC
330
22
100
AcDbEntity
  8
10
  6
Continuous
100
AcDbLine
 10
75.20000566249997
 20
53.19999773124999
 30
0.0
 11
78.20000543749998
 21
53.19999773124999
 31
0.0
  0
LINE
  5
9FD
330
22
100
AcDbEntity
  8
10
  6
Continuous
100
AcDbLine
 10
78.20000543749998
 20
52.69999776875
 30
0.0
 11
75.20000566249997
 21
52.69999776875
 31
0.0
  0
LINE
  5
9FE
330
22
100
AcDbEntity
  8
10
  6
Continuous
100
AcDbLine
 10
75.20000566249997
 20
60.69999716874999
 30
0.0
 11
78.20000543749998
 21
60.69999716874999
 31
0.0
  0
LINE
  5
9FF
330
22
100
AcDbEntity
  8
10
  6
Continuous
100
AcDbLine
 10
78.20000543749998
 20
61.19999713125
 30
0.0
 11
75.20000566249997
 21
61.19999713125
 31
0.0
  0
LINE
  5
A00
330
22
100
AcDbEntity
  8
10
  6
Continuous
100
AcDbLine
 10
70.4000060225
 20
52.69999776875
 30
0.0
 11
70.4000060225
 21
61.19999713125
 31
0.0
  0
LINE
  5
A01
330
22
100
AcDbEntity
  8
10
  6
Continuous
100
AcDbLine
 10
73.40000579749998
 20
52.69999776875
 30
0.0
 11
73.40000579749998
 21
61.19999713125
 31
0.0
  0
LINE
  5
A02
330
22
100
AcDbEntity
  8
10
  6
Continuous
100
AcDbLine
 10
70.4000060225
 20
53.19999773124999
 30
0.0
 11
73.40000579749998
 21
53.19999773124999
 31
0.0
  0
LINE
  5
A03
330
22
100
AcDbEntity
  8
10
  6
Continuous
100
AcDbLine
 10
73.40000579749998
 20
52.69999776875
 30
0.0
 11
70.4000060225
 21
52.69999776875
 31
0.0
  0
LINE
  5
A04
330
22
100
AcDbEntity
  8
10
  6
Continuous
100
AcDbLine
 10
70.4000060225
 20
60.69999716874999
 30
0.0
 11
73.40000579749998
 21
60.69999716874999
 31
0.0
  0
LINE
  5
A05
330
22
100
AcDbEntity
  8
10
  6
Continuous
100
AcDbLine
 10
73.40000579749998
 20
61.19999713125
 30
0.0
 11
70.4000060225
 21
61.19999713125
 31
0.0
  0
LINE
  5
A06
330
22
100
AcDbEntity
  8
10
  6
Continuous
100
AcDbLine
 10
65.60000638250001
 20
52.69999776875
 30
0.0
 11
65.60000638250001
 21
61.19999713125
 31
0.0
  0
LINE
  5
A07
330
22
100
AcDbEntity
  8
10
  6
Continuous
100
AcDbLine
 10
68.60000615749999
 20
52.69999776875
 30
0.0
 11
68.60000615749999
 21
61.19999713125
 31
0.0
  0
LINE
  5
A08
330
22
100
AcDbEntity
  8
10
  6
Continuous
100
AcDbLine
 10
65.60000638250001
 20
53.19999773124999
 30
0.0
 11
68.60000615749999
 21
53.19999773124999
 31
0.0
  0
LINE
  5
A09
330
22
100
AcDbEntity
  8
10
  6
Continuous
100
AcDbLine
 10
68.60000615749999
 20
52.69999776875
 30
0.0
 11
65.60000638250001
 21
52.69999776875
 31
0.0
  0
LINE
  5
A0A
330
22
100
AcDbEntity
  8
10
  6
Continuous
100
AcDbLine
 10
65.60000638250001
 20
60.69999716874999
 30
0.0
 11
68.60000615749999
 21
60.69999716874999
 31
0.0
  0
LINE
  5
A0B
330
22
100
AcDbEntity
  8
10
  6
Continuous
100
AcDbLine
 10
68.60000615749999
 20
61.19999713125
 30
0.0
 11
65.60000638250001
 21
61.19999713125
 31
0.0
  0
LINE
  5
A0C
330
22
100
AcDbEntity
  8
10
  6
Continuous
100
AcDbLine
 10
60.8000067425
 20
52.69999776875
 30
0.0
 11
60.8000067425
 21
61.19999713125
 31
0.0
  0
LINE
  5
A0D
330
22
100
AcDbEntity
  8
10
  6
Continuous
100
AcDbLine
 10
63.80000651750001
 20
52.69999776875
 30
0.0
 11
63.80000651750001
 21
61.19999713125
 31
0.0
  0
LINE
  5
A0E
330
22
100
AcDbEntity
  8
10
  6
Continuous
100
AcDbLine
 10
60.8000067425
 20
53.19999773124999
 30
0.0
 11
63.80000651750001
 21
53.19999773124999
 31
0.0
  0
LINE
  5
A0F
330
22
100
AcDbEntity
  8
10
  6
Continuous
100
AcDbLine
 10
63.80000651750001
 20
52.69999776875
 30
0.0
 11
60.8000067425
 21
52.69999776875
 31
0.0
  0
LINE
  5
A10
330
22
100
AcDbEntity
  8
10
  6
Continuous
100
AcDbLine
 10
60.8000067425
 20
60.69999716874999
 30
0.0
 11
63.80000651750001
 21
60.69999716874999
 31
0.0
  0
LINE
  5
A11
330
22
100
AcDbEntity
  8
10
  6
Continuous
100
AcDbLine
 10
63.80000651750001
 20
61.19999713125
 30
0.0
 11
60.8000067425
 21
61.19999713125
 31
0.0
  0
LINE
  5
A12
330
22
100
AcDbEntity
  8
10
  6
Continuous
100
AcDbLine
 10
56.0000071025
 20
52.69999776875
 30
0.0
 11
56.0000071025
 21
61.19999713125
 31
0.0
  0
LINE
  5
A13
330
22
100
AcDbEntity
  8
10
  6
Continuous
100
AcDbLine
 10
59.0000068775
 20
52.69999776875
 30
0.0
 11
59.0000068775
 21
61.19999713125
 31
0.0
  0
LINE
  5
A14
330
22
100
AcDbEntity
  8
10
  6
Continuous
100
AcDbLine
 10
56.0000071025
 20
53.19999773124999
 30
0.0
 11
59.0000068775
 21
53.19999773124999
 31
0.0
  0
LINE
  5
A15
330
22
100
AcDbEntity
  8
10
  6
Continuous
100
AcDbLine
 10
59.0000068775
 20
52.69999776875
 30
0.0
 11
56.0000071025
 21
52.69999776875
 31
0.0
  0
LINE
  5
A16
330
22
100
AcDbEntity
  8
10
  6
Continuous
100
AcDbLine
 10
56.0000071025
 20
60.69999716874999
 30
0.0
 11
59.0000068775
 21
60.69999716874999
 31
0.0
  0
LINE
  5
A17
330
22
100
AcDbEntity
  8
10
  6
Continuous
100
AcDbLine
 10
59.0000068775
 20
61.19999713125
 30
0.0
 11
56.0000071025
 21
61.19999713125
 31
0.0
  0
LINE
  5
A18
330
22
100
AcDbEntity
  8
10
  6
Continuous
100
AcDbLine
 10
80.00000530249998
 20
60.69999716874999
 30
0.0
 11
86.20000483750002
 21
60.69999716874999
 31
0.0
  0
LINE
  5
A19
330
22
100
AcDbEntity
  8
10
  6
Continuous
100
AcDbLine
 10
54.2000072375
 20
61.19999713125
 30
0.0
 11
51.20000746250001
 21
61.19999713125
 31
0.0
  0
LINE
  5
A1A
330
22
100
AcDbEntity
  8
10
  6
Continuous
100
AcDbLine
 10
51.20000746250001
 20
60.69999716874999
 30
0.0
 11
54.2000072375
 21
60.69999716874999
 31
0.0
  0
LINE
  5
A1B
330
22
100
AcDbEntity
  8
10
  6
Continuous
100
AcDbLine
 10
44.60000795749998
 20
61.19999713125
 30
0.0
 11
41.50000819
 21
61.19999713125
 31
0.0
  0
LINE
  5
A1C
330
22
100
AcDbEntity
  8
10
  6
Continuous
100
AcDbLine
 10
44.60000795749998
 20
52.69999776875
 30
0.0
 11
41.50000819
 21
52.69999776875
 31
0.0
  0
LINE
  5
A1D
330
22
100
AcDbEntity
  8
10
  6
Continuous
100
AcDbLine
 10
51.20000746250001
 20
53.19999773124999
 30
0.0
 11
54.2000072375
 21
53.19999773124999
 31
0.0
  0
LINE
  5
A1E
330
22
100
AcDbEntity
  8
10
  6
Continuous
100
AcDbLine
 10
54.2000072375
 20
52.69999776875
 30
0.0
 11
51.20000746250001
 21
52.69999776875
 31
0.0
  0
LINE
  5
A1F
330
22
100
AcDbEntity
  8
10
  6
Continuous
100
AcDbLine
 10
80.00000530249998
 20
53.19999773124999
 30
0.0
 11
86.20000483750002
 21
53.19999773124999
 31
0.0
  0
LINE
  5
A20
330
22
100
AcDbEntity
  8
10
  6
Continuous
100
AcDbLine
 10
86.20000483750002
 20
52.69999776875
 30
0.0
 11
80.00000530249998
 21
52.69999776875
 31
0.0
  0
LINE
  5
A21
330
22
100
AcDbEntity
  8
10
  6
Continuous
100
AcDbLine
 10
88.00000470250003
 20
53.19999773124999
 30
0.0
 11
91.70000442500001
 21
53.19999773124999
 31
0.0
  0
LINE
  5
A22
330
22
100
AcDbEntity
  8
10
  6
Continuous
100
AcDbLine
 10
88.00000470250003
 20
60.69999716874999
 30
0.0
 11
91.70000442500001
 21
60.69999716874999
 31
0.0
  0
LINE
  5
A23
330
22
100
AcDbEntity
  8
10
  6
Continuous
100
AcDbLine
 10
86.20000483750002
 20
61.19999713125
 30
0.0
 11
80.00000530249998
 21
61.19999713125
 31
0.0
  0
LINE
  5
A24
330
22
100
AcDbEntity
  8
10
  6
Continuous
100
AcDbLine
 10
41.50000819
 20
109.6999934937499
 30
0.0
 11
41.50000819
 21
118.19999285625
 31
0.0
  0
LINE
  5
A25
330
22
100
AcDbEntity
  8
10
  6
Continuous
100
AcDbLine
 10
88.00000470250003
 20
52.69999776875
 30
0.0
 11
88.00000470250003
 21
61.19999713125
 31
0.0
  0
LINE
  5
A26
330
22
100
AcDbEntity
  8
10
  6
Continuous
100
AcDbLine
 10
80.00000530249998
 20
52.69999776875
 30
0.0
 11
80.00000530249998
 21
61.19999713125
 31
0.0
  0
LINE
  5
A27
330
22
100
AcDbEntity
  8
10
  6
Continuous
100
AcDbLine
 10
44.60000795749998
 20
52.69999776875
 30
0.0
 11
44.60000795749998
 21
61.19999713125
 31
0.0
  0
LINE
  5
A28
330
22
100
AcDbEntity
  8
10
  6
Continuous
100
AcDbLine
 10
44.60000795749998
 20
109.6999934937499
 30
0.0
 11
44.60000795749998
 21
118.19999285625
 31
0.0
  0
LINE
  5
A29
330
22
100
AcDbEntity
  8
10
  6
Continuous
100
AcDbLine
 10
41.50000819
 20
52.69999776875
 30
0.0
 11
41.50000819
 21
61.19999713125
 31
0.0
  0
LINE
  5
A2A
330
22
100
AcDbEntity
  8
10
  6
Continuous
100
AcDbLine
 10
88.00000470250003
 20
109.6999934937499
 30
0.0
 11
88.00000470250003
 21
118.19999285625
 31
0.0
  0
LINE
  5
A2C
330
22
100
AcDbEntity
  8
10
  6
Continuous
100
AcDbLine
 10
91.70000442500001
 20
139.2011490026632
 30
0.0
 11
39.700008325
 21
139.2011490026632
 31
0.0
  0
LINE
  5
A2D
330
22
100
AcDbEntity
  8
10
  6
Continuous
 62
     4
100
AcDbLine
 10
39.70000832499998
 20
141.3541946046847
 30
0.0
 11
91.70000442500001
 21
141.3541946046847
 31
0.0
  0
LINE
  5
A2E
330
22
100
AcDbEntity
  8
10
  6
Continuous
 62
     4
100
AcDbLine
 10
39.70000832499998
 20
144.2519718662514
 30
0.0
 11
91.70000442500001
 21
144.2519718662514
 31
0.0
  0
LINE
  5
A32
330
22
100
AcDbEntity
  8
10
  6
Continuous
100
AcDbLine
 10
91.70000442500001
 20
47.4499981625
 30
0.0
 11
39.700008325
 21
47.4499981625
 31
0.0
  0
LINE
  5
A34
330
22
100
AcDbEntity
  8
10
  6
Continuous
100
AcDbLine
 10
91.70000442500001
 20
150.9499903999999
 30
0.0
 11
39.700008325
 21
150.9499903999999
 31
0.0
  0
ARC
  5
A36
330
22
100
AcDbEntity
  8
10
  6
Continuous
100
AcDbCircle
 10
52.70000734999999
 20
134.9499916
 30
0.0
 40
1.499999887499997
100
AcDbArc
 50
0.0
 51
180.0
  0
ARC
  5
A37
330
22
100
AcDbEntity
  8
10
  6
Continuous
100
AcDbCircle
 10
57.50000698999996
 20
134.9499916
 30
0.0
 40
1.499999887499997
100
AcDbArc
 50
0.0
 51
180.0
  0
ARC
  5
A38
330
22
100
AcDbEntity
  8
10
  6
Continuous
100
AcDbCircle
 10
62.30000662999997
 20
134.9499916
 30
0.0
 40
1.499999887500005
100
AcDbArc
 50
0.0
 51
180.0
  0
ARC
  5
A39
330
22
100
AcDbEntity
  8
10
  6
Continuous
100
AcDbCircle
 10
67.10000626999999
 20
134.9499916
 30
0.0
 40
1.499999887499997
100
AcDbArc
 50
0.0
 51
180.0
  0
ARC
  5
A3A
330
22
100
AcDbEntity
  8
10
  6
Continuous
100
AcDbCircle
 10
71.90000591
 20
134.9499916
 30
0.0
 40
1.499999887499997
100
AcDbArc
 50
0.0
 51
180.0
  0
ARC
  5
A3B
330
22
100
AcDbEntity
  8
10
  6
Continuous
100
AcDbCircle
 10
76.70000555
 20
134.9499916
 30
0.0
 40
1.499999887499997
100
AcDbArc
 50
0.0
 51
180.0
  0
ARC
  5
A3C
330
22
100
AcDbEntity
  8
10
  6
Continuous
100
AcDbCircle
 10
76.70000555
 20
97.94999437500001
 30
0.0
 40
1.499999887499997
100
AcDbArc
 50
180.0
 51
0.0
  0
ARC
  5
A3D
330
22
100
AcDbEntity
  8
10
  6
Continuous
100
AcDbCircle
 10
71.90000591
 20
97.94999437500001
 30
0.0
 40
1.499999887500005
100
AcDbArc
 50
180.0
 51
0.0
  0
ARC
  5
A3E
330
22
100
AcDbEntity
  8
10
  6
Continuous
100
AcDbCircle
 10
67.10000626999999
 20
97.94999437500001
 30
0.0
 40
1.499999887499997
100
AcDbArc
 50
180.0
 51
0.0
  0
ARC
  5
A3F
330
22
100
AcDbEntity
  8
10
  6
Continuous
100
AcDbCircle
 10
62.30000662999997
 20
97.94999437500001
 30
0.0
 40
1.499999887499997
100
AcDbArc
 50
180.0
 51
0.0
  0
ARC
  5
A40
330
22
100
AcDbEntity
  8
10
  6
Continuous
100
AcDbCircle
 10
57.50000698999996
 20
97.94999437500001
 30
0.0
 40
1.499999887499997
100
AcDbArc
 50
180.0
 51
0.0
  0
ARC
  5
A41
330
22
100
AcDbEntity
  8
10
  6
Continuous
100
AcDbCircle
 10
52.70000734999999
 20
97.94999437500001
 30
0.0
 40
1.499999887499997
100
AcDbArc
 50
180.0
 51
0.0
  0
LINE
  5
A42
330
22
100
AcDbEntity
  8
10
  6
Continuous
100
AcDbLine
 10
37.20000851249999
 20
136.1999915062499
 30
0.0
 11
35.20000866250001
 21
136.1999915062499
 31
0.0
  0
LINE
  5
A43
330
22
100
AcDbEntity
  8
10
  6
Continuous
100
AcDbLine
 10
37.20000851249999
 20
132.69999176875
 30
0.0
 11
35.20000866250001
 21
132.69999176875
 31
0.0
  0
LINE
  5
A44
330
22
100
AcDbEntity
  8
10
  6
Continuous
100
AcDbLine
 10
78.20000543750002
 20
131.9499918249998
 30
0.0
 11
75.20000566250002
 21
131.9499918249998
 31
0.0
  0
LINE
  5
A45
330
22
100
AcDbEntity
  8
10
  6
Continuous
100
AcDbLine
 10
54.2000072375
 20
118.7307692228415
 30
0.0
 11
51.20000746250001
 21
118.7307692228415
 31
0.0
  0
LINE
  5
A46
330
22
100
AcDbEntity
  8
10
  6
Continuous
100
AcDbLine
 10
59.00000687749997
 20
118.7307692228415
 30
0.0
 11
56.00000710249995
 21
118.7307692228415
 31
0.0
  0
LINE
  5
A47
330
22
100
AcDbEntity
  8
10
  6
Continuous
100
AcDbLine
 10
63.80000651749998
 20
118.7307692228415
 30
0.0
 11
60.80000674249996
 21
118.7307692228415
 31
0.0
  0
LINE
  5
A48
330
22
100
AcDbEntity
  8
10
  6
Continuous
100
AcDbLine
 10
68.60000615749997
 20
118.7307692228415
 30
0.0
 11
65.60000638249999
 21
118.7307692228415
 31
0.0
  0
LINE
  5
A49
330
22
100
AcDbEntity
  8
10
  6
Continuous
100
AcDbLine
 10
73.40000579749998
 20
118.7307692228415
 30
0.0
 11
70.4000060225
 21
118.7307692228415
 31
0.0
  0
LINE
  5
A4A
330
22
100
AcDbEntity
  8
10
  6
Continuous
100
AcDbLine
 10
44.60000795749998
 20
118.19999285625
 30
0.0
 11
41.50000819
 21
118.19999285625
 31
0.0
  0
LINE
  5
A4B
330
22
100
AcDbEntity
  8
10
  6
Continuous
100
AcDbLine
 10
91.70000442500001
 20
118.19999285625
 30
0.0
 11
88.00000470250003
 21
118.19999285625
 31
0.0
  0
LINE
  5
A4C
330
22
100
AcDbEntity
  8
10
  6
Continuous
100
AcDbLine
 10
78.20000543750002
 20
118.0249928693749
 30
0.0
 11
75.20000566250002
 21
118.0249928693749
 31
0.0
  0
LINE
  5
A4D
330
22
100
AcDbEntity
  8
10
  6
Continuous
100
AcDbLine
 10
80.00000530249998
 20
117.6999928937499
 30
0.0
 11
86.20000483750002
 21
117.6999928937499
 31
0.0
  0
LINE
  5
A4E
330
22
100
AcDbEntity
  8
10
  6
Continuous
100
AcDbLine
 10
41.50000819
 20
117.6999928937499
 30
0.0
 11
44.60000795749998
 21
117.6999928937499
 31
0.0
  0
LINE
  5
A4F
330
22
100
AcDbEntity
  8
10
  6
Continuous
100
AcDbLine
 10
75.20000566250002
 20
117.5249929068749
 30
0.0
 11
78.20000543750002
 21
117.5249929068749
 31
0.0
  0
LINE
  5
A50
330
22
100
AcDbEntity
  8
10
  6
Continuous
100
AcDbLine
 10
54.2000072375
 20
117.19999293125
 30
0.0
 11
51.20000746250001
 21
117.19999293125
 31
0.0
  0
LINE
  5
A51
330
22
100
AcDbEntity
  8
10
  6
Continuous
100
AcDbLine
 10
59.00000687749997
 20
117.19999293125
 30
0.0
 11
56.00000710249995
 21
117.19999293125
 31
0.0
  0
LINE
  5
A52
330
22
100
AcDbEntity
  8
10
  6
Continuous
100
AcDbLine
 10
63.80000651749998
 20
117.19999293125
 30
0.0
 11
60.80000674249996
 21
117.19999293125
 31
0.0
  0
LINE
  5
A53
330
22
100
AcDbEntity
  8
10
  6
Continuous
100
AcDbLine
 10
68.60000615749997
 20
117.19999293125
 30
0.0
 11
65.60000638249999
 21
117.19999293125
 31
0.0
  0
LINE
  5
A54
330
22
100
AcDbEntity
  8
10
  6
Continuous
100
AcDbLine
 10
73.40000579749998
 20
117.19999293125
 30
0.0
 11
70.4000060225
 21
117.19999293125
 31
0.0
  0
LINE
  5
A55
330
22
100
AcDbEntity
  8
10
  6
Continuous
100
AcDbLine
 10
54.2000072375
 20
110.69999341875
 30
0.0
 11
51.20000746250001
 21
110.69999341875
 31
0.0
  0
LINE
  5
A56
330
22
100
AcDbEntity
  8
10
  6
Continuous
100
AcDbLine
 10
59.00000687749997
 20
110.69999341875
 30
0.0
 11
56.00000710249995
 21
110.69999341875
 31
0.0
  0
LINE
  5
A57
330
22
100
AcDbEntity
  8
10
  6
Continuous
100
AcDbLine
 10
63.80000651749998
 20
110.69999341875
 30
0.0
 11
60.80000674249996
 21
110.69999341875
 31
0.0
  0
LINE
  5
A58
330
22
100
AcDbEntity
  8
10
  6
Continuous
100
AcDbLine
 10
68.60000615749997
 20
110.69999341875
 30
0.0
 11
65.60000638249999
 21
110.69999341875
 31
0.0
  0
LINE
  5
A59
330
22
100
AcDbEntity
  8
10
  6
Continuous
100
AcDbLine
 10
73.40000579749998
 20
110.69999341875
 30
0.0
 11
70.4000060225
 21
110.69999341875
 31
0.0
  0
LINE
  5
A5A
330
22
100
AcDbEntity
  8
10
  6
Continuous
100
AcDbLine
 10
75.20000566250002
 20
110.374993443125
 30
0.0
 11
78.20000543750002
 21
110.374993443125
 31
0.0
  0
LINE
  5
A5B
330
22
100
AcDbEntity
  8
10
  6
Continuous
100
AcDbLine
 10
80.00000530249998
 20
110.19999345625
 30
0.0
 11
86.20000483750002
 21
110.19999345625
 31
0.0
  0
LINE
  5
A5C
330
22
100
AcDbEntity
  8
10
  6
Continuous
100
AcDbLine
 10
41.50000819
 20
110.19999345625
 30
0.0
 11
44.60000795749998
 21
110.19999345625
 31
0.0
  0
LINE
  5
A5D
330
22
100
AcDbEntity
  8
10
  6
Continuous
100
AcDbLine
 10
78.20000543750002
 20
109.8749934806249
 30
0.0
 11
75.20000566250002
 21
109.8749934806249
 31
0.0
  0
LINE
  5
A5E
330
22
100
AcDbEntity
  8
10
  6
Continuous
100
AcDbLine
 10
44.60000795749998
 20
109.6999934937499
 30
0.0
 11
41.50000819
 21
109.6999934937499
 31
0.0
  0
LINE
  5
A5F
330
22
100
AcDbEntity
  8
10
  6
Continuous
100
AcDbLine
 10
91.70000442500001
 20
109.6999934937499
 30
0.0
 11
88.00000470250003
 21
109.6999934937499
 31
0.0
  0
LINE
  5
A60
330
22
100
AcDbEntity
  8
10
  6
Continuous
100
AcDbLine
 10
54.2000072375
 20
109.1692171271583
 30
0.0
 11
51.20000746250001
 21
109.1692171271583
 31
0.0
  0
LINE
  5
A61
330
22
100
AcDbEntity
  8
10
  6
Continuous
100
AcDbLine
 10
59.00000687749997
 20
109.1692171271583
 30
0.0
 11
56.00000710249995
 21
109.1692171271583
 31
0.0
  0
LINE
  5
A62
330
22
100
AcDbEntity
  8
10
  6
Continuous
100
AcDbLine
 10
63.80000651749998
 20
109.1692171271583
 30
0.0
 11
60.80000674249996
 21
109.1692171271583
 31
0.0
  0
LINE
  5
A63
330
22
100
AcDbEntity
  8
10
  6
Continuous
100
AcDbLine
 10
68.60000615749997
 20
109.1692171271583
 30
0.0
 11
65.60000638249999
 21
109.1692171271583
 31
0.0
  0
LINE
  5
A64
330
22
100
AcDbEntity
  8
10
  6
Continuous
100
AcDbLine
 10
73.40000579749998
 20
109.1692171271583
 30
0.0
 11
70.4000060225
 21
109.1692171271583
 31
0.0
  0
LINE
  5
A65
330
22
100
AcDbEntity
  8
10
  6
Continuous
100
AcDbLine
 10
86.20000483750002
 20
109.6999934937499
 30
0.0
 11
86.20000483750002
 21
118.19999285625
 31
0.0
  0
LINE
  5
A66
330
22
100
AcDbEntity
  8
10
  6
Continuous
100
AcDbLine
 10
86.20000483750002
 20
52.69999776875
 30
0.0
 11
86.20000483750002
 21
61.19999713125
 31
0.0
  0
LINE
  5
A67
330
22
100
AcDbEntity
  8
10
  6
Continuous
100
AcDbLine
 10
83.20000506250002
 20
60.69999716874999
 30
0.0
 11
83.20000506250002
 21
53.19999773124999
 31
0.0
  0
LINE
  5
A68
330
22
100
AcDbEntity
  8
10
  6
Continuous
100
AcDbLine
 10
83.20000506250002
 20
117.6999928937499
 30
0.0
 11
83.20000506250002
 21
110.19999345625
 31
0.0
  0
LINE
  5
A69
330
22
100
AcDbEntity
  8
10
  6
Continuous
100
AcDbLine
 10
78.20000543750002
 20
97.94999437500001
 30
0.0
 11
78.20000543750002
 21
134.9499916
 31
0.0
  0
LINE
  5
A6A
330
22
100
AcDbEntity
  8
10
  6
Continuous
100
AcDbLine
 10
75.20000566250002
 20
134.9499916
 30
0.0
 11
75.20000566250002
 21
97.94999437500001
 31
0.0
  0
LINE
  5
A6B
330
22
100
AcDbEntity
  8
10
  6
Continuous
100
AcDbLine
 10
73.40000579749998
 20
97.94999437500001
 30
0.0
 11
73.40000579749998
 21
134.9499916
 31
0.0
  0
LINE
  5
A6C
330
22
100
AcDbEntity
  8
10
  6
Continuous
100
AcDbLine
 10
70.4000060225
 20
97.94999437500001
 30
0.0
 11
70.4000060225
 21
134.9499916
 31
0.0
  0
LINE
  5
A6D
330
22
100
AcDbEntity
  8
10
  6
Continuous
100
AcDbLine
 10
68.60000615749997
 20
97.94999437500001
 30
0.0
 11
68.60000615749997
 21
134.9499916
 31
0.0
  0
LINE
  5
A6E
330
22
100
AcDbEntity
  8
10
  6
Continuous
100
AcDbLine
 10
65.60000638249999
 20
97.94999437500001
 30
0.0
 11
65.60000638249999
 21
134.9499916
 31
0.0
  0
LINE
  5
A6F
330
22
100
AcDbEntity
  8
10
  6
Continuous
100
AcDbLine
 10
91.70000442500001
 20
61.19999713125
 30
0.0
 11
88.00000470250003
 21
61.19999713125
 31
0.0
  0
LINE
  5
A70
330
22
100
AcDbEntity
  8
10
  6
Continuous
100
AcDbLine
 10
41.50000819
 20
60.69999716874999
 30
0.0
 11
44.60000795749998
 21
60.69999716874999
 31
0.0
  0
LINE
  5
A71
330
22
100
AcDbEntity
  8
10
  6
Continuous
100
AcDbLine
 10
63.80000651749998
 20
97.94999437500001
 30
0.0
 11
63.80000651749998
 21
134.9499916
 31
0.0
  0
LINE
  5
A72
330
22
100
AcDbEntity
  8
10
  6
Continuous
100
AcDbLine
 10
60.80000674249996
 20
97.94999437500001
 30
0.0
 11
60.80000674249996
 21
134.9499916
 31
0.0
  0
LINE
  5
A73
330
22
100
AcDbEntity
  8
10
  6
Continuous
100
AcDbLine
 10
37.20000851249999
 20
56.19999750625001
 30
0.0
 11
35.20000866250001
 21
56.19999750625001
 31
0.0
  0
LINE
  5
A74
330
22
100
AcDbEntity
  8
10
  6
Continuous
100
AcDbLine
 10
41.50000819
 20
53.19999773124999
 30
0.0
 11
44.60000795749998
 21
53.19999773124999
 31
0.0
  0
LINE
  5
A75
330
22
100
AcDbEntity
  8
10
  6
Continuous
100
AcDbLine
 10
37.20000851249999
 20
52.69999776875
 30
0.0
 11
35.20000866250001
 21
52.69999776875
 31
0.0
  0
LINE
  5
A76
330
22
100
AcDbEntity
  8
10
  6
Continuous
100
AcDbLine
 10
91.70000442500001
 20
52.69999776875
 30
0.0
 11
88.00000470250003
 21
52.69999776875
 31
0.0
  0
LINE
  5
A77
330
22
100
AcDbEntity
  8
10
  6
Continuous
100
AcDbLine
 10
59.00000687749997
 20
97.94999437500001
 30
0.0
 11
59.00000687749997
 21
134.9499916
 31
0.0
  0
LINE
  5
A78
330
22
100
AcDbEntity
  8
10
  6
Continuous
100
AcDbLine
 10
56.00000710249995
 20
97.94999437500001
 30
0.0
 11
56.00000710249995
 21
134.9499916
 31
0.0
  0
LINE
  5
A79
330
22
100
AcDbEntity
  8
10
  6
Continuous
100
AcDbLine
 10
54.2000072375
 20
97.94999437500001
 30
0.0
 11
54.2000072375
 21
134.9499916
 31
0.0
  0
LINE
  5
A7A
330
22
100
AcDbEntity
  8
10
  6
Continuous
100
AcDbLine
 10
54.2000072375
 20
52.69999776875
 30
0.0
 11
54.2000072375
 21
61.19999713125
 31
0.0
  0
LINE
  5
A7B
330
22
100
AcDbEntity
  8
10
  6
Continuous
100
AcDbLine
 10
51.20000746250001
 20
97.94999437500001
 30
0.0
 11
51.20000746250001
 21
134.9499916
 31
0.0
  0
LINE
  5
A7C
330
22
100
AcDbEntity
  8
10
  6
Continuous
100
AcDbLine
 10
51.20000746250001
 20
52.69999776875
 30
0.0
 11
51.20000746250001
 21
61.19999713125
 31
0.0
  0
LINE
  5
A7D
330
22
100
AcDbEntity
  8
10
  6
Continuous
100
AcDbLine
 10
37.20000851249999
 20
56.19999750625001
 30
0.0
 11
37.20000851249999
 21
52.69999776875
 31
0.0
  0
LINE
  5
A7E
330
22
100
AcDbEntity
  8
10
  6
Continuous
100
AcDbLine
 10
37.20000851249999
 20
136.1999915062499
 30
0.0
 11
37.20000851249999
 21
132.69999176875
 31
0.0
  0
LINE
  5
A7F
330
22
100
AcDbEntity
  8
10
  6
Continuous
100
AcDbLine
 10
35.20000866250001
 20
56.19999750625001
 30
0.0
 11
35.20000866250001
 21
52.69999776875
 31
0.0
  0
LINE
  5
A80
330
22
100
AcDbEntity
  8
10
  6
Continuous
100
AcDbLine
 10
35.20000866250001
 20
136.1999915062499
 30
0.0
 11
35.20000866250001
 21
132.69999176875
 31
0.0
  0
ARC
  5
A83
330
22
100
AcDbEntity
  8
11
  6
Continuous
100
AcDbCircle
 10
-96.09409913749997
 20
120.9499926499999
 30
0.0
 40
4.009363738597759
100
AcDbArc
 50
90.0
 51
270.0
  0
ARC
  5
A84
330
22
100
AcDbEntity
  8
11
  6
Continuous
100
AcDbCircle
 10
-89.09409966249999
 20
120.9499926499999
 30
0.0
 40
4.009363738597759
100
AcDbArc
 50
270.0
 51
90.0
  0
CIRCLE
  5
A85
330
22
100
AcDbEntity
  8
11
  6
Continuous
100
AcDbCircle
 10
-92.59409939999995
 20
132.9499917499999
 30
0.0
 40
5.007494007837922
  0
CIRCLE
  5
A86
330
22
100
AcDbEntity
  8
11
  6
Continuous
100
AcDbCircle
 10
-86.59409984999998
 20
97.44999441249998
 30
0.0
 40
5.007494007837922
  0
CIRCLE
  5
A87
330
22
100
AcDbEntity
  8
11
  6
Continuous
100
AcDbCircle
 10
-98.59409894999998
 20
97.44999441249998
 30
0.0
 40
5.007494007837914
  0
ARC
  5
A88
330
22
100
AcDbEntity
  8
11
  6
Continuous
100
AcDbCircle
 10
-96.09409913749997
 20
109.949993475
 30
0.0
 40
4.009363738597778
100
AcDbArc
 50
90.0
 51
270.0
  0
ARC
  5
A89
330
22
100
AcDbEntity
  8
11
  6
Continuous
100
AcDbCircle
 10
-89.09409966249999
 20
109.949993475
 30
0.0
 40
4.009363738597759
100
AcDbArc
 50
270.0
 51
90.0
  0
LINE
  5
B15
330
22
100
AcDbEntity
  8
11
  6
Continuous
100
AcDbLine
 10
-89.09409966249999
 20
124.9593563885976
 30
0.0
 11
-96.09409913749997
 21
124.9593563885976
 31
0.0
  0
LINE
  5
B74
330
22
100
AcDbEntity
  8
11
  6
Continuous
100
AcDbLine
 10
-96.09409913749997
 20
116.9406289114022
 30
0.0
 11
-89.09409966249999
 21
116.9406289114022
 31
0.0
  0
LINE
  5
BB2
330
22
100
AcDbEntity
  8
11
  6
Continuous
100
AcDbLine
 10
-89.09409966249999
 20
113.9593572135977
 30
0.0
 11
-96.09409913749997
 21
113.9593572135977
 31
0.0
  0
LINE
  5
C3C
330
22
100
AcDbEntity
  8
11
  6
Continuous
100
AcDbLine
 10
-96.09409913749997
 20
105.9406297364021
 30
0.0
 11
-89.09409966249999
 21
105.9406297364021
 31
0.0
  0
ARC
  5
D5D
330
22
100
AcDbEntity
  8
11
  6
Continuous
100
AcDbCircle
 10
-111.5940979749999
 20
124.9499923499999
 30
0.0
 40
0.4999999624999967
100
AcDbArc
 50
270.0
 51
0.0
  0
ARC
  5
D5E
330
22
100
AcDbEntity
  8
11
  6
Continuous
100
AcDbCircle
 10
-137.594096025
 20
124.9499923499999
 30
0.0
 40
0.4999999624999967
100
AcDbArc
 50
180.0
 51
270.0
  0
ARC
  5
D5F
330
22
100
AcDbEntity
  8
11
  6
Continuous
100
AcDbCircle
 10
-137.594096025
 20
137.9499913749999
 30
0.0
 40
0.4999999624999967
100
AcDbArc
 50
90.0
 51
180.0
  0
ARC
  5
D60
330
22
100
AcDbEntity
  8
11
  6
Continuous
100
AcDbCircle
 10
-111.5940979749999
 20
137.9499913749999
 30
0.0
 40
0.4999999624999967
100
AcDbArc
 50
0.0
 51
90.0
  0
LINE
  5
D61
330
22
100
AcDbEntity
  8
11
  6
Continuous
100
AcDbLine
 10
-111.5940979749999
 20
138.4499913375
 30
0.0
 11
-137.594096025
 21
138.4499913375
 31
0.0
  0
LINE
  5
D62
330
22
100
AcDbEntity
  8
11
  6
Continuous
100
AcDbLine
 10
-137.594096025
 20
124.4499923874998
 30
0.0
 11
-111.5940979749999
 21
124.4499923874998
 31
0.0
  0
LINE
  5
D63
330
22
100
AcDbEntity
  8
11
  6
Continuous
100
AcDbLine
 10
-111.0940980124998
 20
124.9499923499999
 30
0.0
 11
-111.0940980124998
 21
137.9499913749999
 31
0.0
  0
LINE
  5
D64
330
22
100
AcDbEntity
  8
11
  6
Continuous
100
AcDbLine
 10
-138.0940959874999
 20
137.9499913749999
 30
0.0
 11
-138.0940959874999
 21
124.9499923499999
 31
0.0
  0
LINE
  5
D6F
330
22
100
AcDbEntity
  8
11
  6
Continuous
100
AcDbLine
 10
-111.3002189809409
 20
138.3543302631744
 30
0.0
 11
-113.5189689612345
 21
137.3246048137038
 31
0.0
  0
LINE
  5
D70
330
22
100
AcDbEntity
  8
11
  6
Continuous
100
AcDbLine
 10
-135.6692250387652
 20
137.3246048137038
 30
0.0
 11
-113.5189689612345
 21
137.3246048137038
 31
0.0
  0
LINE
  5
D71
330
22
100
AcDbEntity
  8
11
  6
Continuous
100
AcDbLine
 10
-135.6692250387652
 20
137.3246048137038
 30
0.0
 11
-137.8879750190589
 21
138.3543302631744
 31
0.0
  0
LINE
  5
D72
330
22
100
AcDbEntity
  8
11
  6
Continuous
100
AcDbLine
 10
-135.6692250387652
 20
125.5753789112959
 30
0.0
 11
-135.6692250387652
 21
137.3246048137038
 31
0.0
  0
LINE
  5
D73
330
22
100
AcDbEntity
  8
11
  6
Continuous
100
AcDbLine
 10
-135.6692250387652
 20
125.5753789112959
 30
0.0
 11
-137.8879750190589
 21
124.5456534618254
 31
0.0
  0
LINE
  5
D74
330
22
100
AcDbEntity
  8
11
  6
Continuous
100
AcDbLine
 10
-113.5189689612345
 20
125.5753789112959
 30
0.0
 11
-135.6692250387652
 21
125.5753789112959
 31
0.0
  0
LINE
  5
D75
330
22
100
AcDbEntity
  8
11
  6
Continuous
100
AcDbLine
 10
-113.5189689612345
 20
125.5753789112959
 30
0.0
 11
-111.3002189809409
 21
124.5456534618254
 31
0.0
  0
LINE
  5
D76
330
22
100
AcDbEntity
  8
11
  6
Continuous
100
AcDbLine
 10
-113.5189689612345
 20
137.3246048137038
 30
0.0
 11
-113.5189689612345
 21
125.5753789112959
 31
0.0
  0
ARC
  5
E29
330
22
100
AcDbEntity
  8
10
  6
Continuous
100
AcDbCircle
 10
47.20000776249999
 20
30.4499994375
 30
0.0
 40
0.4999999624999967
100
AcDbArc
 50
0.0
 51
180.0
  0
ARC
  5
E2A
330
22
100
AcDbEntity
  8
10
  6
Continuous
100
AcDbCircle
 10
49.2000076125
 20
30.4499994375
 30
0.0
 40
0.4999999625000048
100
AcDbArc
 50
0.0
 51
180.0
  0
ARC
  5
E2B
330
22
100
AcDbEntity
  8
10
  6
Continuous
100
AcDbCircle
 10
51.20000746250001
 20
30.4499994375
 30
0.0
 40
0.4999999624999967
100
AcDbArc
 50
0.0
 51
180.0
  0
ARC
  5
E2C
330
22
100
AcDbEntity
  8
10
  6
Continuous
100
AcDbCircle
 10
53.20000731250001
 20
30.4499994375
 30
0.0
 40
0.4999999625000048
100
AcDbArc
 50
0.0
 51
180.0
  0
LINE
  5
E2D
330
22
100
AcDbEntity
  8
10
  6
Continuous
100
AcDbLine
 10
53.70000727499999
 20
22.94999999999999
 30
0.0
 11
53.70000727499999
 21
30.4499994375
 31
0.0
  0
LINE
  5
E2F
330
22
100
AcDbEntity
  8
10
  6
Continuous
100
AcDbLine
 10
52.70000734999999
 20
22.94999999999999
 30
0.0
 11
52.70000734999999
 21
30.4499994375
 31
0.0
  0
LINE
  5
E30
330
22
100
AcDbEntity
  8
10
  6
Continuous
100
AcDbLine
 10
51.700007425
 20
22.94999999999999
 30
0.0
 11
51.700007425
 21
30.4499994375
 31
0.0
  0
LINE
  5
E31
330
22
100
AcDbEntity
  8
10
  6
Continuous
100
AcDbLine
 10
50.70000750000001
 20
22.94999999999999
 30
0.0
 11
50.70000750000001
 21
30.4499994375
 31
0.0
  0
LINE
  5
E32
330
22
100
AcDbEntity
  8
10
  6
Continuous
100
AcDbLine
 10
49.700007575
 20
22.94999999999999
 30
0.0
 11
49.700007575
 21
30.4499994375
 31
0.0
  0
LINE
  5
E33
330
22
100
AcDbEntity
  8
10
  6
Continuous
100
AcDbLine
 10
48.70000765
 20
22.94999999999999
 30
0.0
 11
48.70000765
 21
30.4499994375
 31
0.0
  0
LINE
  5
E34
330
22
100
AcDbEntity
  8
10
  6
Continuous
100
AcDbLine
 10
47.700007725
 20
22.94999999999999
 30
0.0
 11
47.700007725
 21
30.4499994375
 31
0.0
  0
LINE
  5
E35
330
22
100
AcDbEntity
  8
10
  6
Continuous
100
AcDbLine
 10
46.70000779999998
 20
22.94999999999999
 30
0.0
 11
46.70000779999998
 21
30.4499994375
 31
0.0
  0
LINE
  5
E36
330
22
100
AcDbEntity
  8
10
  6
Continuous
100
AcDbLine
 10
47.700007725
 20
23.24999997749994
 30
0.0
 11
46.70000779999998
 21
23.24999997749994
 31
0.0
  0
LINE
  5
E37
330
22
100
AcDbEntity
  8
10
  6
Continuous
100
AcDbLine
 10
49.700007575
 20
23.24999997749994
 30
0.0
 11
48.70000765
 21
23.24999997749994
 31
0.0
  0
LINE
  5
E38
330
22
100
AcDbEntity
  8
10
  6
Continuous
100
AcDbLine
 10
51.700007425
 20
23.24999997749994
 30
0.0
 11
50.70000750000001
 21
23.24999997749994
 31
0.0
  0
LINE
  5
E39
330
22
100
AcDbEntity
  8
10
  6
Continuous
100
AcDbLine
 10
53.70000727499999
 20
23.24999997749994
 30
0.0
 11
52.70000734999999
 21
23.24999997749994
 31
0.0
  0
LINE
  5
E3A
330
22
100
AcDbEntity
  8
10
  6
Continuous
100
AcDbLine
 10
39.700008325
 20
22.94999999999999
 30
0.0
 11
91.70000442500001
 21
22.94999999999999
 31
0.0
  0
ARC
  5
E3D
330
22
100
AcDbEntity
  8
10
  6
Continuous
100
AcDbCircle
 10
34.00000875249995
 20
23.24999997749994
 30
0.0
 40
0.299999977499967
100
AcDbArc
 50
221.5023334919919
 51
270.0
  0
LINE
  5
E3E
330
22
100
AcDbEntity
  8
10
  6
Continuous
100
AcDbLine
 10
39.2000083625
 20
22.94999999999999
 30
0.0
 11
34.00001544629946
 21
22.94999999999999
 31
0.0
  0
LINE
  5
E6C
330
22
100
AcDbEntity
  8
10
  6
Continuous
100
AcDbLine
 10
85.2000049125
 20
53.4499977125
 30
0.0
 11
85.2000049125
 21
60.44999718749998
 31
0.0
  0
LINE
  5
E6D
330
22
100
AcDbEntity
  8
10
  6
Continuous
100
AcDbLine
 10
83.70000502500003
 20
53.4499977125
 30
0.0
 11
83.70000502500003
 21
60.44999718749998
 31
0.0
  0
LINE
  5
E6E
330
22
100
AcDbEntity
  8
10
  6
Continuous
100
AcDbLine
 10
83.70000502500003
 20
60.44999718749998
 30
0.0
 11
86.20000483750002
 21
60.44999718749998
 31
0.0
  0
LINE
  5
E6F
330
22
100
AcDbEntity
  8
10
  6
Continuous
100
AcDbLine
 10
83.70000502500003
 20
53.4499977125
 30
0.0
 11
86.20000483750002
 21
53.4499977125
 31
0.0
  0
LINE
  5
E70
330
22
100
AcDbEntity
  8
10
  6
Continuous
100
AcDbLine
 10
83.70000502500003
 20
117.4499929125
 30
0.0
 11
86.20000483750002
 21
117.4499929125
 31
0.0
  0
LINE
  5
E71
330
22
100
AcDbEntity
  8
10
  6
Continuous
100
AcDbLine
 10
83.70000502500003
 20
110.4499934374999
 30
0.0
 11
86.20000483750002
 21
110.4499934374999
 31
0.0
  0
LINE
  5
E72
330
22
100
AcDbEntity
  8
10
  6
Continuous
100
AcDbLine
 10
85.2000049125
 20
110.4499934374999
 30
0.0
 11
85.2000049125
 21
117.4499929125
 31
0.0
  0
LINE
  5
E73
330
22
100
AcDbEntity
  8
10
  6
Continuous
100
AcDbLine
 10
83.70000502500003
 20
110.4499934374999
 30
0.0
 11
83.70000502500003
 21
117.4499929125
 31
0.0
  0
ARC
  5
10C8
330
22
100
AcDbEntity
  8
12
  6
Continuous
 62
     3
100
AcDbCircle
 10
-76.59410059999998
 20
149.9499904749999
 30
0.0
 40
0.9999999250000012
100
AcDbArc
 50
0.0
 51
90.0
  0
LINE
  5
10C9
330
22
100
AcDbEntity
  8
12
 62
     3
100
AcDbLine
 10
-75.59410067499998
 20
144.2519718662883
 30
0.0
 11
-75.59410067499998
 21
149.9499904749999
 31
0.0
  0
ARC
  5
10CA
330
22
100
AcDbEntity
  8
12
 62
     3
100
AcDbCircle
 10
-72.59410089999997
 20
144.2519718662883
 30
0.0
 40
2.999999774999995
100
AcDbArc
 50
180.0
 51
254.9999999999997
  0
LINE
  5
10CB
330
22
100
AcDbEntity
  8
12
 62
     3
100
AcDbLine
 10
-73.37055797707328
 20
141.3541946047544
 30
0.0
 11
-65.33528239930891
 21
139.2011490027309
 31
0.0
  0
ARC
  5
10CC
330
22
100
AcDbEntity
  8
12
  6
Continuous
 62
     3
100
AcDbCircle
 10
-65.59410142499999
 20
138.2352232488861
 30
0.0
 40
0.9999999250000012
100
AcDbArc
 50
0.0
 51
74.99999999999919
  0
LINE
  5
10CD
330
22
100
AcDbEntity
  8
12
  6
CENTER
 48
4.0
100
AcDbLine
 10
-70.59410105000002
 20
140.4499911874999
 30
0.0
 11
-70.59410105000002
 21
151.4499903624999
 31
0.0
  0
LINE
  5
10CE
330
22
100
AcDbEntity
  8
12
  6
CENTER
 48
4.0
100
AcDbLine
 10
-76.09410063749997
 20
145.949990775
 30
0.0
 11
-65.09410146249999
 21
145.949990775
 31
0.0
  0
CIRCLE
  5
10CF
330
22
100
AcDbEntity
  8
12
 62
     3
100
AcDbCircle
 10
-70.59410105000002
 20
145.949990775
 30
0.0
 40
2.4999998125
  0
LINE
  5
10D0
330
22
100
AcDbEntity
  8
12
  6
CENTER
 48
4.0
100
AcDbLine
 10
-166.5940938499999
 20
140.4499911874999
 30
0.0
 11
-166.5940938499999
 21
151.4499903624999
 31
0.0
  0
LINE
  5
10D1
330
22
100
AcDbEntity
  8
12
  6
CENTER
 48
4.0
100
AcDbLine
 10
-172.0940934374999
 20
145.949990775
 30
0.0
 11
-161.0940942624999
 21
145.949990775
 31
0.0
  0
CIRCLE
  5
10D2
330
22
100
AcDbEntity
  8
12
 62
     3
100
AcDbCircle
 10
-166.5940938499999
 20
145.949990775
 30
0.0
 40
2.4999998125
  0
ARC
  5
10D3
330
22
100
AcDbEntity
  8
12
  6
Continuous
 62
     3
100
AcDbCircle
 10
-160.5940943
 20
149.9499904749999
 30
0.0
 40
0.9999999249999927
100
AcDbArc
 50
90.0
 51
180.0
  0
LINE
  5
10D4
330
22
100
AcDbEntity
  8
12
 62
     3
100
AcDbLine
 10
-161.5940942249999
 20
144.2519718662883
 30
0.0
 11
-161.5940942249999
 21
149.9499904749999
 31
0.0
  0
ARC
  5
10D5
330
22
100
AcDbEntity
  8
12
 62
     3
100
AcDbCircle
 10
-164.5940939999999
 20
144.2519718662883
 30
0.0
 40
2.999999774999978
100
AcDbArc
 50
285.0000000000012
 51
0.0
  0
LINE
  5
10D6
330
22
100
AcDbEntity
  8
12
 62
     3
100
AcDbLine
 10
-163.8176369229265
 20
141.3541946047544
 30
0.0
 11
-171.8529125006909
 21
139.2011490027309
 31
0.0
  0
ARC
  5
10D7
330
22
100
AcDbEntity
  8
12
  6
Continuous
 62
     3
100
AcDbCircle
 10
-171.5940934749999
 20
138.2352232488861
 30
0.0
 40
0.9999999250000376
100
AcDbArc
 50
105.0000000000008
 51
180.0
  0
ARC
  5
10D8
330
22
100
AcDbEntity
  8
12
  6
Continuous
 62
     3
100
AcDbCircle
 10
-171.5940934749999
 20
33.94999917499998
 30
0.0
 40
0.9999999249999927
100
AcDbArc
 50
180.0
 51
270.0
  0
LINE
  5
10D9
330
22
100
AcDbEntity
  8
12
 62
     3
100
AcDbLine
 10
-166.5940938499999
 20
32.94999924999999
 30
0.0
 11
-171.5940934749999
 21
32.94999924999999
 31
0.0
  0
ARC
  5
10DA
330
22
100
AcDbEntity
  8
12
 62
     3
100
AcDbCircle
 10
-166.5940938499999
 20
27.94999962499999
 30
0.0
 40
4.999999625
100
AcDbArc
 50
0.0
 51
90.0
  0
LINE
  5
10DB
330
22
100
AcDbEntity
  8
12
 62
     3
100
AcDbLine
 10
-161.5940942249999
 20
27.94999962499999
 30
0.0
 11
-161.5940942249999
 21
23.949999925
 31
0.0
  0
ARC
  5
10DC
330
22
100
AcDbEntity
  8
12
  6
Continuous
 62
     3
100
AcDbCircle
 10
-160.5940943
 20
23.949999925
 30
0.0
 40
0.9999999250000104
100
AcDbArc
 50
180.0
 51
270.0
  0
ARC
  5
10DD
330
22
100
AcDbEntity
  8
12
  6
Continuous
 62
     3
100
AcDbCircle
 10
-163.0940941124999
 20
23.949999925
 30
0.0
 40
0.9999999250000104
100
AcDbArc
 50
180.0
 51
270.0
  0
LINE
  5
10DE
330
22
100
AcDbEntity
  8
12
 62
     3
100
AcDbLine
 10
-164.0940940374999
 20
27.94999962499999
 30
0.0
 11
-164.0940940374999
 21
23.949999925
 31
0.0
  0
ARC
  5
10DF
330
22
100
AcDbEntity
  8
12
 62
     3
100
AcDbCircle
 10
-166.5940938499999
 20
27.94999962499999
 30
0.0
 40
2.4999998125
100
AcDbArc
 50
0.0
 51
180.0
  0
LINE
  5
10E0
330
22
100
AcDbEntity
  8
12
 62
     3
100
AcDbLine
 10
-169.0940936624999
 20
27.94999962499999
 30
0.0
 11
-169.0940936624999
 21
25.4499998125
 31
0.0
  0
ARC
  5
10E1
330
22
100
AcDbEntity
  8
12
  6
Continuous
 62
     3
100
AcDbCircle
 10
-170.0940935874999
 20
25.4499998125
 30
0.0
 40
0.9999999250000012
100
AcDbArc
 50
270.0
 51
0.0
  0
LINE
  5
10E2
330
22
100
AcDbEntity
  8
12
 62
     3
100
AcDbLine
 10
-170.0940935874999
 20
24.4499998875
 30
0.0
 11
-171.5940934749999
 21
24.4499998875
 31
0.0
  0
ARC
  5
10E3
330
22
100
AcDbEntity
  8
12
  6
Continuous
 62
     3
100
AcDbCircle
 10
-171.5940934749999
 20
25.4499998125
 30
0.0
 40
0.9999999249999927
100
AcDbArc
 50
180.0
 51
270.0
  0
LINE
  5
10E4
330
22
100
AcDbEntity
  8
12
  6
CENTER
 48
4.0
100
AcDbLine
 10
-172.0940934374999
 20
27.94999962499999
 30
0.0
 11
-161.0940942624999
 21
27.94999962499999
 31
0.0
  0
LINE
  5
10E5
330
22
100
AcDbEntity
  8
12
  6
CENTER
 48
4.0
100
AcDbLine
 10
-166.5940938499999
 20
33.4499992125
 30
0.0
 11
-166.5940938499999
 21
22.45000003749999
 31
0.0
  0
ARC
  5
10E6
330
22
100
AcDbEntity
  8
12
  6
Continuous
 62
     3
100
AcDbCircle
 10
-76.59410059999998
 20
23.949999925
 30
0.0
 40
0.9999999250000012
100
AcDbArc
 50
270.0
 51
0.0
  0
LINE
  5
10E7
330
22
100
AcDbEntity
  8
12
 62
     3
100
AcDbLine
 10
-75.59410067499998
 20
27.94999962499999
 30
0.0
 11
-75.59410067499998
 21
23.949999925
 31
0.0
  0
ARC
  5
10E8
330
22
100
AcDbEntity
  8
12
 62
     3
100
AcDbCircle
 10
-70.59410105000002
 20
27.94999962499999
 30
0.0
 40
4.999999625
100
AcDbArc
 50
90.0
 51
180.0
  0
LINE
  5
10E9
330
22
100
AcDbEntity
  8
12
 62
     3
100
AcDbLine
 10
-70.59410105000002
 20
32.94999924999999
 30
0.0
 11
-65.59410142499999
 21
32.94999924999999
 31
0.0
  0
ARC
  5
10EA
330
22
100
AcDbEntity
  8
12
  6
Continuous
 62
     3
100
AcDbCircle
 10
-65.59410142499999
 20
33.94999917499998
 30
0.0
 40
0.9999999249999975
100
AcDbArc
 50
270.0
 51
0.0
  0
LINE
  5
10EB
330
22
100
AcDbEntity
  8
12
  6
CENTER
 48
4.0
100
AcDbLine
 10
-76.09410063749997
 20
27.94999962499999
 30
0.0
 11
-65.09410146249999
 21
27.94999962499999
 31
0.0
  0
LINE
  5
10EC
330
22
100
AcDbEntity
  8
12
  6
CENTER
 48
4.0
100
AcDbLine
 10
-70.59410105000002
 20
33.4499992125
 30
0.0
 11
-70.59410105000002
 21
22.45000003749999
 31
0.0
  0
ARC
  5
10ED
330
22
100
AcDbEntity
  8
12
  6
Continuous
 62
     3
100
AcDbCircle
 10
-74.09410078749998
 20
23.949999925
 30
0.0
 40
0.9999999250000012
100
AcDbArc
 50
270.0
 51
0.0
  0
LINE
  5
10EE
330
22
100
AcDbEntity
  8
12
 62
     3
100
AcDbLine
 10
-73.0941008625
 20
27.94999962499999
 30
0.0
 11
-73.0941008625
 21
23.949999925
 31
0.0
  0
ARC
  5
10EF
330
22
100
AcDbEntity
  8
12
 62
     3
100
AcDbCircle
 10
-70.59410105000002
 20
27.94999962499999
 30
0.0
 40
2.4999998125
100
AcDbArc
 50
0.0
 51
180.0
  0
LINE
  5
10F0
330
22
100
AcDbEntity
  8
12
 62
     3
100
AcDbLine
 10
-68.09410123750001
 20
27.94999962499999
 30
0.0
 11
-68.09410123750001
 21
25.4499998125
 31
0.0
  0
ARC
  5
10F1
330
22
100
AcDbEntity
  8
12
  6
Continuous
 62
     3
100
AcDbCircle
 10
-67.09410131250002
 20
25.4499998125
 30
0.0
 40
0.9999999250000012
100
AcDbArc
 50
180.0
 51
270.0
  0
ARC
  5
10F2
330
22
100
AcDbEntity
  8
12
  6
Continuous
 62
     3
100
AcDbCircle
 10
-65.59410142499999
 20
25.4499998125
 30
0.0
 40
0.9999999250000012
100
AcDbArc
 50
270.0
 51
0.0
  0
LINE
  5
10F3
330
22
100
AcDbEntity
  8
12
 62
     3
100
AcDbLine
 10
-65.59410142499999
 20
24.4499998875
 30
0.0
 11
-67.09410131250002
 21
24.4499998875
 31
0.0
  0
LINE
  5
1100
330
22
100
AcDbEntity
  8
12
  6
CENTER
 48
4.0
100
AcDbLine
 10
154.1999997374998
 20
27.949999625
 30
0.0
 11
142.2000006374998
 21
27.949999625
 31
0.0
  0
LINE
  5
1101
330
22
100
AcDbEntity
  8
12
  6
CENTER
 48
4.0
100
AcDbLine
 10
154.1999997374998
 20
145.949990775
 30
0.0
 11
142.2000006374998
 21
145.949990775
 31
0.0
  0
LINE
  5
1102
330
22
100
AcDbEntity
  8
10
  6
Continuous
100
AcDbLine
 10
91.70000442500001
 20
150.9499903999999
 30
0.0
 11
91.70000442500001
 21
22.94999999999999
 31
0.0
  0
LINE
  5
1103
330
22
100
AcDbEntity
  8
10
  6
Continuous
100
AcDbLine
 10
150.6999999999998
 20
150.9499903999999
 30
0.0
 11
91.70000442500001
 21
150.9499903999999
 31
0.0
  0
LINE
  5
1104
330
22
100
AcDbEntity
  8
10
  6
Continuous
100
AcDbLine
 10
150.6999999999998
 20
36.94999894999998
 30
0.0
 11
150.6999999999998
 21
22.94999999999999
 31
0.0
  0
LINE
  5
1105
330
22
100
AcDbEntity
  8
10
  6
Continuous
100
AcDbLine
 10
150.6999999999998
 20
36.94999894999998
 30
0.0
 11
150.2000000374999
 21
36.94999894999998
 31
0.0
  0
LINE
  5
1106
330
22
100
AcDbEntity
  8
10
  6
Continuous
100
AcDbLine
 10
150.6999999999998
 20
150.9499903999999
 30
0.0
 11
150.6999999999998
 21
136.9499914499999
 31
0.0
  0
LINE
  5
1107
330
22
100
AcDbEntity
  8
10
  6
Continuous
100
AcDbLine
 10
150.6999999999998
 20
136.9499914499999
 30
0.0
 11
150.2000000374999
 21
136.9499914499999
 31
0.0
  0
LINE
  5
1108
330
22
100
AcDbEntity
  8
10
  6
Continuous
100
AcDbLine
 10
145.7000003749999
 20
33.94999917499998
 30
0.0
 11
145.7000003749999
 21
22.94999999999999
 31
0.0
  0
ARC
  5
1109
330
22
100
AcDbEntity
  8
10
  6
Continuous
100
AcDbCircle
 10
143.7000005249998
 20
33.94999917499998
 30
0.0
 40
1.999999850000003
100
AcDbArc
 50
0.0
 51
90.0
  0
LINE
  5
110A
330
22
100
AcDbEntity
  8
10
  6
Continuous
100
AcDbLine
 10
145.7000003749999
 20
150.9499903999999
 30
0.0
 11
145.7000003749999
 21
139.949991225
 31
0.0
  0
ARC
  5
110B
330
22
100
AcDbEntity
  8
10
  6
Continuous
100
AcDbCircle
 10
143.7000005249998
 20
139.949991225
 30
0.0
 40
1.999999849999986
100
AcDbArc
 50
270.0
 51
0.0
  0
LINE
  5
110C
330
22
100
AcDbEntity
  8
10
  6
Continuous
100
AcDbLine
 10
150.2000000374999
 20
136.9499914499999
 30
0.0
 11
150.2000000374999
 21
36.94999894999998
 31
0.0
  0
LINE
  5
110D
330
22
100
AcDbEntity
  8
10
  6
Continuous
100
AcDbLine
 10
143.7000005249998
 20
137.9499913749999
 30
0.0
 11
140.7000007499999
 21
137.9499913749999
 31
0.0
  0
LINE
  5
110E
330
22
100
AcDbEntity
  8
10
  6
Continuous
100
AcDbLine
 10
139.7000008249999
 20
136.9499914499999
 30
0.0
 11
139.7000008249999
 21
136.4499914875
 31
0.0
  0
ARC
  5
110F
330
22
100
AcDbEntity
  8
10
  6
Continuous
100
AcDbCircle
 10
140.7000007499999
 20
136.9499914499999
 30
0.0
 40
0.9999999250000104
100
AcDbArc
 50
90.0
 51
180.0
  0
LINE
  5
1110
330
22
100
AcDbEntity
  8
10
  6
Continuous
100
AcDbLine
 10
143.7000005249998
 20
35.94999902499999
 30
0.0
 11
140.7000007499999
 21
35.94999902499999
 31
0.0
  0
LINE
  5
1111
330
22
100
AcDbEntity
  8
10
  6
Continuous
100
AcDbLine
 10
139.7000008249999
 20
37.44999891249999
 30
0.0
 11
139.7000008249999
 21
36.94999894999998
 31
0.0
  0
ARC
  5
1112
330
22
100
AcDbEntity
  8
10
  6
Continuous
100
AcDbCircle
 10
140.7000007499999
 20
36.94999894999998
 30
0.0
 40
0.9999999250000104
100
AcDbArc
 50
180.0
 51
270.0
  0
LINE
  5
1113
330
22
100
AcDbEntity
  8
10
  6
Continuous
100
AcDbLine
 10
95.700004125
 20
144.2519718662883
 30
0.0
 11
95.700004125
 21
136.4499914875
 31
0.0
  0
LINE
  5
1114
330
22
100
AcDbEntity
  8
10
  6
Continuous
100
AcDbLine
 10
139.7000008249999
 20
136.4499914875
 30
0.0
 11
95.700004125
 21
136.4499914875
 31
0.0
  0
LINE
  5
1115
330
22
100
AcDbEntity
  8
10
  6
Continuous
 62
     4
100
AcDbLine
 10
91.70000442500001
 20
144.2519718662883
 30
0.0
 11
95.700004125
 21
144.2519718662883
 31
0.0
  0
LINE
  5
1116
330
22
100
AcDbEntity
  8
10
  6
Continuous
 62
     4
100
AcDbLine
 10
91.70000442500001
 20
141.3541946047544
 30
0.0
 11
95.700004125
 21
141.3541946047544
 31
0.0
  0
LINE
  5
1117
330
22
100
AcDbEntity
  8
10
  6
Continuous
100
AcDbLine
 10
95.700004125
 20
37.44999891249999
 30
0.0
 11
95.700004125
 21
27.949999625
 31
0.0
  0
LINE
  5
1118
330
22
100
AcDbEntity
  8
10
  6
Continuous
100
AcDbLine
 10
139.7000008249999
 20
37.44999891249999
 30
0.0
 11
95.700004125
 21
37.44999891249999
 31
0.0
  0
LINE
  5
1119
330
22
100
AcDbEntity
  8
10
  6
Continuous
100
AcDbLine
 10
95.700004125
 20
32.94999924999999
 30
0.0
 11
91.70000442500001
 21
32.94999924999999
 31
0.0
  0
LINE
  5
111A
330
22
100
AcDbEntity
  8
10
  6
Continuous
 62
     4
100
AcDbLine
 10
91.70000442500001
 20
27.949999625
 30
0.0
 11
95.700004125
 21
27.949999625
 31
0.0
  0
LINE
  5
111B
330
22
100
AcDbEntity
  8
10
  6
Continuous
100
AcDbLine
 10
150.6999999999998
 20
22.94999999999999
 30
0.0
 11
91.70000442500001
 21
22.94999999999999
 31
0.0
  0
LINE
  5
111C
330
22
100
AcDbEntity
  8
10
  6
Continuous
100
AcDbLine
 10
150.6999999999998
 20
24.44999988749999
 30
0.0
 11
145.7000003749999
 21
24.44999988749999
 31
0.0
  0
LINE
  5
111D
330
22
100
AcDbEntity
  8
10
  6
Continuous
100
AcDbLine
 10
91.70000442500001
 20
139.2011490027309
 30
0.0
 11
95.700004125
 21
139.2011490027309
 31
0.0
  0
LINE
  5
11F4
330
22
100
AcDbEntity
  8
11
  6
Continuous
100
AcDbLine
 10
-93.13454043076104
 20
134.3580016642816
 30
0.0
 11
-93.35512875468749
 21
134.2328452430799
 31
0.0
  0
LINE
  5
11F5
330
22
100
AcDbEntity
  8
11
  6
Continuous
100
AcDbLine
 10
-91.92130543798901
 20
131.6671382788022
 30
0.0
 11
-92.14189344638604
 21
131.5419818410125
 31
0.0
  0
LINE
  5
11F6
330
22
100
AcDbEntity
  8
11
  6
Continuous
100
AcDbLine
 10
-93.24483475048898
 20
133.8573759793578
 30
0.0
 11
-93.07939358642649
 21
133.9825324005593
 31
0.0
  0
LINE
  5
11F7
330
22
100
AcDbEntity
  8
11
  6
Continuous
100
AcDbLine
 10
-92.03159944218748
 20
132.042607608289
 30
0.0
 11
-92.19704060624996
 21
131.9174511432052
 31
0.0
  0
LINE
  5
11F8
330
22
100
AcDbEntity
  8
11
  6
Continuous
100
AcDbLine
 10
-93.35512875468749
 20
134.2328452430799
 30
0.0
 11
-93.57571707861401
 21
133.9825324005593
 31
0.0
  0
LINE
  5
11F9
330
22
100
AcDbEntity
  8
11
  6
Continuous
100
AcDbLine
 10
-91.70071711406249
 20
131.9174511432052
 30
0.0
 11
-91.92130543798901
 21
131.6671382788022
 31
0.0
  0
LINE
  5
11FA
330
22
100
AcDbEntity
  8
11
  6
Continuous
100
AcDbLine
 10
-93.35512875468749
 20
133.6696411721439
 30
0.0
 11
-93.24483475048898
 21
133.8573759793578
 31
0.0
  0
LINE
  5
11FB
330
22
100
AcDbEntity
  8
11
  6
Continuous
100
AcDbLine
 10
-91.92130543798901
 20
132.2303422400913
 30
0.0
 11
-92.03159944218748
 21
132.042607608289
 31
0.0
  0
LINE
  5
11FC
330
22
100
AcDbEntity
  8
11
  6
Continuous
100
AcDbLine
 10
-93.57571707861401
 20
133.9825324005593
 30
0.0
 11
-93.68601108281248
 21
133.7322195580388
 31
0.0
  0
LINE
  5
11FD
330
22
100
AcDbEntity
  8
11
  6
Continuous
100
AcDbLine
 10
-91.59042310986398
 20
132.1677640294905
 30
0.0
 11
-91.70071711406249
 21
131.9174511432052
 31
0.0
  0
LINE
  5
11FE
330
22
100
AcDbEntity
  8
11
  6
Continuous
100
AcDbLine
 10
-94.67865806718748
 20
134.4205798749999
 30
0.0
 11
-95.50586388749996
 21
131.792294721886
 31
0.0
  0
LINE
  5
11FF
330
22
100
AcDbEntity
  8
11
  6
Continuous
100
AcDbLine
 10
-94.51321690312495
 20
133.7947977687572
 30
0.0
 11
-95.28527572133823
 21
131.479403625
 31
0.0
  0
LINE
  5
1200
330
22
100
AcDbEntity
  8
11
  6
Continuous
100
AcDbLine
 10
-93.68601108281248
 20
133.7322195580388
 30
0.0
 11
-93.74115824267649
 21
133.4193283296233
 31
0.0
  0
LINE
  5
1201
330
22
100
AcDbEntity
  8
11
  6
Continuous
100
AcDbLine
 10
-93.4102759145515
 20
133.4193283296233
 30
0.0
 11
-93.35512875468749
 21
133.6696411721439
 31
0.0
  0
LINE
  5
1202
330
22
100
AcDbEntity
  8
11
  6
Continuous
100
AcDbLine
 10
-91.86615827812495
 20
132.4806550826119
 30
0.0
 11
-91.92130543798901
 21
132.2303422400913
 31
0.0
  0
LINE
  5
1203
330
22
100
AcDbEntity
  8
11
  6
Continuous
100
AcDbLine
 10
-96.82939319999995
 20
134.4205798749999
 30
0.0
 11
-96.82939319999995
 21
131.479403625
 31
0.0
  0
LINE
  5
1204
330
22
100
AcDbEntity
  8
11
  6
Continuous
100
AcDbLine
 10
-96.49851087187499
 20
133.7947977687572
 30
0.0
 11
-96.49851087187499
 21
131.479403625
 31
0.0
  0
LINE
  5
1205
330
22
100
AcDbEntity
  8
11
  6
Continuous
100
AcDbLine
 10
-91.53527594999998
 20
132.4806550826119
 30
0.0
 11
-91.59042310986398
 21
132.1677640294905
 31
0.0
  0
LINE
  5
1206
330
22
100
AcDbEntity
  8
11
  6
Continuous
100
AcDbLine
 10
-94.51321690312495
 20
133.7947977687572
 30
0.0
 11
-94.51321690312495
 21
131.479403625
 31
0.0
  0
LINE
  5
1207
330
22
100
AcDbEntity
  8
11
  6
Continuous
100
AcDbLine
 10
-94.18233457499995
 20
134.4205798749999
 30
0.0
 11
-94.18233457499995
 21
131.479403625
 31
0.0
  0
LINE
  5
1208
330
22
100
AcDbEntity
  8
11
  6
Continuous
100
AcDbLine
 10
-93.74115824267649
 20
133.4193283296233
 30
0.0
 11
-93.74115824267649
 21
132.4806550826119
 31
0.0
  0
LINE
  5
1209
330
22
100
AcDbEntity
  8
11
  6
Continuous
100
AcDbLine
 10
-93.4102759145515
 20
132.4806550826119
 30
0.0
 11
-93.4102759145515
 21
133.4193283296233
 31
0.0
  0
LINE
  5
120A
330
22
100
AcDbEntity
  8
11
  6
Continuous
100
AcDbLine
 10
-91.86615827812495
 20
133.4193283296233
 30
0.0
 11
-91.86615827812495
 21
132.4806550826119
 31
0.0
  0
LINE
  5
120B
330
22
100
AcDbEntity
  8
11
  6
Continuous
100
AcDbLine
 10
-91.53527594999998
 20
133.4193283296233
 30
0.0
 11
-91.53527594999998
 21
132.4806550826119
 31
0.0
  0
LINE
  5
120C
330
22
100
AcDbEntity
  8
11
  6
Continuous
100
AcDbLine
 10
-91.09409930214708
 20
134.4205798749999
 30
0.0
 11
-91.09409930214708
 21
131.479403625
 31
0.0
  0
LINE
  5
120D
330
22
100
AcDbEntity
  8
11
  6
Continuous
100
AcDbLine
 10
-90.76321697402208
 20
134.04511061116
 30
0.0
 11
-90.76321697402208
 21
131.479403625
 31
0.0
  0
LINE
  5
120E
330
22
100
AcDbEntity
  8
11
  6
Continuous
100
AcDbLine
 10
-89.21909965312496
 20
134.4205798749999
 30
0.0
 11
-89.21909965312496
 21
131.9174511432052
 31
0.0
  0
LINE
  5
120F
330
22
100
AcDbEntity
  8
11
  6
Continuous
100
AcDbLine
 10
-88.88821732499996
 20
134.4205798749999
 30
0.0
 11
-88.88821732499996
 21
131.479403625
 31
0.0
  0
LINE
  5
1210
330
22
100
AcDbEntity
  8
11
  6
Continuous
100
AcDbLine
 10
-93.74115824267649
 20
132.4806550826119
 30
0.0
 11
-93.68601108281248
 21
132.1677640294905
 31
0.0
  0
LINE
  5
1211
330
22
100
AcDbEntity
  8
11
  6
Continuous
100
AcDbLine
 10
-96.49851087187499
 20
133.7947977687572
 30
0.0
 11
-95.72645213260296
 21
131.479403625
 31
0.0
  0
LINE
  5
1212
330
22
100
AcDbEntity
  8
11
  6
Continuous
100
AcDbLine
 10
-96.33306970781248
 20
134.4205798749999
 30
0.0
 11
-95.50586388749996
 21
131.792294721886
 31
0.0
  0
LINE
  5
1213
330
22
100
AcDbEntity
  8
11
  6
Continuous
100
AcDbLine
 10
-93.35512875468749
 20
132.2303422400913
 30
0.0
 11
-93.4102759145515
 21
132.4806550826119
 31
0.0
  0
LINE
  5
1214
330
22
100
AcDbEntity
  8
11
  6
Continuous
100
AcDbLine
 10
-91.92130543798901
 20
133.6696411721439
 30
0.0
 11
-91.86615827812495
 21
133.4193283296233
 31
0.0
  0
LINE
  5
1215
330
22
100
AcDbEntity
  8
11
  6
Continuous
100
AcDbLine
 10
-91.59042310986398
 20
133.7322195580388
 30
0.0
 11
-91.53527594999998
 21
133.4193283296233
 31
0.0
  0
LINE
  5
1216
330
22
100
AcDbEntity
  8
11
  6
Continuous
100
AcDbLine
 10
-93.68601108281248
 20
132.1677640294905
 30
0.0
 11
-93.57571707861401
 21
131.9174511432052
 31
0.0
  0
LINE
  5
1217
330
22
100
AcDbEntity
  8
11
  6
Continuous
100
AcDbLine
 10
-92.19704060624996
 20
131.9174511432052
 30
0.0
 11
-92.41762893017648
 21
131.8548729324868
 31
0.0
  0
LINE
  5
1218
330
22
100
AcDbEntity
  8
11
  6
Continuous
100
AcDbLine
 10
-93.24483475048898
 20
132.042607608289
 30
0.0
 11
-93.35512875468749
 21
132.2303422400913
 31
0.0
  0
LINE
  5
1219
330
22
100
AcDbEntity
  8
11
  6
Continuous
100
AcDbLine
 10
-90.76321697402208
 20
134.04511061116
 30
0.0
 11
-89.38454081718749
 21
131.479403625
 31
0.0
  0
LINE
  5
121A
330
22
100
AcDbEntity
  8
11
  6
Continuous
100
AcDbLine
 10
-91.70071711406249
 20
133.9825324005593
 30
0.0
 11
-91.59042310986398
 21
133.7322195580388
 31
0.0
  0
LINE
  5
121B
330
22
100
AcDbEntity
  8
11
  6
Continuous
100
AcDbLine
 10
-93.07939358642649
 20
133.9825324005593
 30
0.0
 11
-92.85880526249995
 21
134.04511061116
 31
0.0
  0
LINE
  5
121C
330
22
100
AcDbEntity
  8
11
  6
Continuous
100
AcDbLine
 10
-92.14189344638604
 20
131.5419818410125
 30
0.0
 11
-92.41762893017648
 21
131.479403625
 31
0.0
  0
LINE
  5
121D
330
22
100
AcDbEntity
  8
11
  6
Continuous
100
AcDbLine
 10
-92.85880526249995
 20
134.4205798749999
 30
0.0
 11
-93.13454043076104
 21
134.3580016642816
 31
0.0
  0
LINE
  5
121E
330
22
100
AcDbEntity
  8
11
  6
Continuous
100
AcDbLine
 10
-93.57571707861401
 20
131.9174511432052
 30
0.0
 11
-93.35512875468749
 21
131.6671382788022
 31
0.0
  0
LINE
  5
121F
330
22
100
AcDbEntity
  8
11
  6
Continuous
100
AcDbLine
 10
-92.03159944218748
 20
133.8573759793578
 30
0.0
 11
-91.92130543798901
 21
133.6696411721439
 31
0.0
  0
LINE
  5
1220
330
22
100
AcDbEntity
  8
11
  6
Continuous
100
AcDbLine
 10
-90.59777580995961
 20
134.4205798749999
 30
0.0
 11
-89.21909965312496
 21
131.9174511432052
 31
0.0
  0
LINE
  5
1221
330
22
100
AcDbEntity
  8
11
  6
Continuous
100
AcDbLine
 10
-88.88821732499996
 20
131.479403625
 30
0.0
 11
-89.38454081718749
 21
131.479403625
 31
0.0
  0
LINE
  5
1222
330
22
100
AcDbEntity
  8
11
  6
Continuous
100
AcDbLine
 10
-90.76321697402208
 20
131.479403625
 30
0.0
 11
-91.09409930214708
 21
131.479403625
 31
0.0
  0
LINE
  5
1223
330
22
100
AcDbEntity
  8
11
  6
Continuous
100
AcDbLine
 10
-92.41762893017648
 20
131.479403625
 30
0.0
 11
-92.85880526249995
 21
131.479403625
 31
0.0
  0
LINE
  5
1224
330
22
100
AcDbEntity
  8
11
  6
Continuous
100
AcDbLine
 10
-94.18233457499995
 20
131.479403625
 30
0.0
 11
-94.51321690312495
 21
131.479403625
 31
0.0
  0
LINE
  5
1225
330
22
100
AcDbEntity
  8
11
  6
Continuous
100
AcDbLine
 10
-95.28527572133823
 20
131.479403625
 30
0.0
 11
-95.72645213260296
 21
131.479403625
 31
0.0
  0
LINE
  5
1226
330
22
100
AcDbEntity
  8
11
  6
Continuous
100
AcDbLine
 10
-96.49851087187499
 20
131.479403625
 30
0.0
 11
-96.82939319999995
 21
131.479403625
 31
0.0
  0
LINE
  5
1227
330
22
100
AcDbEntity
  8
11
  6
Continuous
100
AcDbLine
 10
-92.41762893017648
 20
131.8548729324868
 30
0.0
 11
-92.85880526249995
 21
131.8548729324868
 31
0.0
  0
LINE
  5
1228
330
22
100
AcDbEntity
  8
11
  6
Continuous
100
AcDbLine
 10
-92.85880526249995
 20
134.04511061116
 30
0.0
 11
-92.41762893017648
 21
134.04511061116
 31
0.0
  0
LINE
  5
1229
330
22
100
AcDbEntity
  8
11
  6
Continuous
100
AcDbLine
 10
-88.88821732499996
 20
134.4205798749999
 30
0.0
 11
-89.21909965312496
 21
134.4205798749999
 31
0.0
  0
LINE
  5
122A
330
22
100
AcDbEntity
  8
11
  6
Continuous
100
AcDbLine
 10
-90.59777580995961
 20
134.4205798749999
 30
0.0
 11
-91.09409930214708
 21
134.4205798749999
 31
0.0
  0
LINE
  5
122B
330
22
100
AcDbEntity
  8
11
  6
Continuous
100
AcDbLine
 10
-92.41762893017648
 20
134.4205798749999
 30
0.0
 11
-92.85880526249995
 21
134.4205798749999
 31
0.0
  0
LINE
  5
122C
330
22
100
AcDbEntity
  8
11
  6
Continuous
100
AcDbLine
 10
-94.18233457499995
 20
134.4205798749999
 30
0.0
 11
-94.67865806718748
 21
134.4205798749999
 31
0.0
  0
LINE
  5
122D
330
22
100
AcDbEntity
  8
11
  6
Continuous
100
AcDbLine
 10
-96.33306970781248
 20
134.4205798749999
 30
0.0
 11
-96.82939319999995
 21
134.4205798749999
 31
0.0
  0
LINE
  5
122E
330
22
100
AcDbEntity
  8
11
  6
Continuous
100
AcDbLine
 10
-92.85880526249995
 20
131.479403625
 30
0.0
 11
-93.13454043076104
 21
131.5419818410125
 31
0.0
  0
LINE
  5
122F
330
22
100
AcDbEntity
  8
11
  6
Continuous
100
AcDbLine
 10
-92.85880526249995
 20
131.8548729324868
 30
0.0
 11
-93.07939358642649
 21
131.9174511432052
 31
0.0
  0
LINE
  5
1230
330
22
100
AcDbEntity
  8
11
  6
Continuous
100
AcDbLine
 10
-93.13454043076104
 20
131.5419818410125
 30
0.0
 11
-93.35512875468749
 21
131.6671382788022
 31
0.0
  0
LINE
  5
1231
330
22
100
AcDbEntity
  8
11
  6
Continuous
100
AcDbLine
 10
-93.07939358642649
 20
131.9174511432052
 30
0.0
 11
-93.24483475048898
 21
132.042607608289
 31
0.0
  0
LINE
  5
1232
330
22
100
AcDbEntity
  8
11
  6
Continuous
100
AcDbLine
 10
-92.19704060624996
 20
133.9825324005593
 30
0.0
 11
-92.03159944218748
 21
133.8573759793578
 31
0.0
  0
LINE
  5
1233
330
22
100
AcDbEntity
  8
11
  6
Continuous
100
AcDbLine
 10
-91.92130543798901
 20
134.2328452430799
 30
0.0
 11
-91.70071711406249
 21
133.9825324005593
 31
0.0
  0
LINE
  5
1234
330
22
100
AcDbEntity
  8
11
  6
Continuous
100
AcDbLine
 10
-92.14189344638604
 20
134.3580016642816
 30
0.0
 11
-92.41762893017648
 21
134.4205798749999
 31
0.0
  0
LINE
  5
1235
330
22
100
AcDbEntity
  8
11
  6
Continuous
100
AcDbLine
 10
-92.41762893017648
 20
134.04511061116
 30
0.0
 11
-92.19704060624996
 21
133.9825324005593
 31
0.0
  0
LINE
  5
1236
330
22
100
AcDbEntity
  8
11
  6
Continuous
100
AcDbLine
 10
-91.92130543798901
 20
134.2328452430799
 30
0.0
 11
-92.14189344638604
 21
134.3580016642816
 31
0.0
  0
LINE
  5
1247
330
22
100
AcDbEntity
  8
11
  6
Continuous
100
AcDbLine
 10
-92.84366648057659
 20
124.2298370694234
 30
0.0
 11
-95.29162063156823
 21
121.7818829184317
 31
0.0
  0
LINE
  5
1248
330
22
100
AcDbEntity
  8
11
  6
Continuous
100
AcDbLine
 10
-95.29162063156823
 20
120.9499926499999
 30
0.0
 11
-92.88821702499999
 21
123.3533962565682
 31
0.0
  0
LINE
  5
1249
330
22
100
AcDbEntity
  8
11
  6
Continuous
100
AcDbLine
 10
-95.29162063156823
 20
121.7818829184317
 30
0.0
 11
-95.29162063156823
 21
120.9499926499999
 31
0.0
  0
LINE
  5
124A
330
22
100
AcDbEntity
  8
11
  6
Continuous
100
AcDbLine
 10
-92.88821702499999
 20
123.3533962565682
 30
0.0
 11
-92.88821702499999
 21
117.42058115
 31
0.0
  0
LINE
  5
124B
330
22
100
AcDbEntity
  8
11
  6
Continuous
100
AcDbLine
 10
-92.29998177499998
 20
117.42058115
 30
0.0
 11
-92.29998177499998
 21
123.3533962565682
 31
0.0
  0
LINE
  5
124C
330
22
100
AcDbEntity
  8
11
  6
Continuous
100
AcDbLine
 10
-89.89657816843175
 20
120.9499926499999
 30
0.0
 11
-89.89657816843175
 21
121.7818829184317
 31
0.0
  0
LINE
  5
124D
330
22
100
AcDbEntity
  8
11
  6
Continuous
100
AcDbLine
 10
-92.88821702499999
 20
117.42058115
 30
0.0
 11
-92.29998177499998
 21
117.42058115
 31
0.0
  0
LINE
  5
124E
330
22
100
AcDbEntity
  8
11
  6
Continuous
100
AcDbLine
 10
-92.29998177499998
 20
123.3533962565682
 30
0.0
 11
-89.89657816843175
 21
120.9499926499999
 31
0.0
  0
LINE
  5
124F
330
22
100
AcDbEntity
  8
11
  6
Continuous
100
AcDbLine
 10
-92.34453231954105
 20
124.2298370694234
 30
0.0
 11
-89.89657816843175
 21
121.7818829184317
 31
0.0
  0
ARC
  5
1251
330
22
100
AcDbEntity
  8
11
  6
Continuous
100
AcDbCircle
 10
-92.59409939999995
 20
123.9802699889644
 30
0.0
 40
0.35294115
100
AcDbArc
 50
45.00000000000015
 51
134.9999999999998
  0
LINE
  5
1265
330
22
100
AcDbEntity
  8
11
  6
Continuous
100
AcDbLine
 10
-89.89657816843175
 20
109.949993475
 30
0.0
 11
-92.29998177499998
 21
107.5465898684317
 31
0.0
  0
LINE
  5
1266
330
22
100
AcDbEntity
  8
11
  6
Continuous
100
AcDbLine
 10
-92.34453231954105
 20
106.6701490554589
 30
0.0
 11
-89.89657816843175
 21
109.1181032065682
 31
0.0
  0
LINE
  5
1267
330
22
100
AcDbEntity
  8
11
  6
Continuous
100
AcDbLine
 10
-95.29162063156823
 20
109.949993475
 30
0.0
 11
-95.29162063156823
 21
109.1181032065682
 31
0.0
  0
LINE
  5
1268
330
22
100
AcDbEntity
  8
11
  6
Continuous
100
AcDbLine
 10
-92.88821702499999
 20
113.4794049749999
 30
0.0
 11
-92.88821702499999
 21
107.5465898684317
 31
0.0
  0
LINE
  5
1269
330
22
100
AcDbEntity
  8
11
  6
Continuous
100
AcDbLine
 10
-92.29998177499998
 20
107.5465898684317
 30
0.0
 11
-92.29998177499998
 21
113.4794049749999
 31
0.0
  0
LINE
  5
126A
330
22
100
AcDbEntity
  8
11
  6
Continuous
100
AcDbLine
 10
-89.89657816843175
 20
109.1181032065682
 30
0.0
 11
-89.89657816843175
 21
109.949993475
 31
0.0
  0
LINE
  5
126B
330
22
100
AcDbEntity
  8
11
  6
Continuous
100
AcDbLine
 10
-92.29998177499998
 20
113.4794049749999
 30
0.0
 11
-92.88821702499999
 21
113.4794049749999
 31
0.0
  0
LINE
  5
126C
330
22
100
AcDbEntity
  8
11
  6
Continuous
100
AcDbLine
 10
-95.29162063156823
 20
109.1181032065682
 30
0.0
 11
-92.84366648057659
 21
106.6701490554589
 31
0.0
  0
LINE
  5
126D
330
22
100
AcDbEntity
  8
11
  6
Continuous
100
AcDbLine
 10
-92.88821702499999
 20
107.5465898684317
 30
0.0
 11
-95.29162063156823
 21
109.949993475
 31
0.0
  0
ARC
  5
126F
330
22
100
AcDbEntity
  8
11
  6
Continuous
100
AcDbCircle
 10
-92.59409939999995
 20
106.9197161360355
 30
0.0
 40
0.35294115
100
AcDbArc
 50
225.0000000000001
 51
314.9999999999998
  0
LINE
  5
12A5
330
22
100
AcDbEntity
  8
11
  6
Continuous
100
AcDbLine
 10
-99.21909895394856
 20
97.73159636032101
 30
0.0
 11
-99.37902541254224
 21
97.66901814960263
 31
0.0
  0
LINE
  5
12A6
330
22
100
AcDbEntity
  8
11
  6
Continuous
100
AcDbLine
 10
-97.61983421554042
 20
97.91933099212329
 30
0.0
 11
-97.77976067413419
 21
97.85675278152252
 31
0.0
  0
LINE
  5
12A9
330
22
100
AcDbEntity
  8
11
  6
Continuous
100
AcDbLine
 10
-98.95255480546872
 20
97.54386172840108
 30
0.0
 11
-99.1657900327702
 21
97.35612709648123
 31
0.0
  0
LINE
  5
12AA
330
22
100
AcDbEntity
  8
11
  6
Continuous
100
AcDbLine
 10
-97.77976067413419
 20
97.85675278152252
 30
0.0
 11
-97.93968713272796
 21
97.73159636032101
 31
0.0
  0
LINE
  5
12AB
330
22
100
AcDbEntity
  8
11
  6
Continuous
100
AcDbLine
 10
-97.67314313671874
 20
97.60643993900185
 30
0.0
 11
-97.88637851649085
 21
97.48128351780035
 31
0.0
  0
LINE
  5
12AC
330
22
100
AcDbEntity
  8
11
  6
Continuous
100
AcDbLine
 10
-98.79262834687498
 20
97.79417457092177
 30
0.0
 11
-98.95255480546872
 21
97.54386172840108
 31
0.0
  0
LINE
  5
12AD
330
22
100
AcDbEntity
  8
11
  6
Continuous
100
AcDbLine
 10
-97.88637851649085
 20
97.48128351780035
 30
0.0
 11
-98.04630497508457
 21
97.23097067527971
 31
0.0
  0
LINE
  5
12AE
330
22
100
AcDbEntity
  8
11
  6
Continuous
100
AcDbLine
 10
-99.11248126406249
 20
97.85675278152252
 30
0.0
 11
-99.21909895394856
 21
97.73159636032101
 31
0.0
  0
LINE
  5
12AF
330
22
100
AcDbEntity
  8
11
  6
Continuous
100
AcDbLine
 10
-97.93968713272796
 20
97.73159636032101
 30
0.0
 11
-98.04630497508457
 21
97.60643993900185
 31
0.0
  0
LINE
  5
12B0
330
22
100
AcDbEntity
  8
11
  6
Continuous
100
AcDbLine
 10
-100.71174585
 20
98.92058253749997
 30
0.0
 11
-100.71174585
 21
95.97940628749995
 31
0.0
  0
LINE
  5
12B1
330
22
100
AcDbEntity
  8
11
  6
Continuous
100
AcDbLine
 10
-99.05917249535477
 20
98.04448741344245
 30
0.0
 11
-99.11248126406249
 21
97.85675278152252
 31
0.0
  0
LINE
  5
12B2
330
22
100
AcDbEntity
  8
11
  6
Continuous
100
AcDbLine
 10
-98.73931957816727
 20
97.981909202724
 30
0.0
 11
-98.79262834687498
 21
97.79417457092177
 31
0.0
  0
LINE
  5
12B3
330
22
100
AcDbEntity
  8
11
  6
Continuous
100
AcDbLine
 10
-99.1657900327702
 20
97.35612709648123
 30
0.0
 11
-99.43233418125002
 21
97.29354888588046
 31
0.0
  0
LINE
  5
12B4
330
22
100
AcDbEntity
  8
11
  6
Continuous
100
AcDbLine
 10
-97.35329021953123
 20
97.981909202724
 30
0.0
 11
-97.61983421554042
 21
97.91933099212329
 31
0.0
  0
LINE
  5
12B5
330
22
100
AcDbEntity
  8
11
  6
Continuous
100
AcDbLine
 10
-97.35329021953123
 20
97.66901814960263
 30
0.0
 11
-97.67314313671874
 21
97.60643993900185
 31
0.0
  0
LINE
  5
12B6
330
22
100
AcDbEntity
  8
11
  6
Continuous
100
AcDbLine
 10
-98.04630497508457
 20
95.97940628749995
 30
0.0
 11
-98.31284897109371
 21
95.97940628749995
 31
0.0
  0
LINE
  5
12B7
330
22
100
AcDbEntity
  8
11
  6
Continuous
100
AcDbLine
 10
-100.3918929328124
 20
95.97940628749995
 30
0.0
 11
-100.71174585
 21
95.97940628749995
 31
0.0
  0
LINE
  5
12B8
330
22
100
AcDbEntity
  8
11
  6
Continuous
100
AcDbLine
 10
-99.43233418125002
 20
97.29354888588046
 30
0.0
 11
-100.3918929328124
 21
97.29354888588046
 31
0.0
  0
LINE
  5
12B9
330
22
100
AcDbEntity
  8
11
  6
Continuous
100
AcDbLine
 10
-100.3918929328124
 20
98.6076914843786
 30
0.0
 11
-100.3918929328124
 21
97.66901814960263
 31
0.0
  0
LINE
  5
12BA
330
22
100
AcDbEntity
  8
11
  6
Continuous
100
AcDbLine
 10
-100.3918929328124
 20
97.29354888588046
 30
0.0
 11
-100.3918929328124
 21
95.97940628749995
 31
0.0
  0
LINE
  5
12BB
330
22
100
AcDbEntity
  8
11
  6
Continuous
100
AcDbLine
 10
-99.05917249535477
 20
98.23222222053878
 30
0.0
 11
-99.05917249535477
 21
98.04448741344245
 31
0.0
  0
LINE
  5
12BC
330
22
100
AcDbEntity
  8
11
  6
Continuous
100
AcDbLine
 10
-98.73931957816727
 20
98.23222222053878
 30
0.0
 11
-98.73931957816727
 21
97.981909202724
 31
0.0
  0
LINE
  5
12BD
330
22
100
AcDbEntity
  8
11
  6
Continuous
100
AcDbLine
 10
-98.31284897109371
 20
97.981909202724
 30
0.0
 11
-98.31284897109371
 21
95.97940628749995
 31
0.0
  0
LINE
  5
12BE
330
22
100
AcDbEntity
  8
11
  6
Continuous
100
AcDbLine
 10
-98.04630497508457
 20
97.981909202724
 30
0.0
 11
-98.04630497508457
 21
97.60643993900185
 31
0.0
  0
LINE
  5
12BF
330
22
100
AcDbEntity
  8
11
  6
Continuous
 62
     7
100
AcDbLine
 10
-98.04630497508457
 20
97.23097067527971
 30
0.0
 11
-98.04630497508457
 21
95.97940628749995
 31
0.0
  0
LINE
  5
12C0
330
22
100
AcDbEntity
  8
11
  6
Continuous
 62
     0
100
AcDbLine
 10
-97.35329021953123
 20
97.981909202724
 30
0.0
 11
-97.35329021953123
 21
97.66901814960263
 31
0.0
  0
LINE
  5
12C1
330
22
100
AcDbEntity
  8
11
  6
Continuous
100
AcDbLine
 10
-99.37902541254224
 20
97.66901814960263
 30
0.0
 11
-100.3918929328124
 21
97.66901814960263
 31
0.0
  0
LINE
  5
12C2
330
22
100
AcDbEntity
  8
11
  6
Continuous
100
AcDbLine
 10
-98.04630497508457
 20
97.981909202724
 30
0.0
 11
-98.31284897109371
 21
97.981909202724
 31
0.0
  0
LINE
  5
12C3
330
22
100
AcDbEntity
  8
11
  6
Continuous
100
AcDbLine
 10
-99.37902541254224
 20
98.6076914843786
 30
0.0
 11
-100.3918929328124
 21
98.6076914843786
 31
0.0
  0
LINE
  5
12C4
330
22
100
AcDbEntity
  8
11
  6
Continuous
100
AcDbLine
 10
-99.43233418125002
 20
98.92058253749997
 30
0.0
 11
-100.71174585
 21
98.92058253749997
 31
0.0
  0
LINE
  5
12C5
330
22
100
AcDbEntity
  8
11
  6
Continuous
100
AcDbLine
 10
-99.1657900327702
 20
98.85800432678159
 30
0.0
 11
-99.43233418125002
 21
98.92058253749997
 31
0.0
  0
LINE
  5
12C6
330
22
100
AcDbEntity
  8
11
  6
Continuous
100
AcDbLine
 10
-99.21909895394856
 20
98.54511327366017
 30
0.0
 11
-99.37902541254224
 21
98.6076914843786
 31
0.0
  0
LINE
  5
12C7
330
22
100
AcDbEntity
  8
11
  6
Continuous
100
AcDbLine
 10
-99.11248126406249
 20
98.41995685245869
 30
0.0
 11
-99.05917249535477
 21
98.23222222053878
 31
0.0
  0
LINE
  5
12C8
330
22
100
AcDbEntity
  8
11
  6
Continuous
100
AcDbLine
 10
-98.79262834687498
 20
98.41995685245869
 30
0.0
 11
-98.73931957816727
 21
98.23222222053878
 31
0.0
  0
LINE
  5
12CC
330
22
100
AcDbEntity
  8
11
  6
Continuous
100
AcDbLine
 10
-98.95255480546872
 20
98.67026969497937
 30
0.0
 11
-99.1657900327702
 21
98.85800432678159
 31
0.0
  0
LINE
  5
12CD
330
22
100
AcDbEntity
  8
11
  6
Continuous
100
AcDbLine
 10
-99.21909895394856
 20
98.54511327366017
 30
0.0
 11
-99.11248126406249
 21
98.41995685245869
 31
0.0
  0
LINE
  5
12CE
330
22
100
AcDbEntity
  8
11
  6
Continuous
100
AcDbLine
 10
-98.95255480546872
 20
98.67026969497937
 30
0.0
 11
-98.79262834687498
 21
98.41995685245869
 31
0.0
  0
LINE
  5
1399
330
22
100
AcDbEntity
  8
11
  6
Continuous
100
AcDbLine
 10
-88.52743301850003
 20
100.4499941874999
 30
0.0
 11
-88.69409969249998
 21
100.3968027083893
 31
0.0
  0
LINE
  5
139A
330
22
100
AcDbEntity
  8
11
  6
Continuous
100
AcDbLine
 10
-88.69409969249998
 20
100.3968027083893
 30
0.0
 11
-88.86076633670002
 21
100.290419750368
 31
0.0
  0
LINE
  5
139B
330
22
100
AcDbEntity
  8
11
  6
Continuous
100
AcDbLine
 10
-88.65243300912501
 20
100.0776538342255
 30
0.0
 11
-88.52743301850003
 21
100.1308453132361
 31
0.0
  0
LINE
  5
139C
330
22
100
AcDbEntity
  8
11
  6
Continuous
100
AcDbLine
 10
-86.68159996263751
 20
96.94999444999998
 30
0.0
 11
-86.80659983406249
 21
96.89680297088933
 31
0.0
  0
LINE
  5
139D
330
22
100
AcDbEntity
  8
11
  6
Continuous
100
AcDbLine
 10
-86.49409997670003
 20
94.44999463749995
 30
0.0
 11
-86.33784986921872
 21
94.50318612111059
 31
0.0
  0
LINE
  5
139E
330
22
100
AcDbEntity
  8
11
  6
Continuous
100
AcDbLine
 10
-88.11076636314998
 20
98.32233476547443
 30
0.0
 11
-88.27743303725
 21
98.26914328636378
 31
0.0
  0
LINE
  5
139F
330
22
100
AcDbEntity
  8
11
  6
Continuous
100
AcDbLine
 10
-88.77743302955
 20
99.97127087620429
 30
0.0
 11
-88.65243300912501
 21
100.0776538342255
 31
0.0
  0
LINE
  5
13A0
330
22
100
AcDbEntity
  8
11
  6
Continuous
100
AcDbLine
 10
-88.06909973937498
 20
98.00318585861059
 30
0.0
 11
-87.90243312497498
 21
98.10956883073188
 31
0.0
  0
LINE
  5
13A1
330
22
100
AcDbEntity
  8
11
  6
Continuous
100
AcDbLine
 10
-89.11909969042499
 20
95.93935619939784
 30
0.0
 11
-89.21284968339376
 21
95.88616472028723
 31
0.0
  0
LINE
  5
13A2
330
22
100
AcDbEntity
  8
11
  6
Continuous
100
AcDbLine
 10
-86.77534995560625
 20
96.57765409672553
 30
0.0
 11
-86.68159996263751
 21
96.63084557573611
 31
0.0
  0
LINE
  5
13A3
330
22
100
AcDbEntity
  8
11
  6
Continuous
100
AcDbLine
 10
-86.36909974767497
 20
94.82233502797448
 30
0.0
 11
-86.49409997670003
 21
94.7691435488638
 31
0.0
  0
LINE
  5
13A4
330
22
100
AcDbEntity
  8
11
  6
Continuous
100
AcDbLine
 10
-88.27743303725
 20
97.94999437499996
 30
0.0
 11
-88.06909973937498
 21
98.00318585861059
 31
0.0
  0
LINE
  5
13A5
330
22
100
AcDbEntity
  8
11
  6
Continuous
100
AcDbLine
 10
-88.86076633670002
 20
100.290419750368
 30
0.0
 11
-89.02743299589998
 21
100.0776538342255
 31
0.0
  0
LINE
  5
13A6
330
22
100
AcDbEntity
  8
11
  6
Continuous
100
AcDbLine
 10
-87.985766372525
 20
98.42871776079572
 30
0.0
 11
-88.11076636314998
 21
98.32233476547443
 31
0.0
  0
LINE
  5
13A7
330
22
100
AcDbEntity
  8
11
  6
Continuous
100
AcDbLine
 10
-89.08784963316875
 20
95.67339880424468
 30
0.0
 11
-88.96284967234377
 21
95.77978176226592
 31
0.0
  0
LINE
  5
13A8
330
22
100
AcDbEntity
  8
11
  6
Continuous
100
AcDbLine
 10
-86.80659983406249
 20
96.89680297088933
 30
0.0
 11
-86.93159970548748
 21
96.79042001286804
 31
0.0
  0
LINE
  5
13A9
330
22
100
AcDbEntity
  8
11
  6
Continuous
100
AcDbLine
 10
-86.33784986921872
 20
94.50318612111059
 30
0.0
 11
-86.21284999779375
 21
94.60956909323192
 31
0.0
  0
LINE
  5
13AA
330
22
100
AcDbEntity
  8
11
  6
Continuous
100
AcDbLine
 10
-83.71285006609374
 20
94.44999463749995
 30
0.0
 11
-83.90035005203122
 21
94.44999463749995
 31
0.0
  0
LINE
  5
13AB
330
22
100
AcDbEntity
  8
11
  6
Continuous
100
AcDbLine
 10
-84.65034999578127
 20
94.44999463749995
 30
0.0
 11
-85.77534991140623
 21
94.44999463749995
 31
0.0
  0
LINE
  5
13AC
330
22
100
AcDbEntity
  8
11
  6
Continuous
100
AcDbLine
 10
-87.43159972758752
 20
94.44999463749995
 30
0.0
 11
-88.55659973261252
 21
94.44999463749995
 31
0.0
  0
LINE
  5
13AD
330
22
100
AcDbEntity
  8
11
  6
Continuous
100
AcDbLine
 10
-89.99409959499997
 20
94.44999463749995
 30
0.0
 11
-89.80659960906249
 21
94.44999463749995
 31
0.0
  0
LINE
  5
13AE
330
22
100
AcDbEntity
  8
11
  6
Continuous
100
AcDbLine
 10
-89.02534969745628
 20
94.44999463749995
 30
0.0
 11
-88.8065996542625
 21
94.44999463749995
 31
0.0
  0
LINE
  5
13AF
330
22
100
AcDbEntity
  8
11
  6
Continuous
100
AcDbLine
 10
-86.74409971954998
 20
94.44999463749995
 30
0.0
 11
-86.49409997670003
 21
94.44999463749995
 31
0.0
  0
LINE
  5
13B0
330
22
100
AcDbEntity
  8
11
  6
Continuous
100
AcDbLine
 10
-84.65034999578127
 20
94.7691435488638
 30
0.0
 11
-85.58784992546874
 21
94.7691435488638
 31
0.0
  0
LINE
  5
13B1
330
22
100
AcDbEntity
  8
11
  6
Continuous
100
AcDbLine
 10
-86.49409997670003
 20
94.7691435488638
 30
0.0
 11
-86.74409971954998
 21
94.7691435488638
 31
0.0
  0
LINE
  5
13B2
330
22
100
AcDbEntity
  8
11
  6
Continuous
100
AcDbLine
 10
-87.43159972758752
 20
94.7691435488638
 30
0.0
 11
-88.36909965727501
 21
94.7691435488638
 31
0.0
  0
LINE
  5
13B3
330
22
100
AcDbEntity
  8
11
  6
Continuous
100
AcDbLine
 10
-86.99409982
 20
95.14148393933828
 30
0.0
 11
-87.18159980593748
 21
95.14148393933828
 31
0.0
  0
LINE
  5
13B4
330
22
100
AcDbEntity
  8
11
  6
Continuous
100
AcDbLine
 10
-89.80659960906249
 20
95.56701584612341
 30
0.0
 11
-89.27534966380623
 21
95.56701584612341
 31
0.0
  0
LINE
  5
13B5
330
22
100
AcDbEntity
  8
11
  6
Continuous
100
AcDbLine
 10
-86.68159996263751
 20
95.56701584612341
 30
0.0
 11
-86.49409997670003
 21
95.56701584612341
 31
0.0
  0
LINE
  5
13B6
330
22
100
AcDbEntity
  8
11
  6
Continuous
100
AcDbLine
 10
-84.77534986720627
 20
95.62020732513405
 30
0.0
 11
-85.58784992546874
 21
95.62020732513405
 31
0.0
  0
LINE
  5
13B7
330
22
100
AcDbEntity
  8
11
  6
Continuous
100
AcDbLine
 10
-87.55659977781247
 20
95.62020732513405
 30
0.0
 11
-88.36909965727501
 21
95.62020732513405
 31
0.0
  0
LINE
  5
13B8
330
22
100
AcDbEntity
  8
11
  6
Continuous
100
AcDbLine
 10
-86.49409997670003
 20
95.88616472028723
 30
0.0
 11
-86.68159996263751
 21
95.88616472028723
 31
0.0
  0
LINE
  5
13B9
330
22
100
AcDbEntity
  8
11
  6
Continuous
100
AcDbLine
 10
-89.21284968339376
 20
95.88616472028723
 30
0.0
 11
-89.80659960906249
 21
95.88616472028723
 31
0.0
  0
LINE
  5
13BA
330
22
100
AcDbEntity
  8
11
  6
Continuous
100
AcDbLine
 10
-84.77534986720627
 20
95.93935619939784
 30
0.0
 11
-85.58784992546874
 21
95.93935619939784
 31
0.0
  0
LINE
  5
13BB
330
22
100
AcDbEntity
  8
11
  6
Continuous
100
AcDbLine
 10
-87.55659977781247
 20
95.93935619939784
 30
0.0
 11
-88.36909965727501
 21
95.93935619939784
 31
0.0
  0
LINE
  5
13BC
330
22
100
AcDbEntity
  8
11
  6
Continuous
100
AcDbLine
 10
-86.30659999076252
 20
96.36488818058296
 30
0.0
 11
-86.11910000482501
 21
96.36488818058296
 31
0.0
  0
LINE
  5
13BD
330
22
100
AcDbEntity
  8
11
  6
Continuous
100
AcDbLine
 10
-84.65034999578127
 20
96.63084557573611
 30
0.0
 11
-85.58784992546874
 21
96.63084557573611
 31
0.0
  0
LINE
  5
13BE
330
22
100
AcDbEntity
  8
11
  6
Continuous
100
AcDbLine
 10
-87.43159972758752
 20
96.63084557573611
 30
0.0
 11
-88.36909965727501
 21
96.63084557573611
 31
0.0
  0
LINE
  5
13BF
330
22
100
AcDbEntity
  8
11
  6
Continuous
100
AcDbLine
 10
-86.68159996263751
 20
96.63084557573611
 30
0.0
 11
-86.49409997670003
 21
96.63084557573611
 31
0.0
  0
LINE
  5
13C0
330
22
100
AcDbEntity
  8
11
  6
Continuous
100
AcDbLine
 10
-83.21284986519376
 20
96.68403705484678
 30
0.0
 11
-83.71285006609374
 21
96.68403705484678
 31
0.0
  0
LINE
  5
13C1
330
22
100
AcDbEntity
  8
11
  6
Continuous
100
AcDbLine
 10
-83.90035005203122
 20
96.68403705484678
 30
0.0
 11
-84.40034989533128
 21
96.68403705484678
 31
0.0
  0
LINE
  5
13C2
330
22
100
AcDbEntity
  8
11
  6
Continuous
100
AcDbLine
 10
-89.21284968339376
 20
96.68403705484678
 30
0.0
 11
-89.80659960906249
 21
96.68403705484678
 31
0.0
  0
LINE
  5
13C3
330
22
100
AcDbEntity
  8
11
  6
Continuous
100
AcDbLine
 10
-83.21284986519376
 20
96.94999444999998
 30
0.0
 11
-84.40034989533128
 21
96.94999444999998
 31
0.0
  0
LINE
  5
13C4
330
22
100
AcDbEntity
  8
11
  6
Continuous
100
AcDbLine
 10
-84.65034999578127
 20
96.94999444999998
 30
0.0
 11
-85.77534991140623
 21
96.94999444999998
 31
0.0
  0
LINE
  5
13C5
330
22
100
AcDbEntity
  8
11
  6
Continuous
100
AcDbLine
 10
-86.52534985515623
 20
96.94999444999998
 30
0.0
 11
-86.68159996263751
 21
96.94999444999998
 31
0.0
  0
LINE
  5
13C6
330
22
100
AcDbEntity
  8
11
  6
Continuous
100
AcDbLine
 10
-87.43159972758752
 20
96.94999444999998
 30
0.0
 11
-88.55659973261252
 21
96.94999444999998
 31
0.0
  0
LINE
  5
13C7
330
22
100
AcDbEntity
  8
11
  6
Continuous
 62
     7
100
AcDbLine
 10
-89.24409965124999
 20
96.94999444999998
 30
0.0
 11
-89.99409959499997
 21
96.94999444999998
 31
0.0
  0
LINE
  5
13C8
330
22
100
AcDbEntity
  8
11
  6
Continuous
100
AcDbLine
 10
-87.90243312497498
 20
98.58829219782764
 30
0.0
 11
-87.985766372525
 21
98.42871776079572
 31
0.0
  0
LINE
  5
13C9
330
22
100
AcDbEntity
  8
11
  6
Continuous
100
AcDbLine
 10
-89.05659966531247
 20
96.04573915741916
 30
0.0
 11
-89.11909969042499
 21
95.93935619939784
 31
0.0
  0
LINE
  5
13CA
330
22
100
AcDbEntity
  8
11
  6
Continuous
100
AcDbLine
 10
-87.90243312497498
 20
98.10956883073188
 30
0.0
 11
-87.73576639127503
 21
98.32233476547443
 31
0.0
  0
LINE
  5
13CB
330
22
100
AcDbEntity
  8
11
  6
Continuous
100
AcDbLine
 10
-86.86909994857503
 20
96.47127113870425
 30
0.0
 11
-86.77534995560625
 21
96.57765409672553
 31
0.0
  0
LINE
  5
13CC
330
22
100
AcDbEntity
  8
11
  6
Continuous
100
AcDbLine
 10
-86.27534975470627
 20
94.92871802329572
 30
0.0
 11
-86.36909974767497
 21
94.82233502797448
 31
0.0
  0
LINE
  5
13CD
330
22
100
AcDbEntity
  8
11
  6
Continuous
100
AcDbLine
 10
-90.59409954999999
 20
97.32499442187496
 30
0.0
 11
-82.59410014999998
 21
97.32499442187496
 31
0.0
  0
LINE
  5
13CE
330
22
100
AcDbEntity
  8
11
  6
Continuous
100
AcDbLine
 10
-82.59410014999998
 20
97.57499440312498
 30
0.0
 11
-90.59409954999999
 21
97.57499440312498
 31
0.0
  0
LINE
  5
13CF
330
22
100
AcDbEntity
  8
11
  6
Continuous
100
AcDbLine
 10
-84.569100001875
 20
97.94999437499996
 30
0.0
 11
-84.81909998312497
 21
97.94999437499996
 31
0.0
  0
LINE
  5
13D0
330
22
100
AcDbEntity
  8
11
  6
Continuous
 62
     0
100
AcDbLine
 10
-85.819099908125
 20
97.94999437499996
 30
0.0
 11
-87.31909979562496
 21
97.94999437499996
 31
0.0
  0
LINE
  5
13D1
330
22
100
AcDbEntity
  8
11
  6
Continuous
100
AcDbLine
 10
-88.61076638525
 20
97.94999437499996
 30
0.0
 11
-88.27743303725
 21
97.94999437499996
 31
0.0
  0
LINE
  5
13D2
330
22
100
AcDbEntity
  8
11
  6
Continuous
100
AcDbLine
 10
-85.819099908125
 20
98.26914328636378
 30
0.0
 11
-87.06909981437497
 21
98.26914328636378
 31
0.0
  0
LINE
  5
13D3
330
22
100
AcDbEntity
  8
11
  6
Continuous
100
AcDbLine
 10
-88.27743303725
 20
98.26914328636378
 30
0.0
 11
-88.61076638525
 21
98.26914328636378
 31
0.0
  0
LINE
  5
13D4
330
22
100
AcDbEntity
  8
11
  6
Continuous
100
AcDbLine
 10
-88.94409967375002
 20
98.64148367683831
 30
0.0
 11
-89.19409965499998
 21
98.64148367683831
 31
0.0
  0
LINE
  5
13D5
330
22
100
AcDbEntity
  8
11
  6
Continuous
100
AcDbLine
 10
-88.52743301850003
 20
99.06701558362343
 30
0.0
 11
-88.27743303725
 21
99.06701558362343
 31
0.0
  0
LINE
  5
13D6
330
22
100
AcDbEntity
  8
11
  6
Continuous
100
AcDbLine
 10
-85.98576664172501
 20
99.12020706263405
 30
0.0
 11
-87.06909981437497
 21
99.12020706263405
 31
0.0
  0
LINE
  5
13D7
330
22
100
AcDbEntity
  8
11
  6
Continuous
100
AcDbLine
 10
-88.27743303725
 20
99.38616445778723
 30
0.0
 11
-88.52743301850003
 21
99.38616445778723
 31
0.0
  0
LINE
  5
13D8
330
22
100
AcDbEntity
  8
11
  6
Continuous
100
AcDbLine
 10
-85.98576664172501
 20
99.43935593689786
 30
0.0
 11
-87.06909981437497
 21
99.43935593689786
 31
0.0
  0
LINE
  5
13D9
330
22
100
AcDbEntity
  8
11
  6
Continuous
100
AcDbLine
 10
-88.02743311559998
 20
99.86488791808296
 30
0.0
 11
-87.77743313434996
 21
99.86488791808296
 31
0.0
  0
LINE
  5
13DA
330
22
100
AcDbEntity
  8
11
  6
Continuous
100
AcDbLine
 10
-85.819099908125
 20
100.1308453132361
 30
0.0
 11
-87.06909981437497
 21
100.1308453132361
 31
0.0
  0
LINE
  5
13DB
330
22
100
AcDbEntity
  8
11
  6
Continuous
100
AcDbLine
 10
-88.52743301850003
 20
100.1308453132361
 30
0.0
 11
-88.27743303725
 21
100.1308453132361
 31
0.0
  0
LINE
  5
13DC
330
22
100
AcDbEntity
  8
11
  6
Continuous
100
AcDbLine
 10
-83.90243354417497
 20
100.1840367923467
 30
0.0
 11
-84.569100001875
 21
100.1840367923467
 31
0.0
  0
LINE
  5
13DD
330
22
100
AcDbEntity
  8
11
  6
Continuous
100
AcDbLine
 10
-84.81909998312497
 20
100.1840367923467
 30
0.0
 11
-85.48576667922498
 21
100.1840367923467
 31
0.0
  0
LINE
  5
13DE
330
22
100
AcDbEntity
  8
11
  6
Continuous
100
AcDbLine
 10
-83.90243354417497
 20
100.4499941874999
 30
0.0
 11
-85.48576667922498
 21
100.4499941874999
 31
0.0
  0
LINE
  5
13DF
330
22
100
AcDbEntity
  8
11
  6
Continuous
100
AcDbLine
 10
-85.819099908125
 20
100.4499941874999
 30
0.0
 11
-87.31909979562496
 21
100.4499941874999
 31
0.0
  0
LINE
  5
13E0
330
22
100
AcDbEntity
  8
11
  6
Continuous
100
AcDbLine
 10
-88.31909972062497
 20
100.4499941874999
 30
0.0
 11
-88.52743301850003
 21
100.4499941874999
 31
0.0
  0
LINE
  5
13E1
330
22
100
AcDbEntity
  8
11
  6
Continuous
100
AcDbLine
 10
-86.90034982703123
 20
94.50318612111059
 30
0.0
 11
-86.74409971954998
 21
94.44999463749995
 31
0.0
  0
LINE
  5
13E2
330
22
100
AcDbEntity
  8
11
  6
Continuous
100
AcDbLine
 10
-90.59409954999999
 20
97.57499440312498
 30
0.0
 11
-90.59409954999999
 21
97.32499442187496
 31
0.0
  0
LINE
  5
13E3
330
22
100
AcDbEntity
  8
11
  6
Continuous
100
AcDbLine
 10
-89.02743299589998
 20
100.0776538342255
 30
0.0
 11
-89.06909966437497
 21
99.86488791808296
 31
0.0
  0
LINE
  5
13E4
330
22
100
AcDbEntity
  8
11
  6
Continuous
100
AcDbLine
 10
-89.02534969745628
 20
96.20531359455108
 30
0.0
 11
-89.05659966531247
 21
96.04573915741916
 31
0.0
  0
LINE
  5
13E5
330
22
100
AcDbEntity
  8
11
  6
Continuous
100
AcDbLine
 10
-88.86909967937498
 20
95.99254767840852
 30
0.0
 11
-88.83784971151877
 21
96.1521221154404
 31
0.0
  0
LINE
  5
13E6
330
22
100
AcDbEntity
  8
11
  6
Continuous
100
AcDbLine
 10
-88.81909968312497
 20
99.81169629007231
 30
0.0
 11
-88.77743302955
 21
99.97127087620429
 31
0.0
  0
LINE
  5
13E7
330
22
100
AcDbEntity
  8
11
  6
Continuous
100
AcDbLine
 10
-87.73576639127503
 20
98.32233476547443
 30
0.0
 11
-87.65243314372497
 21
98.535100718817
 31
0.0
  0
LINE
  5
13E8
330
22
100
AcDbEntity
  8
11
  6
Continuous
100
AcDbLine
 10
-86.21284999779375
 20
95.08829246032762
 30
0.0
 11
-86.27534975470627
 21
94.92871802329572
 31
0.0
  0
LINE
  5
13E9
330
22
100
AcDbEntity
  8
11
  6
Continuous
100
AcDbLine
 10
-88.96284967234377
 20
95.77978176226592
 30
0.0
 11
-88.86909967937498
 21
95.99254767840852
 31
0.0
  0
LINE
  5
13EA
330
22
100
AcDbEntity
  8
11
  6
Continuous
 62
     0
100
AcDbLine
 10
-86.93159970548748
 20
96.79042001286804
 30
0.0
 11
-87.05659975571251
 21
96.57765409672553
 31
0.0
  0
LINE
  5
13EB
330
22
100
AcDbEntity
  8
11
  6
Continuous
100
AcDbLine
 10
-86.21284999779375
 20
94.60956909323192
 30
0.0
 11
-86.08784976876876
 21
94.82233502797448
 31
0.0
  0
LINE
  5
13EC
330
22
100
AcDbEntity
  8
11
  6
Continuous
100
AcDbLine
 10
-88.81909968312497
 20
98.00318585861059
 30
0.0
 11
-88.61076638525
 21
97.94999437499996
 31
0.0
  0
LINE
  5
13ED
330
22
100
AcDbEntity
  8
11
  6
Continuous
100
AcDbLine
 10
-88.06909973937498
 20
99.33297297877658
 30
0.0
 11
-88.27743303725
 21
99.38616445778723
 31
0.0
  0
LINE
  5
13EE
330
22
100
AcDbEntity
  8
11
  6
Continuous
100
AcDbLine
 10
-88.11076636314998
 20
100.3968027083893
 30
0.0
 11
-88.31909972062497
 21
100.4499941874999
 31
0.0
  0
LINE
  5
13EF
330
22
100
AcDbEntity
  8
11
  6
Continuous
100
AcDbLine
 10
-88.61076638525
 20
98.26914328636378
 30
0.0
 11
-88.77743302955
 21
98.32233476547443
 31
0.0
  0
LINE
  5
13F0
330
22
100
AcDbEntity
  8
11
  6
Continuous
100
AcDbLine
 10
-88.69409969249998
 20
99.12020706263405
 30
0.0
 11
-88.52743301850003
 21
99.06701558362343
 31
0.0
  0
LINE
  5
13F1
330
22
100
AcDbEntity
  8
11
  6
Continuous
100
AcDbLine
 10
-88.27743303725
 20
99.06701558362343
 30
0.0
 11
-88.11076636314998
 21
99.01382410461277
 31
0.0
  0
LINE
  5
13F2
330
22
100
AcDbEntity
  8
11
  6
Continuous
100
AcDbLine
 10
-86.33784986921872
 20
95.83297324127658
 30
0.0
 11
-86.49409997670003
 21
95.88616472028723
 31
0.0
  0
LINE
  5
13F3
330
22
100
AcDbEntity
  8
11
  6
Continuous
100
AcDbLine
 10
-89.08784963316875
 20
96.89680297088933
 30
0.0
 11
-89.24409965124999
 21
96.94999444999998
 31
0.0
  0
LINE
  5
13F4
330
22
100
AcDbEntity
  8
11
  6
Continuous
100
AcDbLine
 10
-86.36909974767497
 20
96.89680297088933
 30
0.0
 11
-86.52534985515623
 21
96.94999444999998
 31
0.0
  0
LINE
  5
13F5
330
22
100
AcDbEntity
  8
11
  6
Continuous
100
AcDbLine
 10
-86.74409971954998
 20
94.7691435488638
 30
0.0
 11
-86.86909994857503
 21
94.82233502797448
 31
0.0
  0
LINE
  5
13F6
330
22
100
AcDbEntity
  8
11
  6
Continuous
100
AcDbLine
 10
-86.80659983406249
 20
95.62020732513405
 30
0.0
 11
-86.68159996263751
 21
95.56701584612341
 31
0.0
  0
LINE
  5
13F7
330
22
100
AcDbEntity
  8
11
  6
Continuous
100
AcDbLine
 10
-86.49409997670003
 20
95.56701584612341
 30
0.0
 11
-86.36909974767497
 21
95.51382436711277
 31
0.0
  0
LINE
  5
13F8
330
22
100
AcDbEntity
  8
11
  6
Continuous
100
AcDbLine
 10
-88.52743301850003
 20
99.38616445778723
 30
0.0
 11
-88.65243300912501
 21
99.43935593689786
 31
0.0
  0
LINE
  5
13F9
330
22
100
AcDbEntity
  8
11
  6
Continuous
100
AcDbLine
 10
-89.11909969042499
 20
96.63084557573611
 30
0.0
 11
-89.21284968339376
 21
96.68403705484678
 31
0.0
  0
LINE
  5
13FA
330
22
100
AcDbEntity
  8
11
  6
Continuous
100
AcDbLine
 10
-86.68159996263751
 20
95.88616472028723
 30
0.0
 11
-86.77534995560625
 21
95.93935619939784
 31
0.0
  0
LINE
  5
13FB
330
22
100
AcDbEntity
  8
11
  6
Continuous
100
AcDbLine
 10
-89.99409959499997
 20
96.94999444999998
 30
0.0
 11
-89.99409959499997
 21
94.44999463749995
 31
0.0
  0
LINE
  5
13FC
330
22
100
AcDbEntity
  8
11
  6
Continuous
100
AcDbLine
 10
-89.80659960906249
 20
96.68403705484678
 30
0.0
 11
-89.80659960906249
 21
95.88616472028723
 31
0.0
  0
LINE
  5
13FD
330
22
100
AcDbEntity
  8
11
  6
Continuous
100
AcDbLine
 10
-89.80659960906249
 20
94.44999463749995
 30
0.0
 11
-89.80659960906249
 21
95.56701584612341
 31
0.0
  0
LINE
  5
13FE
330
22
100
AcDbEntity
  8
11
  6
Continuous
100
AcDbLine
 10
-89.06909966437497
 20
99.86488791808296
 30
0.0
 11
-89.06909966437497
 21
99.65212185294042
 31
0.0
  0
LINE
  5
13FF
330
22
100
AcDbEntity
  8
11
  6
Continuous
100
AcDbLine
 10
-89.02534969745628
 20
96.36488818058296
 30
0.0
 11
-89.02534969745628
 21
96.20531359455108
 31
0.0
  0
LINE
  5
1400
330
22
100
AcDbEntity
  8
11
  6
Continuous
100
AcDbLine
 10
-88.83784971151877
 20
96.1521221154404
 30
0.0
 11
-88.83784971151877
 21
96.36488818058296
 31
0.0
  0
LINE
  5
1401
330
22
100
AcDbEntity
  8
11
  6
Continuous
100
AcDbLine
 10
-88.81909968312497
 20
99.70531333205109
 30
0.0
 11
-88.81909968312497
 21
99.81169629007231
 31
0.0
  0
LINE
  5
1402
330
22
100
AcDbEntity
  8
11
  6
Continuous
100
AcDbLine
 10
-88.55659973261252
 20
96.94999444999998
 30
0.0
 11
-88.55659973261252
 21
94.44999463749995
 31
0.0
  0
LINE
  5
1403
330
22
100
AcDbEntity
  8
11
  6
Continuous
100
AcDbLine
 10
-88.36909965727501
 20
96.63084557573611
 30
0.0
 11
-88.36909965727501
 21
95.93935619939784
 31
0.0
  0
LINE
  5
1404
330
22
100
AcDbEntity
  8
11
  6
Continuous
100
AcDbLine
 10
-88.36909965727501
 20
95.62020732513405
 30
0.0
 11
-88.36909965727501
 21
94.7691435488638
 31
0.0
  0
LINE
  5
1405
330
22
100
AcDbEntity
  8
11
  6
Continuous
100
AcDbLine
 10
-87.90243312497498
 20
98.74786663495958
 30
0.0
 11
-87.90243312497498
 21
98.58829219782764
 31
0.0
  0
LINE
  5
1406
330
22
100
AcDbEntity
  8
11
  6
Continuous
100
AcDbLine
 10
-87.65243314372497
 20
98.535100718817
 30
0.0
 11
-87.65243314372497
 21
98.80105811397021
 31
0.0
  0
LINE
  5
1407
330
22
100
AcDbEntity
  8
11
  6
Continuous
100
AcDbLine
 10
-87.55659977781247
 20
95.93935619939784
 30
0.0
 11
-87.55659977781247
 21
95.62020732513405
 31
0.0
  0
LINE
  5
1408
330
22
100
AcDbEntity
  8
11
  6
Continuous
100
AcDbLine
 10
-87.43159972758752
 20
96.94999444999998
 30
0.0
 11
-87.43159972758752
 21
96.63084557573611
 31
0.0
  0
LINE
  5
1409
330
22
100
AcDbEntity
  8
11
  6
Continuous
100
AcDbLine
 10
-87.43159972758752
 20
94.7691435488638
 30
0.0
 11
-87.43159972758752
 21
94.44999463749995
 31
0.0
  0
LINE
  5
140A
330
22
100
AcDbEntity
  8
11
  6
Continuous
100
AcDbLine
 10
-87.31909979562496
 20
100.4499941874999
 30
0.0
 11
-87.31909979562496
 21
97.94999437499996
 31
0.0
  0
LINE
  5
140B
330
22
100
AcDbEntity
  8
11
  6
Continuous
100
AcDbLine
 10
-87.08784981296878
 20
96.36488818058296
 30
0.0
 11
-87.08784981296878
 21
96.1521221154404
 31
0.0
  0
LINE
  5
140C
330
22
100
AcDbEntity
  8
11
  6
Continuous
100
AcDbLine
 10
-87.06909981437497
 20
100.1308453132361
 30
0.0
 11
-87.06909981437497
 21
99.43935593689786
 31
0.0
  0
LINE
  5
140D
330
22
100
AcDbEntity
  8
11
  6
Continuous
100
AcDbLine
 10
-87.06909981437497
 20
99.12020706263405
 30
0.0
 11
-87.06909981437497
 21
98.26914328636378
 31
0.0
  0
LINE
  5
140E
330
22
100
AcDbEntity
  8
11
  6
Continuous
100
AcDbLine
 10
-86.90034982703123
 20
96.20531359455108
 30
0.0
 11
-86.90034982703123
 21
96.31169655257231
 31
0.0
  0
LINE
  5
140F
330
22
100
AcDbEntity
  8
11
  6
Continuous
100
AcDbLine
 10
-86.21284999779375
 20
95.24786689745956
 30
0.0
 11
-86.21284999779375
 21
95.08829246032762
 31
0.0
  0
LINE
  5
1410
330
22
100
AcDbEntity
  8
11
  6
Continuous
100
AcDbLine
 10
-86.02535001185627
 20
95.03510098131703
 30
0.0
 11
-86.02535001185627
 21
95.3010583764702
 31
0.0
  0
LINE
  5
1411
330
22
100
AcDbEntity
  8
11
  6
Continuous
100
AcDbLine
 10
-85.98576664172501
 20
99.43935593689786
 30
0.0
 11
-85.98576664172501
 21
99.12020706263405
 31
0.0
  0
LINE
  5
1412
330
22
100
AcDbEntity
  8
11
  6
Continuous
100
AcDbLine
 10
-85.819099908125
 20
100.4499941874999
 30
0.0
 11
-85.819099908125
 21
100.1308453132361
 31
0.0
  0
LINE
  5
1413
330
22
100
AcDbEntity
  8
11
  6
Continuous
100
AcDbLine
 10
-85.819099908125
 20
98.26914328636378
 30
0.0
 11
-85.819099908125
 21
97.94999437499996
 31
0.0
  0
LINE
  5
1414
330
22
100
AcDbEntity
  8
11
  6
Continuous
100
AcDbLine
 10
-85.77534991140623
 20
96.94999444999998
 30
0.0
 11
-85.77534991140623
 21
94.44999463749995
 31
0.0
  0
LINE
  5
1415
330
22
100
AcDbEntity
  8
11
  6
Continuous
100
AcDbLine
 10
-85.58784992546874
 20
96.63084557573611
 30
0.0
 11
-85.58784992546874
 21
95.93935619939784
 31
0.0
  0
LINE
  5
1416
330
22
100
AcDbEntity
  8
11
  6
Continuous
100
AcDbLine
 10
-85.58784992546874
 20
95.62020732513405
 30
0.0
 11
-85.58784992546874
 21
94.7691435488638
 31
0.0
  0
LINE
  5
1417
330
22
100
AcDbEntity
  8
11
  6
Continuous
100
AcDbLine
 10
-87.05659975571251
 20
96.57765409672553
 30
0.0
 11
-87.08784981296878
 21
96.36488818058296
 31
0.0
  0
LINE
  5
1418
330
22
100
AcDbEntity
  8
11
  6
Continuous
100
AcDbLine
 10
-86.90034982703123
 20
96.31169655257231
 30
0.0
 11
-86.86909994857503
 21
96.47127113870425
 31
0.0
  0
LINE
  5
1419
330
22
100
AcDbEntity
  8
11
  6
Continuous
100
AcDbLine
 10
-86.08784976876876
 20
94.82233502797448
 30
0.0
 11
-86.02535001185627
 21
95.03510098131703
 31
0.0
  0
LINE
  5
141A
330
22
100
AcDbEntity
  8
11
  6
Continuous
100
AcDbLine
 10
-88.27743303725
 20
100.1308453132361
 30
0.0
 11
-88.15243310622498
 21
100.0776538342255
 31
0.0
  0
LINE
  5
141B
330
22
100
AcDbEntity
  8
11
  6
Continuous
100
AcDbLine
 10
-86.49409997670003
 20
96.63084557573611
 30
0.0
 11
-86.40034998373129
 21
96.57765409672553
 31
0.0
  0
LINE
  5
141C
330
22
100
AcDbEntity
  8
11
  6
Continuous
100
AcDbLine
 10
-88.86076633670002
 20
99.22659002075532
 30
0.0
 11
-88.69409969249998
 21
99.12020706263405
 31
0.0
  0
LINE
  5
141D
330
22
100
AcDbEntity
  8
11
  6
Continuous
100
AcDbLine
 10
-87.90243312497498
 20
99.22659002075532
 30
0.0
 11
-88.06909973937498
 21
99.33297297877658
 31
0.0
  0
LINE
  5
141E
330
22
100
AcDbEntity
  8
11
  6
Continuous
100
AcDbLine
 10
-89.02743299589998
 20
98.1627603097425
 30
0.0
 11
-88.81909968312497
 21
98.00318585861059
 31
0.0
  0
LINE
  5
141F
330
22
100
AcDbEntity
  8
11
  6
Continuous
100
AcDbLine
 10
-86.93159970548748
 20
95.7265902832553
 30
0.0
 11
-86.80659983406249
 21
95.62020732513405
 31
0.0
  0
LINE
  5
1420
330
22
100
AcDbEntity
  8
11
  6
Continuous
100
AcDbLine
 10
-86.21284999779375
 20
95.7265902832553
 30
0.0
 11
-86.33784986921872
 21
95.83297324127658
 31
0.0
  0
LINE
  5
1421
330
22
100
AcDbEntity
  8
11
  6
Continuous
100
AcDbLine
 10
-88.65243300912501
 20
99.43935593689786
 30
0.0
 11
-88.77743302955
 21
99.54573889491912
 31
0.0
  0
LINE
  5
1422
330
22
100
AcDbEntity
  8
11
  6
Continuous
100
AcDbLine
 10
-88.11076636314998
 20
99.01382410461277
 30
0.0
 11
-87.985766372525
 21
98.90744114659144
 31
0.0
  0
LINE
  5
1423
330
22
100
AcDbEntity
  8
11
  6
Continuous
100
AcDbLine
 10
-87.05659975571251
 20
94.66276057224254
 30
0.0
 11
-86.90034982703123
 21
94.50318612111059
 31
0.0
  0
LINE
  5
1424
330
22
100
AcDbEntity
  8
11
  6
Continuous
100
AcDbLine
 10
-86.77534995560625
 20
95.93935619939784
 30
0.0
 11
-86.86909994857503
 21
96.04573915741916
 31
0.0
  0
LINE
  5
1425
330
22
100
AcDbEntity
  8
11
  6
Continuous
100
AcDbLine
 10
-86.36909974767497
 20
95.51382436711277
 30
0.0
 11
-86.27534975470627
 21
95.40744140909149
 31
0.0
  0
LINE
  5
1426
330
22
100
AcDbEntity
  8
11
  6
Continuous
100
AcDbLine
 10
-88.96284967234377
 20
96.73722853385745
 30
0.0
 11
-89.08784963316875
 21
96.89680297088933
 31
0.0
  0
LINE
  5
1427
330
22
100
AcDbEntity
  8
11
  6
Continuous
100
AcDbLine
 10
-88.77743302955
 20
98.32233476547443
 30
0.0
 11
-88.90243302017498
 21
98.48190923980638
 31
0.0
  0
LINE
  5
1428
330
22
100
AcDbEntity
  8
11
  6
Continuous
100
AcDbLine
 10
-89.02743299589998
 20
99.43935593689786
 30
0.0
 11
-88.86076633670002
 21
99.22659002075532
 31
0.0
  0
LINE
  5
1429
330
22
100
AcDbEntity
  8
11
  6
Continuous
100
AcDbLine
 10
-89.11909969042499
 20
96.63084557573611
 30
0.0
 11
-89.05659966531247
 21
96.52446261771489
 31
0.0
  0
LINE
  5
142A
330
22
100
AcDbEntity
  8
11
  6
Continuous
100
AcDbLine
 10
-86.86909994857503
 20
94.82233502797448
 30
0.0
 11
-86.96284994154376
 21
94.98190950230636
 31
0.0
  0
LINE
  5
142B
330
22
100
AcDbEntity
  8
11
  6
Continuous
100
AcDbLine
 10
-87.05659975571251
 20
95.93935619939784
 30
0.0
 11
-86.93159970548748
 21
95.7265902832553
 31
0.0
  0
LINE
  5
142C
330
22
100
AcDbEntity
  8
11
  6
Continuous
100
AcDbLine
 10
-89.15243299022501
 20
98.42871776079572
 30
0.0
 11
-89.02743299589998
 21
98.1627603097425
 31
0.0
  0
LINE
  5
142D
330
22
100
AcDbEntity
  8
11
  6
Continuous
100
AcDbLine
 10
-88.86909967937498
 20
96.52446261771489
 30
0.0
 11
-88.96284967234377
 21
96.73722853385745
 31
0.0
  0
LINE
  5
142E
330
22
100
AcDbEntity
  8
11
  6
Continuous
100
AcDbLine
 10
-87.15034974868123
 20
94.92871802329572
 30
0.0
 11
-87.05659975571251
 21
94.66276057224254
 31
0.0
  0
LINE
  5
142F
330
22
100
AcDbEntity
  8
11
  6
Continuous
100
AcDbLine
 10
-88.90243302017498
 20
98.48190923980638
 30
0.0
 11
-88.94409967375002
 21
98.64148367683831
 31
0.0
  0
LINE
  5
1430
330
22
100
AcDbEntity
  8
11
  6
Continuous
100
AcDbLine
 10
-88.77743302955
 20
99.54573889491912
 30
0.0
 11
-88.81909968312497
 21
99.70531333205109
 31
0.0
  0
LINE
  5
1431
330
22
100
AcDbEntity
  8
11
  6
Continuous
100
AcDbLine
 10
-88.8065996542625
 20
94.44999463749995
 30
0.0
 11
-89.08784963316875
 21
95.67339880424468
 31
0.0
  0
LINE
  5
1432
330
22
100
AcDbEntity
  8
11
  6
Continuous
100
AcDbLine
 10
-89.27534966380623
 20
95.56701584612341
 30
0.0
 11
-89.02534969745628
 21
94.44999463749995
 31
0.0
  0
LINE
  5
1433
330
22
100
AcDbEntity
  8
11
  6
Continuous
100
AcDbLine
 10
-89.05659966531247
 20
96.52446261771489
 30
0.0
 11
-89.02534969745628
 21
96.36488818058296
 31
0.0
  0
LINE
  5
1434
330
22
100
AcDbEntity
  8
11
  6
Continuous
100
AcDbLine
 10
-88.83784971151877
 20
96.36488818058296
 30
0.0
 11
-88.86909967937498
 21
96.52446261771489
 31
0.0
  0
LINE
  5
1435
330
22
100
AcDbEntity
  8
11
  6
Continuous
100
AcDbLine
 10
-89.19409965499998
 20
98.64148367683831
 30
0.0
 11
-89.15243299022501
 21
98.42871776079572
 31
0.0
  0
LINE
  5
1436
330
22
100
AcDbEntity
  8
11
  6
Continuous
100
AcDbLine
 10
-89.06909966437497
 20
99.65212185294042
 30
0.0
 11
-89.02743299589998
 21
99.43935593689786
 31
0.0
  0
LINE
  5
1437
330
22
100
AcDbEntity
  8
11
  6
Continuous
100
AcDbLine
 10
-86.96284994154376
 20
94.98190950230636
 30
0.0
 11
-86.99409982
 21
95.14148393933828
 31
0.0
  0
LINE
  5
1438
330
22
100
AcDbEntity
  8
11
  6
Continuous
100
AcDbLine
 10
-87.18159980593748
 20
95.14148393933828
 30
0.0
 11
-87.15034974868123
 21
94.92871802329572
 31
0.0
  0
LINE
  5
1439
330
22
100
AcDbEntity
  8
11
  6
Continuous
100
AcDbLine
 10
-87.08784981296878
 20
96.1521221154404
 30
0.0
 11
-87.05659975571251
 21
95.93935619939784
 31
0.0
  0
LINE
  5
143A
330
22
100
AcDbEntity
  8
11
  6
Continuous
100
AcDbLine
 10
-85.48576667922498
 20
100.4499941874999
 30
0.0
 11
-85.48576667922498
 21
100.1840367923467
 31
0.0
  0
LINE
  5
143B
330
22
100
AcDbEntity
  8
11
  6
Continuous
100
AcDbLine
 10
-84.81909998312497
 20
100.1840367923467
 30
0.0
 11
-84.81909998312497
 21
97.94999437499996
 31
0.0
  0
LINE
  5
143C
330
22
100
AcDbEntity
  8
11
  6
Continuous
100
AcDbLine
 10
-84.77534986720627
 20
95.93935619939784
 30
0.0
 11
-84.77534986720627
 21
95.62020732513405
 31
0.0
  0
LINE
  5
143D
330
22
100
AcDbEntity
  8
11
  6
Continuous
100
AcDbLine
 10
-84.65034999578127
 20
96.94999444999998
 30
0.0
 11
-84.65034999578127
 21
96.63084557573611
 31
0.0
  0
LINE
  5
143E
330
22
100
AcDbEntity
  8
11
  6
Continuous
100
AcDbLine
 10
-84.65034999578127
 20
94.7691435488638
 30
0.0
 11
-84.65034999578127
 21
94.44999463749995
 31
0.0
  0
LINE
  5
143F
330
22
100
AcDbEntity
  8
11
  6
Continuous
100
AcDbLine
 10
-84.569100001875
 20
100.1840367923467
 30
0.0
 11
-84.569100001875
 21
97.94999437499996
 31
0.0
  0
LINE
  5
1440
330
22
100
AcDbEntity
  8
11
  6
Continuous
100
AcDbLine
 10
-84.40034989533128
 20
96.94999444999998
 30
0.0
 11
-84.40034989533128
 21
96.68403705484678
 31
0.0
  0
LINE
  5
1441
330
22
100
AcDbEntity
  8
11
  6
Continuous
100
AcDbLine
 10
-83.90243354417497
 20
100.4499941874999
 30
0.0
 11
-83.90243354417497
 21
100.1840367923467
 31
0.0
  0
LINE
  5
1442
330
22
100
AcDbEntity
  8
11
  6
Continuous
100
AcDbLine
 10
-83.90035005203122
 20
96.68403705484678
 30
0.0
 11
-83.90035005203122
 21
94.44999463749995
 31
0.0
  0
LINE
  5
1443
330
22
100
AcDbEntity
  8
11
  6
Continuous
100
AcDbLine
 10
-83.71285006609374
 20
96.68403705484678
 30
0.0
 11
-83.71285006609374
 21
94.44999463749995
 31
0.0
  0
LINE
  5
1444
330
22
100
AcDbEntity
  8
11
  6
Continuous
100
AcDbLine
 10
-83.21284986519376
 20
96.94999444999998
 30
0.0
 11
-83.21284986519376
 21
96.68403705484678
 31
0.0
  0
LINE
  5
1445
330
22
100
AcDbEntity
  8
11
  6
Continuous
100
AcDbLine
 10
-82.59410014999998
 20
97.32499442187496
 30
0.0
 11
-82.59410014999998
 21
97.57499440312498
 31
0.0
  0
LINE
  5
1446
330
22
100
AcDbEntity
  8
11
  6
Continuous
100
AcDbLine
 10
-87.94409974874998
 20
100.2372282713574
 30
0.0
 11
-88.11076636314998
 21
100.3968027083893
 31
0.0
  0
LINE
  5
1447
330
22
100
AcDbEntity
  8
11
  6
Continuous
100
AcDbLine
 10
-86.24409987624998
 20
96.73722853385745
 30
0.0
 11
-86.36909974767497
 21
96.89680297088933
 31
0.0
  0
LINE
  5
1448
330
22
100
AcDbEntity
  8
11
  6
Continuous
100
AcDbLine
 10
-87.73576639127503
 20
99.01382410461277
 30
0.0
 11
-87.90243312497498
 21
99.22659002075532
 31
0.0
  0
LINE
  5
1449
330
22
100
AcDbEntity
  8
11
  6
Continuous
100
AcDbLine
 10
-88.15243310622498
 20
100.0776538342255
 30
0.0
 11
-88.06909973937498
 21
99.97127087620429
 31
0.0
  0
LINE
  5
144A
330
22
100
AcDbEntity
  8
11
  6
Continuous
100
AcDbLine
 10
-86.08784976876876
 20
95.51382436711277
 30
0.0
 11
-86.21284999779375
 21
95.7265902832553
 31
0.0
  0
LINE
  5
144B
330
22
100
AcDbEntity
  8
11
  6
Continuous
100
AcDbLine
 10
-86.40034998373129
 20
96.57765409672553
 30
0.0
 11
-86.33784986921872
 21
96.47127113870425
 31
0.0
  0
LINE
  5
144C
330
22
100
AcDbEntity
  8
11
  6
Continuous
100
AcDbLine
 10
-87.81909975812498
 20
100.0244623552148
 30
0.0
 11
-87.94409974874998
 21
100.2372282713574
 31
0.0
  0
LINE
  5
144D
330
22
100
AcDbEntity
  8
11
  6
Continuous
100
AcDbLine
 10
-87.985766372525
 20
98.90744114659144
 30
0.0
 11
-87.90243312497498
 21
98.74786663495958
 31
0.0
  0
LINE
  5
144E
330
22
100
AcDbEntity
  8
11
  6
Continuous
100
AcDbLine
 10
-86.15034988328124
 20
96.52446261771489
 30
0.0
 11
-86.24409987624998
 21
96.73722853385745
 31
0.0
  0
LINE
  5
144F
330
22
100
AcDbEntity
  8
11
  6
Continuous
100
AcDbLine
 10
-87.65243314372497
 20
98.80105811397021
 30
0.0
 11
-87.73576639127503
 21
99.01382410461277
 31
0.0
  0
LINE
  5
1450
330
22
100
AcDbEntity
  8
11
  6
Continuous
100
AcDbLine
 10
-88.06909973937498
 20
99.97127087620429
 30
0.0
 11
-88.02743311559998
 21
99.86488791808296
 31
0.0
  0
LINE
  5
1451
330
22
100
AcDbEntity
  8
11
  6
Continuous
100
AcDbLine
 10
-86.27534975470627
 20
95.40744140909149
 30
0.0
 11
-86.21284999779375
 21
95.24786689745956
 31
0.0
  0
LINE
  5
1452
330
22
100
AcDbEntity
  8
11
  6
Continuous
100
AcDbLine
 10
-86.02535001185627
 20
95.3010583764702
 30
0.0
 11
-86.08784976876876
 21
95.51382436711277
 31
0.0
  0
LINE
  5
1453
330
22
100
AcDbEntity
  8
11
  6
Continuous
100
AcDbLine
 10
-86.33784986921872
 20
96.47127113870425
 30
0.0
 11
-86.30659999076252
 21
96.36488818058296
 31
0.0
  0
LINE
  5
1454
330
22
100
AcDbEntity
  8
11
  6
Continuous
100
AcDbLine
 10
-87.77743313434996
 20
99.86488791808296
 30
0.0
 11
-87.81909975812498
 21
100.0244623552148
 31
0.0
  0
LINE
  5
1455
330
22
100
AcDbEntity
  8
11
  6
Continuous
100
AcDbLine
 10
-86.86909994857503
 20
96.04573915741916
 30
0.0
 11
-86.90034982703123
 21
96.20531359455108
 31
0.0
  0
LINE
  5
1456
330
22
100
AcDbEntity
  8
11
  6
Continuous
100
AcDbLine
 10
-86.11910000482501
 20
96.36488818058296
 30
0.0
 11
-86.15034988328124
 21
96.52446261771489
 31
0.0
  0
ARC
  5
1483
330
22
100
AcDbEntity
  8
11
  6
Continuous
100
AcDbCircle
 10
-134.3440962687499
 20
121.6999925937497
 30
0.0
 40
0.4999999624999967
100
AcDbArc
 50
90.0
 51
180.0
  0
LINE
  5
1484
330
22
100
AcDbEntity
  8
11
  6
Continuous
100
AcDbLine
 10
-134.3440962687499
 20
122.1999925562496
 30
0.0
 11
-108.3440982187499
 21
122.1999925562496
 31
0.0
  0
LINE
  5
1485
330
22
100
AcDbEntity
  8
11
  6
Continuous
100
AcDbLine
 10
-134.8440962312498
 20
121.6999925937497
 30
0.0
 11
-134.8440962312498
 21
92.54821282612594
 31
0.0
  0
ARC
  5
1486
330
22
100
AcDbEntity
  8
11
  6
Continuous
100
AcDbCircle
 10
-134.3440962687499
 20
92.54821282612594
 30
0.0
 40
0.4999999624999967
100
AcDbArc
 50
180.0
 51
262.3877950566257
  0
ARC
  5
1487
330
22
100
AcDbEntity
  8
11
  6
Continuous
100
AcDbCircle
 10
-121.5940972249998
 20
187.9499876249998
 30
0.0
 40
96.74999274375013
100
AcDbArc
 50
262.3877950566175
 51
277.9125982959984
  0
LINE
  5
1488
330
22
100
AcDbEntity
  8
11
  6
Continuous
100
AcDbLine
 10
-107.8440982562499
 20
121.6999925937497
 30
0.0
 11
-107.8440982562499
 21
92.6163700668423
 31
0.0
  0
ARC
  5
1489
330
22
100
AcDbEntity
  8
11
  6
Continuous
100
AcDbCircle
 10
-108.3440982187499
 20
92.6163700668423
 30
0.0
 40
0.4999999625000471
100
AcDbArc
 50
277.9125982960016
 51
0.0
  0
ARC
  5
148A
330
22
100
AcDbEntity
  8
11
  6
Continuous
100
AcDbCircle
 10
-108.3440982187499
 20
121.6999925937497
 30
0.0
 40
0.4999999624999967
100
AcDbArc
 50
0.0
 51
90.0
  0
ARC
  5
148B
330
22
100
AcDbEntity
  8
11
  6
Continuous
 62
     0
100
AcDbCircle
 10
-107.8940982524999
 20
122.1499925599997
 30
0.0
 40
0.4999999625000129
100
AcDbArc
 50
0.0
 51
90.0
  0
ARC
  5
148C
330
22
100
AcDbEntity
  8
11
  6
Continuous
100
AcDbCircle
 10
-107.0940983124999
 20
122.9499924999996
 30
0.0
 40
0.4999999624999967
100
AcDbArc
 50
0.0
 51
90.0
  0
ARC
  5
148D
330
22
100
AcDbEntity
  8
11
  6
Continuous
100
AcDbCircle
 10
-108.1940982299999
 20
121.8499925824997
 30
0.0
 40
0.4999999624999967
100
AcDbArc
 50
0.0
 51
90.0
  0
LINE
  5
148E
330
22
100
AcDbEntity
  8
11
  6
Continuous
100
AcDbLine
 10
-134.4940962574999
 20
122.3499925449997
 30
0.0
 11
-108.1940982299999
 21
122.3499925449997
 31
0.0
  0
LINE
  5
148F
330
22
100
AcDbEntity
  8
11
  6
Continuous
100
AcDbLine
 10
-134.7940962349998
 20
122.6499925224997
 30
0.0
 11
-107.8940982524999
 21
122.6499925224997
 31
0.0
  0
LINE
  5
1490
330
22
100
AcDbEntity
  8
11
  6
Continuous
100
AcDbLine
 10
-135.5940961749998
 20
123.4499924624997
 30
0.0
 11
-107.0940983124999
 21
123.4499924624997
 31
0.0
  0
ARC
  5
1491
330
22
100
AcDbEntity
  8
11
  6
Continuous
100
AcDbCircle
 10
-134.7940962349998
 20
122.1499925599997
 30
0.0
 40
0.4999999624999967
100
AcDbArc
 50
90.0
 51
180.0
  0
ARC
  5
1492
330
22
100
AcDbEntity
  8
11
  6
Continuous
100
AcDbCircle
 10
-134.4940962574999
 20
121.8499925824997
 30
0.0
 40
0.4999999624999967
100
AcDbArc
 50
90.0
 51
180.0
  0
LINE
  5
1493
330
22
100
AcDbEntity
  8
11
  6
Continuous
100
AcDbLine
 10
-135.2940961974999
 20
122.1499925599997
 30
0.0
 11
-135.2940961974999
 21
92.59198514997136
 31
0.0
  0
LINE
  5
1494
330
22
100
AcDbEntity
  8
11
  6
Continuous
100
AcDbLine
 10
-136.0940961375
 20
122.9499924999996
 30
0.0
 11
-136.0940961375
 21
91.89402156360646
 31
0.0
  0
ARC
  5
1495
330
22
100
AcDbEntity
  8
11
  6
Continuous
100
AcDbCircle
 10
-135.5940961749998
 20
122.9499924999996
 30
0.0
 40
0.4999999624999967
100
AcDbArc
 50
90.0
 51
180.0
  0
LINE
  5
1496
330
22
100
AcDbEntity
  8
11
  6
Continuous
100
AcDbLine
 10
-134.9940962199999
 20
121.8499925824997
 30
0.0
 11
-134.9940962199999
 21
92.41701619095747
 31
0.0
  0
ARC
  5
1497
330
22
100
AcDbEntity
  8
11
  6
Continuous
100
AcDbCircle
 10
-135.0940962124999
 20
91.89402156360646
 30
0.0
 40
0.9999999249999927
100
AcDbArc
 50
180.0
 51
261.9998752116211
  0
ARC
  5
1498
330
22
100
AcDbEntity
  8
11
  6
Continuous
100
AcDbCircle
 10
-134.4940962574999
 20
92.41701619095747
 30
0.0
 40
0.4999999624999967
100
AcDbArc
 50
180.0
 51
262.3097569885739
  0
ARC
  5
1499
330
22
100
AcDbEntity
  8
11
  6
Continuous
100
AcDbCircle
 10
-134.2940962724997
 20
92.59198514997136
 30
0.0
 40
0.9999999250000104
100
AcDbArc
 50
180.0
 51
262.4138586545401
  0
ARC
  5
149A
330
22
100
AcDbEntity
  8
11
  6
Continuous
100
AcDbCircle
 10
-121.5940972249998
 20
187.9499876249997
 30
0.0
 40
96.89999273249981
100
AcDbArc
 50
262.309756988569
 51
277.9902247715371
  0
ARC
  5
149B
330
22
100
AcDbEntity
  8
11
  6
Continuous
100
AcDbCircle
 10
-121.5940972249998
 20
187.9499876249997
 30
0.0
 40
97.19999270999991
100
AcDbArc
 50
262.4138586545401
 51
277.8866722725246
  0
ARC
  5
149C
330
22
100
AcDbEntity
  8
11
  6
Continuous
100
AcDbCircle
 10
-121.5940972249998
 20
187.9499876249997
 30
0.0
 40
97.99999264999987
100
AcDbArc
 50
261.9998752116211
 51
278.2984769364785
  0
LINE
  5
149D
330
22
100
AcDbEntity
  8
11
  6
Continuous
100
AcDbLine
 10
-106.5940983499999
 20
122.9499924999996
 30
0.0
 11
-106.5940983499999
 21
91.96562109560058
 31
0.0
  0
LINE
  5
149E
330
22
100
AcDbEntity
  8
11
  6
Continuous
100
AcDbLine
 10
-107.6940982674999
 20
121.8499925824997
 30
0.0
 11
-107.6940982674999
 21
92.48586539580816
 31
0.0
  0
LINE
  5
149F
330
22
100
AcDbEntity
  8
11
  6
Continuous
100
AcDbLine
 10
-107.3940982899999
 20
122.1499925599997
 30
0.0
 11
-107.3940982899999
 21
92.65991134226171
 31
0.0
  0
ARC
  5
14A0
330
22
100
AcDbEntity
  8
11
  6
Continuous
100
AcDbCircle
 10
-108.1940982299999
 20
92.48586539580816
 30
0.0
 40
0.4999999624999507
100
AcDbArc
 50
277.9902247715355
 51
0.0
  0
ARC
  5
14A1
330
22
100
AcDbEntity
  8
11
  6
Continuous
100
AcDbCircle
 10
-108.3940982149999
 20
92.65991134226171
 30
0.0
 40
0.9999999250000655
100
AcDbArc
 50
277.8866722725246
 51
0.0
  0
ARC
  5
14A2
330
22
100
AcDbEntity
  8
11
  6
Continuous
100
AcDbCircle
 10
-107.5940982749999
 20
91.96562109560058
 30
0.0
 40
0.9999999249999611
100
AcDbArc
 50
278.2984769364785
 51
0.0
  0
MTEXT
  5
3203
330
22
100
AcDbEntity
  8
11
  6
Continuous
100
AcDbMText
 10
-131.7489545320715
 20
108.521692075022
 30
0.0
 40
2.352940999999999
 41
22.8952728136003
 71
     1
 72
     5
  1
BRAKE UNIT
  7
STANDARD1
 73
     1
 44
1.0
1001
ACAD
1000
MTEXTBEGIN
1070
    73
1070
     1
1070
    44
1040
1.0
1070
    74
1070
     0
1000
MTEXTEND
  0
LINE
  5
3204
330
22
100
AcDbEntity
  8
11
  6
Continuous
100
AcDbLine
 10
-132.1669073515504
 20
109.5796544309302
 30
0.0
 11
-109.8141164029629
 21
109.5796544309302
 31
0.0
  0
LINE
  5
3206
330
22
100
AcDbEntity
  8
11
  6
Continuous
100
AcDbLine
 10
-132.1669073515504
 20
109.9328331326839
 30
0.0
 11
-109.8141164029629
 21
109.9328331326839
 31
0.0
  0
LINE
  5
3207
330
22
100
AcDbEntity
  8
11
  6
Continuous
100
AcDbLine
 10
-132.1669073515504
 20
110.2860118344374
 30
0.0
 11
-109.8141164029629
 21
110.2860118344374
 31
0.0
  0
LINE
  5
3208
330
22
100
AcDbEntity
  8
11
  6
Continuous
100
AcDbLine
 10
-132.1669073515504
 20
104.416767458469
 30
0.0
 11
-109.8141164029629
 21
104.416767458469
 31
0.0
  0
LINE
  5
3209
330
22
100
AcDbEntity
  8
11
  6
Continuous
100
AcDbLine
 10
-132.1669073515504
 20
104.7699461602225
 30
0.0
 11
-109.8141164029629
 21
104.7699461602225
 31
0.0
  0
LINE
  5
320A
330
22
100
AcDbEntity
  8
11
  6
Continuous
100
AcDbLine
 10
-132.1669073515504
 20
105.1231248619761
 30
0.0
 11
-109.8141164029629
 21
105.1231248619761
 31
0.0
  0
MTEXT
  5
34E4
330
22
100
AcDbEntity
  8
19
100
AcDbMText
 10
155.9411277400771
 20
32.24338041976716
 30
0.0
 40
3.0
 41
66.385
 71
     1
 72
     5
  1
{\Fromans.shx;BU2H02}
  7
STANDARD1
 73
     1
 44
1.0
  0
LINE
  5
3643
330
22
100
AcDbEntity
  8
18
100
AcDbLine
 10
-54.59406279147259
 20
250.9500247726685
 30
0.0
 11
-182.5941192369831
 21
250.9500247726685
 31
0.0
  0
LINE
  5
3644
330
22
100
AcDbEntity
  8
18
100
AcDbLine
 10
-182.5941192369831
 20
250.9500247726685
 30
0.0
 11
-182.5941192369831
 21
-77.04997967133781
 31
0.0
  0
LINE
  5
3645
330
22
100
AcDbEntity
  8
18
100
AcDbLine
 10
-54.59406279147259
 20
-77.04997967133781
 30
0.0
 11
-182.5941192369831
 21
-77.04997967133781
 31
0.0
  0
LINE
  5
3646
330
22
100
AcDbEntity
  8
18
100
AcDbLine
 10
-54.59406279147261
 20
250.9500247726685
 30
0.0
 11
-54.59406279147261
 21
-77.04997967133781
 31
0.0
  0
LINE
  5
3647
330
22
100
AcDbEntity
  8
18
100
AcDbLine
 10
-28.80001437995698
 20
250.9500247726685
 30
0.0
 11
-28.80001437995698
 21
-77.04997967133778
 31
0.0
  0
LINE
  5
3648
330
22
100
AcDbEntity
  8
18
100
AcDbLine
 10
-28.80001437995698
 20
250.9500247726685
 30
0.0
 11
150.6999999999998
 21
250.9500247726685
 31
0.0
  0
LINE
  5
3649
330
22
100
AcDbEntity
  8
18
100
AcDbLine
 10
-28.80001437995698
 20
-77.04997967133781
 30
0.0
 11
150.6999999999998
 21
-77.04997967133781
 31
0.0
  0
LINE
  5
364A
330
22
100
AcDbEntity
  8
18
100
AcDbLine
 10
150.6999999999998
 20
150.9499903999999
 30
0.0
 11
150.6999999999998
 21
250.9500247726685
 31
0.0
  0
LINE
  5
364B
330
22
100
AcDbEntity
  8
18
100
AcDbLine
 10
150.6999999999998
 20
22.94999999999999
 30
0.0
 11
150.6999999999998
 21
-77.04997967133781
 31
0.0
  0
VIEWPORT
  5
114A
102
{ACAD_XDICTIONARY
360
32FC
102
}
330
1E
100
AcDbEntity
 67
     1
  8
0
  6
Continuous
100
AcDbViewport
 10
4.557300578646419
 20
3.293923687685373
 30
0.0
 40
12.39962741854098
 41
6.906121600200038
 68
     2
 69
     1
 12
4.557300578646419
 22
3.293923687685373
 13
0.0
 23
0.0
 14
10.0
 24
10.0
 15
10.0
 25
10.0
 16
0.0
 26
0.0
 36
1.0
 17
0.0
 27
0.0
 37
0.0
 42
50.0
 43
0.0
 44
0.0
 45
6.906121600200038
 50
0.0
 51
0.0
 72
   100
 90
    32800
  1

281
     0
 71
     1
 74
     0
110
0.0
120
0.0
130
0.0
111
1.0
121
0.0
131
0.0
112
0.0
122
1.0
132
0.0
 79
     0
146
0.0
  0
VIEWPORT
  5
114D
102
{ACAD_XDICTIONARY
360
32FE
102
}
330
1E
100
AcDbEntity
 67
     1
  8
0
  6
Continuous
100
AcDbViewport
 10
5.721456934147932
 20
4.008858208581218
 30
0.0
 40
9.154331094636692
 41
6.414173133729948
 68
     1
 69
     2
 12
0.0
 22
112.80714317
 13
0.0
 23
0.0
 14
1.0
 24
1.0
 15
0.0
 25
0.0
 16
0.0
 26
0.0
 36
1.0
 17
0.0
 27
0.0
 37
0.0
 42
50.0
 43
0.0
 44
0.0
 45
651.1697340628
 50
0.0
 51
0.0
 72
   100
 90
    32800
  1

281
     0
 71
     1
 74
     0
110
0.0
120
0.0
130
0.0
111
1.0
121
0.0
131
0.0
112
0.0
122
1.0
132
0.0
 79
     0
146
0.0
  0
ENDSEC
  0
SECTION
  2
OBJECTS
  0
DICTIONARY
  5
C
330
0
100
AcDbDictionary
281
     1
  3
ACAD_COLOR
350
1B
  3
ACAD_GROUP
350
D
  3
ACAD_LAYOUT
350
19
  3
ACAD_MATERIAL
350
1A
  3
ACAD_MLINESTYLE
350
16
  3
ACAD_PLOTSETTINGS
350
18
  3
ACAD_PLOTSTYLENAME
350
E
  3
ACAD_TABLESTYLE
350
1C
  3
AcDbVariableDictionary
350
114E
  3
DWGPROPS
350
34E6
  0
DICTIONARY
  5
115C
330
2
100
AcDbDictionary
280
     1
281
     1
  3
ACAD_LAYERFILTERS
360
3316
  3
ACAD_LAYERSTATES
360
115D
  0
DICTIONARY
  5
32FC
330
114A
100
AcDbDictionary
280
     1
281
     1
  3
ACAD_XREC_ROUNDTRIP
360
32FD
  0
DICTIONARY
  5
32FE
330
114D
100
AcDbDictionary
280
     1
281
     1
  3
ACAD_XREC_ROUNDTRIP
360
32FF
  0
DICTIONARY
  5
1B
102
{ACAD_REACTORS
330
C
102
}
330
C
100
AcDbDictionary
281
     1
  0
DICTIONARY
  5
D
102
{ACAD_REACTORS
330
C
102
}
330
C
100
AcDbDictionary
281
     1
  3
*A1
350
2F6E
  0
DICTIONARY
  5
19
102
{ACAD_REACTORS
330
C
102
}
330
C
100
AcDbDictionary
281
     1
  3
Model
350
25
  3
レイアウト1
350
21
  0
DICTIONARY
  5
1A
102
{ACAD_REACTORS
330
C
102
}
330
C
100
AcDbDictionary
281
     1
  0
DICTIONARY
  5
16
102
{ACAD_REACTORS
330
C
102
}
330
C
100
AcDbDictionary
281
     1
  3
Standard
350
17
  0
DICTIONARY
  5
18
102
{ACAD_REACTORS
330
C
102
}
330
C
100
AcDbDictionary
281
     1
  0
ACDBDICTIONARYWDFLT
  5
E
102
{ACAD_REACTORS
330
C
102
}
330
C
100
AcDbDictionary
281
     1
  3
Normal
350
F
100
AcDbDictionaryWithDefault
340
F
  0
DICTIONARY
  5
1C
102
{ACAD_REACTORS
330
C
102
}
330
C
100
AcDbDictionary
281
     1
  3
Standard
350
1D
  0
DICTIONARY
  5
114E
102
{ACAD_REACTORS
330
C
102
}
330
C
100
AcDbDictionary
281
     1
  3
CTABLESTYLE
350
114F
  3
DIMASSOC
350
31E3
  3
PROJECTNAME
350
31E4
  0
XRECORD
  5
34E6
102
{ACAD_REACTORS
330
C
102
}
330
C
100
AcDbXrecord
280
     1
  1
DWGPROPS COOKIE
  2

  3

  4

  6

  7

  8

  9

300
=
301
=
302
=
303
=
304
=
305
=
306
=
307
=
308
=
309
=
 40
0.428083275462963
 41
2453871.428574572
 42
2454098.399508044
  1

 90
        0
  0
DICTIONARY
  5
3316
102
{ACAD_REACTORS
330
115C
102
}
330
115C
100
AcDbDictionary
280
     1
281
     1
  0
DICTIONARY
  5
115D
102
{ACAD_REACTORS
330
115C
102
}
330
115C
100
AcDbDictionary
281
     1
  0
XRECORD
  5
32FD
102
{ACAD_REACTORS
330
32FC
102
}
330
32FC
100
AcDbXrecord
280
     1
102
SHADEPLOT
 70
     0
  0
XRECORD
  5
32FF
102
{ACAD_REACTORS
330
32FE
102
}
330
32FE
100
AcDbXrecord
280
     1
102
SHADEPLOT
 70
     0
  0
GROUP
  5
2F6E
102
{ACAD_REACTORS
330
D
102
}
330
D
100
AcDbGroup
300

 70
     1
 71
     1
  0
LAYOUT
  5
25
102
{ACAD_XDICTIONARY
360
32FA
102
}
102
{ACAD_REACTORS
330
19
102
}
330
19
100
AcDbPlotSettings
  1

  2
Adobe PDF
  4
A4
  6

 40
3.174999952316283
 41
3.174999952316283
 42
3.175003051757812
 43
3.17498779296875
 44
209.9733276367186
 45
297.0318298339843
 46
0.0
 47
1.223941214119577
 48
-147.4709340029866
 49
-206.6335552880179
140
145.78897933783
141
208.4832599609345
142
1.0
143
1.440207863563198
 70
 11956
 72
     1
 73
     0
 74
     4
  7
mono_mee_plot.ctb
 75
     0
147
0.6943442160674734
148
147.4709340029866
149
206.6335552880179
100
AcDbLayout
  1
Model
 70
     1
 71
     0
 10
0.0
 20
0.0
 11
12.0
 21
9.0
 12
0.0
 22
0.0
 32
0.0
 14
0.0
 24
0.0
 34
0.0
 15
0.0
 25
0.0
 35
0.0
146
0.0
 13
0.0
 23
0.0
 33
0.0
 16
1.0
 26
0.0
 36
0.0
 17
0.0
 27
1.0
 37
0.0
 76
     0
330
22
1001
ACAD_PSEXT
1000
Adobe PDF
1000
Adobe PDF Converter
1000
My Documents
1000

1070
     0
  0
LAYOUT
  5
21
102
{ACAD_XDICTIONARY
360
115F
102
}
102
{ACAD_REACTORS
330
19
102
}
330
19
100
AcDbPlotSettings
  1

  2
C:\Program Files\AutoCAD LT 2006\Plotters\BT9050.pc3
  4
A4 Small
  6

 40
3.174999952316283
 41
3.174999952316283
 42
3.175003051757812
 43
3.17498779296875
 44
210.0
 45
297.0
 46
0.0
 47
0.0
 48
0.0
 49
0.0
140
0.0
141
0.0
142
1.0
143
1.0
 70
   688
 72
     0
 73
     1
 74
     5
  7
mono_mee_plot.ctb
 75
    16
147
1.0
148
0.0
149
0.0
100
AcDbLayout
  1
レイアウト1
 70
     1
 71
     1
 10
-0.1249995194082185
 20
-0.1249999981226883
 11
11.56791386641855
 21
8.142716537310382
 12
0.0
 22
0.0
 32
0.0
 14
1.144291386829585
 24
0.8017716417162441
 34
0.0
 15
10.29862248146627
 25
7.215944775446192
 35
0.0
146
0.0
 13
0.0
 23
0.0
 33
0.0
 16
1.0
 26
0.0
 36
0.0
 17
0.0
 27
1.0
 37
0.0
 76
     0
330
1E
331
114D
1001
ACAD_PSEXT
1000
C:\Program Files\AutoCAD LT 2006\Plotters\BT9050.pc3
1000
Fuji Xerox BT9050
1000
mee_pek
1000
AUTOCAD用プロッター
1070
     0
  0
MLINESTYLE
  5
17
102
{ACAD_REACTORS
330
16
102
}
330
16
100
AcDbMlineStyle
  2
STANDARD
 70
     0
  3

 62
   256
 51
90.0
 52
90.0
 71
     2
 49
0.5
 62
   256
  6
BYLAYER
 49
-0.5
 62
   256
  6
BYLAYER
  0
ACDBPLACEHOLDER
  5
F
102
{ACAD_REACTORS
330
E
102
}
330
E
  0
ACAD_PROXY_OBJECT
  5
1D
102
{ACAD_REACTORS
330
1C
102
}
330
1C
100
AcDbProxyObject
 90
      499
 91
      501
 95
   655383
 70
     0
 93
     1841
310
4214DD185B99185C9928B81E85EB51B8AE3F2E07A17AD46E2B8FC02B5E8DC0F42B1CFD028000000C1008070000C3001FDFF8000000C1003FBFF000000182007F7FE00000030400FEFFC00000060801FDFF8000000C1003FBFF00000018200000000000000681FA0B0000001820100E000186003FBFF000000182007F7FE000
310
00030400FEFFC00000060801FDFF8000000C1003FBFF000000182007F7FE000000304000AD7A3703D0AC73F4160000003040201C00030C007F7FE00000030400FEFFC00000060801FDFF8000000C1003FBFF000000182007F7FE00000030400FEFFC000000608000
340
11
340
11
340
11
 94
        0
  0
DICTIONARYVAR
  5
114F
102
{ACAD_REACTORS
330
114E
102
}
330
114E
100
DictionaryVariables
280
     0
  1
STANDARD
  0
DICTIONARYVAR
  5
31E3
102
{ACAD_REACTORS
330
114E
102
}
330
114E
100
DictionaryVariables
280
     0
  1
1
  0
DICTIONARYVAR
  5
31E4
102
{ACAD_REACTORS
330
114E
102
}
330
114E
100
DictionaryVariables
280
     0
  1

  0
DICTIONARY
  5
32FA
330
25
100
AcDbDictionary
280
     1
281
     1
  3
ACAD_XREC_ROUNDTRIP
360
32FB
  0
DICTIONARY
  5
115F
330
21
100
AcDbDictionary
280
     1
281
     1
  3
ACAD_XREC_ROUNDTRIP
360
32F9
  3
ADSK_XREC_LAYOUTTHUMBNAIL
360
1160
  0
XRECORD
  5
32FB
102
{ACAD_REACTORS
330
32FA
102
}
330
32FA
100
AcDbXrecord
280
     1
102
SHADEPLOT
 70
     0
102
SHADEPLOTRESLEVEL
 70
     2
102
SHADEPLOTCUSTOMDPI
 70
   300
  0
XRECORD
  5
32F9
102
{ACAD_REACTORS
330
115F
102
}
330
115F
100
AcDbXrecord
280
     1
102
SHADEPLOT
 70
     0
102
SHADEPLOTRESLEVEL
 70
     2
102
SHADEPLOTCUSTOMDPI
 70
   300
  0
XRECORD
  5
1160
102
{ACAD_REACTORS
330
115F
102
}
330
115F
100
AcDbXrecord
280
     1
310
28000000B40000007F00000001000800000000004C590000000000000000000000010000000000000000000000000000FFFFFF000000000000000000000000000000000000000000000000000000000000000000330000006600000099000000CC000000FF00000000330000333300006633000099330000CC330000FF3300
310
0000660000336600006666000099660000CC660000FF66000000990000339900006699000099990000CC990000FF99000000CC000033CC000066CC000099CC0000CCCC0000FFCC000000FF000033FF000066FF000099FF0000CCFF0000FFFF000000003300330033006600330099003300CC003300FF003300003333003333
310
33006633330099333300CC333300FF33330000663300336633006666330099663300CC663300FF66330000993300339933006699330099993300CC993300FF99330000CC330033CC330066CC330099CC3300CCCC3300FFCC330000FF330033FF330066FF330099FF3300CCFF3300FFFF330000006600330066006600660099
310
006600CC006600FF00660000336600333366006633660099336600CC336600FF33660000666600336666006666660099666600CC666600FF66660000996600339966006699660099996600CC996600FF99660000CC660033CC660066CC660099CC6600CCCC6600FFCC660000FF660033FF660066FF660099FF6600CCFF6600
310
FFFF660000009900330099006600990099009900CC009900FF00990000339900333399006633990099339900CC339900FF33990000669900336699006666990099669900CC669900FF66990000999900339999006699990099999900CC999900FF99990000CC990033CC990066CC990099CC9900CCCC9900FFCC990000FF99
310
0033FF990066FF990099FF9900CCFF9900FFFF99000000CC003300CC006600CC009900CC00CC00CC00FF00CC000033CC003333CC006633CC009933CC00CC33CC00FF33CC000066CC003366CC006666CC009966CC00CC66CC00FF66CC000099CC003399CC006699CC009999CC00CC99CC00FF99CC0000CCCC0033CCCC0066CC
310
CC0099CCCC00CCCCCC00FFCCCC0000FFCC0033FFCC0066FFCC0099FFCC00CCFFCC00FFFFCC000000FF003300FF006600FF009900FF00CC00FF00FF00FF000033FF003333FF006633FF009933FF00CC33FF00FF33FF000066FF003366FF006666FF009966FF00CC66FF00FF66FF000099FF003399FF006699FF009999FF00CC
310
99FF00FF99FF0000CCFF0033CCFF0066CCFF0099CCFF00CCCCFF00FFCCFF0000FFFF0033FFFF0066FFFF0099FFFF00CCFFFF00FFFFFF00000000000D0D0D001A1A1A00282828003535350043434300505050005D5D5D006B6B6B00787878008686860093939300A1A1A100AEAEAE00BBBBBB00C9C9C900D6D6D600E4E4E400
310
F1F1F100FFFFFF0000000000000000000000000000000000000000000000000000000000000000000000000000000000F5F5F5F5F5F5F5F5F5F5F5F5F5F5F5F5F5F5F5F5F5F5F5F5F5F5F5F5F5F5F5F5F5F5F5F5F5F5F5F5F5F5F5F5F5F5F5F5F5F5F5F5F5F5F5F5F5F5F5F5F5F5F5F5F5F5F5F5F5F5F5F5F5F5F5F5F5F5F5
310
F5F5F5F5F5F5F5F5F5F5F5F5F5F5F5F5F5F5F5F5F5F5F5F5F5F5F5F5F5F5F5F5F5F5F5F5F5F5F5F5F5F5F5F5F5F5F5F5F5F5F5F5F5F5F5F5F5F5F5F5F5F5F5F5F5F5F5F5F5F5F5F5F5F5F5F5F5F5F5F5F5F5F5F5F5F5F5F5F5F5F5F5F5F5F5F5F5F5F5F5F5F5E2E2E2E2E2E2E2E2E2E2E2E2E2E2E2E2E2E2E2E2E2E2E2E2E2
310
E2E2E2E2E2E2E2E2E2E2E2E2E2E2E2E2E2E2E2E2E2E2E2E2E2E2E2E2E2E2E2E2E2E2E2E2E2E2E2E2E2E2E2E2E2E2E2E2E2E2E2E2E2E2E2E2E2E2E2E2E2E2E2E2E2E2E2E2E2E2E2E2E2E2E2E2E2E2E2E2E2E2E2E2E2E2E2E2E2E2E2E2E2E2E2E2E2E2E2E2E2E2E2E2E2E2E2E2E2E2E2E2E2E2E2E2E2E2E2E2E2E2E2E2E2E2E2
310
E2E2E2E2E2E2E2E2E2E2E2E2E2E2E2E2E2E2E2E2E2E2E2E2E2F5F5F5E2F5F5F5F5F5F5F5F5E2E2E2E2E2E2E2E2E2F5F5F5F5F5F5F5F5F5F5F5F5F5F5F5F5E2E2E2E2E2E2E2E2E2F5F5F5F5F5F5F5F5F5F5F5F5F5F5F5F5E2E2E2E2E2E2E2E2E2F5F5F5F5F5F5F5F5F5F5F5F5F5F5F5F5E2E2E2E2E2E2E2E2E2F5F5F5F5F5F5
310
F5F5F5F5F5F5F5F5F5F5E2E2E2E2E2E2E2E2E2F5F5F5F5F5F5F5F5F5F5F5F5F5F5F5F5E2E2E2E2E2E2E2E2E2F5F5F5F5F5F5F5F5F5F5F5F5F5F5F5F5E2E2E2E2E2E2E2E2E2F5F5F5F5F5F5F5F5E2F5F5F5E2F5E2E2E2E2E2E2E2E2E2E2E2E2E2E2E2E2E2E2E2E2E2E2E2E2E2E2E2E2E2E2E2E2E2E2E2E2E2E2E2E2E2E2E2E2
310
E2E2E2E2E2E2E2E2E2E2E2E2E2E2E2E2E2E2E2E2E2E2E2E2E2E2E2E2E2E2E2E2E2E2E2E2E2E2E2E2E2E2E2E2E2E2E2E2E2E2E2E2E2E2E2E2E2E2E2E2E2E2E2E2E2E2E2E2E2E2E2E2E2E2E2E2E2E2E2E2E2E2E2E2E2E2E2E2E2E2E2E2E2E2E2E2E2E2E2E2E2E2E2E2E2E2E2E2E2E2E2E2E2E2E2E2E2E2E2E2E2E2E2E2E2E2E2
310
E2E2F5E2F5F5F5E2F5E2E2E2E2E2E2E2E2E2E2E2E2E2E2E2E2E2E2E2E2E2E2E2E2E2E2E2E2E2E2E2E2E2E2E2E2E2E2E2E2E2E2E2E2E2E2E2E2E2E2E2E2E2E2E2E2E2E2E2E2E2E2E2E2E2E2E2E2E2E2E2E2E2E2E2E2E2E2E2E2E2E2E2E2E2E2E2E2E2E2E2E2E2E2E2E2E2E2E2E2E2E2E2E2E2E2E2E2E2E2E2E2E2E2E2E2E2E2
310
E2E2E2E2E2E2E2E2E2E2E2E2E2E2E2E2E2E2E2E2E2E2E2E2E2E2E2E2E2E2E2E2E2E2E2E2E2E2E2E2E2E2E2E2E2E2E2E2E2E2E2E2E2E2E2F5E2F5F5F5E2F5E2E2E2E2E2E2E2E2E2E2E2E2E2E2E2E2E2E2E2E2E2E2E2E2E2E2E2E2E2E2E2E2E2E2E2E2E2E2E2E2E2E2E2E2E2E2E2E2E2E2E2E2E2E2E2E2E2E2E2E2E2E2E2E2E2
310
E2E2E2E2E2E2E2E2E2E2E2E2E2E2E2E2E2E2E2E2E2E2E2E2E2E2E2E2E2E2E2E2E2E2E2E2E2E2E2E2E2E2E2E2E2E2E2E2E2E2E2E2E2E2E2E2E2E2E2E2E2E2E2E2E2E2E2E2E2E2E2E2E2E2E2E2E2E2E2E2E2E2E2E2E2E2E2E2E2E2E2E2E2E2E2E2E2E2E2E2E2E2E2E2E2E2E2E2F5E2F5F5F5E2F5E2E2E2E2E2E2E2E2E2E2E2E2
310
E2E2E2E2E2E2E2E2E2E2E2E2E2E2E2E2E2E2E2E2E2E2E2E2E2E2E2E2E2E2E2E2E2E2E2E2E2E2E2E2E2E2E2E2E2E2E2E2E2E2E2E2E2E2E2E2E2E2E2E2E2E2E2E2E2E2E2E2E2E2E2E2E2E2E2E2E2E2E2E2E2E2E2E2E2E2E2E2E2E2E2E2E2E2E2E2E2E2E2E2E2E2E2E2E2E2E2E2E2E2E2E2E2E2E2E2E2E2E2E2E2E2E2E2E2E2E2
310
E2E2E2E2E2E2E2E2E2E2E2E2E2E2E2E2E2E2E2E2E2E2E2E2E2E2E2E2E2E2E2E2E2E2F5E2F5F5F5E2F5E2E2E2E2E2E2E2E2E2E2E2E2E2E2E2E2E2E2E2E2E2E2E2E2E2E2E2E2E2E2E2E2E2E2E2E2E2E2E2E2E2E2E2E2E2E2E2E2E2E2E2E2E2E2E2E2E2E2E2E2E2E2E2E2E2E2E2E2E2E2E2E2E2E2E2E2E2E2E2E2E2E2E2E2E2E2
310
E2E2E2E2E2E2E2E2E2E2E2E2E2E2E2E2E2E2E2E2E2E2E2E2E2E2E2E2E2E2E2E2E2E2E2E2E2E2E2E2E2E2E2E2E2E2E2E2E2E2E2E2E2E2E2E2E2E2E2E2E2E2E2E2E2E2E2E2E2E2E2E2E2E2E2E2E2E2E2E2E2E2E2E2E2E2E2F5E2F5F5F5E2F5E2E2E2E2E2E2E2E2E2E2E2E2E2E2E2E2E2E2E2E2E2E2E2E2E2E2E2E2E2E2E2E2E2
310
E2E2E2E2E2E2E2E2E2E2E2E2E2E2E2E2E2E2E2E2E2E2E2E2E2E2E2E2E2E2E2E2E2E2E2E2E2E2E2E2E2E2E2E2E2E2E2E2E2E2E2E2E2E2E2E2E2E2E2E2E2E2E2E2E2E2E2E2E2E2E2E2E2E2E2E2E2E2E2E2E2E2E2E2E2E2E2E2E2E2E2E2E2E2E2E2E2E2E2E2E2E2E2E2E2E2E2E2E2E2E2E2E2E2E2E2E2E2E2E2E2E2E2E2E2E2E2
310
E2E2E2E2E2E2E2E2E2E2E2E2E2F5E2F5F5F5E2F5E2E2E2E2E2E2E2E2E2E2E2E2E2E2E2E2E2E2E2E2E2E2E2E2E2E2E2E2E2E2E2E2E2E2E2E2E2E2E2E2E2E2E2E2E2E2E2E2E2E2E2E2E2E2E2E2E2E2E2E2E2E2E2E2E2E2E2E2E2E2E2E2E2E2E2E2E2E2E2E2E2E2E2E2E2E2E2E2E2E2E2E2E2E2E2E2E2E2E2E2E2E2E2E2E2E2E2
310
E2E2E2E2E2E2E2E2E2E2E2E2E2E2E2E2E2E2E2E2E2E2E2E2E2E2E2E2E2E2E2E2E2E2E2E2E2E2E2E2E2E2E2E2E2E2E2E2E2E2E2E2E2E2E2E2E2E2E2E2E2E2E2E2E2E2F5E2F5F5F5E2E2E2E2E2E2E2E2E2E2E2E2E2E2E2E2E2E2E2E2E2E2E2E2E2E2E2E2E2E2E2E2E2E2E2E2E2E2E2E2E2E2E2E2E2E2E2E2E2E2E2E2E2E2E2E2
310
E2E2E2E2E2E2E2E2E2E2E2E2E2E2E2E2E2E2E2E2E2E2E2E2E2E2E2E2E2E2E2E2E2E2E2E2E2E2E2E2E2E2E2E2E2E2E2E2E2E2E2E2E2E2E2E2E2E2E2E2E2E2E2E2E2E2E2E2E2E2E2E2E2E2E2E2E2E2E2E2E2E2E2E2E2E2E2E2E2E2E2E2E2E2E2E2E2E2E2E2E2E2E2E2E2E2E2E2E2E2E2E2E2E2E2E2E2E2E2E2E2F5F5F5E2E2E2
310
E2E2E2E2E2E2E2E2E2E2E2E2E2E2E2E2E2E2E2E2E2E2E2E2E2E2E2E2E2E2E2E2E2E2E2E2E2E2E2E2E2E2E2E2E2E2E2E2E2E2E2E2E2E2E2E2E2E2E2E2E2E2E2E2E2E2E2E2E2E2E2E2E2E2E2E2E2E2E2E2E2E2E2E2E2E2E2E2E2E2E2E2E2E2E2E2E2E2E2E2E2E2E2E2E2E2E2E2E2E2E2E2E2E2E2E2E2E2E2E2E2E2E2E2E2E2E2
310
E2E2E2E2E2E2E2E2E2E2E2E2E2E2E2E2E2E2E2E2E2E2E2E2E2E2E2E2E2E2E2E2E2E2E2E2E2E2E2E2E2E2E2E2E2E2E2F5F5F5E2E2E2E2E2E2E2E2E2E2E2E2E2E2E2E2E2E2E2E2E2E2E2E2E2E2E2E2E2E2E2E2E2E2E2E2E2E2E2E2E2E2E2E2E2E2E2E2E2E2E2E2E2E2E2E2E2E2E2E2E2E2E2E2E2E2E2E2E2E2E2E2E2E2E2E2E2
310
E2E2E2E2E2E2E2E2E2E2E2E2E2E2E2E2E2E2E2E2E2E2E2E2E2E2E2E2E2E2E2E2E2E2E2E2E2E2E2E2E2E2E2E2E2E2E2E2E2E2E2E2E2E2E2E2E2E2E2E2E2E2E2E2E2E2E2E2E2E2E2E2E2E2E2E2E2E2E2E2E2E2E2E2E2E2E2E2E2E2E2E2E2E2E2E2E2E2E2E2F5F5F5E2E2E2E2E2E2E2E2E2E2E2E2E2E2E2E2E2E2E2E2E2E2E2E2
310
E2E2E2E2E2E2E2E2E2E2E2E2E2E2E2E2E2E2E2E2E2E2E2E2E2E2E2E2E2E2E2E2E2E2E2E2E2E2E2E2E2E2E2E2E2E2E2E2E2E2E2E2E2E2E2E2E2E2E2E2E2E2E2E2E2E2E2E2E2E2E2E2E2E2E2E2E2E2E2E2E2E2E2E2E2E2E2E2E2E2E2E2E2E2E2E2E2E2E2E2E2E2E2E2E2E2E2E2E2E2E2E2E2E2E2E2E2E2E2E2E2E2E2E2E2E2E2
310
E2E2E2E2E2E2E2E2E2E2E2E2E2E2E2E2E2E2E2E2E2E2E2E2E2E2F5F5F5E2E2E2E2E2E2E2E2E2E2E2E2E2E2E2E2E2E2E228282828282828282828282828282828282828282828282828282828282828282828282828282828282828282828282828282828282828282828282828282828282828282828282828282828282828
310
282828282828282828282828282828282828282828282828282828282828282828282828282828282828282828282828282828282828282828282828E2E2E2E2E2E2E2E2E2E2E2E2E2E2E2E2E2E2E2F5F5F5E2E2E2E2E2E2E2E2E2E2E2E2E2E2E2E2E2E2E228E2E2E2E2E2E2E2E2E2E2E2E2E2E2E2E2E2E2E2E2E2E2E2E2E2
310
E2E2E2E2E2E2E2E2E2E2E2E2E2E2E2E2E2E2E2E2E2282828282828282828282828282828282828282828282828282828282828282828282828282828282828282828E2E2E2E2E2E2E2E2E2E2E2E2E2E2E2E2E2E2E2E2E2E2E2E2E2E2E2E2E2E2E2E2E2E2E2E2E2E2E2E2E2E2E2E2E2E228E2E2E2E2E2E2E2E2E2E2E2E2E2E2
310
E2E2E2E2E2F5F5F5E2E2E2E2E2E2E2E2E2E2E2E2E2E2E2E2E2E2E228E2E2E2E2E2E2E2E2E2E2E2E2E2E2E2E2E2E2E2E2E2E2E2E2E2E2E2E2E2E2E2E2E2E2E2E2E2E2E2E2E2E2E2E2E2E2282D2D2D2D2D2D2D2D2D2D2D2D2D2D2D2D2D2D2D2D2D2D2D2D2D2D2D2D2D2D2D2D2D2D2D2D2D2D2D2D2D2D2D28E2E2E2E2E2E2E2E2
310
E2E2E2E2E2E2E2E2E2E2E2E2E2E2E2E2E2E2E2E2E2E2E2E2E2E2E2E2E2E2E2E2E2E2E2E2E2E228E2E2E2E2E2E2E2E2E2E2E2E2E2E2E2E2E2E2E2F5F5F5E2E2E2E2E2E2E2E2E2E2E2E2E2E2E2E2E2E2E228E2E2E2E2E2E2E2E2E2E2E2E2E2E2E2E2E2E2E2E2E2E2E2E2E2E2E2E2E2E2E2E2E2E2E2E2E2E2E2E2E2E2E2E2E2E2
310
282D2828282D2D2D2D28282828282828282D2D2D2D2D2D2D2D2D2D2D2D2D2D2D2D2D2D2D2D2D2D2D2D2D2D2D28E2E2E2E2E2E2E2E2E2E2E2E2E2E2E2E2E2E2E2E2E2E2E2E2E2E2E2E2E2E2E2E2E2E2E2E2E2E2E2E2E2E2E2E2E2E228E2E2E2E2E2E2E2E2E2E2E2E2E2E2E2E2E2E2E2F5F5F5E2E2E2E2E2E2E2E2E2E2E2E2E2
310
E2E2E2E2E2E228E2E2E2E2E2E2E2E2E2E2E2E2E2E2E2E2E2E2E2E2E2E2E2E2E2E2E2E2E2E2E2E2E2E2E2E2E2E2E2E2E2E2E2E2E2E228E2282828E22D28282828282828282828282828282828E2E2E2E2E2E2E2E22D2D2D28282828282828E2E2E228E2E2E2E2E2E2E2E2E2E2E2E2E2E2E2E2E2E2E2E2E2E2E2E2E2E2E2E2E2
310
E2E2E2E2E2E2E2E2E2E2E2E2E2E2E2E2E228E2E2E2E2E2E2E2E2E2E2E2E2E2E2E2E2E2E2E2F5F5F5E2F5E2E2E2E2E2E2E2E2E2E2E2E2E2E2E2E2E228E2E2E2E2E2E2E2E2E2E2E2E2E2E2E2E2E2E2E2E2E2E2E2E2E2E2E2E2E2E2E2E2E2E2E2E2E2E2E2E2E2E2E2E2E2E2282D2828282D2D2828282828282828282828282828
310
28282D2D2D2D2D2D2D2D2D2D2D2D2D2D2D2D2D2D2D2D2D28E2E2E2E2E2E2E2E2E2E2E2E2E2E2E2E2E2E2E2E2E2E2E2E2E2E2E2E2E2E2E2E2E2E2E2E2E2E2E2E2E2E2E2E2E2E228E2E2E2E2E2E2E2E2E2E2E2E2E2E2E2E2E2F5E2F5F5F5E2F5E2E2E2E2E2E2E2E2E2E2E2E2E2E2E2E2E228E2E2E2E2E2E2E2E2E2E2E2E2E2E2
310
E2E2E2E2E2E2E2E2E2E2E2E2E2E2E2E2E2E2E2E2E2E2E2E2E2E2E2E2E2E2E2E2282D2D2D2D2D2D2D2D2D2D2D2D2D2D2D2D2D2D2D2D2D2D2D2D2D2D2D2D2D2D2D2D2D2D2D2D2D2D2D2D2D2D2D28E2E2E2E2E2E2E2E2E2E2E2E2E2E2E2E2E2E2E2E2E2E2E2E2E2E2E2E2E2E2E2E2E2E2E2E2E2E2E2E2E2E2E2E2E2E228E2E2E2
310
E2E2E2E2E2E2E2E2E2E2E2E2E2E2F5E2F5F5F5E2F5E2E2E2E2E2E2E2E2E2E2E2E2E2E2E2E2E228E2E2E2E2E2E2E2E2E2E2E2E2E2E2E2E2E2E2E2E2E2E2E2E2E2E2E2E2E2E2E2E2E2E2E2E2E2E2E2E2E2E2E2E2E2E228E2E2E2E2E2E2E2E2E2E2E2E2E2E2E2E2E2E2E2E2E22828282828282828E2E2E2E2E2E2E2E2E2E2E2E2
310
E2E228E2E2E2E2E2E2E2E2E2E2E2E2E2E2E2E2E2E2E2E2E2E2E2E2E2E2E2E2E2E2E2E2E2E2E2E2E2E2E2E2E2E2E2E2E2E228E2E2E2E2E2E2E2E2E2E2E2E2E2E2E2E2E2F5E2F5F5F5E2F5E2E2E2E2E2E2E2E2E2E2E2E2E2E2E2E2E228E2E2E2E2E2E2E2E2E2E2E2E2E2E2E2E2E2E2E2E2E2E2E2E2E2E2E2E2E2E2E2E2E2E2E2
310
E2E2E2E2E2E2E2E2E2E2E228E2E2E2E2E2E2E2E2E2E2E2E2E2E2E2E2E2E2E2E2E22828282828282828E2E2E2E2E2E2E2E2E2E2E2E2E2E228E2E2E2E2E2E2E2E2E2E2E2E2E2E2E2E2E2E2E2E2E2E2E2E2E2E2E2E2E2E2E2E2E2E2E2E2E2E2E2E2E2E2E2E2E2E228E2E2E2E2E2E2E2E2E2E2E2E2E2E2E2E2E2F5E2F5F5F5E2F5
310
E2E2E2E2E2E2E2E2E2E2E2E2E2E2E2E2E228E2E2E2E2E2E2E2E2E2E2E2E2E2E2E2E2E2E2E2E2E2E2E2E2E2E2E2E2E2E2E2E2E2E2E2E2E2E2E2E2E2E2E2E2E2E228E2E2E2E2E2E2E2E2E2E2E2E2E2E2E2E2E2E2E2E2E2282828282828282828E2E2E2E2E2E2E2E2E2E2E2E2E228E2E2E2E2E2E2E2E2E2E2E2E2E2E2E2E2E2E2
310
E2E2E2E2E2E2E2E2E2E2E2E2E2E2E2E2E2E2E2E2E2E2E2E2E2E2E2E228E2E2E2E2E2E2E2E2E2E2E2E2E2E2E2E2E2F5E2F5F5F5E2F5E2E2E2E2E2E2E2E2E2E2E2E2E2E2E2E2E228E2E2E2E2E2E2E2E2E2E2E2E2E2E2E2E2E2E2E2E2E2E2E2E2E2E2E2E2E2E2E2E2E2E2E2E2E2E2E2E2E2E2E2E2E2E228E2E2E2E2E2E2E2E2E2
310
E2E2E2E2E2E2E2E2E2E2E2E2282828282828282828E2E2E2E2E2E2E2E2E2E2E2E2E228E2E2E2E2E2E2E2E2E2E2E2E2E2E2E2E2E2E2E2E2E2E2E2E2E2E2E2E2E2E2E2E2E2E2E2E2E2E2E2E2E2E2E2E2E2E228E2E2E2E2E2E2E2E2E2E2E2E2E2E2E2E2E2F5E2F5F5F5E2F5E2E2E2E2E2E2E2E2E2E2E2E2E2E2E2E2E228E2E2E2
310
E2E2E2E2E2E2E2E2E2E2E2E2E2E2E2E2E2E2E2E2E2E2E2E2E2E2E2E2E2E2E2E2E2E2E2E2E2E2E2E2E2E2E228E2E2E22DE2E2E2E2E2E2E2E2E2E2E22DE2E2E2E22828282828282828E2E2E2E2E2E22828282828282828E228E2E2E2E2E2E2E2E2E2E2E2E2E2E2E2E2E2E2E2E2E2E2E2E2E2E2E2E2E2E2E2E2E2E2E2E2E2E2E2
310
E2E2E2E2E2E2E228E2E2E2E2E2E2E2E2E2E2E2E2E2E2E2E2E2F5E2F5F5F5E2F5E2E2E2E2E2E2E2E2E2E2E2E2E2E2E2E2E228E2E2E2E2E2E2E2E2E2E2E2E2E2E2E2E2E2E2E2E2E2E2E2E2E2E2E2E2E2E2E2E2E2E2E2E2E2E2E2E2E2E2E2E2E2E228E2E2E22D28282828282828282828282D28E2E2E228282828282828282828
310
E2E2E2E22828282828282828E228E2E2E2E2E2E2E2E2E2E2E2E2E2E2E2E2E2E2E2E2E2E2E2E2E2E2E2E2E2E2E2E2E2E2E2E2E2E2E2E2E2E2E2E2E2E228E2E2E2E2E2E2E2E2E2E2E2E2E2E2E2E2E2F5E2F5F5F5E2F5E2E2E2E2E2E2E2E2E2E2E2E2E2E2E2E2E228E2E2E2E2E2E2E2E2E2E2E2E2E2E2E2E2E2E2E2E2E2E2E2E2
310
E2E2E2E2E2E2E2E2E2E2E2E2E2E2E2E2E2E2E2E2E2E228E2E2E22D2D282828282828282828282D28E2E2E22828282828282D2D2828E2E2E2E22828282828282828E228E2E2E2E2E2E2E2E2E2E2E2E2E2E2E2E2E2E2E2E2E2E2E2E2E2E2E2E2E2E2E2E2E2E2E2E2E2E2E2E2E2E2E2E2E2E228E2E2E2E2E2E2E2E2E2E2E2E2E2
310
E2E2E2E2F5E2F5F5F5E2F5E2E2E2E2E2E2E2E2E2E2E2E2E2E2E2E2E228E2E2E2E2E2E2E2E2E2E2E2E2E2E2E2E2E2E2E2E2E2E2E2E2E2E2E2E2E2E2E2E2E2E2E2E2E2E2E2E2E2E2E2E2E2E228E2E2E22828282828282828282828282828E2E2E228282828282828282828E2E2E2E228E2E22828282828E228E2E2E2E2E2E2E2
310
E2E2E2E2E2E2E2E2E2E2E2E2E2E2E2E2E2E2E2E2E2E2E2E2E2E2E2E2E2E2E2E2E2E2E2E2E2E2E228E2E2E2E2E2E2E2E2E2E2E2E2E2E2E2E2E2F5E2F5F5F5E2F5E2E2E2E2E2E2E2E2E2E2E2E2E2E2E2E2E228E2E2E2E2E2E2E2E2E2E2E2E2E2E2E2E2E2E2E2E2E2E2E2E2E2E2E2E2E2E2E2E2E2E2E2E2E2E2E2E2E2E2E2E2E2
310
E228E2E2E22828282828282828282828282828E2E2E228282828282828282828E2E2E2E22828282828282828E228E2E2E2E2E2E2E2E2E2E2E2E2E2E2E2E2E2E2E2E2E2E2E2E2E2E2E2E2E2E2E2E2E2E2E2E2E2E2E2E2E2E2E2E2E2E228E2E2E2E2E2E2E2E2E2E2E2E2E2E2E2E2E2F5E2F5F5F5E2F5E2E2E2E2E2E2E2E2E2E2
310
E2E2E2E2E2E2E228E2E2E2E2E2E2E2E2E2E2E2E2E2E2E2E2E2E2E2E2E2E2E2E2E2E2E2E2E2E2E2E2E2E2E2E2E2E2E2E2E2E2E2E2E2E228E2E2E22828282828282828282828282828E2E2E228282828282828E2E2E2E2E2E2282828282828E2E2E2E228E2E2E2E2E2E2E2E2E2E2E2E2E2E2E2E2E2E2E2E2E2E2E2E2E2E2E2E2
310
E2E2E2E2E2E2E2E2E2E2E2E2E2E2E2E2E2E228E2E2E2E2E2E2E2E2E2E2E2E2E2E2E2E2E2F5E2F5F5F5E2F5E2E2E2E2E2E2E2E2E2E2E2E2E2E2E2E2E228E2E2E2E2E2E2E2E2E2E2E2E2E2E2E2E2E2E2E2E2E2E2E2E2E2E2E2E2E2E2E2E2E2E2E2E2E2E2E2E2E2E2E2E2E2E228E2E2E2282828282D2D2D2D2D2D2D282828E2E2
310
E228282828282828E2E2E2E2E2E22828282828E2E2E2E2E228E2E2E2E2E2E2E2E2E2E2E2E2E2E2E2E2E2E2E2E2E2E2E2E2E2E2E2E2E2E2E2E2E2E2E2E2E2E2E2E2E2E2E2E2E2E228E2E2E2E2E2E2E2E2E2E2E2E2E2E2E2E2E2F5E2F5F5F5E2F5E2E2E2E2E2E2E2E2E2E2E2E2E2E2E2E2E228E2E2E2E2E2E2E2E2E2E2E2E2E2
310
E2E2E2E2E2E2E2E2E2E2E2E2E2E2E2E2E2E2E2E2E2E2E2E2E2E2E2E2E2E2E2E2E228E2E2E2282828282D2D2D2D2D2D2D282828E2E2E2E2E2E2E2E2E2E2E2E2E2E2E2E2E2E2E2E2E2E2E2E2E2E228E2E2E2E2E2E2E2E2E2E2E2E2E2E2E2E2E2E2E2E2E2E2E2E2E2E2E2E2E2E2E2E2E2E2E2E2E2E2E2E2E2E2E2E2E2E228E2E2
310
E2E2E2E2E2E2E2E2E2E2E2E2E2E2E2F5E2F5F5F5E2F5E2E2E2E2E2E2E2E2E2E2E2E2E2E2E2E2E228E2E2E2E2E2E2E2E2E2E2E2E2E2E2E2E2E2E2E2E2E2E2E2E2E2E2E2E2E2E2E2E2E2E2E2E2E2E2E2E2E2E2E2E2E2E228E2E2E22828F5F5F5ECECECC3C3C3282828E2E2E2E2E2E22D2828E2E2E2E2E2E2E2E2E2E2E2E2E2E2
310
E2E2E228E2E2E2E2E2E2E2E2E2E2E2E2E2E2E2E2E2E2E2E2E2E2E2E2E2E2E2E2E2E2E2E2E2E2E2E2E2E2E2E2E2E2E2E2E2E228E2E2E2E2E2E2E2E2E2E2E2E2E2E2E2E2E2F5E2F5F5F5E2F5E2E2E2E2E2E2E2E2E2E2E2E2E2E2E2E2E228E2E2E2E2E2E2E2E2E2E2E2E2E2E2E2E2E2E2E2E2E2E2E2E2E2E2E2E2E2E2E2E2E2E2
310
E2E2E2E2E2E2E2E2E2E2E2E228E2E2E22828C3C3C3C3C3C3C3C3C3C3E228E2E2E2E2E2282828282828282828E2E2E2E2E2E2E2E2E2E2E2E228E2E2E2E2E2E2E2E2E2E2E2E2E2E2E2E2E2E2E2E2E2E2E2E2E2E2E2E2E2E2E2E2E2E2E2E2E2E2E2E2E2E2E2E2E2E228E2E2E2E2E2E2E2E2E2E2E2E2E2E2E2E2E2F5E2F5F5F5E2
310
E2E2E2E2E2E2E2E2E2E2E2E2E2E2E2E2E2E228E2E2E2E2E2E2E2E2E2E2E2E2E2E2E2E2E2E2E2E2E2E2E2E2E2E2E2E2E2E2E2E2E2E2E2E2E2E2E2E2E2E2E2E2E2E228E2E2E2282828C3C3E2C3C3F5C3E228E228E2E2E2E2E22828E2282828282828E2E2E2E2E2E2E2E2E2E2E2E228E2E2E2E2E2E2E2E2E2E2E2E2E2E2E2E2E2
310
E2E2E2E2E2E2E2E2E2E2E2E2E2E2E2E2E2E2E2E2E2E2E2E2E2E2E2E2E228E2E2E2E2E2E2E2E2E2E2E2E2E2E2E2E2E2E2E2F5F5F5E2E2E2E2E2E2E2E2E2E2E2E2E2E2E2E2E2E2E228E2E2E2E2E2E2E2E2E2E2E2E2E2E2E2E2E2E2E2E2E2E2E2E2E2E2E2E2E2E2E2E2E2E2E2E2E2E2E2E2E2E2E2E2E2E228E2E2E228E2E2E2F5
310
F5F5F5F5C3F5D6E228E2E2E2E2E2E2E2E22828E2E2E2E2E2E2E2E2E2E2E2E2E2E2E2E228E2E2E2E2E2E2E2E2E2E2E2E2E2E2E2E2E2E2E2E2E2E2E2E2E2E2E2E2E2E2E2E2E2E2E2E2E2E2E2E2E2E2E2E2E2E228E2E2E2E2E2E2E2E2E2E2E2E2E2E2E2E2E2E2E2F5F5F5E2E2E2E2E2E2E2E2E2E2E2E2E2E2E2E2E2E2E228E2E2
310
E2E2E2E2E2E2E2E2E2E2E2E2E2E2E2E2E2E2E2E2E2E2E2E2E2E2E2E2E2E2E2E2E2E2E2E2E2E2E2E2E2E2E2E228E2E2E228E2E2E2F5F5F5F5F5F5F5D6E228E2E2E2E2E2E2E228282828E2E2E2E2E2E2E2E2E2E2E2E2E2E2E228E2E2E2E2E2E2E2E2E2E2E2E2E2E2E2E2E2E2E2E2E2E2E2E2E2E2E2E2E2E2E2E2E2E2E2E2E2E2
310
E2E2E2E2E2E2E2E228E2E2E2E2E2E2E2E2E2E2E2E2E2E2E2E2E2E2E2F5F5F5E2E2E2E2E2E2E2E2E2E2E2E2E2E2E2E2E2E2E228E2E2E2E2E2E2E2E2E2E2E2E2E2E2E2E2E2E2E2E2E2E2E2E2E2E2E2E2E2E2E2E2E2E2E2E2E2E2E2E2E2E2E2E2E2E228E2E2E228E2E2E228F5C3D628C3D628E228E2E2E2E2E2E2E22828282828
310
282828282828282828E2E2E2E2E228E2E2E2E2E2E2E2E2E2E2E2E2E2E2E2E2E2E2E2E2E2E2E2E2E2E2E2E2E2E2E2E2E2E2E2E2E2E2E2E2E2E2E2E2E2E228E2E2E2E2E2E2E2E2E2E2E2E2E2E2E2E2E2E2E2F5F5F5E2E2E2E2E2E2E2E2E2E2E2E2E2E2E2E2E2E2E228E2E2E2E2E2E2E2E2E2E2E2E2E2E2E2E2E2E2E2E2E2E2E2
310
E2E2E2E2E2E2E2E2E2E2E2E2E2E2E2E2E2E2E2E2E2E2E228E2E2E228E2E2E22828282828E2E2E2E228E2E2E2E2E2E2E22828282828282828282828282828E2E2E2E2E228E2E2E2E2E2E2E2E2E2E2E2E2E2E2E2E2E2E2E2E2E2E2E2E2E2E2E2E2E2E2E2E2E2E2E2E2E2E2E2E2E2E2E2E2E2E228E2E2E2E2E2E2E2E2E2E2E2E2
310
E2E2E2E2E2E2E2F5F5F5E2E2E2E2E2E2E2E2E2E2E2E2E2E2E2E2E2E2E228E2E2E2E2E2E2E2E2E2E2E2E2E2E2E2E2E2E2E2E2E2E2E2E2E2E2E2E2E2E2E2E2E2E2E2E2E2E2E2E2E2E2E2E2E2E228E2E2E22828282828282828282828282D28E2E2E2E2E2E2E2E2E2E2E22828E2282828E2E2E2E2E2E2E2E2E228E2E2E2E2E2E2
310
E2E2E2E2E2E2E2E2E2E2E2E2E2E2E2E2E2E2E2E2E2E2E2E2E2E2E2E2E2E2E2E2E2E2E2E2E2E2E2E228E2E2E2E2E2E2E2E2E2E2E2E2E2E2E2E2E2E2E2F5F5F5E2E2E2E2E2E2E2E2E2E2E2E2E2E2E2E2E2E2E228E2E2E2E2E2E2E2E2E2E2E2E2E2E2E2E2E2E2E2E2E2E2E2E2E2E2E2E2E2E2E2E2E2E2E2E2E2E2E2E2E2E2E2E2
310
E2E228E2E2E228E2E2E228282828282828282828E2E2E2E2E2E2E2E2E2E2E2E2E2E2E2E2E2E2E2E2E2E2E2E2E2E228E2E2E2E2E2E2E2E2E2E2E2E2E2E2E2E2E2E2E2E2E2E2E2E2E2E2E2E2E2E2E2E2E2E2E2E2E2E2E2E2E2E2E2E2E2E228E2E2E2E2E2E2E2E2E2E2E2E2E2E2E2E2E2E2E2F5F5F5E2E2E2E2E2E2E2E2E2E2E2
310
E2E2E2E2E2E2E2E228E2E2E2E2E2E2E2E2E2E2E2E2E2E2E2E2E2E2E2E2E2E2E2E2E2E2E2E2E2E2E2E2E2E2E2E2E2E2E2E2E2E2E2E2E2E228E2E2E22828282828282828282828282828E2E2E22828282828282828282828E2E2E2E2E2E2E2E2E2E2E2E228E2E2E2E2E2E2E2E2E2E2E2E2E2E2E2E2E2E2E2E2E2E2E2E2E2E2E2
310
E2E2E2E2E2E2E2E2E2E2E2E2E2E2E2E2E2E2E228E2E2E2E2E2E2E2E2E2E2E2E2E2E2E2E2E2E2E2F5F5F5E2F5E2E2E2E2E2E2E2E2E2E2E2E2E2E2E2E2E228E2E2E2E2E2E2E2E2E2E2E2E2E2E2E2E2E2E2E2E2E2E2E2E2E2E2E2E2E2E2E2E2E2E2E2E2E2E2E2E2E2E2E2E2E2E228E2E2E2E2E2E2E2E2E2E2E2E2E2E2E2E2E2E2
310
E2E2282828282828282828282828E2E2E2E2E2E2E2E2E2E2E228E2E2E2E2E2E2E2E2E2E2E2E2E2E2E2E2E2E2E2E2E2E2E2E2E2E2E2E2E2E2E2E2E2E2E2E2E2E2E2E2E2E2E2E2E2E228E2E2E2E2E2E2E2E2E2E2E2E2E2E2E2E2E2F5E2F5F5F5E2F5E2E2E2E2E2E2E2E2E2E2E2E2E2E2E2E2E228E2E2E2E2E2E2E2E2E2E2E2E2
310
E2E2E2E2E2E2E2E2E2E2E2E2E2E2E2E2E2E2E2E2E2E2E2E2E2E2E2E2E2E2E2E2E2E228E2E2E2E2E2E2E2E2E2E2E2E2E2E2E2E2E2E2E2E2282828282828282828282828E2E2E2E2E2E2282828282828E2E2E2E2E2E2E2E2E2E2E2E2E2E2E2E2E2E2E2E2E2E2E2E2E2E2E2E2E2E2E2E2E2E2E2E2E2E2E2E2E2E2E2E2E2E228E2
310
E2E2E2E2E2E2E2E2E2E2E2E2E2E2E2E2F5E2F5F5F5E2F5E2E2E2E2E2E2E2E2E2E2E2E2E2E2E2E2E228E2E2E2E2E2E2E2E2E2E2E2E2E2E2E2E2E2E2E2E2E2E2E2E2E2E2E2E2E2E2E2E2E2E2E2E2E2E2E2E2E2E2E2E2E2E228E2E2E2E2E2E2E2E2E2E2E2E2E2E2E2E2E2E2E2E2E2E2E2E2E2E2E2E2E2E2E2E2E2E2E2E2E2E228
310
2828E22828E2E2E2E2E2E2E2E2E2E2E2E2E2E2E2E2E2E2E2E2E2E2E2E2E2E2E2E2E2E2E2E2E2E2E2E2E2E2E2E2E2E2E2E2E2E228E2E2E2E2E2E2E2E2E2E2E2E2E2E2E2E2E2F5E2F5F5F5E2F5E2E2E2E2E2E2E2E2E2E2E2E2E2E2E2E2E228E2E2E2E2E2E2E2E2E2E2E2E2E2E2E2E2E2E2E2E2E2E2E2E2E2E2E2E2E2E2E2E2E2
310
E2E2E2E2E2E2E2E2E2E2E2E2E228E2E2E2282D2D2D2D2D2D2D2D2D2D2D2D2DE2E2E2E2E2E2282D2D2D2D2D2D2D2D2D2D2D2D2D2D2D2DE2E2E228E2E2E2E2E2E2E2E2E2E2E2E2E2E2E2E2E2E2E2E2E2E2E2E2E2E2E2E2E2E2E2E2E2E2E2E2E2E2E2E2E2E2E2E2E2E228E2E2E2E2E2E2E2E2E2E2E2E2E2E2E2E2E2F5E2F5F5F5
310
E2F5E2E2E2E2E2E2E2E2E2E2E2E2E2E2E2E2E228E2E2E2E2E2E2E2E2E2E2E2E2E2E2E2E2E2E2E2E2E2E2E2E2E2E2E2E2E2E2E2E2E2E2E2E2E2E2E2E2E2E2E2E2E2E228E2E22D282D2D2D2D2D2D2D2D2D2D2D2D2D2DE2E2E2E2E2282D282D2D2D2D2D2D2D2D2D2D2D2D2D2DE2E2E228E2E2E2E2E2E2E2E2E2E2E2E2E2E2E2E2
310
E2E2E2E2E2E2E2E2E2E2E2E2E2E2E2E2E2E2E2E2E2E2E2E2E2E2E2E2E2E228E2E2E2E2E2E2E2E2E2E2E2E2E2E2E2E2E2F5E2F5F5F5E2F5E2E2E2E2E2E2E2E2E2E2E2E2E2E2E2E2E228E2E2E2E2E2E2E2E2E2E2E2E2E2E2E2E2E2E2E2E2E2E2E2E2E2E2E2E2E2E2E2E2E2E2E2E2E2E2E2E2E2E2E2E2E2E228E2E2E22DE2E2E2
310
E2E22D2DE2E2E22D2D2DE2E2E2E2E2E22D2D2DE2E22DE2E22DE2E2E22DE2E2282D2DE2E228E2E2E2E2E2E2E2E2E2E2E2E2E2E2E2E2E2E2E2E2E2E2E2E2E2E2E2E2E2E2E2E2E2E2E2E2E2E2E2E2E2E2E2E2E2E228E2E2E2E2E2E2E2E2E2E2E2E2E2E2E2E2E2F5E2F5F5F5E2F5E2E2E2E2E2E2E2E2E2E2E2E2E2E2E2E2E228E2
310
E2E2E2E2E2E2E2E2E2E2E2E2E2E2E2E2E2E2E2E2E2E2E2E2E2E2E2E2E2E2E2E2E2E2E2E2E2E2E2E2E2E2E2E2E228E2E2E22DE2E2E2E2E2E2E2E2E2E22D2D2D2D2DE2E2E2E22DE22DE2E2E2E2E22DE2E2E2E2E2E22D2DE2E2E228E2E2E2E2E2E2E2E2E2E2E2E2E2E2E2E2E2E2E2E2E2E2E2E2E2E2E2E2E2E2E2E2E2E2E2E2E2
310
E2E2E2E2E2E2E2E2E228E2E2E2E2E2E2E2E2E2E2E2E2E2E2E2E2E2F5E2F5F5F5E2F5E2E2E2E2E2E2E2E2E2E2E2E2E2E2E2E2E228E2E2E2E2E2E2E2E2E2E2E2E2E2E2E2E2E2E2E2E2E2E2E2E2E2E2E2E2E2E2E2E2E2E2E2E2E2E2E2E2E2E2E2E2E2E228E2E2E22D282828282828282828282828282D2D2DE2E2E22828282828
310
282828282828282828282828E2E2E228E2E2E2E2E2E2E2E2E2E2E2E2E2E2E2E2E2E2E2E2E2E2E2E2E2E2E2E2E2E2E2E2E2E2E2E2E2E2E2E2E2E2E2E2E2E228E2E2E2E2E2E2E2E2E2E2E2E2E2E2E2E2E2F5E2F5F5F5E2F5E2E2E2E2E2E2E2E2E2E2E2E2E2E2E2E2E228E2E2E2E2E2E2E2E2E2E2E2E2E2E2E2E2E2E2E2E2E2E2
310
E2E2E2E2E2E2E2E2E2E2E2E2E2E2E2E2E2E2E2E2E2E2E2E228E2E2E22D282828282828282828282828282D2D2DE2E2E228E2282828E2E2E22828E2E2E2E2E22828E2E2E228E2E2E2E2E2E2E2E2E2E2E2E2E2E2E2E2E2E2E2E2E2E2E2E2E2E2E2E2E2E2E2E2E2E2E2E2E2E2E2E2E2E2E2E2E2E228E2E2E2E2E2E2E2E2E2E2E2
310
E2E2E2E2E2E2F5E2F5F5F5E2F5E2E2E2E2E2E2E2E2E2E2E2E2E2E2E2E2E228E2E2E2E2E2E2E2E2E2E2E2E2E2E2E2E2E2E2E2E2E2E2E2E2E2E2E2E2E2E2E2E2E2E2E2E2E2E2E2E2E2E2E2E2E2E228E2E2E228E2E2E228E2E22828E2E228E2282DE22DE2E2E228E228E2E2E2E2E2282828282828282828E2E2E228E2E2E2E2E2
310
E2E2E2E2E2E2E2E2E2E2E2E2E2E2E2E2E2E2E2E2E2E2E2E2E2E2E2E2E2E2E2E2E2E2E2E2E2E2E2E2E228E2E2E2E2E2E2E2E2E2E2E2E2E2E2E2E2E2F5E2F5F5F5E2F5E2E2E2E2E2E2E2E2E2E2E2E2E2E2E2E2E228E2E2E2E2E2E2E2E2E2E2E2E2E2E2E2E2E2E2E2E2E2E2E2E2E2E2E2E2E2E2E2E2E2E2E2E2E2E2E2E2E2E2E2
310
E2E2E228E2E2E228E2E2E22828282828282828E2282DE22DE2E2E2282828282828282828E2E2E2E2E2E2E228E2E2E228E2E2E2E2E2E2E2E2E2E2E2E2E2E2E2E2E2E2E2E2E2E2E2E2E2E2E2E2E2E2E2E2E2E2E2E2E2E2E2E2E2E2E2E2E2E228E2E2E2E2E2E2E2E2E2E2E2E2E2E2E2E2E2F5E2F5F5F5E2F5E2E2E2E2E2E2E2E2
310
E2E2E2E2E2E2E2E2E228E2E2E2E2E2E2E2E2E2E2E2E2E2E2E2E2E2E2E2E2E2E2E2E2E2E2E2E2E2E2E2E2E2E2E2E2E2E2E2E2E2E2E2E2E2E228E2E2E228E2E2E22828282828282828E2282DE22DE2E2E2282828282828282828E2E2E2E2E2E2E228E2E2E228E2E2E2E2E2E2E2E2E2E2E2E2E2E2E2E2E2E2E2E2E2E2E2E2E2E2
310
E2E2E2E2E2E2E2E2E2E2E2E2E2E2E2E2E2E2E2E228E2E2E2E2E2E2E2E2E2E2E2E2E2E2E2E2E2F5E2F5F5F5E2F5E2E2E2E2E2E2E2E2E2E2E2E2E2E2E2E2E228E2E2E2E2E2E2E2E2E2E2E2E2E2E2E2E2E2E2E2E2E2E2E2E2E2E2E2E2E2E2E2E2E2E2E2E2E2E2E2E2E2E2E2E2E2E228E2E2E228E2E2E2E228282828282828E228
310
2DE22DE2E2E228E22828282D2D2D28E2E2E2E2E2E2E228E2E2E228E2E2E2E2E2E2E2E2E2E2E2E2E2E2E2E2E2E2E2E2E2E2E2E2E2E2E2E2E2E2E2E2E2E2E2E2E2E2E2E2E2E2E2E2E2E228E2E2E2E2E2E2E2E2E2E2E2E2E2E2E2E2E2F5E2F5F5F5E2F5E2E2E2E2E2E2E2E2E2E2E2E2E2E2E2E2E228E2E2E2E2E2E2E2E2E2E2E2
310
E2E2E2E2E2E2E2E2E2E2E2E2E2E2E2E2E2E2E2E2E2E2E2E2E2E2E2E2E2E2E2E2E2E2E228E2E2E22D2D2D2D2D2D2D2D2D2D2D2D2D2D2DE22DE2E2E228E228E22828282828E2E2E2E2E2E2E228E2E2E228E2E2E2E2E2E2E2E2E2E2E2E2E2E2E2E2E2E2E2E2E2E2E2E2E2E2E2E2E2E2E2E2E2E2E2E2E2E2E2E2E2E2E2E2E2E228
310
E2E2E2E2E2E2E2E2E2E2E2E2E2E2E2E2E2F5E2F5F5F5E2F5E2E2E2E2E2E2E2E2E2E2E2E2E2E2E2E2E228E2E2E2E2E2E2E2E2E2E2E2E2E2E2E2E2E2E2E2E2E2E2E2E2E2E2E2E2E2E2E2E2E2E2E2E2E2E2E2E2E2E2E2E2E2E228E2E2E228E2E2E2E22D2D2D2D2D2DE2E2282D2D2DE2E2E2E22828E22828282828E2E2E2E2E2E2
310
E228E2E2E228E2E2E2E2E2E2E2E2E2E2E2E2E2E2E2E2E2E2E2E2E2E2E2E2E2E2E2E2E2E2E2E2E2E2E2E2E2E2E2E2E2E2E2E2E2E228E2E2E2E2E2E2E2E2E2E2E2E2E2E2E2E2E2F5E2F5F5F5E2F5E2E2E2E2E2E2E2E2E2E2E2E2E2E2E2E2E228E2E2E2E2E2E2E2E2E2E2E2E2E2E2E2E2E2E2E2E2E2E2E2E2E2E2E2E2E2E2E2E2
310
E2E2E2E2E2E2E2E2E2E2E2E2E2E228E2E2E228E2E2E2282828282828282DE2282D2D2DE2E2E2E22828E2E2E2E2E228E2E2E2E2E2E2E228E2E2E228E2E2E2E2E2E2E2E2E2E2E2E2E2E2E2E2E2E2E2E2E2E2E2E2E2E2E2E2E2E2E2E2E2E2E2E2E2E2E2E2E2E2E2E2E2E228E2E2E2E2E2E2E2E2E2E2E2E2E2E2E2E2E2F5E2F5F5
310
F5E2E2E2E2E2E2E2E2E2E2E2E2E2E2E2E2E2E2E228E2E2E2E2E2E2E2E2E2E2E2E2E2E2E2E2E2E2E2E2E2E2E2E2E2E2E2E2E2E2E2E2E2E2E2E2E2E2E2E2E2E2E2E2E2E228E2E2E228E2E2E22DE2E2E2282D2D2DE2282DE22DE2E2E2E22828282828282828E2E2E2E2E2E2E228E2E2E228E2E2E2E2E2E2E2E2E2E2E2E2E2E2E2
310
E2E2E2E2E2E2E2E2E2E2E2E2E2E2E2E2E2E2E2E2E2E2E2E2E2E2E2E2E2E2E228E2E2E2E2E2E2E2E2E2E2E2E2E2E2E2E2E2E2E2F5F5F5E2E2E2E2E2E2E2E2E2E2E2E2E2E2E2E2E2E2E228E2E2E2E2E2E2E2E2E2E2E2E2E2E2E2E2E2E2E2E2E2E2E2E2E2E2E2E2E2E2E2E2E2E2E2E2E2E2E2E2E2E2E2E2E2E228E2E2E22D2D2D
310
2D2D28282828282D282D2D2DE22DE2E2E2E22828282828282828E2E2E2E2E2E2E228E2E2E228E2E2E2E2E2E2E2E2E2E2E2E2E2E2E2E2E2E2E2E2E2E2E2E2E2E2E2E2E2E2E2E2E2E2E2E2E2E2E2E2E2E2E2E2E2E228E2E2E2E2E2E2E2E2E2E2E2E2E2E2E2E2E2E2E2F5F5F5E2E2E2E2E2E2E2E2E2E2E2E2E2E2E2E2E2E2E228
310
E2E2E2E2E2E2E2E2E2E2E2E2E2E2E2E2E2E2E2E2E2E2E2E2E2E2E2E2E2E2E2E2E2E2E2E2E2E2E2E2E2E2E2E2E2E228E2E2E228E2E2E22D282828282D2D28E2282DE22DE2E2E2E22828282828282828E2E2E2E2E2E2E228E2E2E228E2E2E2E2E2E2E2E2E2E2E2E2E2E2E2E2E2E2E2E2E2E2E2E2E2E2E2E2E2E2E2E2E2E2E2E2
310
E2E2E2E2E2E2E2E2E2E228E2E2E2E2E2E2E2E2E2E2E2E2E2E2E2E2E2E2E2F5F5F5E2E2E2E2E2E2E2E2E2E2E2E2E2E2E2E2E2E2E228E2E2E2E2E2E2E2E2E2E2E2E2E2E2E2E2E2E2E2E2E2E2E2E2E2E2E2E2E2E2E2E2E2E2E2E2E2E2E2E2E2E2E2E2E2E228E2E2E228E2E2E22D282828282D2D28E2282DE22DE2E2E2E2282828
310
2828282828E2E2E2E2E2E2E228E2E2E228E2E2E2E2E2E2E2E2E2E2E2E2E2E2E2E2E2E2E2E2E2E2E2E2E2E2E2E2E2E2E2E2E2E2E2E2E2E2E2E2E2E2E2E2E2E228E2E2E2E2E2E2E2E2E2E2E2E2E2E2E2E2E2E2E2F5F5F5E2E2E2E2E2E2E2E2E2E2E2E2E2E2E2E2E2E2E228E2E2E2E2E2E2E2E2E2E2E2E2E2E2E2E2E2E2E2E2E2
310
E2E2E2E2E2E2E2E2E2E2E2E2E2E2E2E2E2E2E2E2E2E2E2E2E228E2E2E228E2E2E22D2D2D2DE22D2D2DE2282DE22DE2E2E2E22828282828282828E2E2E2E2E2E2E228E2E2E228E2E2E2E2E2E2E2E2E2E2E2E2E2E2E2E2E2E2E2E2E2E2E2E2E2E2E2E2E2E2E2E2E2E2E2E2E2E2E2E2E2E2E2E2E2E228E2E2E2E2E2E2E2E2E2E2
310
E2E2E2E2E2E2E2E2E2F5F5F5E2E2E2E2E2E2E2E2E2E2E2E2E2E2E2E2E2E2E228E2E2E2E2E2E2E2E2E2E2E2E2E2E2E2E2E2E2E2E2E2E2E2E2E2E2E2E2E2E2E2E2E2E2E2E2E2E2E2E2E2E2E2E2E2E228E2E2E228E2E2E22D2D2D2D282D2D2D2D282DE22DE2E2E2E228282828282828282828282828282828E2E2E228E2E2E2E2
310
E2E2E2E2E2E2E2E2E2E2E2E2E2E2E2E2E2E2E2E2E2E2E2E2E2E2E2E2E2E2E2E2E2E2E2E2E2E2E2E2E2E228E2E2E2E2E2E2E2E2E2E2E2E2E2E2E2E2E2E2E2F5F5F5E2E2E2E2E2E2E2E2E2E2E2E2E2E2E2E2E2E2E228E2E2E2E2E2E2E2E2E2E2E2E2E2E2E2E2E2E2E2E2E2E2E2E2E2E2E2E2E2E2E2E2E2E2E2E2E2E2E2E2E2E2
310
E2E2E2E228E2E2E22828E2E22D2D2D2D2D2D2D2D2828282D2DE2E2E2E228282D2D2D2D2D2D2DE2E2E2E2E22828E2E2E228E2E2E2E2E2E2E2E2E2E2E2E2E2E2E2E2E2E2E2E2E2E2E2E2E2E2E2E2E2E2E2E2E2E2E2E2E2E2E2E2E2E2E2E2E2E228E2E2E2E2E2E2E2E2E2E2E2E2E2E2E2E2E2E2E2F5F5F5E2E2E2E2E2E2E2E2E2
310
E2E2E2E2E2E2E2E2E2E228E2E2E2E2E2E2E2E2E2E2E2E2E2E2E2E2E2E2E2E2E2E2E2E2E2E2E2E2E2E2E2E2E2E2E2E2E2E2E2E2E2E2E2E2E2E228E2E2E22D28282828282828282828282D282D2D28E2E2E2E228282828282828282828282828282828E2E2E228E2E2E2E2E2E2E2E2E2E2E2E2E2E2E2E2E2E2E2E2E2E2E2E2E2
310
E2E2E2E2E2E2E2E2E2E2E2E2E2E2E2E2E2E2E2E2E228E2E2E2E2E2E2E2E2E2E2E2E2E2E2E2E2E2E2E2F5F5F5E2E2E2E2E2E2E2E2E2E2E2E2E2E2E2E2E2E2E228E2E2E2E2E2E2E2E2E2E2E2E2E2E2E2E2E2E2E2E2E2E2E2E2E2E2E2E2E2E2E2E2E2E2E2E2E2E2E2E2E2E2E2E2E2E228E2E2E2E22D2828282828282DE2E2E2E2
310
E2E2E2E2E2E2E2E2E2E2E2E2E2E2E2E2E2E2E2E2E2E2E2E2E2E2E228E2E2E2E2E2E2E2E2E2E2E2E2E2E2E2E2E2E2E2E2E2E2E2E2E2E2E2E2E2E2E2E2E2E2E2E2E2E2E2E2E2E2E2E2E2E228E2E2E2E2E2E2E2E2E2E2E2E2E2E2E2E2E2E2E2F5F5F5E2F5E2E2E2E2E2E2E2E2E2E2E2E2E2E2E2E2E228E2E2E2E2E2E2E2E2E2E2
310
E2E2E2E2E2E2E2E2E2E2E2E2E2E2E2E2E2E2E2E2E2E2E2E2E2E2E2E2E2E2E2E2E2E2E2E228E2E2E2E2E22828282828282DE2E2E2E2E2E2E2E2E2E2E2E2E2E2E2E2E2E2E2E2E2E2E2E2E2E2E2E2E2E2E228E2E2E2E2E2E2E2E2E2E2E2E2E2E2E2E2E2E2E2E2E2E2E2E2E2E2E2E2E2E2E2E2E2E2E2E2E2E2E2E2E2E2E2E2E2E2
310
28E2E2E2E2E2E2E2E2E2E2E2E2E2E2E2E2E2F5E2F5F5F5E2F5E2E2E2E2E2E2E2E2E2E2E2E2E2E2E2E2E228E2E2E2E2E2E2E2E2E2E2E2E2E2E2E2E2E2E2E2E2E2E2E2E2E2E2E2E2E2E2E2E2E2E2E2E2E2E2E2E2E2E2E2E2E2E228E2E2E22828282828282828282828E2E2E2E2E2E2E2E2E2E2E2E2E2E2E2E2E2E2E2E2E2E2E2
310
E2E2E2E2E2E228E2E2E2E2E2E2E2E2E2E2E2E2E2E2E2E2E2E2E2E2E2E2E2E2E2E2E2E2E2E2E2E2E2E2E2E2E2E2E2E2E2E2E2E2E2E228E2E2E2E2E2E2E2E2E2E2E2E2E2E2E2E2E2F5E2F5F5F5E2F5E2E2E2E2E2E2E2E2E2E2E2E2E2E2E2E2E228E2E2E2E2E2E2E2E2E2E2E2E2E2E2E2E2E2E2E2E2E2E2E2E2E2E2E2E2E2E2E2
310
E2E2E2E2E2E2E2E2E2E2E2E2E2E2E228E2E2282828282828282828282828E2E2E2E2E2E2E2E2E2E2E2E2E2E2E2E2E2E2E2E2E2E2E2E2E2E2E2E2E228E2E2E2E2E2E2E2E2E2E2E2E2E2E2E2E2E2E2E2E2E2E2E2E2E2E2E2E2E2E2E2E2E2E2E2E2E2E2E2E2E2E2E2E2E2E228E2E2E2E2E2E2E2E2E2E2E2E2E2E2E2E2E2F5E2F5
310
F5F5E2F5E2E2E2E2E2E2E2E2E2E2E2E2E2E2E2E2E228E2E2E2E2E2E2E2E2E2E2E2E2E2E2E2E2E2E2E2E2E2E2E2E2E2E2E2E2E2E2E2E2E2E2E2E2E2E2E2E2E2E2E2E2E2E228E2E2E22828282828282828282828E2E2E2E2E2E2E2E2E2E2E2E2E2E2E2E2E2E2E2E2E2E2E2E2E2E2E2E2E228E2E2E2E2E2E2E2E2E2E2E2E2E2E2
310
E2E2E2E2E2E2E2E2E2E2E2E2E2E2E2E2E2E2E2E2E2E2E2E2E2E2E2E2E2E2E2E228E2E2E2E2E2E2E2E2E2E2E2E2E2E2E2E2E2F5E2F5F5F5E2F5E2E2E2E2E2E2E2E2E2E2E2E2E2E2E2E2E228E2E2E2E2E2E2E2E2E2E2E2E2E2E2E2E2E2E2E2E2E2E2E2E2E2E2E2E2E2E2E2E2E2E2E2E2E2E2E2E2E2E2E2E2E2E2282D2D2D2D2D
310
2D2D2D2D2D2D2D2D2D2D2D2D2D2D2D2D2D2D2D2D2D2D2D2D2D2D2D2D2D2D2D2D2D2D2D2D2D2D28E2E2E2E2E2E2E2E2E2E2E2E2E2E2E2E2E2E2E2E2E2E2E2E2E2E2E2E2E2E2E2E2E2E2E2E2E2E2E2E2E2E2E2E2E2E228E2E2E2E2E2E2E2E2E2E2E2E2E2E2E2E2E2F5E2F5F5F5E2F5E2E2E2E2E2E2E2E2E2E2E2E2E2E2E2E2E2
310
28E2E2E2E2E2E2E2E2E2E2E2E2E2E2E2E2E2E2E2E2E2E2E2E2E2E2E2E2E2E2E2E2E2E2E2E2E2E2E2E2E2E2E2E2E2E2282D2D2D2D2D2D2D2D2D2D2D2D2D2D2D2D2D2D2D2D2D2D2D2D2D2D2D2D2D2D2D2D2D2D2D2D2D2D2D2D2D2D2D28E2E2E2E2E2E2E2E2E2E2E2E2E2E2E2E2E2E2E2E2E2E2E2E2E2E2E2E2E2E2E2E2E2E2E2
310
E2E2E2E2E2E2E2E2E2E2E228E2E2E2E2E2E2E2E2E2E2E2E2E2E2E2E2E2F5E2F5F5F5E2F5E2E2E2E2E2E2E2E2E2E2E2E2E2E2E2E2E228E2E2E2E2E2E2E2E2E2E2E2E2E2E2E2E2E2E2E2E2E2E2E2E2E2E2E2E2E2E2E2E2E2E2E2E2E2E2E2E2E2E2E2E2E2E2282828282828282828282828E228282828E2E2E2E2E2E2E2E2E2E2
310
E2E2E22D2D2D2D2D28282828E2E2E2E2E228E2E2E2E2E2E2E2E2E2E2E2E2E2E2E2E2E2E2E2E2E2E2E2E2E2E2E2E2E2E2E2E2E2E2E2E2E2E2E2E2E2E2E2E2E2E228E2E2E2E2E2E2E2E2E2E2E2E2E2E2E2E2E2F5E2F5F5F5E2F5E2E2E2E2E2E2E2E2E2E2E2E2E2E2E2E2E228E2E2E2E2E2E2E2E2E2E2E2E2E2E2E2E2E2E2E2E2
310
E2E2E2E2E2E2E2E2E2E2E2E2E2E2E2E2E2E2E2E2E2E2E2E2E2E2282D2D2D2D2D2D2D2D2D2D2D2D2D2D2D2D2D2D2D2D2D2D2D2D2D2D2D2D2D2D2D2D2D2D2D2D2D2D2D2D2D2D2D28E2E2E2E2E2E2E2E2E2E2E2E2E2E2E2E2E2E2E2E2E2E2E2E2E2E2E2E2E2E2E2E2E2E2E2E2E2E2E2E2E2E2E2E2E2E228E2E2E2E2E2E2E2E2E2
310
E2E2E2E2E2E2E2E2F5E2F5F5F5E2F5E2E2E2E2E2E2E2E2E2E2E2E2E2E2E2E2E228E2E2E2E2E2E2E2E2E2E2E2E2E2E2E2E2E2E2E2E2E2E2E2E2E2E2E2E2E2E2E2E2E2E2E2E2E2E2E2E2E2E2E2E2E2E2282D2D2D2D2D2D2D2D2D2D2D2D2D2D2D2D2D2D2D2D2D2D2D2D2D2D2D2D2D2D2D2D2D2D2D2D2D2D2D2D2D2D2D28E2E2E2
310
E2E2E2E2E2E2E2E2E2E2E2E2E2E2E2E2E2E2E2E2E2E2E2E2E2E2E2E2E2E2E2E2E2E2E2E2E2E2E2E2E2E2E228E2E2E2E2E2E2E2E2E2E2E2E2E2E2E2E2E2F5E2F5F5F5E2F5E2E2E2E2E2E2E2E2E2E2E2E2E2E2E2E2E228E2E2E2E2E2E2E2E2E2E2E2E2E2E2E2E2E2E2E2E2E2E2E2E2E2E2E2E2E2E2E2E2E2E2E2E2E2E2E2E2E2
310
E2E2E2E2E2282828282828282828282828282828282828282828282828282828282828282828282828282828282828282828E2E2E2E2E2E2E2E2E2E2E2E2E2E2E2E2E2E2E2E2E2E2E2E2E2E2E2E2E2E2E2E2E2E2E2E2E2E2E2E2E2E2E2E2E2E228E2E2E2E2E2E2E2E2E2E2E2E2E2E2E2E2E2F5E2F5F5F5E2F5E2E2E2E2E2E2
310
E2E2E2E2E2E2E2E2E2E2E228E2E2E2E2E2E2E2E2E2E2E2E2E2E2E2E2E2E2E2E2E2E2E2E2E2E2E2E2E2E2E2E2E2E2E2E2E2E2E2E2E2E2E2E2E2E2E2E2E2E2E2E2E2E2E2E2E2E2E2E2E2E2E2E2E2E2E2E2E2E2E2E2E2E2E2E2E2E2E2E2E2E2E2E2E2E2E2E2E2E2E2E2E2E2E2E2E2E2E2E2E2E2E2E2E2E2E2E2E2E2E2E2E2E2E2
310
E2E2E2E2E2E2E2E2E2E2E2E2E2E2E2E2E2E2E2E2E2E228E2E2E2E2E2E2E2E2E2E2E2E2E2E2E2E2E2F5E2F5F5F5E2F5E2E2E2E2E2E2E2E2E2E2E2E2E2E2E2E2E228E2E2E2E2E2E2E2E2E2E2E2E2E2E2E2E2E2E2E2E2E2E2E2E2E2E2E2E2E2E2E2E2E2E2E2E2E2E2E2E2E2E2E2E2E2E2E2E2E2E2E2E2E2E2E2E2E2E2E2E2E2E2
310
E2E2E2E2E2E2E2E2E2E2E2E2E2E2E2E2E2E2E2E2E2E2E2E2E2E2E2E2E2E2E2E2E2E2E2E2E2E2E2E2E2E2E2E2E2E2E2E2E2E2E2E2E2E2E2E2E2E2E2E2E2E2E2E2E2E2E2E2E2E2E2E2E2E2E228E2E2E2E2E2E2E2E2E2E2E2E2E2E2E2E2E2F5E2F5F5F5E2F5E2E2E2E2E2E2E2E2E2E2E2E2E2E2E2E2E228E2E2E2E2E2E2E2E2E2
310
E2E2E2E2E2E2E2E2E2E2E2E2E2E2E2E2E2E2E2E2E2E2E2E2E2E2E2E2E2E2E2E2E2E2E2E2E2E2E2E2E2E2E2E2E2E2E2E2E2E2E2E2E2E2E2E2E2E2E2E2E2E2E2E2E2E2E2E2E2E2E2E2E2E2E2E2E2E2E2E2E2E2E2E2E2E2E2E2E2E2E2E2E2E2E2E2E2E2E2E2E2E2E2E2E2E2E2E2E2E2E2E2E2E2E2E2E2E2E2E2E2E2E2E2E2E2E2
310
E228E2E2E2E2E2E2E2E2E2E2E2E2E2E2E2E2E2F5E2F5F5F5E2F5E2E2E2E2E2E2E2E2E2E2E2E2E2E2E2E2E228E2E2E2E2E2E2E2E2E2E2E2E2E2E2E2E2E2E2E2E2E2E2E2E2E2E2E2E2E2E2E2E2E2E2E2E2E2E2E2E2E2E2E2E2E2E2E2E2E2E2E2E2E2E2E2E2E2E2E2E2E2E2E2E2E2E2E2E2E2E2E2E2E2E2E2E2E2E2E2E2E2E2E2
310
E2E2E2E2E2E2E2E2E2E2E2E2E2E2E2E2E2E2E2E2E2E2E2E2E2E2E2E2E2E2E2E2E2E2E2E2E2E2E2E2E2E2E2E2E2E2E2E2E2E2E2E2E2E228E2E2E2E2E2E2E2E2E2E2E2E2E2E2E2E2E2F5E2F5F5F5E2F5E2E2E2E2E2E2E2E2E2E2E2E2E2E2E2E2E228E2E2E2E2E2E2E2E2E2E2E2E2E2E2E2E2E2E2E2E2E2E2E2E2E2E2E2E2E2E2
310
E2E2E2E2E2E2E2E2E2E2E2E2E2E2E2E2E2E2E2E2E2E2E2E2E2E2E2E2E2E2E2E2E2E2E2E2E2E2E2E2E2E2E2E2E2E2E2E2E2E2E2E2E2E2E2E2E2E2E2E2E2E2E2E2E2E2E2E2E2E2E2E2E2E2E2E2E2E2E2E2E2E2E2E2E2E2E2E2E2E2E2E2E2E2E2E2E2E2E2E2E2E2E2E2E2E2E228E2E2E2E2E2E2E2E2E2E2E2E2E2E2E2E2E2F5E2
310
F5F5F5E2F5E2E2E2E2E2E2E2E2E2E2E2E2E2E2E2E2E228E2E2E2E2E2E2E2E2E2E2E2E2E2E2E2E2E2E2E2E2E2E2E2E2E2E2E2E2E2E2E2E2E2E2E2E2E2E2E2E2E2E2E2E2E2E2E2E2E2E2E2E2E2E2E2E2E2E2E2E2E2E2E2E2E2E2E2E2E2E2E2E2E2E2E2E2E2E2E2E2E2E2E2E2E2E2E2E2E2E2E2E2E2E2E2E2E2E2E2E2E2E2E2E2
310
E2E2E2E2E2E2E2E2E2E2E2E2E2E2E2E2E2E2E2E2E2E2E2E2E2E2E2E2E2E2E2E2E228E2E2E2E2E2E2E2E2E2E2E2E2E2E2E2E2E2F5E2F5F5F5E2E2E2E2E2E2E2E2E2E2E2E2E2E2E2E2E2E2E228E2E2E2E2E2E2E2E2E2E2E2E2E2E2E2E2E2E2E2E2E2E2E2E2E2E2E2E2E2E2E2E2E2E2E2E2E2E2E2E2E2E2E2E2E2E2E2E2E2E2E2
310
E2E2E2E2E2E2E2E2E2E2E2E2E2E2E2E2E2E2E2E2E2E2E2E2E2E2E2E2E2E2E2E2E2E2E2E2E2E2E2E2E2E2E2E2E2E2E2E2E2E2E2E2E2E2E2E2E2E2E2E2E2E2E2E2E2E2E2E2E2E2E2E2E2E2E2E2E2E2E2E2E2E2E2E2E2E228E2E2E2E2E2E2E2E2E2E2E2E2E2E2E2E2E2E2E2F5F5F5E2E2E2E2E2E2E2E2E2E2E2E2E2E2E2E2E2E2
310
E228E2E2E2E2E2E2E2E2E2E2E2E2E2E2E2E2E2E2E2E2E2E2E2E2E2E2E2E2E2E2E2E2E2E2E2E2E2E2E2E2E2E2E2E2E2E2E2E2E2E2E2E2E2E2E2E2E2E2E2E2E2E2E2E2E2E2E2E2E2E2E2E2E2E2E2E2E2E2E2E2E2E2E2E2E2E2E2E2E2E2E2E2E2E2E2E2E2E2E2E2E2E2E2E2E2E2E2E2E2E2E2E2E2E2E2E2E2E2E2E2E2E2E2E2E2
310
E2E2E2E2E2E2E2E2E2E2E2E228E2E2E2E2E2E2E2E2E2E2E2E2E2E2E2E2E2E2E2F5F5F5E2E2E2E2E2E2E2E2E2E2E2E2E2E2E2E2E2E2E228E2E2E2E2E2E2E2E2E2E2E2E2E2E2E2E2E2E2E2E2E2E2E2E2E2E2E2E2E2E2E2E2E2E2E2E2E2E2E2E2E2E2E2E2E2E2E2E2E2E2E2E2E2E2E2E2E2E2E2E2E2E2E2E2E2E2E2E2E2E2E2E2
310
E2E2E2E2E2E2E2E2E2E2E2E2E2E2E2E2E2E2E2E2E2E2E2E2E2E2E2E2E2E2E2E2E2E2E2E2E2E2E2E2E2E2E2E2E2E2E2E2E2E2E2E2E2E2E2E2E2E2E2E2E2E2E2E2E228E2E2E2E2E2E2E2E2E2E2E2E2E2E2E2E2E2E2E2F5F5F5E2E2E2E2E2E2E2E2E2E2E2E2E2E2E2E2E2E2E228E2E2E2E2E2E2E2E2E2E2E2E2E2E2E2E2E2E2E2
310
E2E2E2E2E2E2E2E2E2E2E2E2E2E2E2E2E2E2E2E2E2E2E2E2E2E2E2E2E2E2E2E2E2E2E2E2E2E2E2E2E2E2E2E2E2E2E2E2E2E2E2E2E2E2E2E2E2E2E2E2E2E2E2E2E2E2E2E2E2E2E2E2E2E2E2E2E2E2E2E2E2E2E2E2E2E2E2E2E2E2E2E2E2E2E2E2E2E2E2E2E2E2E2E2E2E2E2E2E2E2E2E2E2E2E2E2E2E228E2E2E2E2E2E2E2E2
310
E2E2E2E2E2E2E2E2E2E2E2F5F5F5E2E2E2E2E2E2E2E2E2E2E2E2E2E2E2E2E2E2E228E2E2E2E2E2E2E2E2E2E2E2E2E2E2E2E2E2E2E2E2E2E2E2E2E2E2E2E2E2E2E2E2E2E2E2E2E2E2E2E2E2E2E2E2E2E2E2E2E2E2E2E2E2E2E2E2E2E2E2E2E2E2E2E2E2E2E2E2E2E2E2E2E2E2E2E2E2E2E2E2E2E2E2E2E2E2E2E2E2E2E2E2E2
310
E2E2E2E2E2E2E2E2E2E2E2E2E2E2E2E2E2E2E2E2E2E2E2E2E2E2E2E2E2E2E2E2E2E2E2E2E2E2E2E2E2E2E2E228E2E2E2E2E2E2E2E2E2E2E2E2E2E2E2E2E2E2E2F5F5F5E2E2E2E2E2E2E2E2E2E2E2E2E2E2E2E2E2E2E228E2E2E2E2E2E2E2E2E2E2E2E2E2E2E2E2E2E2E2E2E2E2E2E2E2E2E2E2E2E2E2E2E2E2E2E2E2E2E2E2
310
E2E2E2E2E2E2E2E2E2E2E2E2E2E2E2E2E2E2E2E2E2E2E2E2E2E2E2E2E2E2E2E2E2E2E2E2E2E2E2E2E2E2E2E2E2E2E2E2E2E2E2E2E2E2E2E2E2E2E2E2E2E2E2E2E2E2E2E2E2E2E2E2E2E2E2E2E2E2E2E2E2E2E2E2E2E2E2E2E2E2E2E2E2E2E2E2E228E2E2E2E2E2E2E2E2E2E2E2E2E2E2E2E2E2E2E2F5F5F5E2E2E2E2E2E2E2
310
E2E2E2E2E2E2E2E2E2E2E2E228E2E2E2E2E2E2E2E2E2E2E2E2E2E2E2E2E2E2E2E2E2E2E2E2E2E2E2E2E2E2E2E2E2E2E2E2E2E2E2E2E2E2E2E2E2E2E2E2E2E2E2E2E2E2E2E2E2E2E2E2E2E2E2E2E2E2E2E2E2E2E2E2E2E2E2E2E2E2E2E2E2E2E2E2E2E2E2E2E2E2E2E2E2E2E2E2E2E2E2E2E2E2E2E2E2E2E2E2E2E2E2E2E2E2
310
E2E2E2E2E2E2E2E2E2E2E2E2E2E2E2E2E2E2E2E2E2E2E228E2E2E2E2E2E2E2E2E2E2E2E2E2E2E2E2E2E2E2F5F5F5E2E2E2E2E2E2E2E2E2E2E2E2E2E2E2E2E2E2E228E2E2E2E2E2E2E2E2E2E2E2E2E2E2E2E2E2E2E2E2E2E2E2E2E2E2E2E2E2E2E2E2E2E2E2E2E2E2E2E2E2E2E2E2E2E2E2E2E2E2E2E2E2E2E2E2E2E2E2E2E2
310
E2E2E2E2E2E2E2E2E2E2E2E2E2E2E2E2E2E2E2E2E2E2E2E2E2E2E2E2E2E2E2E2E2E2E2E2E2E2E2E2E2E2E2E2E2E2E2E2E2E2E2E2E2E2E2E2E2E2E2E2E2E2E2E2E2E2E2E2E2E2E2E2E2E2E2E228E2E2E2E2E2E2E2E2E2E2E2E2E2E2E2E2E2E2E2F5F5F5E2F5E2E2E2E2E2E2E2E2E2E2E2E2E2E2E2E2E228E2E2E2E2E2E2E2E2
310
E2E2E2E2E2E2E2E2E2E2E2E2E2E2E2E2E2E2E2E2E2E2E2E2E2E2E2E2E2E2E2E2E2E2E2E2E2E2E2E2E2E2E2E2E2E2E2E2E2E2E2E2E2E2E2E2E2E2E2E2E2E2E2E2E2E2E2E2E2E2E2E2E2E2E2E2E2E2E2E2E2E2E2E2E2E2E2E2E2E2E2E2E2E2E2E2E2E2E2E2E2E2E2E2E2E2E2E2E2E2E2E2E2E2E2E2E2E2E2E2E2E2E2E2E2E2E2
310
E2E228E2E2E2E2E2E2E2E2E2E2E2E2E2E2E2E2E2F5E2F5F5F5E2F5E2E2E2E2E2E2E2E2E2E2E2E2E2E2E2E2E228E2E2E2E2E2E2E2E2E2E2E2E2E2E2E2E2E2E2E2E2E2E2E2E2E2E2E2E2E2E2E2E2E2E2E2E2E2E2E2E2E2E2E2E2E2E2E2E2E2E2E2E2E2E2E2E2E2E2E2E2E2E2E2E2E2E2E2E2E2E2E2E2E2E2E2E2E2E2E2E2E2E2
310
E2E2E2E2E2E2E2E2E2E2E2E2E2E2E2E2E2E2E2E2E2E2E2E2E2E2E2E2E2E2E2E2E2E2E2E2E2E2E2E2E2E2E2E2E2E2E2E2E2E2E2E2E2E2E228E2E2E2E2E2E2E2E2E2E2E2E2E2E2E2E2E2F5E2F5F5F5E2F5E2E2E2E2E2E2E2E2E2E2E2E2E2E2E2E2E228E2E2E2E2E2E2E2E2E2E2E2E2E2E2E2E2E2E2E2E2E2E2E2E2E2E2E2E2E2
310
E2E2E2E2E2E2E2E2E2E2E2E2E2E2E2E2E2E2E2E2E2E2E2E2E2E2E2E2E2E2E2E2E2E2E2E2E2E2E2E2E2E2E2E2E2E2E2E2E2E2E2E2E2E2E2E2E2E2E2E2E2E2E2E2E2E2E2E2E2E2E2E2E2E2E2E2E2E2E2E2E2E2E2E2E2E2E2E2E2E2E2E2E2E2E2E2E2E2E2E2E2E2E2E2E2E2E2E228E2E2E2E2E2E2E2E2E2E2E2E2E2E2E2E2E2F5
310
E2F5F5F5E2F5E2E2E2E2E2E2E2E2E2E2E2E2E2E2E2E2E228E2E2E2E2E2E2E2E2E2E2E2E2E2E2E2E2E2E2E2E2E2E2E2E2E2E2E2E2E2E2E2E2E2E2E2E2E2E2E2E2E2E2E2E2E2E2E2E2E2E2E2E2E2E2E2E2E2E2E2E2E2E2E2E2E2E2E2E2E2E2E2E2E2E2E2E2E2E2E2E2E2E2E2E2E2E2E2E2E2E2E2E2E2E2E2E2E2E2E2E2E2E2E2
310
E2E2E2E2E2E2E2E2E2E2E2E2E2E2E2E2E2E2E2E2E2E2E2E2E2E2E2E2E2E2E2E2E2E228E2E2E2E2E2E2E2E2E2E2E2E2E2E2E2E2E2F5E2F5F5F5E2F5E2E2E2E2E2E2E2E2E2E2E2E2E2E2E2E2E228E2E2E2E2E2E2E2E2E2E2E2E2E2E2E2E2E2E2E2E2E2E2E2E2E2E2E2E2E2E2E2E2E2E2E2E2E2E2E2E2E2E2E2E2E2E2E2E2E2E2
310
E2E2E2E2E2E2E2E2E2E2E2E2E2E2E2E2E2E2E2E2E2E2E2E2E2E2E2E2E2E2E2E2E2E2E2E2E2E2E2E2E2E2E2E2E2E2E2E2E2E2E2E2E2E2E2E2E2E2E2E2E2E2E2E2E2E2E2E2E2E2E2E2E2E2E2E2E2E2E2E2E2E2E2E2E2E2E228E2E2E2E2E2E2E2E2E2E2E2E2E2E2E2E2E2F5E2F5F5F5E2F5E2E2E2E2E2E2E2E2E2E2E2E2E2E2E2
310
E2E228E2E2E2E2E2E2E2E2E2E2E2E2E2E2E2E2E2E2E2E2E2E2E2E2E2E2E2E2E2E2E2E2E2E2E2E2E2E2E2E2E2E2E2E2E2E2E2E2E2E2E2E2E2E2E2E2E2E2E2E2E2E2E2E2E2E2E2E2E2E2E2E2E2E2E2E2E2E2E2E2E2E2E2E2E2E2E2E2E2E2E2E2E2E2E2E2E2E2E2E2E2E2E2E2E2E2E2E2E2E2E2E2E2E2E2E2E2E2E2E2E2E2E2E2
310
E2E2E2E2E2E2E2E2E2E2E2E2E228E2E2E2E2E2E2E2E2E2E2E2E2E2E2E2E2E2F5E2F5F5F5E2F5E2E2E2E2E2E2E2E2E2E2E2E2E2E2E2E2E228E2E2E2E2E2E2E2E2E2E2E2E2E2E2E2E2E2E2E2E2E2E2E2E2E2E2E2E2E2E2E2E2E2E2E2E2E2E2E2E2E2E2E2E2E2E2E2E2E2E2E2E2E2E2E2E2E2E2E2E2E2E2E2E2E2E2E2E2E2E2E2
310
E2E2E2E2E2E2E2E2E2E2E2E2E2E2E2E2E2E2E2E2E2E2E2E2E2E2E2E2E2E2E2E2E2E2E2E2E2E2E2E2E2E2E2E2E2E2E2E2E2E2E2E2E2E2E2E2E2E2E2E2E2E2E2E2E2E228E2E2E2E2E2E2E2E2E2E2E2E2E2E2E2E2E2F5E2F5F5F5E2F5E2E2E2E2E2E2E2E2E2E2E2E2E2E2E2E2E228E2E2E2E2E2E2E2E2E2E2E2E2E2E2E2E2E2E2
310
E2E2E2E2E2E2E2E2E2E2E2E2E2E2E2E2E2E2E2E2E2E2E2E2E2E2E2E2E2E2E2E2E2E2E2E2E2E2E2E2E2E2E2E2E2E2E2E2E2E2E2E2E2E2E2E2E2E2E2E2E2E2E2E2E2E2E2E2E2E2E2E2E2E2E2E2E2E2E2E2E2E2E2E2E2E2E2E2E2E2E2E2E2E2E2E2E2E2E2E2E2E2E2E2E2E2E2E2E2E2E2E2E2E2E2E2E2E2E228E2E2E2E2E2E2E2
310
E2E2E2E2E2E2E2E2E2E2F5E2F5F5F5E2F5E2E2E2E2E2E2E2E2E2E2E2E2E2E2E2E2E228E2E2E2E2E2E2E2E2E2E2E2E2E2E2E2E2E2E2E2E2E2E2E2E2E2E2E2E2E2E2E2E2E2E2E2E2E2E2E2E2E2E2E2E2E2E2E2E2E2E2E2E2E2E2E2E2E2E2E2E2E2E2E2E2E2E2E2E2E2E2E2E2E2E2E2E2E2E2E2E2E2E2E2E2E2E2E2E2E2E2E2E2
310
E2E2E2E2E2E2E2E2E2E2E2E2E2E2E2E2E2E2E2E2E2E2E2E2E2E2E2E2E2E2E2E2E2E2E2E2E2E2E2E2E2E2E2E2E228E2E2E2E2E2E2E2E2E2E2E2E2E2E2E2E2E2F5E2F5F5F5E2F5E2E2E2E2E2E2E2E2E2E2E2E2E2E2E2E2E228E2E2E2E2E2E2E2E2E2E2E2E2E2E2E2E2E2E2E2E2E2E2E2E2E2E2E2E2E2E2E2E2E2E2E2E2E2E2E2
310
E2E2E2E2E2E2E2E2E2E2E2E2E2E2E2E2E2E2E2E2E2E2E2E2E2E2E2E2E2E2E2E2E2E2E2E2E2E2E2E2E2E2E2E2E2E2E2E2E2E2E2E2E2E2E2E2E2E2E2E2E2E2E2E2E2E2E2E2E2E2E2E2E2E2E2E2E2E2E2E2E2E2E2E2E2E2E2E2E2E2E2E2E2E2E2E2E2E228E2E2E2E2E2E2E2E2E2E2E2E2E2E2E2E2E2F5E2F5F5F5E2F5E2E2E2E2
310
E2E2E2E2E2E2E2E2E2E2E2E2E228E2E2E2E2E2E2E2E2E2E2E2E2E2E2E2E2E2E2E2E2E2E2E2E2E2E2E2E2E2E2E2E2E2E2E2E2E2E2E2E2E2E2E2E2E2E2E2E2E2E2E2E2E2E2E2E2E2E2E2E2E2E2E2E2E2E2E2E2E2E2E2E2E2E2E2E2E2E2E2E2E2E2E2E2E2E2E2E2E2E2E2E2E2E2E2E2E2E2E2E2E2E2E2E2E2E2E2E2E2E2E2E2E2
310
E2E2E2E2E2E2E2E2E2E2E2E2E2E2E2E2E2E2E2E2E2E2E2E228E2E2E2E2E2E2E2E2E2E2E2E2E2E2E2E2E2F5E2F5F5F5E2F5E2E2E2E2E2E2E2E2E2E2E2E2E2E2E2E2E228E2E2E2E2E2E2E2E2E2E2E2E2E2E2E2E2E2E2E2E2E2E2E2E2E2E2E2E2E2E2E2E2E2E2E2E2E2E2E2E2E2E2E2E2E2E2E2E2E2E2E2E2E2E2E2E2E2E2E2E2
310
E2E2E2E2E2E2E2E2E2E2E2E2E2E2E2E2E2E2E2E2E2E2E2E2E2E2E2E2E2E2E2E2E2E2E2E2E2E2E2E2E2E2E2E2E2E2E2E2E2E2E2E2E2E2E2E2E2E2E2E2E2E2E2E2E2E2E2E2E2E2E2E2E2E2E2E2E228E2E2E2E2E2E2E2E2E2E2E2E2E2E2E2E2E2F5E2F5F5F5E2F5E2E2E2E2E2E2E2E2E2E2E2E2E2E2E2E2E228E2E2E2E2E2E2E2
310
E2E2E2E2E2E2E2E2E2E2E2E2E2E2E2E2E2E2E2E2E2E2E2E2E2E2E2E2E2E2E2E2E2E2E2E2E2E2E2E2E2E2E2E2E2E2E2E2E2E2E2E2E2E2E2E2E2E2E2E2E2E2E2E2E2E2E2E2E2E2E2E2E2E2E2E2E2E2E2E2E2E2E2E2E2E2E2E2E2E2E2E2E2E2E2E2E2E2E2E2E2E2E2E2E2E2E2E2E2E2E2E2E2E2E2E2E2E2E2E2E2E2E2E2E2E2E2
310
E2E2E228E2E2E2E2E2E2E2E2E2E2E2E2E2E2E2E2E2F5E2F5F5F5E2F5E2E2E2E2E2E2E2E2E2E2E2E2E2E2E2E2E228E2E2E2E2E2E2E2E2E2E2E2E2E2E2E2E2E2E2E2E2E2E2E2E2E2E2E2E2E2E2E2E2E2E2E2E2E2E2E2E2E2E2E2E2E2E2E2E2E2E2E2E2E2E2E2E2E2E2E2E2E2E2E2E2E2E2E2E2E2E2E2E2E2E2E2E2E2E2E2E2E2
310
E2E2E2E2E2E2E2E2E2E2E2E2E2E2E2E2E2E2E2E2E2E2E2E2E2E2E2E2E2E2E2E2E2E2E2E2E2E2E2E2E2E2E2E2E2E2E2E2E2E2E2E2E2E2E2E228E2E2E2E2E2E2E2E2E2E2E2E2E2E2E2E2E2F5E2F5F5F5E2F5E2E2E2E2E2E2E2E2E2E2E2E2E2E2E2E2E228E2E2E2E2E2E2E2E2E2E2E2E2E2E2E2E2E2E2E2E2E2E2E2E2E2E2E2E2
310
E2E2E2E2E2E2E2E2E2E2E2E2E2E2E2E2E2E2E2E2E2E2E2E2E2E2E2E2E2E2E2E2E2E2E2E2E2E2E2E2E2E2E2E2E2E2E2E2E2E2E2E2E2E2E2E2E2E2E2E2E2E2E2E2E2E2E2E2E2E2E2E2E2E2E2E2E2E2E2E2E2E2E2E2E2E2E2E2E2E2E2E2E2E2E2E2E2E2E2E2E2E2E2E2E2E2E2E2E228E2E2E2E2E2E2E2E2E2E2E2E2E2E2E2E2E2
310
F5E2F5F5F5E2F5E2E2E2E2E2E2E2E2E2E2E2E2E2E2E2E2E228E2E2E2E2E2E2E2E2E2E2E2E2E2E2E2E2E2E2E2E2E2E2E2E2E2E2E2E2E2E2E2E2E2E2E2E2E2E2E2E2E2E2E2E2E2E2E2E2E2E2E2E2E2E2E2E2E2E2E2E2E2E2E2E2E2E2E2E2E2E2E2E2E2E2E2E2E2E2E2E2E2E2E2E2E2E2E2E2E2E2E2E2E2E2E2E2E2E2E2E2E2E2
310
E2E2E2E2E2E2E2E2E2E2E2E2E2E2E2E2E2E2E2E2E2E2E2E2E2E2E2E2E2E2E2E2E2E2E228E2E2E2E2E2E2E2E2E2E2E2E2E2E2E2E2E2F5E2F5F5F5E2E2E2E2E2E2E2E2E2E2E2E2E2E2E2E2E2E2E228E2E2E2E2E2E2E2E2E2E2E2E2E2E2E2E2E2E2E2E2E2E2E2E2E2E2E2E2E2E2E2E2E2E2E2E2E2E2E2E2E2E2E2E2E2E2E2E2E2
310
E2E2E2E2E2E2E2E2E2E2E2E2E2E2E2E2E2E2E2E2E2E2E2E2E2E2E2E2E2E2E2E2E2E2E2E2E2E2E2E2E2E2E2E2E2E2E2E2E2E2E2E2E2E2E2E2E2E2E2E2E2E2E2E2E2E2E2E2E2E2E2E2E2E2E2E2E2E2E2E2E2E2E2E2E2E2E2E228E2E2E2E2E2E2E2E2E2E2E2E2E2E2E2E2E2E2E2F5F5F5E2E2E2E2E2E2E2E2E2E2E2E2E2E2E2E2
310
E2E2E228E2E2E2E2E2E2E2E2E2E2E2E2E2E2E2E2E2E2E2E2E2E2E2E2E2E2E2E2E2E2E2E2E2E2E2E2E2E2E2E2E2E2E2E2E2E2E2E2E2E2E2E2E2E2E2E2E2E2E2E2E2E2E2E2E2E2E2E2E2E2E2E2E2E2E2E2E2E2E2E2E2E2E2E2E2E2E2E2E2E2E2E2E2E2E2E2E2E2E2E2E2E2E2E2E2E2E2E2E2E2E2E2E2E2E2E2E2E2E2E2E2E2E2
310
E2E2E2E2E2E2E2E2E2E2E2E2E2E228E2E2E2E2E2E2E2E2E2E2E2E2E2E2E2E2E2E2E2F5F5F5E2E2E2E2E2E2E2E2E2E2E2E2E2E2E2E2E2E2E228E2E2E2E2E2E2E2E2E2E2E2E2E2E2E2E2E2E2E2E2E2E2E2E2E2E2E2E2E2E2E2E2E2E2E2E2E2E2E2E2E2E2E2E2E2E2E2E2E2E2E2E2E2E2E2E2E2E2E2E2E2E2E2E2E2E2E2E2E2E2
310
E2E2E2E2E2E2E2E2E2E2E2E2E2E2E2E2E2E2E2E2E2E2E2E2E2E2E2E2E2E2E2E2E2E2E2E2E2E2E2E2E2E2E2E2E2E2E2E2E2E2E2E2E2E2E2E2E2E2E2E2E2E2E2E2E2E2E228E2E2E2E2E2E2E2E2E2E2E2E2E2E2E2E2E2E2E2F5F5F5E2E2E2E2E2E2E2E2E2E2E2E2E2E2E2E2E2E2E228E2E2E2E2E2E2E2E2E2E2E2E2E2E2E2E2E2
310
E2E2E2E2E2E2E2E2E2E2E2E2E2E2E2E2E2E2E2E2E2E2E2E2E2E2E2E2E2E2E2E2E2E2E2E2E2E2E2E2E2E2E2E2E2E2E2E2E2E2E2E2E2E2E2E2E2E2E2E2E2E2E2E2E2E2E2E2E2E2E2E2E2E2E2E2E2E2E2E2E2E2E2E2E2E2E2E2E2E2E2E2E2E2E2E2E2E2E2E2E2E2E2E2E2E2E2E2E2E2E2E2E2E2E2E2E2E2E2E228E2E2E2E2E2E2
310
E2E2E2E2E2E2E2E2E2E2E2E2E2F5F5F5E2E2E2E2E2E2E2E2E2E2E2E2E2E2E2E2E2E2E22828282828282828282828282828282828282828282828282828282828282828282828282828282828282828282828282828282828282828282828282828282828282828282828282828282828282828282828282828282828282828
310
2828282828282828282828282828282828282828282828282828282828282828282828282828282828282828282828E2E2E2E2E2E2E2E2E2E2E2E2E2E2E2E2E2E2E2F5F5F5E2E2E2E2E2E2E2E2E2E2E2E2E2E2E2E2E2E2E2E2E2E2E2E2E2E2E2E2E2E2E2E2E2E2E2E2E2E2E2E2E2E2E2E2E2E2E2E2E2E2E2E2E2E2E2E2E2E2
310
E2E2E2E2E2E2E2E2E2E2E2E2E2E2E2E2E2E2E2E2E2E2E2E2E2E2E2E2E2E2E2E2E2E2E2E2E2E2E2E2E2E2E2E2E2E2E2E2E2E2E2E2E2E2E2E2E2E2E2E2E2E2E2E2E2E2E2E2E2E2E2E2E2E2E2E2E2E2E2E2E2E2E2E2E2E2E2E2E2E2E2E2E2E2E2E2E2E2E2E2E2E2E2E2E2E2E2E2E2E2E2E2E2E2E2E2E2E2E2F5F5F5E2E2E2E2E2
310
E2E2E2E2E2E2E2E2E2E2E2E2E2E2E2E2E2E2E2E2E2E2E2E2E2E2E2E2E2E2E2E2E2E2E2E2E2E2E2E2E2E2E2E2E2E2E2E2E2E2E2E2E2E2E2E2E2E2E2E2E2E2E2E2E2E2E2E2E2E2E2E2E2E2E2E2E2E2E2E2E2E2E2E2E2E2E2E2E2E2E2E2E2E2E2E2E2E2E2E2E2E2E2E2E2E2E2E2E2E2E2E2E2E2E2E2E2E2E2E2E2E2E2E2E2E2E2
310
E2E2E2E2E2E2E2E2E2E2E2E2E2E2E2E2E2E2E2E2E2E2E2E2E2E2E2E2E2E2E2E2E2E2E2E2E2E2E2E2E2E2E2E2E2F5F5F5E2E2E2E2E2E2E2E2E2E2E2E2E2E2E2E2E2E2E2E2E2E2E2E2E2E2E2E2E2E2E2E2E2E2E2E2E2E2E2E2E2E2E2E2E2E2E2E2E2E2E2E2E2E2E2E2E2E2E2E2E2E2E2E2E2E2E2E2E2E2E2E2E2E2E2E2E2E2E2
310
E2E2E2E2E2E2E2E2E2E2E2E2E2E2E2E2E2E2E2E2E2E2E2E2E2E2E2E2E2E2E2E2E2E2E2E2E2E2E2E2E2E2E2E2E2E2E2E2E2E2E2E2E2E2E2E2E2E2E2E2E2E2E2E2E2E2E2E2E2E2E2E2E2E2E2E2E2E2E2E2E2E2E2E2E2E2E2E2E2E2E2E2E2E2E2E2E2E2F5F5F5E2E2E2E2E2E2E2E2E2E2E2E2E2E2E2E2E2E2E2E2E2E2E2E2E2E2
310
E2E2E2E2E2E2E2E2E2E2E2E2E2E2E2E2E2E2E2E2E2E2E2E2E2E2E2E2E2E2E2E2E2E2E2E2E2E2E2E2E2E2E2E2E2E2E2E2E2E2E2E2E2E2E2E2E2E2E2E2E2E2E2E2E2E2E2E2E2E2E2E2E2E2E2E2E2E2E2E2E2E2E2E2E2E2E2E2E2E2E2E2E2E2E2E2E2E2E2E2E2E2E2E2E2E2E2E2E2E2E2E2E2E2E2E2E2E2E2E2E2E2E2E2E2E2E2
310
E2E2E2E2E2E2E2E2E2E2E2E2E2E2E2E2E2E2E2E2E2E2E2E2F5F5F5E2F5E2E2E2E2E2E2E2E2E2E2E2E2E2E2E2E2E2E2E2E2E2E2E2E2E2E2E2E2E2E2E2E2E2E2E2E2E2E2E2E2E2E2E2E2E2E2E2E2E2E2E2E2E2E2E2E2E2E2E2E2E2E2E2E2E2E2E2E2E2E2E2E2E2E2E2E2E2E2E2E2E2E2E2E2E2E2E2E2E2E2E2E2E2E2E2E2E2E2
310
E2E2E2E2E2E2E2E2E2E2E2E2E2E2E2E2E2E2E2E2E2E2E2E2E2E2E2E2E2E2E2E2E2E2E2E2E2E2E2E2E2E2E2E2E2E2E2E2E2E2E2E2E2E2E2E2E2E2E2E2E2E2E2E2E2E2E2E2E2E2E2E2E2E2E2F5E2F5F5F5E2F5E2E2E2E2E2E2E2E2E2E2E2E2E2E2E2E2E2E2E2E2E2E2E2E2E2E2E2E2E2E2E2E2E2E2E2E2E2E2E2E2E2E2E2E2E2
310
E2E2E2E2E2E2E2E2E2E2E2E2E2E2E2E2E2E2E2E2E2E2E2E2E2E2E2E2E2E2E2E2E2E2E2E2E2E2E2E2E2E2E2E2E2E2E2E2E2E2E2E2E2E2E2E2E2E2E2E2E2E2E2E2E2E2E2E2E2E2E2E2E2E2E2E2E2E2E2E2E2E2E2E2E2E2E2E2E2E2E2E2E2E2E2E2E2E2E2E2E2E2E2E2E2E2E2E2E2E2E2E2E2E2E2E2E2E2E2E2E2E2E2E2E2E2E2
310
E2F5E2F5F5F5E2F5E2E2E2E2E2E2E2E2E2E2E2E2E2E2E2E2E2E2E2E2E2E2E2E2E2E2E2E2E2E2E2E2E2E2E2E2E2E2E2E2E2E2E2E2E2E2E2E2E2E2E2E2E2E2E2E2E2E2E2E2E2E2E2E2E2E2E2E2E2E2E2E2E2E2E2E2E2E2E2E2E2E2E2E2E2E2E2E2E2E2E2E2E2E2E2E2E2E2E2E2E2E2E2E2E2E2E2E2E2E2E2E2E2E2E2E2E2E2E2
310
E2E2E2E2E2E2E2E2E2E2E2E2E2E2E2E2E2E2E2E2E2E2E2E2E2E2E2E2E2E2E2E2E2E2E2E2E2E2E2E2E2E2E2E2E2E2E2E2E2E2E2E2E2E2F5E2F5F5F5E2F5E2E2E2E2E2E2E2E2E2E2E2E2E2E2E2E2E2E2E2E2E2E2E2E2E2E2E2E2E2E2E2E2E2E2E2E2E2E2E2E2E2E2E2E2E2E2E2E2E2E2E2E2E2E2E2E2E2E2E2E2E2E2E2E2E2E2
310
E2E2E2E2E2E2E2E2E2E2E2E2E2E2E2E2E2E2E2E2E2E2E2E2E2E2E2E2E2E2E2E2E2E2E2E2E2E2E2E2E2E2E2E2E2E2E2E2E2E2E2E2E2E2E2E2E2E2E2E2E2E2E2E2E2E2E2E2E2E2E2E2E2E2E2E2E2E2E2E2E2E2E2E2E2E2E2E2E2E2E2E2E2E2E2E2E2E2E2E2E2E2E2E2E2E2E2F5E2F5F5F5E2F5E2E2E2E2E2E2E2E2E2E2E2E2E2
310
E2E2E2E2E2E2E2E2E2E2E2E2E2E2E2E2E2E2E2E2E2E2E2E2E2E2E2E2E2E2E2E2E2E2E2E2E2E2E2E2E2E2E2E2E2E2E2E2E2E2E2E2E2E2E2E2E2E2E2E2E2E2E2E2E2E2E2E2E2E2E2E2E2E2E2E2E2E2E2E2E2E2E2E2E2E2E2E2E2E2E2E2E2E2E2E2E2E2E2E2E2E2E2E2E2E2E2E2E2E2E2E2E2E2E2E2E2E2E2E2E2E2E2E2E2E2E2
310
E2E2E2E2E2E2E2E2E2E2E2E2E2E2E2E2E2E2E2E2E2E2E2E2E2E2E2E2E2E2E2E2E2F5E2F5F5F5E2F5E2E2E2E2E2E2E2E2E2E2E2E2E2E2E2E2E2E2E2E2E2E2E2E2E2E2E2E2E2E2E2E2E2E2E2E2E2E2E2E2E2E2E2E2E2E2E2E2E2E2E2E2E2E2E2E2E2E2E2E2E2E2E2E2E2E2E2E2E2E2E2E2E2E2E2E2E2E2E2E2E2E2E2E2E2E2E2
310
E2E2E2E2E2E2E2E2E2E2E2E2E2E2E2E2E2E2E2E2E2E2E2E2E2E2E2E2E2E2E2E2E2E2E2E2E2E2E2E2E2E2E2E2E2E2E2E2E2E2E2E2E2E2E2E2E2E2E2E2E2E2E2E2E2E2E2E2E2E2E2E2E2E2E2E2E2E2E2E2E2E2E2E2E2E2F5E2F5F5F5E2F5E2E2E2E2E2E2E2E2E2E2E2E2E2E2E2E2E2E2E2E2E2E2E2E2E2E2E2E2E2E2E2E2E2E2
310
E2E2E2E2E2E2E2E2E2E2E2E2E2E2E2E2E2E2E2E2E2E2E2E2E2E2E2E2E2E2E2E2E2E2E2E2E2E2E2E2E2E2E2E2E2E2E2E2E2E2E2E2E2E2E2E2E2E2E2E2E2E2E2E2E2E2E2E2E2E2E2E2E2E2E2E2E2E2E2E2E2E2E2E2E2E2E2E2E2E2E2E2E2E2E2E2E2E2E2E2E2E2E2E2E2E2E2E2E2E2E2E2E2E2E2E2E2E2E2E2E2E2E2E2E2E2E2
310
E2E2E2E2E2E2E2E2E2E2E2E2F5E2F5F5F5E2F5F5F5F5F5F5F5F5E2E2E2E2E2E2E2E2E2F5F5F5F5F5F5F5F5F5F5F5F5F5F5F5F5E2E2E2E2E2E2E2E2E2F5F5F5F5F5F5F5F5F5F5F5F5F5F5F5F5E2E2E2E2E2E2E2E2E2F5F5F5F5F5F5F5F5F5F5F5F5F5F5F5F5E2E2E2E2E2E2E2E2E2F5F5F5F5F5F5F5F5F5F5F5F5F5F5F5F5E2
310
E2E2E2E2E2E2E2E2F5F5F5F5F5F5F5F5F5F5F5F5F5F5F5F5E2E2E2E2E2E2E2E2E2F5F5F5F5F5F5F5F5F5F5F5F5F5F5F5F5E2E2E2E2E2E2E2E2E2F5F5F5F5F5F5F5F5E2F5F5F5E2E2E2E2E2E2E2E2E2E2E2E2E2E2E2E2E2E2E2E2E2E2E2E2E2E2E2E2E2E2E2E2E2E2E2E2E2E2E2E2E2E2E2E2E2E2E2E2E2E2E2E2E2E2E2E2E2
310
E2E2E2E2E2E2E2E2E2E2E2E2E2E2E2E2E2E2E2E2E2E2E2E2E2E2E2E2E2E2E2E2E2E2E2E2E2E2E2E2E2E2E2E2E2E2E2E2E2E2E2E2E2E2E2E2E2E2E2E2E2E2E2E2E2E2E2E2E2E2E2E2E2E2E2E2E2E2E2E2E2E2E2E2E2E2E2E2E2E2E2E2E2E2E2E2E2E2E2E2E2E2E2E2E2E2E2E2E2E2E2E2E2E2E2E2E2E2E2E2F5EFF5F5F5F5F5
310
F5F5F5F5F5F5F5F5F5F5F5F5F5F5F5F5F5F5F5F5F5F5F5F5F5F5F5F5F5F5F5F5F5F5F5F5F5F5F5F5F5F5F5F5F5F5F5F5F5F5F5F5F5F5F5F5F5F5F5F5F5F5F5F5F5F5F5F5F5F5F5F5F5F5F5F5F5F5F5F5F5F5F5F5F5F5F5F5F5F5F5F5F5F5F5F5F5F5F5F5F5F5F5F5F5F5F5F5F5F5F5F5F5F5F5F5F5F5F5F5F5F5F5F5F5F5F5
310
F5F5F5F5F5F5F5F5F5F5F5F5F5F5F5F5F5F5F5F5F5F5F5F5F5F5F5F5F5F5F5F5F5F5F5F5F5F5F5F5F5F5F5F5F5F5F5EF
  0
ENDSEC
  0
EOF
