  0
SECTION
  2
HEADER
  9
$ACADVER
  1
AC1015
  9
$ACADMAINTVER
 70
    10
  9
$DWGCODEPAGE
  3
ANSI_932
  9
$INSBASE
 10
0.0
 20
0.0
 30
0.0
  9
$EXTMIN
 10
340.4253525754652
 20
173.6662774895188
 30
0.0
  9
$EXTMAX
 10
780.8147445559941
 20
501.6662969152803
 30
0.0
  9
$LIMMIN
 10
0.0
 20
0.0
  9
$LIMMAX
 10
210.0
 20
297.0
  9
$ORTHOMODE
 70
     1
  9
$REGENMODE
 70
     1
  9
$FILLMODE
 70
     1
  9
$QTEXTMODE
 70
     0
  9
$MIRRTEXT
 70
     1
  9
$LTSCALE
 40
1.0
  9
$ATTMODE
 70
     1
  9
$TEXTSIZE
 40
2.799999952316284
  9
$TRACEWID
 40
0.05
  9
$TEXTSTYLE
  7
STANDARD1
  9
$CLAYER
  8
19
  9
$CELTYPE
  6
BYLAYER
  9
$CECOLOR
 62
   256
  9
$CELTSCALE
 40
1.0
  9
$DISPSILH
 70
     0
  9
$DIMSCALE
 40
1.199999999999999
  9
$DIMASZ
 40
2.5
  9
$DIMEXO
 40
1.0
  9
$DIMDLI
 40
10.0
  9
$DIMRND
 40
0.0
  9
$DIMDLE
 40
0.0
  9
$DIMEXE
 40
1.0
  9
$DIMTP
 40
0.0
  9
$DIMTM
 40
0.0
  9
$DIMTXT
 40
3.2
  9
$DIMCEN
 40
0.0
  9
$DIMTSZ
 40
0.0
  9
$DIMTOL
 70
     0
  9
$DIMLIM
 70
     0
  9
$DIMTIH
 70
     0
  9
$DIMTOH
 70
     0
  9
$DIMSE1
 70
     0
  9
$DIMSE2
 70
     0
  9
$DIMTAD
 70
     3
  9
$DIMZIN
 70
     8
  9
$DIMBLK
  1

  9
$DIMASO
 70
     1
  9
$DIMSHO
 70
     1
  9
$DIMPOST
  1

  9
$DIMAPOST
  1

  9
$DIMALT
 70
     0
  9
$DIMALTD
 70
     2
  9
$DIMALTF
 40
25.4
  9
$DIMLFAC
 40
1.0
  9
$DIMTOFL
 70
     1
  9
$DIMTVP
 40
0.0
  9
$DIMTIX
 70
     0
  9
$DIMSOXD
 70
     0
  9
$DIMSAH
 70
     1
  9
$DIMBLK1
  1
OPEN30
  9
$DIMBLK2
  1
OPEN30
  9
$DIMSTYLE
  2
MEE-STD
  9
$DIMCLRD
 70
     7
  9
$DIMCLRE
 70
     7
  9
$DIMCLRT
 70
     2
  9
$DIMTFAC
 40
0.7142857313156129
  9
$DIMGAP
 40
1.0
  9
$DIMJUST
 70
     0
  9
$DIMSD1
 70
     0
  9
$DIMSD2
 70
     0
  9
$DIMTOLJ
 70
     1
  9
$DIMTZIN
 70
     8
  9
$DIMALTZ
 70
     0
  9
$DIMALTTZ
 70
     0
  9
$DIMUPT
 70
     0
  9
$DIMDEC
 70
     4
  9
$DIMTDEC
 70
     4
  9
$DIMALTU
 70
     2
  9
$DIMALTTD
 70
     2
  9
$DIMTXSTY
  7
STANDARD1
  9
$DIMAUNIT
 70
     0
  9
$DIMADEC
 70
     0
  9
$DIMALTRND
 40
0.0
  9
$DIMAZIN
 70
     0
  9
$DIMDSEP
 70
    46
  9
$DIMATFIT
 70
     1
  9
$DIMFRAC
 70
     0
  9
$DIMLDRBLK
  1
OPEN30
  9
$DIMLUNIT
 70
     2
  9
$DIMLWD
 70
    -2
  9
$DIMLWE
 70
    -2
  9
$DIMTMOVE
 70
     0
  9
$LUNITS
 70
     2
  9
$LUPREC
 70
     3
  9
$SKETCHINC
 40
0.1
  9
$FILLETRAD
 40
0.0
  9
$AUNITS
 70
     0
  9
$AUPREC
 70
     0
  9
$MENU
  1
acad
  9
$ELEVATION
 40
0.0
  9
$PELEVATION
 40
0.0
  9
$THICKNESS
 40
0.0
  9
$LIMCHECK
 70
     0
  9
$CHAMFERA
 40
0.0
  9
$CHAMFERB
 40
0.0
  9
$CHAMFERC
 40
0.0
  9
$CHAMFERD
 40
0.0
  9
$SKPOLY
 70
     0
  9
$TDCREATE
 40
2451191.397945949
  9
$TDUCREATE
 40
2451191.022945949
  9
$TDUPDATE
 40
2454637.646438159
  9
$TDUUPDATE
 40
2454637.271438159
  9
$TDINDWG
 40
1.0315394907
  9
$TDUSRTIMER
 40
1.0315394907
  9
$USRTIMER
 70
     1
  9
$ANGBASE
 50
0.0
  9
$ANGDIR
 70
     0
  9
$PDMODE
 70
     0
  9
$PDSIZE
 40
0.0
  9
$PLINEWID
 40
0.0
  9
$SPLFRAME
 70
     0
  9
$SPLINETYPE
 70
     6
  9
$SPLINESEGS
 70
     8
  9
$HANDSEED
  5
144AD
  9
$SURFTAB1
 70
     6
  9
$SURFTAB2
 70
     6
  9
$SURFTYPE
 70
     6
  9
$SURFU
 70
     6
  9
$SURFV
 70
     6
  9
$UCSBASE
  2

  9
$UCSNAME
  2

  9
$UCSORG
 10
0.0
 20
0.0
 30
0.0
  9
$UCSXDIR
 10
1.0
 20
0.0
 30
0.0
  9
$UCSYDIR
 10
0.0
 20
1.0
 30
0.0
  9
$UCSORTHOREF
  2

  9
$UCSORTHOVIEW
 70
     0
  9
$UCSORGTOP
 10
0.0
 20
0.0
 30
0.0
  9
$UCSORGBOTTOM
 10
0.0
 20
0.0
 30
0.0
  9
$UCSORGLEFT
 10
0.0
 20
0.0
 30
0.0
  9
$UCSORGRIGHT
 10
0.0
 20
0.0
 30
0.0
  9
$UCSORGFRONT
 10
0.0
 20
0.0
 30
0.0
  9
$UCSORGBACK
 10
0.0
 20
0.0
 30
0.0
  9
$PUCSBASE
  2

  9
$PUCSNAME
  2

  9
$PUCSORG
 10
0.0
 20
0.0
 30
0.0
  9
$PUCSXDIR
 10
1.0
 20
0.0
 30
0.0
  9
$PUCSYDIR
 10
0.0
 20
1.0
 30
0.0
  9
$PUCSORTHOREF
  2

  9
$PUCSORTHOVIEW
 70
     0
  9
$PUCSORGTOP
 10
0.0
 20
0.0
 30
0.0
  9
$PUCSORGBOTTOM
 10
0.0
 20
0.0
 30
0.0
  9
$PUCSORGLEFT
 10
0.0
 20
0.0
 30
0.0
  9
$PUCSORGRIGHT
 10
0.0
 20
0.0
 30
0.0
  9
$PUCSORGFRONT
 10
0.0
 20
0.0
 30
0.0
  9
$PUCSORGBACK
 10
0.0
 20
0.0
 30
0.0
  9
$USERI1
 70
     0
  9
$USERI2
 70
     0
  9
$USERI3
 70
     0
  9
$USERI4
 70
     0
  9
$USERI5
 70
     0
  9
$USERR1
 40
0.0
  9
$USERR2
 40
0.0
  9
$USERR3
 40
0.0
  9
$USERR4
 40
0.0
  9
$USERR5
 40
0.0
  9
$WORLDVIEW
 70
     1
  9
$SHADEDGE
 70
     3
  9
$SHADEDIF
 70
    70
  9
$TILEMODE
 70
     1
  9
$MAXACTVP
 70
    48
  9
$PINSBASE
 10
0.0
 20
0.0
 30
0.0
  9
$PLIMCHECK
 70
     0
  9
$PEXTMIN
 10
119.0033918502065
 20
27.72139283273488
 30
0.0
  9
$PEXTMAX
 10
195.2292400279477
 20
76.03165923913123
 30
0.0
  9
$PLIMMIN
 10
-2.784582988306385
 20
-4.021721575255403
  9
$PLIMMAX
 10
212.6550810822894
 20
300.7428804718353
  9
$UNITMODE
 70
     0
  9
$VISRETAIN
 70
     1
  9
$PLINEGEN
 70
     0
  9
$PSLTSCALE
 70
     1
  9
$TREEDEPTH
 70
  3020
  9
$CMLSTYLE
  2
STANDARD
  9
$CMLJUST
 70
     0
  9
$CMLSCALE
 40
1.0
  9
$PROXYGRAPHICS
 70
     1
  9
$MEASUREMENT
 70
     0
  9
$CELWEIGHT
370
    -1
  9
$ENDCAPS
280
     0
  9
$JOINSTYLE
280
     0
  9
$LWDISPLAY
290
     1
  9
$INSUNITS
 70
     0
  9
$HYPERLINKBASE
  1

  9
$STYLESHEET
  1

  9
$XEDIT
290
     1
  9
$CEPSNTYPE
380
     0
  9
$PSTYLEMODE
290
     1
  9
$FINGERPRINTGUID
  2
{A77E61C1-23D0-409A-AECB-FD451AE3BEA9}
  9
$VERSIONGUID
  2
{B2FA2D08-C583-4B9B-A77E-B54BC179E6C8}
  9
$EXTNAMES
290
     1
  9
$PSVPSCALE
 40
0.0
  9
$OLESTARTUP
290
     0
  0
ENDSEC
  0
SECTION
  2
CLASSES
  0
CLASS
  1
DICTIONARYVAR
  2
AcDbDictionaryVar
  3
AutoCAD 2000
 90
        0
280
     0
281
     0
  0
CLASS
  1
HATCH
  2
AcDbHatch
  3
AutoCAD 2000
 90
    32768
280
     0
281
     1
  0
CLASS
  1
IDBUFFER
  2
AcDbIdBuffer
  3
AutoCAD 2000
 90
    32768
280
     0
281
     0
  0
CLASS
  1
ACDBDICTIONARYWDFLT
  2
AcDbDictionaryWithDefault
  3
AutoCAD 2000
 90
        0
280
     0
281
     0
  0
CLASS
  1
ACDBPLACEHOLDER
  2
AcDbPlaceHolder
  3
AutoCAD 2000
 90
        0
280
     0
281
     0
  0
CLASS
  1
LAYOUT
  2
AcDbLayout
  3
AutoCAD 2000
 90
        0
280
     0
281
     0
  0
CLASS
  1
LONG_TRANSACTION
  2
AcDbLongTransaction
  3
AutoCAD 2000
 90
    32768
280
     0
281
     0
  0
CLASS
  1
LWPOLYLINE
  2
AcDbPolyline
  3
AutoCAD 2000
 90
    32768
280
     0
281
     1
  0
CLASS
  1
HATCH
  2
AcDbHatch
  3
AutoCAD 2000
 90
    32768
280
     0
281
     1
  0
CLASS
  1
XRECORD
  2
AcDbXrecord
  3
AutoCAD 2000
 90
    32768
280
     0
281
     0
  0
CLASS
  1
LONG_TRANSACTION
  2
AcDbLongTransaction
  3
AutoCAD 2000
 90
    32768
280
     0
281
     0
  0
CLASS
  1
LWPOLYLINE
  2
AcDbPolyline
  3
AutoCAD 2000
 90
    32768
280
     0
281
     1
  0
CLASS
  1
HATCH
  2
AcDbHatch
  3
AutoCAD 2000
 90
    32768
280
     0
281
     1
  0
CLASS
  1
XRECORD
  2
AcDbXrecord
  3
AutoCAD 2000
 90
    32768
280
     0
281
     0
  0
CLASS
  1
LONG_TRANSACTION
  2
AcDbLongTransaction
  3
AutoCAD 2000
 90
    32768
280
     0
281
     0
  0
CLASS
  1
LWPOLYLINE
  2
AcDbPolyline
  3
AutoCAD 2000
 90
    32768
280
     0
281
     1
  0
CLASS
  1
HATCH
  2
AcDbHatch
  3
AutoCAD 2000
 90
    32768
280
     0
281
     1
  0
CLASS
  1
XRECORD
  2
AcDbXrecord
  3
AutoCAD 2000
 90
    32768
280
     0
281
     0
  0
CLASS
  1
LONG_TRANSACTION
  2
AcDbLongTransaction
  3
AutoCAD 2000
 90
    32768
280
     0
281
     0
  0
CLASS
  1
LWPOLYLINE
  2
AcDbPolyline
  3
AutoCAD 2000
 90
    32768
280
     0
281
     1
  0
CLASS
  1
HATCH
  2
AcDbHatch
  3
AutoCAD 2000
 90
    32768
280
     0
281
     1
  0
CLASS
  1
XRECORD
  2
AcDbXrecord
  3
AutoCAD 2000
 90
    32768
280
     0
281
     0
  0
CLASS
  1
TABLESTYLE
  2
AcDbTableStyle
  3
ObjectDBX Classes
 90
     2047
280
     0
281
     0
  0
ENDSEC
  0
SECTION
  2
TABLES
  0
TABLE
  2
VPORT
  5
8
330
0
100
AcDbSymbolTable
 70
     3
  0
VPORT
  5
144AC
330
8
100
AcDbSymbolTableRecord
100
AcDbViewportTableRecord
  2
*Active
 70
     0
 10
0.0
 20
0.0
 11
1.0
 21
1.0
 12
721.3556724798698
 22
273.2852334683314
 13
0.0
 23
0.0
 14
5.0
 24
5.0
 15
5.0
 25
5.0
 16
0.0
 26
0.0
 36
1.0
 17
0.0
 27
0.0
 37
0.0
 40
178.9168109946472
 41
1.527918781725888
 42
50.0
 43
0.0
 44
0.0
 50
0.0
 51
0.0
 71
     0
 72
   100
 73
     1
 74
     0
 75
     0
 76
     0
 77
     0
 78
     0
281
     0
 65
     1
110
0.0
120
0.0
130
0.0
111
1.0
121
0.0
131
0.0
112
0.0
122
1.0
132
0.0
 79
     0
146
0.0
  0
ENDTAB
  0
TABLE
  2
LTYPE
  5
5
330
0
100
AcDbSymbolTable
 70
     4
  0
LTYPE
  5
12
330
5
100
AcDbSymbolTableRecord
100
AcDbLinetypeTableRecord
  2
BYBLOCK
 70
     0
  3

 72
    65
 73
     0
 40
0.0
  0
LTYPE
  5
13
330
5
100
AcDbSymbolTableRecord
100
AcDbLinetypeTableRecord
  2
BYLAYER
 70
     0
  3

 72
    65
 73
     0
 40
0.0
  0
LTYPE
  5
14
330
5
100
AcDbSymbolTableRecord
100
AcDbLinetypeTableRecord
  2
CONTINUOUS
 70
     0
  3
Solid line
 72
    65
 73
     0
 40
0.0
  0
LTYPE
  5
2CDF
330
5
100
AcDbSymbolTableRecord
100
AcDbLinetypeTableRecord
  2
HIDDEN
 70
     0
  3
Hidden __ __ __ __ __ __ __ __ __ __ __ __ __ _
 72
    65
 73
     2
 40
0.375
 49
0.25
 74
     0
 49
-0.125
 74
     0
  0
LTYPE
  5
2CE0
330
5
100
AcDbSymbolTableRecord
100
AcDbLinetypeTableRecord
  2
CENTER
 70
     0
  3
Center ____ _ ____ _ ____ _ ____ _ ____ _ ____
 72
    65
 73
     4
 40
2.0
 49
1.25
 74
     0
 49
-0.25
 74
     0
 49
0.25
 74
     0
 49
-0.25
 74
     0
  0
LTYPE
  5
826C
330
5
100
AcDbSymbolTableRecord
100
AcDbLinetypeTableRecord
  2
DASHED
 70
     0
  3
-- -- -- -- -- -- -- -- -- -- -- -- -- -- --
 72
    65
 73
     2
 40
0.75
 49
0.5
 74
     0
 49
-0.25
 74
     0
  0
ENDTAB
  0
TABLE
  2
LAYER
  5
2
102
{ACAD_XDICTIONARY
360
13042
102
}
330
0
100
AcDbSymbolTable
 70
     7
  0
LAYER
  5
E
330
2
100
AcDbSymbolTableRecord
100
AcDbLayerTableRecord
  2
0
 70
     0
 62
     3
  6
CONTINUOUS
370
    -3
390
12C99
  0
LAYER
  5
7399
330
2
100
AcDbSymbolTableRecord
100
AcDbLayerTableRecord
  2
DEFPOINTS
 70
     0
 62
     7
  6
CONTINUOUS
290
     0
370
    -3
390
12C99
  0
LAYER
  5
14361
330
2
100
AcDbSymbolTableRecord
100
AcDbLayerTableRecord
  2
11
 70
     0
 62
     7
  6
CONTINUOUS
370
    -3
390
12C99
  0
LAYER
  5
1436B
330
2
100
AcDbSymbolTableRecord
100
AcDbLayerTableRecord
  2
10
 70
     0
 62
     4
  6
CONTINUOUS
370
    -3
390
12C99
  0
LAYER
  5
1436C
330
2
100
AcDbSymbolTableRecord
100
AcDbLayerTableRecord
  2
12
 70
     0
 62
     3
  6
CONTINUOUS
370
    -3
390
12C99
  0
LAYER
  5
14374
330
2
100
AcDbSymbolTableRecord
100
AcDbLayerTableRecord
  2
18
 70
     0
 62
     1
  6
HIDDEN
370
    -3
390
12C99
  0
LAYER
  5
14495
330
2
100
AcDbSymbolTableRecord
100
AcDbLayerTableRecord
  2
19
 70
     0
 62
     7
  6
CONTINUOUS
370
    -3
390
12C99
  0
ENDTAB
  0
TABLE
  2
STYLE
  5
3
330
0
100
AcDbSymbolTable
 70
     2
  0
STYLE
  5
F
330
3
100
AcDbSymbolTableRecord
100
AcDbTextStyleTableRecord
  2
STANDARD
 70
     0
 40
0.0
 41
1.0
 50
0.0
 71
     0
 42
0.2
  3
romans.shx
  4
bigfont.shx
  0
STYLE
  5
1F
330
3
100
AcDbSymbolTableRecord
100
AcDbTextStyleTableRecord
  2
STANDARD1
 70
     0
 40
0.0
 41
1.0
 50
0.0
 71
     0
 42
2.799999952316284
  3
romans.shx
  4
BIGFONT.shx
  0
ENDTAB
  0
TABLE
  2
VIEW
  5
6
330
0
100
AcDbSymbolTable
 70
     0
  0
ENDTAB
  0
TABLE
  2
UCS
  5
7
330
0
100
AcDbSymbolTable
 70
     0
  0
ENDTAB
  0
TABLE
  2
APPID
  5
9
330
0
100
AcDbSymbolTable
 70
    15
  0
APPID
  5
10
330
9
100
AcDbSymbolTableRecord
100
AcDbRegAppTableRecord
  2
ACAD
 70
     0
  0
APPID
  5
342
330
9
100
AcDbSymbolTableRecord
100
AcDbRegAppTableRecord
  2
CONTENTTABDATA
 70
     0
  0
APPID
  5
343
330
9
100
AcDbSymbolTableRecord
100
AcDbRegAppTableRecord
  2
CONTENTCURRENTTAB
 70
     0
  0
APPID
  5
714
330
9
100
AcDbSymbolTableRecord
100
AcDbRegAppTableRecord
  2
CONTENTBLOCKICON
 70
     0
  0
APPID
  5
940
330
9
100
AcDbSymbolTableRecord
100
AcDbRegAppTableRecord
  2
CONTENTBLOCKDESCRIPTION
 70
     0
  0
APPID
  5
1304F
330
9
100
AcDbSymbolTableRecord
100
AcDbRegAppTableRecord
  2
ACAD_PSEXT
 70
     0
  0
APPID
  5
13104
330
9
100
AcDbSymbolTableRecord
100
AcDbRegAppTableRecord
  2
ACAD_DSTYLE_DIMTEXT_FILL
 70
     0
  0
APPID
  5
13105
330
9
100
AcDbSymbolTableRecord
100
AcDbRegAppTableRecord
  2
ACAD_DSTYLE_DIMEXT_LENGTH
 70
     0
  0
APPID
  5
13106
330
9
100
AcDbSymbolTableRecord
100
AcDbRegAppTableRecord
  2
ACAD_DSTYLE_DIMEXT_ENABLED
 70
     0
  0
APPID
  5
13107
330
9
100
AcDbSymbolTableRecord
100
AcDbRegAppTableRecord
  2
ACAD_DSTYLE_DIM_LINETYPE
 70
     0
  0
APPID
  5
13108
330
9
100
AcDbSymbolTableRecord
100
AcDbRegAppTableRecord
  2
ACAD_DSTYLE_DIM_EXT1_LINETYPE
 70
     0
  0
APPID
  5
13109
330
9
100
AcDbSymbolTableRecord
100
AcDbRegAppTableRecord
  2
ACAD_DSTYLE_DIM_EXT2_LINETYPE
 70
     0
  0
APPID
  5
13195
330
9
100
AcDbSymbolTableRecord
100
AcDbRegAppTableRecord
  2
ACAD_DSTYLE_DIMJOGGED_JOGANGLE_SYMBOL
 70
     0
  0
APPID
  5
131BD
330
9
100
AcDbSymbolTableRecord
100
AcDbRegAppTableRecord
  2
ACAD_DSTYLE_DIMARC_LENGTH_SYMBOL
 70
     0
  0
APPID
  5
137A6
330
9
100
AcDbSymbolTableRecord
100
AcDbRegAppTableRecord
  2
ACAD_EXEMPT_FROM_CAD_STANDARDS
 70
     0
  0
ENDTAB
  0
TABLE
  2
DIMSTYLE
  5
A
330
0
100
AcDbSymbolTable
 70
     2
100
AcDbDimStyleTable
 71
     1
340
71C
  0
DIMSTYLE
105
2F5
330
A
100
AcDbSymbolTableRecord
100
AcDbDimStyleTableRecord
  2
STANDARD
 70
     0
 41
3.863703297614046
 42
1.0
 44
1.0
 77
     1
140
2.799999952316284
146
0.7142857313156129
340
F
  0
DIMSTYLE
105
71C
330
A
100
AcDbSymbolTableRecord
100
AcDbDimStyleTableRecord
  2
MEE-STD
 70
     0
 40
0.0
 41
2.5
 42
1.0
 43
10.0
 44
1.0
 73
     0
 74
     0
 77
     3
 78
     8
140
2.799999952316284
141
0.0
146
0.7142857313156129
147
1.0
172
     1
173
     1
176
     7
177
     7
178
     2
284
     8
289
     1
340
1F
341
715
343
715
344
715
  0
ENDTAB
  0
TABLE
  2
BLOCK_RECORD
  5
1
330
0
100
AcDbSymbolTable
 70
     1
  0
BLOCK_RECORD
  5
18
102
{ACAD_XDICTIONARY
360
12CC5
102
}
330
1
100
AcDbSymbolTableRecord
100
AcDbBlockTableRecord
  2
*MODEL_SPACE
340
12C9C
  0
BLOCK_RECORD
  5
15
102
{ACAD_XDICTIONARY
360
12CC3
102
}
330
1
100
AcDbSymbolTableRecord
100
AcDbBlockTableRecord
  2
*PAPER_SPACE
340
12C9D
  0
BLOCK_RECORD
  5
715
330
1
100
AcDbSymbolTableRecord
100
AcDbBlockTableRecord
  2
_OPEN30
340
0
  0
ENDTAB
  0
ENDSEC
  0
SECTION
  2
BLOCKS
  0
BLOCK
  5
19
330
18
100
AcDbEntity
  8
0
100
AcDbBlockBegin
  2
*MODEL_SPACE
 70
     0
 10
0.0
 20
0.0
 30
0.0
  3
*MODEL_SPACE
  1

  0
ENDBLK
  5
1A
330
18
100
AcDbEntity
  8
0
100
AcDbBlockEnd
  0
BLOCK
  5
16
330
15
100
AcDbEntity
 67
     1
  8
0
100
AcDbBlockBegin
  2
*PAPER_SPACE
 70
     0
 10
0.0
 20
0.0
 30
0.0
  3
*PAPER_SPACE
  1

  0
ENDBLK
  5
17
330
15
100
AcDbEntity
 67
     1
  8
0
100
AcDbBlockEnd
  0
BLOCK
  5
716
330
715
100
AcDbEntity
  8
0
100
AcDbBlockBegin
  2
_OPEN30
 70
     0
 10
0.0
 20
0.0
 30
0.0
  3
_OPEN30
  1

  0
LINE
  5
717
330
715
100
AcDbEntity
  8
0
  6
ByBlock
 62
     0
100
AcDbLine
 10
-1.0
 20
0.26794919
 30
0.0
 11
0.0
 21
0.0
 31
0.0
  0
LINE
  5
718
330
715
100
AcDbEntity
  8
0
  6
ByBlock
 62
     0
100
AcDbLine
 10
0.0
 20
0.0
 30
0.0
 11
-1.0
 21
-0.26794919
 31
0.0
  0
LINE
  5
719
330
715
100
AcDbEntity
  8
0
  6
ByBlock
 62
     0
100
AcDbLine
 10
0.0
 20
0.0
 30
0.0
 11
-1.0
 21
0.0
 31
0.0
  0
ENDBLK
  5
71A
330
715
100
AcDbEntity
  8
0
100
AcDbBlockEnd
  0
ENDSEC
  0
SECTION
  2
ENTITIES
  0
LINE
  5
11B84
330
18
100
AcDbEntity
  8
10
 48
3.0
100
AcDbLine
 10
510.9253799896785
 20
273.6662785895406
 30
0.0
 11
359.9253799896785
 21
273.6662785895406
 31
0.0
  0
LINE
  5
11B85
330
18
100
AcDbEntity
  8
10
 48
3.0
100
AcDbLine
 10
362.4253799896783
 20
401.6662785895406
 30
0.0
 11
508.4253799896783
 21
401.6662785895406
 31
0.0
  0
ARC
  5
11B86
330
18
100
AcDbEntity
  8
10
 48
3.0
100
AcDbCircle
 10
402.4253799896785
 20
400.6662785895406
 30
0.0
 40
0.9999999999999984
100
AcDbArc
 50
90.0
 51
180.0
  0
LINE
  5
11B87
330
18
100
AcDbEntity
  8
10
 48
3.0
100
AcDbLine
 10
401.5740526744783
 20
353.5718548552857
 30
0.0
 11
434.5345368856786
 21
353.5718548552857
 31
0.0
  0
ARC
  5
11B88
330
18
100
AcDbEntity
  8
10
 48
3.0
100
AcDbCircle
 10
402.4253799896785
 20
274.6662785895404
 30
0.0
 40
0.9999999999999984
100
AcDbArc
 50
180.0
 51
270.0
  0
LINE
  5
11B89
330
18
100
AcDbEntity
  8
10
 48
3.0
100
AcDbLine
 10
402.1634841416786
 20
327.0715142063307
 30
0.0
 11
402.4025595637783
 21
327.1062477663308
 31
0.0
  0
LINE
  5
11B8E
330
18
100
AcDbEntity
  8
10
 48
3.0
100
AcDbLine
 10
400.4253799896786
 20
274.6662785895404
 30
0.0
 11
400.4253799896786
 21
400.6662785895406
 31
0.0
  0
LINE
  5
11B8F
330
18
100
AcDbEntity
  8
10
 48
3.0
100
AcDbLine
 10
361.4253799896783
 20
274.6662785895404
 30
0.0
 11
361.4253799896783
 21
400.6662785895406
 31
0.0
  0
LINE
  5
11B90
330
18
100
AcDbEntity
  8
10
 48
3.0
100
AcDbLine
 10
350.4253799896786
 20
388.9515104847406
 30
0.0
 11
350.4253799896786
 21
286.3810466942518
 31
0.0
  0
LINE
  5
11B91
330
18
100
AcDbEntity
  8
10
 48
3.0
100
AcDbLine
 10
401.4253799896785
 20
274.6662785895404
 30
0.0
 11
401.4253799896785
 21
400.6662785895406
 31
0.0
  0
LINE
  5
11B93
330
18
100
AcDbEntity
  8
12
  6
CENTER
 48
3.0
100
AcDbLine
 10
350.9253799896783
 20
278.6662785895404
 30
0.0
 11
361.9253799896785
 21
278.6662785895404
 31
0.0
  0
ARC
  5
11B94
330
18
100
AcDbEntity
  8
12
 48
3.0
100
AcDbCircle
 10
352.9253799896785
 20
276.1662785895405
 30
0.0
 40
1.000000000000007
100
AcDbArc
 50
270.0
 51
0.0
  0
LINE
  5
11B95
330
18
100
AcDbEntity
  8
10
 48
3.0
100
AcDbLine
 10
359.2018371249785
 20
283.2620751044406
 30
0.0
 11
351.1665609445733
 21
285.4151208679633
 31
0.0
  0
LINE
  5
11B96
330
18
100
AcDbEntity
  8
12
 48
3.0
100
AcDbLine
 10
350.4253799896786
 20
286.3810466942518
 30
0.0
 11
350.4253799896786
 21
276.1662785895405
 31
0.0
  0
ARC
  5
11B97
330
18
100
AcDbEntity
  8
12
 48
3.0
100
AcDbCircle
 10
351.4253799896785
 20
276.1662785895405
 30
0.0
 40
0.9999999999999984
100
AcDbArc
 50
180.0
 51
270.0
  0
LINE
  5
11B98
330
18
100
AcDbEntity
  8
12
 48
3.0
100
AcDbLine
 10
352.9253799896785
 20
275.1662785895404
 30
0.0
 11
351.4253799896785
 21
275.1662785895404
 31
0.0
  0
ARC
  5
11B99
330
18
100
AcDbEntity
  8
10
 48
3.0
100
AcDbCircle
 10
351.4253799896785
 20
286.3810466942518
 30
0.0
 40
0.9999999999999984
100
AcDbArc
 50
180.0
 51
254.9999999998539
  0
ARC
  5
11B9A
330
18
100
AcDbEntity
  8
10
 48
3.0
100
AcDbCircle
 10
358.4253799896786
 20
280.3642976255405
 30
0.0
 40
3.000000000000015
100
AcDbArc
 50
0.0
 51
74.99999999999959
  0
ARC
  5
11B9B
330
18
100
AcDbEntity
  8
10
 48
3.0
100
AcDbCircle
 10
362.4253799896783
 20
274.6662785895404
 30
0.0
 40
0.9999999999999984
100
AcDbArc
 50
180.0
 51
270.0
  0
LINE
  5
11B9C
330
18
100
AcDbEntity
  8
12
  6
CENTER
 48
3.0
100
AcDbLine
 10
356.4253799896785
 20
284.1662785895404
 30
0.0
 11
356.4253799896785
 21
273.1662785895404
 31
0.0
  0
LINE
  5
11B9D
330
18
100
AcDbEntity
  8
12
 48
3.0
100
AcDbLine
 10
353.9253799896787
 20
278.6662785895404
 30
0.0
 11
353.9253799896787
 21
276.1662785895405
 31
0.0
  0
LINE
  5
11B9E
330
18
100
AcDbEntity
  8
12
 48
3.0
100
AcDbLine
 10
358.9253799896783
 20
278.6662785895404
 30
0.0
 11
358.9253799896783
 21
274.6662785895404
 31
0.0
  0
ARC
  5
11B9F
330
18
100
AcDbEntity
  8
12
 48
3.0
100
AcDbCircle
 10
359.9253799896785
 20
274.6662785895404
 30
0.0
 40
0.9999999999999984
100
AcDbArc
 50
180.0
 51
270.0
  0
ARC
  5
11BA0
330
18
100
AcDbEntity
  8
12
 48
3.0
100
AcDbCircle
 10
356.4253799896785
 20
278.6662785895404
 30
0.0
 40
2.500000000000015
100
AcDbArc
 50
0.0
 51
180.0
  0
ARC
  5
11BA1
330
18
100
AcDbEntity
  8
10
 48
3.0
100
AcDbCircle
 10
399.4253799896785
 20
274.6662785895404
 30
0.0
 40
0.9999999999999984
100
AcDbArc
 50
270.0
 51
0.0
  0
LINE
  5
11BA2
330
18
100
AcDbEntity
  8
10
 48
3.0
100
AcDbLine
 10
361.4253799896783
 20
353.5718548552857
 30
0.0
 11
400.4253799896786
 21
353.5718548552857
 31
0.0
  0
LINE
  5
11BA3
330
18
100
AcDbEntity
  8
10
 48
3.0
100
AcDbLine
 10
399.4253799896785
 20
327.1190667224308
 30
0.0
 11
362.4253799896783
 21
327.1190667224308
 31
0.0
  0
LINE
  5
11BA4
330
18
100
AcDbEntity
  8
10
 48
3.0
100
AcDbLine
 10
361.7182732514784
 20
327.0191390565309
 30
0.0
 11
361.9253800320784
 21
327.0733580226309
 31
0.0
  0
LINE
  5
11BA5
330
18
100
AcDbEntity
  8
10
 48
3.0
100
AcDbLine
 10
361.5593546151783
 20
326.9484795186308
 30
0.0
 11
361.7182732514784
 21
327.0191390565309
 31
0.0
  0
LINE
  5
11BA6
330
18
100
AcDbEntity
  8
10
 48
3.0
100
AcDbLine
 10
361.4594541734784
 20
326.8661947364309
 30
0.0
 11
361.5593546151783
 21
326.9484795186308
 31
0.0
  0
LINE
  5
11BA7
330
18
100
AcDbEntity
  8
10
 48
3.0
100
AcDbLine
 10
361.4253799896783
 20
326.7778922802308
 30
0.0
 11
361.4594541734784
 21
326.8661947364309
 31
0.0
  0
LINE
  5
11BA8
330
18
100
AcDbEntity
  8
10
 48
3.0
100
AcDbLine
 10
362.1665609706784
 20
327.1074414876308
 30
0.0
 11
362.4253799896783
 21
327.1190667224308
 31
0.0
  0
LINE
  5
11BA9
330
18
100
AcDbEntity
  8
10
 48
3.0
100
AcDbLine
 10
361.9253800320784
 20
327.0733580226309
 30
0.0
 11
362.1665609706784
 21
327.1074414876308
 31
0.0
  0
LINE
  5
11BAA
330
18
100
AcDbEntity
  8
12
 48
3.0
100
AcDbLine
 10
351.4253799896785
 20
401.6662785895406
 30
0.0
 11
362.4253799896783
 21
401.6662785895406
 31
0.0
  0
LINE
  5
11BAB
330
18
100
AcDbEntity
  8
12
  6
CENTER
 48
3.0
100
AcDbLine
 10
350.9253799896783
 20
396.6662785895406
 30
0.0
 11
361.9253799896785
 21
396.6662785895406
 31
0.0
  0
LINE
  5
11BAC
330
18
100
AcDbEntity
  8
10
 48
3.0
100
AcDbLine
 10
351.1665670943783
 20
389.9174379589405
 30
0.0
 11
359.2018371249785
 21
392.0704820745406
 31
0.0
  0
LINE
  5
11BAD
330
18
100
AcDbEntity
  8
12
 48
3.0
100
AcDbLine
 10
350.4253799896786
 20
400.6662785895406
 30
0.0
 11
350.4253799896786
 21
388.9515104847406
 31
0.0
  0
ARC
  5
11BAE
330
18
100
AcDbEntity
  8
10
 48
3.0
100
AcDbCircle
 10
351.4253799896785
 20
388.9515104847406
 30
0.0
 40
1.00000000000003
100
AcDbArc
 50
105.0000000000004
 51
180.0
  0
ARC
  5
11BAF
330
18
100
AcDbEntity
  8
12
 48
3.0
100
AcDbCircle
 10
351.4253799896785
 20
400.6662785895406
 30
0.0
 40
0.9999999999999984
100
AcDbArc
 50
90.0
 51
180.0
  0
ARC
  5
11BB0
330
18
100
AcDbEntity
  8
10
 48
3.0
100
AcDbCircle
 10
358.4253799896786
 20
394.9682595534406
 30
0.0
 40
3.000000000000063
100
AcDbArc
 50
284.9999999999998
 51
0.0
  0
ARC
  5
11BB1
330
18
100
AcDbEntity
  8
10
 48
3.0
100
AcDbCircle
 10
362.4253799896783
 20
400.6662785895406
 30
0.0
 40
0.9999999999999984
100
AcDbArc
 50
90.0
 51
180.0
  0
LINE
  5
11BB2
330
18
100
AcDbEntity
  8
12
  6
CENTER
 48
3.0
100
AcDbLine
 10
356.4253799896785
 20
391.1662785895406
 30
0.0
 11
356.4253799896785
 21
402.1662785895406
 31
0.0
  0
CIRCLE
  5
11BB3
330
18
100
AcDbEntity
  8
12
 48
3.0
100
AcDbCircle
 10
356.4253799896785
 20
396.6662785895406
 30
0.0
 40
2.500000000000015
  0
LINE
  5
11BB6
330
18
100
AcDbEntity
  8
10
 48
3.0
100
AcDbLine
 10
401.4253799896785
 20
314.6662785895404
 30
0.0
 11
400.4253799896786
 21
314.6662785895404
 31
0.0
  0
LINE
  5
11BB7
330
18
100
AcDbEntity
  8
10
 48
3.0
100
AcDbLine
 10
399.4253799896785
 20
327.1190667224308
 30
0.0
 11
399.6841990071783
 21
327.1074414877308
 31
0.0
  0
LINE
  5
11BB8
330
18
100
AcDbEntity
  8
10
 48
3.0
100
AcDbLine
 10
399.6841990071783
 20
327.1074414877308
 30
0.0
 11
399.9253799449784
 21
327.0733580230309
 31
0.0
  0
LINE
  5
11BB9
330
18
100
AcDbEntity
  8
10
 48
3.0
100
AcDbLine
 10
399.9253799449784
 20
327.0733580230309
 30
0.0
 11
400.1324867255783
 21
327.0191390573308
 31
0.0
  0
LINE
  5
11BBA
330
18
100
AcDbEntity
  8
10
 48
3.0
100
AcDbLine
 10
400.1324867255783
 20
327.0191390573308
 30
0.0
 11
400.2914053625785
 21
326.9484795195308
 31
0.0
  0
LINE
  5
11BBB
330
18
100
AcDbEntity
  8
10
 48
3.0
100
AcDbLine
 10
400.2914053625785
 20
326.9484795195308
 30
0.0
 11
400.3913058052784
 21
326.8661947371309
 31
0.0
  0
LINE
  5
11BBC
330
18
100
AcDbEntity
  8
10
 48
3.0
100
AcDbLine
 10
400.3913058052784
 20
326.8661947371309
 30
0.0
 11
400.4253799896786
 21
326.7778922802308
 31
0.0
  0
LINE
  5
11BBD
330
18
100
AcDbEntity
  8
10
 48
3.0
100
AcDbLine
 10
401.6588842930786
 20
326.7778922802308
 30
0.0
 11
401.6964518111786
 21
326.8653050800308
 31
0.0
  0
LINE
  5
11BBE
330
18
100
AcDbEntity
  8
10
 48
3.0
100
AcDbLine
 10
401.6964518111786
 20
326.8653050800308
 30
0.0
 11
401.7982421017785
 21
326.9468839386309
 31
0.0
  0
LINE
  5
11BBF
330
18
100
AcDbEntity
  8
10
 48
3.0
100
AcDbLine
 10
401.7982421017785
 20
326.9468839386309
 30
0.0
 11
401.9574616603785
 21
327.0171842667307
 31
0.0
  0
LINE
  5
11BC0
330
18
100
AcDbEntity
  8
10
 48
3.0
100
AcDbLine
 10
401.9574616603785
 20
327.0171842667307
 30
0.0
 11
402.1634841416786
 21
327.0715142063307
 31
0.0
  0
ARC
  5
11BC1
330
18
100
AcDbEntity
  8
10
 48
3.0
100
AcDbCircle
 10
399.4253799896785
 20
400.6662785895406
 30
0.0
 40
0.9999999999999984
100
AcDbArc
 50
0.0
 51
90.0
  0
LINE
  5
11BD5
330
18
100
AcDbEntity
  8
11
 48
3.0
100
AcDbLine
 10
492.9253799896785
 20
390.6662785895406
 30
0.0
 11
435.9253799896785
 21
390.6662785895406
 31
0.0
  0
LINE
  5
11BD6
330
18
100
AcDbEntity
  8
11
 48
3.0
100
AcDbLine
 10
435.7224422241784
 20
391.5371208353405
 30
0.0
 11
493.1283177551782
 21
391.5371208353405
 31
0.0
  0
ARC
  5
11BD7
330
18
100
AcDbEntity
  8
11
 48
3.0
100
AcDbCircle
 10
464.4253799896785
 20
512.9662785895407
 30
0.0
 40
175.3
100
AcDbArc
 50
260.8694598376
 51
279.1305401624
  0
LINE
  5
11BD8
330
18
100
AcDbEntity
  8
11
 48
3.0
100
AcDbLine
 10
468.1118966677784
 20
334.5454640387405
 30
0.0
 11
464.5959802410783
 21
334.5013224703405
 31
0.0
  0
LINE
  5
11BDA
330
18
100
AcDbEntity
  8
10
 48
3.0
100
AcDbLine
 10
402.6587319851785
 20
327.1190667224308
 30
0.0
 11
508.1920279941783
 21
327.1190667224308
 31
0.0
  0
LINE
  5
11C02
330
18
100
AcDbEntity
  8
11
 48
3.0
100
AcDbLine
 10
434.5345374889785
 20
389.8692162288406
 30
0.0
 11
434.0545377438784
 21
389.8692162202405
 31
0.0
  0
LINE
  5
11C03
330
18
100
AcDbEntity
  8
11
 48
3.0
100
AcDbLine
 10
434.3673396435786
 20
390.8429683593404
 30
0.0
 11
434.5613966104783
 21
391.0678492941406
 31
0.0
  0
LINE
  5
11C04
330
18
100
AcDbEntity
  8
11
 48
3.0
100
AcDbLine
 10
434.3039425061784
 20
340.5881052946406
 30
0.0
 11
434.9253799896785
 21
341.8620997977406
 31
0.0
  0
LINE
  5
11C05
330
18
100
AcDbEntity
  8
11
 48
3.0
100
AcDbLine
 10
434.7500286369784
 20
338.0049079793406
 30
0.0
 11
434.4718174712784
 21
338.3580659635406
 31
0.0
  0
LINE
  5
11C06
330
18
100
AcDbEntity
  8
11
 48
3.0
100
AcDbLine
 10
434.0545377438784
 20
351.8424449172405
 30
0.0
 11
434.0545377438784
 21
389.8692163550405
 31
0.0
  0
LINE
  5
11C07
330
18
100
AcDbEntity
  8
10
 48
3.0
100
AcDbLine
 10
402.4025595637783
 20
327.1062477663308
 30
0.0
 11
402.6587319851785
 21
327.1190668219308
 31
0.0
  0
LINE
  5
11C08
330
18
100
AcDbEntity
  8
11
 48
3.0
100
AcDbLine
 10
433.9519945906785
 20
344.3738736453405
 30
0.0
 11
434.0289025983785
 21
348.1051467626406
 31
0.0
  0
LINE
  5
11C09
330
18
100
AcDbEntity
  8
11
 48
3.0
100
AcDbLine
 10
433.8239433643783
 20
340.6580080252406
 30
0.0
 11
433.9519945906785
 21
344.3738736453405
 31
0.0
  0
LINE
  5
11C0A
330
18
100
AcDbEntity
  8
11
 48
3.0
100
AcDbLine
 10
433.8581235161783
 20
339.9587638577405
 30
0.0
 11
433.8313235518783
 21
340.2098962397406
 31
0.0
  0
LINE
  5
11C0B
330
18
100
AcDbEntity
  8
11
 48
3.0
100
AcDbLine
 10
433.8313235518783
 20
340.2098962397406
 30
0.0
 11
433.8210458096783
 21
340.4417482364406
 31
0.0
  0
LINE
  5
11C0C
330
18
100
AcDbEntity
  8
11
 48
3.0
100
AcDbLine
 10
433.8210458096783
 20
340.4417482364406
 30
0.0
 11
433.8239433643783
 21
340.6580080252406
 31
0.0
  0
LINE
  5
11C0D
330
18
100
AcDbEntity
  8
11
 48
3.0
100
AcDbLine
 10
433.8239433643783
 20
340.6580080943405
 30
0.0
 11
433.9822645353786
 21
340.6480125583406
 31
0.0
  0
LINE
  5
11C0E
330
18
100
AcDbEntity
  8
11
 48
3.0
100
AcDbLine
 10
433.9822645353786
 20
340.6480125583406
 30
0.0
 11
434.1242650318786
 21
340.6318414436404
 31
0.0
  0
LINE
  5
11C0F
330
18
100
AcDbEntity
  8
11
 48
3.0
100
AcDbLine
 10
434.1242650318786
 20
340.6318414436404
 30
0.0
 11
434.2353066230783
 21
340.6111617621405
 31
0.0
  0
LINE
  5
11C10
330
18
100
AcDbEntity
  8
11
 48
3.0
100
AcDbLine
 10
434.2353066230783
 20
340.6111617621405
 30
0.0
 11
434.3039425009784
 21
340.5881052946406
 31
0.0
  0
LINE
  5
11C11
330
18
100
AcDbEntity
  8
11
 48
3.0
100
AcDbLine
 10
434.4718174712784
 20
338.3580659635406
 30
0.0
 11
434.2538233508783
 21
338.7202456135406
 31
0.0
  0
LINE
  5
11C12
330
18
100
AcDbEntity
  8
11
 48
3.0
100
AcDbLine
 10
434.2538233508783
 20
338.7202456135406
 30
0.0
 11
434.0946407762784
 21
339.0657239401406
 31
0.0
  0
LINE
  5
11C13
330
18
100
AcDbEntity
  8
11
 48
3.0
100
AcDbLine
 10
434.0946407762784
 20
339.0657239401406
 30
0.0
 11
433.9823178480785
 21
339.3876710972405
 31
0.0
  0
LINE
  5
11C14
330
18
100
AcDbEntity
  8
11
 48
3.0
100
AcDbLine
 10
433.9823178480785
 20
339.3876710972405
 30
0.0
 11
433.9062479369784
 21
339.6853381957406
 31
0.0
  0
LINE
  5
11C15
330
18
100
AcDbEntity
  8
11
 48
3.0
100
AcDbLine
 10
433.9062479369784
 20
339.6853381957406
 30
0.0
 11
433.8581235161783
 21
339.9587638577405
 31
0.0
  0
LINE
  5
11C16
330
18
100
AcDbEntity
  8
11
 48
3.0
100
AcDbLine
 10
434.0289025983785
 20
348.1051467626406
 30
0.0
 11
434.0545377438784
 21
351.8424449172405
 31
0.0
  0
LINE
  5
11C17
330
18
100
AcDbEntity
  8
11
 48
3.0
100
AcDbLine
 10
434.2189239437784
 20
390.5925340187407
 30
0.0
 11
434.3673396435786
 21
390.8429683593404
 31
0.0
  0
LINE
  5
11C18
330
18
100
AcDbEntity
  8
11
 48
3.0
100
AcDbLine
 10
434.1204701732785
 20
390.3345479060405
 30
0.0
 11
434.2189239437784
 21
390.5925340187407
 31
0.0
  0
LINE
  5
11C19
330
18
100
AcDbEntity
  8
11
 48
3.0
100
AcDbLine
 10
434.0688606301783
 20
390.0878824200406
 30
0.0
 11
434.1204701732785
 21
390.3345479060405
 31
0.0
  0
LINE
  5
11C1A
330
18
100
AcDbEntity
  8
11
 48
3.0
100
AcDbLine
 10
434.0545377438784
 20
389.8692163550405
 30
0.0
 11
434.0688606301783
 21
390.0878824200406
 31
0.0
  0
LINE
  5
11C20
330
18
100
AcDbEntity
  8
11
 48
3.0
100
AcDbLine
 10
434.9253799896785
 20
341.8620997977406
 30
0.0
 11
434.9253799896785
 21
389.6662785895404
 31
0.0
  0
LINE
  5
11C24
330
18
100
AcDbEntity
  8
11
 48
3.0
100
AcDbLine
 10
451.7397626256784
 20
335.0255651196405
 30
0.0
 11
449.3191053704784
 21
335.2446214930405
 31
0.0
  0
LINE
  5
11C25
330
18
100
AcDbEntity
  8
11
 48
3.0
100
AcDbLine
 10
447.1472141453785
 20
335.4735529870406
 30
0.0
 11
445.1203770126784
 21
335.7148629452406
 31
0.0
  0
LINE
  5
11C26
330
18
100
AcDbEntity
  8
11
 48
3.0
100
AcDbLine
 10
449.3191053704784
 20
335.2446214930405
 30
0.0
 11
447.1472141453785
 21
335.4735529870406
 31
0.0
  0
LINE
  5
11C28
330
18
100
AcDbEntity
  8
11
 48
3.0
100
AcDbLine
 10
443.1355693757783
 20
335.9768996238404
 30
0.0
 11
441.0905055044785
 21
336.2733691255406
 31
0.0
  0
LINE
  5
11C2A
330
18
100
AcDbEntity
  8
11
 48
3.0
100
AcDbLine
 10
438.8838902361785
 20
336.6233245352406
 30
0.0
 11
436.4124878706784
 21
337.0523017527406
 31
0.0
  0
ARC
  5
11C2B
330
18
100
AcDbEntity
  8
11
 48
3.0
100
AcDbCircle
 10
436.9253799896783
 20
341.8620997977406
 30
0.0
 40
2.000000000000015
100
AcDbArc
 50
180.0
 51
260.8694598375999
  0
LINE
  5
11C2C
330
18
100
AcDbEntity
  8
11
 48
3.0
100
AcDbLine
 10
436.4691715031784
 20
337.3321780780405
 30
0.0
 11
436.6080112648784
 21
339.8874410699406
 31
0.0
  0
LINE
  5
11C2D
330
18
100
AcDbEntity
  8
11
 48
3.0
100
AcDbLine
 10
436.4124878706784
 20
337.0523018384405
 30
0.0
 11
436.4327028348784
 21
337.1569380369405
 31
0.0
  0
LINE
  5
11C2E
330
18
100
AcDbEntity
  8
11
 48
3.0
100
AcDbLine
 10
436.4327028348784
 20
337.1569380369405
 30
0.0
 11
436.4519150648783
 21
337.2517987416405
 31
0.0
  0
LINE
  5
11C2F
330
18
100
AcDbEntity
  8
11
 48
3.0
100
AcDbLine
 10
436.4519150648783
 20
337.2517987416405
 30
0.0
 11
436.4691715766785
 21
337.3321785607406
 31
0.0
  0
LINE
  5
11C30
330
18
100
AcDbEntity
  8
11
 48
3.0
100
AcDbLine
 10
436.4124878706784
 20
337.0523017527406
 30
0.0
 11
436.1078743485784
 21
337.1260284290406
 31
0.0
  0
LINE
  5
11C31
330
18
100
AcDbEntity
  8
11
 48
3.0
100
AcDbLine
 10
436.1078743485784
 20
337.1260284290406
 30
0.0
 11
435.7705921721783
 21
337.2524815418405
 31
0.0
  0
LINE
  5
11C32
330
18
100
AcDbEntity
  8
11
 48
3.0
100
AcDbLine
 10
435.7705921721783
 20
337.2524815418405
 30
0.0
 11
435.4189986381784
 21
337.4405544526406
 31
0.0
  0
LINE
  5
11C33
330
18
100
AcDbEntity
  8
11
 48
3.0
100
AcDbLine
 10
435.4189986381784
 20
337.4405544526406
 30
0.0
 11
435.0725880509784
 21
337.6930510324405
 31
0.0
  0
LINE
  5
11C34
330
18
100
AcDbEntity
  8
11
 48
3.0
100
AcDbLine
 10
435.0725880509784
 20
337.6930510324405
 30
0.0
 11
434.7500286369784
 21
338.0049079793406
 31
0.0
  0
LINE
  5
11C3F
330
18
100
AcDbEntity
  8
11
 48
3.0
100
AcDbLine
 10
441.0905055044785
 20
336.2733691255406
 30
0.0
 11
438.8838902361785
 21
336.6233245352406
 31
0.0
  0
LINE
  5
11C82
330
18
100
AcDbEntity
  8
11
 48
3.0
100
AcDbLine
 10
445.1203770126784
 20
335.7148629452406
 30
0.0
 11
443.1355693757783
 21
335.9768996238404
 31
0.0
  0
LINE
  5
11C96
330
18
100
AcDbEntity
  8
11
 48
3.0
100
AcDbLine
 10
461.0232678632784
 20
334.5388942209406
 30
0.0
 11
457.6232218623784
 21
334.6519916376406
 31
0.0
  0
LINE
  5
11C97
330
18
100
AcDbEntity
  8
11
 48
3.0
100
AcDbLine
 10
457.6232218623784
 20
334.6519916376406
 30
0.0
 11
454.5066821145785
 21
334.8217622019406
 31
0.0
  0
LINE
  5
11C98
330
18
100
AcDbEntity
  8
11
 48
3.0
100
AcDbLine
 10
454.5066821145785
 20
334.8217622019406
 30
0.0
 11
451.7397626256784
 21
335.0255651196405
 31
0.0
  0
LINE
  5
11C99
330
18
100
AcDbEntity
  8
11
 48
3.0
100
AcDbLine
 10
464.5959802410783
 20
334.5013224703405
 30
0.0
 11
461.0232678632784
 21
334.5388942209406
 31
0.0
  0
LINE
  5
11CF6
330
18
100
AcDbEntity
  8
11
 48
3.0
100
AcDbLine
 10
460.5005088590785
 20
376.2916651977405
 30
0.0
 11
438.3502511202785
 21
376.2916651977405
 31
0.0
  0
LINE
  5
11CF7
330
18
100
AcDbEntity
  8
11
 48
3.0
100
AcDbLine
 10
438.3502511202785
 20
388.0408919813405
 30
0.0
 11
460.5005088590785
 21
388.0408919813405
 31
0.0
  0
LINE
  5
11CFA
330
18
100
AcDbEntity
  8
11
 48
3.0
100
AcDbLine
 10
436.4253799896783
 20
375.1662785895404
 30
0.0
 11
462.4253799896783
 21
375.1662785895404
 31
0.0
  0
LINE
  5
11CFB
330
18
100
AcDbEntity
  8
11
 48
3.0
100
AcDbLine
 10
462.4253799896783
 20
389.1662785895404
 30
0.0
 11
436.4253799896783
 21
389.1662785895404
 31
0.0
  0
LINE
  5
11CFF
330
18
100
AcDbEntity
  8
11
 48
3.0
100
AcDbLine
 10
438.3502511202785
 20
376.2916651977405
 30
0.0
 11
438.3502511202785
 21
388.0408919813405
 31
0.0
  0
LINE
  5
11D00
330
18
100
AcDbEntity
  8
11
 48
3.0
100
AcDbLine
 10
435.9253799896785
 20
388.6662785895406
 30
0.0
 11
435.9253799896785
 21
375.6662785895406
 31
0.0
  0
LINE
  5
11D28
330
18
100
AcDbEntity
  8
11
 48
3.0
100
AcDbLine
 10
438.3502511202785
 20
376.2916651977405
 30
0.0
 11
436.1315009735784
 21
375.2619396710406
 31
0.0
  0
ARC
  5
11D29
330
18
100
AcDbEntity
  8
11
 48
3.0
100
AcDbCircle
 10
436.4253799896783
 20
375.6662785895406
 30
0.0
 40
0.4999999999999985
100
AcDbArc
 50
180.0
 51
270.0
  0
LINE
  5
11D5B
330
18
100
AcDbEntity
  8
11
 48
3.0
100
AcDbLine
 10
438.3502511202785
 20
388.0408919813405
 30
0.0
 11
436.1315009735784
 21
389.0706175080406
 31
0.0
  0
ARC
  5
11D5C
330
18
100
AcDbEntity
  8
11
 48
3.0
100
AcDbCircle
 10
436.4253799896783
 20
388.6662785895406
 30
0.0
 40
0.4999999999999985
100
AcDbArc
 50
90.0
 51
180.0
  0
ARC
  5
11D5D
330
18
100
AcDbEntity
  8
11
 48
3.0
100
AcDbCircle
 10
435.9253799896785
 20
389.6662785895404
 30
0.0
 40
0.9999999999999984
100
AcDbArc
 50
90.0
 51
180.0
  0
LINE
  5
11D5E
330
18
100
AcDbEntity
  8
11
 48
3.0
100
AcDbLine
 10
434.9253799896785
 20
389.6662785895404
 30
0.0
 11
434.5345368856786
 21
389.8692163550405
 31
0.0
  0
LINE
  5
11D5F
330
18
100
AcDbEntity
  8
11
 48
3.0
100
AcDbLine
 10
435.9253799896785
 20
390.6662785895406
 30
0.0
 11
435.7224422241784
 21
391.0571216935406
 31
0.0
  0
LINE
  5
11D60
330
18
100
AcDbEntity
  8
11
 48
3.0
100
AcDbLine
 10
435.7224422241784
 20
391.0571216935406
 30
0.0
 11
435.7224422241784
 21
391.5371208353405
 31
0.0
  0
LINE
  5
11D61
330
18
100
AcDbEntity
  8
11
 48
3.0
100
AcDbLine
 10
435.5215917713784
 20
391.5250478422406
 30
0.0
 11
435.7224422241784
 21
391.5371208353405
 31
0.0
  0
LINE
  5
11D62
330
18
100
AcDbEntity
  8
11
 48
3.0
100
AcDbLine
 10
435.2887487373784
 20
391.4800130343405
 30
0.0
 11
435.5215917713784
 21
391.5250478422406
 31
0.0
  0
LINE
  5
11D63
330
18
100
AcDbEntity
  8
11
 48
3.0
100
AcDbLine
 10
435.0390093439783
 20
391.3912387042405
 30
0.0
 11
435.2887487373784
 21
391.4800130343405
 31
0.0
  0
LINE
  5
11D64
330
18
100
AcDbEntity
  8
11
 48
3.0
100
AcDbLine
 10
434.7904223793785
 20
391.2533214203405
 30
0.0
 11
435.0390093439783
 21
391.3912387042405
 31
0.0
  0
LINE
  5
11D65
330
18
100
AcDbEntity
  8
11
 48
3.0
100
AcDbLine
 10
434.5613966104783
 20
391.0678492941406
 30
0.0
 11
434.7904223793785
 21
391.2533214203405
 31
0.0
  0
LINE
  5
11D66
330
18
100
AcDbEntity
  8
11
 48
3.0
100
AcDbLine
 10
460.5005088590785
 20
388.0408919813405
 30
0.0
 11
460.5005088590785
 21
376.2916651977405
 31
0.0
  0
LINE
  5
11D67
330
18
100
AcDbEntity
  8
11
 48
3.0
100
AcDbLine
 10
462.9253799896786
 20
375.6662785895406
 30
0.0
 11
462.9253799896786
 21
388.6662785895406
 31
0.0
  0
ARC
  5
11DCD
330
18
100
AcDbEntity
  8
11
 48
3.0
100
AcDbCircle
 10
462.4253799896783
 20
375.6662785895406
 30
0.0
 40
0.4999999999999985
100
AcDbArc
 50
270.0
 51
0.0
  0
LINE
  5
11DCE
330
18
100
AcDbEntity
  8
11
 48
3.0
100
AcDbLine
 10
460.5005088590785
 20
376.2916651977405
 30
0.0
 11
462.7192590057784
 21
375.2619396710406
 31
0.0
  0
ARC
  5
11DD0
330
18
100
AcDbEntity
  8
11
 48
3.0
100
AcDbCircle
 10
462.4253799896783
 20
388.6662785895406
 30
0.0
 40
0.4999999999999985
100
AcDbArc
 50
0.0
 51
90.0
  0
LINE
  5
11DD1
330
18
100
AcDbEntity
  8
11
 48
3.0
100
AcDbLine
 10
462.7192590057784
 20
389.0706175080406
 30
0.0
 11
460.5005088590785
 21
388.0408919813405
 31
0.0
  0
LINE
  5
11DD4
330
18
100
AcDbEntity
  8
10
 48
3.0
100
AcDbLine
 10
520.4253799896783
 20
298.1662785895404
 30
0.0
 11
520.4253799896783
 21
388.9515104848026
 31
0.0
  0
LINE
  5
11DD5
330
18
100
AcDbEntity
  8
10
 48
3.0
100
AcDbLine
 10
510.4253799896785
 20
389.7918786513406
 30
0.0
 11
510.4253799896785
 21
298.1662785895404
 31
0.0
  0
LINE
  5
11DD6
330
18
100
AcDbEntity
  8
10
 48
3.0
100
AcDbLine
 10
509.4253799896785
 20
274.6662850267426
 30
0.0
 11
509.4253799896785
 21
400.6662785895406
 31
0.0
  0
ARC
  5
11DDC
330
18
100
AcDbEntity
  8
12
 48
3.0
100
AcDbCircle
 10
514.4253799896785
 20
278.6662785895404
 30
0.0
 40
2.5
100
AcDbArc
 50
0.0
 51
180.0
  0
LINE
  5
11DDD
330
18
100
AcDbEntity
  8
12
  6
CENTER
 48
3.0
100
AcDbLine
 10
508.9253799896785
 20
278.6662785895404
 30
0.0
 11
519.9253799896784
 21
278.6662785895404
 31
0.0
  0
LINE
  5
11DDF
330
18
100
AcDbEntity
  8
10
 48
3.0
100
AcDbLine
 10
511.6489228543785
 20
283.2620751044406
 30
0.0
 11
519.6841928848783
 21
285.4151192200406
 31
0.0
  0
LINE
  5
11DE0
330
18
100
AcDbEntity
  8
10
 48
3.0
100
AcDbLine
 10
520.4253799896783
 20
298.1662785895404
 30
0.0
 11
509.4253799896785
 21
298.1662785895404
 31
0.0
  0
LINE
  5
11DE2
330
18
100
AcDbEntity
  8
10
 48
3.0
100
AcDbLine
 10
510.4253799896785
 20
298.1662785895404
 30
0.0
 11
510.4253799896785
 21
284.2374531547406
 31
0.0
  0
LINE
  5
11DE3
330
18
100
AcDbEntity
  8
12
 48
3.0
100
AcDbLine
 10
511.9253799896783
 20
278.6662785895404
 30
0.0
 11
511.9253799896783
 21
274.6662785895404
 31
0.0
  0
LINE
  5
11DE4
330
18
100
AcDbEntity
  8
12
  6
CENTER
 48
3.0
100
AcDbLine
 10
514.4253799896785
 20
284.1662785895404
 30
0.0
 11
514.4253799896785
 21
273.1662785895404
 31
0.0
  0
ARC
  5
11DE6
330
18
100
AcDbEntity
  8
12
 48
3.0
100
AcDbCircle
 10
510.9253799896785
 20
274.6662785895404
 30
0.0
 40
0.9999999999999984
100
AcDbArc
 50
270.0
 51
0.0
  0
ARC
  5
11DE7
330
18
100
AcDbEntity
  8
10
 48
3.0
100
AcDbCircle
 10
508.4253799896783
 20
274.6662850267426
 30
0.0
 40
0.9999999999999731
100
AcDbArc
 50
270.0
 51
0.0
  0
ARC
  5
11DE8
330
18
100
AcDbEntity
  8
10
 48
3.0
100
AcDbCircle
 10
508.4253799896783
 20
274.6662785895404
 30
0.0
 40
0.9999999999995095
100
AcDbArc
 50
270.2052138073756
 51
0.0
  0
ARC
  5
11DE9
330
18
100
AcDbEntity
  8
10
 48
3.0
100
AcDbCircle
 10
511.4253799896783
 20
284.2374531547406
 30
0.0
 40
1.000000000000001
100
AcDbArc
 50
180.0
 51
285.0000000000014
  0
ARC
  5
11DEA
330
18
100
AcDbEntity
  8
10
 48
3.0
100
AcDbCircle
 10
512.4253799896783
 20
280.3642976255405
 30
0.0
 40
2.999999999999984
100
AcDbArc
 50
104.9401642643998
 51
180.0
  0
LINE
  5
11DEB
330
18
100
AcDbEntity
  8
10
 48
3.0
100
AcDbLine
 10
510.4253799896785
 20
286.6662785895406
 30
0.0
 11
509.4253799896785
 21
286.6662785895406
 31
0.0
  0
ARC
  5
11DEC
330
18
100
AcDbEntity
  8
10
 48
3.0
100
AcDbCircle
 10
512.4253799896783
 20
280.3642976255405
 30
0.0
 40
5.0
100
AcDbArc
 50
113.5781784782003
 51
126.9796968509002
  0
LINE
  5
11DED
330
18
100
AcDbEntity
  8
10
 48
3.0
100
AcDbLine
 10
520.4253799896783
 20
286.3810466942404
 30
0.0
 11
520.4253799896783
 21
298.1662785895404
 31
0.0
  0
LINE
  5
11DEE
330
18
100
AcDbEntity
  8
12
 48
3.0
100
AcDbLine
 10
520.4253799896783
 20
276.1662785895405
 30
0.0
 11
520.4253799896783
 21
286.3810466942404
 31
0.0
  0
LINE
  5
11DEF
330
18
100
AcDbEntity
  8
12
 48
3.0
100
AcDbLine
 10
516.9253799896783
 20
278.6662785895404
 30
0.0
 11
516.9253799896783
 21
276.1662785895405
 31
0.0
  0
LINE
  5
11DF0
330
18
100
AcDbEntity
  8
12
 48
3.0
100
AcDbLine
 10
519.4253799896785
 20
275.1662785895404
 30
0.0
 11
517.9253799896785
 21
275.1662785895404
 31
0.0
  0
ARC
  5
11DF1
330
18
100
AcDbEntity
  8
12
 48
3.0
100
AcDbCircle
 10
517.9253799896785
 20
276.1662785895405
 30
0.0
 40
1.000000000000001
100
AcDbArc
 50
180.0
 51
270.0
  0
ARC
  5
11DF2
330
18
100
AcDbEntity
  8
12
 48
3.0
100
AcDbCircle
 10
519.4253799896785
 20
276.1662785895405
 30
0.0
 40
1.000000000000007
100
AcDbArc
 50
270.0
 51
0.0
  0
ARC
  5
11DF3
330
18
100
AcDbEntity
  8
10
 48
3.0
100
AcDbCircle
 10
519.4253799896785
 20
286.3810466942404
 30
0.0
 40
0.9999999999999753
100
AcDbArc
 50
285.0000000000017
 51
0.0
  0
LINE
  5
11DF4
330
18
100
AcDbEntity
  8
10
 48
3.0
100
AcDbLine
 10
494.3162230940786
 20
353.5718548552857
 30
0.0
 11
509.2767072992784
 21
353.5718548554858
 31
0.0
  0
ARC
  5
11E01
330
18
100
AcDbEntity
  8
11
 48
3.0
100
AcDbCircle
 10
484.9253799896785
 20
360.6662785895404
 30
0.0
 40
4.009364039300006
100
AcDbArc
 50
270.0
 51
90.0
  0
ARC
  5
11E02
330
18
100
AcDbEntity
  8
11
 48
3.0
100
AcDbCircle
 10
477.9253799896785
 20
360.6662785895404
 30
0.0
 40
4.009364039300066
100
AcDbArc
 50
90.0
 51
270.0
  0
LINE
  5
11E04
330
18
100
AcDbEntity
  8
11
 48
3.0
100
AcDbLine
 10
494.7962222354783
 20
389.8692163550405
 30
0.0
 11
494.7962222354783
 21
351.8424449172405
 31
0.0
  0
LINE
  5
11E05
330
18
100
AcDbEntity
  8
11
 48
3.0
100
AcDbLine
 10
493.9253799896785
 20
389.6662785895404
 30
0.0
 11
493.9253799896785
 21
341.8620997977406
 31
0.0
  0
LINE
  5
11E09
330
18
100
AcDbEntity
  8
11
 48
3.0
100
AcDbLine
 10
477.9253799896785
 20
356.6569145502406
 30
0.0
 11
484.9253799896785
 21
356.6569145502406
 31
0.0
  0
CIRCLE
  5
11E0C
330
18
100
AcDbEntity
  8
11
 48
3.0
100
AcDbCircle
 10
487.4253799896783
 20
348.1662785895404
 30
0.0
 40
5.007494383400002
  0
LINE
  5
11E0D
330
18
100
AcDbEntity
  8
11
 48
3.0
100
AcDbLine
 10
483.5783049713787
 20
335.6958328552404
 30
0.0
 11
481.4948729539785
 21
335.4502244199404
 31
0.0
  0
LINE
  5
11E0F
330
18
100
AcDbEntity
  8
11
 48
3.0
100
AcDbLine
 10
476.9310047266784
 20
335.0107929541406
 30
0.0
 11
474.2938876420784
 21
334.8185262687406
 31
0.0
  0
LINE
  5
11E11
330
18
100
AcDbEntity
  8
11
 48
3.0
100
AcDbLine
 10
471.3578478466784
 20
334.6578230411406
 30
0.0
 11
468.1118966677784
 21
334.5454640387405
 31
0.0
  0
LINE
  5
11E12
330
18
100
AcDbEntity
  8
11
 48
3.0
100
AcDbLine
 10
474.2938876420784
 20
334.8185262687406
 30
0.0
 11
471.3578478466784
 21
334.6578230411406
 31
0.0
  0
LINE
  5
11E13
330
18
100
AcDbEntity
  8
11
 48
3.0
100
AcDbLine
 10
479.3057986105785
 20
335.2225759202406
 30
0.0
 11
476.9310047266784
 21
335.0107929541406
 31
0.0
  0
LINE
  5
11E14
330
18
100
AcDbEntity
  8
11
 48
3.0
100
AcDbLine
 10
481.4948729539785
 20
335.4502244199404
 30
0.0
 11
479.3057986105785
 21
335.2225759202406
 31
0.0
  0
CIRCLE
  5
11E19
330
18
100
AcDbEntity
  8
11
 48
3.0
100
AcDbCircle
 10
475.4253799896786
 20
348.1662785895404
 30
0.0
 40
5.0074943834
  0
LINE
  5
11E9E
330
18
100
AcDbEntity
  8
11
 48
3.0
100
AcDbLine
 10
492.4382721086783
 20
337.0523017527406
 30
0.0
 11
489.9863440810786
 21
336.6265516077405
 31
0.0
  0
LINE
  5
11EA6
330
18
100
AcDbEntity
  8
11
 48
3.0
100
AcDbLine
 10
487.7455954525784
 20
336.2711489678404
 30
0.0
 11
485.6355929255784
 21
335.9659032675405
 31
0.0
  0
LINE
  5
11EAA
330
18
100
AcDbEntity
  8
11
 48
3.0
100
AcDbLine
 10
485.6355929255784
 20
335.9659032675405
 30
0.0
 11
483.5783049713787
 21
335.6958328552404
 31
0.0
  0
LINE
  5
11EAC
330
18
100
AcDbEntity
  8
11
 48
3.0
100
AcDbLine
 10
489.9863440810786
 20
336.6265516077405
 30
0.0
 11
487.7455954525784
 21
336.2711489678404
 31
0.0
  0
LINE
  5
11EEE
330
18
100
AcDbEntity
  8
11
 48
3.0
100
AcDbLine
 10
494.8218573735783
 20
348.1051465885406
 30
0.0
 11
494.8987653296783
 21
344.3738762134405
 31
0.0
  0
LINE
  5
11EEF
330
18
100
AcDbEntity
  8
11
 48
3.0
100
AcDbLine
 10
494.8987653296783
 20
344.3738762134405
 30
0.0
 11
495.0268166149784
 21
340.6580080252406
 31
0.0
  0
ARC
  5
11EF0
330
18
100
AcDbEntity
  8
11
 48
3.0
100
AcDbCircle
 10
491.9253799896783
 20
341.8620997977406
 30
0.0
 40
1.999999999999998
100
AcDbArc
 50
279.1305401624001
 51
0.0
  0
LINE
  5
11EF1
330
18
100
AcDbEntity
  8
11
 48
3.0
100
AcDbLine
 10
495.0268166150785
 20
340.6580095566405
 30
0.0
 11
494.8684933188784
 21
340.6480131892406
 31
0.0
  0
LINE
  5
11EF2
330
18
100
AcDbEntity
  8
11
 48
3.0
100
AcDbLine
 10
494.8684933188784
 20
340.6480131892406
 30
0.0
 11
494.7264905076783
 21
340.6318412796405
 31
0.0
  0
LINE
  5
11EF3
330
18
100
AcDbEntity
  8
11
 48
3.0
100
AcDbLine
 10
494.7264905076783
 20
340.6318412796405
 30
0.0
 11
494.6154468187785
 21
340.6111612570406
 31
0.0
  0
LINE
  5
11EF4
330
18
100
AcDbEntity
  8
11
 48
3.0
100
AcDbLine
 10
494.6154468187785
 20
340.6111612570406
 30
0.0
 11
494.5468094043786
 21
340.5881052952405
 31
0.0
  0
LINE
  5
11EF5
330
18
100
AcDbEntity
  8
11
 48
3.0
100
AcDbLine
 10
495.0268166149784
 20
340.6580080252406
 30
0.0
 11
494.9954382903785
 21
339.9787555000405
 31
0.0
  0
LINE
  5
11EF6
330
18
100
AcDbEntity
  8
11
 48
3.0
100
AcDbLine
 10
494.5468174731784
 20
340.5881052946406
 30
0.0
 11
493.9253799896785
 21
341.8620997977406
 31
0.0
  0
LINE
  5
11EF7
330
18
100
AcDbEntity
  8
11
 48
3.0
100
AcDbLine
 10
492.2427487143785
 20
339.8874410698405
 30
0.0
 11
492.3815884761784
 21
337.3321780780405
 31
0.0
  0
LINE
  5
11EF8
330
18
100
AcDbEntity
  8
11
 48
3.0
100
AcDbLine
 10
493.7811896086783
 20
337.6956187929406
 30
0.0
 11
493.4860456936785
 21
337.4753193915406
 31
0.0
  0
LINE
  5
11EF9
330
18
100
AcDbEntity
  8
11
 48
3.0
100
AcDbLine
 10
493.4860456936785
 20
337.4753193915406
 30
0.0
 11
493.2015754939783
 21
337.3104694835406
 31
0.0
  0
LINE
  5
11EFA
330
18
100
AcDbEntity
  8
11
 48
3.0
100
AcDbLine
 10
493.2015754939783
 20
337.3104694835406
 30
0.0
 11
492.9320765690785
 21
337.1909170669404
 31
0.0
  0
LINE
  5
11EFB
330
18
100
AcDbEntity
  8
11
 48
3.0
100
AcDbLine
 10
492.9320765690785
 20
337.1909170669404
 30
0.0
 11
492.6783151048784
 21
337.1072818345406
 31
0.0
  0
LINE
  5
11EFC
330
18
100
AcDbEntity
  8
11
 48
3.0
100
AcDbLine
 10
492.6783151048784
 20
337.1072818345406
 30
0.0
 11
492.4382721086783
 21
337.0523017527406
 31
0.0
  0
LINE
  5
11EFD
330
18
100
AcDbEntity
  8
11
 48
3.0
100
AcDbLine
 10
492.4382721086783
 20
337.0523017520406
 30
0.0
 11
492.4180571764785
 21
337.1569378397406
 31
0.0
  0
LINE
  5
11EFE
330
18
100
AcDbEntity
  8
11
 48
3.0
100
AcDbLine
 10
492.4180571764785
 20
337.1569378397406
 30
0.0
 11
492.3988449717785
 21
337.2517983965404
 31
0.0
  0
LINE
  5
11EFF
330
18
100
AcDbEntity
  8
11
 48
3.0
100
AcDbLine
 10
492.3988449717785
 20
337.2517983965404
 30
0.0
 11
492.3815884827783
 21
337.3321780347406
 31
0.0
  0
LINE
  5
11F00
330
18
100
AcDbEntity
  8
11
 48
3.0
100
AcDbLine
 10
494.9954382903785
 20
339.9787555000405
 30
0.0
 11
494.8542332022785
 21
339.3414930008406
 31
0.0
  0
LINE
  5
11F01
330
18
100
AcDbEntity
  8
11
 48
3.0
100
AcDbLine
 10
494.8542332022785
 20
339.3414930008406
 30
0.0
 11
494.6340136323786
 21
338.7927395083405
 31
0.0
  0
LINE
  5
11F02
330
18
100
AcDbEntity
  8
11
 48
3.0
100
AcDbLine
 10
494.6340136323786
 20
338.7927395083405
 30
0.0
 11
494.3679534992784
 21
338.3422021358406
 31
0.0
  0
LINE
  5
11F03
330
18
100
AcDbEntity
  8
11
 48
3.0
100
AcDbLine
 10
494.3679534992784
 20
338.3422021358406
 30
0.0
 11
494.0789643863785
 21
337.9810068819405
 31
0.0
  0
LINE
  5
11F04
330
18
100
AcDbEntity
  8
11
 48
3.0
100
AcDbLine
 10
494.0789643863785
 20
337.9810068819405
 30
0.0
 11
493.7811896086783
 21
337.6956187929406
 31
0.0
  0
LINE
  5
11F05
330
18
100
AcDbEntity
  8
11
 48
3.0
100
AcDbLine
 10
494.7962222354783
 20
351.8424449172405
 30
0.0
 11
494.8218573735783
 21
348.1051465885406
 31
0.0
  0
LINE
  5
11F10
330
18
100
AcDbEntity
  8
11
 48
3.0
100
AcDbLine
 10
484.9253799896785
 20
364.6756426288407
 30
0.0
 11
477.9253799896785
 21
364.6756426288407
 31
0.0
  0
CIRCLE
  5
11F1B
330
18
100
AcDbEntity
  8
11
 48
3.0
100
AcDbCircle
 10
481.4253799896785
 20
383.6662785895406
 30
0.0
 40
5.0074943834
  0
ARC
  5
1210D
330
18
100
AcDbEntity
  8
11
 48
3.0
100
AcDbCircle
 10
492.9253799896785
 20
389.6662785895404
 30
0.0
 40
0.9999999999999984
100
AcDbArc
 50
0.0
 51
90.0
  0
LINE
  5
1210E
330
18
100
AcDbEntity
  8
11
 48
3.0
100
AcDbLine
 10
492.9253799896785
 20
390.6662785895406
 30
0.0
 11
493.1283177551782
 21
391.0571216935406
 31
0.0
  0
LINE
  5
1210F
330
18
100
AcDbEntity
  8
11
 48
3.0
100
AcDbLine
 10
493.1283176202785
 20
391.0571210902404
 30
0.0
 11
493.1283176289785
 21
391.5371208353405
 31
0.0
  0
LINE
  5
12110
330
18
100
AcDbEntity
  8
11
 48
3.0
100
AcDbLine
 10
493.1283177551782
 20
391.5371208353405
 30
0.0
 11
493.3469838201784
 21
391.5227979490405
 31
0.0
  0
LINE
  5
12111
330
18
100
AcDbEntity
  8
11
 48
3.0
100
AcDbLine
 10
493.3469838201784
 20
391.5227979490405
 30
0.0
 11
493.5936493061785
 21
391.4711884059406
 31
0.0
  0
LINE
  5
12112
330
18
100
AcDbEntity
  8
11
 48
3.0
100
AcDbLine
 10
493.5936493061785
 20
391.4711884059406
 30
0.0
 11
493.8516354187783
 21
391.3727346354405
 31
0.0
  0
LINE
  5
12113
330
18
100
AcDbEntity
  8
11
 48
3.0
100
AcDbLine
 10
493.9253799896785
 20
389.6662785895404
 30
0.0
 11
494.3162230936783
 21
389.8692163550405
 31
0.0
  0
LINE
  5
12114
330
18
100
AcDbEntity
  8
11
 48
3.0
100
AcDbLine
 10
494.3162230936783
 20
389.8692163550405
 30
0.0
 11
494.7962222354783
 21
389.8692163550405
 31
0.0
  0
LINE
  5
12115
330
18
100
AcDbEntity
  8
11
 48
3.0
100
AcDbLine
 10
493.8516354187783
 20
391.3727346354405
 30
0.0
 11
494.1020697594783
 21
391.2243189355406
 31
0.0
  0
LINE
  5
12116
330
18
100
AcDbEntity
  8
11
 48
3.0
100
AcDbLine
 10
494.1020697594783
 20
391.2243189355406
 30
0.0
 11
494.3269506942786
 21
391.0302619687406
 31
0.0
  0
LINE
  5
12117
330
18
100
AcDbEntity
  8
11
 48
3.0
100
AcDbLine
 10
494.3269506942786
 20
391.0302619687406
 30
0.0
 11
494.5124228204786
 21
390.8012361998404
 31
0.0
  0
LINE
  5
12118
330
18
100
AcDbEntity
  8
11
 48
3.0
100
AcDbLine
 10
494.5124228204786
 20
390.8012361998404
 30
0.0
 11
494.6503401043785
 21
390.5526492351405
 31
0.0
  0
LINE
  5
12119
330
18
100
AcDbEntity
  8
11
 48
3.0
100
AcDbLine
 10
494.6503401043785
 20
390.5526492351405
 30
0.0
 11
494.7391144344785
 21
390.3029098418405
 31
0.0
  0
LINE
  5
1211A
330
18
100
AcDbEntity
  8
11
 48
3.0
100
AcDbLine
 10
494.7391144344785
 20
390.3029098418405
 30
0.0
 11
494.7841492423783
 21
390.0700668077405
 31
0.0
  0
LINE
  5
1211B
330
18
100
AcDbEntity
  8
11
 48
3.0
100
AcDbLine
 10
494.7841492423783
 20
390.0700668077405
 30
0.0
 11
494.7962222354783
 21
389.8692163550405
 31
0.0
  0
LINE
  5
1211C
330
18
100
AcDbEntity
  8
10
 48
3.0
100
AcDbLine
 10
509.1918756893784
 20
326.7778922802308
 30
0.0
 11
509.1543080064783
 21
326.8653050292308
 31
0.0
  0
LINE
  5
1211D
330
18
100
AcDbEntity
  8
10
 48
3.0
100
AcDbLine
 10
509.1543080064783
 20
326.8653050292308
 30
0.0
 11
509.0525176258783
 21
326.9468838285308
 31
0.0
  0
LINE
  5
1211E
330
18
100
AcDbEntity
  8
10
 48
3.0
100
AcDbLine
 10
509.0525176258783
 20
326.9468838285308
 30
0.0
 11
508.8932980512785
 21
327.0171840979307
 31
0.0
  0
LINE
  5
1211F
330
18
100
AcDbEntity
  8
10
 48
3.0
100
AcDbLine
 10
508.8932980512785
 20
327.0171840979307
 30
0.0
 11
508.6872756186785
 21
327.0715139880309
 31
0.0
  0
LINE
  5
12120
330
18
100
AcDbEntity
  8
10
 48
3.0
100
AcDbLine
 10
508.6872756186785
 20
327.0715139880309
 30
0.0
 11
508.4482002930784
 21
327.1062475146308
 31
0.0
  0
LINE
  5
12121
330
18
100
AcDbEntity
  8
10
 48
3.0
100
AcDbLine
 10
508.4482002930784
 20
327.1062475146308
 30
0.0
 11
508.1920279941783
 21
327.1190665573308
 31
0.0
  0
LINE
  5
12122
330
18
100
AcDbEntity
  8
12
 48
3.0
100
AcDbLine
 10
508.4253799896783
 20
401.6662785895406
 30
0.0
 11
519.4253799896785
 21
401.6662785895406
 31
0.0
  0
CIRCLE
  5
12123
330
18
100
AcDbEntity
  8
12
 48
3.0
100
AcDbCircle
 10
514.4253799896785
 20
396.6662785895406
 30
0.0
 40
2.5
  0
LINE
  5
12124
330
18
100
AcDbEntity
  8
12
  6
CENTER
 48
3.0
100
AcDbLine
 10
508.9253799896785
 20
396.6662785895406
 30
0.0
 11
519.9253799896784
 21
396.6662785895406
 31
0.0
  0
LINE
  5
12125
330
18
100
AcDbEntity
  8
10
 48
3.0
100
AcDbLine
 10
511.6489228543785
 20
392.0704820745406
 30
0.0
 11
519.6841990347751
 21
389.9174363110931
 31
0.0
  0
LINE
  5
12126
330
18
100
AcDbEntity
  8
12
  6
CENTER
 48
3.0
100
AcDbLine
 10
514.4253799896785
 20
391.1662785895406
 30
0.0
 11
514.4253799896785
 21
402.1662785895406
 31
0.0
  0
ARC
  5
12127
330
18
100
AcDbEntity
  8
10
 48
3.0
100
AcDbCircle
 10
512.4253799896783
 20
394.9682595534406
 30
0.0
 40
3.0
100
AcDbArc
 50
180.0
 51
255.0000000000002
  0
ARC
  5
12128
330
18
100
AcDbEntity
  8
10
 48
3.0
100
AcDbCircle
 10
512.4253799896783
 20
389.7918786513406
 30
0.0
 40
1.99999999999995
100
AcDbArc
 50
74.99999999999838
 51
180.0
  0
ARC
  5
12129
330
18
100
AcDbEntity
  8
10
 48
3.0
100
AcDbCircle
 10
508.4253799896783
 20
400.6662785895406
 30
0.0
 40
0.9999999999999984
100
AcDbArc
 50
0.0
 51
90.0
  0
ARC
  5
1212B
330
18
100
AcDbEntity
  8
10
 48
3.0
100
AcDbCircle
 10
508.4253799896783
 20
400.6662785895406
 30
0.0
 40
0.9999999999999984
100
AcDbArc
 50
0.0
 51
90.0
  0
LINE
  5
1212C
330
18
100
AcDbEntity
  8
12
 48
3.0
100
AcDbLine
 10
520.4253799896783
 20
388.9515104848026
 30
0.0
 11
520.4253799896783
 21
400.6662785895406
 31
0.0
  0
ARC
  5
1212D
330
18
100
AcDbEntity
  8
10
 48
3.0
100
AcDbCircle
 10
519.4253799896785
 20
388.9515104848026
 30
0.0
 40
1.000000000000001
100
AcDbArc
 50
0.0
 51
75.00000000033884
  0
ARC
  5
1212E
330
18
100
AcDbEntity
  8
12
 48
3.0
100
AcDbCircle
 10
519.4253799896785
 20
400.6662785895406
 30
0.0
 40
1.000000000000001
100
AcDbArc
 50
0.0
 51
90.0
  0
LINE
  5
12133
330
18
100
AcDbEntity
  8
10
 48
3.0
100
AcDbLine
 10
673.5237978357997
 20
387.1662785895404
 30
0.0
 11
727.4253799896785
 21
387.1662785895404
 31
0.0
  0
LINE
  5
12134
330
18
100
AcDbEntity
  8
10
 48
3.0
100
AcDbLine
 10
668.4253799896785
 20
273.6662785895406
 30
0.0
 11
694.6753799896785
 21
273.6662785895406
 31
0.0
  0
LINE
  5
12135
330
18
100
AcDbEntity
  8
10
 48
3.0
100
AcDbLine
 10
673.5344658370629
 20
288.1662785895406
 30
0.0
 11
727.4253799896788
 21
288.1662785895406
 31
0.0
  0
LINE
  5
12136
330
18
100
AcDbEntity
  8
10
 48
3.0
100
AcDbLine
 10
668.4253799896785
 20
401.6662785895406
 30
0.0
 11
740.4253799896785
 21
401.6662785895406
 31
0.0
  0
LINE
  5
12139
330
18
100
AcDbEntity
  8
10
 48
3.0
100
AcDbLine
 10
668.4253799896785
 20
298.1662785895404
 30
0.0
 11
608.4253799896785
 21
298.1662785895404
 31
0.0
  0
ARC
  5
1213A
330
18
100
AcDbEntity
  8
10
 48
3.0
100
AcDbCircle
 10
625.9253799896785
 20
278.1662785895405
 30
0.0
 40
0.4999999999999985
100
AcDbArc
 50
0.0
 51
180.0
  0
LINE
  5
1213B
330
18
100
AcDbEntity
  8
10
 48
3.0
100
AcDbLine
 10
626.4253799896784
 20
273.9662785895406
 30
0.0
 11
625.4253799896782
 21
273.9662785895406
 31
0.0
  0
LINE
  5
1213C
330
18
100
AcDbEntity
  8
10
 48
3.0
100
AcDbLine
 10
616.4253799896783
 20
273.6662785895406
 30
0.0
 11
668.4253799896785
 21
273.6662785895406
 31
0.0
  0
LINE
  5
1213D
330
18
100
AcDbEntity
  8
10
 48
3.0
100
AcDbLine
 10
610.4253799896785
 20
285.4151208679404
 30
0.0
 11
668.4253799896785
 21
285.4151208679404
 31
0.0
  0
LINE
  5
1213E
330
18
100
AcDbEntity
  8
10
 48
3.0
100
AcDbLine
 10
616.4253799896783
 20
283.2620751044406
 30
0.0
 11
668.4253799896785
 21
283.2620751044406
 31
0.0
  0
LINE
  5
1213F
330
18
100
AcDbEntity
  8
10
 48
3.0
100
AcDbLine
 10
668.4253799896785
 20
280.3642976255405
 30
0.0
 11
616.4253799896783
 21
280.3642976255405
 31
0.0
  0
ARC
  5
12140
330
18
100
AcDbEntity
  8
10
 48
3.0
100
AcDbCircle
 10
624.6253799896785
 20
311.1662785895406
 30
0.0
 40
1.499999999999995
100
AcDbArc
 50
0.0
 51
180.0
  0
ARC
  5
12141
330
18
100
AcDbEntity
  8
10
 48
3.0
100
AcDbCircle
 10
624.6253799896785
 20
304.1662785895404
 30
0.0
 40
1.499999999999995
100
AcDbArc
 50
180.0
 51
0.0
  0
ARC
  5
12142
330
18
100
AcDbEntity
  8
10
 48
3.0
100
AcDbCircle
 10
624.6253799896785
 20
385.6662785895406
 30
0.0
 40
1.499999999999995
100
AcDbArc
 50
0.0
 51
180.0
  0
ARC
  5
12143
330
18
100
AcDbEntity
  8
10
 48
3.0
100
AcDbCircle
 10
624.6253799896785
 20
348.6662785895406
 30
0.0
 40
1.499999999999995
100
AcDbArc
 50
180.0
 51
0.0
  0
LINE
  5
12144
330
18
100
AcDbEntity
  8
10
 48
3.0
100
AcDbLine
 10
626.1253799896785
 20
368.6662785895404
 30
0.0
 11
623.1253799896783
 21
368.6662785895404
 31
0.0
  0
LINE
  5
12145
330
18
100
AcDbEntity
  8
10
 48
3.0
100
AcDbLine
 10
623.1253799896783
 20
366.6662785895404
 30
0.0
 11
626.1253799896785
 21
366.6662785895404
 31
0.0
  0
LINE
  5
12149
330
18
100
AcDbEntity
  8
10
 48
3.0
100
AcDbLine
 10
616.4253799896783
 20
401.6662785895406
 30
0.0
 11
668.4253799896785
 21
401.6662785895406
 31
0.0
  0
LINE
  5
1214A
330
18
100
AcDbEntity
  8
10
 48
3.0
100
AcDbLine
 10
616.4253799896783
 20
394.9682595534406
 30
0.0
 11
668.4253799896785
 21
394.9682595534406
 31
0.0
  0
LINE
  5
1214B
330
18
100
AcDbEntity
  8
10
 48
3.0
100
AcDbLine
 10
616.4253799896783
 20
392.0704820745406
 30
0.0
 11
668.4253799896785
 21
392.0704820745406
 31
0.0
  0
LINE
  5
1214C
330
18
100
AcDbEntity
  8
10
 48
3.0
100
AcDbLine
 10
668.4253799896785
 20
389.9174363110406
 30
0.0
 11
610.4253799896785
 21
389.9174363110406
 31
0.0
  0
LINE
  5
12150
330
18
100
AcDbEntity
  8
10
 48
3.0
100
AcDbLine
 10
608.4253799896785
 20
298.1662785895404
 30
0.0
 11
608.4253799896785
 21
390.7918786513405
 31
0.0
  0
ARC
  5
12151
330
18
100
AcDbEntity
  8
10
 48
3.0
100
AcDbCircle
 10
677.9253799896785
 20
300.6662785895406
 30
0.0
 40
80.0
100
AcDbArc
 50
160.6911693152065
 51
198.5251531004873
  0
LINE
  5
12153
330
18
100
AcDbEntity
  8
10
 48
3.0
100
AcDbLine
 10
609.4253799896782
 20
283.2374531547404
 30
0.0
 11
616.4253799896783
 21
283.2374531547404
 31
0.0
  0
LINE
  5
12154
330
18
100
AcDbEntity
  8
10
 48
3.0
100
AcDbLine
 10
609.7845515697784
 20
285.3528720072406
 30
0.0
 11
609.9274721229785
 21
285.3795451821404
 31
0.0
  0
LINE
  5
12155
330
18
100
AcDbEntity
  8
10
 48
3.0
100
AcDbLine
 10
610.7253799896783
 20
273.6662785895406
 30
0.0
 11
604.6877329746783
 21
273.6662785895406
 31
0.0
  0
LINE
  5
12156
330
18
100
AcDbEntity
  8
10
 48
3.0
100
AcDbLine
 10
603.9321024536917
 20
273.8843495600318
 30
0.0
 11
616.4253799896783
 21
273.6662785895406
 31
0.0
  0
LINE
  5
12157
330
18
100
AcDbEntity
  8
10
 48
3.0
100
AcDbLine
 10
608.4253799896785
 20
284.2374531547406
 30
0.0
 11
608.4253799896785
 21
298.1662785895404
 31
0.0
  0
ARC
  5
12158
330
18
100
AcDbEntity
  8
10
 48
3.0
100
AcDbCircle
 10
604.6877329746783
 20
275.6662785895406
 30
0.0
 40
1.999999999999985
100
AcDbArc
 50
201.5705783015985
 51
270.0
  0
LINE
  5
12159
330
18
100
AcDbEntity
  8
10
 48
3.0
100
AcDbLine
 10
605.4253799896786
 20
273.8582843037405
 30
0.0
 11
605.4253799896786
 21
273.6662785895406
 31
0.0
  0
ARC
  5
1215A
330
18
100
AcDbEntity
  8
10
 48
3.0
100
AcDbCircle
 10
603.9670072665558
 20
275.8840449503446
 30
0.0
 40
2.000000000000003
100
AcDbArc
 50
198.5251531004871
 51
269.000000000301
  0
LINE
  5
1215B
330
18
100
AcDbEntity
  8
10
 48
3.0
100
AcDbLine
 10
608.8143716580783
 20
283.4458289897406
 30
0.0
 11
609.0100457127785
 21
283.3277842928406
 31
0.0
  0
LINE
  5
1215C
330
18
100
AcDbEntity
  8
10
 48
3.0
100
AcDbLine
 10
608.6518407020784
 20
283.6037048052406
 30
0.0
 11
608.8143716580783
 21
283.4458289897406
 31
0.0
  0
LINE
  5
1215D
330
18
100
AcDbEntity
  8
10
 48
3.0
100
AcDbLine
 10
608.5313542741785
 20
283.7894375078406
 30
0.0
 11
608.6518407020784
 21
283.6037048052406
 31
0.0
  0
LINE
  5
1215E
330
18
100
AcDbEntity
  8
10
 48
3.0
100
AcDbLine
 10
608.4464363803784
 20
284.0333222906405
 30
0.0
 11
608.5313542741785
 21
283.7894375078406
 31
0.0
  0
LINE
  5
1215F
330
18
100
AcDbEntity
  8
10
 48
3.0
100
AcDbLine
 10
608.4253799896785
 20
284.2374531547406
 30
0.0
 11
608.4464363803784
 21
284.0333222906405
 31
0.0
  0
LINE
  5
12160
330
18
100
AcDbEntity
  8
10
 48
3.0
100
AcDbLine
 10
609.3776653284784
 20
283.2385921478406
 30
0.0
 11
609.4253800973786
 21
283.2374532292405
 31
0.0
  0
LINE
  5
12161
330
18
100
AcDbEntity
  8
10
 48
3.0
100
AcDbLine
 10
609.2174302050785
 20
283.2593136518406
 30
0.0
 11
609.3776653284784
 21
283.2385921478406
 31
0.0
  0
LINE
  5
12162
330
18
100
AcDbEntity
  8
10
 48
3.0
100
AcDbLine
 10
609.0100457127785
 20
283.3277842928406
 30
0.0
 11
609.2174302050785
 21
283.2593136518406
 31
0.0
  0
LINE
  5
12163
330
18
100
AcDbEntity
  8
10
 48
3.0
100
AcDbLine
 10
609.6608720894784
 20
285.3198954963406
 30
0.0
 11
609.7845515697784
 21
285.3528720072406
 31
0.0
  0
LINE
  5
12164
330
18
100
AcDbEntity
  8
10
 48
3.0
100
AcDbLine
 10
609.5603388539784
 20
285.2816018355406
 30
0.0
 11
609.6608720894784
 21
285.3198954963406
 31
0.0
  0
LINE
  5
12165
330
18
100
AcDbEntity
  8
10
 48
3.0
100
AcDbLine
 10
609.4861293825784
 20
285.2391388508404
 30
0.0
 11
609.5603388539784
 21
285.2816018355406
 31
0.0
  0
LINE
  5
12166
330
18
100
AcDbEntity
  8
10
 48
3.0
100
AcDbLine
 10
609.4406509921785
 20
285.1938209139406
 30
0.0
 11
609.4861293825784
 21
285.2391388508404
 31
0.0
  0
LINE
  5
12167
330
18
100
AcDbEntity
  8
10
 48
3.0
100
AcDbLine
 10
609.4253799896782
 20
285.1471716755406
 30
0.0
 11
609.4406509921785
 21
285.1938209139406
 31
0.0
  0
LINE
  5
12168
330
18
100
AcDbEntity
  8
10
 48
3.0
100
AcDbLine
 10
616.4253799896783
 20
273.6662785895406
 30
0.0
 11
616.4253799896783
 21
283.2715273284406
 31
0.0
  0
LINE
  5
1216A
330
18
100
AcDbEntity
  8
10
 48
3.0
100
AcDbLine
 10
615.9253799896784
 20
273.6662785895406
 30
0.0
 11
610.7253799896783
 21
273.6662785895406
 31
0.0
  0
ARC
  5
1216B
330
18
100
AcDbEntity
  8
10
 48
3.0
100
AcDbCircle
 10
610.7253799896783
 20
273.9662785895406
 30
0.0
 40
0.2999999999999861
100
AcDbArc
 50
221.5023359757938
 51
270.0
  0
LINE
  5
1216C
330
18
100
AcDbEntity
  8
10
 48
3.0
100
AcDbLine
 10
610.2530370167784
 20
285.4111116257405
 30
0.0
 11
610.4253799896785
 21
285.4151208679404
 31
0.0
  0
LINE
  5
1216D
330
18
100
AcDbEntity
  8
10
 48
3.0
100
AcDbLine
 10
610.0852633271784
 20
285.3991460725406
 30
0.0
 11
610.2530370167784
 21
285.4111116257405
 31
0.0
  0
LINE
  5
1216E
330
18
100
AcDbEntity
  8
10
 48
3.0
100
AcDbLine
 10
609.9274721229785
 20
285.3795451821404
 30
0.0
 11
610.0852633271784
 21
285.3991460725406
 31
0.0
  0
ARC
  5
1216F
330
18
100
AcDbEntity
  8
10
 48
3.0
100
AcDbCircle
 10
623.9253799896784
 20
278.1662785895405
 30
0.0
 40
0.4999999999999985
100
AcDbArc
 50
0.0
 51
180.0
  0
LINE
  5
12170
330
18
100
AcDbEntity
  8
10
 48
3.0
100
AcDbLine
 10
625.4253799896782
 20
273.6662785895406
 30
0.0
 11
625.4253799896782
 21
278.1662785895405
 31
0.0
  0
LINE
  5
12171
330
18
100
AcDbEntity
  8
10
 48
3.0
100
AcDbLine
 10
624.4253799896783
 20
273.6662785895406
 30
0.0
 11
624.4253799896783
 21
278.1662785895405
 31
0.0
  0
LINE
  5
12172
330
18
100
AcDbEntity
  8
10
 48
3.0
100
AcDbLine
 10
623.4253799896785
 20
273.6662785895406
 30
0.0
 11
623.4253799896785
 21
278.1662785895405
 31
0.0
  0
LINE
  5
12173
330
18
100
AcDbEntity
  8
10
 48
3.0
100
AcDbLine
 10
624.4253799896783
 20
273.9662785895406
 30
0.0
 11
623.4253799896785
 21
273.9662785895406
 31
0.0
  0
ARC
  5
12174
330
18
100
AcDbEntity
  8
10
 48
3.0
100
AcDbCircle
 10
615.0253799896782
 20
311.1662785895406
 30
0.0
 40
1.500000000000006
100
AcDbArc
 50
0.0
 51
180.0
  0
ARC
  5
12175
330
18
100
AcDbEntity
  8
10
 48
3.0
100
AcDbCircle
 10
615.0253799896782
 20
304.1662785895404
 30
0.0
 40
1.499999999999995
100
AcDbArc
 50
180.0
 51
0.0
  0
LINE
  5
12176
330
18
100
AcDbEntity
  8
10
 48
3.0
100
AcDbLine
 10
613.5253799896783
 20
311.1662785895406
 30
0.0
 11
613.5253799896783
 21
304.1662785895404
 31
0.0
  0
LINE
  5
12177
330
18
100
AcDbEntity
  8
10
 48
3.0
100
AcDbLine
 10
616.5253799896785
 20
304.1662785895404
 30
0.0
 11
616.5253799896785
 21
311.1662785895406
 31
0.0
  0
ARC
  5
12178
330
18
100
AcDbEntity
  8
10
 48
3.0
100
AcDbCircle
 10
619.8253799896783
 20
311.1662785895406
 30
0.0
 40
1.499999999999995
100
AcDbArc
 50
0.0
 51
180.0
  0
ARC
  5
12179
330
18
100
AcDbEntity
  8
10
 48
3.0
100
AcDbCircle
 10
619.8253799896783
 20
304.1662785895404
 30
0.0
 40
1.499999999999995
100
AcDbArc
 50
180.0
 51
0.0
  0
LINE
  5
1217A
330
18
100
AcDbEntity
  8
10
 48
3.0
100
AcDbLine
 10
621.3253799896786
 20
304.1662785895404
 30
0.0
 11
621.3253799896786
 21
311.1662785895406
 31
0.0
  0
LINE
  5
1217B
330
18
100
AcDbEntity
  8
10
 48
3.0
100
AcDbLine
 10
618.3253799896784
 20
311.1662785895406
 30
0.0
 11
618.3253799896784
 21
304.1662785895404
 31
0.0
  0
LINE
  5
1217C
330
18
100
AcDbEntity
  8
10
 48
3.0
100
AcDbLine
 10
623.1253799896783
 20
311.1662785895406
 30
0.0
 11
623.1253799896783
 21
304.1662785895404
 31
0.0
  0
LINE
  5
1217D
330
18
100
AcDbEntity
  8
10
 48
3.0
100
AcDbLine
 10
623.1253799896783
 20
385.6662785895406
 30
0.0
 11
623.1253799896783
 21
348.6662785895406
 31
0.0
  0
LINE
  5
1217E
330
18
100
AcDbEntity
  8
10
 48
3.0
100
AcDbLine
 10
621.3253799896786
 20
348.6662785895406
 30
0.0
 11
621.3253799896786
 21
385.6662785895406
 31
0.0
  0
LINE
  5
1217F
330
18
100
AcDbEntity
  8
10
 48
3.0
100
AcDbLine
 10
618.3253799896784
 20
385.6662785895406
 30
0.0
 11
618.3253799896784
 21
348.6662785895406
 31
0.0
  0
LINE
  5
12180
330
18
100
AcDbEntity
  8
10
 48
3.0
100
AcDbLine
 10
616.5253799896785
 20
348.6662785895406
 30
0.0
 11
616.5253799896785
 21
385.6662785895406
 31
0.0
  0
LINE
  5
12181
330
18
100
AcDbEntity
  8
10
 48
3.0
100
AcDbLine
 10
613.5253799896783
 20
385.6662785895406
 30
0.0
 11
613.5253799896783
 21
348.6662785895406
 31
0.0
  0
LINE
  5
12186
330
18
100
AcDbEntity
  8
10
 48
3.0
100
AcDbLine
 10
606.9253799896785
 20
353.5718548551857
 30
0.0
 11
606.9253799896785
 21
399.5350609464405
 31
0.0
  0
ARC
  5
12187
330
18
100
AcDbEntity
  8
10
 48
3.0
100
AcDbCircle
 10
526.9253799896785
 20
353.5718548551857
 30
0.0
 40
80.0
100
AcDbArc
 50
340.6911693152063
 51
0.0
  0
ARC
  5
12240
330
18
100
AcDbEntity
  8
10
 48
3.0
100
AcDbCircle
 10
615.0253799896782
 20
348.6662785895406
 30
0.0
 40
1.499999999999995
100
AcDbArc
 50
180.0
 51
0.0
  0
ARC
  5
12241
330
18
100
AcDbEntity
  8
10
 48
3.0
100
AcDbCircle
 10
619.8253799896783
 20
348.6662785895406
 30
0.0
 40
1.499999999999995
100
AcDbArc
 50
180.0
 51
0.0
  0
LINE
  5
12242
330
18
100
AcDbEntity
  8
10
 48
3.0
100
AcDbLine
 10
609.4253799896782
 20
391.7918786513406
 30
0.0
 11
616.4253799896783
 21
391.7918786513406
 31
0.0
  0
LINE
  5
12243
330
18
100
AcDbEntity
  8
10
 48
3.0
100
AcDbLine
 10
608.9253799896785
 20
401.6662785895406
 30
0.0
 11
616.4253799896783
 21
401.6662785895406
 31
0.0
  0
LINE
  5
12244
330
18
100
AcDbEntity
  8
10
 48
3.0
100
AcDbLine
 10
609.9274721228785
 20
389.9530119968405
 30
0.0
 11
609.7845515697784
 21
389.9796851717404
 31
0.0
  0
LINE
  5
12245
330
18
100
AcDbEntity
  8
10
 48
3.0
100
AcDbLine
 10
616.4253799896783
 20
401.6662785895406
 30
0.0
 11
608.8904751767785
 21
401.5347563367406
 31
0.0
  0
ARC
  5
122CF
330
18
100
AcDbEntity
  8
10
 48
3.0
100
AcDbCircle
 10
609.4253799896782
 20
390.7918786513405
 30
0.0
 40
0.9999999999999984
100
AcDbArc
 50
90.0
 51
180.0
  0
LINE
  5
122D0
330
18
100
AcDbEntity
  8
10
 48
3.0
100
AcDbLine
 10
609.7845515697784
 20
389.9796851717404
 30
0.0
 11
609.6608720894784
 21
390.0126616826406
 31
0.0
  0
LINE
  5
122D1
330
18
100
AcDbEntity
  8
10
 48
3.0
100
AcDbLine
 10
609.6608720894784
 20
390.0126616826406
 30
0.0
 11
609.5603388538783
 21
390.0509553434405
 31
0.0
  0
LINE
  5
122D2
330
18
100
AcDbEntity
  8
10
 48
3.0
100
AcDbLine
 10
609.5603388538783
 20
390.0509553434405
 30
0.0
 11
609.4861293828785
 21
390.0934183281405
 31
0.0
  0
LINE
  5
122D3
330
18
100
AcDbEntity
  8
10
 48
3.0
100
AcDbLine
 10
609.4861293828785
 20
390.0934183281405
 30
0.0
 11
609.4406509914782
 21
390.1387362649405
 31
0.0
  0
LINE
  5
122D4
330
18
100
AcDbEntity
  8
10
 48
3.0
100
AcDbLine
 10
609.4406509914782
 20
390.1387362649405
 30
0.0
 11
609.4253799896782
 21
390.1853855035406
 31
0.0
  0
ARC
  5
122D5
330
18
100
AcDbEntity
  8
10
 48
3.0
100
AcDbCircle
 10
608.9253799896785
 20
399.6662785895404
 30
0.0
 40
1.999999999999996
100
AcDbArc
 50
90.0
 51
180.0
  0
ARC
  5
122D6
330
18
100
AcDbEntity
  8
10
 48
3.0
100
AcDbCircle
 10
608.9253799896785
 20
399.5350609464282
 30
0.0
 40
1.999999999999986
100
AcDbArc
 50
91.00000000047813
 51
180.0
  0
LINE
  5
122D7
330
18
100
AcDbEntity
  8
10
 48
3.0
100
AcDbLine
 10
616.5253799896785
 20
368.6662785895404
 30
0.0
 11
613.5253799896783
 21
368.6662785895404
 31
0.0
  0
LINE
  5
122D8
330
18
100
AcDbEntity
  8
10
 48
3.0
100
AcDbLine
 10
613.5253799896783
 20
366.6662785895404
 30
0.0
 11
616.5253799896785
 21
366.6662785895404
 31
0.0
  0
LINE
  5
122D9
330
18
100
AcDbEntity
  8
10
 48
3.0
100
AcDbLine
 10
621.3253799896786
 20
368.6662785895404
 30
0.0
 11
618.3253799896784
 21
368.6662785895404
 31
0.0
  0
LINE
  5
122DA
330
18
100
AcDbEntity
  8
10
 48
3.0
100
AcDbLine
 10
618.3253799896784
 20
366.6662785895404
 30
0.0
 11
621.3253799896786
 21
366.6662785895404
 31
0.0
  0
LINE
  5
122DB
330
18
100
AcDbEntity
  8
10
 48
3.0
100
AcDbLine
 10
616.4253799896783
 20
391.7237303039406
 30
0.0
 11
616.4253799896783
 21
401.6662785895406
 31
0.0
  0
ARC
  5
122DC
330
18
100
AcDbEntity
  8
10
 48
3.0
100
AcDbCircle
 10
615.0253799896782
 20
385.6662785895406
 30
0.0
 40
1.500000000000006
100
AcDbArc
 50
0.0
 51
180.0
  0
LINE
  5
122DD
330
18
100
AcDbEntity
  8
10
 48
3.0
100
AcDbLine
 10
610.4253799896785
 20
389.9174363110406
 30
0.0
 11
610.2530370165783
 21
389.9214455530406
 31
0.0
  0
LINE
  5
122DE
330
18
100
AcDbEntity
  8
10
 48
3.0
100
AcDbLine
 10
610.2530370165783
 20
389.9214455530406
 30
0.0
 11
610.0852633271784
 21
389.9334111065406
 31
0.0
  0
LINE
  5
122DF
330
18
100
AcDbEntity
  8
10
 48
3.0
100
AcDbLine
 10
610.0852633271784
 20
389.9334111065406
 30
0.0
 11
609.9274721228785
 21
389.9530119968405
 31
0.0
  0
ARC
  5
122E0
330
18
100
AcDbEntity
  8
10
 48
3.0
100
AcDbCircle
 10
619.8253799896783
 20
385.6662785895406
 30
0.0
 40
1.499999999999995
100
AcDbArc
 50
0.0
 51
180.0
  0
LINE
  5
122E1
330
18
100
AcDbEntity
  8
10
 48
3.0
100
AcDbLine
 10
668.4253799896785
 20
273.6662785895406
 30
0.0
 11
668.4253799896785
 21
401.6662785895406
 31
0.0
  0
LINE
  5
122E3
330
18
100
AcDbEntity
  8
10
 48
3.0
100
AcDbLine
 10
643.9253799896785
 20
285.2653857560404
 30
0.0
 11
634.9253799896786
 21
285.2653857560404
 31
0.0
  0
LINE
  5
122E4
330
18
100
AcDbEntity
  8
10
 48
3.0
100
AcDbLine
 10
634.9253799896786
 20
284.4615381787406
 30
0.0
 11
643.9253799896785
 21
284.4615381787406
 31
0.0
  0
ARC
  5
122E5
330
18
100
AcDbEntity
  8
10
 48
3.0
100
AcDbCircle
 10
629.9253799896782
 20
278.1662785895405
 30
0.0
 40
0.4999999999999985
100
AcDbArc
 50
0.0
 51
180.0
  0
ARC
  5
122E6
330
18
100
AcDbEntity
  8
10
 48
3.0
100
AcDbCircle
 10
627.9253799896785
 20
278.1662785895405
 30
0.0
 40
0.4999999999999985
100
AcDbArc
 50
0.0
 51
180.0
  0
LINE
  5
122E7
330
18
100
AcDbEntity
  8
10
 48
3.0
100
AcDbLine
 10
630.4253799896786
 20
273.9662785895406
 30
0.0
 11
629.4253799896785
 21
273.9662785895406
 31
0.0
  0
LINE
  5
122E8
330
18
100
AcDbEntity
  8
10
 48
3.0
100
AcDbLine
 10
629.4253799896785
 20
273.6662785895406
 30
0.0
 11
629.4253799896785
 21
278.1662785895405
 31
0.0
  0
LINE
  5
122E9
330
18
100
AcDbEntity
  8
10
 48
3.0
100
AcDbLine
 10
628.4253799896784
 20
273.6662785895406
 30
0.0
 11
628.4253799896784
 21
278.1662785895405
 31
0.0
  0
LINE
  5
122EA
330
18
100
AcDbEntity
  8
10
 48
3.0
100
AcDbLine
 10
627.4253799896785
 20
273.6662785895406
 30
0.0
 11
627.4253799896785
 21
278.1662785895405
 31
0.0
  0
LINE
  5
122EB
330
18
100
AcDbEntity
  8
10
 48
3.0
100
AcDbLine
 10
626.4253799896784
 20
273.6662785895406
 30
0.0
 11
626.4253799896784
 21
278.1662785895405
 31
0.0
  0
LINE
  5
122EC
330
18
100
AcDbEntity
  8
10
 48
3.0
100
AcDbLine
 10
628.4253799896784
 20
273.9662785895406
 30
0.0
 11
627.4253799896785
 21
273.9662785895406
 31
0.0
  0
LINE
  5
122ED
330
18
100
AcDbEntity
  8
10
 48
3.0
100
AcDbLine
 10
630.4253799896786
 20
273.6662785895406
 30
0.0
 11
630.4253799896786
 21
278.1662785895405
 31
0.0
  0
LINE
  5
122EE
330
18
100
AcDbEntity
  8
10
 48
3.0
100
AcDbLine
 10
634.9253799896786
 20
285.2653857560404
 30
0.0
 11
634.9253799896786
 21
284.4615381787406
 31
0.0
  0
ARC
  5
122EF
330
18
100
AcDbEntity
  8
10
 48
3.0
100
AcDbCircle
 10
634.2253799896783
 20
311.1662785895406
 30
0.0
 40
1.500000000000006
100
AcDbArc
 50
0.0
 51
180.0
  0
ARC
  5
122F0
330
18
100
AcDbEntity
  8
10
 48
3.0
100
AcDbCircle
 10
634.2253799896783
 20
304.1662785895404
 30
0.0
 40
1.499999999999995
100
AcDbArc
 50
180.0
 51
0.0
  0
ARC
  5
122F1
330
18
100
AcDbEntity
  8
10
 48
3.0
100
AcDbCircle
 10
629.4253799896785
 20
311.1662785895406
 30
0.0
 40
1.499999999999995
100
AcDbArc
 50
0.0
 51
180.0
  0
ARC
  5
122F2
330
18
100
AcDbEntity
  8
10
 48
3.0
100
AcDbCircle
 10
629.4253799896785
 20
304.1662785895404
 30
0.0
 40
1.500000000000006
100
AcDbArc
 50
180.0
 51
0.0
  0
LINE
  5
122F3
330
18
100
AcDbEntity
  8
10
 48
3.0
100
AcDbLine
 10
627.9253799896785
 20
311.1662785895406
 30
0.0
 11
627.9253799896785
 21
304.1662785895404
 31
0.0
  0
LINE
  5
122F4
330
18
100
AcDbEntity
  8
10
 48
3.0
100
AcDbLine
 10
626.1253799896785
 20
304.1662785895404
 30
0.0
 11
626.1253799896785
 21
311.1662785895406
 31
0.0
  0
LINE
  5
122F5
330
18
100
AcDbEntity
  8
10
 48
3.0
100
AcDbLine
 10
632.7253799896785
 20
311.1662785895406
 30
0.0
 11
632.7253799896785
 21
304.1662785895404
 31
0.0
  0
LINE
  5
122F6
330
18
100
AcDbEntity
  8
10
 48
3.0
100
AcDbLine
 10
630.9253799896785
 20
304.1662785895404
 30
0.0
 11
630.9253799896785
 21
311.1662785895406
 31
0.0
  0
ARC
  5
122F7
330
18
100
AcDbEntity
  8
10
 48
3.0
100
AcDbCircle
 10
639.0253799896786
 20
311.1662785895406
 30
0.0
 40
1.499999999999995
100
AcDbArc
 50
0.0
 51
180.0
  0
ARC
  5
122F8
330
18
100
AcDbEntity
  8
10
 48
3.0
100
AcDbCircle
 10
639.0253799896786
 20
304.1662785895404
 30
0.0
 40
1.499999999999995
100
AcDbArc
 50
180.0
 51
0.0
  0
LINE
  5
122F9
330
18
100
AcDbEntity
  8
10
 48
3.0
100
AcDbLine
 10
637.5253799896785
 20
311.1662785895406
 30
0.0
 11
637.5253799896785
 21
304.1662785895404
 31
0.0
  0
LINE
  5
122FA
330
18
100
AcDbEntity
  8
10
 48
3.0
100
AcDbLine
 10
635.7253799896783
 20
304.1662785895404
 30
0.0
 11
635.7253799896783
 21
311.1662785895406
 31
0.0
  0
LINE
  5
122FB
330
18
100
AcDbEntity
  8
10
 48
3.0
100
AcDbLine
 10
640.5253799896783
 20
304.1662785895404
 30
0.0
 11
640.5253799896783
 21
311.1662785895406
 31
0.0
  0
LINE
  5
122FC
330
18
100
AcDbEntity
  8
10
 48
3.0
100
AcDbLine
 10
643.9253799896785
 20
284.4615381787406
 30
0.0
 11
643.9253799896785
 21
285.2653857560404
 31
0.0
  0
ARC
  5
122FD
330
18
100
AcDbEntity
  8
10
 48
3.0
100
AcDbCircle
 10
643.8253799896783
 20
311.1662785895406
 30
0.0
 40
1.499999999999995
100
AcDbArc
 50
0.0
 51
180.0
  0
ARC
  5
122FE
330
18
100
AcDbEntity
  8
10
 48
3.0
100
AcDbCircle
 10
643.8253799896783
 20
304.1662785895404
 30
0.0
 40
1.500000000000006
100
AcDbArc
 50
180.0
 51
0.0
  0
LINE
  5
122FF
330
18
100
AcDbEntity
  8
10
 48
3.0
100
AcDbLine
 10
645.3253799896786
 20
304.1662785895404
 30
0.0
 11
645.3253799896786
 21
311.1662785895406
 31
0.0
  0
LINE
  5
12300
330
18
100
AcDbEntity
  8
10
 48
3.0
100
AcDbLine
 10
642.3253799896786
 20
311.1662785895406
 30
0.0
 11
642.3253799896786
 21
304.1662785895404
 31
0.0
  0
ARC
  5
12301
330
18
100
AcDbEntity
  8
10
 48
3.0
100
AcDbCircle
 10
648.6253799896785
 20
311.1662785895406
 30
0.0
 40
1.499999999999995
100
AcDbArc
 50
0.0
 51
180.0
  0
ARC
  5
12302
330
18
100
AcDbEntity
  8
10
 48
3.0
100
AcDbCircle
 10
648.6253799896785
 20
304.1662785895404
 30
0.0
 40
1.500000000000006
100
AcDbArc
 50
180.0
 51
0.0
  0
LINE
  5
12303
330
18
100
AcDbEntity
  8
10
 48
3.0
100
AcDbLine
 10
650.1253799896785
 20
304.1662785895404
 30
0.0
 11
650.1253799896785
 21
311.1662785895406
 31
0.0
  0
LINE
  5
12304
330
18
100
AcDbEntity
  8
10
 48
3.0
100
AcDbLine
 10
647.1253799896783
 20
311.1662785895406
 30
0.0
 11
647.1253799896783
 21
304.1662785895404
 31
0.0
  0
ARC
  5
12305
330
18
100
AcDbEntity
  8
10
 48
3.0
100
AcDbCircle
 10
653.4253799896784
 20
311.1662785895406
 30
0.0
 40
1.499999999999995
100
AcDbArc
 50
0.0
 51
180.0
  0
ARC
  5
12306
330
18
100
AcDbEntity
  8
10
 48
3.0
100
AcDbCircle
 10
653.4253799896784
 20
304.1662785895404
 30
0.0
 40
1.499999999999995
100
AcDbArc
 50
180.0
 51
0.0
  0
LINE
  5
12307
330
18
100
AcDbEntity
  8
10
 48
3.0
100
AcDbLine
 10
651.9253799896785
 20
311.1662785895406
 30
0.0
 11
651.9253799896785
 21
304.1662785895404
 31
0.0
  0
LINE
  5
12308
330
18
100
AcDbEntity
  8
10
 48
3.0
100
AcDbLine
 10
654.9253799896782
 20
304.1662785895404
 30
0.0
 11
654.9253799896782
 21
311.1662785895406
 31
0.0
  0
LINE
  5
1230A
330
18
100
AcDbEntity
  8
10
 48
3.0
100
AcDbLine
 10
668.4253799896785
 20
280.3642976256036
 30
0.0
 11
673.5344658370629
 21
280.3642976256036
 31
0.0
  0
LINE
  5
1230B
330
18
100
AcDbEntity
  8
10
 48
3.0
100
AcDbLine
 10
668.4253799896785
 20
285.4151208679727
 30
0.0
 11
673.5237978357997
 21
285.4151208679727
 31
0.0
  0
LINE
  5
1230C
330
18
100
AcDbEntity
  8
10
 48
3.0
100
AcDbLine
 10
668.4253799896785
 20
283.2620751044708
 30
0.0
 11
673.5237978357997
 21
283.2620751044708
 31
0.0
  0
LINE
  5
1230D
330
18
100
AcDbEntity
  8
10
 48
3.0
100
AcDbLine
 10
673.5344658370629
 20
288.1662785895406
 30
0.0
 11
673.5344658370629
 21
280.3642976256036
 31
0.0
  0
LINE
  5
1230E
330
18
100
AcDbEntity
  8
10
 48
3.0
100
AcDbLine
 10
660.4253799896785
 20
302.6662785895406
 30
0.0
 11
662.9253799896785
 21
302.6662785895406
 31
0.0
  0
LINE
  5
1230F
330
18
100
AcDbEntity
  8
10
 48
3.0
100
AcDbLine
 10
660.4253799896785
 20
309.6662785895406
 30
0.0
 11
662.9253799896785
 21
309.6662785895407
 31
0.0
  0
LINE
  5
12310
330
18
100
AcDbEntity
  8
10
 48
3.0
100
AcDbLine
 10
662.9253799896782
 20
309.9162785895404
 30
0.0
 11
659.9253799896786
 21
309.9162785895404
 31
0.0
  0
LINE
  5
12311
330
18
100
AcDbEntity
  8
10
 48
3.0
100
AcDbLine
 10
659.9253799896786
 20
302.4162785895406
 30
0.0
 11
662.9253799896782
 21
302.4162785895406
 31
0.0
  0
LINE
  5
12312
330
18
100
AcDbEntity
  8
10
 48
3.0
100
AcDbLine
 10
661.9253799896783
 20
302.6662785895406
 30
0.0
 11
661.9253799896783
 21
309.6662785895407
 31
0.0
  0
LINE
  5
12313
330
18
100
AcDbEntity
  8
10
 48
3.0
100
AcDbLine
 10
660.4253799896785
 20
302.6662785895406
 30
0.0
 11
660.4253799896785
 21
309.6662785895406
 31
0.0
  0
LINE
  5
12314
330
18
100
AcDbEntity
  8
10
 48
3.0
100
AcDbLine
 10
659.9253799896786
 20
309.9162785895404
 30
0.0
 11
659.9253799896786
 21
302.4162785895406
 31
0.0
  0
LINE
  5
12316
330
18
100
AcDbEntity
  8
10
 48
3.0
100
AcDbLine
 10
662.9253799896782
 20
302.4162785895406
 30
0.0
 11
662.9253799896782
 21
309.9162785895404
 31
0.0
  0
LINE
  5
12317
330
18
100
AcDbEntity
  8
10
 48
3.0
100
AcDbLine
 10
654.9253799896782
 20
348.6662785895406
 30
0.0
 11
654.9253799896782
 21
385.6662785895406
 31
0.0
  0
LINE
  5
12318
330
18
100
AcDbEntity
  8
10
 48
3.0
100
AcDbLine
 10
651.9253799896785
 20
385.6662785895406
 30
0.0
 11
651.9253799896785
 21
348.6662785895406
 31
0.0
  0
LINE
  5
12319
330
18
100
AcDbEntity
  8
10
 48
3.0
100
AcDbLine
 10
650.1253799896785
 20
348.6662785895406
 30
0.0
 11
650.1253799896785
 21
385.6662785895406
 31
0.0
  0
LINE
  5
1231A
330
18
100
AcDbEntity
  8
10
 48
3.0
100
AcDbLine
 10
647.1253799896783
 20
385.6662785895406
 30
0.0
 11
647.1253799896783
 21
348.6662785895406
 31
0.0
  0
LINE
  5
1231B
330
18
100
AcDbEntity
  8
10
 48
3.0
100
AcDbLine
 10
645.3253799896786
 20
348.6662785895406
 30
0.0
 11
645.3253799896786
 21
385.6662785895406
 31
0.0
  0
LINE
  5
1231C
330
18
100
AcDbEntity
  8
10
 48
3.0
100
AcDbLine
 10
642.3253799896786
 20
385.6662785895406
 30
0.0
 11
642.3253799896786
 21
348.6662785895406
 31
0.0
  0
LINE
  5
1231D
330
18
100
AcDbEntity
  8
10
 48
3.0
100
AcDbLine
 10
640.5253799896783
 20
348.6662785895406
 30
0.0
 11
640.5253799896783
 21
385.6662785895406
 31
0.0
  0
LINE
  5
1231E
330
18
100
AcDbEntity
  8
10
 48
3.0
100
AcDbLine
 10
637.5253799896785
 20
385.6662785895406
 30
0.0
 11
637.5253799896785
 21
348.6662785895406
 31
0.0
  0
LINE
  5
1231F
330
18
100
AcDbEntity
  8
10
 48
3.0
100
AcDbLine
 10
635.7253799896783
 20
348.6662785895406
 30
0.0
 11
635.7253799896783
 21
385.6662785895406
 31
0.0
  0
LINE
  5
12320
330
18
100
AcDbEntity
  8
10
 48
3.0
100
AcDbLine
 10
632.7253799896785
 20
385.6662785895406
 30
0.0
 11
632.7253799896785
 21
348.6662785895406
 31
0.0
  0
LINE
  5
12321
330
18
100
AcDbEntity
  8
10
 48
3.0
100
AcDbLine
 10
630.9253799896785
 20
348.6662785895406
 30
0.0
 11
630.9253799896785
 21
385.6662785895406
 31
0.0
  0
LINE
  5
12322
330
18
100
AcDbEntity
  8
10
 48
3.0
100
AcDbLine
 10
627.9253799896785
 20
385.6662785895406
 30
0.0
 11
627.9253799896785
 21
348.6662785895406
 31
0.0
  0
LINE
  5
12323
330
18
100
AcDbEntity
  8
10
 48
3.0
100
AcDbLine
 10
626.1253799896785
 20
348.6662785895406
 30
0.0
 11
626.1253799896785
 21
385.6662785895406
 31
0.0
  0
ARC
  5
12324
330
18
100
AcDbEntity
  8
10
 48
3.0
100
AcDbCircle
 10
634.2253799896783
 20
348.6662785895406
 30
0.0
 40
1.499999999999995
100
AcDbArc
 50
180.0
 51
0.0
  0
ARC
  5
12325
330
18
100
AcDbEntity
  8
10
 48
3.0
100
AcDbCircle
 10
629.4253799896785
 20
348.6662785895406
 30
0.0
 40
1.500000000000006
100
AcDbArc
 50
180.0
 51
0.0
  0
ARC
  5
12326
330
18
100
AcDbEntity
  8
10
 48
3.0
100
AcDbCircle
 10
639.0253799896786
 20
348.6662785895406
 30
0.0
 40
1.499999999999995
100
AcDbArc
 50
180.0
 51
0.0
  0
ARC
  5
12327
330
18
100
AcDbEntity
  8
10
 48
3.0
100
AcDbCircle
 10
643.8253799896783
 20
348.6662785895406
 30
0.0
 40
1.500000000000006
100
AcDbArc
 50
180.0
 51
0.0
  0
ARC
  5
12328
330
18
100
AcDbEntity
  8
10
 48
3.0
100
AcDbCircle
 10
648.6253799896785
 20
348.6662785895406
 30
0.0
 40
1.500000000000006
100
AcDbArc
 50
180.0
 51
0.0
  0
ARC
  5
12329
330
18
100
AcDbEntity
  8
10
 48
3.0
100
AcDbCircle
 10
653.4253799896784
 20
348.6662785895406
 30
0.0
 40
1.499999999999995
100
AcDbArc
 50
180.0
 51
0.0
  0
LINE
  5
1232A
330
18
100
AcDbEntity
  8
10
 48
3.0
100
AcDbLine
 10
635.7253799896783
 20
368.6662785895404
 30
0.0
 11
632.7253799896785
 21
368.6662785895404
 31
0.0
  0
LINE
  5
1232B
330
18
100
AcDbEntity
  8
10
 48
3.0
100
AcDbLine
 10
632.7253799896785
 20
366.6662785895404
 30
0.0
 11
635.7253799896783
 21
366.6662785895404
 31
0.0
  0
LINE
  5
1232C
330
18
100
AcDbEntity
  8
10
 48
3.0
100
AcDbLine
 10
630.9253799896785
 20
368.6662785895404
 30
0.0
 11
627.9253799896785
 21
368.6662785895404
 31
0.0
  0
LINE
  5
1232D
330
18
100
AcDbEntity
  8
10
 48
3.0
100
AcDbLine
 10
627.9253799896785
 20
366.6662785895404
 30
0.0
 11
630.9253799896785
 21
366.6662785895404
 31
0.0
  0
LINE
  5
1232E
330
18
100
AcDbEntity
  8
10
 48
3.0
100
AcDbLine
 10
640.5253799896783
 20
368.6662785895404
 30
0.0
 11
637.5253799896785
 21
368.6662785895404
 31
0.0
  0
LINE
  5
1232F
330
18
100
AcDbEntity
  8
10
 48
3.0
100
AcDbLine
 10
637.5253799896785
 20
366.6662785895404
 30
0.0
 11
640.5253799896783
 21
366.6662785895404
 31
0.0
  0
ARC
  5
12330
330
18
100
AcDbEntity
  8
10
 48
3.0
100
AcDbCircle
 10
634.2253799896783
 20
385.6662785895406
 30
0.0
 40
1.500000000000006
100
AcDbArc
 50
0.0
 51
180.0
  0
ARC
  5
12331
330
18
100
AcDbEntity
  8
10
 48
3.0
100
AcDbCircle
 10
629.4253799896785
 20
385.6662785895406
 30
0.0
 40
1.499999999999995
100
AcDbArc
 50
0.0
 51
180.0
  0
ARC
  5
12332
330
18
100
AcDbEntity
  8
10
 48
3.0
100
AcDbCircle
 10
639.0253799896786
 20
385.6662785895406
 30
0.0
 40
1.499999999999995
100
AcDbArc
 50
0.0
 51
180.0
  0
LINE
  5
12333
330
18
100
AcDbEntity
  8
10
 48
3.0
100
AcDbLine
 10
645.3253799896786
 20
368.6662785895404
 30
0.0
 11
642.3253799896786
 21
368.6662785895404
 31
0.0
  0
LINE
  5
12334
330
18
100
AcDbEntity
  8
10
 48
3.0
100
AcDbLine
 10
642.3253799896786
 20
366.6662785895404
 30
0.0
 11
645.3253799896786
 21
366.6662785895404
 31
0.0
  0
LINE
  5
12335
330
18
100
AcDbEntity
  8
10
 48
3.0
100
AcDbLine
 10
650.1253799896785
 20
368.6662785895404
 30
0.0
 11
647.1253799896783
 21
368.6662785895404
 31
0.0
  0
LINE
  5
12336
330
18
100
AcDbEntity
  8
10
 48
3.0
100
AcDbLine
 10
647.1253799896783
 20
366.6662785895404
 30
0.0
 11
650.1253799896785
 21
366.6662785895404
 31
0.0
  0
ARC
  5
12337
330
18
100
AcDbEntity
  8
10
 48
3.0
100
AcDbCircle
 10
643.8253799896783
 20
385.6662785895406
 30
0.0
 40
1.499999999999995
100
AcDbArc
 50
0.0
 51
180.0
  0
ARC
  5
12338
330
18
100
AcDbEntity
  8
10
 48
3.0
100
AcDbCircle
 10
648.6253799896785
 20
385.6662785895406
 30
0.0
 40
1.499999999999995
100
AcDbArc
 50
0.0
 51
180.0
  0
ARC
  5
12339
330
18
100
AcDbEntity
  8
10
 48
3.0
100
AcDbCircle
 10
653.4253799896784
 20
385.6662785895406
 30
0.0
 40
1.499999999999995
100
AcDbArc
 50
0.0
 51
180.0
  0
LINE
  5
1233A
330
18
100
AcDbEntity
  8
10
 48
3.0
100
AcDbLine
 10
654.9253799896782
 20
382.6662785895406
 30
0.0
 11
651.9253799896785
 21
382.6662785895406
 31
0.0
  0
LINE
  5
1233D
330
18
100
AcDbEntity
  8
10
 48
3.0
100
AcDbLine
 10
668.4253799896785
 20
345.1662785895406
 30
0.0
 11
667.6253799896783
 21
345.1662785895406
 31
0.0
  0
LINE
  5
1233E
330
18
100
AcDbEntity
  8
10
 48
3.0
100
AcDbLine
 10
668.4253799896785
 20
337.1662785895404
 30
0.0
 11
667.6253799896783
 21
337.1662785895404
 31
0.0
  0
LINE
  5
1233F
330
18
100
AcDbEntity
  8
10
 48
3.0
100
AcDbLine
 10
667.6253799896783
 20
345.1662785895406
 30
0.0
 11
667.6253799896783
 21
337.1662785895404
 31
0.0
  0
LINE
  5
12341
330
18
100
AcDbEntity
  8
10
 48
3.0
100
AcDbLine
 10
661.9253799896783
 20
374.6662785895407
 30
0.0
 11
661.9253799896783
 21
381.6662785895406
 31
0.0
  0
LINE
  5
12342
330
18
100
AcDbEntity
  8
10
 48
3.0
100
AcDbLine
 10
660.4253799896785
 20
374.6662785895407
 30
0.0
 11
660.4253799896785
 21
381.6662785895406
 31
0.0
  0
LINE
  5
12343
330
18
100
AcDbEntity
  8
10
 48
3.0
100
AcDbLine
 10
662.9253799896782
 20
374.4162785895406
 30
0.0
 11
662.9253799896782
 21
381.9162785895406
 31
0.0
  0
LINE
  5
12344
330
18
100
AcDbEntity
  8
10
 48
3.0
100
AcDbLine
 10
659.9253799896786
 20
381.9162785895406
 30
0.0
 11
659.9253799896786
 21
374.4162785895406
 31
0.0
  0
LINE
  5
12345
330
18
100
AcDbEntity
  8
10
 48
3.0
100
AcDbLine
 10
660.4253799896785
 20
374.6662785895407
 30
0.0
 11
662.9253799896785
 21
374.6662785895407
 31
0.0
  0
LINE
  5
12346
330
18
100
AcDbEntity
  8
10
 48
3.0
100
AcDbLine
 10
659.9253799896786
 20
374.4162785895406
 30
0.0
 11
662.9253799896782
 21
374.4162785895406
 31
0.0
  0
LINE
  5
12347
330
18
100
AcDbEntity
  8
10
 48
3.0
100
AcDbLine
 10
660.4253799896785
 20
381.6662785895406
 30
0.0
 11
662.9253799896785
 21
381.6662785895406
 31
0.0
  0
LINE
  5
12348
330
18
100
AcDbEntity
  8
10
 48
3.0
100
AcDbLine
 10
662.9253799896782
 20
381.9162785895406
 30
0.0
 11
659.9253799896786
 21
381.9162785895406
 31
0.0
  0
LINE
  5
12349
330
18
100
AcDbEntity
  8
10
 48
3.0
100
AcDbLine
 10
673.5237978357997
 20
387.1662785895404
 30
0.0
 11
673.5237978357997
 21
394.9682595534774
 31
0.0
  0
LINE
  5
1234A
330
18
100
AcDbEntity
  8
10
 48
3.0
100
AcDbLine
 10
668.4253799896785
 20
392.0704820746103
 30
0.0
 11
673.5237978357997
 21
392.0704820746103
 31
0.0
  0
LINE
  5
1234B
330
18
100
AcDbEntity
  8
10
 48
3.0
100
AcDbLine
 10
668.4253799896785
 20
389.9174363111084
 30
0.0
 11
673.5237978357997
 21
389.9174363111084
 31
0.0
  0
LINE
  5
1234C
330
18
100
AcDbEntity
  8
10
 48
3.0
100
AcDbLine
 10
668.4253799896785
 20
394.9682595534774
 30
0.0
 11
673.5237978357997
 21
394.9682595534774
 31
0.0
  0
LINE
  5
1234D
330
18
100
AcDbEntity
  8
10
 48
3.0
100
AcDbLine
 10
739.9253799896785
 20
387.6662785895404
 30
0.0
 11
739.9253799896788
 21
287.6662785895404
 31
0.0
  0
LINE
  5
1234E
330
18
100
AcDbEntity
  8
10
 48
3.0
100
AcDbLine
 10
718.6753799896783
 20
273.6662785895406
 30
0.0
 11
740.4253799896788
 21
273.6662785895406
 31
0.0
  0
LINE
  5
1234F
330
18
100
AcDbEntity
  8
10
 48
3.0
100
AcDbLine
 10
696.6753799896788
 20
278.1662785895405
 30
0.0
 11
716.6753799896788
 21
278.1662785895405
 31
0.0
  0
LINE
  5
12351
330
18
100
AcDbEntity
  8
10
 48
3.0
100
AcDbLine
 10
700.1753799896788
 20
282.1662785895406
 30
0.0
 11
713.1753799896788
 21
282.1662785895406
 31
0.0
  0
LINE
  5
12352
330
18
100
AcDbEntity
  8
10
 48
3.0
100
AcDbLine
 10
694.6753799896785
 20
273.6662785895406
 30
0.0
 11
718.6753799896783
 21
273.6662785895406
 31
0.0
  0
LINE
  5
12353
330
18
100
AcDbEntity
  8
10
 48
3.0
100
AcDbLine
 10
700.2753799896786
 20
284.1662785895404
 30
0.0
 11
713.0753799896786
 21
284.1662785895404
 31
0.0
  0
LINE
  5
12354
330
18
100
AcDbEntity
  8
10
 48
3.0
100
AcDbLine
 10
700.2753799896786
 20
282.2662785895406
 30
0.0
 11
713.0753799896786
 21
282.2662785895406
 31
0.0
  0
LINE
  5
12355
330
18
100
AcDbEntity
  8
10
 48
3.0
100
AcDbLine
 10
700.1753799896788
 20
285.1662785895406
 30
0.0
 11
713.0753799896786
 21
285.1662785895404
 31
0.0
  0
LINE
  5
12356
330
18
100
AcDbEntity
  8
10
 48
3.0
100
AcDbLine
 10
697.6753799896788
 20
278.0662785895406
 30
0.0
 11
715.6753799896785
 21
278.0662785895406
 31
0.0
  0
LINE
  5
12357
330
18
100
AcDbEntity
  8
10
 48
3.0
100
AcDbLine
 10
697.6753799896788
 20
274.6662785895404
 30
0.0
 11
715.6753799896785
 21
274.6662785895404
 31
0.0
  0
LINE
  5
12358
330
18
100
AcDbEntity
  8
10
 48
3.0
100
AcDbLine
 10
697.6753799896788
 20
275.1662785895404
 30
0.0
 11
715.6753799896785
 21
275.1662785895404
 31
0.0
  0
LINE
  5
12359
330
18
100
AcDbEntity
  8
10
 48
3.0
100
AcDbLine
 10
697.6753799896788
 20
276.1662785895405
 30
0.0
 11
715.6753799896785
 21
276.1662785895405
 31
0.0
  0
LINE
  5
1235A
330
18
100
AcDbEntity
  8
10
 48
3.0
100
AcDbLine
 10
697.6753799896788
 20
276.6662785895404
 30
0.0
 11
715.6753799896785
 21
276.6662785895404
 31
0.0
  0
LINE
  5
1235B
330
18
100
AcDbEntity
  8
10
 48
3.0
100
AcDbLine
 10
697.6753799896788
 20
277.6662785895406
 30
0.0
 11
715.6753799896785
 21
277.6662785895406
 31
0.0
  0
ARC
  5
1235C
330
18
100
AcDbEntity
  8
10
 48
3.0
100
AcDbCircle
 10
696.6753799896788
 20
277.1662785895404
 30
0.0
 40
0.9999999999999984
100
AcDbArc
 50
90.0
 51
180.0
  0
ARC
  5
1235D
330
18
100
AcDbEntity
  8
10
 48
3.0
100
AcDbCircle
 10
694.6753799896785
 20
274.6662785895404
 30
0.0
 40
0.9999999999999984
100
AcDbArc
 50
270.0
 51
0.0
  0
LINE
  5
1235E
330
18
100
AcDbEntity
  8
10
 48
3.0
100
AcDbLine
 10
695.6753799896788
 20
277.1662785895404
 30
0.0
 11
695.6753799896788
 21
274.6662785895404
 31
0.0
  0
LINE
  5
1235F
330
18
100
AcDbEntity
  8
10
 48
3.0
100
AcDbLine
 10
697.6753799896788
 20
273.6662785895406
 30
0.0
 11
697.6753799896788
 21
278.0662785895406
 31
0.0
  0
ARC
  5
12360
330
18
100
AcDbEntity
  8
10
 48
3.0
100
AcDbCircle
 10
700.1753799896788
 20
282.6662785895406
 30
0.0
 40
0.4999999999999985
100
AcDbArc
 50
180.0
 51
270.0
  0
ARC
  5
12361
330
18
100
AcDbEntity
  8
10
 48
3.0
100
AcDbCircle
 10
700.1753799896788
 20
284.6662785895406
 30
0.0
 40
0.4999999999999985
100
AcDbArc
 50
90.0
 51
180.0
  0
LINE
  5
12362
330
18
100
AcDbEntity
  8
10
 48
3.0
100
AcDbLine
 10
699.6753799896788
 20
284.6662785895406
 30
0.0
 11
699.6753799896788
 21
282.6662785895406
 31
0.0
  0
LINE
  5
12363
330
18
100
AcDbEntity
  8
10
 48
3.0
100
AcDbLine
 10
700.2753799896786
 20
282.2662785895406
 30
0.0
 11
700.2753799896786
 21
285.1662785895404
 31
0.0
  0
ARC
  5
12364
330
18
100
AcDbEntity
  8
10
 48
3.0
100
AcDbCircle
 10
713.1753799896788
 20
284.6662785895406
 30
0.0
 40
0.4999999999999985
100
AcDbArc
 50
0.0
 51
90.0
  0
ARC
  5
12365
330
18
100
AcDbEntity
  8
10
 48
3.0
100
AcDbCircle
 10
713.1753799896788
 20
282.6662785895406
 30
0.0
 40
0.5000000000000097
100
AcDbArc
 50
270.0
 51
0.0
  0
LINE
  5
12366
330
18
100
AcDbEntity
  8
10
 48
3.0
100
AcDbLine
 10
713.6753799896788
 20
284.6662785895406
 30
0.0
 11
713.6753799896788
 21
282.6662785895406
 31
0.0
  0
LINE
  5
12367
330
18
100
AcDbEntity
  8
10
 48
3.0
100
AcDbLine
 10
713.0753799896786
 20
282.2662785895406
 30
0.0
 11
713.0753799896786
 21
285.1662785895404
 31
0.0
  0
ARC
  5
12368
330
18
100
AcDbEntity
  8
10
 48
3.0
100
AcDbCircle
 10
716.6753799896788
 20
277.1662785895404
 30
0.0
 40
0.9999999999999984
100
AcDbArc
 50
0.0
 51
90.0
  0
ARC
  5
12369
330
18
100
AcDbEntity
  8
10
 48
3.0
100
AcDbCircle
 10
718.6753799896783
 20
274.6662785895404
 30
0.0
 40
1.000000000000017
100
AcDbArc
 50
180.0
 51
270.0
  0
LINE
  5
1236A
330
18
100
AcDbEntity
  8
10
 48
3.0
100
AcDbLine
 10
717.6753799896784
 20
277.1662785895404
 30
0.0
 11
717.6753799896784
 21
274.6662785895404
 31
0.0
  0
LINE
  5
1236B
330
18
100
AcDbEntity
  8
10
 48
3.0
100
AcDbLine
 10
715.6753799896785
 20
273.6662785895406
 30
0.0
 11
715.6753799896785
 21
278.0662785895406
 31
0.0
  0
LINE
  5
1236D
330
18
100
AcDbEntity
  8
10
 48
3.0
100
AcDbLine
 10
740.4253799896788
 20
275.1662785895404
 30
0.0
 11
735.4253799896788
 21
275.1662785895404
 31
0.0
  0
LINE
  5
1236E
330
18
100
AcDbEntity
  8
12
  6
CENTER
 48
3.0
100
AcDbLine
 10
730.4253799896785
 20
278.6662785895404
 30
0.0
 11
745.4253799896783
 21
278.6662785895404
 31
0.0
  0
LINE
  5
1236F
330
18
100
AcDbEntity
  8
10
 48
3.0
100
AcDbLine
 10
729.4253799896785
 20
286.1662785895406
 30
0.0
 11
733.6753799896788
 21
286.1662785895406
 31
0.0
  0
ARC
  5
12370
330
18
100
AcDbEntity
  8
10
 48
3.0
100
AcDbCircle
 10
729.4253799896785
 20
288.1662785895406
 30
0.0
 40
1.999999999999996
100
AcDbArc
 50
180.0
 51
270.0
  0
LINE
  5
12371
330
18
100
AcDbEntity
  8
10
 48
3.0
100
AcDbLine
 10
735.4253799896788
 20
284.4162785895406
 30
0.0
 11
735.4253799896788
 21
273.6662785895406
 31
0.0
  0
ARC
  5
12372
330
18
100
AcDbEntity
  8
10
 48
3.0
100
AcDbCircle
 10
733.6753799896788
 20
284.4162785895406
 30
0.0
 40
1.749999999999986
100
AcDbArc
 50
0.0
 51
90.0
  0
LINE
  5
12373
330
18
100
AcDbEntity
  8
10
 48
3.0
100
AcDbLine
 10
740.4253799896788
 20
287.1662785895404
 30
0.0
 11
740.4253799896788
 21
273.6662785895406
 31
0.0
  0
ARC
  5
12374
330
18
100
AcDbEntity
  8
10
 48
3.0
100
AcDbCircle
 10
739.9253799896788
 20
287.1662785895404
 30
0.0
 40
0.5000000000000196
100
AcDbArc
 50
0.0
 51
90.0
  0
LINE
  5
12375
330
18
100
AcDbEntity
  8
12
  6
CENTER
 48
3.0
100
AcDbLine
 10
745.4253799896783
 20
396.6662785895406
 30
0.0
 11
731.9525874622391
 21
396.6662785895406
 31
0.0
  0
LINE
  5
12376
330
18
100
AcDbEntity
  8
10
 48
3.0
100
AcDbLine
 10
729.4253799896785
 20
389.1662785895404
 30
0.0
 11
733.6753799896785
 21
389.1662785895404
 31
0.0
  0
ARC
  5
12377
330
18
100
AcDbEntity
  8
10
 48
3.0
100
AcDbCircle
 10
729.4253799896785
 20
387.1662785895404
 30
0.0
 40
1.999999999999996
100
AcDbArc
 50
90.0
 51
180.0
  0
LINE
  5
12378
330
18
100
AcDbEntity
  8
10
 48
3.0
100
AcDbLine
 10
735.4253799896785
 20
401.6662785895406
 30
0.0
 11
735.4253799896785
 21
390.9162785895406
 31
0.0
  0
ARC
  5
12379
330
18
100
AcDbEntity
  8
10
 48
3.0
100
AcDbCircle
 10
733.6753799896785
 20
390.9162785895406
 30
0.0
 40
1.750000000000006
100
AcDbArc
 50
270.0
 51
0.0
  0
LINE
  5
1237A
330
18
100
AcDbEntity
  8
10
 48
3.0
100
AcDbLine
 10
740.4253799896785
 20
401.6662785895406
 30
0.0
 11
740.4253799896785
 21
388.1662785895406
 31
0.0
  0
ARC
  5
1237B
330
18
100
AcDbEntity
  8
10
 48
3.0
100
AcDbCircle
 10
739.9253799896785
 20
388.1662785895406
 30
0.0
 40
0.4999999999999985
100
AcDbArc
 50
270.0
 51
0.0
  0
ARC
  5
1320D
330
18
100
AcDbEntity
  8
11
  6
Continuous
100
AcDbCircle
 10
439.6753799894135
 20
372.4162785903154
 30
0.0
 40
0.4999999998999967
100
AcDbArc
 50
90.0
 51
180.0
  0
LINE
  5
1320E
330
18
100
AcDbEntity
  8
11
  6
Continuous
100
AcDbLine
 10
439.6753799894135
 20
372.9162785902153
 30
0.0
 11
465.6753799842134
 21
372.9162785902153
 31
0.0
  0
LINE
  5
1320F
330
18
100
AcDbEntity
  8
11
  6
Continuous
100
AcDbLine
 10
439.1753799895133
 20
372.4162785903154
 30
0.0
 11
439.1753799895133
 21
343.2644966421383
 31
0.0
  0
ARC
  5
13210
330
18
100
AcDbEntity
  8
11
  6
Continuous
100
AcDbCircle
 10
439.6753799894135
 20
343.2644966421383
 30
0.0
 40
0.4999999998999967
100
AcDbArc
 50
180.0
 51
262.3877950566257
  0
ARC
  5
13211
330
18
100
AcDbEntity
  8
11
  6
Continuous
100
AcDbCircle
 10
452.4253799868635
 20
438.6662785770655
 30
0.0
 40
96.74999998065009
100
AcDbArc
 50
262.3877950566192
 51
277.9125982959984
  0
LINE
  5
13212
330
18
100
AcDbEntity
  8
11
  6
Continuous
100
AcDbLine
 10
466.1753799841134
 20
372.4162785903154
 30
0.0
 11
466.1753799841134
 21
343.3326538879528
 31
0.0
  0
ARC
  5
13213
330
18
100
AcDbEntity
  8
11
  6
Continuous
100
AcDbCircle
 10
465.6753799842134
 20
343.3326538879528
 30
0.0
 40
0.4999999999000472
100
AcDbArc
 50
277.9125982960016
 51
0.0
  0
ARC
  5
13214
330
18
100
AcDbEntity
  8
11
  6
Continuous
100
AcDbCircle
 10
465.6753799842134
 20
372.4162785903154
 30
0.0
 40
0.4999999998999967
100
AcDbArc
 50
0.0
 51
90.0
  0
ARC
  5
13215
330
18
100
AcDbEntity
  8
11
  6
Continuous
100
AcDbCircle
 10
466.1253799841235
 20
372.8662785902255
 30
0.0
 40
0.499999999900013
100
AcDbArc
 50
0.0
 51
90.0
  0
ARC
  5
13216
330
18
100
AcDbEntity
  8
11
  6
Continuous
100
AcDbCircle
 10
466.9253799839634
 20
373.6662785900655
 30
0.0
 40
0.4999999998999967
100
AcDbArc
 50
0.0
 51
90.0
  0
ARC
  5
13217
330
18
100
AcDbEntity
  8
11
  6
Continuous
100
AcDbCircle
 10
465.8253799841836
 20
372.5662785902855
 30
0.0
 40
0.4999999998999967
100
AcDbArc
 50
0.0
 51
90.0
  0
LINE
  5
13218
330
18
100
AcDbEntity
  8
11
  6
Continuous
100
AcDbLine
 10
439.5253799894433
 20
373.0662785901854
 30
0.0
 11
465.8253799841836
 21
373.0662785901854
 31
0.0
  0
LINE
  5
13219
330
18
100
AcDbEntity
  8
11
  6
Continuous
100
AcDbLine
 10
439.2253799895033
 20
373.3662785901253
 30
0.0
 11
466.1253799841235
 21
373.3662785901253
 31
0.0
  0
LINE
  5
1321A
330
18
100
AcDbEntity
  8
11
  6
Continuous
100
AcDbLine
 10
438.4253799896634
 20
374.1662785899652
 30
0.0
 11
466.9253799839634
 21
374.1662785899652
 31
0.0
  0
ARC
  5
1321B
330
18
100
AcDbEntity
  8
11
  6
Continuous
100
AcDbCircle
 10
439.2253799895033
 20
372.8662785902255
 30
0.0
 40
0.4999999998999967
100
AcDbArc
 50
90.0
 51
180.0
  0
ARC
  5
1321C
330
18
100
AcDbEntity
  8
11
  6
Continuous
100
AcDbCircle
 10
439.5253799894433
 20
372.5662785902855
 30
0.0
 40
0.4999999998999967
100
AcDbArc
 50
90.0
 51
180.0
  0
LINE
  5
1321D
330
18
100
AcDbEntity
  8
11
  6
Continuous
100
AcDbLine
 10
438.7253799896035
 20
372.8662785902255
 30
0.0
 11
438.7253799896035
 21
343.3082689692578
 31
0.0
  0
LINE
  5
1321E
330
18
100
AcDbEntity
  8
11
  6
Continuous
100
AcDbLine
 10
437.9253799897634
 20
373.6662785900655
 30
0.0
 11
437.9253799897634
 21
342.6103053306853
 31
0.0
  0
ARC
  5
1321F
330
18
100
AcDbEntity
  8
11
  6
Continuous
100
AcDbCircle
 10
438.4253799896634
 20
373.6662785900655
 30
0.0
 40
0.4999999998999967
100
AcDbArc
 50
90.0
 51
180.0
  0
LINE
  5
13220
330
18
100
AcDbEntity
  8
11
  6
Continuous
100
AcDbLine
 10
439.0253799895433
 20
372.5662785902855
 30
0.0
 11
439.0253799895433
 21
343.1332999971563
 31
0.0
  0
ARC
  5
13221
330
18
100
AcDbEntity
  8
11
  6
Continuous
100
AcDbCircle
 10
438.9253799895635
 20
342.6103053306853
 30
0.0
 40
0.9999999997999928
100
AcDbArc
 50
180.0
 51
261.9998752116196
  0
ARC
  5
13222
330
18
100
AcDbEntity
  8
11
  6
Continuous
100
AcDbCircle
 10
439.5253799894433
 20
343.1332999971563
 30
0.0
 40
0.4999999998999967
100
AcDbArc
 50
180.0
 51
262.3097569885739
  0
ARC
  5
13223
330
18
100
AcDbEntity
  8
11
  6
Continuous
100
AcDbCircle
 10
439.7253799894035
 20
343.3082689692578
 30
0.0
 40
0.9999999998000106
100
AcDbArc
 50
180.0
 51
262.4138586545401
  0
ARC
  5
13224
330
18
100
AcDbEntity
  8
11
  6
Continuous
100
AcDbCircle
 10
452.4253799868635
 20
438.6662785770653
 30
0.0
 40
96.89999998061985
100
AcDbArc
 50
262.3097569885706
 51
277.9902247715355
  0
ARC
  5
13225
330
18
100
AcDbEntity
  8
11
  6
Continuous
100
AcDbCircle
 10
452.4253799868635
 20
438.6662785770653
 30
0.0
 40
97.19999998055993
100
AcDbArc
 50
262.4138586545401
 51
277.8866722725246
  0
ARC
  5
13226
330
18
100
AcDbEntity
  8
11
  6
Continuous
100
AcDbCircle
 10
452.4253799868635
 20
438.6662785770653
 30
0.0
 40
97.99999998039988
100
AcDbArc
 50
261.9998752116196
 51
278.2984769364801
  0
LINE
  5
13227
330
18
100
AcDbEntity
  8
11
  6
Continuous
100
AcDbLine
 10
467.4253799838635
 20
373.6662785900655
 30
0.0
 11
467.4253799838635
 21
342.6819048680351
 31
0.0
  0
LINE
  5
13228
330
18
100
AcDbEntity
  8
11
  6
Continuous
100
AcDbLine
 10
466.3253799840835
 20
372.5662785902855
 30
0.0
 11
466.3253799840835
 21
343.2021492071569
 31
0.0
  0
LINE
  5
13229
330
18
100
AcDbEntity
  8
11
  6
Continuous
100
AcDbLine
 10
466.6253799840235
 20
372.8662785902255
 30
0.0
 11
466.6253799840235
 21
343.3761951666291
 31
0.0
  0
ARC
  5
1322A
330
18
100
AcDbEntity
  8
11
  6
Continuous
100
AcDbCircle
 10
465.8253799841836
 20
343.2021492071569
 30
0.0
 40
0.4999999998999506
100
AcDbArc
 50
277.9902247715355
 51
0.0
  0
ARC
  5
1322B
330
18
100
AcDbEntity
  8
11
  6
Continuous
100
AcDbCircle
 10
465.6253799842234
 20
343.3761951666291
 30
0.0
 40
0.9999999998000655
100
AcDbArc
 50
277.8866722725246
 51
0.0
  0
ARC
  5
1322C
330
18
100
AcDbEntity
  8
11
  6
Continuous
100
AcDbCircle
 10
466.4253799840635
 20
342.6819048680351
 30
0.0
 40
0.9999999997999612
100
AcDbArc
 50
278.2984769364801
 51
0.0
  0
ARC
  5
1339F
330
18
100
AcDbEntity
  8
11
  6
Continuous
100
AcDbCircle
 10
477.9243799896786
 20
371.6548755917871
 30
0.0
 40
4.007760293684341
100
AcDbArc
 50
90.0
 51
270.0
  0
ARC
  5
133A0
330
18
100
AcDbEntity
  8
11
  6
Continuous
100
AcDbCircle
 10
484.9215799896787
 20
371.6548755917871
 30
0.0
 40
4.007760293684341
100
AcDbArc
 50
270.0
 51
90.0
  0
LINE
  5
133A6
330
18
100
AcDbEntity
  8
11
  6
Continuous
100
AcDbLine
 10
484.9215799896787
 20
375.6626358854715
 30
0.0
 11
477.9243799896786
 21
375.6626358854715
 31
0.0
  0
LINE
  5
133A7
330
18
100
AcDbEntity
  8
11
  6
Continuous
100
AcDbLine
 10
477.9243799896786
 20
367.6471152981028
 30
0.0
 11
484.9215799896787
 21
367.6471152981028
 31
0.0
  0
LINE
  5
133AA
330
18
100
AcDbEntity
  8
11
  6
Continuous
100
AcDbLine
 10
480.8827550948128
 20
385.0575224076615
 30
0.0
 11
480.6622549896784
 21
384.9324160396456
 31
0.0
  0
LINE
  5
133AB
330
18
100
AcDbEntity
  8
11
  6
Continuous
100
AcDbLine
 10
482.0955048845442
 20
382.3677351658023
 30
0.0
 11
481.8750050948128
 21
382.2426287812048
 31
0.0
  0
LINE
  5
133AC
330
18
100
AcDbEntity
  8
11
  6
Continuous
100
AcDbLine
 10
480.7725048845441
 20
384.5570969354799
 30
0.0
 11
480.9378798845441
 21
384.682203303496
 31
0.0
  0
LINE
  5
133AD
330
18
100
AcDbEntity
  8
11
  6
Continuous
100
AcDbLine
 10
481.9852549896786
 20
382.7430543357063
 30
0.0
 11
481.8198799896785
 21
382.6179479238256
 31
0.0
  0
LINE
  5
133AE
330
18
100
AcDbEntity
  8
11
  6
Continuous
100
AcDbLine
 10
480.6622549896784
 20
384.9324160396456
 30
0.0
 11
480.4417548845441
 21
384.682203303496
 31
0.0
  0
LINE
  5
133AF
330
18
100
AcDbEntity
  8
11
  6
Continuous
100
AcDbLine
 10
482.3160049896785
 20
382.6179479238256
 30
0.0
 11
482.0955048845442
 21
382.3677351658023
 31
0.0
  0
LINE
  5
133B0
330
18
100
AcDbEntity
  8
11
  6
Continuous
100
AcDbLine
 10
480.6622549896784
 20
384.3694372081143
 30
0.0
 11
480.7725048845441
 21
384.5570969354799
 31
0.0
  0
LINE
  5
133B1
330
18
100
AcDbEntity
  8
11
  6
Continuous
100
AcDbLine
 10
482.0955048845442
 20
382.9307138877304
 30
0.0
 11
481.9852549896786
 21
382.7430543357063
 31
0.0
  0
LINE
  5
133B2
330
18
100
AcDbEntity
  8
11
  6
Continuous
100
AcDbLine
 10
480.4417548845441
 20
384.682203303496
 30
0.0
 11
480.3315049896786
 21
384.4319905673463
 31
0.0
  0
LINE
  5
133B3
330
18
100
AcDbEntity
  8
11
  6
Continuous
100
AcDbLine
 10
482.4262548845442
 20
382.8681607037223
 30
0.0
 11
482.3160049896785
 21
382.6179479238256
 31
0.0
  0
LINE
  5
133B4
330
18
100
AcDbEntity
  8
11
  6
Continuous
100
AcDbLine
 10
479.3392549896786
 20
385.120075591787
 30
0.0
 11
478.5123799896786
 21
382.4928415556918
 31
0.0
  0
LINE
  5
133B5
330
18
100
AcDbEntity
  8
11
  6
Continuous
100
AcDbLine
 10
479.5046299896786
 20
384.494543751472
 30
0.0
 11
478.7328799371113
 21
382.1800755917871
 31
0.0
  0
LINE
  5
133B6
330
18
100
AcDbEntity
  8
11
  6
Continuous
100
AcDbLine
 10
480.3315049896786
 20
384.4319905673463
 30
0.0
 11
480.2763798845441
 21
384.1192244719648
 31
0.0
  0
LINE
  5
133B7
330
18
100
AcDbEntity
  8
11
  6
Continuous
100
AcDbLine
 10
480.6071298845441
 20
384.1192244719648
 30
0.0
 11
480.6622549896784
 21
384.3694372081143
 31
0.0
  0
LINE
  5
133B8
330
18
100
AcDbEntity
  8
11
  6
Continuous
100
AcDbLine
 10
482.1506299896786
 20
383.18092662388
 30
0.0
 11
482.0955048845442
 21
382.9307138877304
 31
0.0
  0
LINE
  5
133B9
330
18
100
AcDbEntity
  8
11
  6
Continuous
100
AcDbLine
 10
477.1893799896786
 20
385.120075591787
 30
0.0
 11
477.1893799896786
 21
382.1800755917871
 31
0.0
  0
LINE
  5
133BA
330
18
100
AcDbEntity
  8
11
  6
Continuous
100
AcDbLine
 10
477.5201299896786
 20
384.494543751472
 30
0.0
 11
477.5201299896786
 21
382.1800755917871
 31
0.0
  0
LINE
  5
133BB
330
18
100
AcDbEntity
  8
11
  6
Continuous
100
AcDbLine
 10
482.4813799896785
 20
383.18092662388
 30
0.0
 11
482.4262548845442
 21
382.8681607037223
 31
0.0
  0
LINE
  5
133BC
330
18
100
AcDbEntity
  8
11
  6
Continuous
100
AcDbLine
 10
479.5046299896786
 20
384.494543751472
 30
0.0
 11
479.5046299896786
 21
382.1800755917871
 31
0.0
  0
LINE
  5
133BD
330
18
100
AcDbEntity
  8
11
  6
Continuous
100
AcDbLine
 10
479.8353799896786
 20
385.120075591787
 30
0.0
 11
479.8353799896786
 21
382.1800755917871
 31
0.0
  0
LINE
  5
133BE
330
18
100
AcDbEntity
  8
11
  6
Continuous
100
AcDbLine
 10
480.2763798845441
 20
384.1192244719648
 30
0.0
 11
480.2763798845441
 21
383.18092662388
 31
0.0
  0
LINE
  5
133BF
330
18
100
AcDbEntity
  8
11
  6
Continuous
100
AcDbLine
 10
480.6071298845441
 20
383.18092662388
 30
0.0
 11
480.6071298845441
 21
384.1192244719648
 31
0.0
  0
LINE
  5
133C0
330
18
100
AcDbEntity
  8
11
  6
Continuous
100
AcDbLine
 10
482.1506299896786
 20
384.1192244719648
 30
0.0
 11
482.1506299896786
 21
383.18092662388
 31
0.0
  0
LINE
  5
133C1
330
18
100
AcDbEntity
  8
11
  6
Continuous
100
AcDbLine
 10
482.4813799896785
 20
384.1192244719648
 30
0.0
 11
482.4813799896785
 21
383.18092662388
 31
0.0
  0
LINE
  5
133C2
330
18
100
AcDbEntity
  8
11
  6
Continuous
100
AcDbLine
 10
482.9223801999472
 20
385.120075591787
 30
0.0
 11
482.9223801999472
 21
382.1800755917871
 31
0.0
  0
LINE
  5
133C3
330
18
100
AcDbEntity
  8
11
  6
Continuous
100
AcDbLine
 10
483.2531301999472
 20
384.7447564875039
 30
0.0
 11
483.2531301999472
 21
382.1800755917871
 31
0.0
  0
LINE
  5
133C4
330
18
100
AcDbEntity
  8
11
  6
Continuous
100
AcDbLine
 10
484.7966299896786
 20
385.120075591787
 30
0.0
 11
484.7966299896786
 21
382.6179479238256
 31
0.0
  0
LINE
  5
133C5
330
18
100
AcDbEntity
  8
11
  6
Continuous
100
AcDbLine
 10
485.1273799896786
 20
385.120075591787
 30
0.0
 11
485.1273799896786
 21
382.1800755917871
 31
0.0
  0
LINE
  5
133C6
330
18
100
AcDbEntity
  8
11
  6
Continuous
100
AcDbLine
 10
480.2763798845441
 20
383.18092662388
 30
0.0
 11
480.3315049896786
 21
382.8681607037223
 31
0.0
  0
LINE
  5
133C7
330
18
100
AcDbEntity
  8
11
  6
Continuous
100
AcDbLine
 10
477.5201299896786
 20
384.494543751472
 30
0.0
 11
478.291879963336
 21
382.1800755917871
 31
0.0
  0
LINE
  5
133C8
330
18
100
AcDbEntity
  8
11
  6
Continuous
100
AcDbLine
 10
477.6855049896786
 20
385.120075591787
 30
0.0
 11
478.5123799896786
 21
382.4928415556918
 31
0.0
  0
LINE
  5
133C9
330
18
100
AcDbEntity
  8
11
  6
Continuous
100
AcDbLine
 10
480.6622549896784
 20
382.9307138877304
 30
0.0
 11
480.6071298845441
 21
383.18092662388
 31
0.0
  0
LINE
  5
133CA
330
18
100
AcDbEntity
  8
11
  6
Continuous
100
AcDbLine
 10
482.0955048845442
 20
384.3694372081143
 30
0.0
 11
482.1506299896786
 21
384.1192244719648
 31
0.0
  0
LINE
  5
133CB
330
18
100
AcDbEntity
  8
11
  6
Continuous
100
AcDbLine
 10
482.4262548845442
 20
384.4319905673463
 30
0.0
 11
482.4813799896785
 21
384.1192244719648
 31
0.0
  0
LINE
  5
133CC
330
18
100
AcDbEntity
  8
11
  6
Continuous
100
AcDbLine
 10
480.3315049896786
 20
382.8681607037223
 30
0.0
 11
480.4417548845441
 21
382.6179479238256
 31
0.0
  0
LINE
  5
133CD
330
18
100
AcDbEntity
  8
11
  6
Continuous
100
AcDbLine
 10
481.8198799896785
 20
382.6179479238256
 30
0.0
 11
481.5993798845441
 21
382.5553947397
 31
0.0
  0
LINE
  5
133CE
330
18
100
AcDbEntity
  8
11
  6
Continuous
100
AcDbLine
 10
480.7725048845441
 20
382.7430543357063
 30
0.0
 11
480.6622549896784
 21
382.9307138877304
 31
0.0
  0
LINE
  5
133CF
330
18
100
AcDbEntity
  8
11
  6
Continuous
100
AcDbLine
 10
483.2531301999472
 20
384.7447564875039
 30
0.0
 11
484.6312549896786
 21
382.1800755917871
 31
0.0
  0
LINE
  5
133D0
330
18
100
AcDbEntity
  8
11
  6
Continuous
100
AcDbLine
 10
482.3160049896785
 20
384.682203303496
 30
0.0
 11
482.4262548845442
 21
384.4319905673463
 31
0.0
  0
LINE
  5
133D1
330
18
100
AcDbEntity
  8
11
  6
Continuous
100
AcDbLine
 10
480.9378798845441
 20
384.682203303496
 30
0.0
 11
481.1583799896786
 21
384.7447564875039
 31
0.0
  0
LINE
  5
133D2
330
18
100
AcDbEntity
  8
11
  6
Continuous
100
AcDbLine
 10
481.8750050948128
 20
382.2426287812048
 30
0.0
 11
481.5993798845441
 21
382.1800755917871
 31
0.0
  0
LINE
  5
133D3
330
18
100
AcDbEntity
  8
11
  6
Continuous
100
AcDbLine
 10
481.1583799896786
 20
385.120075591787
 30
0.0
 11
480.8827550948128
 21
385.0575224076615
 31
0.0
  0
LINE
  5
133D4
330
18
100
AcDbEntity
  8
11
  6
Continuous
100
AcDbLine
 10
480.4417548845441
 20
382.6179479238256
 30
0.0
 11
480.6622549896784
 21
382.3677351658023
 31
0.0
  0
LINE
  5
133D5
330
18
100
AcDbEntity
  8
11
  6
Continuous
100
AcDbLine
 10
481.9852549896786
 20
384.5570969354799
 30
0.0
 11
482.0955048845442
 21
384.3694372081143
 31
0.0
  0
LINE
  5
133D6
330
18
100
AcDbEntity
  8
11
  6
Continuous
100
AcDbLine
 10
483.4185051999472
 20
385.120075591787
 30
0.0
 11
484.7966299896786
 21
382.6179479238256
 31
0.0
  0
LINE
  5
133D7
330
18
100
AcDbEntity
  8
11
  6
Continuous
100
AcDbLine
 10
485.1273799896786
 20
382.1800755917871
 30
0.0
 11
484.6312549896786
 21
382.1800755917871
 31
0.0
  0
LINE
  5
133D8
330
18
100
AcDbEntity
  8
11
  6
Continuous
100
AcDbLine
 10
483.2531301999472
 20
382.1800755917871
 30
0.0
 11
482.9223801999472
 21
382.1800755917871
 31
0.0
  0
LINE
  5
133D9
330
18
100
AcDbEntity
  8
11
  6
Continuous
100
AcDbLine
 10
481.5993798845441
 20
382.1800755917871
 30
0.0
 11
481.1583799896786
 21
382.1800755917871
 31
0.0
  0
LINE
  5
133DA
330
18
100
AcDbEntity
  8
11
  6
Continuous
100
AcDbLine
 10
479.8353799896786
 20
382.1800755917871
 30
0.0
 11
479.5046299896786
 21
382.1800755917871
 31
0.0
  0
LINE
  5
133DB
330
18
100
AcDbEntity
  8
11
  6
Continuous
100
AcDbLine
 10
478.7328799371113
 20
382.1800755917871
 30
0.0
 11
478.291879963336
 21
382.1800755917871
 31
0.0
  0
LINE
  5
133DC
330
18
100
AcDbEntity
  8
11
  6
Continuous
100
AcDbLine
 10
477.5201299896786
 20
382.1800755917871
 30
0.0
 11
477.1893799896786
 21
382.1800755917871
 31
0.0
  0
LINE
  5
133DD
330
18
100
AcDbEntity
  8
11
  6
Continuous
100
AcDbLine
 10
481.5993798845441
 20
382.5553947397
 30
0.0
 11
481.1583799896786
 21
382.5553947397
 31
0.0
  0
LINE
  5
133DE
330
18
100
AcDbEntity
  8
11
  6
Continuous
100
AcDbLine
 10
481.1583799896786
 20
384.7447564875039
 30
0.0
 11
481.5993798845441
 21
384.7447564875039
 31
0.0
  0
LINE
  5
133DF
330
18
100
AcDbEntity
  8
11
  6
Continuous
100
AcDbLine
 10
485.1273799896786
 20
385.120075591787
 30
0.0
 11
484.7966299896786
 21
385.120075591787
 31
0.0
  0
LINE
  5
133E0
330
18
100
AcDbEntity
  8
11
  6
Continuous
100
AcDbLine
 10
483.4185051999472
 20
385.120075591787
 30
0.0
 11
482.9223801999472
 21
385.120075591787
 31
0.0
  0
LINE
  5
133E1
330
18
100
AcDbEntity
  8
11
  6
Continuous
100
AcDbLine
 10
481.5993798845441
 20
385.120075591787
 30
0.0
 11
481.1583799896786
 21
385.120075591787
 31
0.0
  0
LINE
  5
133E2
330
18
100
AcDbEntity
  8
11
  6
Continuous
100
AcDbLine
 10
479.8353799896786
 20
385.120075591787
 30
0.0
 11
479.3392549896786
 21
385.120075591787
 31
0.0
  0
LINE
  5
133E3
330
18
100
AcDbEntity
  8
11
  6
Continuous
100
AcDbLine
 10
477.6855049896786
 20
385.120075591787
 30
0.0
 11
477.1893799896786
 21
385.120075591787
 31
0.0
  0
LINE
  5
133E4
330
18
100
AcDbEntity
  8
11
  6
Continuous
100
AcDbLine
 10
481.1583799896786
 20
382.1800755917871
 30
0.0
 11
480.8827550948128
 21
382.2426287812048
 31
0.0
  0
LINE
  5
133E5
330
18
100
AcDbEntity
  8
11
  6
Continuous
100
AcDbLine
 10
481.1583799896786
 20
382.5553947397
 30
0.0
 11
480.9378798845441
 21
382.6179479238256
 31
0.0
  0
LINE
  5
133E6
330
18
100
AcDbEntity
  8
11
  6
Continuous
100
AcDbLine
 10
480.8827550948128
 20
382.2426287812048
 30
0.0
 11
480.6622549896784
 21
382.3677351658023
 31
0.0
  0
LINE
  5
133E7
330
18
100
AcDbEntity
  8
11
  6
Continuous
100
AcDbLine
 10
480.9378798845441
 20
382.6179479238256
 30
0.0
 11
480.7725048845441
 21
382.7430543357063
 31
0.0
  0
LINE
  5
133E8
330
18
100
AcDbEntity
  8
11
  6
Continuous
100
AcDbLine
 10
481.8198799896785
 20
384.682203303496
 30
0.0
 11
481.9852549896786
 21
384.5570969354799
 31
0.0
  0
LINE
  5
133E9
330
18
100
AcDbEntity
  8
11
  6
Continuous
100
AcDbLine
 10
482.0955048845442
 20
384.9324160396456
 30
0.0
 11
482.3160049896785
 21
384.682203303496
 31
0.0
  0
LINE
  5
133EA
330
18
100
AcDbEntity
  8
11
  6
Continuous
100
AcDbLine
 10
481.8750050948128
 20
385.0575224076615
 30
0.0
 11
481.5993798845441
 21
385.120075591787
 31
0.0
  0
LINE
  5
133EB
330
18
100
AcDbEntity
  8
11
  6
Continuous
100
AcDbLine
 10
481.5993798845441
 20
384.7447564875039
 30
0.0
 11
481.8198799896785
 21
384.682203303496
 31
0.0
  0
LINE
  5
133EC
330
18
100
AcDbEntity
  8
11
  6
Continuous
100
AcDbLine
 10
482.0955048845442
 20
384.9324160396456
 30
0.0
 11
481.8750050948128
 21
385.0575224076615
 31
0.0
  0
LINE
  5
133ED
330
18
100
AcDbEntity
  8
11
  6
Continuous
100
AcDbLine
 10
481.1735127172242
 20
374.9334083193327
 30
0.0
 11
478.7265375643698
 21
372.4864331664783
 31
0.0
  0
LINE
  5
133EE
330
18
100
AcDbEntity
  8
11
  6
Continuous
100
AcDbLine
 10
478.7265375643698
 20
371.6548755917871
 30
0.0
 11
481.1289799896786
 21
374.057318017096
 31
0.0
  0
LINE
  5
133EF
330
18
100
AcDbEntity
  8
11
  6
Continuous
100
AcDbLine
 10
478.7265375643698
 20
372.4864331664783
 30
0.0
 11
478.7265375643698
 21
371.6548755917871
 31
0.0
  0
LINE
  5
133F0
330
18
100
AcDbEntity
  8
11
  6
Continuous
100
AcDbLine
 10
481.1289799896786
 20
374.057318017096
 30
0.0
 11
481.1289799896786
 21
368.1268755917871
 31
0.0
  0
LINE
  5
133F1
330
18
100
AcDbEntity
  8
11
  6
Continuous
100
AcDbLine
 10
481.7169799896785
 20
368.1268755917871
 30
0.0
 11
481.7169799896785
 21
374.057318017096
 31
0.0
  0
LINE
  5
133F2
330
18
100
AcDbEntity
  8
11
  6
Continuous
100
AcDbLine
 10
484.1194224149873
 20
371.6548755917871
 30
0.0
 11
484.1194224149873
 21
372.4864331664783
 31
0.0
  0
LINE
  5
133F3
330
18
100
AcDbEntity
  8
11
  6
Continuous
100
AcDbLine
 10
481.1289799896786
 20
368.1268755917871
 30
0.0
 11
481.7169799896785
 21
368.1268755917871
 31
0.0
  0
LINE
  5
133F4
330
18
100
AcDbEntity
  8
11
  6
Continuous
100
AcDbLine
 10
481.7169799896785
 20
374.057318017096
 30
0.0
 11
484.1194224149873
 21
371.6548755917871
 31
0.0
  0
LINE
  5
133F5
330
18
100
AcDbEntity
  8
11
  6
Continuous
100
AcDbLine
 10
481.6724472620154
 20
374.9334083193327
 30
0.0
 11
484.1194224149873
 21
372.4864331664783
 31
0.0
  0
ARC
  5
133F6
330
18
100
AcDbEntity
  8
11
  6
Continuous
100
AcDbCircle
 10
481.4229799896786
 20
374.6839410469959
 30
0.0
 40
0.3528
100
AcDbArc
 50
44.99999999999978
 51
135.0000000000002
  0
LINE
  5
133F7
330
18
100
AcDbEntity
  8
11
  6
Continuous
100
AcDbLine
 10
484.1194224149873
 20
360.6592755917872
 30
0.0
 11
481.7169799896785
 21
358.2568331664783
 31
0.0
  0
LINE
  5
133F8
330
18
100
AcDbEntity
  8
11
  6
Continuous
100
AcDbLine
 10
481.6724472620154
 20
357.3807428641238
 30
0.0
 11
484.1194224149873
 21
359.827718017096
 31
0.0
  0
LINE
  5
133F9
330
18
100
AcDbEntity
  8
11
  6
Continuous
100
AcDbLine
 10
478.7265375643698
 20
360.6592755917872
 30
0.0
 11
478.7265375643698
 21
359.827718017096
 31
0.0
  0
LINE
  5
133FA
330
18
100
AcDbEntity
  8
11
  6
Continuous
100
AcDbLine
 10
481.1289799896786
 20
364.1872755917871
 30
0.0
 11
481.1289799896786
 21
358.2568331664783
 31
0.0
  0
LINE
  5
133FB
330
18
100
AcDbEntity
  8
11
  6
Continuous
100
AcDbLine
 10
481.7169799896785
 20
358.2568331664783
 30
0.0
 11
481.7169799896785
 21
364.1872755917871
 31
0.0
  0
LINE
  5
133FC
330
18
100
AcDbEntity
  8
11
  6
Continuous
100
AcDbLine
 10
484.1194224149873
 20
359.827718017096
 30
0.0
 11
484.1194224149873
 21
360.6592755917872
 31
0.0
  0
LINE
  5
133FD
330
18
100
AcDbEntity
  8
11
  6
Continuous
100
AcDbLine
 10
481.7169799896785
 20
364.1872755917871
 30
0.0
 11
481.1289799896786
 21
364.1872755917871
 31
0.0
  0
LINE
  5
133FE
330
18
100
AcDbEntity
  8
11
  6
Continuous
100
AcDbLine
 10
478.7265375643698
 20
359.827718017096
 30
0.0
 11
481.1735127172242
 21
357.3807428641238
 31
0.0
  0
LINE
  5
133FF
330
18
100
AcDbEntity
  8
11
  6
Continuous
100
AcDbLine
 10
481.1289799896786
 20
358.2568331664783
 30
0.0
 11
478.7265375643698
 21
360.6592755917872
 31
0.0
  0
ARC
  5
13400
330
18
100
AcDbEntity
  8
11
  6
Continuous
100
AcDbCircle
 10
481.4229799896786
 20
357.6302101365783
 30
0.0
 40
0.3528
100
AcDbArc
 50
224.9999999999998
 51
315.0000000000001
  0
LINE
  5
13401
330
18
100
AcDbEntity
  8
11
  6
Continuous
100
AcDbLine
 10
474.8006299388753
 20
348.4457649199408
 30
0.0
 11
474.6407674388755
 21
348.3832117358152
 31
0.0
  0
LINE
  5
13402
330
18
100
AcDbEntity
  8
11
  6
Continuous
100
AcDbLine
 10
476.399255091285
 20
348.6334244719648
 30
0.0
 11
476.239392591285
 21
348.5708712879567
 31
0.0
  0
LINE
  5
13403
330
18
100
AcDbEntity
  8
11
  6
Continuous
100
AcDbLine
 10
475.0670674896785
 20
348.2581053677991
 30
0.0
 11
474.8539175404817
 21
348.0704458156576
 31
0.0
  0
LINE
  5
13404
330
18
100
AcDbEntity
  8
11
  6
Continuous
100
AcDbLine
 10
476.239392591285
 20
348.5708712879567
 30
0.0
 11
476.079530091285
 21
348.4457649199408
 31
0.0
  0
LINE
  5
13405
330
18
100
AcDbEntity
  8
11
  6
Continuous
100
AcDbLine
 10
476.3459674896786
 20
348.320658551807
 30
0.0
 11
476.1328173880722
 21
348.1955521837912
 31
0.0
  0
LINE
  5
13406
330
18
100
AcDbEntity
  8
11
  6
Continuous
100
AcDbLine
 10
475.2269299896786
 20
348.5083181039486
 30
0.0
 11
475.0670674896785
 21
348.2581053677991
 31
0.0
  0
LINE
  5
13407
330
18
100
AcDbEntity
  8
11
  6
Continuous
100
AcDbLine
 10
476.1328173880722
 20
348.1955521837912
 30
0.0
 11
475.9729548880722
 21
347.9453394476416
 31
0.0
  0
LINE
  5
13408
330
18
100
AcDbEntity
  8
11
  6
Continuous
100
AcDbLine
 10
474.9072049896786
 20
348.5708712879567
 30
0.0
 11
474.8006299388753
 21
348.4457649199408
 31
0.0
  0
LINE
  5
13409
330
18
100
AcDbEntity
  8
11
  6
Continuous
100
AcDbLine
 10
476.079530091285
 20
348.4457649199408
 30
0.0
 11
475.9729548880722
 21
348.320658551807
 31
0.0
  0
LINE
  5
1340A
330
18
100
AcDbEntity
  8
11
  6
Continuous
100
AcDbLine
 10
473.3085799896787
 20
349.6342755917871
 30
0.0
 11
473.3085799896787
 21
346.6942755917871
 31
0.0
  0
LINE
  5
1340B
330
18
100
AcDbEntity
  8
11
  6
Continuous
100
AcDbLine
 10
474.9604924388753
 20
348.7585308400983
 30
0.0
 11
474.9072049896786
 21
348.5708712879567
 31
0.0
  0
LINE
  5
1340C
330
18
100
AcDbEntity
  8
11
  6
Continuous
100
AcDbLine
 10
475.2802174388754
 20
348.6959776559728
 30
0.0
 11
475.2269299896786
 21
348.5083181039486
 31
0.0
  0
LINE
  5
1340D
330
18
100
AcDbEntity
  8
11
  6
Continuous
100
AcDbLine
 10
474.8539175404817
 20
348.0704458156576
 30
0.0
 11
474.5874799896784
 21
348.0078926316494
 31
0.0
  0
LINE
  5
1340E
330
18
100
AcDbEntity
  8
11
  6
Continuous
100
AcDbLine
 10
476.6656924896786
 20
348.6959776559728
 30
0.0
 11
476.399255091285
 21
348.6334244719648
 31
0.0
  0
LINE
  5
1340F
330
18
100
AcDbEntity
  8
11
  6
Continuous
100
AcDbLine
 10
476.6656924896786
 20
348.3832117358152
 30
0.0
 11
476.3459674896786
 21
348.320658551807
 31
0.0
  0
LINE
  5
13410
330
18
100
AcDbEntity
  8
11
  6
Continuous
100
AcDbLine
 10
475.9729548880722
 20
346.6942755917871
 30
0.0
 11
475.7065174896786
 21
346.6942755917871
 31
0.0
  0
LINE
  5
13411
330
18
100
AcDbEntity
  8
11
  6
Continuous
100
AcDbLine
 10
473.6283049896786
 20
346.6942755917871
 30
0.0
 11
473.3085799896787
 21
346.6942755917871
 31
0.0
  0
LINE
  5
13412
330
18
100
AcDbEntity
  8
11
  6
Continuous
100
AcDbLine
 10
474.5874799896784
 20
348.0078926316494
 30
0.0
 11
473.6283049896786
 21
348.0078926316494
 31
0.0
  0
LINE
  5
13413
330
18
100
AcDbEntity
  8
11
  6
Continuous
100
AcDbLine
 10
473.6283049896786
 20
349.3215096716296
 30
0.0
 11
473.6283049896786
 21
348.3832117358152
 31
0.0
  0
LINE
  5
13414
330
18
100
AcDbEntity
  8
11
  6
Continuous
100
AcDbLine
 10
473.6283049896786
 20
348.0078926316494
 30
0.0
 11
473.6283049896786
 21
346.6942755917871
 31
0.0
  0
LINE
  5
13415
330
18
100
AcDbEntity
  8
11
  6
Continuous
100
AcDbLine
 10
474.9604924388753
 20
348.9461905673463
 30
0.0
 11
474.9604924388753
 21
348.7585308400983
 31
0.0
  0
LINE
  5
13416
330
18
100
AcDbEntity
  8
11
  6
Continuous
100
AcDbLine
 10
475.2802174388754
 20
348.9461905673463
 30
0.0
 11
475.2802174388754
 21
348.6959776559728
 31
0.0
  0
LINE
  5
13417
330
18
100
AcDbEntity
  8
11
  6
Continuous
100
AcDbLine
 10
475.7065174896786
 20
348.6959776559728
 30
0.0
 11
475.7065174896786
 21
346.6942755917871
 31
0.0
  0
LINE
  5
13418
330
18
100
AcDbEntity
  8
11
  6
Continuous
100
AcDbLine
 10
475.9729548880722
 20
348.6959776559728
 30
0.0
 11
475.9729548880722
 21
348.320658551807
 31
0.0
  0
LINE
  5
13419
330
18
100
AcDbEntity
  8
11
  6
Continuous
100
AcDbLine
 10
475.9729548880722
 20
347.9453394476416
 30
0.0
 11
475.9729548880722
 21
346.6942755917871
 31
0.0
  0
LINE
  5
1341A
330
18
100
AcDbEntity
  8
11
  6
Continuous
100
AcDbLine
 10
476.6656924896786
 20
348.6959776559728
 30
0.0
 11
476.6656924896786
 21
348.3832117358152
 31
0.0
  0
LINE
  5
1341B
330
18
100
AcDbEntity
  8
11
  6
Continuous
100
AcDbLine
 10
474.6407674388755
 20
348.3832117358152
 30
0.0
 11
473.6283049896786
 21
348.3832117358152
 31
0.0
  0
LINE
  5
1341C
330
18
100
AcDbEntity
  8
11
  6
Continuous
100
AcDbLine
 10
475.9729548880722
 20
348.6959776559728
 30
0.0
 11
475.7065174896786
 21
348.6959776559728
 31
0.0
  0
LINE
  5
1341D
330
18
100
AcDbEntity
  8
11
  6
Continuous
100
AcDbLine
 10
474.6407674388755
 20
349.3215096716296
 30
0.0
 11
473.6283049896786
 21
349.3215096716296
 31
0.0
  0
LINE
  5
1341E
330
18
100
AcDbEntity
  8
11
  6
Continuous
100
AcDbLine
 10
474.5874799896784
 20
349.6342755917871
 30
0.0
 11
473.3085799896787
 21
349.6342755917871
 31
0.0
  0
LINE
  5
1341F
330
18
100
AcDbEntity
  8
11
  6
Continuous
100
AcDbLine
 10
474.8539175404817
 20
349.5717224076615
 30
0.0
 11
474.5874799896784
 21
349.6342755917871
 31
0.0
  0
LINE
  5
13420
330
18
100
AcDbEntity
  8
11
  6
Continuous
100
AcDbLine
 10
474.8006299388753
 20
349.2589564875039
 30
0.0
 11
474.6407674388755
 21
349.3215096716296
 31
0.0
  0
LINE
  5
13421
330
18
100
AcDbEntity
  8
11
  6
Continuous
100
AcDbLine
 10
474.9072049896786
 20
349.1338501194878
 30
0.0
 11
474.9604924388753
 21
348.9461905673463
 31
0.0
  0
LINE
  5
13422
330
18
100
AcDbEntity
  8
11
  6
Continuous
100
AcDbLine
 10
475.2269299896786
 20
349.1338501194878
 30
0.0
 11
475.2802174388754
 21
348.9461905673463
 31
0.0
  0
LINE
  5
13423
330
18
100
AcDbEntity
  8
11
  6
Continuous
100
AcDbLine
 10
475.0670674896785
 20
349.3840628556375
 30
0.0
 11
474.8539175404817
 21
349.5717224076615
 31
0.0
  0
LINE
  5
13424
330
18
100
AcDbEntity
  8
11
  6
Continuous
100
AcDbLine
 10
474.8006299388753
 20
349.2589564875039
 30
0.0
 11
474.9072049896786
 21
349.1338501194878
 31
0.0
  0
LINE
  5
13425
330
18
100
AcDbEntity
  8
11
  6
Continuous
100
AcDbLine
 10
475.0670674896785
 20
349.3840628556375
 30
0.0
 11
475.2269299896786
 21
349.1338501194878
 31
0.0
  0
LINE
  5
13426
330
18
100
AcDbEntity
  8
11
  6
Continuous
100
AcDbLine
 10
485.4880200095038
 20
351.1630755917871
 30
0.0
 11
485.3214199896786
 21
351.1099053852802
 31
0.0
  0
LINE
  5
13427
330
18
100
AcDbEntity
  8
11
  6
Continuous
100
AcDbLine
 10
485.3214199896786
 20
351.1099053852802
 30
0.0
 11
485.1548199996413
 21
351.0035649724668
 31
0.0
  0
LINE
  5
13428
330
18
100
AcDbEntity
  8
11
  6
Continuous
100
AcDbLine
 10
485.3630700095038
 20
350.7908841467396
 30
0.0
 11
485.4880200095038
 21
350.8440543531463
 31
0.0
  0
LINE
  5
13429
330
18
100
AcDbEntity
  8
11
  6
Continuous
100
AcDbLine
 10
487.3331148705261
 20
347.664475591787
 30
0.0
 11
487.2081649896784
 21
347.6113053852803
 31
0.0
  0
LINE
  5
1342A
330
18
100
AcDbEntity
  8
11
  6
Continuous
100
AcDbLine
 10
487.5205398705261
 20
345.1654755917871
 30
0.0
 11
487.6767274896785
 21
345.2186458027922
 31
0.0
  0
LINE
  5
1342B
330
18
100
AcDbEntity
  8
11
  6
Continuous
100
AcDbLine
 10
485.9045200294294
 20
349.0362670740197
 30
0.0
 11
485.7379200095038
 21
348.9830968675128
 31
0.0
  0
LINE
  5
1342C
330
18
100
AcDbEntity
  8
11
  6
Continuous
100
AcDbLine
 10
485.2381199797158
 20
350.6845437339261
 30
0.0
 11
485.3630700095038
 21
350.7908841467396
 31
0.0
  0
LINE
  5
1342D
330
18
100
AcDbEntity
  8
11
  6
Continuous
100
AcDbLine
 10
485.9461699896786
 20
348.7172458027921
 30
0.0
 11
486.1127699499278
 21
348.8235862297
 31
0.0
  0
LINE
  5
1342E
330
18
100
AcDbEntity
  8
11
  6
Continuous
100
AcDbLine
 10
484.8965899598905
 20
346.6542415207176
 30
0.0
 11
484.8028774598905
 21
346.6010713142109
 31
0.0
  0
LINE
  5
1342F
330
18
100
AcDbEntity
  8
11
  6
Continuous
100
AcDbLine
 10
487.2394023705262
 20
347.2922841467396
 30
0.0
 11
487.3331148705261
 21
347.3454543531463
 31
0.0
  0
LINE
  5
13430
330
18
100
AcDbEntity
  8
11
  6
Continuous
100
AcDbLine
 10
487.6454901088308
 20
345.5376670740198
 30
0.0
 11
487.5205398705261
 21
345.4844968675129
 31
0.0
  0
LINE
  5
13431
330
18
100
AcDbEntity
  8
11
  6
Continuous
100
AcDbLine
 10
485.7379200095038
 20
348.664075591787
 30
0.0
 11
485.9461699896786
 21
348.7172458027921
 31
0.0
  0
LINE
  5
13432
330
18
100
AcDbEntity
  8
11
  6
Continuous
100
AcDbLine
 10
485.1548199996413
 20
351.0035649724668
 30
0.0
 11
484.98821999461
 21
350.7908841467396
 31
0.0
  0
LINE
  5
13433
330
18
100
AcDbEntity
  8
11
  6
Continuous
100
AcDbLine
 10
486.0294700294293
 20
349.1426075241184
 30
0.0
 11
485.9045200294294
 21
349.0362670740197
 31
0.0
  0
LINE
  5
13434
330
18
100
AcDbEntity
  8
11
  6
Continuous
100
AcDbLine
 10
484.9278275194667
 20
346.3883904885836
 30
0.0
 11
485.0527774896786
 21
346.4947309013974
 31
0.0
  0
LINE
  5
13435
330
18
100
AcDbEntity
  8
11
  6
Continuous
100
AcDbLine
 10
487.2081649896784
 20
347.6113053852803
 30
0.0
 11
487.0832151088309
 21
347.5049649724666
 31
0.0
  0
LINE
  5
13436
330
18
100
AcDbEntity
  8
11
  6
Continuous
100
AcDbLine
 10
487.6767274896785
 20
345.2186458027922
 30
0.0
 11
487.8016773705262
 21
345.3249862297
 31
0.0
  0
LINE
  5
13437
330
18
100
AcDbEntity
  8
11
  6
Continuous
100
AcDbLine
 10
490.3006774896785
 20
345.1654755917871
 30
0.0
 11
490.1132524896786
 21
345.1654755917871
 31
0.0
  0
LINE
  5
13438
330
18
100
AcDbEntity
  8
11
  6
Continuous
100
AcDbLine
 10
489.3635524896786
 20
345.1654755917871
 30
0.0
 11
488.2390024896785
 21
345.1654755917871
 31
0.0
  0
LINE
  5
13439
330
18
100
AcDbEntity
  8
11
  6
Continuous
100
AcDbLine
 10
486.5834150492548
 20
345.1654755917871
 30
0.0
 11
485.4588649598905
 21
345.1654755917871
 31
0.0
  0
LINE
  5
1343A
330
18
100
AcDbEntity
  8
11
  6
Continuous
100
AcDbLine
 10
484.0219399896786
 20
345.1654755917871
 30
0.0
 11
484.2093649896786
 21
345.1654755917871
 31
0.0
  0
LINE
  5
1343B
330
18
100
AcDbEntity
  8
11
  6
Continuous
100
AcDbLine
 10
484.9903024598905
 20
345.1654755917871
 30
0.0
 11
485.2089650194667
 21
345.1654755917871
 31
0.0
  0
LINE
  5
1343C
330
18
100
AcDbEntity
  8
11
  6
Continuous
100
AcDbLine
 10
487.2706401088309
 20
345.1654755917871
 30
0.0
 11
487.5205398705261
 21
345.1654755917871
 31
0.0
  0
LINE
  5
1343D
330
18
100
AcDbEntity
  8
11
  6
Continuous
100
AcDbLine
 10
489.3635524896786
 20
345.4844968675129
 30
0.0
 11
488.4264274896786
 21
345.4844968675129
 31
0.0
  0
LINE
  5
1343E
330
18
100
AcDbEntity
  8
11
  6
Continuous
100
AcDbLine
 10
487.5205398705261
 20
345.4844968675129
 30
0.0
 11
487.2706401088309
 21
345.4844968675129
 31
0.0
  0
LINE
  5
1343F
330
18
100
AcDbEntity
  8
11
  6
Continuous
100
AcDbLine
 10
486.5834150492548
 20
345.4844968675129
 30
0.0
 11
485.6462900492546
 21
345.4844968675129
 31
0.0
  0
LINE
  5
13440
330
18
100
AcDbEntity
  8
11
  6
Continuous
100
AcDbLine
 10
487.0207399896784
 20
345.8566883497456
 30
0.0
 11
486.8333149896786
 21
345.8566883497456
 31
0.0
  0
LINE
  5
13441
330
18
100
AcDbEntity
  8
11
  6
Continuous
100
AcDbLine
 10
484.2093649896786
 20
346.2820500756701
 30
0.0
 11
484.7404024747844
 21
346.2820500756701
 31
0.0
  0
LINE
  5
13442
330
18
100
AcDbEntity
  8
11
  6
Continuous
100
AcDbLine
 10
487.3331148705261
 20
346.2820500756701
 30
0.0
 11
487.5205398705261
 21
346.2820500756701
 31
0.0
  0
LINE
  5
13443
330
18
100
AcDbEntity
  8
11
  6
Continuous
100
AcDbLine
 10
489.2386026088309
 20
346.335220282077
 30
0.0
 11
488.4264274896786
 21
346.335220282077
 31
0.0
  0
LINE
  5
13444
330
18
100
AcDbEntity
  8
11
  6
Continuous
100
AcDbLine
 10
486.4584649896785
 20
346.335220282077
 30
0.0
 11
485.6462900492546
 21
346.335220282077
 31
0.0
  0
LINE
  5
13445
330
18
100
AcDbEntity
  8
11
  6
Continuous
100
AcDbLine
 10
487.5205398705261
 20
346.6010713142109
 30
0.0
 11
487.3331148705261
 21
346.6010713142109
 31
0.0
  0
LINE
  5
13446
330
18
100
AcDbEntity
  8
11
  6
Continuous
100
AcDbLine
 10
484.8028774598905
 20
346.6010713142109
 30
0.0
 11
484.2093649896786
 21
346.6010713142109
 31
0.0
  0
LINE
  5
13447
330
18
100
AcDbEntity
  8
11
  6
Continuous
100
AcDbLine
 10
489.2386026088309
 20
346.6542415207176
 30
0.0
 11
488.4264274896786
 21
346.6542415207176
 31
0.0
  0
LINE
  5
13448
330
18
100
AcDbEntity
  8
11
  6
Continuous
100
AcDbLine
 10
486.4584649896785
 20
346.6542415207176
 30
0.0
 11
485.6462900492546
 21
346.6542415207176
 31
0.0
  0
LINE
  5
13449
330
18
100
AcDbEntity
  8
11
  6
Continuous
100
AcDbLine
 10
487.7079648705263
 20
347.0796033210123
 30
0.0
 11
487.8953898705261
 21
347.0796033210123
 31
0.0
  0
LINE
  5
1344A
330
18
100
AcDbEntity
  8
11
  6
Continuous
100
AcDbLine
 10
489.3635524896786
 20
347.3454543531463
 30
0.0
 11
488.4264274896786
 21
347.3454543531463
 31
0.0
  0
LINE
  5
1344B
330
18
100
AcDbEntity
  8
11
  6
Continuous
100
AcDbLine
 10
486.5834150492548
 20
347.3454543531463
 30
0.0
 11
485.6462900492546
 21
347.3454543531463
 31
0.0
  0
LINE
  5
1344C
330
18
100
AcDbEntity
  8
11
  6
Continuous
100
AcDbLine
 10
487.3331148705261
 20
347.3454543531463
 30
0.0
 11
487.5205398705261
 21
347.3454543531463
 31
0.0
  0
LINE
  5
1344D
330
18
100
AcDbEntity
  8
11
  6
Continuous
100
AcDbLine
 10
490.8004777279831
 20
347.3986245596531
 30
0.0
 11
490.3006774896785
 21
347.3986245596531
 31
0.0
  0
LINE
  5
1344E
330
18
100
AcDbEntity
  8
11
  6
Continuous
100
AcDbLine
 10
490.1132524896786
 20
347.3986245596531
 30
0.0
 11
489.6134526088308
 21
347.3986245596531
 31
0.0
  0
LINE
  5
1344F
330
18
100
AcDbEntity
  8
11
  6
Continuous
100
AcDbLine
 10
484.8028774598905
 20
347.3986245596531
 30
0.0
 11
484.2093649896786
 21
347.3986245596531
 31
0.0
  0
LINE
  5
13450
330
18
100
AcDbEntity
  8
11
  6
Continuous
100
AcDbLine
 10
490.8004777279831
 20
347.664475591787
 30
0.0
 11
489.6134526088308
 21
347.664475591787
 31
0.0
  0
LINE
  5
13451
330
18
100
AcDbEntity
  8
11
  6
Continuous
100
AcDbLine
 10
489.3635524896786
 20
347.664475591787
 30
0.0
 11
488.2390024896785
 21
347.664475591787
 31
0.0
  0
LINE
  5
13452
330
18
100
AcDbEntity
  8
11
  6
Continuous
100
AcDbLine
 10
487.4893024896785
 20
347.664475591787
 30
0.0
 11
487.3331148705261
 21
347.664475591787
 31
0.0
  0
LINE
  5
13453
330
18
100
AcDbEntity
  8
11
  6
Continuous
100
AcDbLine
 10
486.5834150492548
 20
347.664475591787
 30
0.0
 11
485.4588649598905
 21
347.664475591787
 31
0.0
  0
LINE
  5
13454
330
18
100
AcDbEntity
  8
11
  6
Continuous
100
AcDbLine
 10
484.7716399896786
 20
347.664475591787
 30
0.0
 11
484.0219399896786
 21
347.664475591787
 31
0.0
  0
LINE
  5
13455
330
18
100
AcDbEntity
  8
11
  6
Continuous
100
AcDbLine
 10
486.1127699499278
 20
349.3021181433388
 30
0.0
 11
486.0294700294293
 21
349.1426075241184
 31
0.0
  0
LINE
  5
13456
330
18
100
AcDbEntity
  8
11
  6
Continuous
100
AcDbLine
 10
484.9590649896787
 20
346.7605819335313
 30
0.0
 11
484.8965899598905
 21
346.6542415207176
 31
0.0
  0
LINE
  5
13457
330
18
100
AcDbEntity
  8
11
  6
Continuous
100
AcDbLine
 10
486.1127699499278
 20
348.8235862297
 30
0.0
 11
486.2793700294293
 21
349.0362670740197
 31
0.0
  0
LINE
  5
13458
330
18
100
AcDbEntity
  8
11
  6
Continuous
100
AcDbLine
 10
487.1456898705262
 20
347.1859437339261
 30
0.0
 11
487.2394023705262
 21
347.2922841467396
 31
0.0
  0
LINE
  5
13459
330
18
100
AcDbEntity
  8
11
  6
Continuous
100
AcDbLine
 10
487.7392026088307
 20
345.6440075241185
 30
0.0
 11
487.6454901088308
 21
345.5376670740198
 31
0.0
  0
LINE
  5
1345A
330
18
100
AcDbEntity
  8
11
  6
Continuous
100
AcDbLine
 10
483.4221799896786
 20
348.0393255917872
 30
0.0
 11
491.4189799896785
 21
348.0393255917872
 31
0.0
  0
LINE
  5
1345B
330
18
100
AcDbEntity
  8
11
  6
Continuous
100
AcDbLine
 10
491.4189799896785
 20
348.2892255917871
 30
0.0
 11
483.4221799896786
 21
348.2892255917871
 31
0.0
  0
LINE
  5
1345C
330
18
100
AcDbEntity
  8
11
  6
Continuous
100
AcDbLine
 10
489.4447699896786
 20
348.664075591787
 30
0.0
 11
489.1948699896786
 21
348.664075591787
 31
0.0
  0
LINE
  5
1345D
330
18
100
AcDbEntity
  8
11
  6
Continuous
100
AcDbLine
 10
488.1952699896785
 20
348.664075591787
 30
0.0
 11
486.6958699896787
 21
348.664075591787
 31
0.0
  0
LINE
  5
1345E
330
18
100
AcDbEntity
  8
11
  6
Continuous
100
AcDbLine
 10
485.4047199698531
 20
348.664075591787
 30
0.0
 11
485.7379200095038
 21
348.664075591787
 31
0.0
  0
LINE
  5
1345F
330
18
100
AcDbEntity
  8
11
  6
Continuous
100
AcDbLine
 10
488.1952699896785
 20
348.9830968675128
 30
0.0
 11
486.9457699896786
 21
348.9830968675128
 31
0.0
  0
LINE
  5
13460
330
18
100
AcDbEntity
  8
11
  6
Continuous
100
AcDbLine
 10
485.7379200095038
 20
348.9830968675128
 30
0.0
 11
485.4047199698531
 21
348.9830968675128
 31
0.0
  0
LINE
  5
13461
330
18
100
AcDbEntity
  8
11
  6
Continuous
100
AcDbLine
 10
485.0715199896787
 20
349.3552883497457
 30
0.0
 11
484.8216199896786
 21
349.3552883497457
 31
0.0
  0
LINE
  5
13462
330
18
100
AcDbEntity
  8
11
  6
Continuous
100
AcDbLine
 10
485.4880200095038
 20
349.7806500756701
 30
0.0
 11
485.7379200095038
 21
349.7806500756701
 31
0.0
  0
LINE
  5
13463
330
18
100
AcDbEntity
  8
11
  6
Continuous
100
AcDbLine
 10
488.0286699102771
 20
349.8338202820769
 30
0.0
 11
486.9457699896786
 21
349.8338202820769
 31
0.0
  0
LINE
  5
13464
330
18
100
AcDbEntity
  8
11
  6
Continuous
100
AcDbLine
 10
485.7379200095038
 20
350.099671314211
 30
0.0
 11
485.4880200095038
 21
350.099671314211
 31
0.0
  0
LINE
  5
13465
330
18
100
AcDbEntity
  8
11
  6
Continuous
100
AcDbLine
 10
488.0286699102771
 20
350.1528415207177
 30
0.0
 11
486.9457699896786
 21
350.1528415207177
 31
0.0
  0
LINE
  5
13466
330
18
100
AcDbEntity
  8
11
  6
Continuous
100
AcDbLine
 10
485.9878199499278
 20
350.5782033210123
 30
0.0
 11
486.2377199499278
 21
350.5782033210123
 31
0.0
  0
LINE
  5
13467
330
18
100
AcDbEntity
  8
11
  6
Continuous
100
AcDbLine
 10
488.1952699896785
 20
350.8440543531463
 30
0.0
 11
486.9457699896786
 21
350.8440543531463
 31
0.0
  0
LINE
  5
13468
330
18
100
AcDbEntity
  8
11
  6
Continuous
100
AcDbLine
 10
485.4880200095038
 20
350.8440543531463
 30
0.0
 11
485.7379200095038
 21
350.8440543531463
 31
0.0
  0
LINE
  5
13469
330
18
100
AcDbEntity
  8
11
  6
Continuous
100
AcDbLine
 10
490.1111698307754
 20
350.8972245596531
 30
0.0
 11
489.4447699896786
 21
350.8972245596531
 31
0.0
  0
LINE
  5
1346A
330
18
100
AcDbEntity
  8
11
  6
Continuous
100
AcDbLine
 10
489.1948699896786
 20
350.8972245596531
 30
0.0
 11
488.5284699102768
 21
350.8972245596531
 31
0.0
  0
LINE
  5
1346B
330
18
100
AcDbEntity
  8
11
  6
Continuous
100
AcDbLine
 10
490.1111698307754
 20
351.1630755917871
 30
0.0
 11
488.5284699102768
 21
351.1630755917871
 31
0.0
  0
LINE
  5
1346C
330
18
100
AcDbEntity
  8
11
  6
Continuous
100
AcDbLine
 10
488.1952699896785
 20
351.1630755917871
 30
0.0
 11
486.6958699896787
 21
351.1630755917871
 31
0.0
  0
LINE
  5
1346D
330
18
100
AcDbEntity
  8
11
  6
Continuous
100
AcDbLine
 10
485.6962699896786
 20
351.1630755917871
 30
0.0
 11
485.4880200095038
 21
351.1630755917871
 31
0.0
  0
LINE
  5
1346E
330
18
100
AcDbEntity
  8
11
  6
Continuous
100
AcDbLine
 10
487.1144524896786
 20
345.2186458027922
 30
0.0
 11
487.2706401088309
 21
345.1654755917871
 31
0.0
  0
LINE
  5
1346F
330
18
100
AcDbEntity
  8
11
  6
Continuous
100
AcDbLine
 10
483.4221799896786
 20
348.2892255917871
 30
0.0
 11
483.4221799896786
 21
348.0393255917872
 31
0.0
  0
LINE
  5
13470
330
18
100
AcDbEntity
  8
11
  6
Continuous
100
AcDbLine
 10
484.98821999461
 20
350.7908841467396
 30
0.0
 11
484.9465699896787
 21
350.5782033210123
 31
0.0
  0
LINE
  5
13471
330
18
100
AcDbEntity
  8
11
  6
Continuous
100
AcDbLine
 10
484.9903024598905
 20
346.9200925528517
 30
0.0
 11
484.9590649896787
 21
346.7605819335313
 31
0.0
  0
LINE
  5
13472
330
18
100
AcDbEntity
  8
11
  6
Continuous
100
AcDbLine
 10
485.1464899896785
 20
346.7074117271245
 30
0.0
 11
485.1777274598903
 21
346.8669223463448
 31
0.0
  0
LINE
  5
13473
330
18
100
AcDbEntity
  8
11
  6
Continuous
100
AcDbLine
 10
485.1964699896785
 20
350.5250329656652
 30
0.0
 11
485.2381199797158
 21
350.6845437339261
 31
0.0
  0
LINE
  5
13474
330
18
100
AcDbEntity
  8
11
  6
Continuous
100
AcDbLine
 10
486.2793700294293
 20
349.0362670740197
 30
0.0
 11
486.3626699499278
 21
349.2489479369321
 31
0.0
  0
LINE
  5
13475
330
18
100
AcDbEntity
  8
11
  6
Continuous
100
AcDbLine
 10
487.8016773705262
 20
345.8035181433387
 30
0.0
 11
487.7392026088307
 21
345.6440075241185
 31
0.0
  0
LINE
  5
13476
330
18
100
AcDbEntity
  8
11
  6
Continuous
100
AcDbLine
 10
485.0527774896786
 20
346.4947309013974
 30
0.0
 11
485.1464899896785
 21
346.7074117271245
 31
0.0
  0
LINE
  5
13477
330
18
100
AcDbEntity
  8
11
  6
Continuous
100
AcDbLine
 10
487.0832151088309
 20
347.5049649724666
 30
0.0
 11
486.9582650492547
 21
347.2922841467396
 31
0.0
  0
LINE
  5
13478
330
18
100
AcDbEntity
  8
11
  6
Continuous
100
AcDbLine
 10
487.8016773705262
 20
345.3249862297
 30
0.0
 11
487.9266276088308
 21
345.5376670740198
 31
0.0
  0
LINE
  5
13479
330
18
100
AcDbEntity
  8
11
  6
Continuous
100
AcDbLine
 10
485.1964699896785
 20
348.7172458027921
 30
0.0
 11
485.4047199698531
 21
348.664075591787
 31
0.0
  0
LINE
  5
1347A
330
18
100
AcDbEntity
  8
11
  6
Continuous
100
AcDbLine
 10
485.9461699896786
 20
350.0465011078042
 30
0.0
 11
485.7379200095038
 21
350.099671314211
 31
0.0
  0
LINE
  5
1347B
330
18
100
AcDbEntity
  8
11
  6
Continuous
100
AcDbLine
 10
485.9045200294294
 20
351.1099053852802
 30
0.0
 11
485.6962699896786
 21
351.1630755917871
 31
0.0
  0
LINE
  5
1347C
330
18
100
AcDbEntity
  8
11
  6
Continuous
100
AcDbLine
 10
485.4047199698531
 20
348.9830968675128
 30
0.0
 11
485.2381199797158
 21
349.0362670740197
 31
0.0
  0
LINE
  5
1347D
330
18
100
AcDbEntity
  8
11
  6
Continuous
100
AcDbLine
 10
485.3214199896786
 20
349.8338202820769
 30
0.0
 11
485.4880200095038
 21
349.7806500756701
 31
0.0
  0
LINE
  5
1347E
330
18
100
AcDbEntity
  8
11
  6
Continuous
100
AcDbLine
 10
485.7379200095038
 20
349.7806500756701
 30
0.0
 11
485.9045200294294
 21
349.7274798692635
 31
0.0
  0
LINE
  5
1347F
330
18
100
AcDbEntity
  8
11
  6
Continuous
100
AcDbLine
 10
487.6767274896785
 20
346.547901107804
 30
0.0
 11
487.5205398705261
 21
346.6010713142109
 31
0.0
  0
LINE
  5
13480
330
18
100
AcDbEntity
  8
11
  6
Continuous
100
AcDbLine
 10
484.9278275194667
 20
347.6113053852803
 30
0.0
 11
484.7716399896786
 21
347.664475591787
 31
0.0
  0
LINE
  5
13481
330
18
100
AcDbEntity
  8
11
  6
Continuous
100
AcDbLine
 10
487.6454901088308
 20
347.6113053852803
 30
0.0
 11
487.4893024896785
 21
347.664475591787
 31
0.0
  0
LINE
  5
13482
330
18
100
AcDbEntity
  8
11
  6
Continuous
100
AcDbLine
 10
487.2706401088309
 20
345.4844968675129
 30
0.0
 11
487.1456898705262
 21
345.5376670740198
 31
0.0
  0
LINE
  5
13483
330
18
100
AcDbEntity
  8
11
  6
Continuous
100
AcDbLine
 10
487.2081649896784
 20
346.335220282077
 30
0.0
 11
487.3331148705261
 21
346.2820500756701
 31
0.0
  0
LINE
  5
13484
330
18
100
AcDbEntity
  8
11
  6
Continuous
100
AcDbLine
 10
487.5205398705261
 20
346.2820500756701
 30
0.0
 11
487.6454901088308
 21
346.2288798692635
 31
0.0
  0
LINE
  5
13485
330
18
100
AcDbEntity
  8
11
  6
Continuous
100
AcDbLine
 10
485.4880200095038
 20
350.099671314211
 30
0.0
 11
485.3630700095038
 21
350.1528415207177
 31
0.0
  0
LINE
  5
13486
330
18
100
AcDbEntity
  8
11
  6
Continuous
100
AcDbLine
 10
484.8965899598905
 20
347.3454543531463
 30
0.0
 11
484.8028774598905
 21
347.3986245596531
 31
0.0
  0
LINE
  5
13487
330
18
100
AcDbEntity
  8
11
  6
Continuous
100
AcDbLine
 10
487.3331148705261
 20
346.6010713142109
 30
0.0
 11
487.2394023705262
 21
346.6542415207176
 31
0.0
  0
LINE
  5
13488
330
18
100
AcDbEntity
  8
11
  6
Continuous
100
AcDbLine
 10
484.0219399896786
 20
347.664475591787
 30
0.0
 11
484.0219399896786
 21
345.1654755917871
 31
0.0
  0
LINE
  5
13489
330
18
100
AcDbEntity
  8
11
  6
Continuous
100
AcDbLine
 10
484.2093649896786
 20
347.3986245596531
 30
0.0
 11
484.2093649896786
 21
346.6010713142109
 31
0.0
  0
LINE
  5
1348A
330
18
100
AcDbEntity
  8
11
  6
Continuous
100
AcDbLine
 10
484.2093649896786
 20
345.1654755917871
 30
0.0
 11
484.2093649896786
 21
346.2820500756701
 31
0.0
  0
LINE
  5
1348B
330
18
100
AcDbEntity
  8
11
  6
Continuous
100
AcDbLine
 10
484.9465699896787
 20
350.5782033210123
 30
0.0
 11
484.9465699896787
 21
350.3655223463449
 31
0.0
  0
LINE
  5
1348C
330
18
100
AcDbEntity
  8
11
  6
Continuous
100
AcDbLine
 10
484.9903024598905
 20
347.0796033210123
 30
0.0
 11
484.9903024598905
 21
346.9200925528517
 31
0.0
  0
LINE
  5
1348D
330
18
100
AcDbEntity
  8
11
  6
Continuous
100
AcDbLine
 10
485.1777274598903
 20
346.8669223463448
 30
0.0
 11
485.1777274598903
 21
347.0796033210123
 31
0.0
  0
LINE
  5
1348E
330
18
100
AcDbEntity
  8
11
  6
Continuous
100
AcDbLine
 10
485.1964699896785
 20
350.4186925528517
 30
0.0
 11
485.1964699896785
 21
350.5250329656652
 31
0.0
  0
LINE
  5
1348F
330
18
100
AcDbEntity
  8
11
  6
Continuous
100
AcDbLine
 10
485.4588649598905
 20
347.664475591787
 30
0.0
 11
485.4588649598905
 21
345.1654755917871
 31
0.0
  0
LINE
  5
13490
330
18
100
AcDbEntity
  8
11
  6
Continuous
100
AcDbLine
 10
485.6462900492546
 20
347.3454543531463
 30
0.0
 11
485.6462900492546
 21
346.6542415207176
 31
0.0
  0
LINE
  5
13491
330
18
100
AcDbEntity
  8
11
  6
Continuous
100
AcDbLine
 10
485.6462900492546
 20
346.335220282077
 30
0.0
 11
485.6462900492546
 21
345.4844968675129
 31
0.0
  0
LINE
  5
13492
330
18
100
AcDbEntity
  8
11
  6
Continuous
100
AcDbLine
 10
486.1127699499278
 20
349.4616287626592
 30
0.0
 11
486.1127699499278
 21
349.3021181433388
 31
0.0
  0
LINE
  5
13493
330
18
100
AcDbEntity
  8
11
  6
Continuous
100
AcDbLine
 10
486.3626699499278
 20
349.2489479369321
 30
0.0
 11
486.3626699499278
 21
349.514798969066
 31
0.0
  0
LINE
  5
13494
330
18
100
AcDbEntity
  8
11
  6
Continuous
100
AcDbLine
 10
486.4584649896785
 20
346.6542415207176
 30
0.0
 11
486.4584649896785
 21
346.335220282077
 31
0.0
  0
LINE
  5
13495
330
18
100
AcDbEntity
  8
11
  6
Continuous
100
AcDbLine
 10
486.5834150492548
 20
347.664475591787
 30
0.0
 11
486.5834150492548
 21
347.3454543531463
 31
0.0
  0
LINE
  5
13496
330
18
100
AcDbEntity
  8
11
  6
Continuous
100
AcDbLine
 10
486.5834150492548
 20
345.4844968675129
 30
0.0
 11
486.5834150492548
 21
345.1654755917871
 31
0.0
  0
LINE
  5
13497
330
18
100
AcDbEntity
  8
11
  6
Continuous
100
AcDbLine
 10
486.6958699896787
 20
351.1630755917871
 30
0.0
 11
486.6958699896787
 21
348.664075591787
 31
0.0
  0
LINE
  5
13498
330
18
100
AcDbEntity
  8
11
  6
Continuous
100
AcDbLine
 10
486.9270274896786
 20
347.0796033210123
 30
0.0
 11
486.9270274896786
 21
346.8669223463448
 31
0.0
  0
LINE
  5
13499
330
18
100
AcDbEntity
  8
11
  6
Continuous
100
AcDbLine
 10
486.9457699896786
 20
350.8440543531463
 30
0.0
 11
486.9457699896786
 21
350.1528415207177
 31
0.0
  0
LINE
  5
1349A
330
18
100
AcDbEntity
  8
11
  6
Continuous
100
AcDbLine
 10
486.9457699896786
 20
349.8338202820769
 30
0.0
 11
486.9457699896786
 21
348.9830968675128
 31
0.0
  0
LINE
  5
1349B
330
18
100
AcDbEntity
  8
11
  6
Continuous
100
AcDbLine
 10
487.1144524896786
 20
346.9200925528517
 30
0.0
 11
487.1144524896786
 21
347.0264329656651
 31
0.0
  0
LINE
  5
1349C
330
18
100
AcDbEntity
  8
11
  6
Continuous
100
AcDbLine
 10
487.8016773705262
 20
345.9630287626592
 30
0.0
 11
487.8016773705262
 21
345.8035181433387
 31
0.0
  0
LINE
  5
1349D
330
18
100
AcDbEntity
  8
11
  6
Continuous
100
AcDbLine
 10
487.9891023705262
 20
345.7503479369321
 30
0.0
 11
487.9891023705262
 21
346.016198969066
 31
0.0
  0
LINE
  5
1349E
330
18
100
AcDbEntity
  8
11
  6
Continuous
100
AcDbLine
 10
488.0286699102771
 20
350.1528415207177
 30
0.0
 11
488.0286699102771
 21
349.8338202820769
 31
0.0
  0
LINE
  5
1349F
330
18
100
AcDbEntity
  8
11
  6
Continuous
100
AcDbLine
 10
488.1952699896785
 20
351.1630755917871
 30
0.0
 11
488.1952699896785
 21
350.8440543531463
 31
0.0
  0
LINE
  5
134A0
330
18
100
AcDbEntity
  8
11
  6
Continuous
100
AcDbLine
 10
488.1952699896785
 20
348.9830968675128
 30
0.0
 11
488.1952699896785
 21
348.664075591787
 31
0.0
  0
LINE
  5
134A1
330
18
100
AcDbEntity
  8
11
  6
Continuous
100
AcDbLine
 10
488.2390024896785
 20
347.664475591787
 30
0.0
 11
488.2390024896785
 21
345.1654755917871
 31
0.0
  0
LINE
  5
134A2
330
18
100
AcDbEntity
  8
11
  6
Continuous
100
AcDbLine
 10
488.4264274896786
 20
347.3454543531463
 30
0.0
 11
488.4264274896786
 21
346.6542415207176
 31
0.0
  0
LINE
  5
134A3
330
18
100
AcDbEntity
  8
11
  6
Continuous
100
AcDbLine
 10
488.4264274896786
 20
346.335220282077
 30
0.0
 11
488.4264274896786
 21
345.4844968675129
 31
0.0
  0
LINE
  5
134A4
330
18
100
AcDbEntity
  8
11
  6
Continuous
100
AcDbLine
 10
486.9582650492547
 20
347.2922841467396
 30
0.0
 11
486.9270274896786
 21
347.0796033210123
 31
0.0
  0
LINE
  5
134A5
330
18
100
AcDbEntity
  8
11
  6
Continuous
100
AcDbLine
 10
487.1144524896786
 20
347.0264329656651
 30
0.0
 11
487.1456898705262
 21
347.1859437339261
 31
0.0
  0
LINE
  5
134A6
330
18
100
AcDbEntity
  8
11
  6
Continuous
100
AcDbLine
 10
487.9266276088308
 20
345.5376670740198
 30
0.0
 11
487.9891023705262
 21
345.7503479369321
 31
0.0
  0
LINE
  5
134A7
330
18
100
AcDbEntity
  8
11
  6
Continuous
100
AcDbLine
 10
485.7379200095038
 20
350.8440543531463
 30
0.0
 11
485.8628699499278
 21
350.7908841467396
 31
0.0
  0
LINE
  5
134A8
330
18
100
AcDbEntity
  8
11
  6
Continuous
100
AcDbLine
 10
487.5205398705261
 20
347.3454543531463
 30
0.0
 11
487.6142523705262
 21
347.2922841467396
 31
0.0
  0
LINE
  5
134A9
330
18
100
AcDbEntity
  8
11
  6
Continuous
100
AcDbLine
 10
485.1548199996413
 20
349.9401606949906
 30
0.0
 11
485.3214199896786
 21
349.8338202820769
 31
0.0
  0
LINE
  5
134AA
330
18
100
AcDbEntity
  8
11
  6
Continuous
100
AcDbLine
 10
486.1127699499278
 20
349.9401606949906
 30
0.0
 11
485.9461699896786
 21
350.0465011078042
 31
0.0
  0
LINE
  5
134AB
330
18
100
AcDbEntity
  8
11
  6
Continuous
100
AcDbLine
 10
484.98821999461
 20
348.8767564361068
 30
0.0
 11
485.1964699896785
 21
348.7172458027921
 31
0.0
  0
LINE
  5
134AC
330
18
100
AcDbEntity
  8
11
  6
Continuous
100
AcDbLine
 10
487.0832151088309
 20
346.4415606949906
 30
0.0
 11
487.2081649896784
 21
346.335220282077
 31
0.0
  0
LINE
  5
134AD
330
18
100
AcDbEntity
  8
11
  6
Continuous
100
AcDbLine
 10
487.8016773705262
 20
346.4415606949906
 30
0.0
 11
487.6767274896785
 21
346.547901107804
 31
0.0
  0
LINE
  5
134AE
330
18
100
AcDbEntity
  8
11
  6
Continuous
100
AcDbLine
 10
485.3630700095038
 20
350.1528415207177
 30
0.0
 11
485.2381199797158
 21
350.2591819335313
 31
0.0
  0
LINE
  5
134AF
330
18
100
AcDbEntity
  8
11
  6
Continuous
100
AcDbLine
 10
485.9045200294294
 20
349.7274798692635
 30
0.0
 11
486.0294700294293
 21
349.6211394564496
 31
0.0
  0
LINE
  5
134B0
330
18
100
AcDbEntity
  8
11
  6
Continuous
100
AcDbLine
 10
486.9582650492547
 20
345.3781564361067
 30
0.0
 11
487.1144524896786
 21
345.2186458027922
 31
0.0
  0
LINE
  5
134B1
330
18
100
AcDbEntity
  8
11
  6
Continuous
100
AcDbLine
 10
487.2394023705262
 20
346.6542415207176
 30
0.0
 11
487.1456898705262
 21
346.7605819335313
 31
0.0
  0
LINE
  5
134B2
330
18
100
AcDbEntity
  8
11
  6
Continuous
100
AcDbLine
 10
487.6454901088308
 20
346.2288798692635
 30
0.0
 11
487.7392026088307
 21
346.1225394564498
 31
0.0
  0
LINE
  5
134B3
330
18
100
AcDbEntity
  8
11
  6
Continuous
100
AcDbLine
 10
485.0527774896786
 20
347.45179476606
 30
0.0
 11
484.9278275194667
 21
347.6113053852803
 31
0.0
  0
LINE
  5
134B4
330
18
100
AcDbEntity
  8
11
  6
Continuous
100
AcDbLine
 10
485.2381199797158
 20
349.0362670740197
 30
0.0
 11
485.1131699797159
 21
349.1957777305252
 31
0.0
  0
LINE
  5
134B5
330
18
100
AcDbEntity
  8
11
  6
Continuous
100
AcDbLine
 10
484.98821999461
 20
350.1528415207177
 30
0.0
 11
485.1548199996413
 21
349.9401606949906
 31
0.0
  0
LINE
  5
134B6
330
18
100
AcDbEntity
  8
11
  6
Continuous
100
AcDbLine
 10
484.8965899598905
 20
347.3454543531463
 30
0.0
 11
484.9590649896787
 21
347.2391139403327
 31
0.0
  0
LINE
  5
134B7
330
18
100
AcDbEntity
  8
11
  6
Continuous
100
AcDbLine
 10
487.1456898705262
 20
345.5376670740198
 30
0.0
 11
487.0519773705263
 21
345.6971777305253
 31
0.0
  0
LINE
  5
134B8
330
18
100
AcDbEntity
  8
11
  6
Continuous
100
AcDbLine
 10
486.9582650492547
 20
346.6542415207176
 30
0.0
 11
487.0832151088309
 21
346.4415606949906
 31
0.0
  0
LINE
  5
134B9
330
18
100
AcDbEntity
  8
11
  6
Continuous
100
AcDbLine
 10
484.8632699909114
 20
349.1426075241184
 30
0.0
 11
484.98821999461
 21
348.8767564361068
 31
0.0
  0
LINE
  5
134BA
330
18
100
AcDbEntity
  8
11
  6
Continuous
100
AcDbLine
 10
485.1464899896785
 20
347.2391139403327
 30
0.0
 11
485.0527774896786
 21
347.45179476606
 31
0.0
  0
LINE
  5
134BB
330
18
100
AcDbEntity
  8
11
  6
Continuous
100
AcDbLine
 10
486.8645525492548
 20
345.6440075241185
 30
0.0
 11
486.9582650492547
 21
345.3781564361067
 31
0.0
  0
LINE
  5
134BC
330
18
100
AcDbEntity
  8
11
  6
Continuous
100
AcDbLine
 10
485.1131699797159
 20
349.1957777305252
 30
0.0
 11
485.0715199896787
 21
349.3552883497457
 31
0.0
  0
LINE
  5
134BD
330
18
100
AcDbEntity
  8
11
  6
Continuous
100
AcDbLine
 10
485.2381199797158
 20
350.2591819335313
 30
0.0
 11
485.1964699896785
 21
350.4186925528517
 31
0.0
  0
LINE
  5
134BE
330
18
100
AcDbEntity
  8
11
  6
Continuous
100
AcDbLine
 10
485.2089650194667
 20
345.1654755917871
 30
0.0
 11
484.9278275194667
 21
346.3883904885836
 31
0.0
  0
LINE
  5
134BF
330
18
100
AcDbEntity
  8
11
  6
Continuous
100
AcDbLine
 10
484.7404024747844
 20
346.2820500756701
 30
0.0
 11
484.9903024598905
 21
345.1654755917871
 31
0.0
  0
LINE
  5
134C0
330
18
100
AcDbEntity
  8
11
  6
Continuous
100
AcDbLine
 10
484.9590649896787
 20
347.2391139403327
 30
0.0
 11
484.9903024598905
 21
347.0796033210123
 31
0.0
  0
LINE
  5
134C1
330
18
100
AcDbEntity
  8
11
  6
Continuous
100
AcDbLine
 10
485.1777274598903
 20
347.0796033210123
 30
0.0
 11
485.1464899896785
 21
347.2391139403327
 31
0.0
  0
LINE
  5
134C2
330
18
100
AcDbEntity
  8
11
  6
Continuous
100
AcDbLine
 10
484.8216199896786
 20
349.3552883497457
 30
0.0
 11
484.8632699909114
 21
349.1426075241184
 31
0.0
  0
LINE
  5
134C3
330
18
100
AcDbEntity
  8
11
  6
Continuous
100
AcDbLine
 10
484.9465699896787
 20
350.3655223463449
 30
0.0
 11
484.98821999461
 21
350.1528415207177
 31
0.0
  0
LINE
  5
134C4
330
18
100
AcDbEntity
  8
11
  6
Continuous
100
AcDbLine
 10
487.0519773705263
 20
345.6971777305253
 30
0.0
 11
487.0207399896784
 21
345.8566883497456
 31
0.0
  0
LINE
  5
134C5
330
18
100
AcDbEntity
  8
11
  6
Continuous
100
AcDbLine
 10
486.8333149896786
 20
345.8566883497456
 30
0.0
 11
486.8645525492548
 21
345.6440075241185
 31
0.0
  0
LINE
  5
134C6
330
18
100
AcDbEntity
  8
11
  6
Continuous
100
AcDbLine
 10
486.9270274896786
 20
346.8669223463448
 30
0.0
 11
486.9582650492547
 21
346.6542415207176
 31
0.0
  0
LINE
  5
134C7
330
18
100
AcDbEntity
  8
11
  6
Continuous
100
AcDbLine
 10
488.5284699102768
 20
351.1630755917871
 30
0.0
 11
488.5284699102768
 21
350.8972245596531
 31
0.0
  0
LINE
  5
134C8
330
18
100
AcDbEntity
  8
11
  6
Continuous
100
AcDbLine
 10
489.1948699896786
 20
350.8972245596531
 30
0.0
 11
489.1948699896786
 21
348.664075591787
 31
0.0
  0
LINE
  5
134C9
330
18
100
AcDbEntity
  8
11
  6
Continuous
100
AcDbLine
 10
489.2386026088309
 20
346.6542415207176
 30
0.0
 11
489.2386026088309
 21
346.335220282077
 31
0.0
  0
LINE
  5
134CA
330
18
100
AcDbEntity
  8
11
  6
Continuous
100
AcDbLine
 10
489.3635524896786
 20
347.664475591787
 30
0.0
 11
489.3635524896786
 21
347.3454543531463
 31
0.0
  0
LINE
  5
134CB
330
18
100
AcDbEntity
  8
11
  6
Continuous
100
AcDbLine
 10
489.3635524896786
 20
345.4844968675129
 30
0.0
 11
489.3635524896786
 21
345.1654755917871
 31
0.0
  0
LINE
  5
134CC
330
18
100
AcDbEntity
  8
11
  6
Continuous
100
AcDbLine
 10
489.4447699896786
 20
350.8972245596531
 30
0.0
 11
489.4447699896786
 21
348.664075591787
 31
0.0
  0
LINE
  5
134CD
330
18
100
AcDbEntity
  8
11
  6
Continuous
 62
     0
100
AcDbLine
 10
489.6134526088308
 20
347.664475591787
 30
0.0
 11
489.6134526088308
 21
347.3986245596531
 31
0.0
  0
LINE
  5
134CE
330
18
100
AcDbEntity
  8
11
  6
Continuous
100
AcDbLine
 10
490.1111698307754
 20
351.1630755917871
 30
0.0
 11
490.1111698307754
 21
350.8972245596531
 31
0.0
  0
LINE
  5
134CF
330
18
100
AcDbEntity
  8
11
  6
Continuous
100
AcDbLine
 10
490.1132524896786
 20
347.3986245596531
 30
0.0
 11
490.1132524896786
 21
345.1654755917871
 31
0.0
  0
LINE
  5
134D0
330
18
100
AcDbEntity
  8
11
  6
Continuous
100
AcDbLine
 10
490.3006774896785
 20
347.3986245596531
 30
0.0
 11
490.3006774896785
 21
345.1654755917871
 31
0.0
  0
LINE
  5
134D1
330
18
100
AcDbEntity
  8
11
  6
Continuous
 62
     0
100
AcDbLine
 10
490.8004777279831
 20
347.664475591787
 30
0.0
 11
490.8004777279831
 21
347.3986245596531
 31
0.0
  0
LINE
  5
134D2
330
18
100
AcDbEntity
  8
11
  6
Continuous
100
AcDbLine
 10
491.4189799896785
 20
348.0393255917872
 30
0.0
 11
491.4189799896785
 21
348.2892255917871
 31
0.0
  0
LINE
  5
134D3
330
18
100
AcDbEntity
  8
11
  6
Continuous
100
AcDbLine
 10
486.0711199896786
 20
350.95039476606
 30
0.0
 11
485.9045200294294
 21
351.1099053852802
 31
0.0
  0
LINE
  5
134D4
330
18
100
AcDbEntity
  8
11
  6
Continuous
100
AcDbLine
 10
487.7704399896786
 20
347.45179476606
 30
0.0
 11
487.6454901088308
 21
347.6113053852803
 31
0.0
  0
LINE
  5
134D5
330
18
100
AcDbEntity
  8
11
  6
Continuous
100
AcDbLine
 10
486.2793700294293
 20
349.7274798692635
 30
0.0
 11
486.1127699499278
 21
349.9401606949906
 31
0.0
  0
LINE
  5
134D6
330
18
100
AcDbEntity
  8
11
  6
Continuous
100
AcDbLine
 10
485.8628699499278
 20
350.7908841467396
 30
0.0
 11
485.9461699896786
 21
350.6845437339261
 31
0.0
  0
LINE
  5
134D7
330
18
100
AcDbEntity
  8
11
  6
Continuous
100
AcDbLine
 10
487.9266276088308
 20
346.2288798692635
 30
0.0
 11
487.8016773705262
 21
346.4415606949906
 31
0.0
  0
LINE
  5
134D8
330
18
100
AcDbEntity
  8
11
  6
Continuous
100
AcDbLine
 10
487.6142523705262
 20
347.2922841467396
 30
0.0
 11
487.6767274896785
 21
347.1859437339261
 31
0.0
  0
LINE
  5
134D9
330
18
100
AcDbEntity
  8
11
  6
Continuous
100
AcDbLine
 10
486.1960699896786
 20
350.7377139403327
 30
0.0
 11
486.0711199896786
 21
350.95039476606
 31
0.0
  0
LINE
  5
134DA
330
18
100
AcDbEntity
  8
11
  6
Continuous
100
AcDbLine
 10
486.0294700294293
 20
349.6211394564496
 30
0.0
 11
486.1127699499278
 21
349.4616287626592
 31
0.0
  0
LINE
  5
134DB
330
18
100
AcDbEntity
  8
11
  6
Continuous
100
AcDbLine
 10
487.8641524896784
 20
347.2391139403327
 30
0.0
 11
487.7704399896786
 21
347.45179476606
 31
0.0
  0
LINE
  5
134DC
330
18
100
AcDbEntity
  8
11
  6
Continuous
100
AcDbLine
 10
486.3626699499278
 20
349.514798969066
 30
0.0
 11
486.2793700294293
 21
349.7274798692635
 31
0.0
  0
LINE
  5
134DD
330
18
100
AcDbEntity
  8
11
  6
Continuous
100
AcDbLine
 10
485.9461699896786
 20
350.6845437339261
 30
0.0
 11
485.9878199499278
 21
350.5782033210123
 31
0.0
  0
LINE
  5
134DE
330
18
100
AcDbEntity
  8
11
  6
Continuous
100
AcDbLine
 10
487.7392026088307
 20
346.1225394564498
 30
0.0
 11
487.8016773705262
 21
345.9630287626592
 31
0.0
  0
LINE
  5
134DF
330
18
100
AcDbEntity
  8
11
  6
Continuous
100
AcDbLine
 10
487.9891023705262
 20
346.016198969066
 30
0.0
 11
487.9266276088308
 21
346.2288798692635
 31
0.0
  0
LINE
  5
134E0
330
18
100
AcDbEntity
  8
11
  6
Continuous
100
AcDbLine
 10
487.6767274896785
 20
347.1859437339261
 30
0.0
 11
487.7079648705263
 21
347.0796033210123
 31
0.0
  0
LINE
  5
134E1
330
18
100
AcDbEntity
  8
11
  6
Continuous
100
AcDbLine
 10
486.2377199499278
 20
350.5782033210123
 30
0.0
 11
486.1960699896786
 21
350.7377139403327
 31
0.0
  0
LINE
  5
134E2
330
18
100
AcDbEntity
  8
11
  6
Continuous
100
AcDbLine
 10
487.1456898705262
 20
346.7605819335313
 30
0.0
 11
487.1144524896786
 21
346.9200925528517
 31
0.0
  0
LINE
  5
134E3
330
18
100
AcDbEntity
  8
11
  6
Continuous
100
AcDbLine
 10
487.8953898705261
 20
347.0796033210123
 30
0.0
 11
487.8641524896784
 21
347.2391139403327
 31
0.0
  0
MTEXT
  5
139F6
330
18
100
AcDbEntity
  8
11
  6
Continuous
100
AcDbMText
 10
443.0059689085669
 20
361.4738071761111
 30
0.0
 40
2.351999999999998
 41
22.0
 71
     1
 72
     5
  1
BRAKE UNIT
  7
STANDARD1
 73
     1
 44
0.7844000000000002
1001
ACAD
1000
ACAD_MTEXT_DEFINED_HEIGHT_BEGIN
1070
    46
1040
0.0
1000
ACAD_MTEXT_DEFINED_HEIGHT_END
1000
MTEXTBEGIN
1070
    73
1070
     1
1070
    44
1040
0.7844000000000002
1070
    74
1070
     0
1000
MTEXTEND
  0
LINE
  5
139F7
330
18
100
AcDbEntity
  8
11
  6
Continuous
100
AcDbLine
 10
441.6084727479517
 20
362.0227429089011
 30
0.0
 11
463.9612653685283
 21
362.0227429089011
 31
0.0
  0
LINE
  5
139F9
330
18
100
AcDbEntity
  8
11
  6
Continuous
100
AcDbLine
 10
441.6084727479517
 20
362.3759216370724
 30
0.0
 11
463.9612653685283
 21
362.3759216370724
 31
0.0
  0
LINE
  5
139FA
330
18
100
AcDbEntity
  8
11
  6
Continuous
100
AcDbLine
 10
441.6084727479517
 20
362.7291003652437
 30
0.0
 11
463.9612653685283
 21
362.7291003652437
 31
0.0
  0
LINE
  5
139FB
330
18
100
AcDbEntity
  8
11
  6
Continuous
100
AcDbLine
 10
441.6084727479517
 20
357.6128419097181
 30
0.0
 11
463.9612653685283
 21
357.6128419097181
 31
0.0
  0
LINE
  5
139FC
330
18
100
AcDbEntity
  8
11
  6
Continuous
100
AcDbLine
 10
441.6084727479517
 20
357.9660206378894
 30
0.0
 11
463.9612653685283
 21
357.9660206378894
 31
0.0
  0
LINE
  5
139FD
330
18
100
AcDbEntity
  8
11
  6
Continuous
100
AcDbLine
 10
441.6084727479517
 20
358.3191993660607
 30
0.0
 11
463.9612653685283
 21
358.3191993660607
 31
0.0
  0
LINE
  5
14375
330
18
100
AcDbEntity
  8
18
  6
HIDDEN
100
AcDbLine
 10
340.4253525754652
 20
501.6662969152803
 30
0.0
 11
530.4253628868731
 21
501.6662969152803
 31
0.0
  0
LINE
  5
14376
330
18
100
AcDbEntity
  8
18
100
AcDbLine
 10
530.4253628868731
 20
501.6662969152803
 30
0.0
 11
530.4253628868731
 21
173.6662774895188
 31
0.0
  0
LINE
  5
14377
330
18
100
AcDbEntity
  8
18
100
AcDbLine
 10
530.4253628868731
 20
173.6662774895188
 30
0.0
 11
340.4253525754652
 21
173.6662774895188
 31
0.0
  0
LINE
  5
14378
330
18
100
AcDbEntity
  8
18
  6
Continuous
100
AcDbLine
 10
340.4253525754652
 20
173.6662774895188
 30
0.0
 11
340.4253525754652
 21
501.6662969152803
 31
0.0
  0
LINE
  5
143ED
330
18
100
AcDbEntity
  8
18
100
AcDbLine
 10
547.9272114432758
 20
501.6662969152801
 30
0.0
 11
740.4253799896785
 21
501.6662969152801
 31
0.0
  0
LINE
  5
143EE
330
18
100
AcDbEntity
  8
18
100
AcDbLine
 10
547.9272114432758
 20
173.6662774895188
 30
0.0
 11
740.4253799896788
 21
173.6662774895188
 31
0.0
  0
LINE
  5
143EF
330
18
100
AcDbEntity
  8
18
100
AcDbLine
 10
740.4253799896785
 20
401.6662785895406
 30
0.0
 11
740.4253799896785
 21
501.6662969152803
 31
0.0
  0
LINE
  5
143F0
330
18
100
AcDbEntity
  8
18
100
AcDbLine
 10
740.4253799896788
 20
273.6662785895406
 30
0.0
 11
740.4253799896788
 21
173.6662774895188
 31
0.0
  0
LINE
  5
143F1
330
18
100
AcDbEntity
  8
18
100
AcDbLine
 10
547.9272114432759
 20
501.6662969152803
 30
0.0
 11
547.9272114432758
 21
173.6662774895188
 31
0.0
  0
MTEXT
  5
14496
330
18
100
AcDbEntity
  8
19
100
AcDbMText
 10
747.9576016988513
 20
286.0194586257673
 30
0.0
 40
3.0
 41
41.95199999999999
 71
     1
 72
     5
  1
{\Fromans.shx;BU2H03}
  7
STANDARD1
 73
     1
 44
1.0
  0
VIEWPORT
  5
2F9
102
{ACAD_XDICTIONARY
360
1434E
102
}
330
15
100
AcDbEntity
 67
     1
  8
0
  6
Continuous
100
AcDbViewport
 10
225.7697430774549
 20
168.1729875840703
 30
0.0
 40
626.1861979629981
 41
348.7619330426823
 68
     1
 69
     1
 12
225.7697430774549
 22
168.1729875840703
 13
0.0
 23
0.0
 14
5.0
 24
5.0
 15
5.0
 25
5.0
 16
0.0
 26
0.0
 36
1.0
 17
0.0
 27
0.0
 37
0.0
 42
50.0
 43
0.0
 44
0.0
 45
348.7619330426823
 50
0.0
 51
0.0
 72
   100
 90
    32768
  1

281
     0
 71
     1
 74
     0
110
0.0
120
0.0
130
0.0
111
1.0
121
0.0
131
0.0
112
0.0
122
1.0
132
0.0
 79
     0
146
0.0
  0
ENDSEC
  0
SECTION
  2
OBJECTS
  0
DICTIONARY
  5
C
330
0
100
AcDbDictionary
281
     1
  3
ACAD_COLOR
350
1300B
  3
ACAD_GROUP
350
D
  3
ACAD_LAYOUT
350
12C9A
  3
ACAD_MATERIAL
350
1300A
  3
ACAD_MLINESTYLE
350
1B
  3
ACAD_PLOTSETTINGS
350
12C9B
  3
ACAD_PLOTSTYLENAME
350
12C98
  3
ACAD_TABLESTYLE
350
1300C
  3
ACDBVARIABLEDICTIONARY
350
942
  3
CONTENTDICTIONARY
350
341
  3
DWGPROPS
350
1434C
  0
DICTIONARY
  5
13042
330
2
100
AcDbDictionary
280
     1
281
     1
  3
ACAD_LAYERFILTERS
360
14360
  3
ACAD_LAYERSTATES
360
13043
  0
DICTIONARY
  5
12CC5
330
18
100
AcDbDictionary
280
     1
281
     1
  3
ACAD_LAYOUTSELFREF
360
12FE5
  0
DICTIONARY
  5
12CC3
330
15
100
AcDbDictionary
280
     1
281
     1
  3
ACAD_LAYOUTSELFREF
360
12FE4
  0
DICTIONARY
  5
1434E
330
2F9
100
AcDbDictionary
280
     1
281
     1
  3
ACAD_XREC_ROUNDTRIP
360
1434F
  0
DICTIONARY
  5
1300B
102
{ACAD_REACTORS
330
C
102
}
330
C
100
AcDbDictionary
281
     1
  0
DICTIONARY
  5
D
102
{ACAD_REACTORS
330
C
102
}
330
C
100
AcDbDictionary
281
     1
  0
DICTIONARY
  5
12C9A
102
{ACAD_REACTORS
330
C
102
}
330
C
100
AcDbDictionary
281
     1
  3
Model
350
12C9C
  3
ﾚｲｱｳﾄ1
350
12C9D
  0
DICTIONARY
  5
1300A
102
{ACAD_REACTORS
330
C
102
}
330
C
100
AcDbDictionary
281
     1
  0
DICTIONARY
  5
1B
102
{ACAD_REACTORS
330
C
102
}
330
C
100
AcDbDictionary
281
     1
  3
STANDARD
350
1C
  0
DICTIONARY
  5
12C9B
102
{ACAD_REACTORS
330
C
102
}
330
C
100
AcDbDictionary
281
     1
  0
ACDBDICTIONARYWDFLT
  5
12C98
102
{ACAD_REACTORS
330
C
102
}
330
C
100
AcDbDictionary
281
     1
  3
Normal
350
12C99
100
AcDbDictionaryWithDefault
340
12C99
  0
DICTIONARY
  5
1300C
102
{ACAD_REACTORS
330
C
102
}
330
C
100
AcDbDictionary
281
     1
  3
Standard
350
1300D
  0
DICTIONARY
  5
942
102
{ACAD_REACTORS
330
C
102
}
330
C
100
AcDbDictionary
281
     1
  3
CTABLESTYLE
350
1301D
  3
DIMASSOC
350
12CE4
  3
PROJECTNAME
350
1301E
  3
SORTENTS
350
943
  0
DICTIONARY
  5
341
102
{ACAD_REACTORS
330
C
102
}
330
C
100
AcDbDictionary
281
     1
  0
XRECORD
  5
1434C
102
{ACAD_REACTORS
330
C
102
}
330
C
100
AcDbXrecord
280
     1
  1
DWGPROPS COOKIE
  2

  3

  4

  6

  7

  8

  9

300
=
301
=
302
=
303
=
304
=
305
=
306
=
307
=
308
=
309
=
 40
0.8195992245370369
 41
2451191.397945949
 42
2453873.576432824
  1

 90
        0
  0
DICTIONARY
  5
14360
102
{ACAD_REACTORS
330
13042
102
}
330
13042
100
AcDbDictionary
280
     1
281
     1
  0
DICTIONARY
  5
13043
102
{ACAD_REACTORS
330
13042
102
}
330
13042
100
AcDbDictionary
281
     1
  0
XRECORD
  5
12FE5
102
{ACAD_REACTORS
330
12CC5
102
}
330
12CC5
100
AcDbXrecord
280
     1
340
18
  0
XRECORD
  5
12FE4
102
{ACAD_REACTORS
330
12CC3
102
}
330
12CC3
100
AcDbXrecord
280
     1
340
15
  0
XRECORD
  5
1434F
102
{ACAD_REACTORS
330
1434E
102
}
330
1434E
100
AcDbXrecord
280
     1
102
SHADEPLOT
 70
     0
  0
LAYOUT
  5
12C9C
102
{ACAD_XDICTIONARY
360
14354
102
}
102
{ACAD_REACTORS
330
12C9A
102
}
330
12C9A
100
AcDbPlotSettings
  1

  2
BT9050byAcad
  4

  6

 40
0.0
 41
0.0
 42
0.0
 43
0.0
 44
0.0
 45
0.0
 46
0.0
 47
0.0
 48
0.0
 49
0.0
140
0.0
141
0.0
142
1.0
143
1.0
 70
  1712
 72
     0
 73
     0
 74
     0
  7
monochrome.ctb
 75
     0
147
1.0
148
0.0
149
0.0
100
AcDbLayout
  1
Model
 70
     1
 71
     0
 10
0.0
 20
0.0
 11
12.0
 21
9.0
 12
0.0
 22
0.0
 32
0.0
 14
0.0
 24
0.0
 34
0.0
 15
0.0
 25
0.0
 35
0.0
146
0.0
 13
0.0
 23
0.0
 33
0.0
 16
1.0
 26
0.0
 36
0.0
 17
0.0
 27
1.0
 37
0.0
 76
     0
330
18
  0
LAYOUT
  5
12C9D
102
{ACAD_XDICTIONARY
360
13045
102
}
102
{ACAD_REACTORS
330
12C9A
102
}
330
12C9A
100
AcDbPlotSettings
  1

  2
Adobe PDF
  4
A4
  6

 40
3.174999952316283
 41
3.174999952316283
 42
3.175003051757812
 43
3.17498779296875
 44
209.9733276367186
 45
297.0318298339843
 46
0.0
 47
1.313613257827909
 48
0.4730732618942284
 49
0.5837458573005279
140
209.3974216519581
141
296.1374255151771
142
1.0
143
1.02603348003959
 70
   692
 72
     1
 73
     0
 74
     4
  7
mono_mee_plot.ctb
 75
     0
147
0.974627065738062
148
-0.4730732618942284
149
-0.5837458573005279
100
AcDbLayout
  1
ﾚｲｱｳﾄ1
 70
     1
 71
     1
 10
-2.784582988306385
 20
-4.021721575255403
 11
212.6550810822894
 21
300.7428804718353
 12
0.0
 22
0.0
 32
0.0
 14
119.0033918502065
 24
27.72139283273488
 34
0.0
 15
195.2292400279477
 25
76.03165923913123
 35
0.0
146
0.0
 13
0.0
 23
0.0
 33
0.0
 16
1.0
 26
0.0
 36
0.0
 17
0.0
 27
1.0
 37
0.0
 76
     0
330
15
331
2F9
1001
ACAD_PSEXT
1000
Adobe PDF
1000
Adobe PDF Converter
1000
My Documents
1000

1070
     0
  0
MLINESTYLE
  5
1C
102
{ACAD_REACTORS
330
1B
102
}
330
1B
100
AcDbMlineStyle
  2
STANDARD
 70
     0
  3

 62
   256
 51
90.0
 52
90.0
 71
     2
 49
0.5
 62
   256
  6
BYLAYER
 49
-0.5
 62
   256
  6
BYLAYER
  0
ACDBPLACEHOLDER
  5
12C99
102
{ACAD_REACTORS
330
12C98
102
}
330
12C98
  0
ACAD_PROXY_OBJECT
  5
1300D
102
{ACAD_REACTORS
330
1300C
102
}
330
1300C
100
AcDbProxyObject
 90
      499
 91
      522
 95
   655383
 70
     0
 93
     1841
310
4214DD185B99185C9928B81E85EB51B8AE3F2E07A17AD46E2B8FC02B5E8DC0F42B1CFD028000000C1008070000C3001FDFF8000000C1003FBFF000000182007F7FE00000030400FEFFC00000060801FDFF8000000C1003FBFF00000018200000000000000681FA0B0000001820100E000186003FBFF000000182007F7FE000
310
00030400FEFFC00000060801FDFF8000000C1003FBFF000000182007F7FE000000304000AD7A3703D0AC73F4160000003040201C00030C007F7FE00000030400FEFFC00000060801FDFF8000000C1003FBFF000000182007F7FE00000030400FEFFC000000608000
340
F
340
F
340
F
 94
        0
  0
DICTIONARYVAR
  5
1301D
102
{ACAD_REACTORS
330
942
102
}
330
942
100
DictionaryVariables
280
     0
  1
STANDARD
  0
DICTIONARYVAR
  5
12CE4
102
{ACAD_REACTORS
330
942
102
}
330
942
100
DictionaryVariables
280
     0
  1
1
  0
DICTIONARYVAR
  5
1301E
102
{ACAD_REACTORS
330
942
102
}
330
942
100
DictionaryVariables
280
     0
  1

  0
DICTIONARYVAR
  5
943
102
{ACAD_REACTORS
330
942
102
}
330
942
100
DictionaryVariables
280
     0
  1
96
  0
DICTIONARY
  5
14354
330
12C9C
100
AcDbDictionary
280
     1
281
     1
  3
ACAD_XREC_ROUNDTRIP
360
14355
  0
DICTIONARY
  5
13045
330
12C9D
100
AcDbDictionary
280
     1
281
     1
  3
ACAD_XREC_ROUNDTRIP
360
14356
  3
ADSK_XREC_LAYOUTTHUMBNAIL
360
13046
  0
XRECORD
  5
14355
102
{ACAD_REACTORS
330
14354
102
}
330
14354
100
AcDbXrecord
280
     1
102
SHADEPLOT
 70
     0
102
SHADEPLOTRESLEVEL
 70
     2
102
SHADEPLOTCUSTOMDPI
 70
   300
  0
XRECORD
  5
14356
102
{ACAD_REACTORS
330
13045
102
}
330
13045
100
AcDbXrecord
280
     1
102
SHADEPLOT
 70
     0
102
SHADEPLOTRESLEVEL
 70
     2
102
SHADEPLOTCUSTOMDPI
 70
   300
  0
XRECORD
  5
13046
102
{ACAD_REACTORS
330
13045
102
}
330
13045
100
AcDbXrecord
280
     1
310
28000000620000008C0000000100080000000000B0360000000000000000000000010000000000000000000000000000FFFFFF000000000000000000000000000000000000000000000000000000000000000000330000006600000099000000CC000000FF00000000330000333300006633000099330000CC330000FF3300
310
0000660000336600006666000099660000CC660000FF66000000990000339900006699000099990000CC990000FF99000000CC000033CC000066CC000099CC0000CCCC0000FFCC000000FF000033FF000066FF000099FF0000CCFF0000FFFF000000003300330033006600330099003300CC003300FF003300003333003333
310
33006633330099333300CC333300FF33330000663300336633006666330099663300CC663300FF66330000993300339933006699330099993300CC993300FF99330000CC330033CC330066CC330099CC3300CCCC3300FFCC330000FF330033FF330066FF330099FF3300CCFF3300FFFF330000006600330066006600660099
310
006600CC006600FF00660000336600333366006633660099336600CC336600FF33660000666600336666006666660099666600CC666600FF66660000996600339966006699660099996600CC996600FF99660000CC660033CC660066CC660099CC6600CCCC6600FFCC660000FF660033FF660066FF660099FF6600CCFF6600
310
FFFF660000009900330099006600990099009900CC009900FF00990000339900333399006633990099339900CC339900FF33990000669900336699006666990099669900CC669900FF66990000999900339999006699990099999900CC999900FF99990000CC990033CC990066CC990099CC9900CCCC9900FFCC990000FF99
310
0033FF990066FF990099FF9900CCFF9900FFFF99000000CC003300CC006600CC009900CC00CC00CC00FF00CC000033CC003333CC006633CC009933CC00CC33CC00FF33CC000066CC003366CC006666CC009966CC00CC66CC00FF66CC000099CC003399CC006699CC009999CC00CC99CC00FF99CC0000CCCC0033CCCC0066CC
310
CC0099CCCC00CCCCCC00FFCCCC0000FFCC0033FFCC0066FFCC0099FFCC00CCFFCC00FFFFCC000000FF003300FF006600FF009900FF00CC00FF00FF00FF000033FF003333FF006633FF009933FF00CC33FF00FF33FF000066FF003366FF006666FF009966FF00CC66FF00FF66FF000099FF003399FF006699FF009999FF00CC
310
99FF00FF99FF0000CCFF0033CCFF0066CCFF0099CCFF00CCCCFF00FFCCFF0000FFFF0033FFFF0066FFFF0099FFFF00CCFFFF00FFFFFF00000000000D0D0D001A1A1A00282828003535350043434300505050005D5D5D006B6B6B00787878008686860093939300A1A1A100AEAEAE00BBBBBB00C9C9C900D6D6D600E4E4E400
310
F1F1F100FFFFFF0000000000000000000000000000000000000000000000000000000000000000000000000000000000F5F5F5F5F5F5F5F5F5F5F5F5F5F5F5F5F5F5F5F5F5F5F5F5F5F5F5F5F5F5F5F5F5F5F5F5F5F5F5F5F5F5F5F5F5F5F5F5F5F5F5F5F5F5F5F5F5F5F5F5F5F5F5F5F5F5F5F5F5F5F5F5F5F5F5F5F5F5F5
310
F5F5F5F5F5F5F5F5F5F5F5F5F5F5F5F5F5F5F50000F5E2E2E2E2E2E2E2E2E2E2E2E2E2E2E2E2E2E2E2E2E2E2E2E2E2E2E2E2E2E2E2E2E2E2E2E2E2E2E2E2E2E2E2E2E2E2E2E2E2E2E2E2E2E2E2E2E2E2E2E2E2E2E2E2E2E2E2E2E2E2E2E2E2E2E2E2E2E2E2E2E2E2E2E2E2E2E2E2E2E2E2E2E2E2E2E2F50000F52828282828
310
28282828282828282828282828282828282828282828282828282828282828282828282828282828282828282828282828282828282828282828282828282828282828282828282828282828282828282828282828282828282828F50000F528E2E2E2E2E2E2E2E2E2E2E2E2E2E2E2E2E2E2E2E2E2E2E2E2E2E2E2E2E2E2E2
310
E2E2E2E2E2E2E2E2E2E2E2E2E2E2E2E2E2E2E2E2E2E2E2E2E2E2E2E2E2E2E2E2E2E2E2E2E2E2E2E2E2E2E2E2E2E2E2E2E2E2E2E2E2E2E2E2E2E2E2E2E2E2E228F50000F528E2F5F5F5F5F5F5F5F5F5F5F5F5F5F5F5F5F5F5F5F5F5F5F5F5F5F5F5F5F5F5F5F5F5F5F5F5F5F5F5F5F5F5F5F5F5F5F5F5F5F5F5F5F5F5F5F5F5
310
F5F5F5F5F5F5F5F5F5F5F5F5F5F5F5F5F5F5F5F5F5F5F5F5F5F5F5F5F5F5F5F5F5F5F5E228F50000F528E2E2F5F52828282828F5F5F5F5F5F5F5F5F5F5F5F5F5F5F5F5F5F5F5F5F5F5F5F5F5F5F5F5F5F5F5F5F5F5F5F5F5F5F5F5F5F5F5F5F5F5F5F5F5F5F5F5F5F5F5F5F5F5F5F5F5F5F5282828F5F5F5F5F5F5F5F5F5F5
310
F5F5F5F5F5F5F5F5E228F50000F528E2E2E2E22828282828E2E2E2E2E2E2E2E2E2E2E2E2E2E2E2E228282828282828282828E2282828282828282828E2E2E2E2E2E2E2E2E2E2E2E2E2E2E2E2E2E2E2E2E2F5F5F5F5F5F52828E2E2E2E2E2E2E2E2E2E2E2E2E2E2E2E2E2E2E2E228F50000F528E2E2E2E22828282828E2E2E2
310
E2E2E2E2E2E2E2E2E2E2E2E2E22828282828282828E228E2282828282828282828E2E2E2E2E2E2E2E2E2E2E2E2E2E2E2E2E2E2E2E2E2F5F5F5F5F5F528282828DCDCDCDCE2DCDCDCDCDCDCDCDCDCE2E2E2E228F50000F528E2E2E2E22828282828E2E2F5F5F5F5282828282828282828282828282828282828282828282828
310
282828282828E228E22828282828282828E2E2E2E2E2E2E2E2E2E2F5F5F5F5F5F5282828E2DCDCDCDCDCDCDCDCDCDCDCDCDCDCE2E2E2E228F50000F528E2E2E2E22828282828E2E2E2F5F5E2282828282828282828282828E22828E2282828282828282828282828282828E2E22828282828282828E2E2E2E2E2E2E2E2E2E2
310
F5F5F5F5F5F5282828E2E2E2E2E2E2E2E2E2E2E2E2E2E2E2E2E2E2E228F50000F528E2E2E2E22828282828E2E2E2F5E2E2282828282828282828282828E22828E2282828282828282828282828282828E2E2E228282828282828E2E2E2E2E2E2E2E2E2E2F5F5F5F5F5F5282828E2E2E2E2E2E2E2E2E2E2E2E2E2E2E2E2E2E2
310
E228F50000F528E2F5F5F5F5F5F5F5F5F5F5F5F5F5F5F5F5F5F5F5F5F5F5F5F5F5F5F5F5F5F5F5F5F5F5F5F5F5F5F5F5F5F5F5F5F5F5F5F5F5F5F5F5F5F5F5F5F5F5F5F5F5F5F5F5F5F5F5F5F5F5F5F5F5F5F5F5F5F5F5F5F5F5F5F5F5F5F5F5F5F5F5F5E228F50000F528E2F5F5F5F5F5F5F5F5F5F5F5F5F5F5F5F5F5F5F5
310
F5F5F5F5F5F5F5F5F5F5F5F5F5F5F5F5F5F5F5F5F5F5F5F5F5F5F5F5F5F5F5F5F5F5F5F5F5F5F5F5F5F5F5F5F5F5F5F5F5F5F5F5F5F5F5F5F5F5F5F5F5F5F5F5F5F5F5F5F5F5F5F5F5E228F50000F528E2E2F5F5F5F5F5F5F5F5F5F5F5F5F5F5F5F5F5F5F5F5F5F5F5F5F5F5F5F5F5F5F5F5F5F5F5F5F5F5F5F5F5F5F5F5F5
310
F5F5F5F5F5F5F5F5F5F5F5F5F5F5F5F5F5F5F5F5F5F5F5F5F5F5F5F5F5F5F5F5F5F5F5F5F5F5F5F5F5F5F5F5F5F5E228F50000F528E2E2E2E2E2E2E2E2E2E2E2E2E2E2E2E2E2E2E2E2E2E2E2E2E2E2E2E2E2E2E2E2E2E2E2E2E2E2E2E2E2E2E2E2E2E2E2E2E2E2E2E2E2E2E20F0F0F0F0F0FE2E20F0F0F0F0FE20F0FE2E2E2
310
E2E2E2E2E2E2E2E2E2E2E2E2E2E2E2E2E2E2E2E228F50000F528E2E2E2E2E2E2E2E2E2E2E2E2E2E2E2E2E2E2E2E2E2E2E2E2E2E2E2E2E2E2E2E2E2E2E2E2E2E2E2E2E2E2E2E2E2E2E2E2E2E2E2E2E2E2E20F0F0F0F0F0FE2E2E20F0F0F0F0F0F0FE2E2E2E2E2E2E2E2E2E2E2E2E2E2E2E2E2E2E2E2E2E2E228F5157CF528E2
310
E2E2E2E2E2E2E2E2E2E2E2E2E2E2E2E2E2E2E2E2E2E2E2E2E2E2E2E2E2E2E2E2E2E2E2E2E2E2E2E2E2E2E2E2E2E2E2E2E2E2E2E2E2E20F0F0F0F0FE2E2E2E20F0F0F0F0F0F0FE2E2E2E2E2E2E2E2E2E2E2E2E2E2E2E2E2E2E2E2E2E2E228F50000F528E2E2E2E2E2E2E2E2E2E2E2E2E2E2E2E2E2E2E2E2E2E2E2E2E2E2E2E2
310
E2E2E2E2E2E2E2E2E2E2E2E2E2E2E2E2E2E2E2E2E2E2E2E2E2E2E20F0F0F0F0FE2E2E2E20F0F0F0F0F0F0F0FE2E2E2E2E2E2E2E2E2E2E2E2E2E2E2E2E2E2E2E2E2E228F5147CF528E2E2E2E2E2E2E2E2E2E2E2E2E2E2E2E2E2E2E2E2E2E2E2E2E2E2E2E2E2E2E2E2E2E2E2E2E2E2E2E2E2E2E2E2E2E2E2E2E2E2E2E2E2E2E2
310
0F0F0F0F0F0F0FE2E20F0F0F0F0FE2E2E2E2E2E2E2E2E2E2E2E2E2E2E2E2E2E2E2E2E2E2E2E2E228F50000F528E2E2E2E2E2E2E2E2E2E2E2E2E2E2E2E2E2E2E2E2E2E2E2E2E2E2E2E2E2E2E2E2E2E2E2E2E2E2E2E2E2E2E2E2E2E2E2E2E2E2E2E2E2E2E20F0F0F0F0F0F0FE2E20F0F0F0F0FE2E2E2E2E2E2E2E2E2E2E2E2E2
310
E2E2E2E2E2E2E2E2E2E2E2E228F50000F528E2E2E2E2E2E2E2E2E2E2E2E2E2E2E2E2E2E2E2E2E2E2E2E2E2E2E2E2E2E2E2E2E2E2E2E2E2E2E2E2E2E2E2E2E2E2E2E2E2E2E2E2E2E2E2E2E2E2E2E2E2E2E2E20F0F0F0F0F0F0F0F0FE2E2E2E2E2E2E2E2E2E2E2E2E2E2E2E2E2E2E2E2E228F5157CF528E2E2E2E2E2E2E2E2E2
310
E2E2E2E2E2E2E2E2E2E2E2E2E2E2E2E2E2E2E2E2E2E2E2E2E2E2E2E2E2E2E2E2E2E2E2E2E2E2E2E2E2E2E2E2E2E20F0F0F0F0F0FE20F0F0F0F0F0F0F0F0F0FE2E2E2E2E2E2E2E2E2E2E2E2E2E2E2E2E2E2E2E2E2E228F50000F528E2E2E2E2E2E2E2E2E2E2E2E2E2E2E2E2E2E2E2E2E2E2E2E2E2E2E2E2E2E2E2E2E2E2E2E2
310
E2E2E2E2E2E2E2E2E2E2E2E2E2E2E2E2E2E2E20F0F0F0F0F0FE20F0F0F0F0FE2E2E2E2E2E2E2E2E2E2E2E2E2E2E2E2E2E2E2E2E2E2E2E2E2E2E228F50000F528E2E2E2E2E2E2E2E2E2E2E2E2E2E2E2E2E2E2E2E2E2E2E2E2E2E2E2E2E2E2E2E2E2E2E2E2E2E2E2E2E2E2E2E2E2E2E2E2E2E2E2E2E2E2E20F0F0F0F0F0F0F0F
310
0F0F0F0F0FE2E2E2E2E2E2E2E2E2E2E2E2E2E2E2E2E2E2E2E2E2E2E2E2E2E228F50000F528E2E2E2E2E2E2E2E2E2E2E2E2E2E2E2E2E2E2E2E2E2E2E2E2E2E2E2E2E2E2E2E2E2E2E2E2E2E2E2E2E2E2E2E2E2E2E2E2E2E2E2E2E2E2E20F0F0FE20FE20F0F0F0F0F0F0F0FE2E2E2E2E2E2E2E2E2E2E2E2E2E2E2E2E2E2E2E2E2
310
E2E2E2E228F50000F528E2E2E2E2E2E2E2E2E2E2E2E2E2E2E2E2E2E2E2E2E2E2E2E2E2E2E2E2E2E2E2E2E2E2E2E2E2E2E2E2E2E2E2E2E2E2E2E2E2E2E2E2E2E2E2E2E2E2E2E2E2E2E2E2E2E2E2E2E2E2E2E2E2E2E2E2E2E2E2E2E2E2E2E2E2E2E2E2E2E2E2E2E2E228F50000F528E2E2E2E2E2E2E2E2E2E2E2E2E2E2E2E2E2
310
E2E2E2E2E2E2E2E2E2E2E2E2E2E2E2E2E2E2E2E2E2E2E2E2E2E2E2E2E2E2E2E2E2E2E2E20F0F0F0F0F0F0F0F0F0F0F0F0F0F0F0F0F0F0F0F0F0F0FE2E2E2E2E2E2E2E2E2E2E2E2E2E2E2E2E2E228F50000F528E2E2E2E2E2E2E2E22828F528E2E2E2E2E2E2E2E2E2E2E2E2E2E2E2E2E2E2E2E2E2E2E2E2E2E2E2E2E2E2E2E2
310
2828F528E2E2E2E2E20F2828282828282828280F0F0F0FE2C3C3C30F0F0F0F0FE2E2E2E2E2E2E2E2E2E2E2E2E2E2E2E2E2E228F50000F528E2E2E2E2E2E2E2E22828F528E228E228E228E228E228E2282828282828282828282828E228E228E228E228E22828F528E2E2E2E2E20F2828282828E2E2E2E20F0F0F0FE2E2E2E2
310
0F0F0F0F0FE2E2E2E2E2E2E2E2E2E2E2E2E2E2E2E2E2E228F50000F528E2E2E2E2E2E2E2E22828F528E228E228E228E228E228E2282828282828282828282828E228E228E228E228E22828F528E2E2E2E2E20F2828282828282828280F0F0F0F0F0F0F0F0F0F0F0F0FE2E2E2E2E2E2E2E2E2E2E2E2E2E2E2E2E2E228F50000
310
F528E2E2E2E2E2E2E2E228282828E228E228E228E228E228E2282828282828282828282828E228E228E228E228E228C32828E2E2E2E2E20F28282828E2282828280F0F0F0FE2C3C3C30F0F0F0F0FE2E2E2E2E2E2E2E2E2E2E2E2E2E2E2E2E2E228F50000F528E2E2E2E2E2E2E2E22828E22828282828282828282828282828
310
2828282828282828282828282828282828282828C32828E2E2E2E2E20F28282828280F0F0F0F0F0F0F0F0F0F0F0F0F0F0F0F0FE2E2E2E2E2E2E2E2E2E2E2E2E2E2E2E2E2E228F50000F528E2E2E2E2E2E2E2E22828E228E228E228E228E228E228E2282828282828282828282828E228E228E228E228E228C32828E2E2E2E2
310
E20F282828E2E2282828280F0F0F0FE2C3C3C30F0F0F0F0FE2E2E2E2E2E2E2E2E2E2E2E2E2E2E2E2E2E228F50000F528E2E2E2E2E2E2E2E22828E228E228E228E228E228E228E2282828282828282828282828E228E228E228E228E228C32828E2E2E2E2E20F28282828E2E2E2E2E20F0F0F0FE2E2E2E20F0F0F0F0FE2E2E2
310
E2E2E2E2E2E2E2E2E2E2E2E2E2E2E228F50000F528E2E2E2E2E2E2E2E22828E228E228E228E228E228E228E2282828282828282828282828E228E228E228E228E228C32828E2E2E2E2E20F0F0F0F0F0F0F0F0F0F0F0F0F0F0F0F0F0F0F0FC30F0FE2E2E2E2E20F0F0F0F0F0F0FE2E2E2E2E2E228F50000F528E2E2E2E2E2E2
310
E2E22828E228E228E228E228E228E228E2282828282828282828282828E228E228E228E228E228C32828E2E2E2E2E20FE2E2E2E2E2E2E2E2E20F0F0F0F0F0F0F0F0F0FC3C30FE2E2E2E2E20F0F0F0F0F0F0FE2E2E2E2E2E228F50000F528E2E2E2E2E2E2E2E22828E228282828282828282828282828282828282828282828
310
282828282828282828282828C32828E2E2E2E2E20F0F0F0F0F0F0F0F0F0F0F0F0F0F0F0F0F0F0F0F0F0F0FE2E2E2E2E2E2E2E2E2E2E2E2E2E2E2E2E2E228F5157CF528E2E2E2E2E2E2E2E22828E228282828282828282828282828282828282828282828282828282828282828282828C32828E2E2E2E2E2E2E2DCDCDCDCDC
310
DCDCDCDCDCDCE2E2E2E2E2E2E2E2E2E2E2E2E2E2E2DCDCDCDCDCDCDCE2E2E2E2E2E228F50000F528E2E2E2E2E2E2E2E22828E228E228E228E228E228E228E2282828282828282828282828E228E228E228E228E228C32828E2E2E2E2E2E2DCDCDCDCDCDCDCE2DCDCDCDCDCDCE2E2E2E2E2E2E2E2E2E2E2DCDCDCDCDCDCDCDC
310
E2DCE2E2E2E2E228F5147CF528E2E2E2E2E2E2E2E22828E228E228E228E228E228E228E2282828282828282828282828E228E228E228E228E228C32828E2E2E2E2E2DCE2DCDCDCDCDCDCE2DCDCDCDCE2DCE2E2E2E2E2E2E2E2E2E2E2DCE2DCDCDCDCDCDCE2E2DCE2E2E2E228F50000F528E2E2E2E2E2E2E2E22828E228E228
310
E228E228E228E228E2282828282828282828282828E228E228E228E228E228C32828E2E2E2E2E2E2DCDCDCDCDCDCDCDCDCE2E2E2E2DCE2E2E2E2E2E2E2E2E2E2E2DCE2DCDCDCDCDCDCE2DCE2E2E2E2E228F50000F528E2E2E2E2E2E2E2E22828E228E228E228E228E228E228E2282828282828282828282828E228E228E228
310
E228E228C32828E2E2E2E2E2E2DCDCDCDCDCDCDCDCDCDCDCDCDCE2E2E2E2E2E2E2E2E2E2E2E2E2DCDCDCDCDCDCDCDCDCE2E2E2E2E228F5157CF528E2E2E2E2E2E2E2E22828C32828282828282828282828282828282828282828282828282828E228282828282828C32828E2E2E2E2E2E2E2E2E2E2E2E2E2E2E2E2E2E2E2E2
310
E2E2E2E2E2E2E2E2E2E2E2E2E2E2E2E2E2E2E2E2E2E2E2E2E2E228F50000F528E2E2E2E2E2E2E2E228E2E228E2E2E2E2E2E2E2E2E2E2E2E2E2E2E2E2E2E2E2E2E2E2E2E228E228E2E2E2E2E228E2E228E2E2E2E2E2E2E2E228E2E228E2E2E2E2E2E2E2E2E2E2E2E2E2E2E2E2E2E2E2E2E2E2E2E2E2E2E2E2E2E2E2E2E2E228
310
F50000F528E2E2E2E2E2E2E2E228282828282828282828282828282828282828282828282828282828282828282828282828282828E2E2E2E2E2282D2D2828282828E2E2E2E2E2E2E2E2E2E2E2E2E2E2E2E2E2E2E2E2E2E2E2E2E2E2E2E2E2E2E2E2E228F50000F528E2E2E2E2E2E2E2E228E2E228E2E2E2E2E2E2E2E228E2
310
E22828282828282828282828282828282828282828E228E2E228E2E2E2E2E2282D282828282828282828282828282828282828282828E2E2E2E2E2E2E2E2E2E2E2E2E2E2E2E2E2E228F50000F528E2E2E2E2E2E2E2E228E2E228E2E2E2E2E2E2E2E228E2E2282828282828E2E2E22828E2E2E228E2E2E22828E228E2E228E2
310
E2E228282828E228282828E2282828E2E22828282828E228282828E2E2E2E2E2E2E2E2E2E2E2E2E2E2E2E2E2E228F50000F528E2E2E2E2E2E2E2E228E2E228282828282828282828E2E2E2E2E2E2E22828E228282828E2282828E2E22828E228E2E228E2E2282DE228E2E2E2E2E2E2E228282828282828282828E228282828
310
E2E2E2E2E2E2E2E2E2E2E2E2E2E2E2E2E2E228F500B6F528E2E2E2E2E2E2E2E228E2E228282828282828282828E2E2E2E2E2E2E2282828282828282828282828282828E228E2E228E2E2E2282828E2E2E2E2E2E2E228282828E22828282828E228282828E2E2E2E2E2E2E2E2E2E2E2E2E2E2E2E2E2E228F5157CF528E2E2E2
310
E2E2E2E2E228E2E22828282828282828282828E2E2E2E2E2E2282828282828282828282828282828E228E22828E2E2E2E2E2E2E2E2E2E2E2E2E2282828282828282828282828282828E2E2E2E2E2E2E2E2E2E2E2E2E2E2E2E2E2E228F50000F528E2E2E2E2E2E2E2E228E2E22828282828282828282828E2E2E2E2E2E22828
310
28282828282828282828282828E228E22828E2E2E2E2E2E2E2E2E2E2E2E2E228282828E2E2E2E2E2E2E2E2E2E2E2E2E2E2E2E2E2E2E2E2E2E2E2E2E2E2E2E2E228F5147CF528E2E2E2E2E2E2E2E228E2E22828282828282828282828E2E2E2E2E2E2282828282828282828282828282828E228E22828E2E2E2E2E2E2E2E2E2
310
E2E2E2E228282828E2E2E2E2E2E2E2E2E2E2E2E2E2E2E2E2E2E2E2E2E2E2E2E2E2E2E2E2E228F50000F528E2E2E2E2E2E2E2E228E2E228282828282828E2E22828E2E2E2E2E2E22828282828282828282828282828282828E2E228E2E2E2E2E2E2E2E2E2E2E2E2E2E2E2E2E2E2E2E2E2E2E2E2E2E2E2E2E2E2E2E2E2E2E2E2
310
E2E2E2E2E2E2E2E2E2E228F50000F528E2E2E2E2E2E2E2E228E2E2282828282828E2E2E22828E2E2E2E2E2E22828282828282828282828282828282828E2E228E2E2E2E2E2E2E2E2E2E2E2E2E2E2E2E2E2E2E2E2E2E2E2E2E2E2E2E2E2E2E2E2E2E2E2E2E2E2E2E2E2E2E2E2E2E228F5157CF528E2E2E2E2E2E2E2E228E2E2
310
282828282828E2E2E22828E2E2E2E2E2E2E2282828282828E2E2E2E2E2E2E2E22828E2E228E2E2E2E2282828282828282828282828E2E2E2E2E2E2E2E2E2E2E2E2E2E2E2E2E2E2E2E2E2E2E2E2E2E2E2E2E2E228F50000F528E2E2E2E2E2E2E2E228E2E2282828282828E2E2E2282828282828282828282828E2E228282828
310
2828282828282828E228E2E2E2E2282828282828282828282828282828282828282828E2E2E2E2E2E2E2E2E2E2E2E2E2E2E2E2E2E2E2E2E228F50000F528E2E2E2E2E2E2E2E228E2E2282828282828E2E2E228E2E2E2E2E2E22828E22828E2E22828E20F0F0FE2E228E22828E228E2E2E2E228282828282828282828282828
310
2828282828282828E2E22828282828282828282828282828282828E2E228F50000F528E2E2E2E2E2E2E2E2282828282828282828E2E2E228E2E2E2E2E2E22828E22828E2282828E20F0F0FE2E228E228282828E2E2E2E2282828282828282828282828282828282828282828E2E22828282828282828282828282828282828
310
E2E228F50000F528E2E2E2E2E2E2E2E2E2E2E228E2E2E2E22828282828E2E2E2E2E2E2E22828E2E22828E22828282828282828E228E2E2E2E2E2E2E2E228282828E2E2E2E2E2E2E2282828282828282828E2E22828282828282828282828282828282828E2E228F50000F528E2E2E2E2E2E2E2E2E2E2E22828282828282828
310
2828282828282828282828282828282828282828282828282828E2E2E2E2E2E2E22828282828E2E2E2E2E2E2E228282828E2E2E2E2E2E2E22828282828282828282828282828282828E2E228F50000F528E2E2E2E2E2E2E2E2E2E2E2E2E2E2E2E2E2E2E2E2E2E2E2E2E2E2E2E2E2E2E2E2E2E2E2E2E2E2E2E2E2E2E2E2E2E2
310
E2E2E2E2E2E2E2E2E2E2E2E2E2E2E2E2E2E228282828E2E2E2E2E2E2E2E228282828E2E2E2E2E2E2E2E2E2E2E2E2E2E228F50000F528E2E2E2E2E2E2E2E2E2E2E2E2E2E2E2E2E2E2E2E2E2E2E2E2E2E2E2E2E2E2E2E2E2E2E2E2E2E2E2E2E2E2E2E2E2E2E2E2E2E2E2E2E2E2E2E2E2E2E2E2E2E2E2E228282828E2E2E2E2E2
310
E2E22828282828E2E2E2E2E2E2E2E2E2E2E2E2E2E228F50000F528E2E2E2E2E2E2E2E2E2E2E2E2E2E2E2E2E2E2E2E2E2E2E2E2E2E2E2E2E2E2E2E2E2E2E2E2E2E2E2E2E2E2E2E2E2E2E2E2E2E2E2E2E2E2E2E2E2E2E2E2E2E2E2E2E2E2E2E2E2E2E2E2E2E2E2E2E2E2E2E2E2E2E2E2E2E2E2E2E2E2E2E2E2E228F50000F528
310
E2E2E2E2E2E2E2E2E2E2E2E2E2E2E2E2E2E2E2E2E2E2E2E2E2E2E2E2E2E2E2E2E2E2E2E2E2E2E2E2E2E2E2E2E2E2E2E2E2E2E2E2E2E2E2DCDCDCDCDCDCDCDCDCDCDCDCDCDCDCDCDCDCDCDCDCDCE2E2E2E2E2E2E2E2E2E2E2E2E2E2E2E2E228F50000F528E2E2E2E2E2E2E2E2E2E2E2E2E2E2E2E2E2E2E2E2E2E2E2E2E2E2E2
310
E2E2E2E2E2E2E2E2E2E2E2E2E2E2E2E2E2E2E2E2E2E2E2E2E2E2E2DCE2DCDCDCDCDCDCDCDCE2DCDCDCDCDCDCDCDCDCDCDCE2DCE2E2E2E2E2E2E2E2E2E2E2E2E2E2E2E228F50000F528E2E2E2E2E2E2E2E2E2E2E2E2E2E2E2E2E2E2E2E2E2E2E2E2E2E2E2E2E2E2E2E2E2E2E2E2E2E2E2E2E2E2E2E2E2E2E2E2E2E2E2E2E2DC
310
E2DCDCDCDCDCDCDCDCDCE2DCDCDCDCDCDCDCDCDCDCDCE2E2DCE2E2E2E2E2E2E2E2E2E2E2E2E2E2E228F50000F528E2E2E2E2E2E2E2E2E2E2E2E2E2E2E2E2E2E2E2E2E2E2E2E2E2E2E2E2E2E2E2E2E2E2E2E2E2E2E2E2E2E2E2E2E2E2E2E2E2E2E2E2E2E2DCDCDCDCDCDCDCDCE2E2E2E2E2E2E2E2E2E2E2E2E2E2E2DCE2E2E2
310
E2E2E2E2E2E2E2E2E2E2E2E2E228F50000F528E2E2E2E2E2E2E2E2E2E2E2E2E2E2E2E2E2E2E2E2E2E2E2E2E2E2E2E2E2E2E2E2E2E2E2E2E2E2E2E2E2E2E2E2E2E2E2E2E2E2E2E2E2E2DCDCDCDCDCDCDCDCDCDCDCDCDCDCDCDCDCDCDCDCDCDCDCDCE2E2E2E2E2E2E2E2E2E2E2E2E2E2E2E228F50000F528E2E2E2E2E2E2E2E2
310
E2E2E2E2E2E2E2E2E2E2E2E2E2E2E2E2E2E2E2E2E2E2E2E2E2E2E2E2E2E2E2E2E2E2E2E2E2E2E2E2E2E2E2E2E2E2E2E2E2E2E2E2E2E2E2E2E2E2E2E2E2E2E2E2E2E2E2E2E2E2E2E2E2E2E2E2E2E2E2E2E2E2E2E2E2E228F500D6F528E2E2E2E2E2E2E2E2E2E2E2E2E2E2E2E2E2E2E2E2E2E2E2E2E2E2E2E2E2E2E2E2E2E2E2
310
E2E2E2E2E2E2E2E2E2E2E2E2E2E2E2E2E2E2E2E2E2E2E2E2E2E2E2E2E2E2E2E2E2E2E2E2E2E2E2E2E2E2E2E2E2E2E2E2E2E2E2E2E2E2E2E2E2E2E228F5157CF528E2E2E2E2E2E2E2E2E2E2E2E2E2E2E2E2E2E2E2E2E2E2E2E2E2E2E2E2E2E2E2E2E2E2E2E2E2E2E2E2E2E2E2E2E2E2E2E2E2E2E2E2E2E2E2E2E2E2E2E2E2E2
310
E2E2E2E2E2E2E2E2E2E2E2E2E2E2E2E2E2E2E2E2E2E2E2E2E2E2E2E2E2E2E2E228F50000F528E2E2E2E2E2E2E2E20FF5F5F5F5F5F5F5F5F5F5F5F5F5F5F5F5F5F5DCDCDCF5F5F5F5F5F5F5F5F5F5F5F5F5F5F5F5F5F5E2E2E2E2E2E2E2E2E2E20FF5F5F5F5F5F5F5F5F5F5F5F5F5DCDCDCDCDCF5F5F5F5F5F5F5F5F5F5F5F5
310
F5F5E2E2E228F5147CF528E2E2E2E2E2E2E2E2F5E2E2E2E2E2E2E2E2E2E2E2E2E2E2E2E2E2E2DCDCDCE2E2E2E2E2E2E2E2E2E2E2E2E2E2E2E2E2F5E2E2E2E2E2E2E2E2E2E2F5E2E2E2E2E2E2E2E2E2E2E2E2E2DCDCDCDCDCE2E2E2E2E2E2E2E2E2E2E2E2E2F5E2E2E228F50000F528E2E2E2E2E2E2E2E2F5E2F5E2E2E2E2E2
310
E2E2E2E2E2E2E2E2E2E2E2E2E2E2E2E2E2E2E2E2E2E2E2E2E2E2E2E2E2F5F5F5F5E2E2E2E2E2E2E2E2E2F5E2E2F5F5F5E2E2E2E2E2E2E2E2E2F5F5E2E2E2E2E2E2E2E2E2E2E2E2E2E2F5F5E2E2E228F50000F528E2E2E2E2E2E2E2F5F5DCF5F5F5F5F5F5F5F5F5F5F5F5F5F5F5F5F5DCDCDCF5F5F5F5F5F5F5F5F5F5F5F5F5
310
F5F5F5F5F5F5E2E2E2E2E2E2E2E2E2F5DCDCDC0FF5F5F5F5DCDCDCF5F5F5F50FF5F5F5F5F5F5DCDCDCF5F5F5F5F5F5F5E2E2E228F5157CF528E2E2E2E2E2E2E2E2F5DCF5E2E2E2E2E2E2E2E2E2E2E2E2E2E2E2E2DCDCDCE2E2E2E2E2E2E2E2E2E2E2E2E2E2E2E2F5F5E2E2E2E2E2E2E2E2E2E2F5DCDCDCF5E2E2E2E2DCDCE2
310
E2E2E2E2F5E2E2E2E2E2E2DCDCDCE2E2E2E2E2E2F5E2E2E228F50000F528E2E2E2E2E2E2E2E2F5E2F5E2E2E2E2E2E2E2E2E2E2E2E2E2E2E2E2E2E2E2E2E2E2E2E2E2E2E2E2E2E2E2E2DCF5F5F5F5F5E2E2E2E2E2E2E2E2E2F5E2E2E2F5E2E2E2E2E2E2E2E2E2E2E2F5E2E2E2E2E2E2E2E2E2E2E2E2E2E2E2F5E2E2E228F500
310
00F528E2E2E2E2E2E2E2E2F5E2F5E2E2E2E2E2E2E2E2E2E2E2E2E2E2E2E2E2E2E2E2E2E2E2E2E2E2E2E2E2E2E2E2DCE2F5F5F5E2E2E2E2E2E2E2E2E2E2F5E2E2E2F5E2E2E2E2E2E2E2E2E2E2E2F5E2E2E2E2E2E2E2E2E2E2E2E2E2F5F5F5F5E2E228F50000F528E2E2E2E2E2E2E2E2F5E2F5E2E2E2E2E2E2E2E2E2E2E2E2E2
310
E2E2E2E2E2E2E2E2E2E2E2E2E2E2E2E2E2E2E2E2E2F5F5F5E2E2DCDCE2E2E2E2E2E2F5E2E2E2F5E2E2E2E2E2E2E2E2E2E2E2F5E2E2E2E2E2E2E2E2E2E2E2E2E2F50FF5F5E2E228F50000F528E2E2E2E2E2E2E2E2F5E2F5E2E2E2E2E2E2E2E2E2E2E2E2E2E2E2E2E2E2E2E2E2E2E2E2E2E2E2E2E2E2E2E2E2E2F5F5F5E2E2DC
310
DCE2E2E2E2E2E2F5E2E2E2F5E2E2E2E2E2E2E2E2E2E2E2F5E2E2E2E2E2E2E2E2E2E2E2E2E2E2DCF5E2E2E228F50000F528E2E2E2E2E2E2E2E2F5E20F28282828282828282828282828282828282828282828282828282828282828282828F50FF5F5F5F50FF5F50FE2E2E2F52828280F28282828282828282828280F282828
310
28282828282828282828280F0FE2E2E228F50000F528E2E2E2E2E2E2E2E20F282828E2E2E2E2E2E2E2E228E2E2E2E22828E2E2E2E2E2E2E2E2E2E2E2E2E2E2E2E2E2280F0F0FE2E2E2F5E2E2F5E2E2E2F528E2E228E22828E2E2E2E2E2E2E2E228E2E2E2E2E2282828282828E2E2E22828E2E2E228F50000F528E2E2E2E2E2
310
E2E2E228282828E2E2E2E2E2E2E2E228E2E2E2282828E228282828282828282828282828E2E2E22828280FF5F5F5F5F5E2F5E2E2E2F528E2E228C32828C3C3C3C3C3C3C3C3C328E2E2E2E2E228282828E2E2E2F52828F5E2E228F50000F528E2E2E2E2E2E2E2E22828F528E2E2E2E2E2E2E2E228E2E2E2E22828E228E2E2E2
310
E22828E2E2E2E2E228E2E2E22828F528E2E2E2F5E2E2F5E2E2E2F5E2282828C3C3C3282828C3C3C3C3C3C328E2E2E2E2E228282828E2E228282828E2E2E228F50000F528E2E2E2E2E2E2E2E228E2E228E2E2E2E2E2E2E2E228E2E2E228C3C3E228282828282828282828282828E2E2E22828E228E2E2E2F5E2E2F5E2E2E2F5
310
E228E2E2E2E2E2E2E2E2E2E2E2E2E22828282828282828282828282828E2E228E2E2E228F50000F528E2E2E2E2E2E2E2E228E2E228E2E2E2E2E2E2E2E228E2E2E2E2C328E2E2E2E2E2E2E2E2E2E2E2E2E2E2E2E2E22828E228E2E2E2F5E2E2F5E2E2E2F5E228E2E2E2E2E2E2E2E2E2E2E2E2E228E2E2E2E2E2E2E2E2E2E2E2
310
E2E2E2E228E2E2E228F50000F528E2E2E2E2E2E2E2E228E2E228E2E2E2E2E2E2E2E228E2E2E2E2E2E2E228282828E2E2E2E2E2E2E2E2E2E2E2E228282828E2E2E2F5E2E2F5E2E2E20FE2282828282828282828282828282828E2E2E2E2E2E2E2E2E2E2E2E2E2E2E228E2E2E228F50000F528E2E2E2E2E2E2E2E228E2E228E2
310
E2E2E2E2E2E2E228E2E2E2E2E2E2E228282828282828E2E2E2E2E2E2E2E2E22828E228E2E2E2F5E2E2F5E2E2E228E2282828282828282828282828282828E2E2E2E2E2E2E2E2E2E2E2E2E2E2E228E2E2E228F50000F528E2E2E2E2E2E2E2E228E2E228E2E2E2E2E2E2E2E228E2E2E2E2E2E2E2E2E2E2282828282828282828
310
28E2E2E22828E228E2E2E2F5E2E2F5E2E2E228E2282828282828282828282828282828E2E2E2E2E2E2E2E2E2E2E2E2E2E2E228E2E2E228F50000F528E2E2E2E2E2E2E2E228E2E228E2E2E2E2E2E2E2E228E2E2E2E2E2E2E2E2E2E228282828282828282828E2E2E22828E228E2E2E2F5E2E2F5E2E2E228E228282828282828
310
2828282828282828E2E2E2E2E2E2E2E2E2E2E2E2E2E2E228E2E2E228F50044F528E2E2E2E2E2E2E2E228E2E228E2E2E2E2E2E2E2E228E2E2E2E2E2E2E2E2E2E2E2E2E2E2E2E2E2E2E2E2E2E2E22828E228E2E2E2F5E2E2F5E2E2E228E228C3C3C3C3C3C3C3C3C3C3C3C3E228E2E2E2E2E2E2E2E2E2E2E2E2E2E2E228E2E2E2
310
28F5157CF528E2E2E2E2E2E2E2E228E2E228E2E2E2E2E2E2E2E228E2E2E2E2E2E2E2E2E2E2E2E2E2E2E2E2E2E2E2E2E2E2E22828E228E2E2E2F5E2E2F5E2E2E2E22828C3E2E2E2E20F0FE2E2E2E2C3E228E2E2E2E2E2E2E2E2E2E2E2E2E2E2E228E2E2E228F500B4F528E2E2E2E2E2E2E2E228E2E2C3C3C3C3C3C3C3C3C3C3
310
C3C3C3C3C3C3C3C3C3C3C3C3C3C3C3C3C3C3C3C3C3C3C3C328E228E2E2E2F5E2E2F5E2E2E2E22828C3E20F0F0F0F0F0F0FE2E2C3E228E2E2E2E2E2E2E2E2E2E2E2E2E2E2E228E2E2E228F5CB05F528E2E2E2E2E2E2E2E228E2E228E2E2E2E2E2E2E2E228E2E2E2E2E2E2E2E2E2E2E2E2E2E2E2E2E2E2E2E2E2E2E22828E228
310
E2E2E2F5E2E2F5E2E2E2E22828C3E20F0F0F0F0F0FE2E2E2C3E228E2E2E2E2E2E2E2E2E2E2E2E2E2E2E228E2E2E228F50000F528E2E2E2E2E2E2E2E228E2E228E2E2E2E2E2E2E2E228E2E2E2E2E2E2E2E2C3C3C3C3C3C3C3C3C3C3C3C3E2E2E22828E228E2E2DCDCE2DCDCE2E2E2E2E228C3E20F0F0F0F0FE2E2E2E2C3E228
310
E2E2E2E2E2E2E2E2E2E2E2E2E2E2E228E2E2E228F500B1F528E2E2E2E2E2E2E2E228E2E228E2E2E2E2E2E2E2E228E2E2E2E2E2E2C3C32828282828282828282828C3C3E2E22828E228E2E2DCDCE2DCDCE2E2E2E2E228C3E2E2E2E2E2E2E2E2E2E2C3E228E2E2E2E2E2E2E2E2E2E2E2E2E2E2E228E2E2E228F50021F528E2E2
310
E2E2E2E2E2E228E2E228E2E2E2E2E2E2E2E228E2E2E2E2E2E2C328282828282828282828282D2DC3E2E22828E228E2E2DCDCE2DCDCE2E2E2E2E228C3C3C3C3C3C3C3C3C3C3C3C3E228E2E2E2E2E2E2E2E2E2E2E2E2E2E2E228E2E2E228F50000F528E2E2E2E2E2E2E2E228E2E228E2E2E2E2E2E2E2E228E2E2E2E2E2E2C328
310
2DE2E2E2E2E2282D2D282D2DC3E2E22828E228E2E2E2F5E2E2F5E2E2E2E2E2282828282828282828282828E2E228E2E2E2E2E2E2E2E2E2E2E2E2E2E2E228E2E2E228F500A3F528E2E2E2E2E2E2E2E228E2E2C3C3C3C3C3C3C3C3C3C3C3C3C3C3C3C3C3282DE2E2E2E2E2282828282D2DC3C3C3C328E228E2E2E2F5E2E2F5E2
310
E2E2E2E2282828282828282828282828E2E228E2E2E2E2E2E2E2E2E2E2E2E2E2E2E228E2E2E228F5009EF528E2E2E2E2E2E2E2E228E2E228E2E2E2E2E2E2E2E228E2E2E2E2E2E2C32828282828282828E2282D282828E2E22828E228E2E2E2F5E2E2F5E2E2E2E2E2282828282828282828282828E2E228E2E2E2E2E2E2E2E2
310
E2E2E2E2E2E2E228E2E2E228F50000F528E2E2E2E2E2E2E2E228E2E228E2E2E2E2E2E2E2E228E2E2E2E2E2E2C3282828282828282828E22D2D2828E2E22828E228E2E2E2F5E2E2F5E2E2E2E2E2282828282828282828282828E2E228E2E2E2E2E2E2E2E2E2E2E2E2E2E2E228E2E2E228F50000F528E2E2E2E2E2E2E2E228E2
310
E228E2E2E2E2E2E2E2E228E2E2E2E2E2E2C3282DE2E2E2E2E228E2282D282828E2E22828E228E2E2E2F5E2E2F5E2E2E2E2E2282828282828282828282828E2E228E2E2E2E2E2E2E2E2E2E2E2E2E2E2E228E2E2E228F50028F528E2E2E2E2E2E2E2E228E2E228E2E2E2E2E2E2E2E228E2E2E2E2E2E2C3282DE2E2E2E2E22828
310
282D2D2828E2E22828E228E2E2E2F5E2E2F5E2E2E2E2E2282828282828282828282828E2E228E2E2E2E2E2E2E2E2E2E2E2E2E2E2E228E2E2E228F50000F528E2E2E2E2E2E2E2E228E2E228E2E2E2E2E2E2E2E228E2E2E2E2E2E2C3282D282828282828E2282D2D2828E2E22828E228E2E2E2F5E2E2F5E2E2E2E2E228282828
310
2828282828282828282828E2E2E2E2E2E2E2E2E2E2E2E2E2E2E228E2E2E228F50000F528E2E2E2E2E2E2E2E228E2E228E2E2E2E2E2E2E2E228E2E2E2E2E2E2C328E2E2E2E2C328E2E2282828E228E2E22828E228E2E2E2F5E2E2F5E2E2E2E2E2282828282828282828282828282828E2E2E2E2E2E2E2E2E2E2E2E2E2E2E228
310
E2E2E228F50078F528E2E2E2E2E2E2E2E228E2E228E2E2E2E2E2E2E2E228E2E2E2E2E2E2C328E2E2E2E2C328E2E22D2D2DE228E2E22828E228E2E2E2F5E2E2F5E2E2E2E2E2282828282828282828282828282828E2E2E2E2E2E2E2E2E2E2E2E2E2E2E228E2E2E228F50066F528E2E2E2E2E2E2E2E22828E228E2E2E2E2E2E2
310
E2E228E2E2E2E2E2E2C3C328282828C3C3E2E2282828E2C3E2E22828E228E2E2E2F5E2E2F5E2E2E2E2E228282828282828282828282828282828282828282828282828282828282828E2E2E228F500EBF528E2E2E2E2E2E2E2E228E22828E2E2E2E2E2E2E2E228E2E2E2E2E2E2C3C3C3C3C3C3C3C3C3C3C3C3C3C3C3E2E228
310
28F528E2E2E2F5E2E2F5E2E2E2E2E2282828C3C3C3C3C3C3C3C3C3C3C3C3C3E2E2E2E2E2E2E2E2E2E2E2E2E22828E2E2E228F50047F528E2E2E2E2E2E2E2E22828F528E2E2E2E2E2E2E2E228E2E2E2E2E2E2E2E2E2E2E2E2E2E2E2E2E2E2E2E2E2E2E228F5F50FF5F5F50FF5E2F5E2E2E2E2E228E228C3C3C3C3C3C3C3C3C3
310
C3C3C3C3E2E2E2E2E2E2E2E2E2E2E2E2F52828F5E2E228F50065F528E2E2E2E2E2E2E2E22828F5F528282828282828282828282828282828282828282828282828282828282828282828F50FF5F5F5F5F5F5F5E2E2E2E2E228282828282828282828282828282828282828282828282828282828282828E2E2E228F5003DF5
310
28E2E2E2E2E2E2E2E2E2E2E2F5E2E2E2E2E2E2E2E2E2E2E2E2E2E2E2E2E2E2E2E2E2E2E2E2E2E2E2E2E2E2E2E2E2E2E2E2E2E2E2F5E2E2E2E2E2E2E2E2E2E2E2E2E2E2E2E2E2E2E2E2E2E2E2E2E2E2E2E2E2E2E2E2E2E2E2E2E2E2E2E2E2E228F500D8F528E2E2E2E2E2E2E2E2E2E2E2E2F5F5F5F5F5F5F5F5F5F5F5F5E2E2
310
E2E2E2E2E2E2E2E2E2E2E2E2E2E2E2E2E2E2E2E2E2E2E2E2DCDCE2E2E2E2E2E2E2E2E2E2E2E2E2E2E2E2E2E2E2E2E2E2E2E2E2E2E20F0F0F0F0F0F0FE2E2E2E2E20FE2E228F5002FF528E2E2E2E2E2E2E2E2E2E2E2E2E20F0F0F0F0F0F0FE20F0F0F0F0F0F0F0F0F0FE20F0FE2E2E2E2E2E2E2E2E2E2E2E2E2E2E2E2E2F5E2
310
E2E2E2E2E2E2E2E2E2E2E2E2E2E2E2E2E2E2E2E2E2E2E2E2E2E20F0F0F0F0F0F0FE20F0F0F0F0FE2E228F500C5F528E2E2E2E2E2E2E2E2E2E2E2E2E20F0FE2E20FE2E2E20F0F0F0F0FE2E2E20F0F0F0F0FE2E2E2E2E2E2E2E2E2E2E2E2E2E2E2E2E2E2E2E2E2E2E2E2E2E2E2E2E2E2E2E2E2E2E2E2E2E2E2E2E2E2E2E2E20F
310
E20F0F0F0F0F0F0F0F0F0F0FE2E228F50076F528E2E2E2E2E2E2E2E2E2E2E2E2E20F0F0F0F0F0F0FE2E2E2E20F0F0F0FE20F0F0F0F0FE2E2E2E2E2E2E2E2E2E2E2E2E2E2E2E2E2E2E2E2E2E2E2E2E2E2E2E2E2E2E2E2E2E2E2E2E2E2E2E2E2E2E2E2E20F0F0F0F0F0F0F0FE2E2E2E20FE2E228F50000F528E2E2E2E2E2E2E2
310
E2E2E2E2E2E20F0FE20F0F0F0FE2E2E2E20F0F0F0FE2E2E2E20F0FE2E2E2E2E2E2E2E2E2E2E2E2E2E2E2E2E2E2E2E2E2E2E2E2E2E2E2E2E2E2E2E2E2E2E2E2E2E2E2E2E2E2E2E2E2E20F0F0F0F0F0F0FE2E2E2E20FE2E228F50026F528E2E2E2E2E2E2E2E2E2E2E2E2E2E2E2E2E2E2E2E2E2E2E2E2E2E2E2E2E2E2E2E2E2E2
310
E2E2E2E2E2E2E2E2E2E2E2E2E2E2E2E2E2E2E2E2E2E2E2E2E2E2E2E2E2E2E2E2E2E2E2E2E2E2E2E2E2E2E2E2E2E2E2E2E2E2E2E2E2E2E2E2E2E2E2E228F500B2F528E2E2E2E2E2E2E2E2E2E2E2E2E2E2E2E2E2E2E2E2E2E2E2E2E2E2E2E2E2E2E2E2E2E2E2E2E2E2E2E2E2E2E2E2E2E2E2E2E2E2E2E2E2E2E2E2E2E2E2E2E2
310
E2E2E2E2E2E2E2E2E2E2E2E2E2E2E2E2E2E2E2E2E2E2E2E2E2E2E2E2E2E2E2E2E228F50000F528E2E2E2E2E2E2E2E2E2E2E2E2E2DCDCDCDCDCDCDCDCDCDCDCDCDCDCDCDCDCDCDCDCDCDCDCE2E2E2E2E2E2E2E2E2E2E2E2E2E2E2E2E2E2E2E2E2E2E2E2E2E2E2E2E2E2E2E2E2E2E2E2E2E2E2E2E2E2E2E2E2E2E2E2E2E2E2E2
310
E2E2E2E2E2E228F5009FF528E2E2E2E2E2E2E2E2E2E2E2E2E2DCDCDCDCDCDCDCDCDCE2DCDCDCDCDCDCDCDCDCDCE2E2DCE2E2E2E2E2E2E2E2E2E2E2E2E2E2E2E2E2E2E2E2E2E2E2E2E2E2E2E2E2E2E2E2E2E2E2E2E2E2E2E2E2E2E2E2E2E2E2E2E2E2E2E2E2E2E2E2E2E228F50039F528E2E2E2E2E2E2E2E2E2E2E2E2DCE2DC
310
DCDCDCDCDCDCE2E2E2E2E2E2E2E2E2E2E2E2E2E2E2DCE2E2E2E2E2E2E2E2E2E2E2E2E2E2E2E2E2E2E2E2E2E2E2E2E2E2E2E2E2E2E2E2E2E2E2E2E2E2E2E2E2E2E2E2E2E2E2E2E2E2E2E2E2E2E2E2E228F50000F528E2E2E2E2E2E2E2E2E2E2E2E2E2DCDCDCDCDCDCDCDCE2E2E2E2E2E2E2E2E2E2E2E2E2E2DCE2E2E2E2E2E2
310
E2E2E2E2E2E2E2E2E2E2E2E2E2E2E2E2E2E2E2E2E2E2E2E2E2E2E2E2E2E2E2E2E2E2E2E2E2E2E2E2E2E2E2E2E2E2E2E2E2E2E2E228F50000F528E2E2E2E2E2E2E2E2E2E2E2E2E2E2DCDCDCDCDCDCDCDCDCDCDCDCDCDCDCDCDCDCDCDCDCE2E2E2E2E2E2E2E2E2E2E2E2E2E2E2E2E2E2E2E2E2E2E2E2E2E2E2E2E2E2E2E2E2E2
310
E2E2E2E2E2E2E2E2E2E2E2E2E2E2E2E2E2E2E2E2E2E2E2E2E228F5008CF528E2E2E2E2E2E2E2E2E2E2E2E2E2E2E2E2E2E2E2E2E2E2E2E2E2E2E2E2E2E2E2E2E2E2E2E2E2E2E2E2E2E2E2E2E2E2E2E2E2E2E2E2E2E2E2E2E2E2E2E2E2E2E2E2E2E2E2E2E2E2E2E2E2E2E2E2E2E2E2E2E2E2E2E2E2E2E2E2E2E2E2E2E2E228F5
310
0000F528E2F5F5F5F5F5F5F5F5F5F5F5F5F5F5F5F5F5F5F5F5F5F5F5F5F5F5F5F5F5F5F5F5F5F5F5F5F5F5F5F5F5F5F5F5F5F5F5F5F5F5F5F5F5F5F5F5F5F5F5F5F5F5F5F5F5F5F5F5F5F5F5F5F5F5F5F5F5F5F5F5F5F5F5F5F5F5F5F5F5F5F5E2E228F50079F528E2F5F5F5F5F5F5F5F5F5F5F5F5F5F5F5F5F5F5F5F5F5F5
310
F5F5F5F5F5F5F5F5F5F5F5F5F5F5F5F5F5F5F5F5F5F5F5F5F5F5F5F5F5F5F5F5F5F5F5F5F5F5F5F5F5F5F5F5F5F5F5F5F5F5F5F5F5F5F5F5F5F5F5F5F5F5F5F5F5F5F5F5F5F5E228F5009EF528E2F5F5F5F5F5F5F5F5F5F5F5F5F5F5F5F5F5F5F5F5F5F5F5F5F5F5F5F5F5F5F5F5F5F5F5F5F5F5F5F5F5F5F5F5F5F5F5F5F5
310
F5F5F5F5F5F5F5F5F5F5F5F5F5F5F5F5F5F5F5F5F5F5F5F5F5F5F5F5F5F5F5F5F5F5F5F5F5F5F5F5F5F5F5E228F500ECF528E2E22828282828E2E2E2E2E2E2E2DCE2DCDCE2DCDCDCDCDCDCE2E2DCDCDCDCDCDCE2DCE2E2E2DCDCDCDCDCDCDCDCE2E2DCE2E2E2DCDCDCE2DCDCDCE2E2E2E2F5F5F5F5F5F5F5F5E2F5E2282828
310
282828282828282828E2E2E2E2E2E2E2E228F500A7F528E2E2282828282828E2E2E2E2E2E2DCE2DCDCDCDCDCDCDCDCDCDCDCDCDCDCDCDCDCE2E2DCE2E2DCDCDCDCDCDCDCDCE2E2DCE2E2E2DCDCDCE2DCDCDCE2E2E2E2F5F5F5F5F5F5F5F5F5E2E2282828282828282828282828E2E2E2E2E2E2E2E228F50066F528E2E22828
310
28282828E2E2E2E2E2E2DCDCDCDCE2DCDCDCDCDCDCE2E2DCDCDCDCDCDCE2E2DCE2E2DCDCDCDCDCDCDCDCE2E2E2DCE2E2DCDCE2DCDCDCDCE2E2E2E2F5F5F5F5F5F5F5F5F5E22828282828E2E2E2E2E2E2E2E2E2E2E2E2E2E2E2E228F500D2F528E2E2282828282828E2E2E2E2E2E2DCDCDCE2E2DCDCDCDCDCDCE2E2DCDCDCDC
310
DCDCE2E2E2DCE2DCDCDCDCDCDCDCDCE2E2E2DCE2E2DCDCDCDCDCDCDCE2E2E2E2F5F5F5F5F5F5F5F5F5E22828282828E2E2E2E2E2E2E2E2E2E2E2E2E2E2E2E228F50053F528E2F5F5F5F5F5F5F5F5F5F5F5F5F5F5F5F5F5F5F5F5F5F5F5F5F5F5F5F5F5F5F5F5F5F5F5F5F5F5F5F5F5F5F5F5F5F5F5F5F5F5F5F5F5F5F5F5F5
310
F5F5F5F5F5F5F5F5F5F5F5F5F5F5F5F5F5F5F5F5F5F5F5F5F5F5F5F5F5F5F5F5F5F5F5E228F5000BF528E2F5F5F5F5F5F5F5F5F5F5F5F5F5F5F5F5F5F5F5F5F5F5F5F5F5F5F5F5F5F5F5F5F5F5F5F5F5F5F5F5F5F5F5F5F5F5F5F5F5F5F5F5F5F5F5F5F5F5F5F5F5F5F5F5F5F5F5F5F5F5F5F5F5F5F5F5F5F5F5F5F5F5F5F5
310
F5F5F5F5F5F5F5F5E228F500D9F528E2E2F5F5F5F5F5F5F5F5F5F5F5F5F5F5F5F5F5F5F5F5F5F5F5F5F5F5F5F5F5F5F5F5F5F5F5F5F5F5F5F5F5F5F5F5F5F5F5F5F5F5F5F5F5F5F5F5F5F5F5F5F5F5F5F5F5F5F5F5F5F5F5F5F5F5F5F5F5F5F5F5F5F5F5F5F5F5F5F5F5F5F5E228F50057F528E2E2E2E2E2E2E2E2E2E2E2E2
310
E2E2E2E2E2E2E2E2E2E2E2E2E2E2E2E2E2E2E2E2E2E2E2E2E2E2E2E2E2E2E2E2E2E2E2E2E2E2E2E2E2E2E2E2E2E2E2E2E2E2E2E2E2E2E2E2E2E2E2E2E2E2E2E2E2E2E2E2E2E2E2E2E2E2E2E2E2E2E2E2E2E228F50040F528282828282828282828282828282828282828282828282828282828282828282828282828282828
310
2828282828282828282828282828282828282828282828282828282828282828282828282828282828282828282828282828282828282828F500F0F5F5F5F5F5F5F5F5F5E2E2E2E2E2E2E2E2E2F5F5F5F5F5F5F5F5F5F5F5F5F5F5F5E2E2E2E2E2E2E2E2F5F5F5F5F5F5F5F5F5F5F5F5F5F5F5F5E2E2E2E2E2E2E2E2F5F5F5
310
F5F5F5F5F5F5F5F5F5F5F5F5E2E2E2E2E2E2E2E2E2F5F5F5F5F5F5F5F5F500B3F5E2E2E2E2E2E2E2E2E2E2E2E2E2E2E2E2E2E2E2E2E2E2E2E2E2E2E2E2E2E2E2E2E2E2E2E2E2E2E2E2E2E2E2E2E2E2E2E2E2E2E2E2E2E2E2E2E2E2E2E2E2E2E2E2E2E2E2E2E2E2E2E2E2E2E2E2E2E2E2E2E2E2E2E2E2E2E2E2E2E2E2E2E2E2
310
E2E2F50000F5F5F5F5F5F5F5F5F5F5F5F5F5F5F5F5F5F5F5F5F5F5F5F5F5F5F5F5F5F5F5F5F5F5F5F5F5F5F5F5F5F5F5F5F5F5F5F5F5F5F5F5F5F5F5F5F5F5F5F5F5F5F5F5F5F5F5F5F5F5F5F5F5F5F5F5F5F5F5F5F5F5F5F5F5F5F5F5F5F5F5F5F5F5F5F5F5F500A0EFEFEFEFEFEFEFEFEFEFEFEFEFEFEFEFEFEFEFEFEFEF
310
EFEFEFEFEFEFEFEFEFEFEFEFEFEFEFEFEFEFEFEFEFEFEFEFEFEFEFEFEFEFEFEFEFEFEFEFEFEFEFEFEFEFEFEFEFEFEFEFEFEFEFEFEFEFEFEFEFEFEFEFEFEFEFEFEFEFEFEFEFEFEFEFEFEFEFEF000D
  0
ENDSEC
  0
EOF
