  0
SECTION
  2
HEADER
  9
$ACADVER
  1
AC1015
  9
$ACADMAINTVER
 70
    10
  9
$DWGCODEPAGE
  3
ANSI_932
  9
$INSBASE
 10
0.0
 20
0.0
 30
0.0
  9
$EXTMIN
 10
1411.279347621572
 20
846.3718951534938
 30
0.0
  9
$EXTMAX
 10
2250.047655188641
 20
1346.371895153493
 30
0.0
  9
$LIMMIN
 10
0.0
 20
0.0
  9
$LIMMAX
 10
420.0
 20
297.0
  9
$ORTHOMODE
 70
     1
  9
$REGENMODE
 70
     1
  9
$FILLMODE
 70
     1
  9
$QTEXTMODE
 70
     0
  9
$MIRRTEXT
 70
     1
  9
$LTSCALE
 40
1.0
  9
$ATTMODE
 70
     1
  9
$TEXTSIZE
 40
2.5
  9
$TRACEWID
 40
1.0
  9
$TEXTSTYLE
  7
STANDARD
  9
$CLAYER
  8
0
  9
$CELTYPE
  6
BYLAYER
  9
$CECOLOR
 62
   256
  9
$CELTSCALE
 40
1.0
  9
$DISPSILH
 70
     0
  9
$DIMSCALE
 40
1.0
  9
$DIMASZ
 40
2.5
  9
$DIMEXO
 40
0.625
  9
$DIMDLI
 40
3.75
  9
$DIMRND
 40
0.0
  9
$DIMDLE
 40
0.0
  9
$DIMEXE
 40
1.25
  9
$DIMTP
 40
0.0
  9
$DIMTM
 40
0.0
  9
$DIMTXT
 40
2.5
  9
$DIMCEN
 40
2.5
  9
$DIMTSZ
 40
0.0
  9
$DIMTOL
 70
     0
  9
$DIMLIM
 70
     0
  9
$DIMTIH
 70
     0
  9
$DIMTOH
 70
     0
  9
$DIMSE1
 70
     0
  9
$DIMSE2
 70
     0
  9
$DIMTAD
 70
     1
  9
$DIMZIN
 70
     8
  9
$DIMBLK
  1

  9
$DIMASO
 70
     1
  9
$DIMSHO
 70
     1
  9
$DIMPOST
  1

  9
$DIMAPOST
  1

  9
$DIMALT
 70
     0
  9
$DIMALTD
 70
     3
  9
$DIMALTF
 40
0.03937007874016
  9
$DIMLFAC
 40
1.0
  9
$DIMTOFL
 70
     1
  9
$DIMTVP
 40
0.0
  9
$DIMTIX
 70
     0
  9
$DIMSOXD
 70
     0
  9
$DIMSAH
 70
     0
  9
$DIMBLK1
  1

  9
$DIMBLK2
  1

  9
$DIMSTYLE
  2
ISO-25
  9
$DIMCLRD
 70
     0
  9
$DIMCLRE
 70
     0
  9
$DIMCLRT
 70
     0
  9
$DIMTFAC
 40
1.0
  9
$DIMGAP
 40
0.625
  9
$DIMJUST
 70
     0
  9
$DIMSD1
 70
     0
  9
$DIMSD2
 70
     0
  9
$DIMTOLJ
 70
     0
  9
$DIMTZIN
 70
     8
  9
$DIMALTZ
 70
     0
  9
$DIMALTTZ
 70
     0
  9
$DIMUPT
 70
     0
  9
$DIMDEC
 70
     0
  9
$DIMTDEC
 70
     0
  9
$DIMALTU
 70
     2
  9
$DIMALTTD
 70
     3
  9
$DIMTXSTY
  7
STANDARD
  9
$DIMAUNIT
 70
     0
  9
$DIMADEC
 70
     0
  9
$DIMALTRND
 40
0.0
  9
$DIMAZIN
 70
     0
  9
$DIMDSEP
 70
    46
  9
$DIMATFIT
 70
     3
  9
$DIMFRAC
 70
     0
  9
$DIMLDRBLK
  1

  9
$DIMLUNIT
 70
     2
  9
$DIMLWD
 70
    -2
  9
$DIMLWE
 70
    -2
  9
$DIMTMOVE
 70
     0
  9
$LUNITS
 70
     2
  9
$LUPREC
 70
     4
  9
$SKETCHINC
 40
1.0
  9
$FILLETRAD
 40
10.0
  9
$AUNITS
 70
     0
  9
$AUPREC
 70
     0
  9
$MENU
  1
.
  9
$ELEVATION
 40
0.0
  9
$PELEVATION
 40
0.0
  9
$THICKNESS
 40
0.0
  9
$LIMCHECK
 70
     0
  9
$CHAMFERA
 40
10.0
  9
$CHAMFERB
 40
10.0
  9
$CHAMFERC
 40
20.0
  9
$CHAMFERD
 40
0.0
  9
$SKPOLY
 70
     0
  9
$TDCREATE
 40
2453312.371317361
  9
$TDUCREATE
 40
2453311.996317361
  9
$TDUPDATE
 40
2454637.663268784
  9
$TDUUPDATE
 40
2454637.288268784
  9
$TDINDWG
 40
0.0830724537
  9
$TDUSRTIMER
 40
0.0830721528
  9
$USRTIMER
 70
     1
  9
$ANGBASE
 50
0.0
  9
$ANGDIR
 70
     0
  9
$PDMODE
 70
    34
  9
$PDSIZE
 40
0.0
  9
$PLINEWID
 40
0.0
  9
$SPLFRAME
 70
     0
  9
$SPLINETYPE
 70
     6
  9
$SPLINESEGS
 70
     8
  9
$HANDSEED
  5
2664
  9
$SURFTAB1
 70
     6
  9
$SURFTAB2
 70
     6
  9
$SURFTYPE
 70
     6
  9
$SURFU
 70
     6
  9
$SURFV
 70
     6
  9
$UCSBASE
  2

  9
$UCSNAME
  2

  9
$UCSORG
 10
0.0
 20
0.0
 30
0.0
  9
$UCSXDIR
 10
1.0
 20
0.0
 30
0.0
  9
$UCSYDIR
 10
0.0
 20
1.0
 30
0.0
  9
$UCSORTHOREF
  2

  9
$UCSORTHOVIEW
 70
     0
  9
$UCSORGTOP
 10
0.0
 20
0.0
 30
0.0
  9
$UCSORGBOTTOM
 10
0.0
 20
0.0
 30
0.0
  9
$UCSORGLEFT
 10
0.0
 20
0.0
 30
0.0
  9
$UCSORGRIGHT
 10
0.0
 20
0.0
 30
0.0
  9
$UCSORGFRONT
 10
0.0
 20
0.0
 30
0.0
  9
$UCSORGBACK
 10
0.0
 20
0.0
 30
0.0
  9
$PUCSBASE
  2

  9
$PUCSNAME
  2

  9
$PUCSORG
 10
0.0
 20
0.0
 30
0.0
  9
$PUCSXDIR
 10
1.0
 20
0.0
 30
0.0
  9
$PUCSYDIR
 10
0.0
 20
1.0
 30
0.0
  9
$PUCSORTHOREF
  2

  9
$PUCSORTHOVIEW
 70
     0
  9
$PUCSORGTOP
 10
0.0
 20
0.0
 30
0.0
  9
$PUCSORGBOTTOM
 10
0.0
 20
0.0
 30
0.0
  9
$PUCSORGLEFT
 10
0.0
 20
0.0
 30
0.0
  9
$PUCSORGRIGHT
 10
0.0
 20
0.0
 30
0.0
  9
$PUCSORGFRONT
 10
0.0
 20
0.0
 30
0.0
  9
$PUCSORGBACK
 10
0.0
 20
0.0
 30
0.0
  9
$USERI1
 70
     0
  9
$USERI2
 70
     0
  9
$USERI3
 70
     0
  9
$USERI4
 70
     0
  9
$USERI5
 70
     0
  9
$USERR1
 40
0.0
  9
$USERR2
 40
0.0
  9
$USERR3
 40
0.0
  9
$USERR4
 40
0.0
  9
$USERR5
 40
0.0
  9
$WORLDVIEW
 70
     1
  9
$SHADEDGE
 70
     3
  9
$SHADEDIF
 70
    70
  9
$TILEMODE
 70
     1
  9
$MAXACTVP
 70
    48
  9
$PINSBASE
 10
0.0
 20
0.0
 30
0.0
  9
$PLIMCHECK
 70
     0
  9
$PEXTMIN
 10
1.049999952316283
 20
0.7999999523162842
 30
0.0
  9
$PEXTMAX
 10
9.449999570846555
 20
7.199999570846556
 30
0.0
  9
$PLIMMIN
 10
-0.2500002402958907
 20
-0.2499999962453767
  9
$PLIMMAX
 10
10.74999951940821
 20
8.249999763458731
  9
$UNITMODE
 70
     0
  9
$VISRETAIN
 70
     1
  9
$PLINEGEN
 70
     0
  9
$PSLTSCALE
 70
     1
  9
$TREEDEPTH
 70
  3020
  9
$CMLSTYLE
  2
STANDARD
  9
$CMLJUST
 70
     0
  9
$CMLSCALE
 40
20.0
  9
$PROXYGRAPHICS
 70
     1
  9
$MEASUREMENT
 70
     0
  9
$CELWEIGHT
370
    -1
  9
$ENDCAPS
280
     0
  9
$JOINSTYLE
280
     0
  9
$LWDISPLAY
290
     0
  9
$INSUNITS
 70
     0
  9
$HYPERLINKBASE
  1

  9
$STYLESHEET
  1

  9
$XEDIT
290
     1
  9
$CEPSNTYPE
380
     0
  9
$PSTYLEMODE
290
     1
  9
$FINGERPRINTGUID
  2
{C8342AD0-ADE8-45AD-AC00-933185DE4E38}
  9
$VERSIONGUID
  2
{E0B43DAB-1332-45BB-903D-9DAF9C1508EB}
  9
$EXTNAMES
290
     1
  9
$PSVPSCALE
 40
0.0
  9
$OLESTARTUP
290
     0
  0
ENDSEC
  0
SECTION
  2
CLASSES
  0
CLASS
  1
ACDBDICTIONARYWDFLT
  2
AcDbDictionaryWithDefault
  3
AutoCAD 2000
 90
        0
280
     0
281
     0
  0
CLASS
  1
ACDBPLACEHOLDER
  2
AcDbPlaceHolder
  3
AutoCAD 2000
 90
        0
280
     0
281
     0
  0
CLASS
  1
LAYOUT
  2
AcDbLayout
  3
AutoCAD 2000
 90
        0
280
     0
281
     0
  0
CLASS
  1
LONG_TRANSACTION
  2
AcDbLongTransaction
  3
AutoCAD 2000
 90
    32768
280
     0
281
     0
  0
CLASS
  1
LWPOLYLINE
  2
AcDbPolyline
  3
AutoCAD 2000
 90
    32768
280
     0
281
     1
  0
CLASS
  1
HATCH
  2
AcDbHatch
  3
AutoCAD 2000
 90
    32768
280
     0
281
     1
  0
CLASS
  1
XRECORD
  2
AcDbXrecord
  3
AutoCAD 2000
 90
    32768
280
     0
281
     0
  0
CLASS
  1
DICTIONARYVAR
  2
AcDbDictionaryVar
  3
AutoCAD 2000
 90
        0
280
     0
281
     0
  0
CLASS
  1
LONG_TRANSACTION
  2
AcDbLongTransaction
  3
AutoCAD 2000
 90
    32768
280
     0
281
     0
  0
CLASS
  1
LWPOLYLINE
  2
AcDbPolyline
  3
AutoCAD 2000
 90
    32768
280
     0
281
     1
  0
CLASS
  1
HATCH
  2
AcDbHatch
  3
AutoCAD 2000
 90
    32768
280
     0
281
     1
  0
CLASS
  1
XRECORD
  2
AcDbXrecord
  3
AutoCAD 2000
 90
    32768
280
     0
281
     0
  0
CLASS
  1
LONG_TRANSACTION
  2
AcDbLongTransaction
  3
AutoCAD 2000
 90
    32768
280
     0
281
     0
  0
CLASS
  1
LWPOLYLINE
  2
AcDbPolyline
  3
AutoCAD 2000
 90
    32768
280
     0
281
     1
  0
CLASS
  1
HATCH
  2
AcDbHatch
  3
AutoCAD 2000
 90
    32768
280
     0
281
     1
  0
CLASS
  1
XRECORD
  2
AcDbXrecord
  3
AutoCAD 2000
 90
    32768
280
     0
281
     0
  0
CLASS
  1
LONG_TRANSACTION
  2
AcDbLongTransaction
  3
AutoCAD 2000
 90
    32768
280
     0
281
     0
  0
CLASS
  1
LWPOLYLINE
  2
AcDbPolyline
  3
AutoCAD 2000
 90
    32768
280
     0
281
     1
  0
CLASS
  1
HATCH
  2
AcDbHatch
  3
AutoCAD 2000
 90
    32768
280
     0
281
     1
  0
CLASS
  1
XRECORD
  2
AcDbXrecord
  3
AutoCAD 2000
 90
    32768
280
     0
281
     0
  0
CLASS
  1
LONG_TRANSACTION
  2
AcDbLongTransaction
  3
AutoCAD 2000
 90
    32768
280
     0
281
     0
  0
CLASS
  1
LWPOLYLINE
  2
AcDbPolyline
  3
AutoCAD 2000
 90
    32768
280
     0
281
     1
  0
CLASS
  1
HATCH
  2
AcDbHatch
  3
AutoCAD 2000
 90
    32768
280
     0
281
     1
  0
CLASS
  1
XRECORD
  2
AcDbXrecord
  3
AutoCAD 2000
 90
    32768
280
     0
281
     0
  0
CLASS
  1
LONG_TRANSACTION
  2
AcDbLongTransaction
  3
AutoCAD 2000
 90
    32768
280
     0
281
     0
  0
CLASS
  1
LWPOLYLINE
  2
AcDbPolyline
  3
AutoCAD 2000
 90
    32768
280
     0
281
     1
  0
CLASS
  1
HATCH
  2
AcDbHatch
  3
AutoCAD 2000
 90
    32768
280
     0
281
     1
  0
CLASS
  1
XRECORD
  2
AcDbXrecord
  3
AutoCAD 2000
 90
    32768
280
     0
281
     0
  0
CLASS
  1
LONG_TRANSACTION
  2
AcDbLongTransaction
  3
AutoCAD 2000
 90
    32768
280
     0
281
     0
  0
CLASS
  1
LWPOLYLINE
  2
AcDbPolyline
  3
AutoCAD 2000
 90
    32768
280
     0
281
     1
  0
CLASS
  1
HATCH
  2
AcDbHatch
  3
AutoCAD 2000
 90
    32768
280
     0
281
     1
  0
CLASS
  1
XRECORD
  2
AcDbXrecord
  3
AutoCAD 2000
 90
    32768
280
     0
281
     0
  0
CLASS
  1
LONG_TRANSACTION
  2
AcDbLongTransaction
  3
AutoCAD 2000
 90
    32768
280
     0
281
     0
  0
CLASS
  1
LWPOLYLINE
  2
AcDbPolyline
  3
AutoCAD 2000
 90
    32768
280
     0
281
     1
  0
CLASS
  1
HATCH
  2
AcDbHatch
  3
AutoCAD 2000
 90
    32768
280
     0
281
     1
  0
CLASS
  1
XRECORD
  2
AcDbXrecord
  3
AutoCAD 2000
 90
    32768
280
     0
281
     0
  0
CLASS
  1
LONG_TRANSACTION
  2
AcDbLongTransaction
  3
AutoCAD 2000
 90
    32768
280
     0
281
     0
  0
CLASS
  1
LWPOLYLINE
  2
AcDbPolyline
  3
AutoCAD 2000
 90
    32768
280
     0
281
     1
  0
CLASS
  1
HATCH
  2
AcDbHatch
  3
AutoCAD 2000
 90
    32768
280
     0
281
     1
  0
CLASS
  1
XRECORD
  2
AcDbXrecord
  3
AutoCAD 2000
 90
    32768
280
     0
281
     0
  0
CLASS
  1
LONG_TRANSACTION
  2
AcDbLongTransaction
  3
AutoCAD 2000
 90
    32768
280
     0
281
     0
  0
CLASS
  1
LWPOLYLINE
  2
AcDbPolyline
  3
AutoCAD 2000
 90
    32768
280
     0
281
     1
  0
CLASS
  1
HATCH
  2
AcDbHatch
  3
AutoCAD 2000
 90
    32768
280
     0
281
     1
  0
CLASS
  1
XRECORD
  2
AcDbXrecord
  3
AutoCAD 2000
 90
    32768
280
     0
281
     0
  0
ENDSEC
  0
SECTION
  2
TABLES
  0
TABLE
  2
VPORT
  5
8
330
0
100
AcDbSymbolTable
 70
     3
  0
VPORT
  5
2663
330
8
100
AcDbSymbolTableRecord
100
AcDbViewportTableRecord
  2
*Active
 70
     0
 10
0.0
 20
0.0
 11
1.0
 21
1.0
 12
2007.766690438559
 22
1077.960301885054
 13
0.0
 23
0.0
 14
10.0
 24
10.0
 15
10.0
 25
10.0
 16
0.0
 26
0.0
 36
1.0
 17
0.0
 27
0.0
 37
0.0
 40
898.4776415463741
 41
1.527918781725888
 42
50.0
 43
0.0
 44
0.0
 50
0.0
 51
0.0
 71
     0
 72
   100
 73
     1
 74
     3
 75
     0
 76
     0
 77
     0
 78
     0
281
     0
 65
     1
110
0.0
120
0.0
130
0.0
111
1.0
121
0.0
131
0.0
112
0.0
122
1.0
132
0.0
 79
     0
146
0.0
  0
ENDTAB
  0
TABLE
  2
LTYPE
  5
5
330
0
100
AcDbSymbolTable
 70
     5
  0
LTYPE
  5
14
330
5
100
AcDbSymbolTableRecord
100
AcDbLinetypeTableRecord
  2
BYBLOCK
 70
     0
  3

 72
    65
 73
     0
 40
0.0
  0
LTYPE
  5
15
330
5
100
AcDbSymbolTableRecord
100
AcDbLinetypeTableRecord
  2
BYLAYER
 70
     0
  3

 72
    65
 73
     0
 40
0.0
  0
LTYPE
  5
16
330
5
100
AcDbSymbolTableRecord
100
AcDbLinetypeTableRecord
  2
CONTINUOUS
 70
     0
  3
Solid line
 72
    65
 73
     0
 40
0.0
  0
LTYPE
  5
35
330
5
100
AcDbSymbolTableRecord
100
AcDbLinetypeTableRecord
  2
PHANTOMX2
 70
     0
  3
Phantom (2x) ____________    ____    ____   _
 72
    65
 73
     6
 40
127.0
 49
63.5
 74
     0
 49
-12.7
 74
     0
 49
12.7
 74
     0
 49
-12.7
 74
     0
 49
12.7
 74
     0
 49
-12.7
 74
     0
  0
LTYPE
  5
36
330
5
100
AcDbSymbolTableRecord
100
AcDbLinetypeTableRecord
  2
CENTERX2
 70
     0
  3
Center (2x) ________  __  ________  __  _____
 72
    65
 73
     4
 40
101.6
 49
63.5
 74
     0
 49
-12.7
 74
     0
 49
12.7
 74
     0
 49
-12.7
 74
     0
  0
LTYPE
  5
1C01
330
5
100
AcDbSymbolTableRecord
100
AcDbLinetypeTableRecord
  2
DASHED
 70
     0
  3
-- -- -- -- -- -- -- -- -- -- -- -- -- -- --
 72
    65
 73
     2
 40
0.75
 49
0.5
 74
     0
 49
-0.25
 74
     0
  0
LTYPE
  5
1C02
330
5
100
AcDbSymbolTableRecord
100
AcDbLinetypeTableRecord
  2
CENTER
 70
     0
  3
Center ____ _ ____ _ ____ _ ____ _ ____ _ ____
 72
    65
 73
     4
 40
2.0
 49
1.25
 74
     0
 49
-0.25
 74
     0
 49
0.25
 74
     0
 49
-0.25
 74
     0
  0
ENDTAB
  0
TABLE
  2
LAYER
  5
2
102
{ACAD_XDICTIONARY
360
1C07
102
}
330
0
100
AcDbSymbolTable
 70
     7
  0
LAYER
  5
10
330
2
100
AcDbSymbolTableRecord
100
AcDbLayerTableRecord
  2
0
 70
     0
 62
     7
  6
CONTINUOUS
370
    -3
390
48
  0
LAYER
  5
2D
330
2
100
AcDbSymbolTableRecord
100
AcDbLayerTableRecord
  2
10
 70
     0
 62
     4
  6
CONTINUOUS
370
    -3
390
48
  0
LAYER
  5
2F
330
2
100
AcDbSymbolTableRecord
100
AcDbLayerTableRecord
  2
12
 70
     0
 62
     3
  6
CONTINUOUS
370
    -3
390
48
  0
LAYER
  5
31
330
2
100
AcDbSymbolTableRecord
100
AcDbLayerTableRecord
  2
16
 70
     0
 62
     4
  6
CENTERX2
370
    -3
390
48
  0
LAYER
  5
33
330
2
100
AcDbSymbolTableRecord
100
AcDbLayerTableRecord
  2
18
 70
     0
 62
     1
  6
PHANTOMX2
370
    -3
390
48
  0
LAYER
  5
34
330
2
100
AcDbSymbolTableRecord
100
AcDbLayerTableRecord
  2
19
 70
     0
 62
     7
  6
CONTINUOUS
370
    -3
390
48
  0
LAYER
  5
1C04
330
2
100
AcDbSymbolTableRecord
100
AcDbLayerTableRecord
  2
DEFPOINTS
 70
     0
 62
     7
  6
CONTINUOUS
290
     0
370
    -3
390
48
  0
ENDTAB
  0
TABLE
  2
STYLE
  5
3
330
0
100
AcDbSymbolTable
 70
     2
  0
STYLE
  5
11
330
3
100
AcDbSymbolTableRecord
100
AcDbTextStyleTableRecord
  2
STANDARD
 70
     0
 40
0.0
 41
1.0
 50
0.0
 71
     0
 42
2.5
  3
txt
  4

  0
STYLE
  5
56
330
3
100
AcDbSymbolTableRecord
100
AcDbTextStyleTableRecord
  2
STANDARD1
 70
     0
 40
0.0
 41
0.7
 50
0.0
 71
     0
 42
4.0
  3
romans.shx
  4
extfont.shx
  0
ENDTAB
  0
TABLE
  2
VIEW
  5
6
330
0
100
AcDbSymbolTable
 70
     0
  0
ENDTAB
  0
TABLE
  2
UCS
  5
7
330
0
100
AcDbSymbolTable
 70
     0
  0
ENDTAB
  0
TABLE
  2
APPID
  5
9
330
0
100
AcDbSymbolTable
 70
     2
  0
APPID
  5
12
330
9
100
AcDbSymbolTableRecord
100
AcDbRegAppTableRecord
  2
ACAD
 70
     0
  0
APPID
  5
1C06
330
9
100
AcDbSymbolTableRecord
100
AcDbRegAppTableRecord
  2
ACAD_PSEXT
 70
     0
  0
ENDTAB
  0
TABLE
  2
DIMSTYLE
  5
A
330
0
100
AcDbSymbolTable
 70
     2
100
AcDbDimStyleTable
 71
     1
340
27
  0
DIMSTYLE
105
27
330
A
100
AcDbSymbolTableRecord
100
AcDbDimStyleTableRecord
  2
ISO-25
 70
     0
 41
2.5
 42
0.625
 43
3.75
 44
1.25
 73
     0
 74
     0
 77
     1
 78
     8
140
2.5
141
2.5
143
0.03937007874016
147
0.625
171
     3
172
     1
271
     0
272
     0
274
     3
283
     0
284
     8
340
11
  0
DIMSTYLE
105
1C05
330
A
100
AcDbSymbolTableRecord
100
AcDbDimStyleTableRecord
  2
STANDARD
 70
     0
340
11
  0
ENDTAB
  0
TABLE
  2
BLOCK_RECORD
  5
1
330
0
100
AcDbSymbolTable
 70
     0
  0
BLOCK_RECORD
  5
1F
102
{ACAD_XDICTIONARY
360
41
102
}
330
1
100
AcDbSymbolTableRecord
100
AcDbBlockTableRecord
  2
*MODEL_SPACE
340
49
  0
BLOCK_RECORD
  5
1B
102
{ACAD_XDICTIONARY
360
3F
102
}
330
1
100
AcDbSymbolTableRecord
100
AcDbBlockTableRecord
  2
*PAPER_SPACE
340
4A
  0
ENDTAB
  0
ENDSEC
  0
SECTION
  2
BLOCKS
  0
BLOCK
  5
20
330
1F
100
AcDbEntity
  8
0
100
AcDbBlockBegin
  2
*MODEL_SPACE
 70
     0
 10
0.0
 20
0.0
 30
0.0
  3
*MODEL_SPACE
  1

  0
ENDBLK
  5
21
330
1F
100
AcDbEntity
  8
0
100
AcDbBlockEnd
  0
BLOCK
  5
1C
330
1B
100
AcDbEntity
 67
     1
  8
0
100
AcDbBlockBegin
  2
*PAPER_SPACE
 70
     0
 10
0.0
 20
0.0
 30
0.0
  3
*PAPER_SPACE
  1

  0
ENDBLK
  5
1D
330
1B
100
AcDbEntity
 67
     1
  8
0
100
AcDbBlockEnd
  0
ENDSEC
  0
SECTION
  2
ENTITIES
  0
ARC
  5
1F9D
330
1F
100
AcDbEntity
  8
10
  6
Continuous
100
AcDbCircle
 10
1735.779347621573
 20
971.8718951534937
 30
0.0
 40
0.5000000000000002
100
AcDbArc
 50
180.0
 51
270.0
  0
ARC
  5
1F9E
330
1F
100
AcDbEntity
  8
10
  6
Continuous
100
AcDbCircle
 10
1735.779347621573
 20
1020.871895153492
 30
0.0
 40
0.5000000000000002
100
AcDbArc
 50
90.0
 51
180.0
  0
LINE
  5
1F9F
330
1F
100
AcDbEntity
  8
10
  6
Continuous
100
AcDbLine
 10
1741.279347621572
 20
1231.371895153493
 30
0.0
 11
1726.200050346687
 21
1230.581622670168
 31
0.0
  0
LINE
  5
1FA0
330
1F
100
AcDbEntity
  8
10
  6
Continuous
100
AcDbLine
 10
1741.279347621572
 20
1116.871895153493
 30
0.0
 11
1721.779347621573
 21
1116.871895153493
 31
0.0
  0
LINE
  5
1FA1
330
1F
100
AcDbEntity
  8
10
  6
Continuous
100
AcDbLine
 10
1722.22701166533
 20
962.3703857711147
 30
0.0
 11
1740.779347621572
 21
961.3980990431352
 31
0.0
  0
LINE
  5
1FA2
330
1F
100
AcDbEntity
  8
10
  6
Continuous
100
AcDbLine
 10
1741.279347621572
 20
1116.420050739153
 30
0.0
 11
1721.279347621573
 21
1116.245513383338
 31
0.0
  0
LINE
  5
1FB2
330
1F
100
AcDbEntity
  8
10
  6
Continuous
100
AcDbLine
 10
1463.279347621573
 20
946.3718951534938
 30
0.0
 11
1503.279347621573
 21
946.3718951534938
 31
0.0
  0
LINE
  5
1FB3
330
1F
100
AcDbEntity
  8
10
  6
Continuous
100
AcDbLine
 10
1463.279347621573
 20
1246.371895153493
 30
0.0
 11
1549.279347621572
 21
1246.371895153493
 31
0.0
  0
LINE
  5
1FB4
330
1F
100
AcDbEntity
  8
10
  6
Continuous
100
AcDbLine
 10
1551.279347621573
 20
1231.371895153493
 30
0.0
 11
1461.279347621573
 21
1231.371895153493
 31
0.0
  0
LINE
  5
1FB5
330
1F
100
AcDbEntity
  8
10
  6
Continuous
100
AcDbLine
 10
1551.279347621573
 20
961.3718951534936
 30
0.0
 11
1461.279347621573
 21
961.3718951534936
 31
0.0
  0
LINE
  5
1FB6
330
1F
100
AcDbEntity
  8
10
  6
Continuous
100
AcDbLine
 10
1461.279347621573
 20
951.3718951534936
 30
0.0
 11
1474.279347621572
 21
951.3718951534936
 31
0.0
  0
LINE
  5
1FB7
330
1F
100
AcDbEntity
  8
10
  6
Continuous
100
AcDbLine
 10
1461.279347621573
 20
1241.371895153493
 30
0.0
 11
1474.279347621572
 21
1241.371895153493
 31
0.0
  0
LINE
  5
1FB8
330
1F
100
AcDbEntity
  8
10
  6
Continuous
100
AcDbLine
 10
1549.279347621572
 20
961.3718951534936
 30
0.0
 11
1463.279347621573
 21
961.3718951534936
 31
0.0
  0
LINE
  5
1FB9
330
1F
100
AcDbEntity
  8
10
  6
Continuous
100
AcDbLine
 10
1463.279347621573
 20
1115.371895153493
 30
0.0
 11
1549.279347621572
 21
1115.371895153493
 31
0.0
  0
LINE
  5
1FBA
330
1F
100
AcDbEntity
  8
10
  6
Continuous
100
AcDbLine
 10
1461.279347621573
 20
1199.871895153493
 30
0.0
 11
1491.279347621572
 21
1199.871895153493
 31
0.0
  0
LINE
  5
1FBB
330
1F
100
AcDbEntity
  8
10
  6
Continuous
100
AcDbLine
 10
1461.279347621573
 20
1206.871895153494
 30
0.0
 11
1491.279347621572
 21
1206.871895153494
 31
0.0
  0
LINE
  5
1FBC
330
1F
100
AcDbEntity
  8
10
  6
Continuous
100
AcDbLine
 10
1461.279347621573
 20
948.3718951534935
 30
0.0
 11
1461.279347621573
 21
1244.371895153493
 31
0.0
  0
LINE
  5
1FBD
330
1F
100
AcDbEntity
  8
10
  6
Continuous
100
AcDbLine
 10
1461.279347621573
 20
951.3718951534936
 30
0.0
 11
1461.279347621573
 21
1241.371895153493
 31
0.0
  0
LINE
  5
1FBE
330
1F
100
AcDbEntity
  8
10
  6
Continuous
100
AcDbLine
 10
1462.279347621572
 20
962.3718951534938
 30
0.0
 11
1462.279347621572
 21
1114.371895153493
 31
0.0
  0
LINE
  5
1FBF
330
1F
100
AcDbEntity
  8
10
  6
Continuous
100
AcDbLine
 10
1463.279347621573
 20
946.3718951534938
 30
0.0
 11
1461.279347621573
 21
948.3718951534935
 31
0.0
  0
LINE
  5
1FC0
330
1F
100
AcDbEntity
  8
10
  6
Continuous
100
AcDbLine
 10
1463.279347621573
 20
946.3718951534938
 30
0.0
 11
1463.279347621573
 21
951.3718951534936
 31
0.0
  0
LINE
  5
1FC1
330
1F
100
AcDbEntity
  8
10
  6
Continuous
100
AcDbLine
 10
1463.009347621573
 20
961.3718951534936
 30
0.0
 11
1464.279347621572
 21
951.3718951534936
 31
0.0
  0
LINE
  5
1FC2
330
1F
100
AcDbEntity
  8
10
  6
Continuous
100
AcDbLine
 10
1464.279347621572
 20
961.3718951534936
 30
0.0
 11
1464.279347621572
 21
951.3718951534936
 31
0.0
  0
ARC
  5
1FC3
330
1F
100
AcDbEntity
  8
10
  6
Continuous
100
AcDbCircle
 10
1463.279347621573
 20
962.3718951534938
 30
0.0
 40
1.0
100
AcDbArc
 50
180.0
 51
270.0
  0
ARC
  5
1FC4
330
1F
100
AcDbEntity
  8
0
  6
Continuous
 62
     3
100
AcDbCircle
 10
1463.279347621573
 20
1114.371895153493
 30
0.0
 40
1.0
100
AcDbArc
 50
90.0
 51
180.0
  0
LINE
  5
1FC5
330
1F
100
AcDbEntity
  8
10
  6
Continuous
100
AcDbLine
 10
1463.279347621573
 20
1241.371895153493
 30
0.0
 11
1463.279347621573
 21
1246.371895153493
 31
0.0
  0
LINE
  5
1FC6
330
1F
100
AcDbEntity
  8
10
  6
Continuous
100
AcDbLine
 10
1461.279347621573
 20
1244.371895153493
 30
0.0
 11
1463.279347621573
 21
1246.371895153493
 31
0.0
  0
LINE
  5
1FC7
330
1F
100
AcDbEntity
  8
10
  6
Continuous
100
AcDbLine
 10
1463.009347621573
 20
1231.371895153493
 30
0.0
 11
1464.279347621572
 21
1241.371895153493
 31
0.0
  0
LINE
  5
1FC8
330
1F
100
AcDbEntity
  8
10
  6
Continuous
100
AcDbLine
 10
1464.279347621572
 20
1241.371895153493
 30
0.0
 11
1464.279347621572
 21
1231.371895153493
 31
0.0
  0
LINE
  5
1FC9
330
1F
100
AcDbEntity
  8
10
  6
Continuous
100
AcDbLine
 10
1496.379347621572
 20
1230.216797912454
 30
0.0
 11
1496.379347621572
 21
1203.371895153493
 31
0.0
  0
LINE
  5
1FCA
330
1F
100
AcDbEntity
  8
10
  6
Continuous
100
AcDbLine
 10
1514.979347621573
 20
1230.216797912454
 30
0.0
 11
1514.979347621573
 21
1203.371895153493
 31
0.0
  0
LINE
  5
1FCB
330
1F
100
AcDbEntity
  8
10
  6
Continuous
100
AcDbLine
 10
1718.779347621572
 20
1218.334160759551
 30
0.0
 11
1718.779347621572
 21
1206.286108715866
 31
0.0
  0
LINE
  5
1FCC
330
1F
100
AcDbEntity
  8
10
  6
DASHED
 48
4.0
100
AcDbLine
 10
1513.299347621573
 20
1223.411895153494
 30
0.0
 11
1513.299347621573
 21
1208.331895153492
 31
0.0
  0
LINE
  5
1FCD
330
1F
100
AcDbEntity
  8
10
  6
DASHED
 48
4.0
100
AcDbLine
 10
1498.059347621572
 20
1223.411895153494
 30
0.0
 11
1498.059347621572
 21
1208.331895153492
 31
0.0
  0
LINE
  5
1FCE
330
1F
100
AcDbEntity
  8
10
  6
Continuous
100
AcDbLine
 10
1551.279347621573
 20
948.3718951534935
 30
0.0
 11
1551.279347621573
 21
1244.371895153493
 31
0.0
  0
LINE
  5
1FCF
330
1F
100
AcDbEntity
  8
16
 48
3.0
100
AcDbLine
 10
1506.279347621573
 20
1254.371895153493
 30
0.0
 11
1506.279347621573
 21
938.3718951534936
 31
0.0
  0
LINE
  5
1FD0
330
1F
100
AcDbEntity
  8
10
  6
Continuous
100
AcDbLine
 10
1551.279347621573
 20
951.3718951534936
 30
0.0
 11
1551.279347621573
 21
1241.371895153493
 31
0.0
  0
LINE
  5
1FD1
330
1F
100
AcDbEntity
  8
10
  6
Continuous
100
AcDbLine
 10
1491.279347621572
 20
1229.871895153493
 30
0.0
 11
1491.279347621572
 21
1116.371895153493
 31
0.0
  0
LINE
  5
1FD2
330
1F
100
AcDbEntity
  8
10
  6
Continuous
100
AcDbLine
 10
1551.279347621573
 20
1229.871895153493
 30
0.0
 11
1551.279347621573
 21
1116.371895153493
 31
0.0
  0
LINE
  5
1FD3
330
1F
100
AcDbEntity
  8
10
  6
Continuous
100
AcDbLine
 10
1515.779347621573
 20
1220.071895153493
 30
0.0
 11
1515.779347621573
 21
1210.871895153494
 31
0.0
  0
LINE
  5
1FD4
330
1F
100
AcDbEntity
  8
10
  6
Continuous
100
AcDbLine
 10
1533.979347621573
 20
1220.071895153493
 30
0.0
 11
1533.979347621573
 21
1210.871895153494
 31
0.0
  0
LINE
  5
1FD5
330
1F
100
AcDbEntity
  8
10
  6
Continuous
100
AcDbLine
 10
1515.079347621572
 20
1230.269205691739
 30
0.0
 11
1515.079347621572
 21
1201.371895153494
 31
0.0
  0
LINE
  5
1FD6
330
1F
100
AcDbEntity
  8
10
  6
Continuous
100
AcDbLine
 10
1496.279347621572
 20
1230.269205691739
 30
0.0
 11
1496.279347621572
 21
1201.371895153494
 31
0.0
  0
LINE
  5
1FD7
330
1F
100
AcDbEntity
  8
10
  6
Continuous
100
AcDbLine
 10
1721.779347621573
 20
1218.4913840974
 30
0.0
 11
1721.779347621573
 21
1204.371895153493
 31
0.0
  0
LINE
  5
1FD8
330
1F
100
AcDbEntity
  8
10
  6
DASHED
 48
3.0
100
AcDbLine
 10
1545.279347621573
 20
1107.871895153493
 30
0.0
 11
1545.279347621573
 21
1057.871895153493
 31
0.0
  0
LINE
  5
1FD9
330
1F
100
AcDbEntity
  8
10
  6
DASHED
 48
3.0
100
AcDbLine
 10
1513.279347621573
 20
1107.871895153493
 30
0.0
 11
1513.279347621573
 21
1057.871895153493
 31
0.0
  0
LINE
  5
1FDA
330
1F
100
AcDbEntity
  8
10
  6
Continuous
100
AcDbLine
 10
1550.279347621573
 20
1114.371895153493
 30
0.0
 11
1550.279347621573
 21
962.3718951534938
 31
0.0
  0
TEXT
  5
1FDC
330
1F
100
AcDbEntity
  8
10
  6
Continuous
100
AcDbText
 10
1507.679361906117
 20
979.8718937414282
 30
0.0
 40
6.400000095367434
  1
ＴＢ１
 50
0.0000025044784726
 41
0.7031250019402551
  7
STANDARD1
100
AcDbText
  0
LINE
  5
1FDE
330
1F
100
AcDbEntity
  8
10
  6
DASHED
 48
3.0
100
AcDbLine
 10
1545.279347621573
 20
1057.871895153493
 30
0.0
 11
1513.279347621573
 21
1057.871895153493
 31
0.0
  0
LINE
  5
1FDF
330
1F
100
AcDbEntity
  8
10
  6
DASHED
 48
3.0
100
AcDbLine
 10
1481.079347621572
 20
977.8718951534935
 30
0.0
 11
1531.479347621573
 21
977.8718951534935
 31
0.0
  0
LINE
  5
1FE0
330
1F
100
AcDbEntity
  8
10
  6
DASHED
 48
3.0
100
AcDbLine
 10
1481.079347621572
 20
999.8718951534938
 30
0.0
 11
1531.479347621573
 21
999.8718951534938
 31
0.0
  0
LINE
  5
1FE1
330
1F
100
AcDbEntity
  8
10
  6
Continuous
100
AcDbLine
 10
1509.279347621573
 20
946.3718951534938
 30
0.0
 11
1549.279347621572
 21
946.3718951534938
 31
0.0
  0
LINE
  5
1FE2
330
1F
100
AcDbEntity
  8
10
  6
DASHED
 48
3.0
100
AcDbLine
 10
1481.079347621572
 20
999.8718951534938
 30
0.0
 11
1481.079347621572
 21
977.8718951534935
 31
0.0
  0
CIRCLE
  5
1FE3
330
1F
100
AcDbEntity
  8
10
100
AcDbCircle
 10
1494.279347621572
 20
951.3718951534936
 30
0.0
 40
3.500000000000001
  0
CIRCLE
  5
1FE4
330
1F
100
AcDbEntity
  8
10
100
AcDbCircle
 10
1494.279347621572
 20
951.3718951534936
 30
0.0
 40
4.0
  0
LINE
  5
1FE5
330
1F
100
AcDbEntity
  8
10
100
AcDbLine
 10
1492.8651340592
 20
952.7861087158667
 30
0.0
 11
1495.693561183946
 21
949.9576815911206
 31
0.0
  0
LINE
  5
1FE6
330
1F
100
AcDbEntity
  8
10
100
AcDbLine
 10
1495.693561183946
 20
952.7861087158667
 30
0.0
 11
1492.8651340592
 21
949.9576815911206
 31
0.0
  0
CIRCLE
  5
1FE8
330
1F
100
AcDbEntity
  8
10
100
AcDbCircle
 10
1481.279347621573
 20
951.3718951534936
 30
0.0
 40
4.0
  0
LINE
  5
1FEB
330
1F
100
AcDbEntity
  8
10
  6
Continuous
100
AcDbLine
 10
1474.279347621572
 20
961.3718951534936
 30
0.0
 11
1474.279347621572
 21
951.3718951534936
 31
0.0
  0
LINE
  5
1FEE
330
1F
100
AcDbEntity
  8
10
  6
Continuous
100
AcDbLine
 10
1487.165660212436
 20
956.6778951534937
 30
0.0
 11
1488.39303503071
 21
956.6778951534937
 31
0.0
  0
LINE
  5
1FEF
330
1F
100
AcDbEntity
  8
10
  6
Continuous
100
AcDbLine
 10
1486.565003917005
 20
957.5248951534938
 30
0.0
 11
1488.993691326141
 21
957.5248951534938
 31
0.0
  0
LINE
  5
1FF0
330
1F
100
AcDbEntity
  8
10
  6
Continuous
100
AcDbLine
 10
1485.964347621572
 20
958.3718951534935
 30
0.0
 11
1489.594347621573
 21
958.3718951534935
 31
0.0
  0
CIRCLE
  5
1FF1
330
1F
100
AcDbEntity
  8
10
  6
Continuous
100
AcDbCircle
 10
1487.779347621573
 20
958.3718951534935
 30
0.0
 40
2.5
  0
LINE
  5
1FF2
330
1F
100
AcDbEntity
  8
10
  6
Continuous
100
AcDbLine
 10
1487.779347621573
 20
958.3718951534935
 30
0.0
 11
1487.779347621573
 21
960.1868951534937
 31
0.0
  0
ARC
  5
1FF3
330
1F
100
AcDbEntity
  8
12
  6
Continuous
100
AcDbCircle
 10
1506.279347621573
 20
956.3718951534935
 30
0.0
 40
3.000000000000001
100
AcDbArc
 50
0.0
 51
180.0
  0
LINE
  5
1FF4
330
1F
100
AcDbEntity
  8
12
 48
3.0
100
AcDbLine
 10
1498.279347621572
 20
956.3718951534935
 30
0.0
 11
1514.279347621573
 21
956.3718951534935
 31
0.0
  0
LINE
  5
1FF5
330
1F
100
AcDbEntity
  8
12
  6
Continuous
100
AcDbLine
 10
1503.279347621573
 20
956.3718951534935
 30
0.0
 11
1503.279347621573
 21
946.3718951534938
 31
0.0
  0
LINE
  5
1FF6
330
1F
100
AcDbEntity
  8
12
  6
Continuous
100
AcDbLine
 10
1509.279347621573
 20
956.3718951534935
 30
0.0
 11
1509.279347621573
 21
946.3718951534938
 31
0.0
  0
LINE
  5
1FF7
330
1F
100
AcDbEntity
  8
10
  6
DASHED
 48
3.0
100
AcDbLine
 10
1531.479347621573
 20
999.8718951534938
 30
0.0
 11
1531.479347621573
 21
977.8718951534935
 31
0.0
  0
LINE
  5
1FF9
330
1F
100
AcDbEntity
  8
10
  6
Continuous
100
AcDbLine
 10
1538.279347621573
 20
951.3718951534936
 30
0.0
 11
1551.279347621573
 21
951.3718951534936
 31
0.0
  0
CIRCLE
  5
1FFB
330
1F
100
AcDbEntity
  8
10
100
AcDbCircle
 10
1531.279347621572
 20
951.3718951534936
 30
0.0
 40
5.0
  0
CIRCLE
  5
1FFE
330
1F
100
AcDbEntity
  8
10
  6
Continuous
100
AcDbCircle
 10
1524.779347621572
 20
958.3718951534935
 30
0.0
 40
2.5
  0
LINE
  5
1FFF
330
1F
100
AcDbEntity
  8
10
  6
Continuous
100
AcDbLine
 10
1522.964347621573
 20
958.3718951534935
 30
0.0
 11
1526.594347621573
 21
958.3718951534935
 31
0.0
  0
LINE
  5
2000
330
1F
100
AcDbEntity
  8
10
  6
Continuous
100
AcDbLine
 10
1524.779347621572
 20
958.3718951534935
 30
0.0
 11
1524.779347621572
 21
960.1868951534937
 31
0.0
  0
LINE
  5
2001
330
1F
100
AcDbEntity
  8
10
  6
Continuous
100
AcDbLine
 10
1523.565003917005
 20
957.5248951534938
 30
0.0
 11
1525.993691326141
 21
957.5248951534938
 31
0.0
  0
LINE
  5
2002
330
1F
100
AcDbEntity
  8
10
  6
Continuous
100
AcDbLine
 10
1524.165660212436
 20
956.6778951534937
 30
0.0
 11
1525.39303503071
 21
956.6778951534937
 31
0.0
  0
LINE
  5
2005
330
1F
100
AcDbEntity
  8
10
  6
Continuous
100
AcDbLine
 10
1538.279347621573
 20
961.3718951534936
 30
0.0
 11
1538.279347621573
 21
951.3718951534936
 31
0.0
  0
LINE
  5
2006
330
1F
100
AcDbEntity
  8
10
  6
Continuous
100
AcDbLine
 10
1551.279347621573
 20
948.3718951534935
 30
0.0
 11
1549.279347621572
 21
946.3718951534938
 31
0.0
  0
LINE
  5
2007
330
1F
100
AcDbEntity
  8
10
  6
Continuous
100
AcDbLine
 10
1549.279347621572
 20
946.3718951534938
 30
0.0
 11
1549.279347621572
 21
951.3718951534936
 31
0.0
  0
LINE
  5
2008
330
1F
100
AcDbEntity
  8
10
  6
Continuous
100
AcDbLine
 10
1549.549347621573
 20
961.3718951534936
 30
0.0
 11
1548.279347621573
 21
951.3718951534936
 31
0.0
  0
LINE
  5
2009
330
1F
100
AcDbEntity
  8
10
  6
Continuous
100
AcDbLine
 10
1548.279347621573
 20
961.3718951534936
 30
0.0
 11
1548.279347621573
 21
951.3718951534936
 31
0.0
  0
ARC
  5
200A
330
1F
100
AcDbEntity
  8
10
  6
Continuous
100
AcDbCircle
 10
1549.279347621572
 20
962.3718951534938
 30
0.0
 40
1.0
100
AcDbArc
 50
270.0
 51
0.0
  0
TEXT
  5
200B
330
1F
100
AcDbEntity
  8
10
  6
Continuous
100
AcDbText
 10
1527.179361906117
 20
1022.221892215549
 30
0.0
 40
6.400000095367434
  1
ＴＢ２
 50
0.0000025044784726
 41
0.7031250019402551
  7
STANDARD1
100
AcDbText
  0
LINE
  5
200C
330
1F
100
AcDbEntity
  8
10
  6
DASHED
 48
3.0
100
AcDbLine
 10
1524.279347621573
 20
1056.521895153493
 30
0.0
 11
1545.279347621573
 21
1056.521895153493
 31
0.0
  0
LINE
  5
200D
330
1F
100
AcDbEntity
  8
10
  6
DASHED
 48
3.0
100
AcDbLine
 10
1524.279347621573
 20
1020.221895153493
 30
0.0
 11
1545.279347621573
 21
1020.221895153493
 31
0.0
  0
LINE
  5
200E
330
1F
100
AcDbEntity
  8
10
  6
DASHED
 48
3.0
100
AcDbLine
 10
1524.279347621573
 20
1020.221895153493
 30
0.0
 11
1524.279347621573
 21
1056.521895153493
 31
0.0
  0
TEXT
  5
200F
330
1F
100
AcDbEntity
  8
10
  6
Continuous
100
AcDbText
 10
1521.679361906118
 20
1059.87188992673
 30
0.0
 40
6.400000095367434
  1
ＴＢ３
 50
0.0000025044784726
 41
0.7031250019402551
  7
STANDARD1
100
AcDbText
  0
LINE
  5
2010
330
1F
100
AcDbEntity
  8
10
  6
DASHED
 48
3.0
100
AcDbLine
 10
1545.279347621573
 20
1020.221895153493
 30
0.0
 11
1545.279347621573
 21
1056.521895153493
 31
0.0
  0
LINE
  5
2011
330
1F
100
AcDbEntity
  8
10
  6
Continuous
100
AcDbLine
 10
1502.279347621573
 20
1194.871895153494
 30
0.0
 11
1540.279347621573
 21
1194.871895153494
 31
0.0
  0
LINE
  5
2012
330
1F
100
AcDbEntity
  8
10
  6
Continuous
100
AcDbLine
 10
1502.279347621573
 20
1188.371895153493
 30
0.0
 11
1540.279347621573
 21
1188.371895153493
 31
0.0
  0
LINE
  5
2013
330
1F
100
AcDbEntity
  8
10
  6
DASHED
 48
3.0
100
AcDbLine
 10
1545.279347621573
 20
1107.871895153493
 30
0.0
 11
1513.279347621573
 21
1107.871895153493
 31
0.0
  0
LINE
  5
2014
330
1F
100
AcDbEntity
  8
10
  6
Continuous
100
AcDbLine
 10
1493.144137383771
 20
1183.871895153493
 30
0.0
 11
1523.144137383771
 21
1183.871895153493
 31
0.0
  0
LINE
  5
2015
330
1F
100
AcDbEntity
  8
10
  6
Continuous
100
AcDbLine
 10
1493.144137383771
 20
1121.871895153493
 30
0.0
 11
1523.144137383771
 21
1121.871895153493
 31
0.0
  0
TEXT
  5
2016
330
1F
100
AcDbEntity
  8
10
  6
Continuous
100
AcDbText
 10
1510.379343595571
 20
1132.871897556125
 30
0.0
 40
5.599999904632571
  1
ＴＢ４
 50
0.0000025044784726
 41
0.5555555673818741
  7
STANDARD1
100
AcDbText
  0
LINE
  5
2017
330
1F
100
AcDbEntity
  8
10
  6
Continuous
100
AcDbLine
 10
1491.279347621572
 20
1116.371895153493
 30
0.0
 11
1551.279347621573
 21
1116.371895153493
 31
0.0
  0
LINE
  5
2018
330
1F
100
AcDbEntity
  8
10
  6
Continuous
100
AcDbLine
 10
1491.779347621573
 20
1199.871895153493
 30
0.0
 11
1550.779347621572
 21
1199.871895153493
 31
0.0
  0
LINE
  5
2019
330
1F
100
AcDbEntity
  8
10
  6
Continuous
100
AcDbLine
 10
1492.170279869385
 20
1121.871895153493
 30
0.0
 11
1534.779347621572
 21
1121.871895153493
 31
0.0
  0
LINE
  5
201A
330
1F
100
AcDbEntity
  8
10
  6
Continuous
100
AcDbLine
 10
1492.170279869385
 20
1183.871895153493
 30
0.0
 11
1550.779347621572
 21
1183.871895153493
 31
0.0
  0
LINE
  5
201B
330
1F
100
AcDbEntity
  8
10
  6
Continuous
100
AcDbLine
 10
1516.779347621572
 20
1209.871895153493
 30
0.0
 11
1532.979347621573
 21
1209.871895153493
 31
0.0
  0
LINE
  5
201C
330
1F
100
AcDbEntity
  8
10
  6
Continuous
100
AcDbLine
 10
1516.879347621572
 20
1206.871895153494
 30
0.0
 11
1550.779347621572
 21
1206.871895153494
 31
0.0
  0
LINE
  5
201D
330
1F
100
AcDbEntity
  8
10
  6
DASHED
 48
4.0
100
AcDbLine
 10
1509.879347621573
 20
1125.871895153493
 30
0.0
 11
1509.879347621573
 21
1180.871895153494
 31
0.0
  0
LINE
  5
201E
330
1F
100
AcDbEntity
  8
10
  6
DASHED
 48
4.0
100
AcDbLine
 10
1501.879347621573
 20
1180.871895153494
 30
0.0
 11
1501.879347621573
 21
1125.871895153493
 31
0.0
  0
LINE
  5
201F
330
1F
100
AcDbEntity
  8
10
  6
Continuous
100
AcDbLine
 10
1500.742213595124
 20
1121.871895153493
 30
0.0
 11
1500.742213595124
 21
1183.871895153493
 31
0.0
  0
LINE
  5
2020
330
1F
100
AcDbEntity
  8
10
  6
Continuous
100
AcDbLine
 10
1498.14413738377
 20
1121.871895153493
 30
0.0
 11
1498.14413738377
 21
1183.871895153493
 31
0.0
  0
LINE
  5
2021
330
1F
100
AcDbEntity
  8
10
  6
Continuous
100
AcDbLine
 10
1498.14413738377
 20
1123.871895153493
 30
0.0
 11
1493.144137383771
 21
1123.871895153493
 31
0.0
  0
LINE
  5
2022
330
1F
100
AcDbEntity
  8
10
  6
Continuous
100
AcDbLine
 10
1492.170279869385
 20
1124.371895153494
 30
0.0
 11
1498.14413738377
 21
1124.371895153494
 31
0.0
  0
LINE
  5
2023
330
1F
100
AcDbEntity
  8
10
  6
Continuous
100
AcDbLine
 10
1492.170279869385
 20
1121.871895153493
 30
0.0
 11
1492.170279869385
 21
1124.371895153494
 31
0.0
  0
LINE
  5
2024
330
1F
100
AcDbEntity
  8
10
  6
Continuous
100
AcDbLine
 10
1493.479347621573
 20
1123.871895153493
 30
0.0
 11
1493.479347621573
 21
1124.371895153494
 31
0.0
  0
LINE
  5
2025
330
1F
100
AcDbEntity
  8
10
  6
Continuous
100
AcDbLine
 10
1493.144137383771
 20
1121.871895153493
 30
0.0
 11
1493.144137383771
 21
1123.871895153493
 31
0.0
  0
LINE
  5
2026
330
1F
100
AcDbEntity
  8
10
  6
DASHED
 48
4.0
100
AcDbLine
 10
1501.879347621573
 20
1125.871895153493
 30
0.0
 11
1509.879347621573
 21
1125.871895153493
 31
0.0
  0
LINE
  5
2027
330
1F
100
AcDbEntity
  8
10
  6
Continuous
100
AcDbLine
 10
1496.879347621572
 20
1123.871895153493
 30
0.0
 11
1496.879347621572
 21
1124.371895153494
 31
0.0
  0
LINE
  5
2028
330
1F
100
AcDbEntity
  8
10
  6
Continuous
100
AcDbLine
 10
1494.479347621573
 20
1123.871895153493
 30
0.0
 11
1494.479347621573
 21
1124.371895153494
 31
0.0
  0
LINE
  5
2029
330
1F
100
AcDbEntity
  8
10
  6
Continuous
100
AcDbLine
 10
1495.679347621572
 20
1123.871895153493
 30
0.0
 11
1495.679347621572
 21
1124.371895153494
 31
0.0
  0
LINE
  5
202A
330
1F
100
AcDbEntity
  8
10
  6
Continuous
100
AcDbLine
 10
1498.14413738377
 20
1181.871895153493
 30
0.0
 11
1493.144137383771
 21
1181.871895153493
 31
0.0
  0
LINE
  5
202B
330
1F
100
AcDbEntity
  8
10
  6
Continuous
100
AcDbLine
 10
1491.779347621573
 20
1206.871895153494
 30
0.0
 11
1494.479347621573
 21
1206.871895153494
 31
0.0
  0
LINE
  5
202C
330
1F
100
AcDbEntity
  8
10
  6
Continuous
100
AcDbLine
 10
1492.170279869385
 20
1181.371895153493
 30
0.0
 11
1498.14413738377
 21
1181.371895153493
 31
0.0
  0
LINE
  5
202D
330
1F
100
AcDbEntity
  8
10
  6
Continuous
100
AcDbLine
 10
1493.144137383771
 20
1181.871895153493
 30
0.0
 11
1493.144137383771
 21
1183.871895153493
 31
0.0
  0
LINE
  5
202E
330
1F
100
AcDbEntity
  8
10
  6
Continuous
100
AcDbLine
 10
1492.170279869385
 20
1181.371895153493
 30
0.0
 11
1492.170279869385
 21
1183.871895153493
 31
0.0
  0
LINE
  5
202F
330
1F
100
AcDbEntity
  8
10
  6
Continuous
100
AcDbLine
 10
1493.479347621573
 20
1181.371895153493
 30
0.0
 11
1493.479347621573
 21
1181.871895153493
 31
0.0
  0
ARC
  5
2030
330
1F
100
AcDbEntity
  8
10
  6
Continuous
100
AcDbCircle
 10
1491.779347621573
 20
1199.371895153493
 30
0.0
 40
0.5000000000000002
100
AcDbArc
 50
90.0
 51
180.0
  0
ARC
  5
2031
330
1F
100
AcDbEntity
  8
10
  6
Continuous
100
AcDbCircle
 10
1491.779347621573
 20
1207.371895153493
 30
0.0
 40
0.5000000000000002
100
AcDbArc
 50
180.0
 51
270.0
  0
LINE
  5
2032
330
1F
100
AcDbEntity
  8
10
  6
DASHED
 48
4.0
100
AcDbLine
 10
1501.879347621573
 20
1180.871895153494
 30
0.0
 11
1509.879347621573
 21
1180.871895153494
 31
0.0
  0
LINE
  5
2033
330
1F
100
AcDbEntity
  8
10
  6
Continuous
100
AcDbLine
 10
1496.379347621572
 20
1205.371895153493
 30
0.0
 11
1514.979347621573
 21
1205.371895153493
 31
0.0
  0
LINE
  5
2034
330
1F
100
AcDbEntity
  8
10
  6
Continuous
100
AcDbLine
 10
1496.379347621572
 20
1203.371895153493
 30
0.0
 11
1514.979347621573
 21
1203.371895153493
 31
0.0
  0
LINE
  5
2035
330
1F
100
AcDbEntity
  8
10
  6
DASHED
 48
4.0
100
AcDbLine
 10
1513.299347621573
 20
1208.331895153492
 30
0.0
 11
1498.059347621572
 21
1208.331895153492
 31
0.0
  0
LINE
  5
2036
330
1F
100
AcDbEntity
  8
10
  6
Continuous
100
AcDbLine
 10
1495.479347621573
 20
1203.371895153493
 30
0.0
 11
1515.879347621573
 21
1203.371895153493
 31
0.0
  0
LINE
  5
2037
330
1F
100
AcDbEntity
  8
10
  6
Continuous
100
AcDbLine
 10
1496.279347621572
 20
1201.371895153494
 30
0.0
 11
1515.079347621572
 21
1201.371895153494
 31
0.0
  0
LINE
  5
2038
330
1F
100
AcDbEntity
  8
10
  6
Continuous
100
AcDbLine
 10
1496.879347621572
 20
1181.371895153493
 30
0.0
 11
1496.879347621572
 21
1181.871895153493
 31
0.0
  0
LINE
  5
2039
330
1F
100
AcDbEntity
  8
10
  6
Continuous
100
AcDbLine
 10
1495.679347621572
 20
1181.371895153493
 30
0.0
 11
1495.679347621572
 21
1181.871895153493
 31
0.0
  0
LINE
  5
203A
330
1F
100
AcDbEntity
  8
10
  6
Continuous
100
AcDbLine
 10
1494.479347621573
 20
1181.371895153493
 30
0.0
 11
1494.479347621573
 21
1181.871895153493
 31
0.0
  0
LINE
  5
203B
330
1F
100
AcDbEntity
  8
10
  6
Continuous
100
AcDbLine
 10
1501.279347621573
 20
1189.371895153493
 30
0.0
 11
1501.279347621573
 21
1193.871895153493
 31
0.0
  0
ARC
  5
203C
330
1F
100
AcDbEntity
  8
10
  6
Continuous
100
AcDbCircle
 10
1502.279347621573
 20
1193.871895153493
 30
0.0
 40
1.0
100
AcDbArc
 50
90.0
 51
180.0
  0
ARC
  5
203D
330
1F
100
AcDbEntity
  8
10
  6
Continuous
100
AcDbCircle
 10
1502.279347621573
 20
1189.371895153493
 30
0.0
 40
1.0
100
AcDbArc
 50
180.0
 51
270.0
  0
LINE
  5
203E
330
1F
100
AcDbEntity
  8
10
  6
Continuous
100
AcDbLine
 10
1494.979347621573
 20
1206.371895153493
 30
0.0
 11
1494.979347621573
 21
1203.871895153493
 31
0.0
  0
LINE
  5
203F
330
1F
100
AcDbEntity
  8
10
  6
Continuous
100
AcDbLine
 10
1496.279347621572
 20
1207.871895153493
 30
0.0
 11
1496.379347621572
 21
1207.871895153493
 31
0.0
  0
LINE
  5
2040
330
1F
100
AcDbEntity
  8
10
  6
Continuous
100
AcDbLine
 10
1496.279347621572
 20
1208.371895153494
 30
0.0
 11
1496.379347621572
 21
1208.371895153494
 31
0.0
  0
LINE
  5
2041
330
1F
100
AcDbEntity
  8
10
  6
Continuous
100
AcDbLine
 10
1496.279347621572
 20
1204.771895153493
 30
0.0
 11
1496.379347621572
 21
1204.771895153493
 31
0.0
  0
LINE
  5
2042
330
1F
100
AcDbEntity
  8
10
  6
Continuous
100
AcDbLine
 10
1496.279347621572
 20
1205.971895153493
 30
0.0
 11
1496.379347621572
 21
1205.971895153493
 31
0.0
  0
ARC
  5
2043
330
1F
100
AcDbEntity
  8
10
  6
Continuous
100
AcDbCircle
 10
1494.479347621573
 20
1206.371895153493
 30
0.0
 40
0.5000000000000002
100
AcDbArc
 50
0.0
 51
90.0
  0
ARC
  5
2044
330
1F
100
AcDbEntity
  8
10
  6
Continuous
100
AcDbCircle
 10
1495.479347621573
 20
1203.871895153493
 30
0.0
 40
0.5000000000000002
100
AcDbArc
 50
180.0
 51
270.0
  0
LINE
  5
2045
330
1F
100
AcDbEntity
  8
10
  6
Continuous
100
AcDbLine
 10
1516.379347621573
 20
1206.371895153493
 30
0.0
 11
1516.379347621573
 21
1203.871895153493
 31
0.0
  0
LINE
  5
2046
330
1F
100
AcDbEntity
  8
10
  6
Continuous
100
AcDbLine
 10
1514.979347621573
 20
1207.871895153493
 30
0.0
 11
1515.079347621572
 21
1207.871895153493
 31
0.0
  0
LINE
  5
2047
330
1F
100
AcDbEntity
  8
0
  6
Continuous
 62
     3
100
AcDbLine
 10
1514.979347621573
 20
1208.371895153494
 30
0.0
 11
1515.079347621572
 21
1208.371895153494
 31
0.0
  0
LINE
  5
2048
330
1F
100
AcDbEntity
  8
10
  6
Continuous
100
AcDbLine
 10
1514.979347621573
 20
1205.971895153493
 30
0.0
 11
1515.079347621572
 21
1205.971895153493
 31
0.0
  0
LINE
  5
2049
330
1F
100
AcDbEntity
  8
10
  6
Continuous
100
AcDbLine
 10
1514.979347621573
 20
1204.771895153493
 30
0.0
 11
1515.079347621572
 21
1204.771895153493
 31
0.0
  0
ARC
  5
204A
330
1F
100
AcDbEntity
  8
10
  6
Continuous
100
AcDbCircle
 10
1516.879347621572
 20
1206.371895153493
 30
0.0
 40
0.5000000000000002
100
AcDbArc
 50
90.0
 51
180.0
  0
ARC
  5
204B
330
1F
100
AcDbEntity
  8
10
  6
Continuous
100
AcDbCircle
 10
1515.879347621573
 20
1203.871895153493
 30
0.0
 40
0.5000000000000002
100
AcDbArc
 50
270.0
 51
0.0
  0
ARC
  5
204C
330
1F
100
AcDbEntity
  8
10
  6
Continuous
100
AcDbCircle
 10
1516.779347621572
 20
1210.871895153494
 30
0.0
 40
1.0
100
AcDbArc
 50
180.0
 51
270.0
  0
LINE
  5
204D
330
1F
100
AcDbEntity
  8
10
  6
Continuous
100
AcDbLine
 10
1522.342952664638
 20
1123.871895153493
 30
0.0
 11
1522.342952664638
 21
1181.871895153493
 31
0.0
  0
LINE
  5
204E
330
1F
100
AcDbEntity
  8
10
  6
Continuous
100
AcDbLine
 10
1522.086175499518
 20
1121.871895153493
 30
0.0
 11
1522.086175499518
 21
1183.871895153493
 31
0.0
  0
CIRCLE
  5
204F
330
1F
100
AcDbEntity
  8
10
  6
Continuous
100
AcDbCircle
 10
1538.279347621573
 20
1121.871895153493
 30
0.0
 40
3.000000000000001
  0
ARC
  5
2050
330
1F
100
AcDbEntity
  8
10
  6
Continuous
100
AcDbCircle
 10
1538.279347621573
 20
1121.871895153493
 30
0.0
 40
4.0
100
AcDbArc
 50
180.0
 51
0.0
  0
ARC
  5
2051
330
1F
100
AcDbEntity
  8
10
  6
Continuous
100
AcDbCircle
 10
1538.279347621573
 20
1121.871895153493
 30
0.0
 40
3.500000000000001
100
AcDbArc
 50
0.0
 51
180.0
  0
ARC
  5
2052
330
1F
100
AcDbEntity
  8
10
  6
Continuous
100
AcDbCircle
 10
1538.279347621573
 20
1121.871895153493
 30
0.0
 40
4.999999999999888
100
AcDbArc
 50
0.0
 51
180.0
  0
ARC
  5
2053
330
1F
100
AcDbEntity
  8
10
  6
Continuous
100
AcDbCircle
 10
1538.279347621573
 20
1121.871895153493
 30
0.0
 40
6.500000000000002
100
AcDbArc
 50
0.0
 51
180.0
  0
LINE
  5
2054
330
1F
100
AcDbEntity
  8
10
  6
Continuous
100
AcDbLine
 10
1523.144137383771
 20
1123.371895153493
 30
0.0
 11
1523.644137383771
 21
1123.371895153493
 31
0.0
  0
LINE
  5
2055
330
1F
100
AcDbEntity
  8
10
  6
Continuous
100
AcDbLine
 10
1522.086175499518
 20
1123.871895153493
 30
0.0
 11
1523.144137383771
 21
1123.871895153493
 31
0.0
  0
LINE
  5
2056
330
1F
100
AcDbEntity
  8
10
  6
Continuous
100
AcDbLine
 10
1523.144137383771
 20
1121.871895153493
 30
0.0
 11
1523.144137383771
 21
1123.871895153493
 31
0.0
  0
LINE
  5
2057
330
1F
100
AcDbEntity
  8
10
  6
Continuous
100
AcDbLine
 10
1524.14413738377
 20
1121.871895153493
 30
0.0
 11
1524.14413738377
 21
1122.871895153493
 31
0.0
  0
ARC
  5
2058
330
1F
100
AcDbEntity
  8
10
  6
Continuous
100
AcDbCircle
 10
1523.644137383771
 20
1122.871895153493
 30
0.0
 40
0.5000000000000002
100
AcDbArc
 50
0.0
 51
90.0
  0
LINE
  5
2059
330
1F
100
AcDbEntity
  8
10
  6
Continuous
100
AcDbLine
 10
1541.779347621573
 20
1121.871895153493
 30
0.0
 11
1550.779347621572
 21
1121.871895153493
 31
0.0
  0
ARC
  5
205A
330
1F
100
AcDbEntity
  8
10
  6
Continuous
100
AcDbCircle
 10
1549.279347621572
 20
1114.371895153493
 30
0.0
 40
1.0
100
AcDbArc
 50
0.0
 51
90.0
  0
ARC
  5
205B
330
1F
100
AcDbEntity
  8
10
  6
Continuous
100
AcDbCircle
 10
1550.779347621572
 20
1121.371895153493
 30
0.0
 40
0.5000000000000002
100
AcDbArc
 50
0.0
 51
90.0
  0
ARC
  5
205C
330
1F
100
AcDbEntity
  8
10
  6
Continuous
100
AcDbCircle
 10
1540.279347621573
 20
1193.871895153493
 30
0.0
 40
1.0
100
AcDbArc
 50
0.0
 51
90.0
  0
ARC
  5
205D
330
1F
100
AcDbEntity
  8
10
  6
Continuous
100
AcDbCircle
 10
1540.279347621573
 20
1189.371895153493
 30
0.0
 40
1.0
100
AcDbArc
 50
270.0
 51
0.0
  0
LINE
  5
205E
330
1F
100
AcDbEntity
  8
10
  6
Continuous
100
AcDbLine
 10
1523.144137383771
 20
1182.371895153494
 30
0.0
 11
1523.644137383771
 21
1182.371895153494
 31
0.0
  0
LINE
  5
205F
330
1F
100
AcDbEntity
  8
10
  6
Continuous
100
AcDbLine
 10
1523.144137383771
 20
1181.871895153493
 30
0.0
 11
1523.144137383771
 21
1183.871895153493
 31
0.0
  0
LINE
  5
2060
330
1F
100
AcDbEntity
  8
10
  6
Continuous
100
AcDbLine
 10
1522.086175499518
 20
1181.871895153493
 30
0.0
 11
1523.144137383771
 21
1181.871895153493
 31
0.0
  0
LINE
  5
2061
330
1F
100
AcDbEntity
  8
10
  6
Continuous
100
AcDbLine
 10
1524.14413738377
 20
1182.871895153493
 30
0.0
 11
1524.14413738377
 21
1183.871895153493
 31
0.0
  0
ARC
  5
2062
330
1F
100
AcDbEntity
  8
10
  6
Continuous
100
AcDbCircle
 10
1523.644137383771
 20
1182.871895153493
 30
0.0
 40
0.5000000000000002
100
AcDbArc
 50
270.0
 51
0.0
  0
ARC
  5
2063
330
1F
100
AcDbEntity
  8
10
  6
Continuous
100
AcDbCircle
 10
1532.979347621573
 20
1210.871895153494
 30
0.0
 40
1.0
100
AcDbArc
 50
270.0
 51
0.0
  0
LINE
  5
2064
330
1F
100
AcDbEntity
  8
10
  6
Continuous
100
AcDbLine
 10
1541.279347621572
 20
1189.371895153493
 30
0.0
 11
1541.279347621572
 21
1193.871895153493
 31
0.0
  0
ARC
  5
2065
330
1F
100
AcDbEntity
  8
10
  6
Continuous
100
AcDbCircle
 10
1550.779347621572
 20
1184.371895153493
 30
0.0
 40
0.5000000000000002
100
AcDbArc
 50
270.0
 51
0.0
  0
ARC
  5
2066
330
1F
100
AcDbEntity
  8
10
  6
Continuous
100
AcDbCircle
 10
1550.779347621572
 20
1207.371895153493
 30
0.0
 40
0.5000000000000002
100
AcDbArc
 50
270.0
 51
0.0
  0
ARC
  5
2067
330
1F
100
AcDbEntity
  8
10
  6
Continuous
100
AcDbCircle
 10
1550.779347621572
 20
1199.371895153493
 30
0.0
 40
0.5000000000000002
100
AcDbArc
 50
0.0
 51
90.0
  0
LINE
  5
2068
330
1F
100
AcDbEntity
  8
10
  6
Continuous
100
AcDbLine
 10
1721.979347621573
 20
1062.671895153493
 30
0.0
 11
1721.979347621573
 21
1079.071895153492
 31
0.0
  0
ARC
  5
2069
330
1F
100
AcDbEntity
  8
10
  6
Continuous
100
AcDbCircle
 10
1720.079347621572
 20
1070.871895153493
 30
0.0
 40
2.0
100
AcDbArc
 50
180.0
 51
270.0
  0
LINE
  5
206A
330
1F
100
AcDbEntity
  8
10
  6
Continuous
100
AcDbLine
 10
1718.079347621572
 20
1073.238855229202
 30
0.0
 11
1718.079347621572
 21
1068.504935077783
 31
0.0
  0
LINE
  5
206B
330
1F
100
AcDbEntity
  8
10
  6
Continuous
100
AcDbLine
 10
1724.279347621573
 20
1062.371895153493
 30
0.0
 11
1724.279347621573
 21
1079.371895153493
 31
0.0
  0
LINE
  5
206C
330
1F
100
AcDbEntity
  8
10
  6
Continuous
100
AcDbLine
 10
1710.279347621573
 20
1009.59475371648
 30
0.0
 11
1710.279347621573
 21
1105.205282634432
 31
0.0
  0
LINE
  5
206D
330
1F
100
AcDbEntity
  8
10
  6
Continuous
100
AcDbLine
 10
1701.279347621573
 20
975.4096295474363
 30
0.0
 11
1701.279347621573
 21
1108.759085926595
 31
0.0
  0
LINE
  5
206E
330
1F
100
AcDbEntity
  8
10
  6
Continuous
100
AcDbLine
 10
1732.279347621572
 20
1108.898099043135
 30
0.0
 11
1732.279347621572
 21
1008.898099043135
 31
0.0
  0
LINE
  5
206F
330
1F
100
AcDbEntity
  8
10
  6
Continuous
100
AcDbLine
 10
1735.279347621573
 20
971.8718951534937
 30
0.0
 11
1735.279347621573
 21
1020.871895153492
 31
0.0
  0
LINE
  5
2070
330
1F
100
AcDbEntity
  8
10
  6
Continuous
100
AcDbLine
 10
1721.279347621573
 20
962.4200507391543
 30
0.0
 11
1721.279347621573
 21
1008.420050739154
 31
0.0
  0
LINE
  5
2071
330
1F
100
AcDbEntity
  8
10
  6
Continuous
100
AcDbLine
 10
1721.279347621573
 20
1007.898099043135
 30
0.0
 11
1721.279347621573
 21
963.3690153058692
 31
0.0
  0
LINE
  5
2072
330
1F
100
AcDbEntity
  8
10
  6
Continuous
100
AcDbLine
 10
1721.279347621573
 20
962.4200507391543
 30
0.0
 11
1705.819821450615
 21
963.4200507391543
 31
0.0
  0
ARC
  5
2073
330
1F
100
AcDbEntity
  8
10
  6
Continuous
100
AcDbCircle
 10
1705.819821450615
 20
966.4200507391543
 30
0.0
 40
3.000000000000138
100
AcDbArc
 50
199.4477664087362
 51
270.0
  0
ARC
  5
2074
330
1F
100
AcDbEntity
  8
10
  6
Continuous
100
AcDbCircle
 10
1731.279347621573
 20
975.4096295474363
 30
0.0
 40
30.00000000000001
100
AcDbArc
 50
180.0
 51
199.4477664087378
  0
ARC
  5
2075
330
1F
100
AcDbEntity
  8
10
  6
Continuous
100
AcDbCircle
 10
1722.279347621573
 20
963.3690153058692
 30
0.0
 40
1.0
100
AcDbArc
 50
180.0
 51
266.9999999999943
  0
LINE
  5
2078
330
1F
100
AcDbEntity
  8
10
  6
Continuous
100
AcDbLine
 10
1721.279347621573
 20
965.4200507391543
 30
0.0
 11
1721.279347621573
 21
965.4373534760388
 31
0.0
  0
LINE
  5
207A
330
1F
100
AcDbEntity
  8
10
  6
Continuous
100
AcDbLine
 10
1710.279347621573
 20
1057.871895153493
 30
0.0
 11
1732.279347621572
 21
1057.871895153493
 31
0.0
  0
LINE
  5
207B
330
1F
100
AcDbEntity
  8
10
  6
Continuous
100
AcDbLine
 10
1710.279347621573
 20
1062.371895153493
 30
0.0
 11
1732.279347621572
 21
1062.371895153493
 31
0.0
  0
LINE
  5
207C
330
1F
100
AcDbEntity
  8
10
  6
Continuous
100
AcDbLine
 10
1721.279347621573
 20
1008.420050739154
 30
0.0
 11
1711.261895215135
 21
1008.594906021323
 31
0.0
  0
ARC
  5
207D
330
1F
100
AcDbEntity
  8
10
  6
Continuous
100
AcDbCircle
 10
1711.279347621572
 20
1009.59475371648
 30
0.0
 40
1.0
100
AcDbArc
 50
180.0
 51
268.9999999999981
  0
ARC
  5
207E
330
1F
100
AcDbEntity
  8
10
  6
Continuous
100
AcDbCircle
 10
1725.779347621573
 20
1038.371895153493
 30
0.0
 40
3.500000000000153
100
AcDbArc
 50
236.6329870307644
 51
270.0
  0
LINE
  5
207F
330
1F
100
AcDbEntity
  8
10
  6
Continuous
100
AcDbLine
 10
1725.779347621573
 20
1034.071895153493
 30
0.0
 11
1725.779347621573
 21
1042.671895153493
 31
0.0
  0
LINE
  5
2080
330
1F
100
AcDbEntity
  8
10
  6
Continuous
100
AcDbLine
 10
1726.779347621572
 20
1033.871895153493
 30
0.0
 11
1726.779347621572
 21
1042.871895153493
 31
0.0
  0
ARC
  5
2081
330
1F
100
AcDbEntity
  8
10
  6
Continuous
100
AcDbCircle
 10
1724.679347621572
 20
1029.042224462342
 30
0.0
 40
1.500000000000225
100
AcDbArc
 50
123.3670129692371
 51
180.0
  0
ARC
  5
2082
330
1F
100
AcDbEntity
  8
10
  6
Continuous
100
AcDbCircle
 10
1724.679347621572
 20
1025.701565844644
 30
0.0
 40
1.5
100
AcDbArc
 50
180.0
 51
236.6329870307627
  0
ARC
  5
2083
330
1F
100
AcDbEntity
  8
10
  6
Continuous
100
AcDbCircle
 10
1724.679347621572
 20
1027.371895153493
 30
0.0
 40
1.5
100
AcDbArc
 50
90.0
 51
180.0
  0
ARC
  5
2084
330
1F
100
AcDbEntity
  8
10
  6
Continuous
100
AcDbCircle
 10
1724.679347621572
 20
1027.371895153493
 30
0.0
 40
1.5
100
AcDbArc
 50
180.0
 51
270.0
  0
LINE
  5
2085
330
1F
100
AcDbEntity
  8
10
  6
Continuous
100
AcDbLine
 10
1714.779347621572
 20
1031.871895153493
 30
0.0
 11
1732.279347621572
 21
1031.871895153493
 31
0.0
  0
LINE
  5
2086
330
1F
100
AcDbEntity
  8
10
  6
Continuous
100
AcDbLine
 10
1714.779347621572
 20
1033.871895153493
 30
0.0
 11
1732.279347621572
 21
1033.871895153493
 31
0.0
  0
LINE
  5
2087
330
1F
100
AcDbEntity
  8
10
  6
Continuous
100
AcDbLine
 10
1714.779347621572
 20
1020.221895153493
 30
0.0
 11
1732.279347621572
 21
1020.221895153493
 31
0.0
  0
LINE
  5
2088
330
1F
100
AcDbEntity
  8
10
  6
Continuous
100
AcDbLine
 10
1714.779347621572
 20
1022.871895153494
 30
0.0
 11
1732.279347621572
 21
1022.871895153494
 31
0.0
  0
LINE
  5
2089
330
1F
100
AcDbEntity
  8
10
  6
Continuous
100
AcDbLine
 10
1731.779347621572
 20
1008.398099043135
 30
0.0
 11
1721.779347621573
 21
1008.398099043135
 31
0.0
  0
ARC
  5
208A
330
1F
100
AcDbEntity
  8
10
  6
Continuous
100
AcDbCircle
 10
1721.779347621573
 20
1007.898099043135
 30
0.0
 40
0.5000000000000002
100
AcDbArc
 50
90.0
 51
180.0
  0
LINE
  5
208B
330
1F
100
AcDbEntity
  8
10
  6
Continuous
100
AcDbLine
 10
1714.779347621572
 20
1031.871895153493
 30
0.0
 11
1714.779347621572
 21
1033.871895153493
 31
0.0
  0
LINE
  5
208C
330
1F
100
AcDbEntity
  8
10
  6
Continuous
100
AcDbLine
 10
1714.779347621572
 20
1020.221895153493
 30
0.0
 11
1714.779347621572
 21
1022.871895153494
 31
0.0
  0
LINE
  5
208D
330
1F
100
AcDbEntity
  8
10
  6
Continuous
100
AcDbLine
 10
1723.179347621572
 20
1029.042224462342
 30
0.0
 11
1723.179347621572
 21
1025.701565844644
 31
0.0
  0
LINE
  5
208E
330
1F
100
AcDbEntity
  8
10
  6
Continuous
100
AcDbLine
 10
1723.179347621572
 20
1027.371895153493
 30
0.0
 11
1723.179347621572
 21
1027.371895153493
 31
0.0
  0
ARC
  5
208F
330
1F
100
AcDbEntity
  8
10
  6
Continuous
100
AcDbCircle
 10
1731.779347621572
 20
1008.898099043135
 30
0.0
 40
0.5000000000000002
100
AcDbArc
 50
270.0
 51
0.0
  0
LINE
  5
2090
330
1F
100
AcDbEntity
  8
10
  6
Continuous
100
AcDbLine
 10
1725.779347621573
 20
1031.671895153494
 30
0.0
 11
1726.779347621572
 21
1031.671895153494
 31
0.0
  0
LINE
  5
2091
330
1F
100
AcDbEntity
  8
10
  6
Continuous
100
AcDbLine
 10
1726.779347621572
 20
1023.071895153494
 30
0.0
 11
1725.779347621573
 21
1023.071895153494
 31
0.0
  0
LINE
  5
2092
330
1F
100
AcDbEntity
  8
10
  6
Continuous
100
AcDbLine
 10
1725.779347621573
 20
1023.071895153494
 30
0.0
 11
1725.779347621573
 21
1031.671895153494
 31
0.0
  0
LINE
  5
2093
330
1F
100
AcDbEntity
  8
10
  6
Continuous
100
AcDbLine
 10
1726.779347621572
 20
1034.071895153493
 30
0.0
 11
1725.779347621573
 21
1034.071895153493
 31
0.0
  0
LINE
  5
2094
330
1F
100
AcDbEntity
  8
10
  6
Continuous
100
AcDbLine
 10
1725.779347621573
 20
1023.871895153493
 30
0.0
 11
1725.779347621573
 21
1030.871895153493
 31
0.0
  0
LINE
  5
2095
330
1F
100
AcDbEntity
  8
10
  6
Continuous
100
AcDbLine
 10
1725.779347621573
 20
1030.871895153493
 30
0.0
 11
1725.779347621573
 21
1031.171895153494
 31
0.0
  0
ARC
  5
2096
330
1F
100
AcDbEntity
  8
10
  6
Continuous
100
AcDbCircle
 10
1725.779347621573
 20
1027.371895153493
 30
0.0
 40
3.500000000000153
100
AcDbArc
 50
236.6329870307644
 51
270.0
  0
ARC
  5
2097
330
1F
100
AcDbEntity
  8
10
  6
Continuous
100
AcDbCircle
 10
1725.779347621573
 20
1027.371895153493
 30
0.0
 40
3.500000000000001
100
AcDbArc
 50
90.0
 51
123.3670129692354
  0
LINE
  5
2098
330
1F
100
AcDbEntity
  8
10
  6
Continuous
100
AcDbLine
 10
1726.779347621572
 20
1022.871895153494
 30
0.0
 11
1726.779347621572
 21
1031.871895153493
 31
0.0
  0
ARC
  5
2099
330
1F
100
AcDbEntity
  8
10
  6
Continuous
100
AcDbCircle
 10
1724.679347621572
 20
1040.042224462342
 30
0.0
 40
1.500000000000225
100
AcDbArc
 50
123.3670129692371
 51
180.0
  0
ARC
  5
209A
330
1F
100
AcDbEntity
  8
10
  6
Continuous
100
AcDbCircle
 10
1724.679347621572
 20
1036.701565844643
 30
0.0
 40
1.5
100
AcDbArc
 50
180.0
 51
236.6329870307627
  0
ARC
  5
209B
330
1F
100
AcDbEntity
  8
10
  6
Continuous
100
AcDbCircle
 10
1724.679347621572
 20
1038.371895153493
 30
0.0
 40
1.5
100
AcDbArc
 50
90.0
 51
180.0
  0
ARC
  5
209C
330
1F
100
AcDbEntity
  8
10
  6
Continuous
100
AcDbCircle
 10
1724.679347621572
 20
1038.371895153493
 30
0.0
 40
1.5
100
AcDbArc
 50
180.0
 51
270.0
  0
LINE
  5
209D
330
1F
100
AcDbEntity
  8
10
  6
Continuous
100
AcDbLine
 10
1721.979347621573
 20
1062.671895153493
 30
0.0
 11
1724.279347621573
 21
1062.671895153493
 31
0.0
  0
ARC
  5
209E
330
1F
100
AcDbEntity
  8
10
  6
Continuous
100
AcDbCircle
 10
1724.679347621572
 20
1051.042224462342
 30
0.0
 40
1.500000000000225
100
AcDbArc
 50
123.3670129692371
 51
180.0
  0
ARC
  5
209F
330
1F
100
AcDbEntity
  8
10
  6
Continuous
100
AcDbCircle
 10
1724.679347621572
 20
1047.701565844644
 30
0.0
 40
1.5
100
AcDbArc
 50
180.0
 51
236.6329870307627
  0
ARC
  5
20A0
330
1F
100
AcDbEntity
  8
10
  6
Continuous
100
AcDbCircle
 10
1724.679347621572
 20
1049.371895153494
 30
0.0
 40
1.5
100
AcDbArc
 50
90.0
 51
180.0
  0
ARC
  5
20A1
330
1F
100
AcDbEntity
  8
10
  6
Continuous
100
AcDbCircle
 10
1724.679347621572
 20
1049.371895153494
 30
0.0
 40
1.5
100
AcDbArc
 50
180.0
 51
270.0
  0
LINE
  5
20A2
330
1F
100
AcDbEntity
  8
10
  6
Continuous
100
AcDbLine
 10
1714.779347621572
 20
1056.521895153494
 30
0.0
 11
1732.279347621572
 21
1056.521895153494
 31
0.0
  0
LINE
  5
20A3
330
1F
100
AcDbEntity
  8
10
  6
Continuous
100
AcDbLine
 10
1714.779347621572
 20
1053.871895153493
 30
0.0
 11
1732.279347621572
 21
1053.871895153493
 31
0.0
  0
LINE
  5
20A4
330
1F
100
AcDbEntity
  8
10
  6
Continuous
100
AcDbLine
 10
1714.779347621572
 20
1044.871895153493
 30
0.0
 11
1732.279347621572
 21
1044.871895153493
 31
0.0
  0
LINE
  5
20A5
330
1F
100
AcDbEntity
  8
10
  6
Continuous
100
AcDbLine
 10
1714.779347621572
 20
1042.871895153493
 30
0.0
 11
1732.279347621572
 21
1042.871895153493
 31
0.0
  0
LINE
  5
20A6
330
1F
100
AcDbEntity
  8
10
  6
Continuous
100
AcDbLine
 10
1714.779347621572
 20
1042.871895153493
 30
0.0
 11
1714.779347621572
 21
1044.871895153493
 31
0.0
  0
LINE
  5
20A7
330
1F
100
AcDbEntity
  8
10
  6
Continuous
100
AcDbLine
 10
1723.179347621572
 20
1040.042224462342
 30
0.0
 11
1723.179347621572
 21
1036.701565844643
 31
0.0
  0
LINE
  5
20A8
330
1F
100
AcDbEntity
  8
10
  6
Continuous
100
AcDbLine
 10
1723.179347621572
 20
1038.371895153493
 30
0.0
 11
1723.179347621572
 21
1038.371895153493
 31
0.0
  0
LINE
  5
20A9
330
1F
100
AcDbEntity
  8
10
  6
Continuous
100
AcDbLine
 10
1723.179347621572
 20
1051.042224462342
 30
0.0
 11
1723.179347621572
 21
1047.701565844644
 31
0.0
  0
LINE
  5
20AA
330
1F
100
AcDbEntity
  8
10
  6
Continuous
100
AcDbLine
 10
1723.179347621572
 20
1049.371895153494
 30
0.0
 11
1723.179347621572
 21
1049.371895153494
 31
0.0
  0
LINE
  5
20AB
330
1F
100
AcDbEntity
  8
10
  6
Continuous
100
AcDbLine
 10
1714.779347621572
 20
1053.871895153493
 30
0.0
 11
1714.779347621572
 21
1056.521895153494
 31
0.0
  0
ARC
  5
20AC
330
1F
100
AcDbEntity
  8
10
  6
Continuous
100
AcDbCircle
 10
1720.579347621572
 20
1068.504935077783
 30
0.0
 40
2.5
100
AcDbArc
 50
180.0
 51
239.3967053917924
  0
ARC
  5
20AD
330
1F
100
AcDbEntity
  8
10
  6
Continuous
100
AcDbCircle
 10
1721.979347621573
 20
1070.871895153493
 30
0.0
 40
5.249999999999955
100
AcDbArc
 50
239.3967053917934
 51
270.0
  0
LINE
  5
20AE
330
1F
100
AcDbEntity
  8
10
  6
Continuous
100
AcDbLine
 10
1725.779347621573
 20
1045.871895153493
 30
0.0
 11
1725.779347621573
 21
1052.871895153493
 31
0.0
  0
ARC
  5
20AF
330
1F
100
AcDbEntity
  8
10
  6
Continuous
100
AcDbCircle
 10
1725.779347621573
 20
1049.371895153494
 30
0.0
 40
3.500000000000001
100
AcDbArc
 50
90.0
 51
123.3670129692354
  0
LINE
  5
20B0
330
1F
100
AcDbEntity
  8
10
  6
Continuous
100
AcDbLine
 10
1725.779347621573
 20
1045.071895153492
 30
0.0
 11
1725.779347621573
 21
1053.671895153493
 31
0.0
  0
LINE
  5
20B1
330
1F
100
AcDbEntity
  8
10
  6
Continuous
100
AcDbLine
 10
1726.779347621572
 20
1044.871895153493
 30
0.0
 11
1726.779347621572
 21
1053.871895153493
 31
0.0
  0
LINE
  5
20B2
330
1F
100
AcDbEntity
  8
10
  6
Continuous
100
AcDbLine
 10
1725.779347621573
 20
1041.871895153493
 30
0.0
 11
1725.779347621573
 21
1042.171895153493
 31
0.0
  0
ARC
  5
20B3
330
1F
100
AcDbEntity
  8
10
  6
Continuous
100
AcDbCircle
 10
1725.779347621573
 20
1038.371895153493
 30
0.0
 40
3.500000000000001
100
AcDbArc
 50
90.0
 51
123.3670129692354
  0
LINE
  5
20B4
330
1F
100
AcDbEntity
  8
10
  6
Continuous
100
AcDbLine
 10
1725.779347621573
 20
1042.671895153493
 30
0.0
 11
1726.779347621572
 21
1042.671895153493
 31
0.0
  0
ARC
  5
20B5
330
1F
100
AcDbEntity
  8
10
  6
Continuous
100
AcDbCircle
 10
1725.779347621573
 20
1049.371895153494
 30
0.0
 40
3.500000000000153
100
AcDbArc
 50
236.6329870307644
 51
270.0
  0
LINE
  5
20B6
330
1F
100
AcDbEntity
  8
10
  6
Continuous
100
AcDbLine
 10
1726.779347621572
 20
1045.071895153492
 30
0.0
 11
1725.779347621573
 21
1045.071895153492
 31
0.0
  0
LINE
  5
20B7
330
1F
100
AcDbEntity
  8
10
  6
Continuous
100
AcDbLine
 10
1725.779347621573
 20
1034.871895153493
 30
0.0
 11
1725.779347621573
 21
1041.871895153493
 31
0.0
  0
LINE
  5
20B8
330
1F
100
AcDbEntity
  8
10
  6
Continuous
100
AcDbLine
 10
1725.779347621573
 20
1052.871895153493
 30
0.0
 11
1725.779347621573
 21
1053.171895153493
 31
0.0
  0
LINE
  5
20B9
330
1F
100
AcDbEntity
  8
10
  6
Continuous
100
AcDbLine
 10
1725.779347621573
 20
1053.671895153493
 30
0.0
 11
1726.779347621572
 21
1053.671895153493
 31
0.0
  0
LINE
  5
20BA
330
1F
100
AcDbEntity
  8
10
  6
Continuous
100
AcDbLine
 10
1717.779347621572
 20
1182.159519344365
 30
0.0
 11
1717.779347621572
 21
1124.584270962621
 31
0.0
  0
LINE
  5
20BB
330
1F
100
AcDbEntity
  8
10
  6
Continuous
100
AcDbLine
 10
1715.779347621571
 20
1183.108483911079
 30
0.0
 11
1715.779347621571
 21
1123.635306395906
 31
0.0
  0
LINE
  5
20BC
330
1F
100
AcDbEntity
  8
10
  6
Continuous
100
AcDbLine
 10
1718.679347621572
 20
1180.871895153494
 30
0.0
 11
1718.679347621572
 21
1125.871895153493
 31
0.0
  0
LINE
  5
20BD
330
1F
100
AcDbEntity
  8
10
  6
Continuous
100
AcDbLine
 10
1728.779347621572
 20
1183.758361067438
 30
0.0
 11
1728.779347621572
 21
1122.985429239548
 31
0.0
  0
LINE
  5
20BE
330
1F
100
AcDbEntity
  8
10
  6
Continuous
100
AcDbLine
 10
1710.279347621573
 20
1103.371895153493
 30
0.0
 11
1732.279347621572
 21
1103.371895153493
 31
0.0
  0
LINE
  5
20BF
330
1F
100
AcDbEntity
  8
10
  6
Continuous
100
AcDbLine
 10
1710.279347621573
 20
1086.371895153493
 30
0.0
 11
1732.279347621572
 21
1086.371895153493
 31
0.0
  0
LINE
  5
20C0
330
1F
100
AcDbEntity
  8
10
  6
Continuous
100
AcDbLine
 10
1710.279347621573
 20
1079.371895153493
 30
0.0
 11
1732.279347621572
 21
1079.371895153493
 31
0.0
  0
LINE
  5
20C1
330
1F
100
AcDbEntity
  8
10
  6
Continuous
100
AcDbLine
 10
1703.502890486265
 20
1111.656863405461
 30
0.0
 11
1721.279347621573
 21
1116.420050739153
 31
0.0
  0
LINE
  5
20C2
330
1F
100
AcDbEntity
  8
10
  6
Continuous
100
AcDbLine
 10
1721.279347621573
 20
1108.920050739154
 30
0.0
 11
1711.02052857647
 21
1106.171208460722
 31
0.0
  0
ARC
  5
20C3
330
1F
100
AcDbEntity
  8
10
  6
Continuous
100
AcDbCircle
 10
1711.279347621572
 20
1105.205282634432
 30
0.0
 40
1.000000000000001
100
AcDbArc
 50
104.9999999999944
 51
180.0
  0
ARC
  5
20C4
330
1F
100
AcDbEntity
  8
10
  6
Continuous
100
AcDbCircle
 10
1704.279347621572
 20
1108.759085926595
 30
0.0
 40
3.000000000000008
100
AcDbArc
 50
105.0000000000011
 51
180.0
  0
LINE
  5
20C5
330
1F
100
AcDbEntity
  8
10
  6
Continuous
100
AcDbLine
 10
1721.979347621573
 20
1079.071895153492
 30
0.0
 11
1724.279347621573
 21
1079.071895153492
 31
0.0
  0
LINE
  5
20C6
330
1F
100
AcDbEntity
  8
10
  6
Continuous
100
AcDbLine
 10
1721.979347621573
 20
1103.071895153493
 30
0.0
 11
1724.279347621573
 21
1103.071895153493
 31
0.0
  0
LINE
  5
20C7
330
1F
100
AcDbEntity
  8
10
  6
Continuous
100
AcDbLine
 10
1721.979347621573
 20
1086.671895153493
 30
0.0
 11
1724.279347621573
 21
1086.671895153493
 31
0.0
  0
LINE
  5
20C8
330
1F
100
AcDbEntity
  8
10
  6
Continuous
100
AcDbLine
 10
1721.979347621573
 20
1086.671895153493
 30
0.0
 11
1721.979347621573
 21
1103.071895153493
 31
0.0
  0
ARC
  5
20C9
330
1F
100
AcDbEntity
  8
10
  6
Continuous
100
AcDbCircle
 10
1720.079347621572
 20
1070.871895153493
 30
0.0
 40
2.0
100
AcDbArc
 50
90.0
 51
180.0
  0
ARC
  5
20CA
330
1F
100
AcDbEntity
  8
10
  6
Continuous
100
AcDbCircle
 10
1720.579347621572
 20
1073.238855229202
 30
0.0
 40
2.499999999999985
100
AcDbArc
 50
120.6032946082074
 51
180.0
  0
ARC
  5
20CB
330
1F
100
AcDbEntity
  8
10
  6
Continuous
100
AcDbCircle
 10
1721.979347621573
 20
1070.871895153493
 30
0.0
 40
5.250000000000001
100
AcDbArc
 50
90.0
 51
120.6032946082065
  0
ARC
  5
20CC
330
1F
100
AcDbEntity
  8
10
  6
Continuous
100
AcDbCircle
 10
1720.079347621572
 20
1094.871895153493
 30
0.0
 40
2.0
100
AcDbArc
 50
90.0
 51
180.0
  0
ARC
  5
20CD
330
1F
100
AcDbEntity
  8
10
  6
Continuous
100
AcDbCircle
 10
1720.079347621572
 20
1094.871895153493
 30
0.0
 40
2.0
100
AcDbArc
 50
180.0
 51
270.0
  0
ARC
  5
20CE
330
1F
100
AcDbEntity
  8
10
  6
Continuous
100
AcDbCircle
 10
1720.579347621572
 20
1097.238855229202
 30
0.0
 40
2.499999999999985
100
AcDbArc
 50
120.6032946082074
 51
180.0
  0
LINE
  5
20CF
330
1F
100
AcDbEntity
  8
10
  6
Continuous
100
AcDbLine
 10
1718.079347621572
 20
1097.238855229202
 30
0.0
 11
1718.079347621572
 21
1092.504935077784
 31
0.0
  0
ARC
  5
20D0
330
1F
100
AcDbEntity
  8
10
  6
Continuous
100
AcDbCircle
 10
1721.979347621573
 20
1094.871895153493
 30
0.0
 40
5.250000000000001
100
AcDbArc
 50
90.0
 51
120.6032946082065
  0
ARC
  5
20D1
330
1F
100
AcDbEntity
  8
10
  6
Continuous
100
AcDbCircle
 10
1720.579347621572
 20
1092.504935077784
 30
0.0
 40
2.5
100
AcDbArc
 50
180.0
 51
239.3967053917924
  0
ARC
  5
20D2
330
1F
100
AcDbEntity
  8
10
  6
Continuous
100
AcDbCircle
 10
1721.979347621573
 20
1094.871895153493
 30
0.0
 40
5.249999999999955
100
AcDbArc
 50
239.3967053917934
 51
270.0
  0
LINE
  5
20D3
330
1F
100
AcDbEntity
  8
10
  6
Continuous
100
AcDbLine
 10
1724.279347621573
 20
1086.371895153493
 30
0.0
 11
1724.279347621573
 21
1103.371895153493
 31
0.0
  0
LINE
  5
20D4
330
1F
100
AcDbEntity
  8
10
  6
Continuous
100
AcDbLine
 10
1717.36757772165
 20
1107.871895153493
 30
0.0
 11
1732.279347621572
 21
1107.871895153493
 31
0.0
  0
LINE
  5
20D5
330
1F
100
AcDbEntity
  8
10
  6
Continuous
100
AcDbLine
 10
1721.831719464715
 20
1124.371895153494
 30
0.0
 11
1723.779347621572
 21
1124.371895153494
 31
0.0
  0
LINE
  5
20D6
330
1F
100
AcDbEntity
  8
10
  6
Continuous
100
AcDbLine
 10
1718.679347621572
 20
1125.871895153493
 30
0.0
 11
1727.279347621572
 21
1125.871895153493
 31
0.0
  0
LINE
  5
20D7
330
1F
100
AcDbEntity
  8
10
  6
Continuous
100
AcDbLine
 10
1721.779347621573
 20
1124.871895153493
 30
0.0
 11
1724.279347621572
 21
1124.871895153493
 31
0.0
  0
LINE
  5
20D8
330
1F
100
AcDbEntity
  8
10
  6
Continuous
100
AcDbLine
 10
1728.28807382479
 20
1122.48550539197
 30
0.0
 11
1722.270621418354
 21
1122.380470369514
 31
0.0
  0
LINE
  5
20D9
330
1F
100
AcDbEntity
  8
10
  6
Continuous
100
AcDbLine
 10
1732.279347621572
 20
1108.898099043135
 30
0.0
 11
1721.779347621573
 21
1108.898099043135
 31
0.0
  0
LINE
  5
20DA
330
1F
100
AcDbEntity
  8
10
  6
Continuous
100
AcDbLine
 10
1716.727011665329
 20
1122.636676861151
 30
0.0
 11
1721.779347621574
 21
1122.371895153493
 31
0.0
  0
ARC
  5
20DB
330
1F
100
AcDbEntity
  8
10
  6
Continuous
100
AcDbCircle
 10
1716.779347621572
 20
1123.635306395906
 30
0.0
 40
1.0
100
AcDbArc
 50
180.0
 51
267.0000000000009
  0
LINE
  5
20DC
330
1F
100
AcDbEntity
  8
10
  6
Continuous
100
AcDbLine
 10
1721.779347621574
 20
1122.371895153493
 30
0.0
 11
1722.186738106585
 21
1122.371895153493
 31
0.0
  0
LINE
  5
20DD
330
1F
100
AcDbEntity
  8
10
  6
Continuous
100
AcDbLine
 10
1721.279347621573
 20
1116.420050739153
 30
0.0
 11
1721.279347621573
 21
1108.920050739154
 31
0.0
  0
LINE
  5
20DE
330
1F
100
AcDbEntity
  8
10
  6
Continuous
100
AcDbLine
 10
1721.779347621573
 20
1121.880546521935
 30
0.0
 11
1721.779347621573
 21
1116.871895153493
 31
0.0
  0
ARC
  5
20DF
330
1F
100
AcDbEntity
  8
10
  6
Continuous
100
AcDbCircle
 10
1722.279347621572
 20
1121.880546521935
 30
0.0
 40
0.5000000000000063
100
AcDbArc
 50
91.00000000000177
 51
180.0
  0
LINE
  5
20E0
330
1F
100
AcDbEntity
  8
10
  6
Continuous
100
AcDbLine
 10
1721.279347621573
 20
1116.245513383338
 30
0.0
 11
1721.279347621573
 21
1109.398099043135
 31
0.0
  0
ARC
  5
20E1
330
1F
100
AcDbEntity
  8
10
  6
Continuous
100
AcDbCircle
 10
1721.779347621573
 20
1109.398099043135
 30
0.0
 40
0.5000000000000002
100
AcDbArc
 50
180.0
 51
270.0
  0
LINE
  5
20E2
330
1F
100
AcDbEntity
  8
10
  6
Continuous
100
AcDbLine
 10
1721.279347621571
 20
1124.40084373513
 30
0.0
 11
1721.279347621571
 21
1125.871895153493
 31
0.0
  0
LINE
  5
20E3
330
1F
100
AcDbEntity
  8
10
  6
Continuous
100
AcDbLine
 10
1719.68127141022
 20
1124.484595360492
 30
0.0
 11
1719.68127141022
 21
1125.871895153493
 31
0.0
  0
LINE
  5
20E4
330
1F
100
AcDbEntity
  8
10
  6
Continuous
100
AcDbLine
 10
1717.779347621572
 20
1124.584270962621
 30
0.0
 11
1721.831719464715
 21
1124.371895153494
 31
0.0
  0
LINE
  5
20E5
330
1F
100
AcDbEntity
  8
10
  6
Continuous
100
AcDbLine
 10
1721.779347621573
 20
1125.871895153493
 30
0.0
 11
1721.779347621573
 21
1124.871895153493
 31
0.0
  0
LINE
  5
20E6
330
1F
100
AcDbEntity
  8
10
  6
Continuous
100
AcDbLine
 10
1723.779347621572
 20
1124.371895153494
 30
0.0
 11
1723.779347621572
 21
1122.40680528335
 31
0.0
  0
LINE
  5
20E7
330
1F
100
AcDbEntity
  8
10
  6
Continuous
100
AcDbLine
 10
1724.279347621572
 20
1124.871895153493
 30
0.0
 11
1724.279347621572
 21
1123.871895153493
 31
0.0
  0
LINE
  5
20E8
330
1F
100
AcDbEntity
  8
10
  6
Continuous
100
AcDbLine
 10
1727.279347621572
 20
1127.371895153493
 30
0.0
 11
1727.279347621572
 21
1122.467898010599
 31
0.0
  0
LINE
  5
20E9
330
1F
100
AcDbEntity
  8
10
  6
Continuous
100
AcDbLine
 10
1723.979347621572
 20
1123.871895153493
 30
0.0
 11
1727.279347621572
 21
1123.871895153493
 31
0.0
  0
LINE
  5
20EA
330
1F
100
AcDbEntity
  8
10
  6
Continuous
100
AcDbLine
 10
1723.979347621572
 20
1123.871895153493
 30
0.0
 11
1723.979347621572
 21
1122.410296296336
 31
0.0
  0
ARC
  5
20EB
330
1F
100
AcDbEntity
  8
10
  6
Continuous
100
AcDbCircle
 10
1728.279347621572
 20
1122.985429239548
 30
0.0
 40
0.5000000000000063
100
AcDbArc
 50
271.0000000000017
 51
0.0
  0
LINE
  5
20EC
330
1F
100
AcDbEntity
  8
10
  6
Continuous
100
AcDbLine
 10
1727.279347621572
 20
1127.371895153493
 30
0.0
 11
1728.779347621572
 21
1128.871895153493
 31
0.0
  0
LINE
  5
20ED
330
1F
100
AcDbEntity
  8
10
  6
Continuous
100
AcDbLine
 10
1721.831719464709
 20
1182.371895153493
 30
0.0
 11
1723.779347621572
 21
1182.371895153493
 31
0.0
  0
LINE
  5
20EE
330
1F
100
AcDbEntity
  8
10
  6
Continuous
100
AcDbLine
 10
1718.679347621572
 20
1180.871895153494
 30
0.0
 11
1728.779347621572
 21
1180.871895153494
 31
0.0
  0
LINE
  5
20EF
330
1F
100
AcDbEntity
  8
10
  6
Continuous
100
AcDbLine
 10
1721.779347621573
 20
1181.871895153493
 30
0.0
 11
1724.279347621572
 21
1181.871895153493
 31
0.0
  0
LINE
  5
20F0
330
1F
100
AcDbEntity
  8
10
  6
Continuous
100
AcDbLine
 10
1722.279347621572
 20
1203.871895153493
 30
0.0
 11
1724.279347621572
 21
1203.871895153493
 31
0.0
  0
LINE
  5
20F1
330
1F
100
AcDbEntity
  8
10
  6
Continuous
100
AcDbLine
 10
1722.270621418354
 20
1200.328105174729
 30
0.0
 11
1724.288073824791
 21
1200.363319937473
 31
0.0
  0
LINE
  5
20F2
330
1F
100
AcDbEntity
  8
10
  6
Continuous
100
AcDbLine
 10
1722.270621418354
 20
1207.415685132258
 30
0.0
 11
1724.288073824791
 21
1207.380470369514
 31
0.0
  0
LINE
  5
20F3
330
1F
100
AcDbEntity
  8
10
  6
Continuous
100
AcDbLine
 10
1722.270621418354
 20
1184.363319937473
 30
0.0
 11
1728.28807382479
 21
1184.258284915016
 31
0.0
  0
LINE
  5
20F4
330
1F
100
AcDbEntity
  8
10
  6
Continuous
100
AcDbLine
 10
1721.779347621573
 20
1199.828181327151
 30
0.0
 11
1721.779347621573
 21
1184.863243785052
 31
0.0
  0
LINE
  5
20F5
330
1F
100
AcDbEntity
  8
10
  6
Continuous
100
AcDbLine
 10
1716.727011665329
 20
1184.107113445834
 30
0.0
 11
1721.779347621574
 21
1184.371895153493
 31
0.0
  0
ARC
  5
20F6
330
1F
100
AcDbEntity
  8
10
  6
Continuous
100
AcDbCircle
 10
1716.779347621572
 20
1183.108483911079
 30
0.0
 40
1.000000000000057
100
AcDbArc
 50
93.00000000000556
 51
180.0
  0
LINE
  5
20F7
330
1F
100
AcDbEntity
  8
10
  6
Continuous
100
AcDbLine
 10
1721.779347621574
 20
1184.371895153493
 30
0.0
 11
1722.186738106587
 21
1184.371895153493
 31
0.0
  0
LINE
  5
20F8
330
1F
100
AcDbEntity
  8
10
  6
Continuous
100
AcDbLine
 10
1717.779347621572
 20
1182.159519344365
 30
0.0
 11
1721.831719464709
 21
1182.371895153493
 31
0.0
  0
LINE
  5
20F9
330
1F
100
AcDbEntity
  8
10
  6
Continuous
100
AcDbLine
 10
1719.68127141022
 20
1180.871895153494
 30
0.0
 11
1719.68127141022
 21
1182.259194946494
 31
0.0
  0
LINE
  5
20FA
330
1F
100
AcDbEntity
  8
10
  6
Continuous
100
AcDbLine
 10
1721.279347621571
 20
1180.871895153494
 30
0.0
 11
1721.279347621571
 21
1182.342946571856
 31
0.0
  0
LINE
  5
20FB
330
1F
100
AcDbEntity
  8
10
  6
Continuous
100
AcDbLine
 10
1721.779347621573
 20
1181.871895153493
 30
0.0
 11
1721.779347621573
 21
1180.871895153494
 31
0.0
  0
ARC
  5
20FC
330
1F
100
AcDbEntity
  8
10
  6
Continuous
100
AcDbCircle
 10
1722.279347621572
 20
1184.863243785052
 30
0.0
 40
0.5000000000000002
100
AcDbArc
 50
180.0
 51
268.9999999999981
  0
LINE
  5
20FD
330
1F
100
AcDbEntity
  8
10
  6
Continuous
100
AcDbLine
 10
1721.193561183945
 20
1203.871895153493
 30
0.0
 11
1722.279347621572
 21
1203.871895153493
 31
0.0
  0
LINE
  5
20FE
330
1F
100
AcDbEntity
  8
10
  6
Continuous
100
AcDbLine
 10
1720.486454402759
 20
1204.164788372307
 30
0.0
 11
1719.072240840386
 21
1205.57900193468
 31
0.0
  0
ARC
  5
20FF
330
1F
100
AcDbEntity
  8
10
  6
Continuous
100
AcDbCircle
 10
1719.779347621573
 20
1206.286108715866
 30
0.0
 40
1.0
100
AcDbArc
 50
180.0
 51
225.0000000000069
  0
ARC
  5
2100
330
1F
100
AcDbEntity
  8
10
  6
Continuous
100
AcDbCircle
 10
1721.193561183945
 20
1204.871895153493
 30
0.0
 40
0.9999999999999284
100
AcDbArc
 50
224.9999999999976
 51
270.0
  0
ARC
  5
2101
330
1F
100
AcDbEntity
  8
10
  6
Continuous
100
AcDbCircle
 10
1722.279347621572
 20
1204.371895153493
 30
0.0
 40
0.5000000000000002
100
AcDbArc
 50
180.0
 51
270.0
  0
ARC
  5
2102
330
1F
100
AcDbEntity
  8
10
  6
Continuous
100
AcDbCircle
 10
1722.279347621572
 20
1207.915608979836
 30
0.0
 40
0.5000000000000002
100
AcDbArc
 50
180.0
 51
268.9999999999981
  0
ARC
  5
2103
330
1F
100
AcDbEntity
  8
10
  6
Continuous
100
AcDbCircle
 10
1722.279347621572
 20
1199.828181327151
 30
0.0
 40
0.5000000000000063
100
AcDbArc
 50
91.00000000000177
 51
180.0
  0
LINE
  5
2104
330
1F
100
AcDbEntity
  8
10
  6
Continuous
100
AcDbLine
 10
1723.779347621572
 20
1184.336985023636
 30
0.0
 11
1723.779347621572
 21
1182.371895153493
 31
0.0
  0
LINE
  5
2105
330
1F
100
AcDbEntity
  8
10
  6
Continuous
100
AcDbLine
 10
1724.279347621572
 20
1182.871895153493
 30
0.0
 11
1724.279347621572
 21
1181.871895153493
 31
0.0
  0
LINE
  5
2106
330
1F
100
AcDbEntity
  8
10
  6
Continuous
100
AcDbLine
 10
1723.979347621572
 20
1182.871895153493
 30
0.0
 11
1728.779347621572
 21
1182.871895153493
 31
0.0
  0
LINE
  5
2107
330
1F
100
AcDbEntity
  8
10
  6
Continuous
100
AcDbLine
 10
1723.979347621572
 20
1184.333494010652
 30
0.0
 11
1723.979347621572
 21
1182.871895153493
 31
0.0
  0
ARC
  5
2108
330
1F
100
AcDbEntity
  8
10
  6
Continuous
100
AcDbCircle
 10
1728.279347621572
 20
1183.758361067438
 30
0.0
 40
0.5000000000000002
100
AcDbArc
 50
0.0
 51
88.99999999999822
  0
LINE
  5
2109
330
1F
100
AcDbEntity
  8
10
  6
Continuous
100
AcDbLine
 10
1724.779347621572
 20
1206.880546521936
 30
0.0
 11
1724.779347621572
 21
1200.863243785051
 31
0.0
  0
ARC
  5
210A
330
1F
100
AcDbEntity
  8
10
  6
Continuous
100
AcDbCircle
 10
1724.279347621572
 20
1203.371895153493
 30
0.0
 40
0.5000000000000002
100
AcDbArc
 50
0.0
 51
90.0
  0
ARC
  5
210B
330
1F
100
AcDbEntity
  8
10
  6
Continuous
100
AcDbCircle
 10
1724.279347621572
 20
1206.880546521936
 30
0.0
 40
0.5000000000000002
100
AcDbArc
 50
0.0
 51
88.99999999999822
  0
ARC
  5
210C
330
1F
100
AcDbEntity
  8
10
  6
Continuous
100
AcDbCircle
 10
1724.279347621572
 20
1200.863243785051
 30
0.0
 40
0.5000000000000063
100
AcDbArc
 50
271.0000000000017
 51
0.0
  0
LINE
  5
210E
330
1F
100
AcDbEntity
  8
10
  6
Continuous
100
AcDbLine
 10
1492.279347621573
 20
1230.871895153494
 30
0.0
 11
1550.279347621573
 21
1230.871895153494
 31
0.0
  0
LINE
  5
210F
330
1F
100
AcDbEntity
  8
10
  6
Continuous
100
AcDbLine
 10
1516.779347621572
 20
1221.071895153494
 30
0.0
 11
1532.979347621573
 21
1221.071895153492
 31
0.0
  0
LINE
  5
2110
330
1F
100
AcDbEntity
  8
10
  6
Continuous
100
AcDbLine
 10
1474.279347621572
 20
1241.371895153493
 30
0.0
 11
1474.279347621572
 21
1231.371895153493
 31
0.0
  0
ARC
  5
2111
330
1F
100
AcDbEntity
  8
10
  6
Continuous
100
AcDbCircle
 10
1492.279347621573
 20
1229.871895153493
 30
0.0
 40
1.0
100
AcDbArc
 50
90.0
 51
180.0
  0
LINE
  5
2112
330
1F
100
AcDbEntity
  8
10
  6
Continuous
100
AcDbLine
 10
1500.679347621573
 20
1229.95479492756
 30
0.0
 11
1510.679347621572
 21
1229.95479492756
 31
0.0
  0
LINE
  5
2113
330
1F
100
AcDbEntity
  8
10
  6
Continuous
100
AcDbLine
 10
1501.179347621572
 20
1230.480962905682
 30
0.0
 11
1510.179347621573
 21
1230.480962905682
 31
0.0
  0
LINE
  5
2114
330
1F
100
AcDbEntity
  8
10
  6
Continuous
100
AcDbLine
 10
1501.179347621572
 20
1230.585778464248
 30
0.0
 11
1510.179347621573
 21
1230.585778464248
 31
0.0
  0
LINE
  5
2115
330
1F
100
AcDbEntity
  8
10
  6
Continuous
100
AcDbLine
 10
1501.179347621572
 20
1230.690594022814
 30
0.0
 11
1510.179347621573
 21
1230.690594022814
 31
0.0
  0
LINE
  5
2116
330
1F
100
AcDbEntity
  8
10
  6
DASHED
 48
4.0
100
AcDbLine
 10
1513.299347621573
 20
1223.411895153494
 30
0.0
 11
1498.059347621572
 21
1223.411895153494
 31
0.0
  0
CIRCLE
  5
2117
330
1F
100
AcDbEntity
  8
12
  6
Continuous
100
AcDbCircle
 10
1506.279347621573
 20
1236.371895153493
 30
0.0
 40
3.000000000000001
  0
LINE
  5
2118
330
1F
100
AcDbEntity
  8
12
 48
3.0
100
AcDbLine
 10
1498.279347621572
 20
1236.371895153493
 30
0.0
 11
1514.279347621573
 21
1236.371895153493
 31
0.0
  0
LINE
  5
2119
330
1F
100
AcDbEntity
  8
10
  6
Continuous
100
AcDbLine
 10
1496.379347621572
 20
1230.216797912454
 30
0.0
 11
1500.680034737532
 21
1230.216797912454
 31
0.0
  0
LINE
  5
211A
330
1F
100
AcDbEntity
  8
10
  6
Continuous
100
AcDbLine
 10
1496.279347621572
 20
1230.269205691739
 30
0.0
 11
1500.685566085356
 21
1230.269205691739
 31
0.0
  0
LINE
  5
211B
330
1F
100
AcDbEntity
  8
0
  6
Continuous
 62
     3
100
AcDbLine
 10
1496.279347621572
 20
1228.068931222539
 30
0.0
 11
1496.379347621572
 21
1228.068931222539
 31
0.0
  0
LINE
  5
211C
330
1F
100
AcDbEntity
  8
10
  6
Continuous
100
AcDbLine
 10
1496.279347621572
 20
1230.216797912454
 30
0.0
 11
1496.279347621572
 21
1219.46059348687
 31
0.0
  0
ARC
  5
211D
330
1F
100
AcDbEntity
  8
10
  6
Continuous
100
AcDbCircle
 10
1501.179347621572
 20
1230.190594022814
 30
0.0
 40
0.5000000000000002
100
AcDbArc
 50
90.0
 51
180.0
  0
ARC
  5
211E
330
1F
100
AcDbEntity
  8
10
  6
Continuous
100
AcDbCircle
 10
1501.179347621572
 20
1230.085778464248
 30
0.0
 40
0.5000000000000002
100
AcDbArc
 50
90.0
 51
180.0
  0
ARC
  5
211F
330
1F
100
AcDbEntity
  8
10
  6
Continuous
100
AcDbCircle
 10
1501.179347621572
 20
1229.980962905682
 30
0.0
 40
0.5000000000000002
100
AcDbArc
 50
90.0
 51
180.0
  0
LINE
  5
2120
330
1F
100
AcDbEntity
  8
10
  6
Continuous
100
AcDbLine
 10
1500.679347621573
 20
1229.95479492756
 30
0.0
 11
1500.679347621573
 21
1230.190594022814
 31
0.0
  0
LINE
  5
2121
330
1F
100
AcDbEntity
  8
10
  6
Continuous
100
AcDbLine
 10
1510.678660505611
 20
1230.216797912454
 30
0.0
 11
1514.979347621573
 21
1230.216797912454
 31
0.0
  0
LINE
  5
2122
330
1F
100
AcDbEntity
  8
10
  6
Continuous
100
AcDbLine
 10
1510.673129157789
 20
1230.269205691739
 30
0.0
 11
1515.079347621572
 21
1230.269205691739
 31
0.0
  0
ARC
  5
2123
330
1F
100
AcDbEntity
  8
10
  6
Continuous
100
AcDbCircle
 10
1510.179347621573
 20
1230.190594022814
 30
0.0
 40
0.5000000000000002
100
AcDbArc
 50
0.0
 51
90.0
  0
ARC
  5
2124
330
1F
100
AcDbEntity
  8
10
  6
Continuous
100
AcDbCircle
 10
1510.179347621573
 20
1230.085778464248
 30
0.0
 40
0.5000000000000002
100
AcDbArc
 50
0.0
 51
90.0
  0
ARC
  5
2125
330
1F
100
AcDbEntity
  8
10
  6
Continuous
100
AcDbCircle
 10
1510.179347621573
 20
1229.980962905682
 30
0.0
 40
0.5000000000000002
100
AcDbArc
 50
0.0
 51
90.0
  0
LINE
  5
2126
330
1F
100
AcDbEntity
  8
10
  6
Continuous
100
AcDbLine
 10
1510.679347621572
 20
1229.95479492756
 30
0.0
 11
1510.679347621572
 21
1230.190594022814
 31
0.0
  0
LINE
  5
2127
330
1F
100
AcDbEntity
  8
10
  6
Continuous
100
AcDbLine
 10
1514.979347621573
 20
1228.068931222539
 30
0.0
 11
1515.079347621572
 21
1228.068931222539
 31
0.0
  0
LINE
  5
2128
330
1F
100
AcDbEntity
  8
10
  6
Continuous
100
AcDbLine
 10
1515.079347621572
 20
1230.269205691739
 30
0.0
 11
1515.079347621572
 21
1214.347932383087
 31
0.0
  0
ARC
  5
2129
330
1F
100
AcDbEntity
  8
10
  6
Continuous
100
AcDbCircle
 10
1516.779347621572
 20
1220.071895153493
 30
0.0
 40
1.0
100
AcDbArc
 50
90.0
 51
180.0
  0
LINE
  5
212F
330
1F
100
AcDbEntity
  8
10
  6
Continuous
100
AcDbLine
 10
1538.279347621573
 20
1241.371895153493
 30
0.0
 11
1551.279347621573
 21
1241.371895153493
 31
0.0
  0
ARC
  5
2130
330
1F
100
AcDbEntity
  8
10
  6
Continuous
100
AcDbCircle
 10
1532.979347621573
 20
1220.071895153493
 30
0.0
 40
1.0
100
AcDbArc
 50
0.0
 51
90.0
  0
LINE
  5
2131
330
1F
100
AcDbEntity
  8
10
  6
Continuous
100
AcDbLine
 10
1538.279347621573
 20
1241.371895153493
 30
0.0
 11
1538.279347621573
 21
1231.371895153493
 31
0.0
  0
ARC
  5
2132
330
1F
100
AcDbEntity
  8
10
  6
Continuous
100
AcDbCircle
 10
1550.279347621573
 20
1229.871895153493
 30
0.0
 40
1.0
100
AcDbArc
 50
0.0
 51
90.0
  0
LINE
  5
2133
330
1F
100
AcDbEntity
  8
10
  6
Continuous
100
AcDbLine
 10
1549.279347621572
 20
1241.371895153493
 30
0.0
 11
1549.279347621572
 21
1246.371895153493
 31
0.0
  0
LINE
  5
2134
330
1F
100
AcDbEntity
  8
10
  6
Continuous
100
AcDbLine
 10
1549.279347621572
 20
1246.371895153493
 30
0.0
 11
1551.279347621573
 21
1244.371895153493
 31
0.0
  0
LINE
  5
2135
330
1F
100
AcDbEntity
  8
10
  6
Continuous
100
AcDbLine
 10
1548.279347621573
 20
1241.371895153493
 30
0.0
 11
1548.279347621573
 21
1231.371895153493
 31
0.0
  0
LINE
  5
2136
330
1F
100
AcDbEntity
  8
10
  6
Continuous
100
AcDbLine
 10
1549.549347621573
 20
1231.371895153493
 30
0.0
 11
1548.279347621573
 21
1241.371895153493
 31
0.0
  0
LINE
  5
2137
330
1F
100
AcDbEntity
  8
10
  6
Continuous
100
AcDbLine
 10
1726.48969898413
 20
1230.596802512029
 30
0.0
 11
1723.200050346687
 21
1230.424399332319
 31
0.0
  0
ARC
  5
2138
330
1F
100
AcDbEntity
  8
10
  6
Continuous
100
AcDbCircle
 10
1726.357058215415
 20
1227.585734065904
 30
0.0
 40
2.999999999999939
100
AcDbArc
 50
92.9999999999991
 51
160.3162775136998
  0
ARC
  5
2139
330
1F
100
AcDbEntity
  8
10
  6
Continuous
100
AcDbCircle
 10
1748.779347621572
 20
1218.334160759551
 30
0.0
 40
29.99999999999996
100
AcDbArc
 50
160.3162775136998
 51
180.0
  0
ARC
  5
213A
330
1F
100
AcDbEntity
  8
10
  6
Continuous
100
AcDbCircle
 10
1723.357058215415
 20
1227.428510728055
 30
0.0
 40
2.999999999999931
100
AcDbArc
 50
92.9999999999991
 51
160.3162775136983
  0
ARC
  5
213B
330
1F
100
AcDbEntity
  8
10
  6
Continuous
100
AcDbCircle
 10
1751.779347621572
 20
1218.4913840974
 30
0.0
 40
30.00000000000003
100
AcDbArc
 50
160.3162775136998
 51
180.0
  0
LINE
  5
213D
330
1F
100
AcDbEntity
  8
10
  6
Continuous
100
AcDbLine
 10
1913.280613610581
 20
998.5777768870107
 30
0.0
 11
1952.529347621572
 21
998.5777768870107
 31
0.0
  0
LINE
  5
213E
330
1F
100
AcDbEntity
  8
10
  6
Continuous
100
AcDbLine
 10
1913.280613610581
 20
997.3777768870107
 30
0.0
 11
1952.529347621572
 21
997.3777768870107
 31
0.0
  0
LINE
  5
213F
330
1F
100
AcDbEntity
  8
10
  6
Continuous
100
AcDbLine
 10
1923.779347621572
 20
980.5718951534938
 30
0.0
 11
1919.779347621572
 21
980.5718951534938
 31
0.0
  0
LINE
  5
2140
330
1F
100
AcDbEntity
  8
10
  6
Continuous
100
AcDbLine
 10
1917.779347621572
 20
970.0718951534938
 30
0.0
 11
1925.779347621573
 21
970.0718951534938
 31
0.0
  0
LINE
  5
2141
330
1F
100
AcDbEntity
  8
10
  6
Continuous
100
AcDbLine
 10
1925.779347621573
 20
969.5718951534937
 30
0.0
 11
1917.779347621572
 21
969.5718951534937
 31
0.0
  0
LINE
  5
2142
330
1F
100
AcDbEntity
  8
10
  6
Continuous
100
AcDbLine
 10
1925.279347621573
 20
968.5718951534935
 30
0.0
 11
1918.279347621572
 21
968.5718951534935
 31
0.0
  0
LINE
  5
2143
330
1F
100
AcDbEntity
  8
10
  6
Continuous
100
AcDbLine
 10
1920.109018312723
 20
965.9718951534935
 30
0.0
 11
1923.449676930422
 21
965.9718951534935
 31
0.0
  0
ARC
  5
2144
330
1F
100
AcDbEntity
  8
10
  6
Continuous
100
AcDbCircle
 10
1921.779347621573
 20
967.4718951534936
 30
0.0
 40
1.5
100
AcDbArc
 50
270.0
 51
0.0
  0
LINE
  5
2145
330
1F
100
AcDbEntity
  8
10
  6
Continuous
100
AcDbLine
 10
1997.529347621572
 20
1005.871895153493
 30
0.0
 11
1917.529347621572
 21
1005.871895153493
 31
0.0
  0
LINE
  5
2146
330
1F
100
AcDbEntity
  8
10
  6
Continuous
100
AcDbLine
 10
1997.529347621572
 20
975.8718951534936
 30
0.0
 11
1917.529347621572
 21
975.8718951534936
 31
0.0
  0
LINE
  5
2147
330
1F
100
AcDbEntity
  8
10
  6
Continuous
100
AcDbLine
 10
1997.529347621572
 20
1009.871895153493
 30
0.0
 11
1917.529347621572
 21
1009.871895153493
 31
0.0
  0
LINE
  5
2148
330
1F
100
AcDbEntity
  8
10
  6
Continuous
100
AcDbLine
 10
1997.529347621572
 20
971.8718951534937
 30
0.0
 11
1917.529347621572
 21
971.8718951534937
 31
0.0
  0
LINE
  5
2149
330
1F
100
AcDbEntity
  8
10
  6
Continuous
100
AcDbLine
 10
1926.279347621573
 20
978.1718951534939
 30
0.0
 11
1908.579347621573
 21
978.1718951534939
 31
0.0
  0
LINE
  5
214A
330
1F
100
AcDbEntity
  8
10
  6
Continuous
100
AcDbLine
 10
1926.279347621573
 20
975.8718951534936
 30
0.0
 11
1906.279347621573
 21
975.8718951534936
 31
0.0
  0
LINE
  5
214B
330
1F
100
AcDbEntity
  8
10
  6
Continuous
100
AcDbLine
 10
1906.279347621573
 20
1013.371895153493
 30
0.0
 11
2004.279347621573
 21
1013.371895153493
 31
0.0
  0
LINE
  5
214C
330
1F
100
AcDbEntity
  8
10
  6
Continuous
100
AcDbLine
 10
1906.279347621573
 20
1225.371895153493
 30
0.0
 11
2004.279347621573
 21
1225.371895153493
 31
0.0
  0
LINE
  5
214D
330
1F
100
AcDbEntity
  8
10
  6
Continuous
100
AcDbLine
 10
1926.279347621571
 20
970.0718951534938
 30
0.0
 11
1918.429347621573
 21
970.0718951534938
 31
0.0
  0
LINE
  5
214E
330
1F
100
AcDbEntity
  8
10
  6
Continuous
100
AcDbLine
 10
1927.024932033844
 20
971.8718951534937
 30
0.0
 11
1918.429347621573
 21
971.8718951534937
 31
0.0
  0
LINE
  5
214F
330
1F
100
AcDbEntity
  8
10
  6
Continuous
100
AcDbLine
 10
1906.279347621573
 20
965.3718951534935
 30
0.0
 11
1906.279347621573
 21
1226.371895153493
 31
0.0
  0
LINE
  5
2150
330
1F
100
AcDbEntity
  8
10
  6
Continuous
100
AcDbLine
 10
1901.279347621573
 20
946.3718951534938
 30
0.0
 11
1901.279347621573
 21
1246.371895153493
 31
0.0
  0
LINE
  5
2151
330
1F
100
AcDbEntity
  8
10
  6
Continuous
100
AcDbLine
 10
1897.279347621573
 20
946.3718951534938
 30
0.0
 11
1897.279347621573
 21
1246.371895153493
 31
0.0
  0
LINE
  5
2152
330
1F
100
AcDbEntity
  8
10
  6
Continuous
100
AcDbLine
 10
1741.279347621572
 20
1231.371895153493
 30
0.0
 11
1741.279347621572
 21
1116.871895153493
 31
0.0
  0
LINE
  5
2153
330
1F
100
AcDbEntity
  8
10
  6
Continuous
100
AcDbLine
 10
1896.779347621572
 20
1241.371895153493
 30
0.0
 11
1896.779347621572
 21
1128.871895153493
 31
0.0
  0
LINE
  5
2154
330
1F
100
AcDbEntity
  8
10
  6
Continuous
100
AcDbLine
 10
1741.279347621572
 20
1231.371895153493
 30
0.0
 11
1741.279347621572
 21
1021.371895153493
 31
0.0
  0
LINE
  5
2155
330
1F
100
AcDbEntity
  8
10
  6
Continuous
100
AcDbLine
 10
1892.279347621573
 20
951.3718951534936
 30
0.0
 11
1749.272685054451
 21
961.3718951534936
 31
0.0
  0
LINE
  5
2156
330
1F
100
AcDbEntity
  8
10
  6
Continuous
100
AcDbLine
 10
1796.029347621573
 20
982.6218951534936
 30
0.0
 11
1796.029347621573
 21
1210.121895153489
 31
0.0
  0
LINE
  5
2157
330
1F
100
AcDbEntity
  8
10
  6
Continuous
100
AcDbLine
 10
1783.529347621573
 20
982.6218951534936
 30
0.0
 11
1783.529347621573
 21
1210.121895153489
 31
0.0
  0
LINE
  5
2158
330
1F
100
AcDbEntity
  8
10
  6
Continuous
100
AcDbLine
 10
1773.529347621573
 20
982.6218951534936
 30
0.0
 11
1773.529347621573
 21
1210.121895153489
 31
0.0
  0
LINE
  5
2159
330
1F
100
AcDbEntity
  8
10
  6
Continuous
100
AcDbLine
 10
1771.029347621572
 20
982.6218951534936
 30
0.0
 11
1771.029347621572
 21
1210.121895153489
 31
0.0
  0
LINE
  5
215A
330
1F
100
AcDbEntity
  8
10
  6
Continuous
100
AcDbLine
 10
1781.029347621573
 20
982.6218951534936
 30
0.0
 11
1781.029347621573
 21
1210.121895153489
 31
0.0
  0
LINE
  5
215B
330
1F
100
AcDbEntity
  8
10
  6
Continuous
100
AcDbLine
 10
1768.529347621573
 20
982.6218951534936
 30
0.0
 11
1768.529347621573
 21
1210.121895153489
 31
0.0
  0
LINE
  5
215C
330
1F
100
AcDbEntity
  8
10
  6
Continuous
100
AcDbLine
 10
1758.529347621572
 20
1021.371895153493
 30
0.0
 11
1758.529347621572
 21
1210.121895153489
 31
0.0
  0
LINE
  5
215D
330
1F
100
AcDbEntity
  8
10
  6
Continuous
100
AcDbLine
 10
1793.529347621572
 20
982.6218951534936
 30
0.0
 11
1793.529347621572
 21
1210.121895153489
 31
0.0
  0
LINE
  5
215E
330
1F
100
AcDbEntity
  8
10
  6
Continuous
100
AcDbLine
 10
1761.029347621573
 20
1021.371895153493
 30
0.0
 11
1761.029347621573
 21
1210.121895153489
 31
0.0
  0
LINE
  5
215F
330
1F
100
AcDbEntity
  8
10
  6
Continuous
100
AcDbLine
 10
1766.029347621573
 20
982.6218951534936
 30
0.0
 11
1766.029347621573
 21
1210.121895153489
 31
0.0
  0
LINE
  5
2160
330
1F
100
AcDbEntity
  8
10
  6
Continuous
100
AcDbLine
 10
1778.529347621573
 20
982.6218951534936
 30
0.0
 11
1778.529347621573
 21
1210.121895153489
 31
0.0
  0
LINE
  5
2161
330
1F
100
AcDbEntity
  8
10
  6
Continuous
100
AcDbLine
 10
1756.029347621573
 20
1021.371895153493
 30
0.0
 11
1756.029347621573
 21
1210.121895153489
 31
0.0
  0
LINE
  5
2162
330
1F
100
AcDbEntity
  8
10
  6
Continuous
100
AcDbLine
 10
1763.529347621572
 20
1021.371895153493
 30
0.0
 11
1763.529347621572
 21
1210.121895153489
 31
0.0
  0
LINE
  5
2163
330
1F
100
AcDbEntity
  8
10
  6
Continuous
100
AcDbLine
 10
1753.529347621573
 20
1021.371895153493
 30
0.0
 11
1753.529347621573
 21
1210.121895153489
 31
0.0
  0
LINE
  5
2164
330
1F
100
AcDbEntity
  8
10
  6
Continuous
100
AcDbLine
 10
1751.029347621573
 20
1021.371895153493
 30
0.0
 11
1751.029347621573
 21
1210.121895153489
 31
0.0
  0
LINE
  5
2165
330
1F
100
AcDbEntity
  8
10
  6
Continuous
100
AcDbLine
 10
1776.029347621572
 20
982.6218951534936
 30
0.0
 11
1776.029347621572
 21
1210.121895153489
 31
0.0
  0
LINE
  5
2166
330
1F
100
AcDbEntity
  8
10
  6
Continuous
100
AcDbLine
 10
1791.029347621573
 20
982.6218951534936
 30
0.0
 11
1791.029347621573
 21
1210.121895153489
 31
0.0
  0
LINE
  5
2167
330
1F
100
AcDbEntity
  8
10
  6
Continuous
100
AcDbLine
 10
1798.529347621573
 20
982.6218951534936
 30
0.0
 11
1798.529347621573
 21
1210.121895153489
 31
0.0
  0
LINE
  5
2168
330
1F
100
AcDbEntity
  8
10
  6
Continuous
100
AcDbLine
 10
1788.529347621572
 20
982.6218951534936
 30
0.0
 11
1788.529347621572
 21
1210.121895153489
 31
0.0
  0
LINE
  5
2169
330
1F
100
AcDbEntity
  8
10
  6
Continuous
100
AcDbLine
 10
1786.029347621573
 20
982.6218951534936
 30
0.0
 11
1786.029347621573
 21
1210.121895153489
 31
0.0
  0
LINE
  5
216A
330
1F
100
AcDbEntity
  8
10
  6
Continuous
100
AcDbLine
 10
1746.029347621572
 20
1021.371895153493
 30
0.0
 11
1746.029347621572
 21
1210.121895153489
 31
0.0
  0
LINE
  5
216B
330
1F
100
AcDbEntity
  8
10
  6
Continuous
100
AcDbLine
 10
1748.529347621573
 20
1021.371895153493
 30
0.0
 11
1748.529347621573
 21
1210.121895153489
 31
0.0
  0
LINE
  5
216C
330
1F
100
AcDbEntity
  8
10
  6
Continuous
100
AcDbLine
 10
1801.029347621573
 20
982.6218951534936
 30
0.0
 11
1801.029347621573
 21
1210.121895153489
 31
0.0
  0
LINE
  5
216D
330
1F
100
AcDbEntity
  8
10
  6
Continuous
100
AcDbLine
 10
1803.529347621573
 20
982.6218951534936
 30
0.0
 11
1803.529347621573
 21
1210.121895153489
 31
0.0
  0
LINE
  5
216E
330
1F
100
AcDbEntity
  8
10
  6
Continuous
100
AcDbLine
 10
1740.779347621571
 20
1116.415687305258
 30
0.0
 11
1740.779347621572
 21
1021.371895153493
 31
0.0
  0
LINE
  5
216F
330
1F
100
AcDbEntity
  8
10
  6
Continuous
100
AcDbLine
 10
1806.029347621572
 20
982.6218951534936
 30
0.0
 11
1806.029347621572
 21
1210.121895153489
 31
0.0
  0
LINE
  5
2170
330
1F
100
AcDbEntity
  8
10
  6
Continuous
100
AcDbLine
 10
1808.529347621572
 20
982.6218951534936
 30
0.0
 11
1808.529347621572
 21
1210.121895153489
 31
0.0
  0
LINE
  5
2171
330
1F
100
AcDbEntity
  8
10
  6
Continuous
100
AcDbLine
 10
1811.029347621573
 20
982.6218951534936
 30
0.0
 11
1811.029347621573
 21
1210.121895153489
 31
0.0
  0
LINE
  5
2172
330
1F
100
AcDbEntity
  8
10
  6
Continuous
100
AcDbLine
 10
1813.529347621573
 20
982.6218951534936
 30
0.0
 11
1813.529347621573
 21
1210.121895153489
 31
0.0
  0
LINE
  5
2173
330
1F
100
AcDbEntity
  8
10
  6
Continuous
100
AcDbLine
 10
1816.029347621573
 20
982.6218951534936
 30
0.0
 11
1816.029347621573
 21
1210.121895153489
 31
0.0
  0
LINE
  5
2174
330
1F
100
AcDbEntity
  8
10
  6
Continuous
100
AcDbLine
 10
1818.529347621573
 20
982.6218951534936
 30
0.0
 11
1818.529347621573
 21
1210.121895153489
 31
0.0
  0
LINE
  5
2175
330
1F
100
AcDbEntity
  8
10
  6
Continuous
100
AcDbLine
 10
1821.029347621572
 20
982.6218951534936
 30
0.0
 11
1821.029347621572
 21
1210.121895153489
 31
0.0
  0
LINE
  5
2176
330
1F
100
AcDbEntity
  8
10
  6
Continuous
100
AcDbLine
 10
1823.529347621573
 20
982.6218951534936
 30
0.0
 11
1823.529347621573
 21
1210.121895153489
 31
0.0
  0
LINE
  5
2177
330
1F
100
AcDbEntity
  8
10
  6
Continuous
100
AcDbLine
 10
1826.029347621572
 20
982.6218951534936
 30
0.0
 11
1826.029347621572
 21
1210.121895153489
 31
0.0
  0
LINE
  5
2178
330
1F
100
AcDbEntity
  8
10
  6
Continuous
100
AcDbLine
 10
1828.529347621573
 20
982.6218951534936
 30
0.0
 11
1828.529347621573
 21
1210.121895153489
 31
0.0
  0
ARC
  5
2179
330
1F
100
AcDbEntity
  8
10
  6
Continuous
100
AcDbCircle
 10
1782.279347621573
 20
982.6218951534936
 30
0.0
 40
1.25
100
AcDbArc
 50
180.0
 51
0.0
  0
LINE
  5
217A
330
1F
100
AcDbEntity
  8
10
  6
Continuous
100
AcDbLine
 10
1783.529347621573
 20
1063.871895153491
 30
0.0
 11
1781.029347621573
 21
1063.871895153491
 31
0.0
  0
LINE
  5
217B
330
1F
100
AcDbEntity
  8
10
  6
Continuous
100
AcDbLine
 10
1783.529347621573
 20
1013.871895153491
 30
0.0
 11
1781.029347621573
 21
1013.871895153491
 31
0.0
  0
LINE
  5
217C
330
1F
100
AcDbEntity
  8
10
  6
Continuous
100
AcDbLine
 10
1783.529347621573
 20
1028.871895153491
 30
0.0
 11
1781.029347621573
 21
1028.871895153491
 31
0.0
  0
TEXT
  5
217D
330
1F
100
AcDbEntity
  8
10
  6
Continuous
100
AcDbText
 10
1736.779329624241
 20
1001.271899082004
 30
0.0
 40
6.400000095367434
  1
ＮＰ
 50
269.999994991043
 41
0.7031250019402551
  7
STANDARD1
100
AcDbText
  0
LINE
  5
217E
330
1F
100
AcDbEntity
  8
10
  6
Continuous
100
AcDbLine
 10
1765.279347621573
 20
971.8718951534937
 30
0.0
 11
1765.279347621573
 21
1020.871895153492
 31
0.0
  0
LINE
  5
217F
330
1F
100
AcDbEntity
  8
10
  6
Continuous
100
AcDbLine
 10
1735.779347621573
 20
971.3718951534938
 30
0.0
 11
1764.779347621573
 21
971.3718951534938
 31
0.0
  0
LINE
  5
2180
330
1F
100
AcDbEntity
  8
10
  6
Continuous
100
AcDbLine
 10
1741.279347621572
 20
971.3718951534938
 30
0.0
 11
1741.279347621572
 21
961.3718951534936
 31
0.0
  0
LINE
  5
2181
330
1F
100
AcDbEntity
  8
10
  6
Continuous
100
AcDbLine
 10
1740.779347621572
 20
971.3718951534938
 30
0.0
 11
1740.779347621572
 21
961.3980990431352
 31
0.0
  0
LINE
  5
2182
330
1F
100
AcDbEntity
  8
10
  6
Continuous
100
AcDbLine
 10
1741.279347621572
 20
961.3718951534936
 30
0.0
 11
1749.272685054451
 21
961.3718951534936
 31
0.0
  0
LINE
  5
2183
330
1F
100
AcDbEntity
  8
10
  6
Continuous
100
AcDbLine
 10
1740.779347621572
 20
961.8718951534935
 30
0.0
 11
1741.279347621572
 21
961.8718951534935
 31
0.0
  0
ARC
  5
2185
330
1F
100
AcDbEntity
  8
10
  6
Continuous
100
AcDbCircle
 10
1764.779347621573
 20
971.8718951534937
 30
0.0
 40
0.5000000000000002
100
AcDbArc
 50
270.0
 51
0.0
  0
ARC
  5
2186
330
1F
100
AcDbEntity
  8
10
  6
Continuous
100
AcDbCircle
 10
1767.279347621573
 20
982.6218951534936
 30
0.0
 40
1.25
100
AcDbArc
 50
180.0
 51
0.0
  0
ARC
  5
2187
330
1F
100
AcDbEntity
  8
10
  6
Continuous
100
AcDbCircle
 10
1777.279347621572
 20
982.6218951534936
 30
0.0
 40
1.25
100
AcDbArc
 50
180.0
 51
0.0
  0
ARC
  5
2188
330
1F
100
AcDbEntity
  8
10
  6
Continuous
100
AcDbCircle
 10
1772.279347621573
 20
982.6218951534936
 30
0.0
 40
1.25
100
AcDbArc
 50
180.0
 51
0.0
  0
LINE
  5
2189
330
1F
100
AcDbEntity
  8
10
  6
Continuous
100
AcDbLine
 10
1735.779347621573
 20
1021.371895153493
 30
0.0
 11
1764.779347621573
 21
1021.371895153493
 31
0.0
  0
LINE
  5
218A
330
1F
100
AcDbEntity
  8
10
  6
Continuous
100
AcDbLine
 10
1748.529347621573
 20
1028.871895153491
 30
0.0
 11
1746.029347621572
 21
1028.871895153491
 31
0.0
  0
LINE
  5
218B
330
1F
100
AcDbEntity
  8
10
  6
Continuous
100
AcDbLine
 10
1753.529347621573
 20
1028.871895153491
 30
0.0
 11
1751.029347621573
 21
1028.871895153491
 31
0.0
  0
LINE
  5
218C
330
1F
100
AcDbEntity
  8
10
  6
Continuous
100
AcDbLine
 10
1758.529347621572
 20
1028.871895153491
 30
0.0
 11
1756.029347621573
 21
1028.871895153491
 31
0.0
  0
LINE
  5
218D
330
1F
100
AcDbEntity
  8
10
  6
Continuous
100
AcDbLine
 10
1748.529347621573
 20
1063.871895153491
 30
0.0
 11
1746.029347621572
 21
1063.871895153491
 31
0.0
  0
LINE
  5
218E
330
1F
100
AcDbEntity
  8
10
  6
Continuous
100
AcDbLine
 10
1753.529347621573
 20
1063.871895153491
 30
0.0
 11
1751.029347621573
 21
1063.871895153491
 31
0.0
  0
LINE
  5
218F
330
1F
100
AcDbEntity
  8
10
  6
Continuous
100
AcDbLine
 10
1758.529347621572
 20
1063.871895153491
 30
0.0
 11
1756.029347621573
 21
1063.871895153491
 31
0.0
  0
LINE
  5
2190
330
1F
100
AcDbEntity
  8
10
  6
Continuous
100
AcDbLine
 10
1768.529347621573
 20
1013.871895153491
 30
0.0
 11
1766.029347621573
 21
1013.871895153491
 31
0.0
  0
LINE
  5
2191
330
1F
100
AcDbEntity
  8
10
  6
Continuous
100
AcDbLine
 10
1763.529347621572
 20
1028.871895153491
 30
0.0
 11
1761.029347621573
 21
1028.871895153491
 31
0.0
  0
ARC
  5
2192
330
1F
100
AcDbEntity
  8
10
  6
Continuous
100
AcDbCircle
 10
1764.779347621573
 20
1020.871895153492
 30
0.0
 40
0.5000000000000002
100
AcDbArc
 50
0.0
 51
90.0
  0
LINE
  5
2193
330
1F
100
AcDbEntity
  8
10
  6
Continuous
100
AcDbLine
 10
1768.529347621573
 20
1028.871895153491
 30
0.0
 11
1766.029347621573
 21
1028.871895153491
 31
0.0
  0
LINE
  5
2194
330
1F
100
AcDbEntity
  8
10
  6
Continuous
100
AcDbLine
 10
1778.529347621573
 20
1013.871895153491
 30
0.0
 11
1776.029347621572
 21
1013.871895153491
 31
0.0
  0
LINE
  5
2195
330
1F
100
AcDbEntity
  8
10
  6
Continuous
100
AcDbLine
 10
1773.529347621573
 20
1013.871895153491
 30
0.0
 11
1771.029347621572
 21
1013.871895153491
 31
0.0
  0
LINE
  5
2196
330
1F
100
AcDbEntity
  8
10
  6
Continuous
100
AcDbLine
 10
1778.529347621573
 20
1028.871895153491
 30
0.0
 11
1776.029347621572
 21
1028.871895153491
 31
0.0
  0
LINE
  5
2197
330
1F
100
AcDbEntity
  8
10
  6
Continuous
100
AcDbLine
 10
1773.529347621573
 20
1028.871895153491
 30
0.0
 11
1771.029347621572
 21
1028.871895153491
 31
0.0
  0
LINE
  5
2198
330
1F
100
AcDbEntity
  8
10
  6
Continuous
100
AcDbLine
 10
1763.529347621572
 20
1063.871895153491
 30
0.0
 11
1761.029347621573
 21
1063.871895153491
 31
0.0
  0
LINE
  5
2199
330
1F
100
AcDbEntity
  8
10
  6
Continuous
100
AcDbLine
 10
1768.529347621573
 20
1063.871895153491
 30
0.0
 11
1766.029347621573
 21
1063.871895153491
 31
0.0
  0
LINE
  5
219A
330
1F
100
AcDbEntity
  8
10
  6
Continuous
100
AcDbLine
 10
1778.529347621573
 20
1063.871895153491
 30
0.0
 11
1776.029347621572
 21
1063.871895153491
 31
0.0
  0
LINE
  5
219B
330
1F
100
AcDbEntity
  8
10
  6
Continuous
100
AcDbLine
 10
1773.529347621573
 20
1063.871895153491
 30
0.0
 11
1771.029347621572
 21
1063.871895153491
 31
0.0
  0
ARC
  5
219C
330
1F
100
AcDbEntity
  8
10
  6
Continuous
100
AcDbCircle
 10
1787.279347621573
 20
982.6218951534936
 30
0.0
 40
1.25
100
AcDbArc
 50
180.0
 51
0.0
  0
ARC
  5
219D
330
1F
100
AcDbEntity
  8
10
  6
Continuous
100
AcDbCircle
 10
1792.279347621573
 20
982.6218951534936
 30
0.0
 40
1.25
100
AcDbArc
 50
180.0
 51
0.0
  0
ARC
  5
219E
330
1F
100
AcDbEntity
  8
10
  6
Continuous
100
AcDbCircle
 10
1797.279347621573
 20
982.6218951534936
 30
0.0
 40
1.25
100
AcDbArc
 50
180.0
 51
0.0
  0
ARC
  5
219F
330
1F
100
AcDbEntity
  8
10
  6
Continuous
100
AcDbCircle
 10
1802.279347621572
 20
982.6218951534936
 30
0.0
 40
1.25
100
AcDbArc
 50
180.0
 51
0.0
  0
ARC
  5
21A0
330
1F
100
AcDbEntity
  8
10
  6
Continuous
100
AcDbCircle
 10
1817.279347621573
 20
982.6218951534936
 30
0.0
 40
1.25
100
AcDbArc
 50
180.0
 51
0.0
  0
ARC
  5
21A1
330
1F
100
AcDbEntity
  8
10
  6
Continuous
100
AcDbCircle
 10
1812.279347621572
 20
982.6218951534936
 30
0.0
 40
1.25
100
AcDbArc
 50
180.0
 51
0.0
  0
ARC
  5
21A2
330
1F
100
AcDbEntity
  8
10
  6
Continuous
100
AcDbCircle
 10
1807.279347621572
 20
982.6218951534936
 30
0.0
 40
1.25
100
AcDbArc
 50
180.0
 51
0.0
  0
ARC
  5
21A3
330
1F
100
AcDbEntity
  8
10
  6
Continuous
100
AcDbCircle
 10
1822.279347621573
 20
982.6218951534936
 30
0.0
 40
1.25
100
AcDbArc
 50
180.0
 51
0.0
  0
ARC
  5
21A4
330
1F
100
AcDbEntity
  8
10
  6
Continuous
100
AcDbCircle
 10
1827.279347621573
 20
982.6218951534936
 30
0.0
 40
1.25
100
AcDbArc
 50
180.0
 51
0.0
  0
LINE
  5
21A5
330
1F
100
AcDbEntity
  8
10
  6
Continuous
100
AcDbLine
 10
1788.529347621572
 20
1013.871895153491
 30
0.0
 11
1786.029347621573
 21
1013.871895153491
 31
0.0
  0
LINE
  5
21A6
330
1F
100
AcDbEntity
  8
10
  6
Continuous
100
AcDbLine
 10
1793.529347621572
 20
1013.871895153491
 30
0.0
 11
1791.029347621573
 21
1013.871895153491
 31
0.0
  0
LINE
  5
21A7
330
1F
100
AcDbEntity
  8
10
  6
Continuous
100
AcDbLine
 10
1788.529347621572
 20
1028.871895153491
 30
0.0
 11
1786.029347621573
 21
1028.871895153491
 31
0.0
  0
LINE
  5
21A8
330
1F
100
AcDbEntity
  8
10
  6
Continuous
100
AcDbLine
 10
1793.529347621572
 20
1028.871895153491
 30
0.0
 11
1791.029347621573
 21
1028.871895153491
 31
0.0
  0
LINE
  5
21A9
330
1F
100
AcDbEntity
  8
10
  6
Continuous
100
AcDbLine
 10
1798.529347621573
 20
1013.871895153491
 30
0.0
 11
1796.029347621573
 21
1013.871895153491
 31
0.0
  0
LINE
  5
21AA
330
1F
100
AcDbEntity
  8
10
  6
Continuous
100
AcDbLine
 10
1803.529347621573
 20
1013.871895153491
 30
0.0
 11
1801.029347621573
 21
1013.871895153491
 31
0.0
  0
LINE
  5
21AB
330
1F
100
AcDbEntity
  8
10
  6
Continuous
100
AcDbLine
 10
1798.529347621573
 20
1028.871895153491
 30
0.0
 11
1796.029347621573
 21
1028.871895153491
 31
0.0
  0
LINE
  5
21AC
330
1F
100
AcDbEntity
  8
10
  6
Continuous
100
AcDbLine
 10
1803.529347621573
 20
1028.871895153491
 30
0.0
 11
1801.029347621573
 21
1028.871895153491
 31
0.0
  0
LINE
  5
21AD
330
1F
100
AcDbEntity
  8
10
  6
Continuous
100
AcDbLine
 10
1788.529347621572
 20
1063.871895153491
 30
0.0
 11
1786.029347621573
 21
1063.871895153491
 31
0.0
  0
LINE
  5
21AE
330
1F
100
AcDbEntity
  8
10
  6
Continuous
100
AcDbLine
 10
1793.529347621572
 20
1063.871895153491
 30
0.0
 11
1791.029347621573
 21
1063.871895153491
 31
0.0
  0
LINE
  5
21AF
330
1F
100
AcDbEntity
  8
10
  6
Continuous
100
AcDbLine
 10
1798.529347621573
 20
1063.871895153491
 30
0.0
 11
1796.029347621573
 21
1063.871895153491
 31
0.0
  0
LINE
  5
21B0
330
1F
100
AcDbEntity
  8
10
  6
Continuous
100
AcDbLine
 10
1803.529347621573
 20
1063.871895153491
 30
0.0
 11
1801.029347621573
 21
1063.871895153491
 31
0.0
  0
LINE
  5
21B1
330
1F
100
AcDbEntity
  8
10
  6
Continuous
100
AcDbLine
 10
1818.529347621573
 20
1013.871895153491
 30
0.0
 11
1816.029347621573
 21
1013.871895153491
 31
0.0
  0
LINE
  5
21B2
330
1F
100
AcDbEntity
  8
10
  6
Continuous
100
AcDbLine
 10
1818.529347621573
 20
1028.871895153491
 30
0.0
 11
1816.029347621573
 21
1028.871895153491
 31
0.0
  0
LINE
  5
21B3
330
1F
100
AcDbEntity
  8
10
  6
Continuous
100
AcDbLine
 10
1813.529347621573
 20
1013.871895153491
 30
0.0
 11
1811.029347621573
 21
1013.871895153491
 31
0.0
  0
LINE
  5
21B4
330
1F
100
AcDbEntity
  8
10
  6
Continuous
100
AcDbLine
 10
1808.529347621572
 20
1013.871895153491
 30
0.0
 11
1806.029347621572
 21
1013.871895153491
 31
0.0
  0
LINE
  5
21B5
330
1F
100
AcDbEntity
  8
10
  6
Continuous
100
AcDbLine
 10
1813.529347621573
 20
1028.871895153491
 30
0.0
 11
1811.029347621573
 21
1028.871895153491
 31
0.0
  0
LINE
  5
21B6
330
1F
100
AcDbEntity
  8
10
  6
Continuous
100
AcDbLine
 10
1808.529347621572
 20
1028.871895153491
 30
0.0
 11
1806.029347621572
 21
1028.871895153491
 31
0.0
  0
LINE
  5
21B7
330
1F
100
AcDbEntity
  8
10
  6
Continuous
100
AcDbLine
 10
1823.529347621573
 20
1013.871895153491
 30
0.0
 11
1821.029347621572
 21
1013.871895153491
 31
0.0
  0
LINE
  5
21B8
330
1F
100
AcDbEntity
  8
10
  6
Continuous
100
AcDbLine
 10
1828.529347621573
 20
1013.871895153491
 30
0.0
 11
1826.029347621572
 21
1013.871895153491
 31
0.0
  0
LINE
  5
21B9
330
1F
100
AcDbEntity
  8
10
  6
Continuous
100
AcDbLine
 10
1823.529347621573
 20
1028.871895153491
 30
0.0
 11
1821.029347621572
 21
1028.871895153491
 31
0.0
  0
LINE
  5
21BA
330
1F
100
AcDbEntity
  8
10
  6
Continuous
100
AcDbLine
 10
1828.529347621573
 20
1028.871895153491
 30
0.0
 11
1826.029347621572
 21
1028.871895153491
 31
0.0
  0
LINE
  5
21BB
330
1F
100
AcDbEntity
  8
10
  6
Continuous
100
AcDbLine
 10
1818.529347621573
 20
1063.871895153491
 30
0.0
 11
1816.029347621573
 21
1063.871895153491
 31
0.0
  0
LINE
  5
21BC
330
1F
100
AcDbEntity
  8
10
  6
Continuous
100
AcDbLine
 10
1813.529347621573
 20
1063.871895153491
 30
0.0
 11
1811.029347621573
 21
1063.871895153491
 31
0.0
  0
LINE
  5
21BD
330
1F
100
AcDbEntity
  8
10
  6
Continuous
100
AcDbLine
 10
1808.529347621572
 20
1063.871895153491
 30
0.0
 11
1806.029347621572
 21
1063.871895153491
 31
0.0
  0
LINE
  5
21BE
330
1F
100
AcDbEntity
  8
10
  6
Continuous
100
AcDbLine
 10
1823.529347621573
 20
1063.871895153491
 30
0.0
 11
1821.029347621572
 21
1063.871895153491
 31
0.0
  0
LINE
  5
21BF
330
1F
100
AcDbEntity
  8
10
  6
Continuous
100
AcDbLine
 10
1828.529347621573
 20
1063.871895153491
 30
0.0
 11
1826.029347621572
 21
1063.871895153491
 31
0.0
  0
ARC
  5
21C0
330
1F
100
AcDbEntity
  8
10
  6
Continuous
100
AcDbCircle
 10
1782.279347621573
 20
1210.121895153489
 30
0.0
 40
1.25
100
AcDbArc
 50
0.0
 51
180.0
  0
LINE
  5
21C1
330
1F
100
AcDbEntity
  8
10
  6
Continuous
100
AcDbLine
 10
1783.529347621573
 20
1178.871895153491
 30
0.0
 11
1781.029347621573
 21
1178.871895153491
 31
0.0
  0
LINE
  5
21C2
330
1F
100
AcDbEntity
  8
10
  6
Continuous
100
AcDbLine
 10
1783.529347621573
 20
1163.87189515349
 30
0.0
 11
1781.029347621573
 21
1163.87189515349
 31
0.0
  0
LINE
  5
21C3
330
1F
100
AcDbEntity
  8
10
  6
Continuous
100
AcDbLine
 10
1783.529347621573
 20
1128.871895153491
 30
0.0
 11
1781.029347621573
 21
1128.871895153491
 31
0.0
  0
LINE
  5
21C4
330
1F
100
AcDbEntity
  8
10
  6
Continuous
100
AcDbLine
 10
1783.529347621573
 20
1113.871895153491
 30
0.0
 11
1781.029347621573
 21
1113.871895153491
 31
0.0
  0
LINE
  5
21C5
330
1F
100
AcDbEntity
  8
10
  6
Continuous
100
AcDbLine
 10
1783.529347621573
 20
1078.871895153491
 30
0.0
 11
1781.029347621573
 21
1078.871895153491
 31
0.0
  0
LINE
  5
21C6
330
1F
100
AcDbEntity
  8
10
  6
Continuous
100
AcDbLine
 10
1748.529347621573
 20
1078.871895153491
 30
0.0
 11
1746.029347621572
 21
1078.871895153491
 31
0.0
  0
LINE
  5
21C7
330
1F
100
AcDbEntity
  8
10
  6
Continuous
100
AcDbLine
 10
1753.529347621573
 20
1078.871895153491
 30
0.0
 11
1751.029347621573
 21
1078.871895153491
 31
0.0
  0
LINE
  5
21C8
330
1F
100
AcDbEntity
  8
10
  6
Continuous
100
AcDbLine
 10
1758.529347621572
 20
1078.871895153491
 30
0.0
 11
1756.029347621573
 21
1078.871895153491
 31
0.0
  0
LINE
  5
21C9
330
1F
100
AcDbEntity
  8
10
  6
Continuous
100
AcDbLine
 10
1748.529347621573
 20
1128.871895153491
 30
0.0
 11
1746.029347621572
 21
1128.871895153491
 31
0.0
  0
LINE
  5
21CA
330
1F
100
AcDbEntity
  8
10
  6
Continuous
100
AcDbLine
 10
1748.529347621573
 20
1113.871895153491
 30
0.0
 11
1746.029347621572
 21
1113.871895153491
 31
0.0
  0
LINE
  5
21CB
330
1F
100
AcDbEntity
  8
10
  6
Continuous
100
AcDbLine
 10
1741.279347621572
 20
1116.420050739153
 30
0.0
 11
1741.279347621572
 21
1120.420050739154
 31
0.0
  0
LINE
  5
21CC
330
1F
100
AcDbEntity
  8
10
  6
Continuous
100
AcDbLine
 10
1753.529347621573
 20
1113.871895153491
 30
0.0
 11
1751.029347621573
 21
1113.871895153491
 31
0.0
  0
LINE
  5
21CD
330
1F
100
AcDbEntity
  8
10
  6
Continuous
100
AcDbLine
 10
1758.529347621572
 20
1113.871895153491
 30
0.0
 11
1756.029347621573
 21
1113.871895153491
 31
0.0
  0
LINE
  5
21CE
330
1F
100
AcDbEntity
  8
10
  6
Continuous
100
AcDbLine
 10
1753.529347621573
 20
1128.871895153491
 30
0.0
 11
1751.029347621573
 21
1128.871895153491
 31
0.0
  0
LINE
  5
21CF
330
1F
100
AcDbEntity
  8
10
  6
Continuous
100
AcDbLine
 10
1758.529347621572
 20
1128.871895153491
 30
0.0
 11
1756.029347621573
 21
1128.871895153491
 31
0.0
  0
LINE
  5
21D0
330
1F
100
AcDbEntity
  8
10
  6
Continuous
100
AcDbLine
 10
1763.529347621572
 20
1078.871895153491
 30
0.0
 11
1761.029347621573
 21
1078.871895153491
 31
0.0
  0
LINE
  5
21D1
330
1F
100
AcDbEntity
  8
10
  6
Continuous
100
AcDbLine
 10
1768.529347621573
 20
1078.871895153491
 30
0.0
 11
1766.029347621573
 21
1078.871895153491
 31
0.0
  0
LINE
  5
21D2
330
1F
100
AcDbEntity
  8
10
  6
Continuous
100
AcDbLine
 10
1778.529347621573
 20
1078.871895153491
 30
0.0
 11
1776.029347621572
 21
1078.871895153491
 31
0.0
  0
LINE
  5
21D3
330
1F
100
AcDbEntity
  8
10
  6
Continuous
100
AcDbLine
 10
1773.529347621573
 20
1078.871895153491
 30
0.0
 11
1771.029347621572
 21
1078.871895153491
 31
0.0
  0
LINE
  5
21D4
330
1F
100
AcDbEntity
  8
10
  6
Continuous
100
AcDbLine
 10
1763.529347621572
 20
1113.871895153491
 30
0.0
 11
1761.029347621573
 21
1113.871895153491
 31
0.0
  0
LINE
  5
21D5
330
1F
100
AcDbEntity
  8
10
  6
Continuous
100
AcDbLine
 10
1768.529347621573
 20
1113.871895153491
 30
0.0
 11
1766.029347621573
 21
1113.871895153491
 31
0.0
  0
LINE
  5
21D6
330
1F
100
AcDbEntity
  8
10
  6
Continuous
100
AcDbLine
 10
1763.529347621572
 20
1128.871895153491
 30
0.0
 11
1761.029347621573
 21
1128.871895153491
 31
0.0
  0
LINE
  5
21D7
330
1F
100
AcDbEntity
  8
10
  6
Continuous
100
AcDbLine
 10
1768.529347621573
 20
1128.871895153491
 30
0.0
 11
1766.029347621573
 21
1128.871895153491
 31
0.0
  0
LINE
  5
21D8
330
1F
100
AcDbEntity
  8
10
  6
Continuous
100
AcDbLine
 10
1778.529347621573
 20
1113.871895153491
 30
0.0
 11
1776.029347621572
 21
1113.871895153491
 31
0.0
  0
LINE
  5
21D9
330
1F
100
AcDbEntity
  8
10
  6
Continuous
100
AcDbLine
 10
1773.529347621573
 20
1113.871895153491
 30
0.0
 11
1771.029347621572
 21
1113.871895153491
 31
0.0
  0
LINE
  5
21DA
330
1F
100
AcDbEntity
  8
10
  6
Continuous
100
AcDbLine
 10
1778.529347621573
 20
1128.871895153491
 30
0.0
 11
1776.029347621572
 21
1128.871895153491
 31
0.0
  0
LINE
  5
21DB
330
1F
100
AcDbEntity
  8
10
  6
Continuous
100
AcDbLine
 10
1773.529347621573
 20
1128.871895153491
 30
0.0
 11
1771.029347621572
 21
1128.871895153491
 31
0.0
  0
LINE
  5
21DC
330
1F
100
AcDbEntity
  8
10
  6
Continuous
100
AcDbLine
 10
1748.529347621573
 20
1163.87189515349
 30
0.0
 11
1746.029347621572
 21
1163.87189515349
 31
0.0
  0
LINE
  5
21DD
330
1F
100
AcDbEntity
  8
10
  6
Continuous
100
AcDbLine
 10
1753.529347621573
 20
1163.87189515349
 30
0.0
 11
1751.029347621573
 21
1163.87189515349
 31
0.0
  0
LINE
  5
21DE
330
1F
100
AcDbEntity
  8
10
  6
Continuous
100
AcDbLine
 10
1758.529347621572
 20
1163.87189515349
 30
0.0
 11
1756.029347621573
 21
1163.87189515349
 31
0.0
  0
ARC
  5
21DF
330
1F
100
AcDbEntity
  8
10
  6
Continuous
100
AcDbCircle
 10
1747.279347621573
 20
1210.121895153489
 30
0.0
 40
1.25
100
AcDbArc
 50
0.0
 51
180.0
  0
LINE
  5
21E0
330
1F
100
AcDbEntity
  8
10
  6
Continuous
100
AcDbLine
 10
1748.529347621573
 20
1178.871895153491
 30
0.0
 11
1746.029347621572
 21
1178.871895153491
 31
0.0
  0
LINE
  5
21E1
330
1F
100
AcDbEntity
  8
10
  6
Continuous
100
AcDbLine
 10
1753.529347621573
 20
1178.871895153491
 30
0.0
 11
1751.029347621573
 21
1178.871895153491
 31
0.0
  0
LINE
  5
21E2
330
1F
100
AcDbEntity
  8
10
  6
Continuous
100
AcDbLine
 10
1758.529347621572
 20
1178.871895153491
 30
0.0
 11
1756.029347621573
 21
1178.871895153491
 31
0.0
  0
ARC
  5
21E3
330
1F
100
AcDbEntity
  8
10
  6
Continuous
100
AcDbCircle
 10
1752.279347621573
 20
1210.121895153489
 30
0.0
 40
1.25
100
AcDbArc
 50
0.0
 51
180.0
  0
ARC
  5
21E4
330
1F
100
AcDbEntity
  8
10
  6
Continuous
100
AcDbCircle
 10
1757.279347621572
 20
1210.121895153489
 30
0.0
 40
1.25
100
AcDbArc
 50
0.0
 51
180.0
  0
LINE
  5
21E5
330
1F
100
AcDbEntity
  8
10
  6
Continuous
100
AcDbLine
 10
1763.529347621572
 20
1163.87189515349
 30
0.0
 11
1761.029347621573
 21
1163.87189515349
 31
0.0
  0
LINE
  5
21E6
330
1F
100
AcDbEntity
  8
10
  6
Continuous
100
AcDbLine
 10
1768.529347621573
 20
1163.87189515349
 30
0.0
 11
1766.029347621573
 21
1163.87189515349
 31
0.0
  0
LINE
  5
21E7
330
1F
100
AcDbEntity
  8
10
  6
Continuous
100
AcDbLine
 10
1778.529347621573
 20
1163.87189515349
 30
0.0
 11
1776.029347621572
 21
1163.87189515349
 31
0.0
  0
LINE
  5
21E8
330
1F
100
AcDbEntity
  8
10
  6
Continuous
100
AcDbLine
 10
1773.529347621573
 20
1163.87189515349
 30
0.0
 11
1771.029347621572
 21
1163.87189515349
 31
0.0
  0
LINE
  5
21E9
330
1F
100
AcDbEntity
  8
10
  6
Continuous
100
AcDbLine
 10
1763.529347621572
 20
1178.871895153491
 30
0.0
 11
1761.029347621573
 21
1178.871895153491
 31
0.0
  0
LINE
  5
21EA
330
1F
100
AcDbEntity
  8
10
  6
Continuous
100
AcDbLine
 10
1768.529347621573
 20
1178.871895153491
 30
0.0
 11
1766.029347621573
 21
1178.871895153491
 31
0.0
  0
ARC
  5
21EB
330
1F
100
AcDbEntity
  8
10
  6
Continuous
100
AcDbCircle
 10
1762.279347621572
 20
1210.121895153489
 30
0.0
 40
1.25
100
AcDbArc
 50
0.0
 51
180.0
  0
ARC
  5
21EC
330
1F
100
AcDbEntity
  8
10
  6
Continuous
100
AcDbCircle
 10
1767.279347621573
 20
1210.121895153489
 30
0.0
 40
1.25
100
AcDbArc
 50
0.0
 51
180.0
  0
LINE
  5
21ED
330
1F
100
AcDbEntity
  8
10
  6
Continuous
100
AcDbLine
 10
1778.529347621573
 20
1178.871895153491
 30
0.0
 11
1776.029347621572
 21
1178.871895153491
 31
0.0
  0
LINE
  5
21EE
330
1F
100
AcDbEntity
  8
10
  6
Continuous
100
AcDbLine
 10
1773.529347621573
 20
1178.871895153491
 30
0.0
 11
1771.029347621572
 21
1178.871895153491
 31
0.0
  0
ARC
  5
21EF
330
1F
100
AcDbEntity
  8
10
  6
Continuous
100
AcDbCircle
 10
1777.279347621572
 20
1210.121895153489
 30
0.0
 40
1.25
100
AcDbArc
 50
0.0
 51
180.0
  0
ARC
  5
21F0
330
1F
100
AcDbEntity
  8
10
  6
Continuous
100
AcDbCircle
 10
1772.279347621573
 20
1210.121895153489
 30
0.0
 40
1.25
100
AcDbArc
 50
0.0
 51
180.0
  0
LINE
  5
21F1
330
1F
100
AcDbEntity
  8
10
  6
Continuous
100
AcDbLine
 10
1788.529347621572
 20
1078.871895153491
 30
0.0
 11
1786.029347621573
 21
1078.871895153491
 31
0.0
  0
LINE
  5
21F2
330
1F
100
AcDbEntity
  8
10
  6
Continuous
100
AcDbLine
 10
1793.529347621572
 20
1078.871895153491
 30
0.0
 11
1791.029347621573
 21
1078.871895153491
 31
0.0
  0
LINE
  5
21F3
330
1F
100
AcDbEntity
  8
10
  6
Continuous
100
AcDbLine
 10
1798.529347621573
 20
1078.871895153491
 30
0.0
 11
1796.029347621573
 21
1078.871895153491
 31
0.0
  0
LINE
  5
21F4
330
1F
100
AcDbEntity
  8
10
  6
Continuous
100
AcDbLine
 10
1803.529347621573
 20
1078.871895153491
 30
0.0
 11
1801.029347621573
 21
1078.871895153491
 31
0.0
  0
LINE
  5
21F5
330
1F
100
AcDbEntity
  8
10
  6
Continuous
100
AcDbLine
 10
1788.529347621572
 20
1113.871895153491
 30
0.0
 11
1786.029347621573
 21
1113.871895153491
 31
0.0
  0
LINE
  5
21F6
330
1F
100
AcDbEntity
  8
10
  6
Continuous
100
AcDbLine
 10
1793.529347621572
 20
1113.871895153491
 30
0.0
 11
1791.029347621573
 21
1113.871895153491
 31
0.0
  0
LINE
  5
21F7
330
1F
100
AcDbEntity
  8
10
  6
Continuous
100
AcDbLine
 10
1788.529347621572
 20
1128.871895153491
 30
0.0
 11
1786.029347621573
 21
1128.871895153491
 31
0.0
  0
LINE
  5
21F8
330
1F
100
AcDbEntity
  8
10
  6
Continuous
100
AcDbLine
 10
1793.529347621572
 20
1128.871895153491
 30
0.0
 11
1791.029347621573
 21
1128.871895153491
 31
0.0
  0
LINE
  5
21F9
330
1F
100
AcDbEntity
  8
10
  6
Continuous
100
AcDbLine
 10
1798.529347621573
 20
1113.871895153491
 30
0.0
 11
1796.029347621573
 21
1113.871895153491
 31
0.0
  0
LINE
  5
21FA
330
1F
100
AcDbEntity
  8
10
  6
Continuous
100
AcDbLine
 10
1803.529347621573
 20
1113.871895153491
 30
0.0
 11
1801.029347621573
 21
1113.871895153491
 31
0.0
  0
LINE
  5
21FB
330
1F
100
AcDbEntity
  8
10
  6
Continuous
100
AcDbLine
 10
1798.529347621573
 20
1128.871895153491
 30
0.0
 11
1796.029347621573
 21
1128.871895153491
 31
0.0
  0
LINE
  5
21FC
330
1F
100
AcDbEntity
  8
10
  6
Continuous
100
AcDbLine
 10
1803.529347621573
 20
1128.871895153491
 30
0.0
 11
1801.029347621573
 21
1128.871895153491
 31
0.0
  0
LINE
  5
21FD
330
1F
100
AcDbEntity
  8
10
  6
Continuous
100
AcDbLine
 10
1818.529347621573
 20
1078.871895153491
 30
0.0
 11
1816.029347621573
 21
1078.871895153491
 31
0.0
  0
LINE
  5
21FE
330
1F
100
AcDbEntity
  8
10
  6
Continuous
100
AcDbLine
 10
1813.529347621573
 20
1078.871895153491
 30
0.0
 11
1811.029347621573
 21
1078.871895153491
 31
0.0
  0
LINE
  5
21FF
330
1F
100
AcDbEntity
  8
10
  6
Continuous
100
AcDbLine
 10
1808.529347621572
 20
1078.871895153491
 30
0.0
 11
1806.029347621572
 21
1078.871895153491
 31
0.0
  0
LINE
  5
2200
330
1F
100
AcDbEntity
  8
10
  6
Continuous
100
AcDbLine
 10
1823.529347621573
 20
1078.871895153491
 30
0.0
 11
1821.029347621572
 21
1078.871895153491
 31
0.0
  0
LINE
  5
2201
330
1F
100
AcDbEntity
  8
10
  6
Continuous
100
AcDbLine
 10
1828.529347621573
 20
1078.871895153491
 30
0.0
 11
1826.029347621572
 21
1078.871895153491
 31
0.0
  0
LINE
  5
2202
330
1F
100
AcDbEntity
  8
10
  6
Continuous
100
AcDbLine
 10
1818.529347621573
 20
1128.871895153491
 30
0.0
 11
1816.029347621573
 21
1128.871895153491
 31
0.0
  0
LINE
  5
2203
330
1F
100
AcDbEntity
  8
10
  6
Continuous
100
AcDbLine
 10
1818.529347621573
 20
1113.871895153491
 30
0.0
 11
1816.029347621573
 21
1113.871895153491
 31
0.0
  0
LINE
  5
2204
330
1F
100
AcDbEntity
  8
10
  6
Continuous
100
AcDbLine
 10
1813.529347621573
 20
1113.871895153491
 30
0.0
 11
1811.029347621573
 21
1113.871895153491
 31
0.0
  0
LINE
  5
2205
330
1F
100
AcDbEntity
  8
10
  6
Continuous
100
AcDbLine
 10
1808.529347621572
 20
1113.871895153491
 30
0.0
 11
1806.029347621572
 21
1113.871895153491
 31
0.0
  0
LINE
  5
2206
330
1F
100
AcDbEntity
  8
10
  6
Continuous
100
AcDbLine
 10
1813.529347621573
 20
1128.871895153491
 30
0.0
 11
1811.029347621573
 21
1128.871895153491
 31
0.0
  0
LINE
  5
2207
330
1F
100
AcDbEntity
  8
10
  6
Continuous
100
AcDbLine
 10
1808.529347621572
 20
1128.871895153491
 30
0.0
 11
1806.029347621572
 21
1128.871895153491
 31
0.0
  0
LINE
  5
2208
330
1F
100
AcDbEntity
  8
10
  6
Continuous
100
AcDbLine
 10
1823.529347621573
 20
1113.871895153491
 30
0.0
 11
1821.029347621572
 21
1113.871895153491
 31
0.0
  0
LINE
  5
2209
330
1F
100
AcDbEntity
  8
10
  6
Continuous
100
AcDbLine
 10
1828.529347621573
 20
1113.871895153491
 30
0.0
 11
1826.029347621572
 21
1113.871895153491
 31
0.0
  0
LINE
  5
220A
330
1F
100
AcDbEntity
  8
10
  6
Continuous
100
AcDbLine
 10
1823.529347621573
 20
1128.871895153491
 30
0.0
 11
1821.029347621572
 21
1128.871895153491
 31
0.0
  0
LINE
  5
220B
330
1F
100
AcDbEntity
  8
10
  6
Continuous
100
AcDbLine
 10
1828.529347621573
 20
1128.871895153491
 30
0.0
 11
1826.029347621572
 21
1128.871895153491
 31
0.0
  0
LINE
  5
220C
330
1F
100
AcDbEntity
  8
10
  6
Continuous
100
AcDbLine
 10
1788.529347621572
 20
1163.87189515349
 30
0.0
 11
1786.029347621573
 21
1163.87189515349
 31
0.0
  0
LINE
  5
220D
330
1F
100
AcDbEntity
  8
10
  6
Continuous
100
AcDbLine
 10
1793.529347621572
 20
1163.87189515349
 30
0.0
 11
1791.029347621573
 21
1163.87189515349
 31
0.0
  0
LINE
  5
220E
330
1F
100
AcDbEntity
  8
10
  6
Continuous
100
AcDbLine
 10
1798.529347621573
 20
1163.87189515349
 30
0.0
 11
1796.029347621573
 21
1163.87189515349
 31
0.0
  0
LINE
  5
220F
330
1F
100
AcDbEntity
  8
10
  6
Continuous
100
AcDbLine
 10
1803.529347621573
 20
1163.87189515349
 30
0.0
 11
1801.029347621573
 21
1163.87189515349
 31
0.0
  0
LINE
  5
2210
330
1F
100
AcDbEntity
  8
10
  6
Continuous
100
AcDbLine
 10
1788.529347621572
 20
1178.871895153491
 30
0.0
 11
1786.029347621573
 21
1178.871895153491
 31
0.0
  0
LINE
  5
2211
330
1F
100
AcDbEntity
  8
10
  6
Continuous
100
AcDbLine
 10
1793.529347621572
 20
1178.871895153491
 30
0.0
 11
1791.029347621573
 21
1178.871895153491
 31
0.0
  0
ARC
  5
2212
330
1F
100
AcDbEntity
  8
10
  6
Continuous
100
AcDbCircle
 10
1787.279347621573
 20
1210.121895153489
 30
0.0
 40
1.25
100
AcDbArc
 50
0.0
 51
180.0
  0
ARC
  5
2213
330
1F
100
AcDbEntity
  8
10
  6
Continuous
100
AcDbCircle
 10
1792.279347621573
 20
1210.121895153489
 30
0.0
 40
1.25
100
AcDbArc
 50
0.0
 51
180.0
  0
LINE
  5
2214
330
1F
100
AcDbEntity
  8
10
  6
Continuous
100
AcDbLine
 10
1798.529347621573
 20
1178.871895153491
 30
0.0
 11
1796.029347621573
 21
1178.871895153491
 31
0.0
  0
LINE
  5
2215
330
1F
100
AcDbEntity
  8
10
  6
Continuous
100
AcDbLine
 10
1803.529347621573
 20
1178.871895153491
 30
0.0
 11
1801.029347621573
 21
1178.871895153491
 31
0.0
  0
ARC
  5
2216
330
1F
100
AcDbEntity
  8
10
  6
Continuous
100
AcDbCircle
 10
1797.279347621573
 20
1210.121895153489
 30
0.0
 40
1.25
100
AcDbArc
 50
0.0
 51
180.0
  0
ARC
  5
2217
330
1F
100
AcDbEntity
  8
10
  6
Continuous
100
AcDbCircle
 10
1802.279347621572
 20
1210.121895153489
 30
0.0
 40
1.25
100
AcDbArc
 50
0.0
 51
180.0
  0
LINE
  5
2218
330
1F
100
AcDbEntity
  8
10
  6
Continuous
100
AcDbLine
 10
1818.529347621573
 20
1163.87189515349
 30
0.0
 11
1816.029347621573
 21
1163.87189515349
 31
0.0
  0
LINE
  5
2219
330
1F
100
AcDbEntity
  8
10
  6
Continuous
100
AcDbLine
 10
1813.529347621573
 20
1163.87189515349
 30
0.0
 11
1811.029347621573
 21
1163.87189515349
 31
0.0
  0
LINE
  5
221A
330
1F
100
AcDbEntity
  8
10
  6
Continuous
100
AcDbLine
 10
1808.529347621572
 20
1163.87189515349
 30
0.0
 11
1806.029347621572
 21
1163.87189515349
 31
0.0
  0
LINE
  5
221B
330
1F
100
AcDbEntity
  8
10
  6
Continuous
100
AcDbLine
 10
1823.529347621573
 20
1163.87189515349
 30
0.0
 11
1821.029347621572
 21
1163.87189515349
 31
0.0
  0
LINE
  5
221C
330
1F
100
AcDbEntity
  8
10
  6
Continuous
100
AcDbLine
 10
1828.529347621573
 20
1163.87189515349
 30
0.0
 11
1826.029347621572
 21
1163.87189515349
 31
0.0
  0
ARC
  5
221D
330
1F
100
AcDbEntity
  8
10
  6
Continuous
100
AcDbCircle
 10
1817.279347621573
 20
1210.121895153489
 30
0.0
 40
1.25
100
AcDbArc
 50
0.0
 51
180.0
  0
LINE
  5
221E
330
1F
100
AcDbEntity
  8
10
  6
Continuous
100
AcDbLine
 10
1818.529347621573
 20
1178.871895153491
 30
0.0
 11
1816.029347621573
 21
1178.871895153491
 31
0.0
  0
LINE
  5
221F
330
1F
100
AcDbEntity
  8
10
  6
Continuous
100
AcDbLine
 10
1813.529347621573
 20
1178.871895153491
 30
0.0
 11
1811.029347621573
 21
1178.871895153491
 31
0.0
  0
LINE
  5
2220
330
1F
100
AcDbEntity
  8
10
  6
Continuous
100
AcDbLine
 10
1808.529347621572
 20
1178.871895153491
 30
0.0
 11
1806.029347621572
 21
1178.871895153491
 31
0.0
  0
ARC
  5
2221
330
1F
100
AcDbEntity
  8
10
  6
Continuous
100
AcDbCircle
 10
1812.279347621572
 20
1210.121895153489
 30
0.0
 40
1.25
100
AcDbArc
 50
0.0
 51
180.0
  0
ARC
  5
2222
330
1F
100
AcDbEntity
  8
10
  6
Continuous
100
AcDbCircle
 10
1807.279347621572
 20
1210.121895153489
 30
0.0
 40
1.25
100
AcDbArc
 50
0.0
 51
180.0
  0
LINE
  5
2223
330
1F
100
AcDbEntity
  8
10
  6
Continuous
100
AcDbLine
 10
1823.529347621573
 20
1178.871895153491
 30
0.0
 11
1821.029347621572
 21
1178.871895153491
 31
0.0
  0
LINE
  5
2224
330
1F
100
AcDbEntity
  8
10
  6
Continuous
100
AcDbLine
 10
1828.529347621573
 20
1178.871895153491
 30
0.0
 11
1826.029347621572
 21
1178.871895153491
 31
0.0
  0
ARC
  5
2225
330
1F
100
AcDbEntity
  8
10
  6
Continuous
100
AcDbCircle
 10
1822.279347621573
 20
1210.121895153489
 30
0.0
 40
1.25
100
AcDbArc
 50
0.0
 51
180.0
  0
ARC
  5
2226
330
1F
100
AcDbEntity
  8
10
  6
Continuous
100
AcDbCircle
 10
1827.279347621573
 20
1210.121895153489
 30
0.0
 40
1.25
100
AcDbArc
 50
0.0
 51
180.0
  0
LINE
  5
2227
330
1F
100
AcDbEntity
  8
10
  6
Continuous
100
AcDbLine
 10
1895.279347621572
 20
1018.871895153493
 30
0.0
 11
1895.279347621572
 21
1127.871895153494
 31
0.0
  0
LINE
  5
2228
330
1F
100
AcDbEntity
  8
10
  6
Continuous
100
AcDbLine
 10
1878.529347621573
 20
982.6218951534936
 30
0.0
 11
1878.529347621573
 21
1210.121895153489
 31
0.0
  0
LINE
  5
2229
330
1F
100
AcDbEntity
  8
10
  6
Continuous
100
AcDbLine
 10
1887.279347621572
 20
1018.871895153493
 30
0.0
 11
1887.279347621572
 21
1128.871895153493
 31
0.0
  0
LINE
  5
222A
330
1F
100
AcDbEntity
  8
10
  6
Continuous
100
AcDbLine
 10
1881.029347621573
 20
982.6218951534936
 30
0.0
 11
1881.029347621573
 21
1210.121895153489
 31
0.0
  0
LINE
  5
222B
330
1F
100
AcDbEntity
  8
10
  6
Continuous
100
AcDbLine
 10
1883.529347621572
 20
982.6218951534936
 30
0.0
 11
1883.529347621572
 21
1210.121895153489
 31
0.0
  0
LINE
  5
222C
330
1F
100
AcDbEntity
  8
10
  6
Continuous
100
AcDbLine
 10
1831.029347621573
 20
982.6218951534936
 30
0.0
 11
1831.029347621573
 21
1210.121895153489
 31
0.0
  0
LINE
  5
222D
330
1F
100
AcDbEntity
  8
10
  6
Continuous
100
AcDbLine
 10
1833.529347621572
 20
982.6218951534936
 30
0.0
 11
1833.529347621572
 21
1210.121895153489
 31
0.0
  0
LINE
  5
222E
330
1F
100
AcDbEntity
  8
10
  6
Continuous
100
AcDbLine
 10
1836.029347621573
 20
982.6218951534936
 30
0.0
 11
1836.029347621573
 21
1210.121895153489
 31
0.0
  0
LINE
  5
222F
330
1F
100
AcDbEntity
  8
10
  6
Continuous
100
AcDbLine
 10
1838.529347621572
 20
982.6218951534936
 30
0.0
 11
1838.529347621572
 21
1210.121895153489
 31
0.0
  0
LINE
  5
2230
330
1F
100
AcDbEntity
  8
10
  6
Continuous
100
AcDbLine
 10
1841.029347621573
 20
982.6218951534936
 30
0.0
 11
1841.029347621573
 21
1210.121895153489
 31
0.0
  0
LINE
  5
2231
330
1F
100
AcDbEntity
  8
10
  6
Continuous
100
AcDbLine
 10
1843.529347621572
 20
982.6218951534936
 30
0.0
 11
1843.529347621572
 21
1210.121895153489
 31
0.0
  0
LINE
  5
2232
330
1F
100
AcDbEntity
  8
10
  6
Continuous
100
AcDbLine
 10
1846.029347621573
 20
982.6218951534936
 30
0.0
 11
1846.029347621573
 21
1210.121895153489
 31
0.0
  0
LINE
  5
2233
330
1F
100
AcDbEntity
  8
10
  6
Continuous
100
AcDbLine
 10
1848.529347621573
 20
982.6218951534936
 30
0.0
 11
1848.529347621573
 21
1210.121895153489
 31
0.0
  0
LINE
  5
2234
330
1F
100
AcDbEntity
  8
10
  6
Continuous
100
AcDbLine
 10
1851.029347621572
 20
982.6218951534936
 30
0.0
 11
1851.029347621572
 21
1210.121895153489
 31
0.0
  0
LINE
  5
2235
330
1F
100
AcDbEntity
  8
10
  6
Continuous
100
AcDbLine
 10
1853.529347621573
 20
982.6218951534936
 30
0.0
 11
1853.529347621573
 21
1210.121895153489
 31
0.0
  0
LINE
  5
2236
330
1F
100
AcDbEntity
  8
10
  6
Continuous
100
AcDbLine
 10
1856.029347621572
 20
982.6218951534936
 30
0.0
 11
1856.029347621572
 21
1210.121895153489
 31
0.0
  0
LINE
  5
2237
330
1F
100
AcDbEntity
  8
10
  6
Continuous
100
AcDbLine
 10
1858.529347621573
 20
982.6218951534936
 30
0.0
 11
1858.529347621573
 21
1210.121895153489
 31
0.0
  0
LINE
  5
2238
330
1F
100
AcDbEntity
  8
10
  6
Continuous
100
AcDbLine
 10
1861.029347621573
 20
982.6218951534936
 30
0.0
 11
1861.029347621573
 21
1210.121895153489
 31
0.0
  0
LINE
  5
2239
330
1F
100
AcDbEntity
  8
10
  6
Continuous
100
AcDbLine
 10
1863.529347621573
 20
982.6218951534936
 30
0.0
 11
1863.529347621573
 21
1210.121895153489
 31
0.0
  0
LINE
  5
223A
330
1F
100
AcDbEntity
  8
10
  6
Continuous
100
AcDbLine
 10
1866.029347621573
 20
982.6218951534936
 30
0.0
 11
1866.029347621573
 21
1210.121895153489
 31
0.0
  0
LINE
  5
223B
330
1F
100
AcDbEntity
  8
10
  6
Continuous
100
AcDbLine
 10
1868.529347621572
 20
982.6218951534936
 30
0.0
 11
1868.529347621572
 21
1210.121895153489
 31
0.0
  0
LINE
  5
223C
330
1F
100
AcDbEntity
  8
10
  6
Continuous
100
AcDbLine
 10
1871.029347621572
 20
982.6218951534936
 30
0.0
 11
1871.029347621572
 21
1210.121895153489
 31
0.0
  0
LINE
  5
223D
330
1F
100
AcDbEntity
  8
10
  6
Continuous
100
AcDbLine
 10
1873.529347621573
 20
982.6218951534936
 30
0.0
 11
1873.529347621573
 21
1210.121895153489
 31
0.0
  0
LINE
  5
223E
330
1F
100
AcDbEntity
  8
10
  6
Continuous
100
AcDbLine
 10
1876.029347621573
 20
982.6218951534936
 30
0.0
 11
1876.029347621573
 21
1210.121895153489
 31
0.0
  0
LINE
  5
223F
330
1F
100
AcDbEntity
  8
10
  6
Continuous
100
AcDbLine
 10
1878.529347621573
 20
1063.871895153491
 30
0.0
 11
1876.029347621573
 21
1063.871895153491
 31
0.0
  0
LINE
  5
2240
330
1F
100
AcDbEntity
  8
10
  6
Continuous
100
AcDbLine
 10
1878.529347621573
 20
1013.871895153491
 30
0.0
 11
1876.029347621573
 21
1013.871895153491
 31
0.0
  0
LINE
  5
2241
330
1F
100
AcDbEntity
  8
10
  6
Continuous
100
AcDbLine
 10
1878.529347621573
 20
1028.871895153491
 30
0.0
 11
1876.029347621573
 21
1028.871895153491
 31
0.0
  0
ARC
  5
2242
330
1F
100
AcDbEntity
  8
10
  6
Continuous
100
AcDbCircle
 10
1877.279347621573
 20
982.6218951534936
 30
0.0
 40
1.25
100
AcDbArc
 50
180.0
 51
0.0
  0
ARC
  5
2243
330
1F
100
AcDbEntity
  8
10
  6
Continuous
100
AcDbCircle
 10
1852.279347621572
 20
982.6218951534936
 30
0.0
 40
1.25
100
AcDbArc
 50
180.0
 51
0.0
  0
ARC
  5
2244
330
1F
100
AcDbEntity
  8
10
  6
Continuous
100
AcDbCircle
 10
1842.279347621573
 20
982.6218951534936
 30
0.0
 40
1.25
100
AcDbArc
 50
180.0
 51
0.0
  0
ARC
  5
2245
330
1F
100
AcDbEntity
  8
10
  6
Continuous
100
AcDbCircle
 10
1832.279347621573
 20
982.6218951534936
 30
0.0
 40
1.25
100
AcDbArc
 50
180.0
 51
0.0
  0
ARC
  5
2246
330
1F
100
AcDbEntity
  8
10
  6
Continuous
100
AcDbCircle
 10
1837.279347621572
 20
982.6218951534936
 30
0.0
 40
1.25
100
AcDbArc
 50
180.0
 51
0.0
  0
ARC
  5
2247
330
1F
100
AcDbEntity
  8
10
  6
Continuous
100
AcDbCircle
 10
1847.279347621573
 20
982.6218951534936
 30
0.0
 40
1.25
100
AcDbArc
 50
180.0
 51
0.0
  0
ARC
  5
2248
330
1F
100
AcDbEntity
  8
10
  6
Continuous
100
AcDbCircle
 10
1857.279347621572
 20
982.6218951534936
 30
0.0
 40
1.25
100
AcDbArc
 50
180.0
 51
0.0
  0
ARC
  5
2249
330
1F
100
AcDbEntity
  8
10
  6
Continuous
100
AcDbCircle
 10
1862.279347621573
 20
982.6218951534936
 30
0.0
 40
1.25
100
AcDbArc
 50
180.0
 51
0.0
  0
ARC
  5
224A
330
1F
100
AcDbEntity
  8
10
  6
Continuous
100
AcDbCircle
 10
1867.279347621573
 20
982.6218951534936
 30
0.0
 40
1.25
100
AcDbArc
 50
180.0
 51
0.0
  0
ARC
  5
224B
330
1F
100
AcDbEntity
  8
10
  6
Continuous
100
AcDbCircle
 10
1872.279347621573
 20
982.6218951534936
 30
0.0
 40
1.25
100
AcDbArc
 50
180.0
 51
0.0
  0
LINE
  5
224C
330
1F
100
AcDbEntity
  8
10
  6
Continuous
100
AcDbLine
 10
1853.529347621573
 20
1063.871895153491
 30
0.0
 11
1851.029347621572
 21
1063.871895153491
 31
0.0
  0
LINE
  5
224D
330
1F
100
AcDbEntity
  8
10
  6
Continuous
100
AcDbLine
 10
1853.529347621573
 20
1013.871895153491
 30
0.0
 11
1851.029347621572
 21
1013.871895153491
 31
0.0
  0
LINE
  5
224E
330
1F
100
AcDbEntity
  8
10
  6
Continuous
100
AcDbLine
 10
1853.529347621573
 20
1028.871895153491
 30
0.0
 11
1851.029347621572
 21
1028.871895153491
 31
0.0
  0
LINE
  5
224F
330
1F
100
AcDbEntity
  8
10
  6
Continuous
100
AcDbLine
 10
1843.529347621572
 20
1013.871895153491
 30
0.0
 11
1841.029347621573
 21
1013.871895153491
 31
0.0
  0
LINE
  5
2250
330
1F
100
AcDbEntity
  8
10
  6
Continuous
100
AcDbLine
 10
1843.529347621572
 20
1028.871895153491
 30
0.0
 11
1841.029347621573
 21
1028.871895153491
 31
0.0
  0
LINE
  5
2251
330
1F
100
AcDbEntity
  8
10
  6
Continuous
100
AcDbLine
 10
1833.529347621572
 20
1013.871895153491
 30
0.0
 11
1831.029347621573
 21
1013.871895153491
 31
0.0
  0
LINE
  5
2252
330
1F
100
AcDbEntity
  8
10
  6
Continuous
100
AcDbLine
 10
1838.529347621572
 20
1013.871895153491
 30
0.0
 11
1836.029347621573
 21
1013.871895153491
 31
0.0
  0
LINE
  5
2253
330
1F
100
AcDbEntity
  8
10
  6
Continuous
100
AcDbLine
 10
1833.529347621572
 20
1028.871895153491
 30
0.0
 11
1831.029347621573
 21
1028.871895153491
 31
0.0
  0
LINE
  5
2254
330
1F
100
AcDbEntity
  8
10
  6
Continuous
100
AcDbLine
 10
1838.529347621572
 20
1028.871895153491
 30
0.0
 11
1836.029347621573
 21
1028.871895153491
 31
0.0
  0
LINE
  5
2255
330
1F
100
AcDbEntity
  8
10
  6
Continuous
100
AcDbLine
 10
1848.529347621573
 20
1013.871895153491
 30
0.0
 11
1846.029347621573
 21
1013.871895153491
 31
0.0
  0
LINE
  5
2256
330
1F
100
AcDbEntity
  8
10
  6
Continuous
100
AcDbLine
 10
1848.529347621573
 20
1028.871895153491
 30
0.0
 11
1846.029347621573
 21
1028.871895153491
 31
0.0
  0
LINE
  5
2257
330
1F
100
AcDbEntity
  8
10
  6
Continuous
100
AcDbLine
 10
1843.529347621572
 20
1063.871895153491
 30
0.0
 11
1841.029347621573
 21
1063.871895153491
 31
0.0
  0
LINE
  5
2258
330
1F
100
AcDbEntity
  8
10
  6
Continuous
100
AcDbLine
 10
1833.529347621572
 20
1063.871895153491
 30
0.0
 11
1831.029347621573
 21
1063.871895153491
 31
0.0
  0
LINE
  5
2259
330
1F
100
AcDbEntity
  8
10
  6
Continuous
100
AcDbLine
 10
1838.529347621572
 20
1063.871895153491
 30
0.0
 11
1836.029347621573
 21
1063.871895153491
 31
0.0
  0
LINE
  5
225A
330
1F
100
AcDbEntity
  8
10
  6
Continuous
100
AcDbLine
 10
1848.529347621573
 20
1063.871895153491
 30
0.0
 11
1846.029347621573
 21
1063.871895153491
 31
0.0
  0
LINE
  5
225B
330
1F
100
AcDbEntity
  8
10
  6
Continuous
100
AcDbLine
 10
1858.529347621573
 20
1013.871895153491
 30
0.0
 11
1856.029347621572
 21
1013.871895153491
 31
0.0
  0
LINE
  5
225C
330
1F
100
AcDbEntity
  8
10
  6
Continuous
100
AcDbLine
 10
1863.529347621573
 20
1013.871895153491
 30
0.0
 11
1861.029347621573
 21
1013.871895153491
 31
0.0
  0
LINE
  5
225D
330
1F
100
AcDbEntity
  8
10
  6
Continuous
100
AcDbLine
 10
1858.529347621573
 20
1028.871895153491
 30
0.0
 11
1856.029347621572
 21
1028.871895153491
 31
0.0
  0
LINE
  5
225E
330
1F
100
AcDbEntity
  8
10
  6
Continuous
100
AcDbLine
 10
1863.529347621573
 20
1028.871895153491
 30
0.0
 11
1861.029347621573
 21
1028.871895153491
 31
0.0
  0
LINE
  5
225F
330
1F
100
AcDbEntity
  8
10
  6
Continuous
100
AcDbLine
 10
1868.529347621572
 20
1013.871895153491
 30
0.0
 11
1866.029347621573
 21
1013.871895153491
 31
0.0
  0
LINE
  5
2260
330
1F
100
AcDbEntity
  8
10
  6
Continuous
100
AcDbLine
 10
1873.529347621573
 20
1013.871895153491
 30
0.0
 11
1871.029347621572
 21
1013.871895153491
 31
0.0
  0
LINE
  5
2261
330
1F
100
AcDbEntity
  8
10
  6
Continuous
100
AcDbLine
 10
1868.529347621572
 20
1028.871895153491
 30
0.0
 11
1866.029347621573
 21
1028.871895153491
 31
0.0
  0
LINE
  5
2262
330
1F
100
AcDbEntity
  8
10
  6
Continuous
100
AcDbLine
 10
1873.529347621573
 20
1028.871895153491
 30
0.0
 11
1871.029347621572
 21
1028.871895153491
 31
0.0
  0
LINE
  5
2263
330
1F
100
AcDbEntity
  8
10
  6
Continuous
100
AcDbLine
 10
1858.529347621573
 20
1063.871895153491
 30
0.0
 11
1856.029347621572
 21
1063.871895153491
 31
0.0
  0
LINE
  5
2264
330
1F
100
AcDbEntity
  8
10
  6
Continuous
100
AcDbLine
 10
1863.529347621573
 20
1063.871895153491
 30
0.0
 11
1861.029347621573
 21
1063.871895153491
 31
0.0
  0
LINE
  5
2265
330
1F
100
AcDbEntity
  8
10
  6
Continuous
100
AcDbLine
 10
1868.529347621572
 20
1063.871895153491
 30
0.0
 11
1866.029347621573
 21
1063.871895153491
 31
0.0
  0
LINE
  5
2266
330
1F
100
AcDbEntity
  8
10
  6
Continuous
100
AcDbLine
 10
1873.529347621573
 20
1063.871895153491
 30
0.0
 11
1871.029347621572
 21
1063.871895153491
 31
0.0
  0
LINE
  5
2267
330
1F
100
AcDbEntity
  8
10
  6
Continuous
100
AcDbLine
 10
1908.78061361058
 20
1004.977776887009
 30
0.0
 11
1908.78061361058
 21
990.9777768870108
 31
0.0
  0
LINE
  5
2268
330
1F
100
AcDbEntity
  8
10
  6
Continuous
100
AcDbLine
 10
1917.78061361058
 20
1004.977776887009
 30
0.0
 11
1917.78061361058
 21
998.5777768870107
 31
0.0
  0
LINE
  5
2269
330
1F
100
AcDbEntity
  8
10
  6
Continuous
100
AcDbLine
 10
1918.529347621572
 20
998.5777768870107
 30
0.0
 11
1918.529347621572
 21
1005.871895153493
 31
0.0
  0
LINE
  5
226A
330
1F
100
AcDbEntity
  8
10
  6
Continuous
100
AcDbLine
 10
1896.779347621572
 20
1018.871895153493
 30
0.0
 11
1896.779347621572
 21
951.3718951534936
 31
0.0
  0
LINE
  5
226C
330
1F
100
AcDbEntity
  8
10
  6
Continuous
100
AcDbLine
 10
1895.279347621572
 20
946.3718951534938
 30
0.0
 11
1901.279347621573
 21
946.3718951534938
 31
0.0
  0
LINE
  5
226D
330
1F
100
AcDbEntity
  8
10
  6
Continuous
100
AcDbLine
 10
1892.279347621573
 20
951.3718951534936
 30
0.0
 11
1896.779347621572
 21
951.3718951534936
 31
0.0
  0
LINE
  5
226E
330
1F
100
AcDbEntity
  8
10
  6
Continuous
100
AcDbLine
 10
1895.279347621572
 20
946.3718951534938
 30
0.0
 11
1895.279347621572
 21
951.3718951534936
 31
0.0
  0
ARC
  5
226F
330
1F
100
AcDbEntity
  8
10
  6
Continuous
100
AcDbCircle
 10
1882.279347621572
 20
982.6218951534936
 30
0.0
 40
1.25
100
AcDbArc
 50
180.0
 51
0.0
  0
LINE
  5
2272
330
1F
100
AcDbEntity
  8
10
  6
Continuous
100
AcDbLine
 10
1908.78061361058
 20
990.9777768870108
 30
0.0
 11
1917.78061361058
 21
990.9777768870108
 31
0.0
  0
ARC
  5
2273
330
1F
100
AcDbEntity
  8
10
  6
Continuous
100
AcDbCircle
 10
1911.179347621572
 20
984.3718951534937
 30
0.0
 40
1.5
100
AcDbArc
 50
0.0
 51
90.0
  0
ARC
  5
2274
330
1F
100
AcDbEntity
  8
10
  6
Continuous
100
AcDbCircle
 10
1911.179347621572
 20
984.3718951534937
 30
0.0
 40
1.5
100
AcDbArc
 50
270.0
 51
0.0
  0
ARC
  5
2275
330
1F
100
AcDbEntity
  8
10
  6
Continuous
100
AcDbCircle
 10
1910.079347621572
 20
984.3718951534937
 30
0.0
 40
3.500000000000001
100
AcDbArc
 50
270.0
 51
303.367012969229
  0
ARC
  5
2276
330
1F
100
AcDbEntity
  8
10
  6
Continuous
100
AcDbCircle
 10
1910.079347621572
 20
984.3718951534937
 30
0.0
 40
3.500000000000029
100
AcDbArc
 50
56.63298703077085
 51
90.0
  0
LINE
  5
2277
330
1F
100
AcDbEntity
  8
10
  6
Continuous
100
AcDbLine
 10
1910.079347621572
 20
987.8718951534935
 30
0.0
 11
1910.079347621572
 21
980.8718951534936
 31
0.0
  0
LINE
  5
2278
330
1F
100
AcDbEntity
  8
10
  6
Continuous
100
AcDbLine
 10
1909.079347621572
 20
988.3718951534936
 30
0.0
 11
1909.079347621572
 21
980.3718951534936
 31
0.0
  0
LINE
  5
2279
330
1F
100
AcDbEntity
  8
10
  6
Continuous
100
AcDbLine
 10
1908.579347621573
 20
980.3718951534936
 30
0.0
 11
1908.579347621573
 21
988.3718951534936
 31
0.0
  0
LINE
  5
227A
330
1F
100
AcDbEntity
  8
10
  6
Continuous
100
AcDbLine
 10
1906.279347621573
 20
975.8718951534936
 30
0.0
 11
1906.279347621573
 21
990.8718951534936
 31
0.0
  0
LINE
  5
227B
330
1F
100
AcDbEntity
  8
10
  6
Continuous
100
AcDbLine
 10
1908.579347621573
 20
978.1718951534939
 30
0.0
 11
1908.579347621573
 21
990.8718951534936
 31
0.0
  0
LINE
  5
227C
330
1F
100
AcDbEntity
  8
10
  6
Continuous
100
AcDbLine
 10
1906.279347621573
 20
965.3718951534935
 30
0.0
 11
1901.279347621573
 21
965.3718951534935
 31
0.0
  0
LINE
  5
227E
330
1F
100
AcDbEntity
  8
10
  6
Continuous
100
AcDbLine
 10
1910.079347621572
 20
980.8718951534936
 30
0.0
 11
1910.079347621572
 21
980.571895153494
 31
0.0
  0
LINE
  5
227F
330
1F
100
AcDbEntity
  8
10
  6
Continuous
100
AcDbLine
 10
1910.079347621572
 20
980.571895153494
 30
0.0
 11
1909.079347621572
 21
980.571895153494
 31
0.0
  0
LINE
  5
2280
330
1F
100
AcDbEntity
  8
10
  6
Continuous
100
AcDbLine
 10
1909.079347621572
 20
980.3718951534936
 30
0.0
 11
1908.579347621573
 21
980.3718951534936
 31
0.0
  0
LINE
  5
2281
330
1F
100
AcDbEntity
  8
10
  6
Continuous
100
AcDbLine
 10
1906.279347621573
 20
998.5777768870107
 30
0.0
 11
1908.78061361058
 21
998.5777768870107
 31
0.0
  0
LINE
  5
2282
330
1F
100
AcDbEntity
  8
10
  6
Continuous
100
AcDbLine
 10
1906.279347621573
 20
997.3777768870107
 30
0.0
 11
1908.78061361058
 21
997.3777768870107
 31
0.0
  0
LINE
  5
2283
330
1F
100
AcDbEntity
  8
10
  6
Continuous
100
AcDbLine
 10
1910.079347621572
 20
985.9033554683447
 30
0.0
 11
1909.079347621572
 21
984.9033554683446
 31
0.0
  0
LINE
  5
2284
330
1F
100
AcDbEntity
  8
10
  6
Continuous
100
AcDbLine
 10
1910.079347621572
 20
984.5542363764932
 30
0.0
 11
1909.079347621572
 21
983.5542363764933
 31
0.0
  0
LINE
  5
2285
330
1F
100
AcDbEntity
  8
10
  6
Continuous
100
AcDbLine
 10
1910.079347621572
 20
988.171895153494
 30
0.0
 11
1910.079347621572
 21
987.8718951534935
 31
0.0
  0
LINE
  5
2286
330
1F
100
AcDbEntity
  8
10
  6
Continuous
100
AcDbLine
 10
1909.079347621572
 20
988.171895153494
 30
0.0
 11
1910.079347621572
 21
988.171895153494
 31
0.0
  0
LINE
  5
2287
330
1F
100
AcDbEntity
  8
10
  6
Continuous
100
AcDbLine
 10
1908.579347621573
 20
988.3718951534936
 30
0.0
 11
1909.079347621572
 21
988.3718951534936
 31
0.0
  0
LINE
  5
2288
330
1F
100
AcDbEntity
  8
10
  6
Continuous
100
AcDbLine
 10
1908.579347621573
 20
990.8718951534936
 30
0.0
 11
1906.279347621573
 21
990.8718951534936
 31
0.0
  0
LINE
  5
2289
330
1F
100
AcDbEntity
  8
10
  6
Continuous
100
AcDbLine
 10
1906.279347621573
 20
986.8718951534935
 30
0.0
 11
1908.579347621573
 21
986.8718951534935
 31
0.0
  0
LINE
  5
228A
330
1F
100
AcDbEntity
  8
10
  6
Continuous
100
AcDbLine
 10
1918.529347621572
 20
978.1718951534939
 30
0.0
 11
1918.529347621572
 21
997.3777768870107
 31
0.0
  0
LINE
  5
228B
330
1F
100
AcDbEntity
  8
10
  6
Continuous
100
AcDbLine
 10
1919.779347621572
 20
978.1718951534939
 30
0.0
 11
1919.779347621572
 21
980.5718951534938
 31
0.0
  0
LINE
  5
228C
330
1F
100
AcDbEntity
  8
10
  6
Continuous
100
AcDbLine
 10
1917.779347621572
 20
969.5718951534937
 30
0.0
 11
1917.779347621572
 21
970.0718951534938
 31
0.0
  0
LINE
  5
228D
330
1F
100
AcDbEntity
  8
10
  6
Continuous
100
AcDbLine
 10
1917.979347621573
 20
968.5718951534935
 30
0.0
 11
1917.979347621573
 21
969.5718951534937
 31
0.0
  0
LINE
  5
228E
330
1F
100
AcDbEntity
  8
10
  6
Continuous
100
AcDbLine
 10
1918.279347621572
 20
968.5718951534935
 30
0.0
 11
1917.979347621573
 21
968.5718951534935
 31
0.0
  0
ARC
  5
228F
330
1F
100
AcDbEntity
  8
10
  6
Continuous
100
AcDbCircle
 10
1921.779347621573
 20
968.5718951534935
 30
0.0
 40
3.500000000000001
100
AcDbArc
 50
180.0
 51
213.3670129692326
  0
ARC
  5
2290
330
1F
100
AcDbEntity
  8
10
  6
Continuous
100
AcDbCircle
 10
1920.109018312723
 20
967.4718951534936
 30
0.0
 40
1.500000000000101
100
AcDbArc
 50
213.3670129692312
 51
270.0
  0
ARC
  5
2291
330
1F
100
AcDbEntity
  8
10
  6
Continuous
100
AcDbCircle
 10
1921.779347621573
 20
967.4718951534936
 30
0.0
 40
1.5
100
AcDbArc
 50
180.0
 51
270.0
  0
LINE
  5
2292
330
1F
100
AcDbEntity
  8
10
  6
Continuous
100
AcDbLine
 10
1921.779347621573
 20
965.9718951534935
 30
0.0
 11
1921.779347621573
 21
965.9718951534935
 31
0.0
  0
LINE
  5
2293
330
1F
100
AcDbEntity
  8
10
  6
Continuous
100
AcDbLine
 10
1921.961688844572
 20
968.5718951534935
 30
0.0
 11
1920.961688844572
 21
969.5718951534937
 31
0.0
  0
LINE
  5
2294
330
1F
100
AcDbEntity
  8
10
  6
Continuous
100
AcDbLine
 10
1923.310807936424
 20
968.5718951534935
 30
0.0
 11
1922.310807936424
 21
969.5718951534937
 31
0.0
  0
LINE
  5
2295
330
1F
100
AcDbEntity
  8
10
  6
Continuous
100
AcDbLine
 10
1917.529347621572
 20
971.8718951534937
 30
0.0
 11
1917.529347621572
 21
975.8718951534936
 31
0.0
  0
ARC
  5
2296
330
1F
100
AcDbEntity
  8
10
  6
Continuous
100
AcDbCircle
 10
1918.429347621573
 20
970.9718951534936
 30
0.0
 40
0.8999999999999785
100
AcDbArc
 50
90.0
 51
270.0
  0
ARC
  5
2297
330
1F
100
AcDbEntity
  8
10
  6
Continuous
100
AcDbCircle
 10
1913.280613610581
 20
997.9777768870107
 30
0.0
 40
0.6000000000000023
100
AcDbArc
 50
90.0
 51
270.0
  0
LINE
  5
2298
330
1F
100
AcDbEntity
  8
10
  6
Continuous
100
AcDbLine
 10
1912.679347621572
 20
984.3718951534937
 30
0.0
 11
1912.679347621572
 21
984.3718951534937
 31
0.0
  0
ARC
  5
2299
330
1F
100
AcDbEntity
  8
10
  6
Continuous
100
AcDbCircle
 10
1911.179347621572
 20
986.0422244623427
 30
0.0
 40
1.5
100
AcDbArc
 50
0.0
 51
56.63298703077085
  0
ARC
  5
229A
330
1F
100
AcDbEntity
  8
10
  6
Continuous
100
AcDbCircle
 10
1911.179347621572
 20
982.7015658446446
 30
0.0
 40
1.500000000000101
100
AcDbArc
 50
303.367012969229
 51
0.0
  0
LINE
  5
229B
330
1F
100
AcDbEntity
  8
10
  6
Continuous
100
AcDbLine
 10
1912.679347621572
 20
982.7015658446446
 30
0.0
 11
1912.679347621572
 21
986.0422244623427
 31
0.0
  0
LINE
  5
229C
330
1F
100
AcDbEntity
  8
10
  6
Continuous
100
AcDbLine
 10
1917.78061361058
 20
997.3777768870107
 30
0.0
 11
1917.78061361058
 21
990.9777768870108
 31
0.0
  0
LINE
  5
229D
330
1F
100
AcDbEntity
  8
10
  6
Continuous
100
AcDbLine
 10
1887.279347621572
 20
1018.871895153493
 30
0.0
 11
1896.779347621572
 21
1018.871895153493
 31
0.0
  0
LINE
  5
229E
330
1F
100
AcDbEntity
  8
10
  6
Continuous
100
AcDbLine
 10
1883.529347621572
 20
1013.871895153491
 30
0.0
 11
1881.029347621573
 21
1013.871895153491
 31
0.0
  0
LINE
  5
229F
330
1F
100
AcDbEntity
  8
10
  6
Continuous
100
AcDbLine
 10
1883.529347621572
 20
1028.871895153491
 30
0.0
 11
1881.029347621573
 21
1028.871895153491
 31
0.0
  0
LINE
  5
22A0
330
1F
100
AcDbEntity
  8
10
  6
Continuous
100
AcDbLine
 10
1883.529347621572
 20
1063.871895153491
 30
0.0
 11
1881.029347621573
 21
1063.871895153491
 31
0.0
  0
LINE
  5
22A1
330
1F
100
AcDbEntity
  8
10
  6
Continuous
100
AcDbLine
 10
1908.78061361058
 20
1004.977776887009
 30
0.0
 11
1917.78061361058
 21
1004.977776887009
 31
0.0
  0
LINE
  5
22A2
330
1F
100
AcDbEntity
  8
10
  6
Continuous
100
AcDbLine
 10
1917.529347621572
 20
1005.871895153493
 30
0.0
 11
1917.529347621572
 21
1009.871895153493
 31
0.0
  0
LINE
  5
22A3
330
1F
100
AcDbEntity
  8
10
  6
Continuous
100
AcDbLine
 10
1878.529347621573
 20
1113.871895153491
 30
0.0
 11
1876.029347621573
 21
1113.871895153491
 31
0.0
  0
LINE
  5
22A4
330
1F
100
AcDbEntity
  8
10
  6
Continuous
100
AcDbLine
 10
1878.529347621573
 20
1078.871895153491
 30
0.0
 11
1876.029347621573
 21
1078.871895153491
 31
0.0
  0
ARC
  5
22A5
330
1F
100
AcDbEntity
  8
10
  6
Continuous
100
AcDbCircle
 10
1877.279347621573
 20
1210.121895153489
 30
0.0
 40
1.25
100
AcDbArc
 50
0.0
 51
180.0
  0
LINE
  5
22A6
330
1F
100
AcDbEntity
  8
10
  6
Continuous
100
AcDbLine
 10
1878.529347621573
 20
1178.871895153491
 30
0.0
 11
1876.029347621573
 21
1178.871895153491
 31
0.0
  0
LINE
  5
22A7
330
1F
100
AcDbEntity
  8
10
  6
Continuous
100
AcDbLine
 10
1878.529347621573
 20
1163.87189515349
 30
0.0
 11
1876.029347621573
 21
1163.87189515349
 31
0.0
  0
LINE
  5
22A8
330
1F
100
AcDbEntity
  8
10
  6
Continuous
100
AcDbLine
 10
1878.529347621573
 20
1128.871895153491
 30
0.0
 11
1876.029347621573
 21
1128.871895153491
 31
0.0
  0
LINE
  5
22A9
330
1F
100
AcDbEntity
  8
10
  6
Continuous
100
AcDbLine
 10
1853.529347621573
 20
1128.871895153491
 30
0.0
 11
1851.029347621572
 21
1128.871895153491
 31
0.0
  0
LINE
  5
22AA
330
1F
100
AcDbEntity
  8
10
  6
Continuous
100
AcDbLine
 10
1853.529347621573
 20
1113.871895153491
 30
0.0
 11
1851.029347621572
 21
1113.871895153491
 31
0.0
  0
LINE
  5
22AB
330
1F
100
AcDbEntity
  8
10
  6
Continuous
100
AcDbLine
 10
1853.529347621573
 20
1078.871895153491
 30
0.0
 11
1851.029347621572
 21
1078.871895153491
 31
0.0
  0
LINE
  5
22AC
330
1F
100
AcDbEntity
  8
10
  6
Continuous
100
AcDbLine
 10
1843.529347621572
 20
1078.871895153491
 30
0.0
 11
1841.029347621573
 21
1078.871895153491
 31
0.0
  0
LINE
  5
22AD
330
1F
100
AcDbEntity
  8
10
  6
Continuous
100
AcDbLine
 10
1833.529347621572
 20
1078.871895153491
 30
0.0
 11
1831.029347621573
 21
1078.871895153491
 31
0.0
  0
LINE
  5
22AE
330
1F
100
AcDbEntity
  8
10
  6
Continuous
100
AcDbLine
 10
1838.529347621572
 20
1078.871895153491
 30
0.0
 11
1836.029347621573
 21
1078.871895153491
 31
0.0
  0
LINE
  5
22AF
330
1F
100
AcDbEntity
  8
10
  6
Continuous
100
AcDbLine
 10
1848.529347621573
 20
1078.871895153491
 30
0.0
 11
1846.029347621573
 21
1078.871895153491
 31
0.0
  0
LINE
  5
22B0
330
1F
100
AcDbEntity
  8
10
  6
Continuous
100
AcDbLine
 10
1843.529347621572
 20
1128.871895153491
 30
0.0
 11
1841.029347621573
 21
1128.871895153491
 31
0.0
  0
LINE
  5
22B1
330
1F
100
AcDbEntity
  8
10
  6
Continuous
100
AcDbLine
 10
1843.529347621572
 20
1113.871895153491
 30
0.0
 11
1841.029347621573
 21
1113.871895153491
 31
0.0
  0
LINE
  5
22B2
330
1F
100
AcDbEntity
  8
10
  6
Continuous
100
AcDbLine
 10
1833.529347621572
 20
1113.871895153491
 30
0.0
 11
1831.029347621573
 21
1113.871895153491
 31
0.0
  0
LINE
  5
22B3
330
1F
100
AcDbEntity
  8
10
  6
Continuous
100
AcDbLine
 10
1838.529347621572
 20
1113.871895153491
 30
0.0
 11
1836.029347621573
 21
1113.871895153491
 31
0.0
  0
LINE
  5
22B4
330
1F
100
AcDbEntity
  8
10
  6
Continuous
100
AcDbLine
 10
1833.529347621572
 20
1128.871895153491
 30
0.0
 11
1831.029347621573
 21
1128.871895153491
 31
0.0
  0
LINE
  5
22B5
330
1F
100
AcDbEntity
  8
10
  6
Continuous
100
AcDbLine
 10
1838.529347621572
 20
1128.871895153491
 30
0.0
 11
1836.029347621573
 21
1128.871895153491
 31
0.0
  0
LINE
  5
22B6
330
1F
100
AcDbEntity
  8
10
  6
Continuous
100
AcDbLine
 10
1848.529347621573
 20
1113.871895153491
 30
0.0
 11
1846.029347621573
 21
1113.871895153491
 31
0.0
  0
LINE
  5
22B7
330
1F
100
AcDbEntity
  8
10
  6
Continuous
100
AcDbLine
 10
1848.529347621573
 20
1128.871895153491
 30
0.0
 11
1846.029347621573
 21
1128.871895153491
 31
0.0
  0
LINE
  5
22B8
330
1F
100
AcDbEntity
  8
10
  6
Continuous
100
AcDbLine
 10
1858.529347621573
 20
1078.871895153491
 30
0.0
 11
1856.029347621572
 21
1078.871895153491
 31
0.0
  0
LINE
  5
22B9
330
1F
100
AcDbEntity
  8
10
  6
Continuous
100
AcDbLine
 10
1863.529347621573
 20
1078.871895153491
 30
0.0
 11
1861.029347621573
 21
1078.871895153491
 31
0.0
  0
LINE
  5
22BA
330
1F
100
AcDbEntity
  8
10
  6
Continuous
100
AcDbLine
 10
1868.529347621572
 20
1078.871895153491
 30
0.0
 11
1866.029347621573
 21
1078.871895153491
 31
0.0
  0
LINE
  5
22BB
330
1F
100
AcDbEntity
  8
10
  6
Continuous
100
AcDbLine
 10
1873.529347621573
 20
1078.871895153491
 30
0.0
 11
1871.029347621572
 21
1078.871895153491
 31
0.0
  0
LINE
  5
22BC
330
1F
100
AcDbEntity
  8
10
  6
Continuous
100
AcDbLine
 10
1858.529347621573
 20
1113.871895153491
 30
0.0
 11
1856.029347621572
 21
1113.871895153491
 31
0.0
  0
LINE
  5
22BD
330
1F
100
AcDbEntity
  8
10
  6
Continuous
100
AcDbLine
 10
1863.529347621573
 20
1113.871895153491
 30
0.0
 11
1861.029347621573
 21
1113.871895153491
 31
0.0
  0
LINE
  5
22BE
330
1F
100
AcDbEntity
  8
10
  6
Continuous
100
AcDbLine
 10
1858.529347621573
 20
1128.871895153491
 30
0.0
 11
1856.029347621572
 21
1128.871895153491
 31
0.0
  0
LINE
  5
22BF
330
1F
100
AcDbEntity
  8
10
  6
Continuous
100
AcDbLine
 10
1863.529347621573
 20
1128.871895153491
 30
0.0
 11
1861.029347621573
 21
1128.871895153491
 31
0.0
  0
LINE
  5
22C0
330
1F
100
AcDbEntity
  8
10
  6
Continuous
100
AcDbLine
 10
1868.529347621572
 20
1113.871895153491
 30
0.0
 11
1866.029347621573
 21
1113.871895153491
 31
0.0
  0
LINE
  5
22C1
330
1F
100
AcDbEntity
  8
10
  6
Continuous
100
AcDbLine
 10
1873.529347621573
 20
1113.871895153491
 30
0.0
 11
1871.029347621572
 21
1113.871895153491
 31
0.0
  0
LINE
  5
22C2
330
1F
100
AcDbEntity
  8
10
  6
Continuous
100
AcDbLine
 10
1868.529347621572
 20
1128.871895153491
 30
0.0
 11
1866.029347621573
 21
1128.871895153491
 31
0.0
  0
LINE
  5
22C3
330
1F
100
AcDbEntity
  8
10
  6
Continuous
100
AcDbLine
 10
1873.529347621573
 20
1128.871895153491
 30
0.0
 11
1871.029347621572
 21
1128.871895153491
 31
0.0
  0
ARC
  5
22C4
330
1F
100
AcDbEntity
  8
10
  6
Continuous
100
AcDbCircle
 10
1852.279347621572
 20
1210.121895153489
 30
0.0
 40
1.25
100
AcDbArc
 50
0.0
 51
180.0
  0
LINE
  5
22C5
330
1F
100
AcDbEntity
  8
10
  6
Continuous
100
AcDbLine
 10
1853.529347621573
 20
1178.871895153491
 30
0.0
 11
1851.029347621572
 21
1178.871895153491
 31
0.0
  0
LINE
  5
22C6
330
1F
100
AcDbEntity
  8
10
  6
Continuous
100
AcDbLine
 10
1853.529347621573
 20
1163.87189515349
 30
0.0
 11
1851.029347621572
 21
1163.87189515349
 31
0.0
  0
LINE
  5
22C7
330
1F
100
AcDbEntity
  8
10
  6
Continuous
100
AcDbLine
 10
1843.529347621572
 20
1163.87189515349
 30
0.0
 11
1841.029347621573
 21
1163.87189515349
 31
0.0
  0
LINE
  5
22C8
330
1F
100
AcDbEntity
  8
10
  6
Continuous
100
AcDbLine
 10
1833.529347621572
 20
1163.87189515349
 30
0.0
 11
1831.029347621573
 21
1163.87189515349
 31
0.0
  0
LINE
  5
22C9
330
1F
100
AcDbEntity
  8
10
  6
Continuous
100
AcDbLine
 10
1838.529347621572
 20
1163.87189515349
 30
0.0
 11
1836.029347621573
 21
1163.87189515349
 31
0.0
  0
LINE
  5
22CA
330
1F
100
AcDbEntity
  8
10
  6
Continuous
100
AcDbLine
 10
1848.529347621573
 20
1163.87189515349
 30
0.0
 11
1846.029347621573
 21
1163.87189515349
 31
0.0
  0
ARC
  5
22CB
330
1F
100
AcDbEntity
  8
10
  6
Continuous
100
AcDbCircle
 10
1842.279347621573
 20
1210.121895153489
 30
0.0
 40
1.25
100
AcDbArc
 50
0.0
 51
180.0
  0
LINE
  5
22CC
330
1F
100
AcDbEntity
  8
10
  6
Continuous
100
AcDbLine
 10
1843.529347621572
 20
1178.871895153491
 30
0.0
 11
1841.029347621573
 21
1178.871895153491
 31
0.0
  0
LINE
  5
22CD
330
1F
100
AcDbEntity
  8
10
  6
Continuous
100
AcDbLine
 10
1833.529347621572
 20
1178.871895153491
 30
0.0
 11
1831.029347621573
 21
1178.871895153491
 31
0.0
  0
LINE
  5
22CE
330
1F
100
AcDbEntity
  8
10
  6
Continuous
100
AcDbLine
 10
1838.529347621572
 20
1178.871895153491
 30
0.0
 11
1836.029347621573
 21
1178.871895153491
 31
0.0
  0
ARC
  5
22CF
330
1F
100
AcDbEntity
  8
10
  6
Continuous
100
AcDbCircle
 10
1832.279347621573
 20
1210.121895153489
 30
0.0
 40
1.25
100
AcDbArc
 50
0.0
 51
180.0
  0
ARC
  5
22D0
330
1F
100
AcDbEntity
  8
10
  6
Continuous
100
AcDbCircle
 10
1837.279347621572
 20
1210.121895153489
 30
0.0
 40
1.25
100
AcDbArc
 50
0.0
 51
180.0
  0
LINE
  5
22D1
330
1F
100
AcDbEntity
  8
10
  6
Continuous
100
AcDbLine
 10
1848.529347621573
 20
1178.871895153491
 30
0.0
 11
1846.029347621573
 21
1178.871895153491
 31
0.0
  0
ARC
  5
22D2
330
1F
100
AcDbEntity
  8
10
  6
Continuous
100
AcDbCircle
 10
1847.279347621573
 20
1210.121895153489
 30
0.0
 40
1.25
100
AcDbArc
 50
0.0
 51
180.0
  0
LINE
  5
22D3
330
1F
100
AcDbEntity
  8
10
  6
Continuous
100
AcDbLine
 10
1858.529347621573
 20
1163.87189515349
 30
0.0
 11
1856.029347621572
 21
1163.87189515349
 31
0.0
  0
LINE
  5
22D4
330
1F
100
AcDbEntity
  8
10
  6
Continuous
100
AcDbLine
 10
1863.529347621573
 20
1163.87189515349
 30
0.0
 11
1861.029347621573
 21
1163.87189515349
 31
0.0
  0
LINE
  5
22D5
330
1F
100
AcDbEntity
  8
10
  6
Continuous
100
AcDbLine
 10
1868.529347621572
 20
1163.87189515349
 30
0.0
 11
1866.029347621573
 21
1163.87189515349
 31
0.0
  0
LINE
  5
22D6
330
1F
100
AcDbEntity
  8
10
  6
Continuous
100
AcDbLine
 10
1873.529347621573
 20
1163.87189515349
 30
0.0
 11
1871.029347621572
 21
1163.87189515349
 31
0.0
  0
LINE
  5
22D7
330
1F
100
AcDbEntity
  8
10
  6
Continuous
100
AcDbLine
 10
1858.529347621573
 20
1178.871895153491
 30
0.0
 11
1856.029347621572
 21
1178.871895153491
 31
0.0
  0
LINE
  5
22D8
330
1F
100
AcDbEntity
  8
10
  6
Continuous
100
AcDbLine
 10
1863.529347621573
 20
1178.871895153491
 30
0.0
 11
1861.029347621573
 21
1178.871895153491
 31
0.0
  0
ARC
  5
22D9
330
1F
100
AcDbEntity
  8
10
  6
Continuous
100
AcDbCircle
 10
1857.279347621572
 20
1210.121895153489
 30
0.0
 40
1.25
100
AcDbArc
 50
0.0
 51
180.0
  0
ARC
  5
22DA
330
1F
100
AcDbEntity
  8
10
  6
Continuous
100
AcDbCircle
 10
1862.279347621573
 20
1210.121895153489
 30
0.0
 40
1.25
100
AcDbArc
 50
0.0
 51
180.0
  0
LINE
  5
22DB
330
1F
100
AcDbEntity
  8
10
  6
Continuous
100
AcDbLine
 10
1868.529347621572
 20
1178.871895153491
 30
0.0
 11
1866.029347621573
 21
1178.871895153491
 31
0.0
  0
LINE
  5
22DC
330
1F
100
AcDbEntity
  8
10
  6
Continuous
100
AcDbLine
 10
1873.529347621573
 20
1178.871895153491
 30
0.0
 11
1871.029347621572
 21
1178.871895153491
 31
0.0
  0
ARC
  5
22DD
330
1F
100
AcDbEntity
  8
10
  6
Continuous
100
AcDbCircle
 10
1867.279347621573
 20
1210.121895153489
 30
0.0
 40
1.25
100
AcDbArc
 50
0.0
 51
180.0
  0
ARC
  5
22DE
330
1F
100
AcDbEntity
  8
10
  6
Continuous
100
AcDbCircle
 10
1872.279347621573
 20
1210.121895153489
 30
0.0
 40
1.25
100
AcDbArc
 50
0.0
 51
180.0
  0
LINE
  5
22DF
330
1F
100
AcDbEntity
  8
10
  6
Continuous
100
AcDbLine
 10
1883.529347621572
 20
1078.871895153491
 30
0.0
 11
1881.029347621573
 21
1078.871895153491
 31
0.0
  0
LINE
  5
22E0
330
1F
100
AcDbEntity
  8
10
  6
Continuous
100
AcDbLine
 10
1887.279347621572
 20
1128.871895153493
 30
0.0
 11
1896.779347621572
 21
1128.871895153493
 31
0.0
  0
LINE
  5
22E1
330
1F
100
AcDbEntity
  8
10
  6
Continuous
100
AcDbLine
 10
1883.529347621572
 20
1113.871895153491
 30
0.0
 11
1881.029347621573
 21
1113.871895153491
 31
0.0
  0
LINE
  5
22E2
330
1F
100
AcDbEntity
  8
10
  6
Continuous
100
AcDbLine
 10
1883.529347621572
 20
1128.871895153491
 30
0.0
 11
1881.029347621573
 21
1128.871895153491
 31
0.0
  0
LINE
  5
22E3
330
1F
100
AcDbEntity
  8
10
  6
Continuous
100
AcDbLine
 10
1895.779347621573
 20
1127.871895153494
 30
0.0
 11
1895.779347621573
 21
1128.871895153493
 31
0.0
  0
LINE
  5
22E4
330
1F
100
AcDbEntity
  8
10
  6
Continuous
100
AcDbLine
 10
1895.279347621572
 20
1127.871895153494
 30
0.0
 11
1895.779347621573
 21
1127.871895153494
 31
0.0
  0
LINE
  5
22E5
330
1F
100
AcDbEntity
  8
10
  6
Continuous
100
AcDbLine
 10
1883.529347621572
 20
1163.87189515349
 30
0.0
 11
1881.029347621573
 21
1163.87189515349
 31
0.0
  0
LINE
  5
22E6
330
1F
100
AcDbEntity
  8
10
  6
Continuous
100
AcDbLine
 10
1883.529347621572
 20
1178.871895153491
 30
0.0
 11
1881.029347621573
 21
1178.871895153491
 31
0.0
  0
ARC
  5
22E7
330
1F
100
AcDbEntity
  8
10
  6
Continuous
100
AcDbCircle
 10
1882.279347621572
 20
1210.121895153489
 30
0.0
 40
1.25
100
AcDbArc
 50
0.0
 51
180.0
  0
LINE
  5
22E8
330
1F
100
AcDbEntity
  8
10
  6
Continuous
100
AcDbLine
 10
1741.279347621572
 20
1231.371895153493
 30
0.0
 11
1867.279347621573
 21
1231.371895153493
 31
0.0
  0
LINE
  5
22E9
330
1F
100
AcDbEntity
  8
10
  6
Continuous
100
AcDbLine
 10
1892.279347621573
 20
1241.371895153493
 30
0.0
 11
1867.279347621573
 21
1231.371895153493
 31
0.0
  0
LINE
  5
22EA
330
1F
100
AcDbEntity
  8
10
  6
Continuous
100
AcDbLine
 10
1895.279347621572
 20
1246.371895153493
 30
0.0
 11
1901.279347621573
 21
1246.371895153493
 31
0.0
  0
LINE
  5
22EB
330
1F
100
AcDbEntity
  8
10
  6
Continuous
100
AcDbLine
 10
1892.279347621573
 20
1241.371895153493
 30
0.0
 11
1896.779347621572
 21
1241.371895153493
 31
0.0
  0
LINE
  5
22EC
330
1F
100
AcDbEntity
  8
10
  6
Continuous
100
AcDbLine
 10
1895.279347621572
 20
1241.371895153493
 30
0.0
 11
1895.279347621572
 21
1246.371895153493
 31
0.0
  0
LINE
  5
22EF
330
1F
100
AcDbEntity
  8
10
  6
Continuous
100
AcDbLine
 10
1901.279347621573
 20
1226.371895153493
 30
0.0
 11
1906.279347621573
 21
1226.371895153493
 31
0.0
  0
LINE
  5
22F1
330
1F
100
AcDbEntity
  8
10
  6
Continuous
100
AcDbLine
 10
2004.279347621573
 20
1013.371895153493
 30
0.0
 11
2004.279347621573
 21
1225.371895153493
 31
0.0
  0
LINE
  5
22F2
330
1F
100
AcDbEntity
  8
10
  6
Continuous
100
AcDbLine
 10
1990.446518312723
 20
966.5718951534936
 30
0.0
 11
1924.687176930421
 21
966.5718951534936
 31
0.0
  0
LINE
  5
22F3
330
1F
100
AcDbEntity
  8
10
  6
Continuous
100
AcDbLine
 10
1984.533763209301
 20
968.3718951534936
 30
0.0
 11
1930.524932033844
 21
968.3718951534936
 31
0.0
  0
ARC
  5
22F4
330
1F
100
AcDbEntity
  8
10
  6
Continuous
100
AcDbCircle
 10
1952.529347621572
 20
1002.97777688701
 30
0.0
 40
4.400000000000006
100
AcDbArc
 50
270.0
 51
0.0
  0
ARC
  5
22F5
330
1F
100
AcDbEntity
  8
10
  6
Continuous
100
AcDbCircle
 10
1952.529347621572
 20
1002.97777688701
 30
0.0
 40
5.600000000000003
100
AcDbArc
 50
270.0
 51
0.0
  0
LINE
  5
22F6
330
1F
100
AcDbEntity
  8
10
  6
Continuous
100
AcDbLine
 10
1926.279347621571
 20
970.0718951534938
 30
0.0
 11
1929.779347621573
 21
966.5718951534936
 31
0.0
  0
LINE
  5
22F7
330
1F
100
AcDbEntity
  8
10
  6
Continuous
100
AcDbLine
 10
1927.024932033844
 20
971.8718951534937
 30
0.0
 11
1930.524932033844
 21
968.3718951534936
 31
0.0
  0
LINE
  5
22F8
330
1F
100
AcDbEntity
  8
10
  6
Continuous
100
AcDbLine
 10
1923.779347621572
 20
978.1718951534937
 30
0.0
 11
1923.779347621572
 21
980.5718951534938
 31
0.0
  0
LINE
  5
22F9
330
1F
100
AcDbEntity
  8
10
  6
Continuous
100
AcDbLine
 10
1925.779347621573
 20
970.0718951534938
 30
0.0
 11
1925.779347621573
 21
969.5718951534937
 31
0.0
  0
LINE
  5
22FA
330
1F
100
AcDbEntity
  8
10
  6
Continuous
100
AcDbLine
 10
1925.579347621573
 20
969.5718951534937
 30
0.0
 11
1925.579347621573
 21
968.5718951534935
 31
0.0
  0
LINE
  5
22FB
330
1F
100
AcDbEntity
  8
10
  6
Continuous
100
AcDbLine
 10
1925.579347621573
 20
968.5718951534935
 30
0.0
 11
1925.279347621573
 21
968.5718951534935
 31
0.0
  0
ARC
  5
22FC
330
1F
100
AcDbEntity
  8
10
  6
Continuous
100
AcDbCircle
 10
1921.779347621573
 20
968.5718951534935
 30
0.0
 40
3.500000000000091
100
AcDbArc
 50
326.6329870307672
 51
0.0
  0
ARC
  5
22FD
330
1F
100
AcDbEntity
  8
10
  6
Continuous
100
AcDbCircle
 10
1923.449676930422
 20
967.4718951534936
 30
0.0
 40
1.5
100
AcDbArc
 50
270.0
 51
326.6329870307686
  0
LINE
  5
22FE
330
1F
100
AcDbEntity
  8
10
  6
Continuous
100
AcDbLine
 10
1926.279347621573
 20
975.8718951534936
 30
0.0
 11
1926.279347621573
 21
978.1718951534939
 31
0.0
  0
LINE
  5
22FF
330
1F
100
AcDbEntity
  8
10
  6
Continuous
100
AcDbLine
 10
1927.979347621572
 20
968.3718951534936
 30
0.0
 11
1925.311128663503
 21
968.3718951534936
 31
0.0
  0
LINE
  5
2300
330
1F
100
AcDbEntity
  8
10
  6
Continuous
100
AcDbLine
 10
1956.929347621573
 20
1005.871895153493
 30
0.0
 11
1956.929347621573
 21
1002.97777688701
 31
0.0
  0
LINE
  5
2301
330
1F
100
AcDbEntity
  8
10
  6
Continuous
100
AcDbLine
 10
1958.129347621573
 20
1005.871895153493
 30
0.0
 11
1958.129347621573
 21
1002.97777688701
 31
0.0
  0
LINE
  5
2302
330
1F
100
AcDbEntity
  8
10
  6
Continuous
100
AcDbLine
 10
1996.529347621573
 20
975.8718951534936
 30
0.0
 11
1996.529347621573
 21
1005.871895153493
 31
0.0
  0
LINE
  5
2303
330
1F
100
AcDbEntity
  8
10
  6
Continuous
100
AcDbLine
 10
1995.279347621572
 20
978.5718951534937
 30
0.0
 11
1991.279347621572
 21
978.5718951534937
 31
0.0
  0
ARC
  5
2304
330
1F
100
AcDbEntity
  8
10
  6
Continuous
100
AcDbCircle
 10
1993.279347621572
 20
967.4718951534936
 30
0.0
 40
1.5
100
AcDbArc
 50
270.0
 51
0.0
  0
LINE
  5
2305
330
1F
100
AcDbEntity
  8
10
  6
Continuous
100
AcDbLine
 10
1991.609018312724
 20
965.9718951534935
 30
0.0
 11
1994.949676930422
 21
965.9718951534935
 31
0.0
  0
LINE
  5
2306
330
1F
100
AcDbEntity
  8
10
  6
Continuous
100
AcDbLine
 10
1996.779347621572
 20
968.5718951534935
 30
0.0
 11
1989.779347621572
 21
968.5718951534935
 31
0.0
  0
LINE
  5
2307
330
1F
100
AcDbEntity
  8
10
  6
Continuous
100
AcDbLine
 10
1997.279347621573
 20
969.5718951534937
 30
0.0
 11
1989.279347621573
 21
969.5718951534937
 31
0.0
  0
LINE
  5
2308
330
1F
100
AcDbEntity
  8
10
  6
Continuous
100
AcDbLine
 10
1989.279347621573
 20
970.0718951534938
 30
0.0
 11
1997.279347621573
 21
970.0718951534938
 31
0.0
  0
LINE
  5
2309
330
1F
100
AcDbEntity
  8
10
  6
Continuous
100
AcDbLine
 10
1996.629347621572
 20
970.0718951534938
 30
0.0
 11
1988.779347621573
 21
970.0718951534938
 31
0.0
  0
LINE
  5
230A
330
1F
100
AcDbEntity
  8
10
  6
Continuous
100
AcDbLine
 10
1996.629347621572
 20
971.8718951534937
 30
0.0
 11
1988.033763209301
 21
971.8718951534937
 31
0.0
  0
LINE
  5
230B
330
1F
100
AcDbEntity
  8
10
  6
Continuous
100
AcDbLine
 10
1989.822566579642
 20
968.3718951534936
 30
0.0
 11
1987.079347621573
 21
968.3718951534936
 31
0.0
  0
LINE
  5
230C
330
1F
100
AcDbEntity
  8
10
  6
Continuous
100
AcDbLine
 10
1988.779347621573
 20
970.0718951534938
 30
0.0
 11
1985.279347621573
 21
966.5718951534936
 31
0.0
  0
LINE
  5
230D
330
1F
100
AcDbEntity
  8
10
  6
Continuous
100
AcDbLine
 10
1988.033763209301
 20
971.8718951534937
 30
0.0
 11
1984.533763209301
 21
968.3718951534936
 31
0.0
  0
LINE
  5
230E
330
1F
100
AcDbEntity
  8
10
  6
Continuous
100
AcDbLine
 10
1991.279347621572
 20
975.8718951534936
 30
0.0
 11
1991.279347621572
 21
978.5718951534937
 31
0.0
  0
LINE
  5
230F
330
1F
100
AcDbEntity
  8
10
  6
Continuous
100
AcDbLine
 10
1993.461688844572
 20
968.5718951534935
 30
0.0
 11
1992.461688844572
 21
969.5718951534937
 31
0.0
  0
LINE
  5
2310
330
1F
100
AcDbEntity
  8
10
  6
Continuous
100
AcDbLine
 10
1993.279347621572
 20
965.9718951534935
 30
0.0
 11
1993.279347621572
 21
965.9718951534935
 31
0.0
  0
ARC
  5
2311
330
1F
100
AcDbEntity
  8
10
  6
Continuous
100
AcDbCircle
 10
1993.279347621572
 20
967.4718951534936
 30
0.0
 40
1.5
100
AcDbArc
 50
180.0
 51
270.0
  0
ARC
  5
2312
330
1F
100
AcDbEntity
  8
10
  6
Continuous
100
AcDbCircle
 10
1991.609018312724
 20
967.4718951534936
 30
0.0
 40
1.500000000000101
100
AcDbArc
 50
213.3670129692312
 51
270.0
  0
ARC
  5
2313
330
1F
100
AcDbEntity
  8
10
  6
Continuous
100
AcDbCircle
 10
1993.279347621572
 20
968.5718951534935
 30
0.0
 40
3.500000000000001
100
AcDbArc
 50
180.0
 51
213.3670129692326
  0
LINE
  5
2314
330
1F
100
AcDbEntity
  8
10
  6
Continuous
100
AcDbLine
 10
1989.779347621572
 20
968.5718951534935
 30
0.0
 11
1989.479347621573
 21
968.5718951534935
 31
0.0
  0
LINE
  5
2315
330
1F
100
AcDbEntity
  8
10
  6
Continuous
100
AcDbLine
 10
1989.479347621573
 20
968.5718951534935
 30
0.0
 11
1989.479347621573
 21
969.5718951534937
 31
0.0
  0
LINE
  5
2316
330
1F
100
AcDbEntity
  8
10
  6
Continuous
100
AcDbLine
 10
1989.279347621573
 20
969.5718951534937
 30
0.0
 11
1989.279347621573
 21
970.0718951534938
 31
0.0
  0
LINE
  5
2317
330
1F
100
AcDbEntity
  8
10
  6
Continuous
100
AcDbLine
 10
1995.279347621572
 20
975.8718951534936
 30
0.0
 11
1995.279347621572
 21
978.5718951534937
 31
0.0
  0
LINE
  5
2318
330
1F
100
AcDbEntity
  8
10
  6
Continuous
100
AcDbLine
 10
1994.810807936423
 20
968.5718951534935
 30
0.0
 11
1993.810807936424
 21
969.5718951534937
 31
0.0
  0
ARC
  5
2319
330
1F
100
AcDbEntity
  8
10
  6
Continuous
100
AcDbCircle
 10
1994.949676930422
 20
967.4718951534936
 30
0.0
 40
1.5
100
AcDbArc
 50
270.0
 51
326.6329870307686
  0
ARC
  5
231A
330
1F
100
AcDbEntity
  8
10
  6
Continuous
100
AcDbCircle
 10
1993.279347621572
 20
968.5718951534935
 30
0.0
 40
3.500000000000091
100
AcDbArc
 50
326.6329870307672
 51
0.0
  0
LINE
  5
231B
330
1F
100
AcDbEntity
  8
10
  6
Continuous
100
AcDbLine
 10
1997.079347621572
 20
968.5718951534935
 30
0.0
 11
1996.779347621572
 21
968.5718951534935
 31
0.0
  0
LINE
  5
231C
330
1F
100
AcDbEntity
  8
10
  6
Continuous
100
AcDbLine
 10
1997.079347621572
 20
969.5718951534937
 30
0.0
 11
1997.079347621572
 21
968.5718951534935
 31
0.0
  0
LINE
  5
231D
330
1F
100
AcDbEntity
  8
10
  6
Continuous
100
AcDbLine
 10
1997.279347621573
 20
970.0718951534938
 30
0.0
 11
1997.279347621573
 21
969.5718951534937
 31
0.0
  0
LINE
  5
231E
330
1F
100
AcDbEntity
  8
10
  6
Continuous
100
AcDbLine
 10
1997.529347621572
 20
971.8718951534937
 30
0.0
 11
1997.529347621572
 21
975.8718951534936
 31
0.0
  0
ARC
  5
231F
330
1F
100
AcDbEntity
  8
10
  6
Continuous
100
AcDbCircle
 10
1996.629347621572
 20
970.9718951534936
 30
0.0
 40
0.8999999999999785
100
AcDbArc
 50
270.0
 51
90.0
  0
LINE
  5
2320
330
1F
100
AcDbEntity
  8
10
  6
Continuous
100
AcDbLine
 10
1997.529347621572
 20
1005.871895153493
 30
0.0
 11
1997.529347621572
 21
1009.871895153493
 31
0.0
  0
LINE
  5
2547
330
1F
100
AcDbEntity
  8
10
  6
Continuous
100
AcDbLine
 10
1470.693561183946
 20
957.7861087158666
 30
0.0
 11
1467.8651340592
 21
954.9576815911207
 31
0.0
  0
LINE
  5
2548
330
1F
100
AcDbEntity
  8
10
  6
Continuous
100
AcDbLine
 10
1467.8651340592
 20
957.7861087158666
 30
0.0
 11
1470.693561183946
 21
954.9576815911207
 31
0.0
  0
CIRCLE
  5
2549
330
1F
100
AcDbEntity
  8
10
  6
Continuous
100
AcDbCircle
 10
1469.279347621573
 20
956.3718951534935
 30
0.0
 40
4.0
  0
CIRCLE
  5
254A
330
1F
100
AcDbEntity
  8
10
  6
Continuous
100
AcDbCircle
 10
1469.279347621573
 20
956.3718951534935
 30
0.0
 40
3.500000000000001
  0
LINE
  5
254B
330
1F
100
AcDbEntity
  8
10
100
AcDbLine
 10
1482.693561183945
 20
952.7861087158667
 30
0.0
 11
1479.8651340592
 21
949.9576815911206
 31
0.0
  0
LINE
  5
254C
330
1F
100
AcDbEntity
  8
10
100
AcDbLine
 10
1479.8651340592
 20
952.7861087158667
 30
0.0
 11
1482.693561183945
 21
949.9576815911206
 31
0.0
  0
CIRCLE
  5
254D
330
1F
100
AcDbEntity
  8
10
100
AcDbCircle
 10
1481.279347621573
 20
951.3718951534936
 30
0.0
 40
4.0
  0
CIRCLE
  5
254E
330
1F
100
AcDbEntity
  8
10
100
AcDbCircle
 10
1481.279347621573
 20
951.3718951534936
 30
0.0
 40
3.500000000000001
  0
LINE
  5
254F
330
1F
100
AcDbEntity
  8
10
100
AcDbLine
 10
1520.047114574539
 20
953.1396621064599
 30
0.0
 11
1516.511580668606
 21
949.6041282005274
 31
0.0
  0
LINE
  5
2550
330
1F
100
AcDbEntity
  8
10
100
AcDbLine
 10
1516.511580668606
 20
953.1396621064599
 30
0.0
 11
1520.047114574539
 21
949.6041282005274
 31
0.0
  0
CIRCLE
  5
2551
330
1F
100
AcDbEntity
  8
10
100
AcDbCircle
 10
1518.279347621573
 20
951.3718951534936
 30
0.0
 40
5.0
  0
CIRCLE
  5
2552
330
1F
100
AcDbEntity
  8
10
100
AcDbCircle
 10
1518.279347621573
 20
951.3718951534936
 30
0.0
 40
4.5
  0
LINE
  5
2553
330
1F
100
AcDbEntity
  8
10
100
AcDbLine
 10
1533.047114574539
 20
953.1396621064599
 30
0.0
 11
1529.511580668606
 21
949.6041282005274
 31
0.0
  0
LINE
  5
2554
330
1F
100
AcDbEntity
  8
10
100
AcDbLine
 10
1529.511580668606
 20
953.1396621064599
 30
0.0
 11
1533.047114574539
 21
949.6041282005274
 31
0.0
  0
CIRCLE
  5
2555
330
1F
100
AcDbEntity
  8
10
100
AcDbCircle
 10
1531.279347621572
 20
951.3718951534936
 30
0.0
 40
5.0
  0
CIRCLE
  5
2556
330
1F
100
AcDbEntity
  8
10
100
AcDbCircle
 10
1531.279347621572
 20
951.3718951534936
 30
0.0
 40
4.5
  0
LINE
  5
2557
330
1F
100
AcDbEntity
  8
10
100
AcDbLine
 10
1544.693561183946
 20
957.7861087158666
 30
0.0
 11
1541.865134059198
 21
954.9576815911207
 31
0.0
  0
LINE
  5
2558
330
1F
100
AcDbEntity
  8
10
100
AcDbLine
 10
1541.865134059198
 20
957.7861087158666
 30
0.0
 11
1544.693561183946
 21
954.9576815911207
 31
0.0
  0
CIRCLE
  5
2559
330
1F
100
AcDbEntity
  8
10
100
AcDbCircle
 10
1543.279347621573
 20
956.3718951534935
 30
0.0
 40
4.0
  0
CIRCLE
  5
255A
330
1F
100
AcDbEntity
  8
10
100
AcDbCircle
 10
1543.279347621573
 20
956.3718951534935
 30
0.0
 40
3.500000000000001
  0
LINE
  5
255B
330
1F
100
AcDbEntity
  8
10
100
AcDbLine
 10
1470.693561183946
 20
1234.95768159112
 30
0.0
 11
1467.8651340592
 21
1237.786108715866
 31
0.0
  0
LINE
  5
255C
330
1F
100
AcDbEntity
  8
10
100
AcDbLine
 10
1467.8651340592
 20
1234.95768159112
 30
0.0
 11
1470.693561183946
 21
1237.786108715866
 31
0.0
  0
CIRCLE
  5
255D
330
1F
100
AcDbEntity
  8
10
100
AcDbCircle
 10
1469.279347621573
 20
1236.371895153493
 30
0.0
 40
4.0
  0
CIRCLE
  5
255E
330
1F
100
AcDbEntity
  8
10
100
AcDbCircle
 10
1469.279347621573
 20
1236.371895153493
 30
0.0
 40
3.500000000000001
  0
LINE
  5
255F
330
1F
100
AcDbEntity
  8
10
100
AcDbLine
 10
1544.693561183946
 20
1234.95768159112
 30
0.0
 11
1541.8651340592
 21
1237.786108715866
 31
0.0
  0
LINE
  5
2560
330
1F
100
AcDbEntity
  8
10
100
AcDbLine
 10
1541.8651340592
 20
1234.95768159112
 30
0.0
 11
1544.693561183946
 21
1237.786108715866
 31
0.0
  0
CIRCLE
  5
2561
330
1F
100
AcDbEntity
  8
10
100
AcDbCircle
 10
1543.279347621573
 20
1236.371895153493
 30
0.0
 40
4.0
  0
CIRCLE
  5
2562
330
1F
100
AcDbEntity
  8
10
100
AcDbCircle
 10
1543.279347621573
 20
1236.371895153493
 30
0.0
 40
3.500000000000001
  0
LWPOLYLINE
  5
2564
330
1F
100
AcDbEntity
  8
0
  6
CENTER
100
AcDbPolyline
 90
        4
 70
     1
 43
20.0
 39
5.0
 10
1549.279347621572
 20
1246.371895153493
 10
1549.279347621572
 20
1246.371895153493
 10
1549.279347621572
 20
1246.371895153493
 10
1549.279347621572
 20
1246.371895153493
  0
LWPOLYLINE
  5
2596
330
1F
100
AcDbEntity
  8
18
100
AcDbPolyline
 90
        4
 70
     1
 43
0.0
 10
1411.279347621572
 20
1346.371895153493
 10
1601.279347621573
 20
1346.371895153493
 10
1601.279347621573
 20
846.3718951534938
 10
1411.279347621572
 20
846.3718951534938
  0
LWPOLYLINE
  5
25B0
330
1F
100
AcDbEntity
  8
18
100
AcDbPolyline
 90
        4
 70
     1
 43
0.0
 10
1651.279347621573
 20
1346.371895153493
 10
1901.279347621573
 20
1346.371895153493
 10
1901.279347621573
 20
846.3718951534938
 10
1651.279347621573
 20
846.3718951534938
  0
VIEWPORT
  5
1A9E
330
1B
100
AcDbEntity
 67
     1
  8
0
100
AcDbViewport
 10
5.545993534879226
 20
3.574867208486701
 30
0.0
 40
18.63028424012242
 41
11.7909274011406
 68
     1
 69
     1
 12
5.545993534879226
 22
3.574867208486701
 13
0.0
 23
0.0
 14
10.0
 24
10.0
 15
10.0
 25
10.0
 16
0.0
 26
0.0
 36
1.0
 17
0.0
 27
0.0
 37
0.0
 42
50.0
 43
0.0
 44
0.0
 45
11.7909274011406
 50
0.0
 51
0.0
 72
   100
 90
    32800
  1

281
     0
 71
     1
 74
     0
110
0.0
120
0.0
130
0.0
111
1.0
121
0.0
131
0.0
112
0.0
122
1.0
132
0.0
 79
     0
146
0.0
  0
VIEWPORT
  5
1AA0
330
1B
100
AcDbEntity
 67
     1
  8
0
100
AcDbViewport
 10
5.24999976158142
 20
3.999999761581419
 30
0.0
 40
8.399999618530271
 41
6.399999618530272
 68
     2
 69
     2
 12
-1363.137645193887
 22
-311.7485573738788
 13
0.0
 23
0.0
 14
10.0
 24
10.0
 15
10.0
 25
10.0
 16
0.0
 26
0.0
 36
1.0
 17
0.0
 27
0.0
 37
0.0
 42
50.0
 43
0.0
 44
0.0
 45
467.9695885509838
 50
0.0
 51
0.0
 72
   100
 90
    32864
  1

281
     0
 71
     1
 74
     0
110
0.0
120
0.0
130
0.0
111
1.0
121
0.0
131
0.0
112
0.0
122
1.0
132
0.0
 79
     0
146
0.0
  0
ENDSEC
  0
SECTION
  2
OBJECTS
  0
DICTIONARY
  5
C
330
0
100
AcDbDictionary
281
     1
  3
ACAD_GROUP
350
D
  3
ACAD_LAYOUT
350
1A
  3
ACAD_MLINESTYLE
350
17
  3
ACAD_PLOTSETTINGS
350
19
  3
ACAD_PLOTSTYLENAME
350
47
  3
AcDbVariableDictionary
350
191F
  3
DWGPROPS
350
2631
1001
ACAD
1000
TREAT_AS_HARD
1070
     0
  0
DICTIONARY
  5
1C07
330
2
100
AcDbDictionary
280
     1
281
     1
  3
ACAD_LAYERFILTERS
360
2546
  3
ACAD_LAYERSTATES
360
1C08
  0
DICTIONARY
  5
41
330
1F
100
AcDbDictionary
280
     1
281
     1
  3
ACAD_LAYOUTSELFREF
360
1B2E
  0
DICTIONARY
  5
3F
330
1B
100
AcDbDictionary
280
     1
281
     1
  3
ACAD_LAYOUTSELFREF
360
1B2D
  0
DICTIONARY
  5
D
102
{ACAD_REACTORS
330
C
102
}
330
C
100
AcDbDictionary
281
     1
1001
ACAD
1000
TREAT_AS_HARD
1070
     0
  0
DICTIONARY
  5
1A
102
{ACAD_REACTORS
330
C
102
}
330
C
100
AcDbDictionary
281
     1
  3
Model
350
49
  3
ﾚｲｱｳﾄ1
350
4A
1001
ACAD
1000
TREAT_AS_HARD
1070
     0
  0
DICTIONARY
  5
17
102
{ACAD_REACTORS
330
C
102
}
330
C
100
AcDbDictionary
281
     1
  3
STANDARD
350
18
1001
ACAD
1000
TREAT_AS_HARD
1070
     0
  0
DICTIONARY
  5
19
102
{ACAD_REACTORS
330
C
102
}
330
C
100
AcDbDictionary
281
     1
1001
ACAD
1000
TREAT_AS_HARD
1070
     0
  0
ACDBDICTIONARYWDFLT
  5
47
102
{ACAD_REACTORS
330
C
102
}
330
C
100
AcDbDictionary
281
     1
  3
Normal
350
48
100
AcDbDictionaryWithDefault
340
48
  0
DICTIONARY
  5
191F
102
{ACAD_REACTORS
330
C
102
}
330
C
100
AcDbDictionary
281
     1
  3
DIMASSOC
350
1920
  0
XRECORD
  5
2631
102
{ACAD_REACTORS
330
C
102
}
330
C
100
AcDbXrecord
280
     1
  1
DWGPROPS COOKIE
  2

  3

  4

  6

  7

  8

  9

300
=
301
=
302
=
303
=
304
=
305
=
306
=
307
=
308
=
309
=
 40
0.0825322685185185
 41
2453312.371317361
 42
2453971.437951087
  1

 90
        0
  0
DICTIONARY
  5
2546
102
{ACAD_REACTORS
330
1C07
102
}
330
1C07
100
AcDbDictionary
280
     1
281
     1
  0
DICTIONARY
  5
1C08
102
{ACAD_REACTORS
330
1C07
102
}
330
1C07
100
AcDbDictionary
281
     1
  0
XRECORD
  5
1B2E
102
{ACAD_REACTORS
330
41
102
}
330
41
100
AcDbXrecord
280
     1
340
1F
  0
XRECORD
  5
1B2D
102
{ACAD_REACTORS
330
3F
102
}
330
3F
100
AcDbXrecord
280
     1
340
1B
  0
LAYOUT
  5
49
102
{ACAD_REACTORS
330
1A
102
}
330
1A
100
AcDbPlotSettings
  1

  2
FX DocuPrint 505 PS J2
  4
A4
  6

 40
5.027083396911621
 41
5.027085304260253
 42
5.027069091796875
 43
5.027069091796875
 44
209.8886566162109
 45
297.0530090332031
 46
0.0
 47
0.0
 48
0.0
 49
0.0
140
0.0
141
0.0
142
1.0
143
1.0
 70
 11936
 72
     0
 73
     1
 74
     0
  7

 75
     0
147
1.0
148
-32664.13319393656
149
-20699.54227670434
100
AcDbLayout
  1
Model
 70
     1
 71
     0
 10
0.0
 20
0.0
 11
12.0
 21
9.0
 12
0.0
 22
0.0
 32
0.0
 14
0.0
 24
0.0
 34
0.0
 15
0.0
 25
0.0
 35
0.0
146
0.0
 13
0.0
 23
0.0
 33
0.0
 16
1.0
 26
0.0
 36
0.0
 17
0.0
 27
1.0
 37
0.0
 76
     0
330
1F
  0
LAYOUT
  5
4A
102
{ACAD_REACTORS
330
1A
102
}
330
1A
100
AcDbPlotSettings
  1

  2
none_device
  4
Letter_(8.50_x_11.00_Inches)
  6

 40
6.349999904632567
 41
6.349999904632567
 42
6.350006103515625
 43
6.350006103515625
 44
215.8999938964842
 45
279.3999938964843
 46
0.0
 47
0.0
 48
0.0
 49
0.0
140
0.0
141
0.0
142
1.0
143
1.0
 70
   688
 72
     0
 73
     1
 74
     5
  7

 75
    16
147
1.0
148
0.0
149
0.0
100
AcDbLayout
  1
ﾚｲｱｳﾄ1
 70
     1
 71
     1
 10
-0.2500002402958907
 20
-0.2499999962453767
 11
10.74999951940821
 21
8.249999763458731
 12
0.0
 22
0.0
 32
0.0
 14
1.049999952316283
 24
0.7999999523162842
 34
0.0
 15
9.449999570846555
 25
7.199999570846556
 35
0.0
146
0.0
 13
0.0
 23
0.0
 33
0.0
 16
1.0
 26
0.0
 36
0.0
 17
0.0
 27
1.0
 37
0.0
 76
     0
330
1B
331
1A9E
  0
MLINESTYLE
  5
18
102
{ACAD_REACTORS
330
17
102
}
330
17
100
AcDbMlineStyle
  2
STANDARD
 70
     0
  3

 62
   256
 51
90.0
 52
90.0
 71
     2
 49
0.5
 62
   256
  6
BYLAYER
 49
-0.5
 62
   256
  6
BYLAYER
  0
ACDBPLACEHOLDER
  5
48
102
{ACAD_REACTORS
330
47
102
}
330
47
  0
DICTIONARYVAR
  5
1920
102
{ACAD_REACTORS
330
191F
102
}
330
191F
100
DictionaryVariables
280
     0
  1
1
  0
ENDSEC
  0
EOF
