  0
SECTION
  2
HEADER
  9
$ACADVER
  1
AC1015
  9
$ACADMAINTVER
 70
    10
  9
$DWGCODEPAGE
  3
ANSI_932
  9
$INSBASE
 10
0.0
 20
0.0
 30
0.0
  9
$EXTMIN
 10
629.511371041156
 20
654.7109396694386
 30
0.0
  9
$EXTMAX
 10
1475.129767652368
 20
1234.710939669438
 30
0.0
  9
$LIMMIN
 10
0.0
 20
0.0
  9
$LIMMAX
 10
420.0
 20
297.0
  9
$ORTHOMODE
 70
     1
  9
$REGENMODE
 70
     1
  9
$FILLMODE
 70
     1
  9
$QTEXTMODE
 70
     0
  9
$MIRRTEXT
 70
     1
  9
$LTSCALE
 40
1.0
  9
$ATTMODE
 70
     1
  9
$TEXTSIZE
 40
2.5
  9
$TRACEWID
 40
1.0
  9
$TEXTSTYLE
  7
STANDARD
  9
$CLAYER
  8
0
  9
$CELTYPE
  6
BYLAYER
  9
$CECOLOR
 62
   256
  9
$CELTSCALE
 40
1.0
  9
$DISPSILH
 70
     0
  9
$DIMSCALE
 40
1.0
  9
$DIMASZ
 40
2.5
  9
$DIMEXO
 40
0.625
  9
$DIMDLI
 40
3.75
  9
$DIMRND
 40
0.0
  9
$DIMDLE
 40
0.0
  9
$DIMEXE
 40
1.25
  9
$DIMTP
 40
0.0
  9
$DIMTM
 40
0.0
  9
$DIMTXT
 40
2.5
  9
$DIMCEN
 40
2.5
  9
$DIMTSZ
 40
0.0
  9
$DIMTOL
 70
     0
  9
$DIMLIM
 70
     0
  9
$DIMTIH
 70
     0
  9
$DIMTOH
 70
     0
  9
$DIMSE1
 70
     0
  9
$DIMSE2
 70
     0
  9
$DIMTAD
 70
     1
  9
$DIMZIN
 70
     8
  9
$DIMBLK
  1

  9
$DIMASO
 70
     1
  9
$DIMSHO
 70
     1
  9
$DIMPOST
  1

  9
$DIMAPOST
  1

  9
$DIMALT
 70
     0
  9
$DIMALTD
 70
     3
  9
$DIMALTF
 40
0.03937007874016
  9
$DIMLFAC
 40
1.0
  9
$DIMTOFL
 70
     1
  9
$DIMTVP
 40
0.0
  9
$DIMTIX
 70
     0
  9
$DIMSOXD
 70
     0
  9
$DIMSAH
 70
     0
  9
$DIMBLK1
  1

  9
$DIMBLK2
  1

  9
$DIMSTYLE
  2
ISO-25
  9
$DIMCLRD
 70
     0
  9
$DIMCLRE
 70
     0
  9
$DIMCLRT
 70
     0
  9
$DIMTFAC
 40
1.0
  9
$DIMGAP
 40
0.625
  9
$DIMJUST
 70
     0
  9
$DIMSD1
 70
     0
  9
$DIMSD2
 70
     0
  9
$DIMTOLJ
 70
     0
  9
$DIMTZIN
 70
     8
  9
$DIMALTZ
 70
     0
  9
$DIMALTTZ
 70
     0
  9
$DIMUPT
 70
     0
  9
$DIMDEC
 70
     2
  9
$DIMTDEC
 70
     2
  9
$DIMALTU
 70
     2
  9
$DIMALTTD
 70
     3
  9
$DIMTXSTY
  7
STANDARD
  9
$DIMAUNIT
 70
     0
  9
$DIMADEC
 70
     0
  9
$DIMALTRND
 40
0.0
  9
$DIMAZIN
 70
     0
  9
$DIMDSEP
 70
    46
  9
$DIMATFIT
 70
     3
  9
$DIMFRAC
 70
     0
  9
$DIMLDRBLK
  1

  9
$DIMLUNIT
 70
     2
  9
$DIMLWD
 70
    -2
  9
$DIMLWE
 70
    -2
  9
$DIMTMOVE
 70
     0
  9
$LUNITS
 70
     2
  9
$LUPREC
 70
     4
  9
$SKETCHINC
 40
1.0
  9
$FILLETRAD
 40
10.0
  9
$AUNITS
 70
     0
  9
$AUPREC
 70
     0
  9
$MENU
  1
.
  9
$ELEVATION
 40
0.0
  9
$PELEVATION
 40
0.0
  9
$THICKNESS
 40
0.0
  9
$LIMCHECK
 70
     0
  9
$CHAMFERA
 40
10.0
  9
$CHAMFERB
 40
10.0
  9
$CHAMFERC
 40
20.0
  9
$CHAMFERD
 40
0.0
  9
$SKPOLY
 70
     0
  9
$TDCREATE
 40
2453312.371317361
  9
$TDUCREATE
 40
2453311.996317361
  9
$TDUPDATE
 40
2454637.664475220
  9
$TDUUPDATE
 40
2454637.289475219
  9
$TDINDWG
 40
0.0532377199
  9
$TDUSRTIMER
 40
0.0532372338
  9
$USRTIMER
 70
     1
  9
$ANGBASE
 50
0.0
  9
$ANGDIR
 70
     0
  9
$PDMODE
 70
    34
  9
$PDSIZE
 40
0.0
  9
$PLINEWID
 40
0.0
  9
$SPLFRAME
 70
     0
  9
$SPLINETYPE
 70
     6
  9
$SPLINESEGS
 70
     8
  9
$HANDSEED
  5
269D
  9
$SURFTAB1
 70
     6
  9
$SURFTAB2
 70
     6
  9
$SURFTYPE
 70
     6
  9
$SURFU
 70
     6
  9
$SURFV
 70
     6
  9
$UCSBASE
  2

  9
$UCSNAME
  2

  9
$UCSORG
 10
0.0
 20
0.0
 30
0.0
  9
$UCSXDIR
 10
1.0
 20
0.0
 30
0.0
  9
$UCSYDIR
 10
0.0
 20
1.0
 30
0.0
  9
$UCSORTHOREF
  2

  9
$UCSORTHOVIEW
 70
     0
  9
$UCSORGTOP
 10
0.0
 20
0.0
 30
0.0
  9
$UCSORGBOTTOM
 10
0.0
 20
0.0
 30
0.0
  9
$UCSORGLEFT
 10
0.0
 20
0.0
 30
0.0
  9
$UCSORGRIGHT
 10
0.0
 20
0.0
 30
0.0
  9
$UCSORGFRONT
 10
0.0
 20
0.0
 30
0.0
  9
$UCSORGBACK
 10
0.0
 20
0.0
 30
0.0
  9
$PUCSBASE
  2

  9
$PUCSNAME
  2

  9
$PUCSORG
 10
0.0
 20
0.0
 30
0.0
  9
$PUCSXDIR
 10
1.0
 20
0.0
 30
0.0
  9
$PUCSYDIR
 10
0.0
 20
1.0
 30
0.0
  9
$PUCSORTHOREF
  2

  9
$PUCSORTHOVIEW
 70
     0
  9
$PUCSORGTOP
 10
0.0
 20
0.0
 30
0.0
  9
$PUCSORGBOTTOM
 10
0.0
 20
0.0
 30
0.0
  9
$PUCSORGLEFT
 10
0.0
 20
0.0
 30
0.0
  9
$PUCSORGRIGHT
 10
0.0
 20
0.0
 30
0.0
  9
$PUCSORGFRONT
 10
0.0
 20
0.0
 30
0.0
  9
$PUCSORGBACK
 10
0.0
 20
0.0
 30
0.0
  9
$USERI1
 70
     0
  9
$USERI2
 70
     0
  9
$USERI3
 70
     0
  9
$USERI4
 70
     0
  9
$USERI5
 70
     0
  9
$USERR1
 40
0.0
  9
$USERR2
 40
0.0
  9
$USERR3
 40
0.0
  9
$USERR4
 40
0.0
  9
$USERR5
 40
0.0
  9
$WORLDVIEW
 70
     1
  9
$SHADEDGE
 70
     3
  9
$SHADEDIF
 70
    70
  9
$TILEMODE
 70
     1
  9
$MAXACTVP
 70
    48
  9
$PINSBASE
 10
0.0
 20
0.0
 30
0.0
  9
$PLIMCHECK
 70
     0
  9
$PEXTMIN
 10
1.049999952316283
 20
0.7999999523162842
 30
0.0
  9
$PEXTMAX
 10
9.449999570846555
 20
7.199999570846556
 30
0.0
  9
$PLIMMIN
 10
-0.2500002402958907
 20
-0.2499999962453767
  9
$PLIMMAX
 10
10.74999951940821
 20
8.249999763458731
  9
$UNITMODE
 70
     0
  9
$VISRETAIN
 70
     1
  9
$PLINEGEN
 70
     0
  9
$PSLTSCALE
 70
     1
  9
$TREEDEPTH
 70
  3020
  9
$CMLSTYLE
  2
STANDARD
  9
$CMLJUST
 70
     0
  9
$CMLSCALE
 40
20.0
  9
$PROXYGRAPHICS
 70
     1
  9
$MEASUREMENT
 70
     0
  9
$CELWEIGHT
370
    -1
  9
$ENDCAPS
280
     0
  9
$JOINSTYLE
280
     0
  9
$LWDISPLAY
290
     0
  9
$INSUNITS
 70
     0
  9
$HYPERLINKBASE
  1

  9
$STYLESHEET
  1

  9
$XEDIT
290
     1
  9
$CEPSNTYPE
380
     0
  9
$PSTYLEMODE
290
     1
  9
$FINGERPRINTGUID
  2
{C8342AD0-ADE8-45AD-AC00-933185DE4E38}
  9
$VERSIONGUID
  2
{B91E8D1E-0721-445B-BFCF-A6F2D2BBB100}
  9
$EXTNAMES
290
     1
  9
$PSVPSCALE
 40
0.0
  9
$OLESTARTUP
290
     0
  0
ENDSEC
  0
SECTION
  2
CLASSES
  0
CLASS
  1
ACDBDICTIONARYWDFLT
  2
AcDbDictionaryWithDefault
  3
AutoCAD 2000
 90
        0
280
     0
281
     0
  0
CLASS
  1
ACDBPLACEHOLDER
  2
AcDbPlaceHolder
  3
AutoCAD 2000
 90
        0
280
     0
281
     0
  0
CLASS
  1
LAYOUT
  2
AcDbLayout
  3
AutoCAD 2000
 90
        0
280
     0
281
     0
  0
CLASS
  1
LONG_TRANSACTION
  2
AcDbLongTransaction
  3
AutoCAD 2000
 90
    32768
280
     0
281
     0
  0
CLASS
  1
LWPOLYLINE
  2
AcDbPolyline
  3
AutoCAD 2000
 90
    32768
280
     0
281
     1
  0
CLASS
  1
HATCH
  2
AcDbHatch
  3
AutoCAD 2000
 90
    32768
280
     0
281
     1
  0
CLASS
  1
XRECORD
  2
AcDbXrecord
  3
AutoCAD 2000
 90
    32768
280
     0
281
     0
  0
CLASS
  1
DICTIONARYVAR
  2
AcDbDictionaryVar
  3
AutoCAD 2000
 90
        0
280
     0
281
     0
  0
CLASS
  1
LONG_TRANSACTION
  2
AcDbLongTransaction
  3
AutoCAD 2000
 90
    32768
280
     0
281
     0
  0
CLASS
  1
LWPOLYLINE
  2
AcDbPolyline
  3
AutoCAD 2000
 90
    32768
280
     0
281
     1
  0
CLASS
  1
HATCH
  2
AcDbHatch
  3
AutoCAD 2000
 90
    32768
280
     0
281
     1
  0
CLASS
  1
XRECORD
  2
AcDbXrecord
  3
AutoCAD 2000
 90
    32768
280
     0
281
     0
  0
CLASS
  1
LONG_TRANSACTION
  2
AcDbLongTransaction
  3
AutoCAD 2000
 90
    32768
280
     0
281
     0
  0
CLASS
  1
LWPOLYLINE
  2
AcDbPolyline
  3
AutoCAD 2000
 90
    32768
280
     0
281
     1
  0
CLASS
  1
HATCH
  2
AcDbHatch
  3
AutoCAD 2000
 90
    32768
280
     0
281
     1
  0
CLASS
  1
XRECORD
  2
AcDbXrecord
  3
AutoCAD 2000
 90
    32768
280
     0
281
     0
  0
CLASS
  1
LONG_TRANSACTION
  2
AcDbLongTransaction
  3
AutoCAD 2000
 90
    32768
280
     0
281
     0
  0
CLASS
  1
LWPOLYLINE
  2
AcDbPolyline
  3
AutoCAD 2000
 90
    32768
280
     0
281
     1
  0
CLASS
  1
HATCH
  2
AcDbHatch
  3
AutoCAD 2000
 90
    32768
280
     0
281
     1
  0
CLASS
  1
XRECORD
  2
AcDbXrecord
  3
AutoCAD 2000
 90
    32768
280
     0
281
     0
  0
CLASS
  1
LONG_TRANSACTION
  2
AcDbLongTransaction
  3
AutoCAD 2000
 90
    32768
280
     0
281
     0
  0
CLASS
  1
LWPOLYLINE
  2
AcDbPolyline
  3
AutoCAD 2000
 90
    32768
280
     0
281
     1
  0
CLASS
  1
HATCH
  2
AcDbHatch
  3
AutoCAD 2000
 90
    32768
280
     0
281
     1
  0
CLASS
  1
XRECORD
  2
AcDbXrecord
  3
AutoCAD 2000
 90
    32768
280
     0
281
     0
  0
CLASS
  1
LONG_TRANSACTION
  2
AcDbLongTransaction
  3
AutoCAD 2000
 90
    32768
280
     0
281
     0
  0
CLASS
  1
LWPOLYLINE
  2
AcDbPolyline
  3
AutoCAD 2000
 90
    32768
280
     0
281
     1
  0
CLASS
  1
HATCH
  2
AcDbHatch
  3
AutoCAD 2000
 90
    32768
280
     0
281
     1
  0
CLASS
  1
XRECORD
  2
AcDbXrecord
  3
AutoCAD 2000
 90
    32768
280
     0
281
     0
  0
CLASS
  1
LONG_TRANSACTION
  2
AcDbLongTransaction
  3
AutoCAD 2000
 90
    32768
280
     0
281
     0
  0
CLASS
  1
LWPOLYLINE
  2
AcDbPolyline
  3
AutoCAD 2000
 90
    32768
280
     0
281
     1
  0
CLASS
  1
HATCH
  2
AcDbHatch
  3
AutoCAD 2000
 90
    32768
280
     0
281
     1
  0
CLASS
  1
XRECORD
  2
AcDbXrecord
  3
AutoCAD 2000
 90
    32768
280
     0
281
     0
  0
CLASS
  1
LONG_TRANSACTION
  2
AcDbLongTransaction
  3
AutoCAD 2000
 90
    32768
280
     0
281
     0
  0
CLASS
  1
LWPOLYLINE
  2
AcDbPolyline
  3
AutoCAD 2000
 90
    32768
280
     0
281
     1
  0
CLASS
  1
HATCH
  2
AcDbHatch
  3
AutoCAD 2000
 90
    32768
280
     0
281
     1
  0
CLASS
  1
XRECORD
  2
AcDbXrecord
  3
AutoCAD 2000
 90
    32768
280
     0
281
     0
  0
CLASS
  1
LONG_TRANSACTION
  2
AcDbLongTransaction
  3
AutoCAD 2000
 90
    32768
280
     0
281
     0
  0
CLASS
  1
LWPOLYLINE
  2
AcDbPolyline
  3
AutoCAD 2000
 90
    32768
280
     0
281
     1
  0
CLASS
  1
HATCH
  2
AcDbHatch
  3
AutoCAD 2000
 90
    32768
280
     0
281
     1
  0
CLASS
  1
XRECORD
  2
AcDbXrecord
  3
AutoCAD 2000
 90
    32768
280
     0
281
     0
  0
CLASS
  1
LONG_TRANSACTION
  2
AcDbLongTransaction
  3
AutoCAD 2000
 90
    32768
280
     0
281
     0
  0
CLASS
  1
LWPOLYLINE
  2
AcDbPolyline
  3
AutoCAD 2000
 90
    32768
280
     0
281
     1
  0
CLASS
  1
HATCH
  2
AcDbHatch
  3
AutoCAD 2000
 90
    32768
280
     0
281
     1
  0
CLASS
  1
XRECORD
  2
AcDbXrecord
  3
AutoCAD 2000
 90
    32768
280
     0
281
     0
  0
ENDSEC
  0
SECTION
  2
TABLES
  0
TABLE
  2
VPORT
  5
8
330
0
100
AcDbSymbolTable
 70
     3
  0
VPORT
  5
269C
330
8
100
AcDbSymbolTableRecord
100
AcDbViewportTableRecord
  2
*Active
 70
     0
 10
0.0
 20
0.0
 11
1.0
 21
1.0
 12
1205.350379518211
 22
936.4618743070012
 13
0.0
 23
0.0
 14
10.0
 24
10.0
 15
10.0
 25
10.0
 16
0.0
 26
0.0
 36
1.0
 17
0.0
 27
0.0
 37
0.0
 40
1085.107175634131
 41
1.527918781725888
 42
50.0
 43
0.0
 44
0.0
 50
0.0
 51
0.0
 71
     0
 72
   100
 73
     1
 74
     3
 75
     0
 76
     0
 77
     0
 78
     0
281
     0
 65
     1
110
0.0
120
0.0
130
0.0
111
1.0
121
0.0
131
0.0
112
0.0
122
1.0
132
0.0
 79
     0
146
0.0
  0
ENDTAB
  0
TABLE
  2
LTYPE
  5
5
330
0
100
AcDbSymbolTable
 70
     4
  0
LTYPE
  5
14
330
5
100
AcDbSymbolTableRecord
100
AcDbLinetypeTableRecord
  2
BYBLOCK
 70
     0
  3

 72
    65
 73
     0
 40
0.0
  0
LTYPE
  5
15
330
5
100
AcDbSymbolTableRecord
100
AcDbLinetypeTableRecord
  2
BYLAYER
 70
     0
  3

 72
    65
 73
     0
 40
0.0
  0
LTYPE
  5
16
330
5
100
AcDbSymbolTableRecord
100
AcDbLinetypeTableRecord
  2
CONTINUOUS
 70
     0
  3
Solid line
 72
    65
 73
     0
 40
0.0
  0
LTYPE
  5
35
330
5
100
AcDbSymbolTableRecord
100
AcDbLinetypeTableRecord
  2
PHANTOMX2
 70
     0
  3
Phantom (2x) ____________    ____    ____   _
 72
    65
 73
     6
 40
127.0
 49
63.5
 74
     0
 49
-12.7
 74
     0
 49
12.7
 74
     0
 49
-12.7
 74
     0
 49
12.7
 74
     0
 49
-12.7
 74
     0
  0
LTYPE
  5
2666
330
5
100
AcDbSymbolTableRecord
100
AcDbLinetypeTableRecord
  2
CENTER
 70
     0
  3
Center ____ _ ____ _ ____ _ ____ _ ____ _ ____
 72
    65
 73
     4
 40
2.0
 49
1.25
 74
     0
 49
-0.25
 74
     0
 49
0.25
 74
     0
 49
-0.25
 74
     0
  0
LTYPE
  5
2668
330
5
100
AcDbSymbolTableRecord
100
AcDbLinetypeTableRecord
  2
CENTERX2
 70
     0
  3
Center (2x) ________  __  ________  __  _____
 72
    65
 73
     4
 40
4.0
 49
2.5
 74
     0
 49
-0.5
 74
     0
 49
0.5
 74
     0
 49
-0.5
 74
     0
  0
ENDTAB
  0
TABLE
  2
LAYER
  5
2
330
0
100
AcDbSymbolTable
 70
     7
  0
LAYER
  5
10
330
2
100
AcDbSymbolTableRecord
100
AcDbLayerTableRecord
  2
0
 70
     0
 62
     7
  6
CONTINUOUS
370
    -3
390
48
  0
LAYER
  5
2D
330
2
100
AcDbSymbolTableRecord
100
AcDbLayerTableRecord
  2
10
 70
     0
 62
     4
  6
CONTINUOUS
370
    -3
390
48
  0
LAYER
  5
2F
330
2
100
AcDbSymbolTableRecord
100
AcDbLayerTableRecord
  2
12
 70
     0
 62
     3
  6
CONTINUOUS
370
    -3
390
48
  0
LAYER
  5
33
330
2
100
AcDbSymbolTableRecord
100
AcDbLayerTableRecord
  2
18
 70
     0
 62
     1
  6
PHANTOMX2
370
    -3
390
48
  0
LAYER
  5
34
330
2
100
AcDbSymbolTableRecord
100
AcDbLayerTableRecord
  2
19
 70
     0
 62
     7
  6
CONTINUOUS
370
    -3
390
48
  0
LAYER
  5
1C2F
330
2
100
AcDbSymbolTableRecord
100
AcDbLayerTableRecord
  2
DEFPOINTS
 70
     0
 62
     7
  6
CONTINUOUS
290
     0
370
    -3
390
48
  0
LAYER
  5
2667
330
2
100
AcDbSymbolTableRecord
100
AcDbLayerTableRecord
  2
16
 70
     0
 62
     4
  6
CENTERX2
370
    -3
390
48
  0
ENDTAB
  0
TABLE
  2
STYLE
  5
3
330
0
100
AcDbSymbolTable
 70
     3
  0
STYLE
  5
11
330
3
100
AcDbSymbolTableRecord
100
AcDbTextStyleTableRecord
  2
STANDARD
 70
     0
 40
0.0
 41
1.0
 50
0.0
 71
     0
 42
2.5
  3
txt
  4

  0
STYLE
  5
56
330
3
100
AcDbSymbolTableRecord
100
AcDbTextStyleTableRecord
  2
STANDARD1
 70
     0
 40
0.0
 41
0.7
 50
0.0
 71
     0
 42
4.0
  3
romans.shx
  4
extfont.shx
  0
STYLE
  5
2665
330
3
100
AcDbSymbolTableRecord
100
AcDbTextStyleTableRecord
  2

 70
     1
 40
0.0
 41
1.0
 50
0.0
 71
     0
 42
2.5
  3
ltypeshp.shx
  4

  0
ENDTAB
  0
TABLE
  2
VIEW
  5
6
330
0
100
AcDbSymbolTable
 70
     0
  0
ENDTAB
  0
TABLE
  2
UCS
  5
7
330
0
100
AcDbSymbolTable
 70
     0
  0
ENDTAB
  0
TABLE
  2
APPID
  5
9
330
0
100
AcDbSymbolTable
 70
     1
  0
APPID
  5
12
330
9
100
AcDbSymbolTableRecord
100
AcDbRegAppTableRecord
  2
ACAD
 70
     0
  0
ENDTAB
  0
TABLE
  2
DIMSTYLE
  5
A
330
0
100
AcDbSymbolTable
 70
     2
100
AcDbDimStyleTable
 71
     1
340
27
  0
DIMSTYLE
105
27
330
A
100
AcDbSymbolTableRecord
100
AcDbDimStyleTableRecord
  2
ISO-25
 70
     0
 41
2.5
 42
0.625
 43
3.75
 44
1.25
 73
     0
 74
     0
 77
     1
 78
     8
140
2.5
141
2.5
143
0.03937007874016
147
0.625
171
     3
172
     1
271
     2
272
     2
274
     3
283
     0
284
     8
340
11
  0
DIMSTYLE
105
1C30
330
A
100
AcDbSymbolTableRecord
100
AcDbDimStyleTableRecord
  2
STANDARD
 70
     0
340
11
  0
ENDTAB
  0
TABLE
  2
BLOCK_RECORD
  5
1
330
0
100
AcDbSymbolTable
 70
     0
  0
BLOCK_RECORD
  5
1F
102
{ACAD_XDICTIONARY
360
41
102
}
330
1
100
AcDbSymbolTableRecord
100
AcDbBlockTableRecord
  2
*MODEL_SPACE
340
49
  0
BLOCK_RECORD
  5
1B
102
{ACAD_XDICTIONARY
360
3F
102
}
330
1
100
AcDbSymbolTableRecord
100
AcDbBlockTableRecord
  2
*PAPER_SPACE
340
4A
  0
ENDTAB
  0
ENDSEC
  0
SECTION
  2
BLOCKS
  0
BLOCK
  5
20
330
1F
100
AcDbEntity
  8
0
100
AcDbBlockBegin
  2
*MODEL_SPACE
 70
     0
 10
0.0
 20
0.0
 30
0.0
  3
*MODEL_SPACE
  1

  0
ENDBLK
  5
21
330
1F
100
AcDbEntity
  8
0
100
AcDbBlockEnd
  0
BLOCK
  5
1C
330
1B
100
AcDbEntity
 67
     1
  8
0
100
AcDbBlockBegin
  2
*PAPER_SPACE
 70
     0
 10
0.0
 20
0.0
 30
0.0
  3
*PAPER_SPACE
  1

  0
ENDBLK
  5
1D
330
1B
100
AcDbEntity
 67
     1
  8
0
100
AcDbBlockEnd
  0
ENDSEC
  0
SECTION
  2
ENTITIES
  0
LINE
  5
2008
330
1F
100
AcDbEntity
  8
10
100
AcDbLine
 10
993.0113710411557
 20
840.2109396694386
 30
0.0
 11
1010.511371041155
 21
840.2109396694386
 31
0.0
  0
LINE
  5
2009
330
1F
100
AcDbEntity
  8
10
100
AcDbLine
 10
993.0113710411557
 20
842.2109396694382
 30
0.0
 11
1010.511371041155
 21
842.2109396694382
 31
0.0
  0
LINE
  5
200A
330
1F
100
AcDbEntity
  8
10
100
AcDbLine
 10
993.0113710411557
 20
864.8609396694386
 30
0.0
 11
1010.511371041155
 21
864.8609396694386
 31
0.0
  0
LINE
  5
200B
330
1F
100
AcDbEntity
  8
10
100
AcDbLine
 10
993.0113710411557
 20
828.5609396694388
 30
0.0
 11
1010.511371041155
 21
828.5609396694388
 31
0.0
  0
LINE
  5
200C
330
1F
100
AcDbEntity
  8
10
100
AcDbLine
 10
993.0113710411557
 20
862.2109396694385
 30
0.0
 11
1010.511371041155
 21
862.2109396694385
 31
0.0
  0
LINE
  5
200D
330
1F
100
AcDbEntity
  8
10
100
AcDbLine
 10
993.0113710411557
 20
853.2109396694382
 30
0.0
 11
1010.511371041155
 21
853.2109396694382
 31
0.0
  0
LINE
  5
200E
330
1F
100
AcDbEntity
  8
10
100
AcDbLine
 10
993.0113710411557
 20
831.2109396694387
 30
0.0
 11
1010.511371041155
 21
831.2109396694387
 31
0.0
  0
LINE
  5
200F
330
1F
100
AcDbEntity
  8
10
100
AcDbLine
 10
993.0113710411557
 20
851.2109396694382
 30
0.0
 11
1010.511371041155
 21
851.2109396694382
 31
0.0
  0
LINE
  5
2010
330
1F
100
AcDbEntity
  8
10
100
AcDbLine
 10
988.5113710411557
 20
866.2109396694383
 30
0.0
 11
1010.511371041155
 21
866.2109396694383
 31
0.0
  0
LINE
  5
2011
330
1F
100
AcDbEntity
  8
10
100
AcDbLine
 10
988.5113710411557
 20
911.7109396694386
 30
0.0
 11
1010.511371041155
 21
911.7109396694386
 31
0.0
  0
LINE
  5
2012
330
1F
100
AcDbEntity
  8
10
100
AcDbLine
 10
988.5113710411557
 20
894.7109396694385
 30
0.0
 11
1010.511371041155
 21
894.7109396694385
 31
0.0
  0
LINE
  5
2013
330
1F
100
AcDbEntity
  8
10
100
AcDbLine
 10
988.5113710411557
 20
887.7109396694383
 30
0.0
 11
1010.511371041155
 21
887.7109396694383
 31
0.0
  0
LINE
  5
2014
330
1F
100
AcDbEntity
  8
10
100
AcDbLine
 10
988.5113710411557
 20
870.7109396694386
 30
0.0
 11
1010.511371041155
 21
870.7109396694386
 31
0.0
  0
LINE
  5
2015
330
1F
100
AcDbEntity
  8
10
100
AcDbLine
 10
994.4590350849127
 20
970.3357213770967
 30
0.0
 11
999.511371041158
 21
970.0709396694387
 31
0.0
  0
LINE
  5
2016
330
1F
100
AcDbEntity
  8
10
100
AcDbLine
 10
994.4590350849127
 20
1031.80615796178
 30
0.0
 11
999.5113710411576
 21
1032.070939669438
 31
0.0
  0
LINE
  5
2017
330
1F
100
AcDbEntity
  8
10
100
AcDbLine
 10
999.5113710411557
 20
770.7590952550993
 30
0.0
 11
984.0518448701979
 21
771.7590952550992
 31
0.0
  0
LINE
  5
2018
330
1F
100
AcDbEntity
  8
10
100
AcDbLine
 10
981.7349139058482
 20
919.9959079214073
 30
0.0
 11
999.5113710411557
 21
924.7590952550991
 31
0.0
  0
LINE
  5
2019
330
1F
100
AcDbEntity
  8
10
100
AcDbLine
 10
999.5113710411557
 20
816.7590952550991
 30
0.0
 11
989.4939186347183
 21
816.933950537269
 31
0.0
  0
LINE
  5
201A
330
1F
100
AcDbEntity
  8
10
100
AcDbLine
 10
999.5113710411557
 20
917.2590952550992
 30
0.0
 11
989.2525519960535
 21
914.5102529766672
 31
0.0
  0
LINE
  5
2021
330
1F
100
AcDbEntity
  8
10
100
AcDbLine
 10
679.511371041156
 20
1055.070939669438
 30
0.0
 11
749.511371041156
 21
1055.070939669438
 31
0.0
  0
LINE
  5
2022
330
1F
100
AcDbEntity
  8
10
100
AcDbLine
 10
681.5113710411561
 20
1134.710939669438
 30
0.0
 11
827.5113710411558
 21
1134.710939669438
 31
0.0
  0
LINE
  5
2023
330
1F
100
AcDbEntity
  8
10
100
AcDbLine
 10
681.5113710411561
 20
754.7109396694385
 30
0.0
 11
700.6383876949484
 21
754.7109396694385
 31
0.0
  0
LINE
  5
2024
330
1F
100
AcDbEntity
  8
10
100
AcDbLine
 10
679.511371041156
 20
1048.070939669438
 30
0.0
 11
749.511371041156
 21
1048.070939669438
 31
0.0
  0
LINE
  5
2027
330
1F
100
AcDbEntity
  8
10
100
AcDbLine
 10
829.5113710411557
 20
769.7109396694314
 30
0.0
 11
679.511371041156
 21
769.7109396694314
 31
0.0
  0
LINE
  5
2028
330
1F
100
AcDbEntity
  8
10
100
AcDbLine
 10
679.511371041156
 20
759.7109396694313
 30
0.0
 11
692.5113710411558
 21
759.7109396694313
 31
0.0
  0
LINE
  5
2029
330
1F
100
AcDbEntity
  8
10
100
AcDbLine
 10
829.5113710411557
 20
1119.71093966943
 30
0.0
 11
679.511371041156
 21
1119.71093966943
 31
0.0
  0
LINE
  5
202A
330
1F
100
AcDbEntity
  8
10
100
AcDbLine
 10
679.511371041156
 20
1129.71093966943
 30
0.0
 11
692.5113710411558
 21
1129.71093966943
 31
0.0
  0
LINE
  5
202B
330
1F
100
AcDbEntity
  8
10
100
AcDbLine
 10
829.5113710411557
 20
924.5845578992842
 30
0.0
 11
679.511371041156
 21
924.5845578992842
 31
0.0
  0
LINE
  5
2030
330
1F
100
AcDbEntity
  8
10
100
AcDbLine
 10
829.5113710411557
 20
1119.710939669438
 30
0.0
 11
679.511371041156
 21
1119.710939669438
 31
0.0
  0
LINE
  5
2031
330
1F
100
AcDbEntity
  8
10
100
AcDbLine
 10
679.511371041156
 20
756.7109396694386
 30
0.0
 11
679.511371041156
 21
1132.710939669431
 31
0.0
  0
LINE
  5
2032
330
1F
100
AcDbEntity
  8
10
100
AcDbLine
 10
679.511371041156
 20
759.7109396694313
 30
0.0
 11
679.511371041156
 21
1129.71093966943
 31
0.0
  0
LINE
  5
2033
330
1F
100
AcDbEntity
  8
10
100
AcDbLine
 10
681.0113710411558
 20
755.2109396694385
 30
0.0
 11
681.0113710411558
 21
759.7109396694313
 31
0.0
  0
LINE
  5
2034
330
1F
100
AcDbEntity
  8
10
100
AcDbLine
 10
679.511371041156
 20
756.7109396694386
 30
0.0
 11
681.5113710411561
 21
754.7109396694385
 31
0.0
  0
LINE
  5
2035
330
1F
100
AcDbEntity
  8
10
100
AcDbLine
 10
681.241371041156
 20
769.7109396694314
 30
0.0
 11
682.5113710411558
 21
759.7109396694313
 31
0.0
  0
LINE
  5
2036
330
1F
100
AcDbEntity
  8
10
100
AcDbLine
 10
682.5113710411558
 20
769.7109396694314
 30
0.0
 11
682.5113710411558
 21
759.7109396694313
 31
0.0
  0
LINE
  5
2037
330
1F
100
AcDbEntity
  8
10
100
AcDbLine
 10
679.511371041156
 20
1132.710939669431
 30
0.0
 11
681.5113710411561
 21
1134.710939669438
 31
0.0
  0
LINE
  5
2038
330
1F
100
AcDbEntity
  8
10
100
AcDbLine
 10
681.0113710411558
 20
1129.71093966943
 30
0.0
 11
681.0113710411558
 21
1134.210939669436
 31
0.0
  0
LINE
  5
2039
330
1F
100
AcDbEntity
  8
10
100
AcDbLine
 10
681.241371041156
 20
1119.71093966943
 30
0.0
 11
682.5113710411558
 21
1129.71093966943
 31
0.0
  0
LINE
  5
203A
330
1F
100
AcDbEntity
  8
10
100
AcDbLine
 10
682.5113710411558
 20
1119.71093966943
 30
0.0
 11
682.5113710411558
 21
1129.71093966943
 31
0.0
  0
LINE
  5
203B
330
1F
100
AcDbEntity
  8
10
100
AcDbLine
 10
829.5113710411557
 20
1129.71093966943
 30
0.0
 11
829.5113710411557
 21
847.2846521478299
 31
0.0
  0
LINE
  5
203C
330
1F
100
AcDbEntity
  8
10
100
AcDbLine
 10
829.5113710411557
 20
756.7109396694386
 30
0.0
 11
829.5113710411557
 21
1132.710939669431
 31
0.0
  0
LINE
  5
203D
330
1F
100
AcDbEntity
  8
10
100
AcDbLine
 10
829.5113710411557
 20
1129.71093966943
 30
0.0
 11
829.5113710411557
 21
759.7109396694313
 31
0.0
  0
LINE
  5
203E
330
1F
100
AcDbEntity
  8
10
100
AcDbLine
 10
749.511371041156
 20
1039.710939669437
 30
0.0
 11
749.511371041156
 21
1119.710939669438
 31
0.0
  0
LINE
  5
203F
330
1F
100
AcDbEntity
  8
10
100
AcDbLine
 10
809.5113710411556
 20
1039.710939669437
 30
0.0
 11
809.5113710411556
 21
1119.710939669438
 31
0.0
  0
LINE
  5
2040
330
1F
100
AcDbEntity
  8
10
100
AcDbLine
 10
809.5113710411556
 20
1048.070939669438
 30
0.0
 11
829.5113710411557
 21
1048.070939669438
 31
0.0
  0
LINE
  5
2041
330
1F
100
AcDbEntity
  8
10
100
AcDbLine
 10
809.5113710411556
 20
1055.070939669438
 30
0.0
 11
829.5113710411557
 21
1055.070939669438
 31
0.0
  0
LINE
  5
2043
330
1F
100
AcDbEntity
  8
10
100
AcDbLine
 10
816.5113710411556
 20
759.7109396694313
 30
0.0
 11
829.5113710411557
 21
759.7109396694313
 31
0.0
  0
LINE
  5
2044
330
1F
100
AcDbEntity
  8
10
100
AcDbLine
 10
808.3843543873641
 20
754.7109396694385
 30
0.0
 11
827.5113710411558
 21
754.7109396694385
 31
0.0
  0
LINE
  5
2045
330
1F
100
AcDbEntity
  8
10
 48
3.0
100
AcDbLine
 10
771.5113710411557
 20
916.2109396694313
 30
0.0
 11
771.5113710411557
 21
866.2109396694313
 31
0.0
  0
LINE
  5
2046
330
1F
100
AcDbEntity
  8
10
 48
3.0
100
AcDbLine
 10
803.5113710411561
 20
916.2109396694313
 30
0.0
 11
803.5113710411561
 21
866.2109396694313
 31
0.0
  0
LINE
  5
2047
330
1F
100
AcDbEntity
  8
10
100
AcDbLine
 10
727.5113710411558
 20
754.7109396694385
 30
0.0
 11
781.5113710411561
 21
754.7109396694385
 31
0.0
  0
LINE
  5
2048
330
1F
100
AcDbEntity
  8
12
 48
3.0
100
AcDbLine
 10
717.5113710411562
 20
764.7109396694385
 30
0.0
 11
791.5113710411561
 21
764.7109396694385
 31
0.0
  0
LINE
  5
2049
330
1F
100
AcDbEntity
  8
10
 48
3.0
100
AcDbLine
 10
714.0113710411557
 20
778.2109396694314
 30
0.0
 11
795.0113710411558
 21
778.2109396694314
 31
0.0
  0
LINE
  5
204A
330
1F
100
AcDbEntity
  8
10
 48
3.0
100
AcDbLine
 10
714.0113710411557
 20
816.2109396694313
 30
0.0
 11
795.0113710411558
 21
816.2109396694313
 31
0.0
  0
LINE
  5
204B
330
1F
100
AcDbEntity
  8
10
 48
3.0
100
AcDbLine
 10
714.0113710411557
 20
778.2109396694314
 30
0.0
 11
714.0113710411557
 21
816.2109396694313
 31
0.0
  0
LINE
  5
204C
330
1F
100
AcDbEntity
  8
10
100
AcDbLine
 10
708.3843543873634
 20
754.7109396694385
 30
0.0
 11
721.5113710411563
 21
754.7109396694385
 31
0.0
  0
CIRCLE
  5
204D
330
1F
100
AcDbEntity
  8
10
100
AcDbCircle
 10
704.511371041156
 20
761.7109396694386
 30
0.0
 40
7.999999999999992
  0
LINE
  5
204E
330
1F
100
AcDbEntity
  8
10
100
AcDbLine
 10
701.6829439164101
 20
764.5393667941847
 30
0.0
 11
707.3397981659027
 21
758.8825125446929
 31
0.0
  0
LINE
  5
204F
330
1F
100
AcDbEntity
  8
10
100
AcDbLine
 10
704.5113710411567
 20
754.2109396694386
 30
0.0
 11
698.0161805127726
 21
757.9609396694386
 31
0.0
  0
LINE
  5
2050
330
1F
100
AcDbEntity
  8
10
100
AcDbLine
 10
698.0161805127726
 20
765.4609396694386
 30
0.0
 11
704.511371041156
 21
769.2109396694386
 31
0.0
  0
LINE
  5
2051
330
1F
100
AcDbEntity
  8
10
100
AcDbLine
 10
707.3397981659021
 20
764.5393667941847
 30
0.0
 11
701.6829439164101
 21
758.8825125446922
 31
0.0
  0
LINE
  5
2052
330
1F
100
AcDbEntity
  8
10
100
AcDbLine
 10
692.5113710411558
 20
769.7109396694314
 30
0.0
 11
692.5113710411558
 21
759.7109396694313
 31
0.0
  0
LINE
  5
2053
330
1F
100
AcDbEntity
  8
10
100
AcDbLine
 10
698.0161805127726
 20
765.4609396694386
 30
0.0
 11
698.0161805127726
 21
757.9609396694386
 31
0.0
  0
LINE
  5
2054
330
1F
100
AcDbEntity
  8
10
100
AcDbLine
 10
711.0065615695396
 20
765.4609396694386
 30
0.0
 11
704.511371041156
 21
769.2109396694386
 31
0.0
  0
LINE
  5
2055
330
1F
100
AcDbEntity
  8
10
100
AcDbLine
 10
704.5113710411567
 20
754.2109396694386
 30
0.0
 11
711.0065615695396
 21
757.9609396694386
 31
0.0
  0
LINE
  5
2056
330
1F
100
AcDbEntity
  8
10
100
AcDbLine
 10
711.0065615695396
 20
765.4609396694386
 30
0.0
 11
711.0065615695396
 21
757.9609396694386
 31
0.0
  0
ARC
  5
2057
330
1F
100
AcDbEntity
  8
12
100
AcDbCircle
 10
724.511371041156
 20
764.7109396694385
 30
0.0
 40
2.999999999999991
100
AcDbArc
 50
0.0
 51
180.0
  0
LINE
  5
2058
330
1F
100
AcDbEntity
  8
12
100
AcDbLine
 10
721.5113710411563
 20
764.7109396694385
 30
0.0
 11
721.5113710411563
 21
754.7109396694385
 31
0.0
  0
LINE
  5
2059
330
1F
100
AcDbEntity
  8
12
 48
3.0
100
AcDbLine
 10
724.511371041156
 20
771.7109396694386
 30
0.0
 11
724.5113710411563
 21
757.7109396694383
 31
0.0
  0
LINE
  5
205A
330
1F
100
AcDbEntity
  8
12
100
AcDbLine
 10
727.5113710411558
 20
764.7109396694385
 30
0.0
 11
727.5113710411558
 21
754.7109396694385
 31
0.0
  0
LINE
  5
205B
330
1F
100
AcDbEntity
  8
10
 48
3.0
100
AcDbLine
 10
795.0113710411558
 20
778.2109396694314
 30
0.0
 11
795.0113710411558
 21
816.2109396694313
 31
0.0
  0
ARC
  5
205C
330
1F
100
AcDbEntity
  8
12
100
AcDbCircle
 10
784.5113710411562
 20
764.7109396694385
 30
0.0
 40
2.999999999999991
100
AcDbArc
 50
0.0
 51
180.0
  0
TEXT
  5
205E
330
1F
100
AcDbEntity
  8
10
 48
3.0
100
AcDbText
 10
755.6542338637853
 20
780.7109404814974
 30
0.0
 40
9.142857279096331
  1
ＴＢ１
 50
0.0000025044784726
 41
0.7031250019402551
  7
STANDARD1
100
AcDbText
  0
LINE
  5
205F
330
1F
100
AcDbEntity
  8
12
100
AcDbLine
 10
781.5113710411561
 20
764.7109396694385
 30
0.0
 11
781.5113710411561
 21
754.7109396694385
 31
0.0
  0
LINE
  5
2060
330
1F
100
AcDbEntity
  8
12
 48
3.0
100
AcDbLine
 10
784.5113710411562
 20
771.7109396694386
 30
0.0
 11
784.5113710411562
 21
757.7109396694383
 31
0.0
  0
LINE
  5
2061
330
1F
100
AcDbEntity
  8
10
100
AcDbLine
 10
801.68294391641
 20
764.5393667941844
 30
0.0
 11
807.3397981659024
 21
758.8825125446922
 31
0.0
  0
LINE
  5
2062
330
1F
100
AcDbEntity
  8
10
100
AcDbLine
 10
807.3397981659022
 20
764.5393667941847
 30
0.0
 11
801.68294391641
 21
758.8825125446922
 31
0.0
  0
LINE
  5
2063
330
1F
100
AcDbEntity
  8
10
100
AcDbLine
 10
798.0161805127726
 20
765.4609396694386
 30
0.0
 11
804.5113710411557
 21
769.2109396694378
 31
0.0
  0
LINE
  5
2064
330
1F
100
AcDbEntity
  8
10
100
AcDbLine
 10
804.5113710411563
 20
754.2109396694386
 30
0.0
 11
798.0161805127725
 21
757.9609396694386
 31
0.0
  0
CIRCLE
  5
2065
330
1F
100
AcDbEntity
  8
10
100
AcDbCircle
 10
804.5113710411557
 20
761.7109396694378
 30
0.0
 40
8.000000000000012
  0
LINE
  5
2066
330
1F
100
AcDbEntity
  8
10
100
AcDbLine
 10
787.5113710411558
 20
754.7109396694385
 30
0.0
 11
800.6383876949477
 21
754.7109396694385
 31
0.0
  0
LINE
  5
2067
330
1F
100
AcDbEntity
  8
12
100
AcDbLine
 10
787.5113710411558
 20
764.7109396694385
 30
0.0
 11
787.5113710411558
 21
754.7109396694385
 31
0.0
  0
LINE
  5
2068
330
1F
100
AcDbEntity
  8
10
100
AcDbLine
 10
798.0161805127726
 20
765.4609396694386
 30
0.0
 11
798.0161805127725
 21
757.9609396694386
 31
0.0
  0
LINE
  5
2069
330
1F
100
AcDbEntity
  8
10
100
AcDbLine
 10
811.0065615695392
 20
765.4609396694378
 30
0.0
 11
804.5113710411557
 21
769.2109396694378
 31
0.0
  0
LINE
  5
206A
330
1F
100
AcDbEntity
  8
10
100
AcDbLine
 10
804.5113710411563
 20
754.2109396694386
 30
0.0
 11
811.0065615695392
 21
757.960939669438
 31
0.0
  0
LINE
  5
206B
330
1F
100
AcDbEntity
  8
10
100
AcDbLine
 10
811.0065615695392
 20
765.4609396694378
 30
0.0
 11
811.0065615695392
 21
757.960939669438
 31
0.0
  0
LINE
  5
206C
330
1F
100
AcDbEntity
  8
10
100
AcDbLine
 10
816.5113710411556
 20
769.7109396694314
 30
0.0
 11
816.5113710411556
 21
759.7109396694313
 31
0.0
  0
LINE
  5
206D
330
1F
100
AcDbEntity
  8
10
 48
3.0
100
AcDbLine
 10
782.5113710411558
 20
864.8609396694311
 30
0.0
 11
803.5113710411561
 21
864.8609396694311
 31
0.0
  0
LINE
  5
206E
330
1F
100
AcDbEntity
  8
10
 48
3.0
100
AcDbLine
 10
782.5113710411558
 20
828.5609396694312
 30
0.0
 11
803.5113710411561
 21
828.5609396694312
 31
0.0
  0
LINE
  5
206F
330
1F
100
AcDbEntity
  8
10
 48
3.0
100
AcDbLine
 10
803.5113710411561
 20
866.2109396694313
 30
0.0
 11
771.5113710411557
 21
866.2109396694313
 31
0.0
  0
TEXT
  5
2070
330
1F
100
AcDbEntity
  8
10
 48
3.0
100
AcDbText
 10
776.6542338637853
 20
868.7109423888458
 30
0.0
 40
9.142857279096331
  1
ＴＢ３
 50
0.0000025044784726
 41
0.7031250019402551
  7
STANDARD1
100
AcDbText
  0
TEXT
  5
2071
330
1F
100
AcDbEntity
  8
10
 48
3.0
100
AcDbText
 10
783.2399577407384
 20
831.0609332335726
 30
0.0
 40
8.22857175554548
  1
ＴＢ２
 50
0.0000025044784726
 41
0.7031249913766429
  7
STANDARD1
100
AcDbText
  0
LINE
  5
2072
330
1F
100
AcDbEntity
  8
10
 48
3.0
100
AcDbLine
 10
782.5113710411558
 20
828.5609396694312
 30
0.0
 11
782.5113710411558
 21
864.8609396694311
 31
0.0
  0
LINE
  5
2073
330
1F
100
AcDbEntity
  8
10
 48
3.0
100
AcDbLine
 10
803.5113710411561
 20
828.5609396694312
 30
0.0
 11
803.5113710411561
 21
864.8609396694311
 31
0.0
  0
LINE
  5
2074
330
1F
100
AcDbEntity
  8
10
100
AcDbLine
 10
751.3113710411556
 20
970.1709396694383
 30
0.0
 11
781.3113710411556
 21
970.1709396694383
 31
0.0
  0
LINE
  5
2075
330
1F
100
AcDbEntity
  8
10
100
AcDbLine
 10
751.3113710411556
 20
1031.970939669438
 30
0.0
 11
781.3113710411556
 21
1031.970939669438
 31
0.0
  0
LINE
  5
2076
330
1F
100
AcDbEntity
  8
10
100
AcDbLine
 10
756.3113710411556
 20
1029.970939669438
 30
0.0
 11
751.3113710411556
 21
1029.970939669438
 31
0.0
  0
LINE
  5
2077
330
1F
100
AcDbEntity
  8
10
100
AcDbLine
 10
756.3113710411556
 20
972.1709396694386
 30
0.0
 11
751.3113710411556
 21
972.1709396694386
 31
0.0
  0
LINE
  5
2078
330
1F
100
AcDbEntity
  8
10
100
AcDbLine
 10
759.5113710411557
 20
1082.710939669438
 30
0.0
 11
749.511371041156
 21
1082.710939669438
 31
0.0
  0
LINE
  5
2079
330
1F
100
AcDbEntity
  8
10
100
AcDbLine
 10
750.4023032889675
 20
1029.570939669438
 30
0.0
 11
756.3113710411556
 21
1029.570939669438
 31
0.0
  0
LINE
  5
207A
330
1F
100
AcDbEntity
  8
10
100
AcDbLine
 10
750.4023032889675
 20
972.5709396694382
 30
0.0
 11
756.3113710411556
 21
972.5709396694382
 31
0.0
  0
LINE
  5
207B
330
1F
100
AcDbEntity
  8
10
100
AcDbLine
 10
750.4023032889675
 20
1032.070939669438
 30
0.0
 11
809.0113710411557
 21
1032.070939669438
 31
0.0
  0
LINE
  5
207C
330
1F
100
AcDbEntity
  8
10
100
AcDbLine
 10
750.4023032889675
 20
970.0709396694383
 30
0.0
 11
793.0113710411557
 21
970.0709396694383
 31
0.0
  0
LINE
  5
207D
330
1F
100
AcDbEntity
  8
10
100
AcDbLine
 10
750.0113710411558
 20
1048.070939669438
 30
0.0
 11
809.0113710411557
 21
1048.070939669438
 31
0.0
  0
LINE
  5
207E
330
1F
100
AcDbEntity
  8
10
100
AcDbLine
 10
750.0113710411558
 20
1055.070939669438
 30
0.0
 11
752.7113710411556
 21
1055.070939669438
 31
0.0
  0
LINE
  5
207F
330
1F
100
AcDbEntity
  8
10
100
AcDbLine
 10
749.5113710411557
 20
964.5709396694384
 30
0.0
 11
809.5113710411556
 21
964.5709396694384
 31
0.0
  0
LINE
  5
2080
330
1F
100
AcDbEntity
  8
10
100
AcDbLine
 10
750.5113710411556
 20
1079.070939669438
 30
0.0
 11
808.511371041156
 21
1079.070939669438
 31
0.0
  0
LINE
  5
2081
330
1F
100
AcDbEntity
  8
10
100
AcDbLine
 10
749.5113710411557
 20
1078.070939669438
 30
0.0
 11
749.5113710411557
 21
964.5709396694384
 31
0.0
  0
LINE
  5
2082
330
1F
100
AcDbEntity
  8
10
100
AcDbLine
 10
751.3113710411556
 20
970.1709396694383
 30
0.0
 11
751.3113710411556
 21
972.1709396694386
 31
0.0
  0
LINE
  5
2083
330
1F
100
AcDbEntity
  8
10
100
AcDbLine
 10
751.7113710411559
 20
972.1709396694386
 30
0.0
 11
751.7113710411559
 21
972.5709396694382
 31
0.0
  0
LINE
  5
2084
330
1F
100
AcDbEntity
  8
10
100
AcDbLine
 10
751.7113710411559
 20
970.0709396694383
 30
0.0
 11
751.7113710411559
 21
970.1709396694383
 31
0.0
  0
LINE
  5
2085
330
1F
100
AcDbEntity
  8
10
100
AcDbLine
 10
750.4023032889675
 20
970.0709396694383
 30
0.0
 11
750.4023032889675
 21
972.5709396694382
 31
0.0
  0
LINE
  5
2086
330
1F
100
AcDbEntity
  8
10
100
AcDbLine
 10
751.3113710411556
 20
1029.970939669438
 30
0.0
 11
751.3113710411556
 21
1031.970939669438
 31
0.0
  0
LINE
  5
2087
330
1F
100
AcDbEntity
  8
10
100
AcDbLine
 10
751.7113710411559
 20
1031.970939669438
 30
0.0
 11
751.7113710411559
 21
1032.070939669438
 31
0.0
  0
LINE
  5
2088
330
1F
100
AcDbEntity
  8
10
100
AcDbLine
 10
751.7113710411559
 20
1029.570939669438
 30
0.0
 11
751.7113710411559
 21
1029.970939669438
 31
0.0
  0
LINE
  5
2089
330
1F
100
AcDbEntity
  8
10
100
AcDbLine
 10
750.4023032889675
 20
1029.570939669438
 30
0.0
 11
750.4023032889675
 21
1032.070939669438
 31
0.0
  0
ARC
  5
208A
330
1F
100
AcDbEntity
  8
10
100
AcDbCircle
 10
750.0113710411558
 20
1055.570939669438
 30
0.0
 40
0.4999999999999915
100
AcDbArc
 50
180.0
 51
270.0
  0
ARC
  5
208B
330
1F
100
AcDbEntity
  8
10
100
AcDbCircle
 10
750.0113710411558
 20
1047.570939669438
 30
0.0
 40
0.4999999999999915
100
AcDbArc
 50
90.0
 51
180.0
  0
ARC
  5
208C
330
1F
100
AcDbEntity
  8
10
100
AcDbCircle
 10
750.5113710411556
 20
1078.070939669438
 30
0.0
 40
0.9999999999999827
100
AcDbArc
 50
90.0
 51
180.0
  0
LINE
  5
208D
330
1F
100
AcDbEntity
  8
10
100
AcDbLine
 10
756.3113710411556
 20
970.1709396694383
 30
0.0
 11
756.3113710411556
 21
1031.970939669438
 31
0.0
  0
LINE
  5
208E
330
1F
100
AcDbEntity
  8
10
100
AcDbLine
 10
758.9094472525093
 20
970.1709396694383
 30
0.0
 11
758.9094472525093
 21
1031.970939669438
 31
0.0
  0
LINE
  5
208F
330
1F
100
AcDbEntity
  8
10
100
AcDbLine
 10
780.5101863220242
 20
989.5709431519147
 30
0.0
 11
780.5101863220242
 21
1029.970939669438
 31
0.0
  0
LINE
  5
2090
330
1F
100
AcDbEntity
  8
10
100
AcDbLine
 10
780.0895018233343
 20
989.5709431519147
 30
0.0
 11
780.0895018233343
 21
1031.970939669438
 31
0.0
  0
LINE
  5
2091
330
1F
100
AcDbEntity
  8
10
100
AcDbLine
 10
809.5113710411556
 20
1078.070939669438
 30
0.0
 11
809.5113710411556
 21
964.5709396694384
 31
0.0
  0
LINE
  5
2092
330
1F
100
AcDbEntity
  8
10
 48
3.0
100
AcDbLine
 10
767.1113710411557
 20
973.5709396694383
 30
0.0
 11
767.1113710411557
 21
1028.570939669438
 31
0.0
  0
LINE
  5
2093
330
1F
100
AcDbEntity
  8
10
 48
3.0
100
AcDbLine
 10
759.1113710411557
 20
1028.570939669438
 30
0.0
 11
759.1113710411557
 21
973.5709396694383
 31
0.0
  0
LINE
  5
2094
330
1F
100
AcDbEntity
  8
10
 48
3.0
100
AcDbLine
 10
803.5113710411561
 20
916.2109396694313
 30
0.0
 11
771.5113710411557
 21
916.2109396694313
 31
0.0
  0
TEXT
  5
2095
330
1F
100
AcDbEntity
  8
10
100
AcDbText
 10
768.1113566665194
 20
980.5709353698032
 30
0.0
 40
7.999999863760812
  1
ＴＢ４
 50
0.0000025044784726
 41
0.5555555673818741
  7
STANDARD1
100
AcDbText
  0
LINE
  5
2096
330
1F
100
AcDbEntity
  8
10
 48
3.0
100
AcDbLine
 10
759.1113710411557
 20
973.5709396694383
 30
0.0
 11
767.1113710411557
 21
973.5709396694383
 31
0.0
  0
LINE
  5
2097
330
1F
100
AcDbEntity
  8
10
100
AcDbLine
 10
752.7113710411556
 20
972.1709396694386
 30
0.0
 11
752.7113710411556
 21
972.5709396694382
 31
0.0
  0
LINE
  5
2098
330
1F
100
AcDbEntity
  8
10
100
AcDbLine
 10
753.9113710411558
 20
972.1709396694386
 30
0.0
 11
753.9113710411558
 21
972.5709396694382
 31
0.0
  0
LINE
  5
2099
330
1F
100
AcDbEntity
  8
10
100
AcDbLine
 10
755.1113710411557
 20
972.1709396694386
 30
0.0
 11
755.1113710411557
 21
972.5709396694382
 31
0.0
  0
LINE
  5
209A
330
1F
100
AcDbEntity
  8
10
100
AcDbLine
 10
757.0113710411557
 20
970.1709396694383
 30
0.0
 11
757.0113710411557
 21
970.0709396694383
 31
0.0
  0
LINE
  5
209B
330
1F
100
AcDbEntity
  8
10
100
AcDbLine
 10
753.9113710411558
 20
970.0709396694383
 30
0.0
 11
753.9113710411558
 21
970.1709396694383
 31
0.0
  0
LINE
  5
209C
330
1F
100
AcDbEntity
  8
10
100
AcDbLine
 10
752.7113710411556
 20
970.0709396694383
 30
0.0
 11
752.7113710411556
 21
970.1709396694383
 31
0.0
  0
LINE
  5
209D
330
1F
100
AcDbEntity
  8
10
100
AcDbLine
 10
755.1113710411557
 20
970.0709396694383
 30
0.0
 11
755.1113710411557
 21
970.1709396694383
 31
0.0
  0
LINE
  5
209E
330
1F
100
AcDbEntity
  8
10
100
AcDbLine
 10
776.3761608033534
 20
970.0709396694383
 30
0.0
 11
776.3761608033534
 21
970.1709396694383
 31
0.0
  0
LINE
  5
209F
330
1F
100
AcDbEntity
  8
10
100
AcDbLine
 10
780.311371041156
 20
970.0709396694383
 30
0.0
 11
780.311371041156
 21
970.1709396694383
 31
0.0
  0
LINE
  5
20A0
330
1F
100
AcDbEntity
  8
10
100
AcDbLine
 10
778.3113710411559
 20
970.0709396694383
 30
0.0
 11
778.3113710411559
 21
970.1709396694383
 31
0.0
  0
LINE
  5
20A1
330
1F
100
AcDbEntity
  8
10
100
AcDbLine
 10
780.0895018233343
 20
970.1709396694383
 30
0.0
 11
780.0895018233343
 21
979.5709424525323
 31
0.0
  0
LINE
  5
20A2
330
1F
100
AcDbEntity
  8
10
100
AcDbLine
 10
781.3113710411556
 20
970.1709396694383
 30
0.0
 11
781.3113710411556
 21
972.1709396694386
 31
0.0
  0
LINE
  5
20A3
330
1F
100
AcDbEntity
  8
10
100
AcDbLine
 10
780.2534091569047
 20
972.1709396694386
 30
0.0
 11
781.3113710411556
 21
972.1709396694386
 31
0.0
  0
LINE
  5
20A4
330
1F
100
AcDbEntity
  8
10
100
AcDbLine
 10
780.5101863220242
 20
972.1709396694386
 30
0.0
 11
780.5101863220242
 21
979.5709424525323
 31
0.0
  0
ARC
  5
20A5
330
1F
100
AcDbEntity
  8
10
100
AcDbCircle
 10
781.8761608033534
 20
971.0709396694383
 30
0.0
 40
0.5000000000000116
100
AcDbArc
 50
0.0
 51
90.0
  0
LINE
  5
20A6
330
1F
100
AcDbEntity
  8
10
100
AcDbLine
 10
781.3113710411556
 20
971.5709396694386
 30
0.0
 11
781.8761608033534
 21
971.5709396694386
 31
0.0
  0
LINE
  5
20A7
330
1F
100
AcDbEntity
  8
10
100
AcDbLine
 10
782.3761608033533
 20
970.0709396694383
 30
0.0
 11
782.3761608033533
 21
971.0709396694383
 31
0.0
  0
ARC
  5
20A8
330
1F
100
AcDbEntity
  8
10
100
AcDbCircle
 10
796.5113710411557
 20
970.0709396694383
 30
0.0
 40
6.499999999999997
100
AcDbArc
 50
0.0
 51
180.0
  0
LINE
  5
20A9
330
1F
100
AcDbEntity
  8
10
100
AcDbLine
 10
800.0113710411557
 20
970.0709396694383
 30
0.0
 11
809.0113710411557
 21
970.0709396694383
 31
0.0
  0
ARC
  5
20AA
330
1F
100
AcDbEntity
  8
10
100
AcDbCircle
 10
796.5113710411557
 20
970.0709396694383
 30
0.0
 40
4.999999999999877
100
AcDbArc
 50
0.0
 51
180.0
  0
ARC
  5
20AB
330
1F
100
AcDbEntity
  8
10
100
AcDbCircle
 10
796.5113710411557
 20
970.0709396694383
 30
0.0
 40
3.500000000000003
100
AcDbArc
 50
0.0
 51
180.0
  0
ARC
  5
20AC
330
1F
100
AcDbEntity
  8
10
100
AcDbCircle
 10
796.5113710411557
 20
970.0709396694383
 30
0.0
 40
3.999999999999996
100
AcDbArc
 50
180.0
 51
0.0
  0
CIRCLE
  5
20AD
330
1F
100
AcDbEntity
  8
10
100
AcDbCircle
 10
796.5113710411557
 20
970.0709396694383
 30
0.0
 40
2.999999999999991
  0
CIRCLE
  5
20AE
330
1F
100
AcDbEntity
  8
10
100
AcDbCircle
 10
796.5113710411557
 20
970.0709396694383
 30
0.0
 40
2.999999999999991
  0
ARC
  5
20AF
330
1F
100
AcDbEntity
  8
10
100
AcDbCircle
 10
809.0113710411557
 20
969.5709396694386
 30
0.0
 40
0.4999999999999915
100
AcDbArc
 50
0.0
 51
90.0
  0
LINE
  5
20B0
330
1F
100
AcDbEntity
  8
10
100
AcDbLine
 10
792.5113710411558
 20
1099.210939669438
 30
0.0
 11
766.5113710411556
 21
1099.210939669438
 31
0.0
  0
LINE
  5
20B1
330
1F
100
AcDbEntity
  8
10
100
AcDbLine
 10
775.1113710411559
 20
1055.070939669438
 30
0.0
 11
809.0113710411557
 21
1055.070939669438
 31
0.0
  0
LINE
  5
20B2
330
1F
100
AcDbEntity
  8
10
100
AcDbLine
 10
775.0113710411558
 20
1058.070939669438
 30
0.0
 11
791.2113710411556
 21
1058.070939669438
 31
0.0
  0
LINE
  5
20B3
330
1F
100
AcDbEntity
  8
10
100
AcDbLine
 10
775.0113710411558
 20
1069.270939669438
 30
0.0
 11
791.2113710411556
 21
1069.270939669438
 31
0.0
  0
LINE
  5
20B4
330
1F
100
AcDbEntity
  8
10
100
AcDbLine
 10
760.5113710411561
 20
1043.070939669438
 30
0.0
 11
798.5113710411557
 21
1043.070939669438
 31
0.0
  0
LINE
  5
20B5
330
1F
100
AcDbEntity
  8
10
100
AcDbLine
 10
760.5113710411561
 20
1036.570939669438
 30
0.0
 11
798.5113710411557
 21
1036.570939669438
 31
0.0
  0
LINE
  5
20B6
330
1F
100
AcDbEntity
  8
10
100
AcDbLine
 10
754.6113710411558
 20
1078.270939669438
 30
0.0
 11
754.6113710411558
 21
1051.870939669438
 31
0.0
  0
LINE
  5
20B7
330
1F
100
AcDbEntity
  8
10
100
AcDbLine
 10
773.2113710411558
 20
1078.270939669438
 30
0.0
 11
773.2113710411558
 21
1051.870939669438
 31
0.0
  0
LINE
  5
20B8
330
1F
100
AcDbEntity
  8
10
 48
3.0
100
AcDbLine
 10
771.5313710411557
 20
1071.110939669438
 30
0.0
 11
771.5313710411557
 21
1056.030939669438
 31
0.0
  0
LINE
  5
20B9
330
1F
100
AcDbEntity
  8
10
 48
3.0
100
AcDbLine
 10
756.2913710411557
 20
1071.110939669438
 30
0.0
 11
756.2913710411557
 21
1056.030939669438
 31
0.0
  0
LINE
  5
20BA
330
1F
100
AcDbEntity
  8
10
100
AcDbLine
 10
754.5113710411556
 20
1078.468250207682
 30
0.0
 11
754.5113710411556
 21
1049.570939669439
 31
0.0
  0
LINE
  5
20BB
330
1F
100
AcDbEntity
  8
10
100
AcDbLine
 10
773.3113710411559
 20
1078.468250207682
 30
0.0
 11
773.3113710411559
 21
1049.570939669439
 31
0.0
  0
LINE
  5
20BC
330
1F
100
AcDbEntity
  8
10
100
AcDbLine
 10
774.0113710411557
 20
1068.270939669438
 30
0.0
 11
774.0113710411557
 21
1059.070939669438
 31
0.0
  0
LINE
  5
20BD
330
1F
100
AcDbEntity
  8
10
100
AcDbLine
 10
754.911371041156
 20
1051.570939669438
 30
0.0
 11
772.9113710411557
 21
1051.570939669438
 31
0.0
  0
LINE
  5
20BE
330
1F
100
AcDbEntity
  8
10
100
AcDbLine
 10
754.6113710411558
 20
1053.570939669438
 30
0.0
 11
773.2113710411558
 21
1053.570939669438
 31
0.0
  0
LINE
  5
20BF
330
1F
100
AcDbEntity
  8
10
 48
3.0
100
AcDbLine
 10
771.5313710411557
 20
1056.030939669438
 30
0.0
 11
756.2913710411557
 21
1056.030939669438
 31
0.0
  0
LINE
  5
20C0
330
1F
100
AcDbEntity
  8
10
100
AcDbLine
 10
754.5113710411556
 20
1049.570939669439
 30
0.0
 11
773.3113710411559
 21
1049.570939669439
 31
0.0
  0
LINE
  5
20C1
330
1F
100
AcDbEntity
  8
10
100
AcDbLine
 10
753.7113710411556
 20
1051.570939669438
 30
0.0
 11
774.1113710411557
 21
1051.570939669438
 31
0.0
  0
LINE
  5
20C2
330
1F
100
AcDbEntity
  8
10
 48
3.0
100
AcDbLine
 10
759.1113710411557
 20
1028.570939669438
 30
0.0
 11
767.1113710411557
 21
1028.570939669438
 31
0.0
  0
LINE
  5
20C3
330
1F
100
AcDbEntity
  8
10
100
AcDbLine
 10
752.7113710411556
 20
1031.970939669438
 30
0.0
 11
752.7113710411556
 21
1032.070939669438
 31
0.0
  0
LINE
  5
20C4
330
1F
100
AcDbEntity
  8
10
100
AcDbLine
 10
753.9113710411558
 20
1031.970939669438
 30
0.0
 11
753.9113710411558
 21
1032.070939669438
 31
0.0
  0
LINE
  5
20C5
330
1F
100
AcDbEntity
  8
10
100
AcDbLine
 10
755.1113710411557
 20
1031.970939669438
 30
0.0
 11
755.1113710411557
 21
1032.070939669438
 31
0.0
  0
LINE
  5
20C6
330
1F
100
AcDbEntity
  8
10
100
AcDbLine
 10
752.7113710411556
 20
1029.570939669438
 30
0.0
 11
752.7113710411556
 21
1029.970939669438
 31
0.0
  0
LINE
  5
20C7
330
1F
100
AcDbEntity
  8
10
100
AcDbLine
 10
753.9113710411558
 20
1029.570939669438
 30
0.0
 11
753.9113710411558
 21
1029.970939669438
 31
0.0
  0
LINE
  5
20C8
330
1F
100
AcDbEntity
  8
10
100
AcDbLine
 10
755.1113710411557
 20
1029.570939669438
 30
0.0
 11
755.1113710411557
 21
1029.970939669438
 31
0.0
  0
LINE
  5
20C9
330
1F
100
AcDbEntity
  8
10
100
AcDbLine
 10
757.0113710411557
 20
1032.070939669438
 30
0.0
 11
757.0113710411557
 21
1031.970939669438
 31
0.0
  0
ARC
  5
20CA
330
1F
100
AcDbEntity
  8
10
100
AcDbCircle
 10
760.5113710411561
 20
1042.070939669438
 30
0.0
 40
1.000000000000025
100
AcDbArc
 50
90.0
 51
180.0
  0
ARC
  5
20CB
330
1F
100
AcDbEntity
  8
10
100
AcDbCircle
 10
760.5113710411561
 20
1037.570939669438
 30
0.0
 40
0.9999999999999827
100
AcDbArc
 50
180.0
 51
270.0
  0
ARC
  5
20CC
330
1F
100
AcDbEntity
  8
10
100
AcDbCircle
 10
754.911371041156
 20
1051.870939669438
 30
0.0
 40
0.3000000000000515
100
AcDbArc
 50
180.0
 51
270.0
  0
ARC
  5
20CD
330
1F
100
AcDbEntity
  8
10
100
AcDbCircle
 10
753.7113710411556
 20
1052.070939669438
 30
0.0
 40
0.4999999999999915
100
AcDbArc
 50
180.0
 51
270.0
  0
ARC
  5
20CE
330
1F
100
AcDbEntity
  8
10
100
AcDbCircle
 10
752.7113710411556
 20
1054.570939669438
 30
0.0
 40
0.4999999999999915
100
AcDbArc
 50
0.0
 51
90.0
  0
LINE
  5
20CF
330
1F
100
AcDbEntity
  8
10
100
AcDbLine
 10
754.5113710411556
 20
1054.170939669438
 30
0.0
 11
754.6113710411558
 21
1054.170939669438
 31
0.0
  0
LINE
  5
20D0
330
1F
100
AcDbEntity
  8
10
100
AcDbLine
 10
754.5113710411556
 20
1052.970939669437
 30
0.0
 11
754.6113710411558
 21
1052.970939669437
 31
0.0
  0
LINE
  5
20D1
330
1F
100
AcDbEntity
  8
10
100
AcDbLine
 10
754.5113710411556
 20
1056.570939669438
 30
0.0
 11
754.6113710411558
 21
1056.570939669438
 31
0.0
  0
LINE
  5
20D2
330
1F
100
AcDbEntity
  8
10
100
AcDbLine
 10
754.5113710411556
 20
1056.070939669438
 30
0.0
 11
754.6113710411558
 21
1056.070939669438
 31
0.0
  0
LINE
  5
20D3
330
1F
100
AcDbEntity
  8
10
100
AcDbLine
 10
753.2113710411558
 20
1054.570939669438
 30
0.0
 11
753.2113710411558
 21
1052.070939669438
 31
0.0
  0
LINE
  5
20D4
330
1F
100
AcDbEntity
  8
10
100
AcDbLine
 10
759.511371041156
 20
1037.570939669438
 30
0.0
 11
759.511371041156
 21
1042.070939669438
 31
0.0
  0
LINE
  5
20D5
330
1F
100
AcDbEntity
  8
10
100
AcDbLine
 10
776.3761608033534
 20
1031.970939669438
 30
0.0
 11
776.3761608033534
 21
1032.070939669438
 31
0.0
  0
LINE
  5
20D6
330
1F
100
AcDbEntity
  8
10
100
AcDbLine
 10
780.311371041156
 20
1032.070939669438
 30
0.0
 11
780.311371041156
 21
1031.970939669438
 31
0.0
  0
LINE
  5
20D7
330
1F
100
AcDbEntity
  8
10
100
AcDbLine
 10
778.3113710411559
 20
1032.070939669438
 30
0.0
 11
778.3113710411559
 21
1031.970939669438
 31
0.0
  0
LINE
  5
20D8
330
1F
100
AcDbEntity
  8
10
100
AcDbLine
 10
780.2534091569047
 20
1029.970939669438
 30
0.0
 11
781.3113710411556
 21
1029.970939669438
 31
0.0
  0
LINE
  5
20D9
330
1F
100
AcDbEntity
  8
10
100
AcDbLine
 10
781.3113710411556
 20
1029.970939669438
 30
0.0
 11
781.3113710411556
 21
1031.970939669438
 31
0.0
  0
ARC
  5
20DA
330
1F
100
AcDbEntity
  8
10
100
AcDbCircle
 10
781.8761608033534
 20
1031.070939669438
 30
0.0
 40
0.4999999999999915
100
AcDbArc
 50
270.0
 51
0.0
  0
LINE
  5
20DB
330
1F
100
AcDbEntity
  8
10
100
AcDbLine
 10
782.3761608033533
 20
1031.070939669438
 30
0.0
 11
782.3761608033533
 21
1032.070939669438
 31
0.0
  0
LINE
  5
20DC
330
1F
100
AcDbEntity
  8
10
100
AcDbLine
 10
781.3113710411556
 20
1030.570939669438
 30
0.0
 11
781.8761608033534
 21
1030.570939669438
 31
0.0
  0
ARC
  5
20DD
330
1F
100
AcDbEntity
  8
10
100
AcDbCircle
 10
772.9113710411557
 20
1051.870939669438
 30
0.0
 40
0.3000000000000915
100
AcDbArc
 50
270.0
 51
0.0
  0
ARC
  5
20DE
330
1F
100
AcDbEntity
  8
10
100
AcDbCircle
 10
775.0113710411558
 20
1059.070939669438
 30
0.0
 40
1.000000000000002
100
AcDbArc
 50
180.0
 51
270.0
  0
ARC
  5
20DF
330
1F
100
AcDbEntity
  8
10
100
AcDbCircle
 10
774.1113710411557
 20
1052.070939669438
 30
0.0
 40
0.4999999999999915
100
AcDbArc
 50
270.0
 51
0.0
  0
ARC
  5
20E0
330
1F
100
AcDbEntity
  8
10
100
AcDbCircle
 10
775.1113710411559
 20
1054.570939669438
 30
0.0
 40
0.5000000000000316
100
AcDbArc
 50
90.0
 51
180.0
  0
LINE
  5
20E1
330
1F
100
AcDbEntity
  8
10
100
AcDbLine
 10
773.2113710411558
 20
1052.970939669437
 30
0.0
 11
773.3113710411559
 21
1052.970939669437
 31
0.0
  0
LINE
  5
20E2
330
1F
100
AcDbEntity
  8
10
100
AcDbLine
 10
773.2113710411558
 20
1054.170939669438
 30
0.0
 11
773.3113710411559
 21
1054.170939669438
 31
0.0
  0
LINE
  5
20E3
330
1F
100
AcDbEntity
  8
10
100
AcDbLine
 10
773.2113710411558
 20
1056.570939669438
 30
0.0
 11
773.3113710411559
 21
1056.570939669438
 31
0.0
  0
LINE
  5
20E4
330
1F
100
AcDbEntity
  8
10
100
AcDbLine
 10
773.2113710411558
 20
1056.070939669438
 30
0.0
 11
773.3113710411559
 21
1056.070939669438
 31
0.0
  0
LINE
  5
20E5
330
1F
100
AcDbEntity
  8
10
100
AcDbLine
 10
774.611371041156
 20
1054.570939669438
 30
0.0
 11
774.6113710411557
 21
1052.070939669438
 31
0.0
  0
LINE
  5
20E6
330
1F
100
AcDbEntity
  8
10
100
AcDbLine
 10
758.9113710411558
 20
1078.25652890526
 30
0.0
 11
768.9113710411557
 21
1078.25652890526
 31
0.0
  0
ARC
  5
20E7
330
1F
100
AcDbEntity
  8
10
100
AcDbCircle
 10
768.4113710411557
 20
1078.282696883381
 30
0.0
 40
0.4999999999999915
100
AcDbArc
 50
0.0
 51
90.0
  0
ARC
  5
20E8
330
1F
100
AcDbEntity
  8
10
100
AcDbCircle
 10
768.4113710411557
 20
1078.387512441946
 30
0.0
 40
0.4999999999999915
100
AcDbArc
 50
0.0
 51
90.0
  0
ARC
  5
20E9
330
1F
100
AcDbEntity
  8
10
100
AcDbCircle
 10
768.4113710411557
 20
1078.492328000514
 30
0.0
 40
0.4999999999999915
100
AcDbArc
 50
0.0
 51
90.0
  0
LINE
  5
20EA
330
1F
100
AcDbEntity
  8
10
100
AcDbLine
 10
754.6113710411558
 20
1066.13589473725
 30
0.0
 11
773.2113710411558
 21
1066.13589473725
 31
0.0
  0
LINE
  5
20EB
330
1F
100
AcDbEntity
  8
10
 48
3.0
100
AcDbLine
 10
771.5313710411557
 20
1071.110939669438
 30
0.0
 11
756.2913710411557
 21
1071.110939669438
 31
0.0
  0
LINE
  5
20EC
330
1F
100
AcDbEntity
  8
10
100
AcDbLine
 10
759.5113710411557
 20
1092.210939669437
 30
0.0
 11
759.5113710411557
 21
1082.710939669438
 31
0.0
  0
LINE
  5
20ED
330
1F
100
AcDbEntity
  8
10
100
AcDbLine
 10
759.4113710411557
 20
1078.782696883382
 30
0.0
 11
768.4113710411557
 21
1078.782696883382
 31
0.0
  0
LINE
  5
20EE
330
1F
100
AcDbEntity
  8
10
100
AcDbLine
 10
759.4113710411557
 20
1078.887512441947
 30
0.0
 11
768.4113710411557
 21
1078.887512441947
 31
0.0
  0
LINE
  5
20EF
330
1F
100
AcDbEntity
  8
10
100
AcDbLine
 10
759.4113710411557
 20
1078.992328000514
 30
0.0
 11
768.4113710411557
 21
1078.992328000514
 31
0.0
  0
ARC
  5
20F0
330
1F
100
AcDbEntity
  8
10
100
AcDbCircle
 10
754.911371041156
 20
1078.270939669438
 30
0.0
 40
0.3000000000000515
100
AcDbArc
 50
90.0
 51
180.0
  0
ARC
  5
20F1
330
1F
100
AcDbEntity
  8
10
100
AcDbCircle
 10
759.4113710411557
 20
1078.282696883381
 30
0.0
 40
0.4999999999999915
100
AcDbArc
 50
90.0
 51
180.0
  0
ARC
  5
20F2
330
1F
100
AcDbEntity
  8
10
100
AcDbCircle
 10
759.4113710411557
 20
1078.387512441946
 30
0.0
 40
0.4999999999999915
100
AcDbArc
 50
90.0
 51
180.0
  0
LINE
  5
20F3
330
1F
100
AcDbEntity
  8
10
100
AcDbLine
 10
758.9113710411558
 20
1078.25652890526
 30
0.0
 11
758.9113710411558
 21
1078.492328000514
 31
0.0
  0
ARC
  5
20F4
330
1F
100
AcDbEntity
  8
10
100
AcDbCircle
 10
759.4113710411557
 20
1078.492328000514
 30
0.0
 40
0.4999999999999915
100
AcDbArc
 50
90.0
 51
180.0
  0
LINE
  5
20F5
330
1F
100
AcDbEntity
  8
10
100
AcDbLine
 10
754.911371041156
 20
1078.570939669438
 30
0.0
 11
758.9175895049388
 21
1078.570939669438
 31
0.0
  0
LINE
  5
20F6
330
1F
100
AcDbEntity
  8
10
100
AcDbLine
 10
754.5113710411556
 20
1078.468250207682
 30
0.0
 11
754.685387520745
 21
1078.468250207682
 31
0.0
  0
LINE
  5
20F7
330
1F
100
AcDbEntity
  8
10
100
AcDbLine
 10
754.5113710411556
 20
1078.4158424284
 30
0.0
 11
754.5113710411556
 21
1067.659638002814
 31
0.0
  0
LINE
  5
20F8
330
1F
100
AcDbEntity
  8
10
100
AcDbLine
 10
754.5113710411556
 20
1076.267975738484
 30
0.0
 11
754.6113710411558
 21
1076.267975738484
 31
0.0
  0
ARC
  5
20F9
330
1F
100
AcDbEntity
  8
10
100
AcDbCircle
 10
766.5113710411556
 20
1092.210939669437
 30
0.0
 40
7.000000000000007
100
AcDbArc
 50
90.0
 51
180.0
  0
ARC
  5
20FA
330
1F
100
AcDbEntity
  8
10
100
AcDbCircle
 10
772.9113710411557
 20
1078.270939669438
 30
0.0
 40
0.2999999999999515
100
AcDbArc
 50
0.0
 51
90.0
  0
LINE
  5
20FB
330
1F
100
AcDbEntity
  8
10
100
AcDbLine
 10
768.9113710411557
 20
1078.25652890526
 30
0.0
 11
768.9113710411557
 21
1078.492328000514
 31
0.0
  0
LINE
  5
20FC
330
1F
100
AcDbEntity
  8
10
100
AcDbLine
 10
768.9051525773727
 20
1078.570939669438
 30
0.0
 11
772.9113710411557
 21
1078.570939669438
 31
0.0
  0
LINE
  5
20FD
330
1F
100
AcDbEntity
  8
10
100
AcDbLine
 10
773.1373545615667
 20
1078.468250207682
 30
0.0
 11
773.3113710411559
 21
1078.468250207682
 31
0.0
  0
ARC
  5
20FE
330
1F
100
AcDbEntity
  8
10
100
AcDbCircle
 10
775.0113710411558
 20
1068.270939669438
 30
0.0
 40
1.000000000000025
100
AcDbArc
 50
90.0
 51
180.0
  0
LINE
  5
20FF
330
1F
100
AcDbEntity
  8
10
100
AcDbLine
 10
773.3113710411559
 20
1078.468250207682
 30
0.0
 11
773.3113710411559
 21
1062.546976899031
 31
0.0
  0
LINE
  5
2100
330
1F
100
AcDbEntity
  8
10
100
AcDbLine
 10
773.2113710411558
 20
1076.267975738484
 30
0.0
 11
773.3113710411559
 21
1076.267975738484
 31
0.0
  0
LINE
  5
2101
330
1F
100
AcDbEntity
  8
10
100
AcDbLine
 10
792.2113710411559
 20
1068.270939669438
 30
0.0
 11
792.2113710411559
 21
1059.070939669438
 31
0.0
  0
ARC
  5
2102
330
1F
100
AcDbEntity
  8
10
100
AcDbCircle
 10
791.2113710411556
 20
1059.070939669438
 30
0.0
 40
0.9999999999999827
100
AcDbArc
 50
270.0
 51
0.0
  0
LINE
  5
2103
330
1F
100
AcDbEntity
  8
10
100
AcDbLine
 10
799.5113710411557
 20
1037.570939669438
 30
0.0
 11
799.5113710411557
 21
1042.070939669438
 31
0.0
  0
ARC
  5
2104
330
1F
100
AcDbEntity
  8
10
100
AcDbCircle
 10
798.5113710411557
 20
1042.070939669438
 30
0.0
 40
1.000000000000002
100
AcDbArc
 50
0.0
 51
90.0
  0
ARC
  5
2105
330
1F
100
AcDbEntity
  8
10
100
AcDbCircle
 10
798.5113710411557
 20
1037.570939669438
 30
0.0
 40
1.000000000000025
100
AcDbArc
 50
270.0
 51
0.0
  0
ARC
  5
2106
330
1F
100
AcDbEntity
  8
10
100
AcDbCircle
 10
809.0113710411557
 20
1032.570939669438
 30
0.0
 40
0.4999999999999915
100
AcDbArc
 50
270.0
 51
0.0
  0
ARC
  5
2107
330
1F
100
AcDbEntity
  8
10
100
AcDbCircle
 10
809.0113710411557
 20
1047.570939669438
 30
0.0
 40
0.4999999999999915
100
AcDbArc
 50
0.0
 51
90.0
  0
ARC
  5
2108
330
1F
100
AcDbEntity
  8
10
100
AcDbCircle
 10
809.0113710411557
 20
1055.570939669438
 30
0.0
 40
0.4999999999999915
100
AcDbArc
 50
270.0
 51
0.0
  0
LINE
  5
2109
330
1F
100
AcDbEntity
  8
10
100
AcDbLine
 10
809.5113710411556
 20
1082.710939669438
 30
0.0
 11
799.5113710411557
 21
1082.710939669438
 31
0.0
  0
LINE
  5
210A
330
1F
100
AcDbEntity
  8
10
100
AcDbLine
 10
799.5113710411557
 20
1092.210939669437
 30
0.0
 11
799.5113710411557
 21
1082.710939669438
 31
0.0
  0
ARC
  5
210B
330
1F
100
AcDbEntity
  8
10
100
AcDbCircle
 10
791.2113710411556
 20
1068.270939669438
 30
0.0
 40
1.000000000000002
100
AcDbArc
 50
0.0
 51
90.0
  0
ARC
  5
210C
330
1F
100
AcDbEntity
  8
10
100
AcDbCircle
 10
792.5113710411558
 20
1092.210939669437
 30
0.0
 40
6.99999999999999
100
AcDbArc
 50
0.0
 51
90.0
  0
ARC
  5
210D
330
1F
100
AcDbEntity
  8
10
100
AcDbCircle
 10
808.511371041156
 20
1078.070939669438
 30
0.0
 40
1.000000000000002
100
AcDbArc
 50
0.0
 51
90.0
  0
LINE
  5
210E
330
1F
100
AcDbEntity
  8
10
100
AcDbLine
 10
988.5113710411557
 20
817.9337982324252
 30
0.0
 11
988.5113710411557
 21
913.5443271503779
 31
0.0
  0
LINE
  5
210F
330
1F
100
AcDbEntity
  8
10
100
AcDbLine
 10
979.5113710411561
 20
801.2335775384567
 30
0.0
 11
979.5113710411561
 21
917.0981304425398
 31
0.0
  0
LINE
  5
2110
330
1F
100
AcDbEntity
  8
10
100
AcDbLine
 10
829.5113710411557
 20
756.7109396694386
 30
0.0
 11
827.5113710411558
 21
754.7109396694385
 31
0.0
  0
LINE
  5
2111
330
1F
100
AcDbEntity
  8
10
100
AcDbLine
 10
827.7813710411557
 20
769.7109396694314
 30
0.0
 11
826.5113710411556
 21
759.7109396694313
 31
0.0
  0
LINE
  5
2112
330
1F
100
AcDbEntity
  8
10
100
AcDbLine
 10
826.5113710411556
 20
769.7109396694314
 30
0.0
 11
826.5113710411556
 21
759.7109396694313
 31
0.0
  0
LINE
  5
2113
330
1F
100
AcDbEntity
  8
10
100
AcDbLine
 10
828.0113710411557
 20
755.2109396694385
 30
0.0
 11
828.0113710411557
 21
759.7109396694313
 31
0.0
  0
ARC
  5
2114
330
1F
100
AcDbEntity
  8
10
100
AcDbCircle
 10
1009.511371041156
 20
783.748674063381
 30
0.0
 40
30.0
100
AcDbArc
 50
180.0
 51
199.4477664087378
  0
ARC
  5
2115
330
1F
100
AcDbEntity
  8
10
100
AcDbCircle
 10
984.0518448701979
 20
774.7590952550991
 30
0.0
 40
3.000000000000136
100
AcDbArc
 50
199.4477664087362
 51
270.0
  0
LINE
  5
2118
330
1F
100
AcDbEntity
  8
10
100
AcDbLine
 10
979.5113710411561
 20
783.748674063381
 30
0.0
 11
979.5113710411561
 21
793.2846129717418
 31
0.0
  0
LINE
  5
2119
330
1F
100
AcDbEntity
  8
10
100
AcDbLine
 10
979.9852030630344
 20
793.7839277391191
 30
0.0
 11
982.0375390192774
 21
793.8914861089283
 31
0.0
  0
LINE
  5
211A
330
1F
100
AcDbEntity
  8
10
100
AcDbLine
 10
982.5113710411557
 20
794.390800876306
 30
0.0
 11
982.5113710411557
 21
800.1273896338926
 31
0.0
  0
LINE
  5
211B
330
1F
100
AcDbEntity
  8
10
100
AcDbLine
 10
982.0375390192774
 20
800.62670440127
 30
0.0
 11
979.9852030630344
 21
800.7342627710794
 31
0.0
  0
ARC
  5
211C
330
1F
100
AcDbEntity
  8
10
100
AcDbCircle
 10
980.0113710411556
 20
801.2335775384567
 30
0.0
 40
0.5000000000000001
100
AcDbArc
 50
180.0
 51
266.9999999999943
  0
ARC
  5
211D
330
1F
100
AcDbEntity
  8
10
100
AcDbCircle
 10
980.0113710411556
 20
793.2846129717418
 30
0.0
 40
0.4999999999999714
100
AcDbArc
 50
93.00000000000556
 51
180.0
  0
ARC
  5
211E
330
1F
100
AcDbEntity
  8
10
100
AcDbCircle
 10
982.0113710411559
 20
794.390800876306
 30
0.0
 40
0.5000000000000286
100
AcDbArc
 50
273.0000000000056
 51
0.0
  0
ARC
  5
211F
330
1F
100
AcDbEntity
  8
10
100
AcDbCircle
 10
982.0113710411559
 20
800.1273896338926
 30
0.0
 40
0.5000000000000001
100
AcDbArc
 50
0.0
 51
86.99999999999441
  0
ARC
  5
2120
330
1F
100
AcDbEntity
  8
10
100
AcDbCircle
 10
989.511371041156
 20
817.9337982324252
 30
0.0
 40
1.0
100
AcDbArc
 50
180.0
 51
268.9999999999981
  0
LINE
  5
2121
330
1F
100
AcDbEntity
  8
10
100
AcDbLine
 10
993.0113710411557
 20
840.2109396694386
 30
0.0
 11
993.0113710411557
 21
842.2109396694388
 31
0.0
  0
LINE
  5
2122
330
1F
100
AcDbEntity
  8
10
100
AcDbLine
 10
993.0113710411557
 20
828.5609396694388
 30
0.0
 11
993.0113710411557
 21
831.2109396694387
 31
0.0
  0
LINE
  5
2123
330
1F
100
AcDbEntity
  8
10
100
AcDbLine
 10
993.0113710411557
 20
851.2109396694382
 30
0.0
 11
993.0113710411557
 21
853.2109396694385
 31
0.0
  0
LINE
  5
2124
330
1F
100
AcDbEntity
  8
10
100
AcDbLine
 10
993.0113710411557
 20
862.2109396694385
 30
0.0
 11
993.0113710411557
 21
864.8609396694386
 31
0.0
  0
LINE
  5
2125
330
1F
100
AcDbEntity
  8
10
100
AcDbLine
 10
993.5113710411556
 20
1030.807528427025
 30
0.0
 11
993.5113710411556
 21
971.3343509118514
 31
0.0
  0
ARC
  5
2126
330
1F
100
AcDbEntity
  8
10
100
AcDbCircle
 10
982.5113710411557
 20
917.0981304425398
 30
0.0
 40
3.000000000000011
100
AcDbArc
 50
105.0000000000011
 51
180.0
  0
ARC
  5
2127
330
1F
100
AcDbEntity
  8
10
100
AcDbCircle
 10
989.511371041156
 20
913.5443271503779
 30
0.0
 40
0.9999999999999571
100
AcDbArc
 50
104.9999999999944
 51
180.0
  0
ARC
  5
2128
330
1F
100
AcDbEntity
  8
10
100
AcDbCircle
 10
994.5113710411559
 20
971.3343509118514
 30
0.0
 40
1.0
100
AcDbArc
 50
180.0
 51
267.0000000000009
  0
ARC
  5
2129
330
1F
100
AcDbEntity
  8
10
100
AcDbCircle
 10
994.5113710411559
 20
1030.807528427025
 30
0.0
 40
1.000000000000065
100
AcDbArc
 50
93.00000000000556
 51
180.0
  0
LINE
  5
212B
330
1F
100
AcDbEntity
  8
10
100
AcDbLine
 10
816.5113710411556
 20
1129.71093966943
 30
0.0
 11
829.5113710411557
 21
1129.71093966943
 31
0.0
  0
LINE
  5
212E
330
1F
100
AcDbEntity
  8
12
 48
3.0
100
AcDbLine
 10
717.5113710411562
 20
1124.710939669438
 30
0.0
 11
791.5113710411561
 21
1124.710939669438
 31
0.0
  0
LINE
  5
2130
330
1F
100
AcDbEntity
  8
10
100
AcDbLine
 10
692.5113710411558
 20
1119.71093966943
 30
0.0
 11
692.5113710411558
 21
1129.71093966943
 31
0.0
  0
CIRCLE
  5
2131
330
1F
100
AcDbEntity
  8
12
100
AcDbCircle
 10
724.511371041156
 20
1124.710939669438
 30
0.0
 40
2.999999999999991
  0
LINE
  5
2132
330
1F
100
AcDbEntity
  8
12
 48
3.0
100
AcDbLine
 10
724.5113710411563
 20
1117.710939669438
 30
0.0
 11
724.511371041156
 21
1131.710939669438
 31
0.0
  0
CIRCLE
  5
2133
330
1F
100
AcDbEntity
  8
12
100
AcDbCircle
 10
784.5113710411562
 20
1124.710939669438
 30
0.0
 40
2.999999999999991
  0
LINE
  5
2134
330
1F
100
AcDbEntity
  8
12
 48
3.0
100
AcDbLine
 10
784.5113710411562
 20
1117.710939669438
 30
0.0
 11
784.5113710411562
 21
1131.710939669438
 31
0.0
  0
LINE
  5
2137
330
1F
100
AcDbEntity
  8
10
100
AcDbLine
 10
816.5113710411556
 20
1119.71093966943
 30
0.0
 11
816.5113710411556
 21
1129.71093966943
 31
0.0
  0
LINE
  5
213A
330
1F
100
AcDbEntity
  8
10
100
AcDbLine
 10
827.5113710411558
 20
1134.710939669438
 30
0.0
 11
829.5113710411557
 21
1132.710939669431
 31
0.0
  0
LINE
  5
213B
330
1F
100
AcDbEntity
  8
10
100
AcDbLine
 10
827.7813710411557
 20
1119.71093966943
 30
0.0
 11
826.5113710411556
 21
1129.71093966943
 31
0.0
  0
LINE
  5
213C
330
1F
100
AcDbEntity
  8
10
100
AcDbLine
 10
826.5113710411556
 20
1119.71093966943
 30
0.0
 11
826.5113710411556
 21
1129.71093966943
 31
0.0
  0
LINE
  5
213D
330
1F
100
AcDbEntity
  8
10
100
AcDbLine
 10
828.0113710411557
 20
1129.71093966943
 30
0.0
 11
828.0113710411557
 21
1134.210939669436
 31
0.0
  0
LINE
  5
213E
330
1F
100
AcDbEntity
  8
10
100
AcDbLine
 10
1301.511371041154
 20
820.2109396694385
 30
0.0
 11
1179.511371041156
 21
820.2109396694385
 31
0.0
  0
LINE
  5
213F
330
1F
100
AcDbEntity
  8
10
100
AcDbLine
 10
1301.511371041154
 20
1037.210939669438
 30
0.0
 11
1179.511371041156
 21
1037.210939669438
 31
0.0
  0
LINE
  5
2140
330
1F
100
AcDbEntity
  8
10
 48
3.0
100
AcDbLine
 10
1301.511371041154
 20
1113.210939669438
 30
0.0
 11
1179.511371041156
 21
1113.210939669438
 31
0.0
  0
LINE
  5
2142
330
1F
100
AcDbEntity
  8
10
100
AcDbLine
 10
1180.161371041154
 20
820.2109396694311
 30
0.0
 11
1299.661371041155
 21
820.2109396694311
 31
0.0
  0
LINE
  5
2143
330
1F
100
AcDbEntity
  8
10
100
AcDbLine
 10
1180.161371041154
 20
782.210939669431
 30
0.0
 11
1299.661371041155
 21
782.210939669431
 31
0.0
  0
LINE
  5
2144
330
1F
100
AcDbEntity
  8
10
100
AcDbLine
 10
1180.161371041154
 20
788.2109396694311
 30
0.0
 11
1299.661371041155
 21
788.2109396694311
 31
0.0
  0
LINE
  5
2145
330
1F
100
AcDbEntity
  8
10
100
AcDbLine
 10
1180.161371041154
 20
814.210939669431
 30
0.0
 11
1299.661371041155
 21
814.210939669431
 31
0.0
  0
LINE
  5
2146
330
1F
100
AcDbEntity
  8
10
100
AcDbLine
 10
1293.761371041156
 20
776.2109396694309
 30
0.0
 11
1186.061371041156
 21
776.2109396694309
 31
0.0
  0
LINE
  5
2147
330
1F
100
AcDbEntity
  8
10
100
AcDbLine
 10
1282.715786628884
 20
778.0109396694313
 30
0.0
 11
1197.106955453427
 21
778.0109396694313
 31
0.0
  0
LINE
  5
2149
330
1F
100
AcDbEntity
  8
10
100
AcDbLine
 10
1171.511371041154
 20
754.7109396694385
 30
0.0
 11
1171.511371041154
 21
1134.710939669438
 31
0.0
  0
LINE
  5
214A
330
1F
100
AcDbEntity
  8
10
100
AcDbLine
 10
1179.511371041156
 20
754.7109396694385
 30
0.0
 11
1179.511371041156
 21
1134.710939669438
 31
0.0
  0
LINE
  5
214B
330
1F
100
AcDbEntity
  8
10
100
AcDbLine
 10
1019.511371041154
 20
1119.710939669438
 30
0.0
 11
1019.511371041154
 21
1039.710939669437
 31
0.0
  0
LINE
  5
214C
330
1F
100
AcDbEntity
  8
10
100
AcDbLine
 10
1019.011371041155
 20
1119.73714355908
 30
0.0
 11
1019.011371041155
 21
924.754731821204
 31
0.0
  0
ARC
  5
214D
330
1F
100
AcDbEntity
  8
10
100
AcDbCircle
 10
1029.511371041156
 20
1107.747564750798
 30
0.0
 40
30.00000000000005
100
AcDbArc
 50
162.3479617698537
 51
180.0
  0
LINE
  5
214E
330
1F
100
AcDbEntity
  8
10
100
AcDbLine
 10
1171.011371041154
 20
1129.710939669438
 30
0.0
 11
1171.011371041154
 21
759.7109396694385
 31
0.0
  0
ARC
  5
214F
330
1F
100
AcDbEntity
  8
10
100
AcDbCircle
 10
1130.511371041154
 20
790.9609396694407
 30
0.0
 40
1.25
100
AcDbArc
 50
180.0
 51
0.0
  0
LINE
  5
2150
330
1F
100
AcDbEntity
  8
10
100
AcDbLine
 10
1131.761371041154
 20
827.2109396694386
 30
0.0
 11
1129.261371041154
 21
827.2109396694386
 31
0.0
  0
LINE
  5
2151
330
1F
100
AcDbEntity
  8
10
100
AcDbLine
 10
1131.761371041154
 20
812.2109396694385
 30
0.0
 11
1129.261371041154
 21
812.2109396694385
 31
0.0
  0
LINE
  5
2152
330
1F
100
AcDbEntity
  8
10
100
AcDbLine
 10
1131.761371041154
 20
927.2109396694386
 30
0.0
 11
1129.261371041154
 21
927.2109396694386
 31
0.0
  0
LINE
  5
2153
330
1F
100
AcDbEntity
  8
10
100
AcDbLine
 10
1131.761371041154
 20
912.2109396694382
 30
0.0
 11
1129.261371041154
 21
912.2109396694382
 31
0.0
  0
LINE
  5
2154
330
1F
100
AcDbEntity
  8
10
100
AcDbLine
 10
1131.761371041154
 20
877.2109396694386
 30
0.0
 11
1129.261371041154
 21
877.2109396694386
 31
0.0
  0
LINE
  5
2155
330
1F
100
AcDbEntity
  8
10
100
AcDbLine
 10
1131.761371041154
 20
862.2109396694385
 30
0.0
 11
1129.261371041154
 21
862.2109396694385
 31
0.0
  0
LINE
  5
2156
330
1F
100
AcDbEntity
  8
10
100
AcDbLine
 10
1131.761371041154
 20
1077.210939669438
 30
0.0
 11
1129.261371041154
 21
1077.210939669438
 31
0.0
  0
LINE
  5
2157
330
1F
100
AcDbEntity
  8
10
100
AcDbLine
 10
1131.761371041154
 20
1062.210939669438
 30
0.0
 11
1129.261371041154
 21
1062.210939669438
 31
0.0
  0
ARC
  5
2158
330
1F
100
AcDbEntity
  8
10
100
AcDbCircle
 10
1130.511371041154
 20
1098.460939669436
 30
0.0
 40
1.25
100
AcDbArc
 50
0.0
 51
180.0
  0
LINE
  5
2159
330
1F
100
AcDbEntity
  8
10
100
AcDbLine
 10
1131.761371041154
 20
1027.210939669437
 30
0.0
 11
1129.261371041154
 21
1027.210939669437
 31
0.0
  0
LINE
  5
215A
330
1F
100
AcDbEntity
  8
10
100
AcDbLine
 10
1131.761371041154
 20
1012.210939669438
 30
0.0
 11
1129.261371041154
 21
1012.210939669438
 31
0.0
  0
LINE
  5
215B
330
1F
100
AcDbEntity
  8
10
100
AcDbLine
 10
1131.761371041154
 20
977.2109396694386
 30
0.0
 11
1129.261371041154
 21
977.2109396694386
 31
0.0
  0
LINE
  5
215C
330
1F
100
AcDbEntity
  8
10
100
AcDbLine
 10
1131.761371041154
 20
962.2109396694382
 30
0.0
 11
1129.261371041154
 21
962.2109396694382
 31
0.0
  0
LINE
  5
215D
330
1F
100
AcDbEntity
  8
10
100
AcDbLine
 10
1166.511371041154
 20
759.7109396694385
 30
0.0
 11
1066.511371041156
 21
769.7109396694385
 31
0.0
  0
LINE
  5
215E
330
1F
100
AcDbEntity
  8
10
100
AcDbLine
 10
1076.761371041154
 20
790.9609396694407
 30
0.0
 11
1076.761371041154
 21
1098.460939669436
 31
0.0
  0
LINE
  5
215F
330
1F
100
AcDbEntity
  8
10
100
AcDbLine
 10
1074.261371041154
 20
790.9609396694407
 30
0.0
 11
1074.261371041154
 21
1098.460939669436
 31
0.0
  0
LINE
  5
2160
330
1F
100
AcDbEntity
  8
10
100
AcDbLine
 10
1071.761371041155
 20
790.9609396694407
 30
0.0
 11
1071.761371041155
 21
1098.460939669436
 31
0.0
  0
LINE
  5
2161
330
1F
100
AcDbEntity
  8
10
100
AcDbLine
 10
1066.761371041154
 20
790.9609396694407
 30
0.0
 11
1066.761371041154
 21
1098.460939669436
 31
0.0
  0
LINE
  5
2162
330
1F
100
AcDbEntity
  8
10
100
AcDbLine
 10
1069.261371041154
 20
790.9609396694407
 30
0.0
 11
1069.261371041154
 21
1098.460939669436
 31
0.0
  0
LINE
  5
2163
330
1F
100
AcDbEntity
  8
10
100
AcDbLine
 10
1064.261371041155
 20
790.9609396694407
 30
0.0
 11
1064.261371041155
 21
1098.460939669436
 31
0.0
  0
LINE
  5
2164
330
1F
100
AcDbEntity
  8
10
100
AcDbLine
 10
1061.761371041154
 20
790.9609396694407
 30
0.0
 11
1061.761371041154
 21
1098.460939669436
 31
0.0
  0
LINE
  5
2165
330
1F
100
AcDbEntity
  8
10
100
AcDbLine
 10
1059.261371041155
 20
790.9609396694407
 30
0.0
 11
1059.261371041155
 21
1098.460939669436
 31
0.0
  0
LINE
  5
2166
330
1F
100
AcDbEntity
  8
10
100
AcDbLine
 10
1056.761371041154
 20
790.9609396694407
 30
0.0
 11
1056.761371041154
 21
1098.460939669436
 31
0.0
  0
LINE
  5
2167
330
1F
100
AcDbEntity
  8
10
100
AcDbLine
 10
1054.261371041155
 20
790.9609396694407
 30
0.0
 11
1054.261371041155
 21
1098.460939669436
 31
0.0
  0
LINE
  5
2168
330
1F
100
AcDbEntity
  8
10
100
AcDbLine
 10
1051.761371041154
 20
790.9609396694407
 30
0.0
 11
1051.761371041154
 21
1098.460939669436
 31
0.0
  0
LINE
  5
2169
330
1F
100
AcDbEntity
  8
10
100
AcDbLine
 10
1049.261371041154
 20
790.9609396694407
 30
0.0
 11
1049.261371041154
 21
1098.460939669436
 31
0.0
  0
LINE
  5
216A
330
1F
100
AcDbEntity
  8
10
100
AcDbLine
 10
1046.761371041154
 20
790.9609396694407
 30
0.0
 11
1046.761371041154
 21
1098.460939669436
 31
0.0
  0
LINE
  5
216B
330
1F
100
AcDbEntity
  8
10
100
AcDbLine
 10
1044.261371041155
 20
790.9609396694407
 30
0.0
 11
1044.261371041155
 21
1098.460939669436
 31
0.0
  0
LINE
  5
216C
330
1F
100
AcDbEntity
  8
10
100
AcDbLine
 10
1041.761371041155
 20
829.7109396694382
 30
0.0
 11
1041.761371041155
 21
1098.460939669436
 31
0.0
  0
LINE
  5
216D
330
1F
100
AcDbEntity
  8
10
100
AcDbLine
 10
1039.261371041154
 20
829.7109396694382
 30
0.0
 11
1039.261371041154
 21
1098.460939669436
 31
0.0
  0
LINE
  5
216E
330
1F
100
AcDbEntity
  8
10
100
AcDbLine
 10
1036.761371041154
 20
829.7109396694382
 30
0.0
 11
1036.761371041154
 21
1098.460939669436
 31
0.0
  0
LINE
  5
216F
330
1F
100
AcDbEntity
  8
10
100
AcDbLine
 10
1034.261371041155
 20
829.7109396694382
 30
0.0
 11
1034.261371041155
 21
1098.460939669436
 31
0.0
  0
LINE
  5
2170
330
1F
100
AcDbEntity
  8
10
100
AcDbLine
 10
1031.761371041155
 20
829.7109396694382
 30
0.0
 11
1031.761371041155
 21
1098.460939669436
 31
0.0
  0
LINE
  5
2171
330
1F
100
AcDbEntity
  8
10
100
AcDbLine
 10
1029.261371041154
 20
829.7109396694382
 30
0.0
 11
1029.261371041154
 21
1098.460939669436
 31
0.0
  0
LINE
  5
2172
330
1F
100
AcDbEntity
  8
10
100
AcDbLine
 10
1129.261371041154
 20
790.9609396694407
 30
0.0
 11
1129.261371041154
 21
1098.460939669436
 31
0.0
  0
LINE
  5
2173
330
1F
100
AcDbEntity
  8
10
100
AcDbLine
 10
1124.261371041154
 20
790.9609396694407
 30
0.0
 11
1124.261371041154
 21
1098.460939669436
 31
0.0
  0
LINE
  5
2174
330
1F
100
AcDbEntity
  8
10
100
AcDbLine
 10
1126.761371041155
 20
790.9609396694407
 30
0.0
 11
1126.761371041155
 21
1098.460939669436
 31
0.0
  0
LINE
  5
2175
330
1F
100
AcDbEntity
  8
10
100
AcDbLine
 10
1119.261371041154
 20
790.9609396694407
 30
0.0
 11
1119.261371041154
 21
1098.460939669436
 31
0.0
  0
LINE
  5
2176
330
1F
100
AcDbEntity
  8
10
100
AcDbLine
 10
1121.761371041155
 20
790.9609396694407
 30
0.0
 11
1121.761371041155
 21
1098.460939669436
 31
0.0
  0
LINE
  5
2177
330
1F
100
AcDbEntity
  8
10
100
AcDbLine
 10
1114.261371041154
 20
790.9609396694407
 30
0.0
 11
1114.261371041154
 21
1098.460939669436
 31
0.0
  0
LINE
  5
2178
330
1F
100
AcDbEntity
  8
10
100
AcDbLine
 10
1116.761371041155
 20
790.9609396694407
 30
0.0
 11
1116.761371041155
 21
1098.460939669436
 31
0.0
  0
LINE
  5
2179
330
1F
100
AcDbEntity
  8
10
100
AcDbLine
 10
1109.261371041154
 20
790.9609396694407
 30
0.0
 11
1109.261371041154
 21
1098.460939669436
 31
0.0
  0
LINE
  5
217A
330
1F
100
AcDbEntity
  8
10
100
AcDbLine
 10
1111.761371041154
 20
790.9609396694407
 30
0.0
 11
1111.761371041154
 21
1098.460939669436
 31
0.0
  0
LINE
  5
217B
330
1F
100
AcDbEntity
  8
10
100
AcDbLine
 10
1104.261371041155
 20
790.9609396694407
 30
0.0
 11
1104.261371041155
 21
1098.460939669436
 31
0.0
  0
LINE
  5
217C
330
1F
100
AcDbEntity
  8
10
100
AcDbLine
 10
1106.761371041155
 20
790.9609396694407
 30
0.0
 11
1106.761371041155
 21
1098.460939669436
 31
0.0
  0
LINE
  5
217D
330
1F
100
AcDbEntity
  8
10
100
AcDbLine
 10
1099.261371041154
 20
790.9609396694407
 30
0.0
 11
1099.261371041154
 21
1098.460939669436
 31
0.0
  0
LINE
  5
217E
330
1F
100
AcDbEntity
  8
10
100
AcDbLine
 10
1101.761371041154
 20
790.9609396694407
 30
0.0
 11
1101.761371041154
 21
1098.460939669436
 31
0.0
  0
LINE
  5
217F
330
1F
100
AcDbEntity
  8
10
100
AcDbLine
 10
1094.261371041155
 20
790.9609396694407
 30
0.0
 11
1094.261371041155
 21
1098.460939669436
 31
0.0
  0
LINE
  5
2180
330
1F
100
AcDbEntity
  8
10
100
AcDbLine
 10
1096.761371041155
 20
790.9609396694407
 30
0.0
 11
1096.761371041155
 21
1098.460939669436
 31
0.0
  0
LINE
  5
2181
330
1F
100
AcDbEntity
  8
10
100
AcDbLine
 10
1089.261371041154
 20
790.9609396694407
 30
0.0
 11
1089.261371041154
 21
1098.460939669436
 31
0.0
  0
LINE
  5
2182
330
1F
100
AcDbEntity
  8
10
100
AcDbLine
 10
1091.761371041154
 20
790.9609396694407
 30
0.0
 11
1091.761371041154
 21
1098.460939669436
 31
0.0
  0
LINE
  5
2183
330
1F
100
AcDbEntity
  8
10
100
AcDbLine
 10
1084.261371041155
 20
790.9609396694407
 30
0.0
 11
1084.261371041155
 21
1098.460939669436
 31
0.0
  0
LINE
  5
2184
330
1F
100
AcDbEntity
  8
10
100
AcDbLine
 10
1086.761371041155
 20
790.9609396694407
 30
0.0
 11
1086.761371041155
 21
1098.460939669436
 31
0.0
  0
LINE
  5
2185
330
1F
100
AcDbEntity
  8
10
100
AcDbLine
 10
1079.261371041154
 20
790.9609396694407
 30
0.0
 11
1079.261371041154
 21
1098.460939669436
 31
0.0
  0
LINE
  5
2186
330
1F
100
AcDbEntity
  8
10
100
AcDbLine
 10
1081.761371041155
 20
790.9609396694407
 30
0.0
 11
1081.761371041155
 21
1098.460939669436
 31
0.0
  0
LINE
  5
2187
330
1F
100
AcDbEntity
  8
10
100
AcDbLine
 10
1024.261371041154
 20
829.7109396694382
 30
0.0
 11
1024.261371041154
 21
1098.460939669436
 31
0.0
  0
LINE
  5
2188
330
1F
100
AcDbEntity
  8
10
100
AcDbLine
 10
1026.761371041154
 20
829.7109396694382
 30
0.0
 11
1026.761371041154
 21
1098.460939669436
 31
0.0
  0
LINE
  5
2189
330
1F
100
AcDbEntity
  8
10
100
AcDbLine
 10
1019.511371041154
 20
1039.710939669437
 30
0.0
 11
1019.511371041154
 21
829.7109396694382
 31
0.0
  0
LINE
  5
218A
330
1F
100
AcDbEntity
  8
10
100
AcDbLine
 10
1019.011371041153
 20
924.754731821204
 30
0.0
 11
1019.011371041153
 21
829.7109396694382
 31
0.0
  0
LINE
  5
218B
330
1F
100
AcDbEntity
  8
10
100
AcDbLine
 10
1010.511371041155
 20
917.23714355908
 30
0.0
 11
1010.511371041155
 21
817.2371435590799
 31
0.0
  0
LINE
  5
218C
330
1F
100
AcDbEntity
  8
10
100
AcDbLine
 10
1000.211371041155
 20
895.0109396694385
 30
0.0
 11
1000.211371041155
 21
911.4109396694386
 31
0.0
  0
ARC
  5
218D
330
1F
100
AcDbEntity
  8
10
100
AcDbCircle
 10
998.811371041156
 20
905.5778997451476
 30
0.0
 40
2.499999999999928
100
AcDbArc
 50
120.6032946082065
 51
180.0
  0
LINE
  5
218E
330
1F
100
AcDbEntity
  8
10
100
AcDbLine
 10
1002.511371041155
 20
894.7109396694385
 30
0.0
 11
1002.511371041155
 21
911.7109396694386
 31
0.0
  0
LINE
  5
218F
330
1F
100
AcDbEntity
  8
10
100
AcDbLine
 10
1019.511371041156
 20
769.7109396694385
 30
0.0
 11
1066.511371041156
 21
769.7109396694385
 31
0.0
  0
LINE
  5
2190
330
1F
100
AcDbEntity
  8
10
100
AcDbLine
 10
999.5113710411557
 20
816.2371435590799
 30
0.0
 11
999.5113710411557
 21
771.7080598218142
 31
0.0
  0
LINE
  5
2191
330
1F
100
AcDbEntity
  8
10
100
AcDbLine
 10
1013.511371041154
 20
780.2109396694382
 30
0.0
 11
1013.511371041154
 21
829.2109396694385
 31
0.0
  0
LINE
  5
2192
330
1F
100
AcDbEntity
  8
10
100
AcDbLine
 10
1043.511371041154
 20
780.2109396694382
 30
0.0
 11
1043.511371041154
 21
829.2109396694385
 31
0.0
  0
LINE
  5
2193
330
1F
100
AcDbEntity
  8
10
100
AcDbLine
 10
999.5113710411557
 20
770.7590952550993
 30
0.0
 11
999.5113710411557
 21
816.7590952550991
 31
0.0
  0
TEXT
  5
2194
330
1F
100
AcDbEntity
  8
10
100
AcDbText
 10
1015.511349904181
 20
811.7109385741487
 30
0.0
 40
9.142857279096331
  1
ＮＰ
 50
269.999994991043
 41
0.7031250019402551
  7
STANDARD1
100
AcDbText
  0
LINE
  5
2195
330
1F
100
AcDbEntity
  8
10
100
AcDbLine
 10
1014.011371041154
 20
779.7109396694385
 30
0.0
 11
1043.011371041154
 21
779.7109396694385
 31
0.0
  0
LINE
  5
2196
330
1F
100
AcDbEntity
  8
10
100
AcDbLine
 10
1000.459035084912
 20
770.7094302870594
 30
0.0
 11
1019.011371041155
 21
769.7371435590801
 31
0.0
  0
ARC
  5
2197
330
1F
100
AcDbEntity
  8
10
100
AcDbCircle
 10
1000.511371041155
 20
771.7080598218142
 30
0.0
 40
1.0
100
AcDbArc
 50
180.0
 51
266.9999999999943
  0
LINE
  5
2198
330
1F
100
AcDbEntity
  8
10
100
AcDbLine
 10
999.5113710411557
 20
773.7590952550991
 30
0.0
 11
999.5113710411557
 21
773.7763979919836
 31
0.0
  0
LINE
  5
2199
330
1F
100
AcDbEntity
  8
10
100
AcDbLine
 10
1019.011371041155
 20
779.7109396694385
 30
0.0
 11
1019.011371041155
 21
769.7371435590801
 31
0.0
  0
LINE
  5
219A
330
1F
100
AcDbEntity
  8
10
100
AcDbLine
 10
1019.511371041154
 20
779.7109396694385
 30
0.0
 11
1019.511371041154
 21
769.7109396694385
 31
0.0
  0
LINE
  5
219B
330
1F
100
AcDbEntity
  8
10
100
AcDbLine
 10
1019.011371041155
 20
770.2109396694383
 30
0.0
 11
1019.511371041154
 21
770.2109396694383
 31
0.0
  0
ARC
  5
219C
330
1F
100
AcDbEntity
  8
10
100
AcDbCircle
 10
1014.011371041154
 20
780.2109396694382
 30
0.0
 40
0.5000000000000031
100
AcDbArc
 50
180.0
 51
270.0
  0
ARC
  5
219D
330
1F
100
AcDbEntity
  8
10
100
AcDbCircle
 10
1045.511371041154
 20
790.9609396694407
 30
0.0
 40
1.25
100
AcDbArc
 50
180.0
 51
0.0
  0
ARC
  5
219E
330
1F
100
AcDbEntity
  8
10
100
AcDbCircle
 10
1043.011371041154
 20
780.2109396694382
 30
0.0
 40
0.4999999999999973
100
AcDbArc
 50
270.0
 51
0.0
  0
ARC
  5
219F
330
1F
100
AcDbEntity
  8
10
100
AcDbCircle
 10
1050.511371041155
 20
790.9609396694407
 30
0.0
 40
1.25
100
AcDbArc
 50
180.0
 51
0.0
  0
ARC
  5
21A0
330
1F
100
AcDbEntity
  8
10
100
AcDbCircle
 10
1055.511371041154
 20
790.9609396694407
 30
0.0
 40
1.25
100
AcDbArc
 50
180.0
 51
0.0
  0
ARC
  5
21A1
330
1F
100
AcDbEntity
  8
10
100
AcDbCircle
 10
1060.511371041154
 20
790.9609396694407
 30
0.0
 40
1.25
100
AcDbArc
 50
180.0
 51
0.0
  0
LINE
  5
21A2
330
1F
100
AcDbEntity
  8
10
100
AcDbLine
 10
1014.011371041154
 20
829.7109396694382
 30
0.0
 11
1043.011371041154
 21
829.7109396694382
 31
0.0
  0
LINE
  5
21A3
330
1F
100
AcDbEntity
  8
10
100
AcDbLine
 10
1004.011371041155
 20
853.4109396694383
 30
0.0
 11
1004.011371041155
 21
862.0109396694383
 31
0.0
  0
LINE
  5
21A4
330
1F
100
AcDbEntity
  8
10
100
AcDbLine
 10
1005.011371041155
 20
853.2109396694382
 30
0.0
 11
1005.011371041155
 21
862.2109396694385
 31
0.0
  0
LINE
  5
21A5
330
1F
100
AcDbEntity
  8
10
100
AcDbLine
 10
1010.011371041156
 20
816.7371435590801
 30
0.0
 11
1000.011371041154
 21
816.7371435590801
 31
0.0
  0
ARC
  5
21A6
330
1F
100
AcDbEntity
  8
10
100
AcDbCircle
 10
1000.011371041154
 20
816.2371435590799
 30
0.0
 40
0.4999999999999915
100
AcDbArc
 50
90.0
 51
180.0
  0
ARC
  5
21A7
330
1F
100
AcDbEntity
  8
10
100
AcDbCircle
 10
1010.011371041156
 20
817.2371435590799
 30
0.0
 40
0.5000000000000031
100
AcDbArc
 50
270.0
 51
0.0
  0
ARC
  5
21A8
330
1F
100
AcDbEntity
  8
10
100
AcDbCircle
 10
1004.011371041155
 20
846.7109396694386
 30
0.0
 40
3.500000000000146
100
AcDbArc
 50
236.6329870307644
 51
270.0
  0
ARC
  5
21A9
330
1F
100
AcDbEntity
  8
10
100
AcDbCircle
 10
1004.011371041155
 20
846.7109396694386
 30
0.0
 40
3.500000000000003
100
AcDbArc
 50
90.0
 51
123.3670129692354
  0
ARC
  5
21AA
330
1F
100
AcDbEntity
  8
10
100
AcDbCircle
 10
1004.011371041155
 20
835.7109396694387
 30
0.0
 40
3.500000000000153
100
AcDbArc
 50
236.6329870307644
 51
270.0
  0
ARC
  5
21AB
330
1F
100
AcDbEntity
  8
10
100
AcDbCircle
 10
1004.011371041155
 20
835.7109396694387
 30
0.0
 40
3.500000000000003
100
AcDbArc
 50
90.0
 51
123.3670129692354
  0
LINE
  5
21AC
330
1F
100
AcDbEntity
  8
10
100
AcDbLine
 10
1001.411371041154
 20
848.3812689782874
 30
0.0
 11
1001.411371041154
 21
845.0406103605896
 31
0.0
  0
ARC
  5
21AD
330
1F
100
AcDbEntity
  8
10
100
AcDbCircle
 10
1002.911371041156
 20
848.3812689782874
 30
0.0
 40
1.50000000000023
100
AcDbArc
 50
123.3670129692371
 51
180.0
  0
ARC
  5
21AE
330
1F
100
AcDbEntity
  8
10
100
AcDbCircle
 10
1002.911371041156
 20
845.0406103605896
 30
0.0
 40
1.5
100
AcDbArc
 50
180.0
 51
236.6329870307627
  0
ARC
  5
21AF
330
1F
100
AcDbEntity
  8
10
100
AcDbCircle
 10
1002.911371041156
 20
846.7109396694386
 30
0.0
 40
1.499999999999996
100
AcDbArc
 50
90.0
 51
180.0
  0
LINE
  5
21B0
330
1F
100
AcDbEntity
  8
10
100
AcDbLine
 10
1001.411371041154
 20
846.7109396694386
 30
0.0
 11
1001.411371041154
 21
846.7109396694386
 31
0.0
  0
ARC
  5
21B1
330
1F
100
AcDbEntity
  8
10
100
AcDbCircle
 10
1002.911371041156
 20
846.7109396694386
 30
0.0
 40
1.5
100
AcDbArc
 50
180.0
 51
270.0
  0
LINE
  5
21B2
330
1F
100
AcDbEntity
  8
10
100
AcDbLine
 10
1001.411371041154
 20
837.3812689782878
 30
0.0
 11
1001.411371041154
 21
834.0406103605896
 31
0.0
  0
ARC
  5
21B3
330
1F
100
AcDbEntity
  8
10
100
AcDbCircle
 10
1002.911371041156
 20
837.3812689782878
 30
0.0
 40
1.50000000000023
100
AcDbArc
 50
123.3670129692371
 51
180.0
  0
ARC
  5
21B4
330
1F
100
AcDbEntity
  8
10
100
AcDbCircle
 10
1002.911371041156
 20
834.0406103605896
 30
0.0
 40
1.5
100
AcDbArc
 50
180.0
 51
236.6329870307627
  0
ARC
  5
21B5
330
1F
100
AcDbEntity
  8
10
100
AcDbCircle
 10
1002.911371041156
 20
835.7109396694387
 30
0.0
 40
1.499999999999996
100
AcDbArc
 50
90.0
 51
180.0
  0
LINE
  5
21B6
330
1F
100
AcDbEntity
  8
10
100
AcDbLine
 10
1001.411371041154
 20
835.7109396694387
 30
0.0
 11
1001.411371041154
 21
835.7109396694387
 31
0.0
  0
ARC
  5
21B7
330
1F
100
AcDbEntity
  8
10
100
AcDbCircle
 10
1002.911371041156
 20
835.7109396694387
 30
0.0
 40
1.5
100
AcDbArc
 50
180.0
 51
270.0
  0
LINE
  5
21B8
330
1F
100
AcDbEntity
  8
10
100
AcDbLine
 10
1004.011371041155
 20
850.2109396694383
 30
0.0
 11
1004.011371041155
 21
850.5109396694383
 31
0.0
  0
LINE
  5
21B9
330
1F
100
AcDbEntity
  8
10
100
AcDbLine
 10
1004.011371041155
 20
840.0109396694386
 30
0.0
 11
1005.011371041155
 21
840.0109396694386
 31
0.0
  0
LINE
  5
21BA
330
1F
100
AcDbEntity
  8
10
100
AcDbLine
 10
1005.011371041155
 20
831.4109396694384
 30
0.0
 11
1004.011371041155
 21
831.4109396694384
 31
0.0
  0
LINE
  5
21BB
330
1F
100
AcDbEntity
  8
10
100
AcDbLine
 10
1004.011371041155
 20
831.4109396694384
 30
0.0
 11
1004.011371041155
 21
840.0109396694386
 31
0.0
  0
LINE
  5
21BC
330
1F
100
AcDbEntity
  8
10
100
AcDbLine
 10
1005.011371041155
 20
842.4109396694387
 30
0.0
 11
1004.011371041155
 21
842.4109396694387
 31
0.0
  0
LINE
  5
21BD
330
1F
100
AcDbEntity
  8
10
100
AcDbLine
 10
1004.011371041155
 20
832.2109396694386
 30
0.0
 11
1004.011371041155
 21
839.2109396694387
 31
0.0
  0
LINE
  5
21BE
330
1F
100
AcDbEntity
  8
10
100
AcDbLine
 10
1004.011371041155
 20
839.2109396694387
 30
0.0
 11
1004.011371041155
 21
839.5109396694389
 31
0.0
  0
LINE
  5
21BF
330
1F
100
AcDbEntity
  8
10
100
AcDbLine
 10
1004.011371041155
 20
842.4109396694387
 30
0.0
 11
1004.011371041155
 21
851.0109396694387
 31
0.0
  0
LINE
  5
21C0
330
1F
100
AcDbEntity
  8
10
100
AcDbLine
 10
1004.011371041155
 20
851.0109396694387
 30
0.0
 11
1005.011371041155
 21
851.0109396694387
 31
0.0
  0
LINE
  5
21C1
330
1F
100
AcDbEntity
  8
10
100
AcDbLine
 10
1005.011371041155
 20
853.4109396694383
 30
0.0
 11
1004.011371041155
 21
853.4109396694383
 31
0.0
  0
LINE
  5
21C2
330
1F
100
AcDbEntity
  8
10
100
AcDbLine
 10
1004.011371041155
 20
843.2109396694386
 30
0.0
 11
1004.011371041155
 21
850.2109396694383
 31
0.0
  0
LINE
  5
21C3
330
1F
100
AcDbEntity
  8
10
100
AcDbLine
 10
1005.011371041155
 20
842.2109396694382
 30
0.0
 11
1005.011371041155
 21
851.2109396694382
 31
0.0
  0
LINE
  5
21C4
330
1F
100
AcDbEntity
  8
10
100
AcDbLine
 10
1005.011371041155
 20
831.2109396694387
 30
0.0
 11
1005.011371041155
 21
840.2109396694386
 31
0.0
  0
ARC
  5
21C5
330
1F
100
AcDbEntity
  8
10
100
AcDbCircle
 10
1014.011371041154
 20
829.2109396694385
 30
0.0
 40
0.5000000000000031
100
AcDbArc
 50
90.0
 51
180.0
  0
LINE
  5
21C6
330
1F
100
AcDbEntity
  8
10
100
AcDbLine
 10
1000.211371041155
 20
871.0109396694383
 30
0.0
 11
1000.211371041155
 21
887.4109396694386
 31
0.0
  0
ARC
  5
21C7
330
1F
100
AcDbEntity
  8
10
100
AcDbCircle
 10
998.3113710411556
 20
879.2109396694385
 30
0.0
 40
1.999999999999987
100
AcDbArc
 50
90.0
 51
180.0
  0
LINE
  5
21C8
330
1F
100
AcDbEntity
  8
10
100
AcDbLine
 10
996.3113710411557
 20
881.5778997451475
 30
0.0
 11
996.3113710411557
 21
876.8439795937297
 31
0.0
  0
LINE
  5
21C9
330
1F
100
AcDbEntity
  8
10
100
AcDbLine
 10
1002.511371041155
 20
870.7109396694386
 30
0.0
 11
1002.511371041155
 21
887.7109396694383
 31
0.0
  0
ARC
  5
21CA
330
1F
100
AcDbEntity
  8
10
100
AcDbCircle
 10
1004.011371041155
 20
857.7109396694382
 30
0.0
 40
3.500000000000146
100
AcDbArc
 50
236.6329870307644
 51
270.0
  0
ARC
  5
21CB
330
1F
100
AcDbEntity
  8
10
100
AcDbCircle
 10
1004.011371041155
 20
857.7109396694382
 30
0.0
 40
3.500000000000003
100
AcDbArc
 50
90.0
 51
123.3670129692354
  0
LINE
  5
21CC
330
1F
100
AcDbEntity
  8
10
100
AcDbLine
 10
1000.211371041155
 20
871.0109396694383
 30
0.0
 11
1002.511371041155
 21
871.0109396694383
 31
0.0
  0
ARC
  5
21CD
330
1F
100
AcDbEntity
  8
10
100
AcDbCircle
 10
998.3113710411556
 20
879.2109396694385
 30
0.0
 40
1.999999999999996
100
AcDbArc
 50
180.0
 51
270.0
  0
ARC
  5
21CE
330
1F
100
AcDbEntity
  8
10
100
AcDbCircle
 10
998.811371041156
 20
876.8439795937297
 30
0.0
 40
2.499999999999996
100
AcDbArc
 50
180.0
 51
239.3967053917934
  0
ARC
  5
21CF
330
1F
100
AcDbEntity
  8
10
100
AcDbCircle
 10
1000.211371041155
 20
879.2109396694385
 30
0.0
 40
5.24999999999996
100
AcDbArc
 50
239.3967053917934
 51
270.0
  0
LINE
  5
21D0
330
1F
100
AcDbEntity
  8
10
100
AcDbLine
 10
1001.411371041154
 20
859.3812689782875
 30
0.0
 11
1001.411371041154
 21
856.0406103605894
 31
0.0
  0
ARC
  5
21D1
330
1F
100
AcDbEntity
  8
10
100
AcDbCircle
 10
1002.911371041156
 20
859.3812689782875
 30
0.0
 40
1.50000000000023
100
AcDbArc
 50
123.3670129692371
 51
180.0
  0
ARC
  5
21D2
330
1F
100
AcDbEntity
  8
10
100
AcDbCircle
 10
1002.911371041156
 20
856.0406103605894
 30
0.0
 40
1.5
100
AcDbArc
 50
180.0
 51
236.6329870307627
  0
ARC
  5
21D3
330
1F
100
AcDbEntity
  8
10
100
AcDbCircle
 10
1002.911371041156
 20
857.7109396694382
 30
0.0
 40
1.500000000000017
100
AcDbArc
 50
90.0
 51
180.0
  0
LINE
  5
21D4
330
1F
100
AcDbEntity
  8
10
100
AcDbLine
 10
1001.411371041154
 20
857.7109396694382
 30
0.0
 11
1001.411371041154
 21
857.7109396694382
 31
0.0
  0
ARC
  5
21D5
330
1F
100
AcDbEntity
  8
10
100
AcDbCircle
 10
1002.911371041156
 20
857.7109396694382
 30
0.0
 40
1.5
100
AcDbArc
 50
180.0
 51
270.0
  0
LINE
  5
21D6
330
1F
100
AcDbEntity
  8
10
100
AcDbLine
 10
1004.011371041155
 20
854.2109396694385
 30
0.0
 11
1004.011371041155
 21
861.2109396694386
 31
0.0
  0
LINE
  5
21D7
330
1F
100
AcDbEntity
  8
10
100
AcDbLine
 10
1004.011371041155
 20
861.2109396694386
 30
0.0
 11
1004.011371041155
 21
861.5109396694384
 31
0.0
  0
LINE
  5
21D8
330
1F
100
AcDbEntity
  8
10
100
AcDbLine
 10
1004.011371041155
 20
862.0109396694383
 30
0.0
 11
1005.011371041155
 21
862.0109396694383
 31
0.0
  0
LINE
  5
21D9
330
1F
100
AcDbEntity
  8
10
100
AcDbLine
 10
1000.211371041155
 20
887.4109396694386
 30
0.0
 11
1002.511371041155
 21
887.4109396694386
 31
0.0
  0
ARC
  5
21DA
330
1F
100
AcDbEntity
  8
10
100
AcDbCircle
 10
998.811371041156
 20
881.5778997451475
 30
0.0
 40
2.499999999999928
100
AcDbArc
 50
120.6032946082065
 51
180.0
  0
ARC
  5
21DB
330
1F
100
AcDbEntity
  8
10
100
AcDbCircle
 10
1000.211371041155
 20
879.2109396694385
 30
0.0
 40
5.249999999999998
100
AcDbArc
 50
90.0
 51
120.6032946082065
  0
LINE
  5
21DC
330
1F
100
AcDbEntity
  8
10
100
AcDbLine
 10
996.3113710411557
 20
905.5778997451476
 30
0.0
 11
996.3113710411557
 21
900.8439795937295
 31
0.0
  0
LINE
  5
21DD
330
1F
100
AcDbEntity
  8
10
100
AcDbLine
 10
1000.211371041155
 20
895.0109396694385
 30
0.0
 11
1002.511371041155
 21
895.0109396694385
 31
0.0
  0
ARC
  5
21DE
330
1F
100
AcDbEntity
  8
10
100
AcDbCircle
 10
998.3113710411556
 20
903.2109396694382
 30
0.0
 40
2.000000000000007
100
AcDbArc
 50
90.0
 51
180.0
  0
ARC
  5
21DF
330
1F
100
AcDbEntity
  8
10
100
AcDbCircle
 10
998.3113710411556
 20
903.2109396694382
 30
0.0
 40
1.999999999999996
100
AcDbArc
 50
180.0
 51
270.0
  0
ARC
  5
21E0
330
1F
100
AcDbEntity
  8
10
100
AcDbCircle
 10
998.811371041156
 20
900.8439795937295
 30
0.0
 40
2.499999999999996
100
AcDbArc
 50
180.0
 51
239.3967053917934
  0
ARC
  5
21E1
330
1F
100
AcDbEntity
  8
10
100
AcDbCircle
 10
1000.211371041155
 20
903.2109396694382
 30
0.0
 40
5.249999999999941
100
AcDbArc
 50
239.3967053917934
 51
270.0
  0
LINE
  5
21E2
330
1F
100
AcDbEntity
  8
10
100
AcDbLine
 10
1026.761371041154
 20
877.2109396694386
 30
0.0
 11
1024.261371041154
 21
877.2109396694386
 31
0.0
  0
LINE
  5
21E3
330
1F
100
AcDbEntity
  8
10
100
AcDbLine
 10
1026.761371041154
 20
862.2109396694385
 30
0.0
 11
1024.261371041154
 21
862.2109396694385
 31
0.0
  0
LINE
  5
21E4
330
1F
100
AcDbEntity
  8
10
100
AcDbLine
 10
1046.761371041154
 20
827.2109396694386
 30
0.0
 11
1044.261371041155
 21
827.2109396694386
 31
0.0
  0
LINE
  5
21E5
330
1F
100
AcDbEntity
  8
10
100
AcDbLine
 10
1046.761371041154
 20
812.2109396694385
 30
0.0
 11
1044.261371041155
 21
812.2109396694385
 31
0.0
  0
ARC
  5
21E6
330
1F
100
AcDbEntity
  8
10
100
AcDbCircle
 10
1043.011371041154
 20
829.2109396694385
 30
0.0
 40
0.5000000000000031
100
AcDbArc
 50
0.0
 51
90.0
  0
LINE
  5
21E7
330
1F
100
AcDbEntity
  8
10
100
AcDbLine
 10
1051.761371041154
 20
827.2109396694386
 30
0.0
 11
1049.261371041154
 21
827.2109396694386
 31
0.0
  0
LINE
  5
21E8
330
1F
100
AcDbEntity
  8
10
100
AcDbLine
 10
1051.761371041154
 20
812.2109396694385
 30
0.0
 11
1049.261371041154
 21
812.2109396694385
 31
0.0
  0
LINE
  5
21E9
330
1F
100
AcDbEntity
  8
10
100
AcDbLine
 10
1061.761371041154
 20
827.2109396694386
 30
0.0
 11
1059.261371041155
 21
827.2109396694386
 31
0.0
  0
LINE
  5
21EA
330
1F
100
AcDbEntity
  8
10
100
AcDbLine
 10
1056.761371041154
 20
827.2109396694386
 30
0.0
 11
1054.261371041155
 21
827.2109396694386
 31
0.0
  0
LINE
  5
21EB
330
1F
100
AcDbEntity
  8
10
100
AcDbLine
 10
1061.761371041154
 20
812.2109396694385
 30
0.0
 11
1059.261371041155
 21
812.2109396694385
 31
0.0
  0
LINE
  5
21EC
330
1F
100
AcDbEntity
  8
10
100
AcDbLine
 10
1056.761371041154
 20
812.2109396694385
 30
0.0
 11
1054.261371041155
 21
812.2109396694385
 31
0.0
  0
LINE
  5
21ED
330
1F
100
AcDbEntity
  8
10
100
AcDbLine
 10
1046.761371041154
 20
877.2109396694386
 30
0.0
 11
1044.261371041155
 21
877.2109396694386
 31
0.0
  0
LINE
  5
21EE
330
1F
100
AcDbEntity
  8
10
100
AcDbLine
 10
1046.761371041154
 20
862.2109396694385
 30
0.0
 11
1044.261371041155
 21
862.2109396694385
 31
0.0
  0
LINE
  5
21EF
330
1F
100
AcDbEntity
  8
10
100
AcDbLine
 10
1036.761371041154
 20
877.2109396694386
 30
0.0
 11
1034.261371041155
 21
877.2109396694386
 31
0.0
  0
LINE
  5
21F0
330
1F
100
AcDbEntity
  8
10
100
AcDbLine
 10
1031.761371041155
 20
877.2109396694386
 30
0.0
 11
1029.261371041154
 21
877.2109396694386
 31
0.0
  0
LINE
  5
21F1
330
1F
100
AcDbEntity
  8
10
100
AcDbLine
 10
1036.761371041154
 20
862.2109396694385
 30
0.0
 11
1034.261371041155
 21
862.2109396694385
 31
0.0
  0
LINE
  5
21F2
330
1F
100
AcDbEntity
  8
10
100
AcDbLine
 10
1031.761371041155
 20
862.2109396694385
 30
0.0
 11
1029.261371041154
 21
862.2109396694385
 31
0.0
  0
LINE
  5
21F3
330
1F
100
AcDbEntity
  8
10
100
AcDbLine
 10
1041.761371041155
 20
877.2109396694386
 30
0.0
 11
1039.261371041154
 21
877.2109396694386
 31
0.0
  0
LINE
  5
21F4
330
1F
100
AcDbEntity
  8
10
100
AcDbLine
 10
1041.761371041155
 20
862.2109396694385
 30
0.0
 11
1039.261371041154
 21
862.2109396694385
 31
0.0
  0
LINE
  5
21F5
330
1F
100
AcDbEntity
  8
10
100
AcDbLine
 10
1051.761371041154
 20
877.2109396694386
 30
0.0
 11
1049.261371041154
 21
877.2109396694386
 31
0.0
  0
LINE
  5
21F6
330
1F
100
AcDbEntity
  8
10
100
AcDbLine
 10
1051.761371041154
 20
862.2109396694385
 30
0.0
 11
1049.261371041154
 21
862.2109396694385
 31
0.0
  0
LINE
  5
21F7
330
1F
100
AcDbEntity
  8
10
100
AcDbLine
 10
1061.761371041154
 20
877.2109396694386
 30
0.0
 11
1059.261371041155
 21
877.2109396694386
 31
0.0
  0
LINE
  5
21F8
330
1F
100
AcDbEntity
  8
10
100
AcDbLine
 10
1056.761371041154
 20
877.2109396694386
 30
0.0
 11
1054.261371041155
 21
877.2109396694386
 31
0.0
  0
LINE
  5
21F9
330
1F
100
AcDbEntity
  8
10
100
AcDbLine
 10
1061.761371041154
 20
862.2109396694385
 30
0.0
 11
1059.261371041155
 21
862.2109396694385
 31
0.0
  0
LINE
  5
21FA
330
1F
100
AcDbEntity
  8
10
100
AcDbLine
 10
1056.761371041154
 20
862.2109396694385
 30
0.0
 11
1054.261371041155
 21
862.2109396694385
 31
0.0
  0
ARC
  5
21FB
330
1F
100
AcDbEntity
  8
10
100
AcDbCircle
 10
1095.511371041155
 20
790.9609396694407
 30
0.0
 40
1.25
100
AcDbArc
 50
180.0
 51
0.0
  0
ARC
  5
21FC
330
1F
100
AcDbEntity
  8
10
100
AcDbCircle
 10
1070.511371041154
 20
790.9609396694407
 30
0.0
 40
1.25
100
AcDbArc
 50
180.0
 51
0.0
  0
ARC
  5
21FD
330
1F
100
AcDbEntity
  8
10
100
AcDbCircle
 10
1065.511371041155
 20
790.9609396694407
 30
0.0
 40
1.25
100
AcDbArc
 50
180.0
 51
0.0
  0
ARC
  5
21FE
330
1F
100
AcDbEntity
  8
10
100
AcDbCircle
 10
1075.511371041155
 20
790.9609396694407
 30
0.0
 40
1.25
100
AcDbArc
 50
180.0
 51
0.0
  0
ARC
  5
21FF
330
1F
100
AcDbEntity
  8
10
100
AcDbCircle
 10
1080.511371041154
 20
790.9609396694407
 30
0.0
 40
1.25
100
AcDbArc
 50
180.0
 51
0.0
  0
ARC
  5
2200
330
1F
100
AcDbEntity
  8
10
100
AcDbCircle
 10
1085.511371041155
 20
790.9609396694407
 30
0.0
 40
1.25
100
AcDbArc
 50
180.0
 51
0.0
  0
ARC
  5
2201
330
1F
100
AcDbEntity
  8
10
100
AcDbCircle
 10
1090.511371041155
 20
790.9609396694407
 30
0.0
 40
1.25
100
AcDbArc
 50
180.0
 51
0.0
  0
ARC
  5
2202
330
1F
100
AcDbEntity
  8
10
100
AcDbCircle
 10
1100.511371041154
 20
790.9609396694407
 30
0.0
 40
1.25
100
AcDbArc
 50
180.0
 51
0.0
  0
ARC
  5
2203
330
1F
100
AcDbEntity
  8
10
100
AcDbCircle
 10
1105.511371041154
 20
790.9609396694407
 30
0.0
 40
1.25
100
AcDbArc
 50
180.0
 51
0.0
  0
ARC
  5
2204
330
1F
100
AcDbEntity
  8
10
100
AcDbCircle
 10
1110.511371041154
 20
790.9609396694407
 30
0.0
 40
1.25
100
AcDbArc
 50
180.0
 51
0.0
  0
ARC
  5
2205
330
1F
100
AcDbEntity
  8
10
100
AcDbCircle
 10
1120.511371041154
 20
790.9609396694407
 30
0.0
 40
1.25
100
AcDbArc
 50
180.0
 51
0.0
  0
ARC
  5
2206
330
1F
100
AcDbEntity
  8
10
100
AcDbCircle
 10
1115.511371041155
 20
790.9609396694407
 30
0.0
 40
1.25
100
AcDbArc
 50
180.0
 51
0.0
  0
ARC
  5
2207
330
1F
100
AcDbEntity
  8
10
100
AcDbCircle
 10
1125.511371041155
 20
790.9609396694407
 30
0.0
 40
1.25
100
AcDbArc
 50
180.0
 51
0.0
  0
LINE
  5
2208
330
1F
100
AcDbEntity
  8
10
100
AcDbLine
 10
1096.761371041155
 20
827.2109396694386
 30
0.0
 11
1094.261371041155
 21
827.2109396694386
 31
0.0
  0
LINE
  5
2209
330
1F
100
AcDbEntity
  8
10
100
AcDbLine
 10
1096.761371041155
 20
812.2109396694385
 30
0.0
 11
1094.261371041155
 21
812.2109396694385
 31
0.0
  0
LINE
  5
220A
330
1F
100
AcDbEntity
  8
10
100
AcDbLine
 10
1096.761371041155
 20
877.2109396694386
 30
0.0
 11
1094.261371041155
 21
877.2109396694386
 31
0.0
  0
LINE
  5
220B
330
1F
100
AcDbEntity
  8
10
100
AcDbLine
 10
1096.761371041155
 20
862.2109396694385
 30
0.0
 11
1094.261371041155
 21
862.2109396694385
 31
0.0
  0
LINE
  5
220C
330
1F
100
AcDbEntity
  8
10
100
AcDbLine
 10
1071.761371041155
 20
827.2109396694386
 30
0.0
 11
1069.261371041154
 21
827.2109396694386
 31
0.0
  0
LINE
  5
220D
330
1F
100
AcDbEntity
  8
10
100
AcDbLine
 10
1071.761371041155
 20
812.2109396694385
 30
0.0
 11
1069.261371041154
 21
812.2109396694385
 31
0.0
  0
LINE
  5
220E
330
1F
100
AcDbEntity
  8
10
100
AcDbLine
 10
1066.761371041154
 20
827.2109396694386
 30
0.0
 11
1064.261371041155
 21
827.2109396694386
 31
0.0
  0
LINE
  5
220F
330
1F
100
AcDbEntity
  8
10
100
AcDbLine
 10
1066.761371041154
 20
812.2109396694385
 30
0.0
 11
1064.261371041155
 21
812.2109396694385
 31
0.0
  0
LINE
  5
2210
330
1F
100
AcDbEntity
  8
10
100
AcDbLine
 10
1076.761371041154
 20
827.2109396694386
 30
0.0
 11
1074.261371041154
 21
827.2109396694386
 31
0.0
  0
LINE
  5
2211
330
1F
100
AcDbEntity
  8
10
100
AcDbLine
 10
1076.761371041154
 20
812.2109396694385
 30
0.0
 11
1074.261371041154
 21
812.2109396694385
 31
0.0
  0
LINE
  5
2212
330
1F
100
AcDbEntity
  8
10
100
AcDbLine
 10
1086.761371041155
 20
827.2109396694386
 30
0.0
 11
1084.261371041155
 21
827.2109396694386
 31
0.0
  0
LINE
  5
2213
330
1F
100
AcDbEntity
  8
10
100
AcDbLine
 10
1081.761371041155
 20
827.2109396694386
 30
0.0
 11
1079.261371041154
 21
827.2109396694386
 31
0.0
  0
LINE
  5
2214
330
1F
100
AcDbEntity
  8
10
100
AcDbLine
 10
1086.761371041155
 20
812.2109396694385
 30
0.0
 11
1084.261371041155
 21
812.2109396694385
 31
0.0
  0
LINE
  5
2215
330
1F
100
AcDbEntity
  8
10
100
AcDbLine
 10
1081.761371041155
 20
812.2109396694385
 30
0.0
 11
1079.261371041154
 21
812.2109396694385
 31
0.0
  0
LINE
  5
2216
330
1F
100
AcDbEntity
  8
10
100
AcDbLine
 10
1091.761371041154
 20
827.2109396694386
 30
0.0
 11
1089.261371041154
 21
827.2109396694386
 31
0.0
  0
LINE
  5
2217
330
1F
100
AcDbEntity
  8
10
100
AcDbLine
 10
1091.761371041154
 20
812.2109396694385
 30
0.0
 11
1089.261371041154
 21
812.2109396694385
 31
0.0
  0
LINE
  5
2218
330
1F
100
AcDbEntity
  8
10
100
AcDbLine
 10
1071.761371041155
 20
877.2109396694386
 30
0.0
 11
1069.261371041154
 21
877.2109396694386
 31
0.0
  0
LINE
  5
2219
330
1F
100
AcDbEntity
  8
10
100
AcDbLine
 10
1071.761371041155
 20
862.2109396694385
 30
0.0
 11
1069.261371041154
 21
862.2109396694385
 31
0.0
  0
LINE
  5
221A
330
1F
100
AcDbEntity
  8
10
100
AcDbLine
 10
1066.761371041154
 20
877.2109396694386
 30
0.0
 11
1064.261371041155
 21
877.2109396694386
 31
0.0
  0
LINE
  5
221B
330
1F
100
AcDbEntity
  8
10
100
AcDbLine
 10
1066.761371041154
 20
862.2109396694385
 30
0.0
 11
1064.261371041155
 21
862.2109396694385
 31
0.0
  0
LINE
  5
221C
330
1F
100
AcDbEntity
  8
10
100
AcDbLine
 10
1076.761371041154
 20
877.2109396694386
 30
0.0
 11
1074.261371041154
 21
877.2109396694386
 31
0.0
  0
LINE
  5
221D
330
1F
100
AcDbEntity
  8
10
100
AcDbLine
 10
1076.761371041154
 20
862.2109396694385
 30
0.0
 11
1074.261371041154
 21
862.2109396694385
 31
0.0
  0
LINE
  5
221E
330
1F
100
AcDbEntity
  8
10
100
AcDbLine
 10
1086.761371041155
 20
877.2109396694386
 30
0.0
 11
1084.261371041155
 21
877.2109396694386
 31
0.0
  0
LINE
  5
221F
330
1F
100
AcDbEntity
  8
10
100
AcDbLine
 10
1081.761371041155
 20
877.2109396694386
 30
0.0
 11
1079.261371041154
 21
877.2109396694386
 31
0.0
  0
LINE
  5
2220
330
1F
100
AcDbEntity
  8
10
100
AcDbLine
 10
1086.761371041155
 20
862.2109396694385
 30
0.0
 11
1084.261371041155
 21
862.2109396694385
 31
0.0
  0
LINE
  5
2221
330
1F
100
AcDbEntity
  8
10
100
AcDbLine
 10
1081.761371041155
 20
862.2109396694385
 30
0.0
 11
1079.261371041154
 21
862.2109396694385
 31
0.0
  0
LINE
  5
2222
330
1F
100
AcDbEntity
  8
10
100
AcDbLine
 10
1091.761371041154
 20
877.2109396694386
 30
0.0
 11
1089.261371041154
 21
877.2109396694386
 31
0.0
  0
LINE
  5
2223
330
1F
100
AcDbEntity
  8
10
100
AcDbLine
 10
1091.761371041154
 20
862.2109396694385
 30
0.0
 11
1089.261371041154
 21
862.2109396694385
 31
0.0
  0
LINE
  5
2224
330
1F
100
AcDbEntity
  8
10
100
AcDbLine
 10
1101.761371041154
 20
827.2109396694386
 30
0.0
 11
1099.261371041154
 21
827.2109396694386
 31
0.0
  0
LINE
  5
2225
330
1F
100
AcDbEntity
  8
10
100
AcDbLine
 10
1101.761371041154
 20
812.2109396694385
 30
0.0
 11
1099.261371041154
 21
812.2109396694385
 31
0.0
  0
LINE
  5
2226
330
1F
100
AcDbEntity
  8
10
100
AcDbLine
 10
1111.761371041154
 20
827.2109396694386
 30
0.0
 11
1109.261371041154
 21
827.2109396694386
 31
0.0
  0
LINE
  5
2227
330
1F
100
AcDbEntity
  8
10
100
AcDbLine
 10
1106.761371041155
 20
827.2109396694386
 30
0.0
 11
1104.261371041155
 21
827.2109396694386
 31
0.0
  0
LINE
  5
2228
330
1F
100
AcDbEntity
  8
10
100
AcDbLine
 10
1111.761371041154
 20
812.2109396694385
 30
0.0
 11
1109.261371041154
 21
812.2109396694385
 31
0.0
  0
LINE
  5
2229
330
1F
100
AcDbEntity
  8
10
100
AcDbLine
 10
1106.761371041155
 20
812.2109396694385
 30
0.0
 11
1104.261371041155
 21
812.2109396694385
 31
0.0
  0
LINE
  5
222A
330
1F
100
AcDbEntity
  8
10
100
AcDbLine
 10
1121.761371041155
 20
827.2109396694386
 30
0.0
 11
1119.261371041154
 21
827.2109396694386
 31
0.0
  0
LINE
  5
222B
330
1F
100
AcDbEntity
  8
10
100
AcDbLine
 10
1121.761371041155
 20
812.2109396694385
 30
0.0
 11
1119.261371041154
 21
812.2109396694385
 31
0.0
  0
LINE
  5
222C
330
1F
100
AcDbEntity
  8
10
100
AcDbLine
 10
1116.761371041155
 20
827.2109396694386
 30
0.0
 11
1114.261371041154
 21
827.2109396694386
 31
0.0
  0
LINE
  5
222D
330
1F
100
AcDbEntity
  8
10
100
AcDbLine
 10
1116.761371041155
 20
812.2109396694385
 30
0.0
 11
1114.261371041154
 21
812.2109396694385
 31
0.0
  0
LINE
  5
222E
330
1F
100
AcDbEntity
  8
10
100
AcDbLine
 10
1126.761371041155
 20
827.2109396694386
 30
0.0
 11
1124.261371041154
 21
827.2109396694386
 31
0.0
  0
LINE
  5
222F
330
1F
100
AcDbEntity
  8
10
100
AcDbLine
 10
1126.761371041155
 20
812.2109396694385
 30
0.0
 11
1124.261371041154
 21
812.2109396694385
 31
0.0
  0
LINE
  5
2230
330
1F
100
AcDbEntity
  8
10
100
AcDbLine
 10
1101.761371041154
 20
877.2109396694386
 30
0.0
 11
1099.261371041154
 21
877.2109396694386
 31
0.0
  0
LINE
  5
2231
330
1F
100
AcDbEntity
  8
10
100
AcDbLine
 10
1101.761371041154
 20
862.2109396694385
 30
0.0
 11
1099.261371041154
 21
862.2109396694385
 31
0.0
  0
LINE
  5
2232
330
1F
100
AcDbEntity
  8
10
100
AcDbLine
 10
1111.761371041154
 20
877.2109396694386
 30
0.0
 11
1109.261371041154
 21
877.2109396694386
 31
0.0
  0
LINE
  5
2233
330
1F
100
AcDbEntity
  8
10
100
AcDbLine
 10
1106.761371041155
 20
877.2109396694386
 30
0.0
 11
1104.261371041155
 21
877.2109396694386
 31
0.0
  0
LINE
  5
2234
330
1F
100
AcDbEntity
  8
10
100
AcDbLine
 10
1111.761371041154
 20
862.2109396694385
 30
0.0
 11
1109.261371041154
 21
862.2109396694385
 31
0.0
  0
LINE
  5
2235
330
1F
100
AcDbEntity
  8
10
100
AcDbLine
 10
1106.761371041155
 20
862.2109396694385
 30
0.0
 11
1104.261371041155
 21
862.2109396694385
 31
0.0
  0
LINE
  5
2236
330
1F
100
AcDbEntity
  8
10
100
AcDbLine
 10
1121.761371041155
 20
877.2109396694386
 30
0.0
 11
1119.261371041154
 21
877.2109396694386
 31
0.0
  0
LINE
  5
2237
330
1F
100
AcDbEntity
  8
10
100
AcDbLine
 10
1121.761371041155
 20
862.2109396694385
 30
0.0
 11
1119.261371041154
 21
862.2109396694385
 31
0.0
  0
LINE
  5
2238
330
1F
100
AcDbEntity
  8
10
100
AcDbLine
 10
1116.761371041155
 20
877.2109396694386
 30
0.0
 11
1114.261371041154
 21
877.2109396694386
 31
0.0
  0
LINE
  5
2239
330
1F
100
AcDbEntity
  8
10
100
AcDbLine
 10
1116.761371041155
 20
862.2109396694385
 30
0.0
 11
1114.261371041154
 21
862.2109396694385
 31
0.0
  0
LINE
  5
223A
330
1F
100
AcDbEntity
  8
10
100
AcDbLine
 10
1126.761371041155
 20
877.2109396694386
 30
0.0
 11
1124.261371041154
 21
877.2109396694386
 31
0.0
  0
LINE
  5
223B
330
1F
100
AcDbEntity
  8
10
100
AcDbLine
 10
1126.761371041155
 20
862.2109396694385
 30
0.0
 11
1124.261371041154
 21
862.2109396694385
 31
0.0
  0
LINE
  5
223C
330
1F
100
AcDbEntity
  8
10
100
AcDbLine
 10
995.5113710411557
 20
1029.858563860311
 30
0.0
 11
995.5113710411557
 21
972.2833154785666
 31
0.0
  0
LINE
  5
223D
330
1F
100
AcDbEntity
  8
10
100
AcDbLine
 10
999.5113710411557
 20
1048.09714355908
 30
0.0
 11
999.5113710411557
 21
924.5845578992842
 31
0.0
  0
LINE
  5
223E
330
1F
100
AcDbEntity
  8
10
100
AcDbLine
 10
1019.511371041156
 20
1078.59714355908
 30
0.0
 11
1019.511371041156
 21
964.6452991447407
 31
0.0
  0
LINE
  5
223F
330
1F
100
AcDbEntity
  8
10
100
AcDbLine
 10
1019.011371041155
 20
1079.097143559079
 30
0.0
 11
1019.011371041155
 21
964.0360846465691
 31
0.0
  0
LINE
  5
2240
330
1F
100
AcDbEntity
  8
10
100
AcDbLine
 10
996.4113710411556
 20
1028.570939669438
 30
0.0
 11
996.4113710411556
 21
973.5709396694383
 31
0.0
  0
LINE
  5
2241
330
1F
100
AcDbEntity
  8
10
100
AcDbLine
 10
1019.511371041156
 20
924.7590952550991
 30
0.0
 11
999.5113710411557
 21
924.5845578992842
 31
0.0
  0
LINE
  5
2242
330
1F
100
AcDbEntity
  8
10
100
AcDbLine
 10
1010.511371041155
 20
917.23714355908
 30
0.0
 11
1000.011371041154
 21
917.23714355908
 31
0.0
  0
LINE
  5
2243
330
1F
100
AcDbEntity
  8
10
100
AcDbLine
 10
995.5996011412327
 20
916.2109396694383
 30
0.0
 11
1010.511371041155
 21
916.2109396694383
 31
0.0
  0
LINE
  5
2244
330
1F
100
AcDbEntity
  8
10
100
AcDbLine
 10
999.5113710411557
 20
924.5845578992842
 30
0.0
 11
999.5113710411557
 21
917.7371435590801
 31
0.0
  0
ARC
  5
2245
330
1F
100
AcDbEntity
  8
10
100
AcDbCircle
 10
1000.011371041154
 20
917.7371435590801
 30
0.0
 40
0.5000000000000001
100
AcDbArc
 50
180.0
 51
270.0
  0
LINE
  5
2246
330
1F
100
AcDbEntity
  8
10
100
AcDbLine
 10
1000.211371041155
 20
911.4109396694386
 30
0.0
 11
1002.511371041155
 21
911.4109396694386
 31
0.0
  0
ARC
  5
2247
330
1F
100
AcDbEntity
  8
10
100
AcDbCircle
 10
1000.211371041155
 20
903.2109396694382
 30
0.0
 40
5.250000000000016
100
AcDbArc
 50
90.0
 51
120.6032946082065
  0
LINE
  5
2248
330
1F
100
AcDbEntity
  8
10
100
AcDbLine
 10
999.5113710411557
 20
924.7590952550991
 30
0.0
 11
999.5113710411557
 21
917.2590952550992
 31
0.0
  0
LINE
  5
2249
330
1F
100
AcDbEntity
  8
10
100
AcDbLine
 10
1019.511371041156
 20
924.7590952550991
 30
0.0
 11
1019.511371041156
 21
928.7590952550992
 31
0.0
  0
LINE
  5
224A
330
1F
100
AcDbEntity
  8
10
100
AcDbLine
 10
1026.761371041154
 20
927.2109396694386
 30
0.0
 11
1024.261371041154
 21
927.2109396694386
 31
0.0
  0
LINE
  5
224B
330
1F
100
AcDbEntity
  8
10
100
AcDbLine
 10
1026.761371041154
 20
912.2109396694382
 30
0.0
 11
1024.261371041154
 21
912.2109396694382
 31
0.0
  0
LINE
  5
224C
330
1F
100
AcDbEntity
  8
10
100
AcDbLine
 10
995.5113710411557
 20
972.2833154785666
 30
0.0
 11
999.5113710411557
 21
972.0736843614346
 31
0.0
  0
LINE
  5
224D
330
1F
100
AcDbEntity
  8
10
100
AcDbLine
 10
997.4132948298032
 20
972.1836398764379
 30
0.0
 11
997.4132948298032
 21
973.5709396694383
 31
0.0
  0
LINE
  5
224E
330
1F
100
AcDbEntity
  8
10
100
AcDbLine
 10
999.0113710411558
 20
972.0998882510761
 30
0.0
 11
999.0113710411558
 21
973.5709396694383
 31
0.0
  0
LINE
  5
224F
330
1F
100
AcDbEntity
  8
10
100
AcDbLine
 10
996.4113710411556
 20
973.5709396694383
 30
0.0
 11
999.5113710411557
 21
973.5709396694383
 31
0.0
  0
ARC
  5
2250
330
1F
100
AcDbEntity
  8
10
100
AcDbCircle
 10
1019.511371041156
 20
964.1452991447406
 30
0.0
 40
0.5000000000000316
100
AcDbArc
 50
90.0
 51
192.6167771362602
  0
LINE
  5
2251
330
1F
100
AcDbEntity
  8
10
100
AcDbLine
 10
1026.761371041154
 20
977.2109396694386
 30
0.0
 11
1024.261371041154
 21
977.2109396694386
 31
0.0
  0
LINE
  5
2252
330
1F
100
AcDbEntity
  8
10
100
AcDbLine
 10
1026.761371041154
 20
962.2109396694382
 30
0.0
 11
1024.261371041154
 21
962.2109396694382
 31
0.0
  0
LINE
  5
2253
330
1F
100
AcDbEntity
  8
10
100
AcDbLine
 10
1046.761371041154
 20
927.2109396694386
 30
0.0
 11
1044.261371041155
 21
927.2109396694386
 31
0.0
  0
LINE
  5
2254
330
1F
100
AcDbEntity
  8
10
100
AcDbLine
 10
1046.761371041154
 20
912.2109396694382
 30
0.0
 11
1044.261371041155
 21
912.2109396694382
 31
0.0
  0
LINE
  5
2255
330
1F
100
AcDbEntity
  8
10
100
AcDbLine
 10
1036.761371041154
 20
927.2109396694386
 30
0.0
 11
1034.261371041155
 21
927.2109396694386
 31
0.0
  0
LINE
  5
2256
330
1F
100
AcDbEntity
  8
10
100
AcDbLine
 10
1036.761371041154
 20
912.2109396694382
 30
0.0
 11
1034.261371041155
 21
912.2109396694382
 31
0.0
  0
LINE
  5
2257
330
1F
100
AcDbEntity
  8
10
100
AcDbLine
 10
1031.761371041155
 20
927.2109396694386
 30
0.0
 11
1029.261371041154
 21
927.2109396694386
 31
0.0
  0
LINE
  5
2258
330
1F
100
AcDbEntity
  8
10
100
AcDbLine
 10
1031.761371041155
 20
912.2109396694382
 30
0.0
 11
1029.261371041154
 21
912.2109396694382
 31
0.0
  0
LINE
  5
2259
330
1F
100
AcDbEntity
  8
10
100
AcDbLine
 10
1041.761371041155
 20
927.2109396694386
 30
0.0
 11
1039.261371041154
 21
927.2109396694386
 31
0.0
  0
LINE
  5
225A
330
1F
100
AcDbEntity
  8
10
100
AcDbLine
 10
1041.761371041155
 20
912.2109396694382
 30
0.0
 11
1039.261371041154
 21
912.2109396694382
 31
0.0
  0
LINE
  5
225B
330
1F
100
AcDbEntity
  8
10
100
AcDbLine
 10
1051.761371041154
 20
927.2109396694386
 30
0.0
 11
1049.261371041154
 21
927.2109396694386
 31
0.0
  0
LINE
  5
225C
330
1F
100
AcDbEntity
  8
10
100
AcDbLine
 10
1051.761371041154
 20
912.2109396694382
 30
0.0
 11
1049.261371041154
 21
912.2109396694382
 31
0.0
  0
LINE
  5
225D
330
1F
100
AcDbEntity
  8
10
100
AcDbLine
 10
1061.761371041154
 20
927.2109396694386
 30
0.0
 11
1059.261371041155
 21
927.2109396694386
 31
0.0
  0
LINE
  5
225E
330
1F
100
AcDbEntity
  8
10
100
AcDbLine
 10
1061.761371041154
 20
912.2109396694382
 30
0.0
 11
1059.261371041155
 21
912.2109396694382
 31
0.0
  0
LINE
  5
225F
330
1F
100
AcDbEntity
  8
10
100
AcDbLine
 10
1056.761371041154
 20
927.2109396694386
 30
0.0
 11
1054.261371041155
 21
927.2109396694386
 31
0.0
  0
LINE
  5
2260
330
1F
100
AcDbEntity
  8
10
100
AcDbLine
 10
1056.761371041154
 20
912.2109396694382
 30
0.0
 11
1054.261371041155
 21
912.2109396694382
 31
0.0
  0
LINE
  5
2261
330
1F
100
AcDbEntity
  8
10
100
AcDbLine
 10
1046.761371041154
 20
977.2109396694386
 30
0.0
 11
1044.261371041155
 21
977.2109396694386
 31
0.0
  0
LINE
  5
2262
330
1F
100
AcDbEntity
  8
10
100
AcDbLine
 10
1046.761371041154
 20
962.2109396694382
 30
0.0
 11
1044.261371041155
 21
962.2109396694382
 31
0.0
  0
LINE
  5
2263
330
1F
100
AcDbEntity
  8
10
100
AcDbLine
 10
1036.761371041154
 20
977.2109396694386
 30
0.0
 11
1034.261371041155
 21
977.2109396694386
 31
0.0
  0
LINE
  5
2264
330
1F
100
AcDbEntity
  8
10
100
AcDbLine
 10
1036.761371041154
 20
962.2109396694382
 30
0.0
 11
1034.261371041155
 21
962.2109396694382
 31
0.0
  0
LINE
  5
2265
330
1F
100
AcDbEntity
  8
10
100
AcDbLine
 10
1031.761371041155
 20
977.2109396694386
 30
0.0
 11
1029.261371041154
 21
977.2109396694386
 31
0.0
  0
LINE
  5
2266
330
1F
100
AcDbEntity
  8
10
100
AcDbLine
 10
1031.761371041155
 20
962.2109396694382
 30
0.0
 11
1029.261371041154
 21
962.2109396694382
 31
0.0
  0
LINE
  5
2267
330
1F
100
AcDbEntity
  8
10
100
AcDbLine
 10
1041.761371041155
 20
977.2109396694386
 30
0.0
 11
1039.261371041154
 21
977.2109396694386
 31
0.0
  0
LINE
  5
2268
330
1F
100
AcDbEntity
  8
10
100
AcDbLine
 10
1041.761371041155
 20
962.2109396694382
 30
0.0
 11
1039.261371041154
 21
962.2109396694382
 31
0.0
  0
LINE
  5
2269
330
1F
100
AcDbEntity
  8
10
100
AcDbLine
 10
1051.761371041154
 20
977.2109396694386
 30
0.0
 11
1049.261371041154
 21
977.2109396694386
 31
0.0
  0
LINE
  5
226A
330
1F
100
AcDbEntity
  8
10
100
AcDbLine
 10
1051.761371041154
 20
962.2109396694382
 30
0.0
 11
1049.261371041154
 21
962.2109396694382
 31
0.0
  0
LINE
  5
226B
330
1F
100
AcDbEntity
  8
10
100
AcDbLine
 10
1061.761371041154
 20
977.2109396694386
 30
0.0
 11
1059.261371041155
 21
977.2109396694386
 31
0.0
  0
LINE
  5
226C
330
1F
100
AcDbEntity
  8
10
100
AcDbLine
 10
1061.761371041154
 20
962.2109396694382
 30
0.0
 11
1059.261371041155
 21
962.2109396694382
 31
0.0
  0
LINE
  5
226D
330
1F
100
AcDbEntity
  8
10
100
AcDbLine
 10
1056.761371041154
 20
977.2109396694386
 30
0.0
 11
1054.261371041155
 21
977.2109396694386
 31
0.0
  0
LINE
  5
226E
330
1F
100
AcDbEntity
  8
10
100
AcDbLine
 10
1056.761371041154
 20
962.2109396694382
 30
0.0
 11
1054.261371041155
 21
962.2109396694382
 31
0.0
  0
LINE
  5
226F
330
1F
100
AcDbEntity
  8
10
100
AcDbLine
 10
996.5113710411557
 20
1066.033205275496
 30
0.0
 11
996.5113710411557
 21
1053.98515323181
 31
0.0
  0
LINE
  5
2270
330
1F
100
AcDbEntity
  8
10
100
AcDbLine
 10
999.5113710411557
 20
1107.747564750798
 30
0.0
 11
999.5113710411557
 21
1052.070939669438
 31
0.0
  0
LINE
  5
2271
330
1F
100
AcDbEntity
  8
10
100
AcDbLine
 10
997.4132948298032
 20
1028.570939669438
 30
0.0
 11
997.4132948298032
 21
1029.958239462439
 31
0.0
  0
LINE
  5
2272
330
1F
100
AcDbEntity
  8
10
100
AcDbLine
 10
999.0113710411558
 20
1028.570939669438
 30
0.0
 11
999.0113710411558
 21
1030.041991087801
 31
0.0
  0
LINE
  5
2273
330
1F
100
AcDbEntity
  8
10
100
AcDbLine
 10
995.5113710411557
 20
1029.858563860311
 30
0.0
 11
999.5113710411557
 21
1030.068194977442
 31
0.0
  0
LINE
  5
2274
330
1F
100
AcDbEntity
  8
10
100
AcDbLine
 10
996.4113710411556
 20
1028.570939669438
 30
0.0
 11
999.5113710411557
 21
1028.570939669438
 31
0.0
  0
ARC
  5
2275
330
1F
100
AcDbEntity
  8
10
100
AcDbCircle
 10
998.9255846035288
 20
1052.570939669438
 30
0.0
 40
0.9999999999999284
100
AcDbArc
 50
224.9999999999976
 51
270.0
  0
ARC
  5
2276
330
1F
100
AcDbEntity
  8
10
100
AcDbCircle
 10
997.5113710411561
 20
1053.98515323181
 30
0.0
 40
0.9999999999999971
100
AcDbArc
 50
180.0
 51
225.0000000000069
  0
LINE
  5
2277
330
1F
100
AcDbEntity
  8
10
100
AcDbLine
 10
998.2184778223423
 20
1051.863832888251
 30
0.0
 11
996.8042642599694
 21
1053.278046450625
 31
0.0
  0
LINE
  5
2278
330
1F
100
AcDbEntity
  8
10
100
AcDbLine
 10
998.9255846035288
 20
1051.570939669438
 30
0.0
 11
1000.011371041154
 21
1051.570939669438
 31
0.0
  0
ARC
  5
2279
330
1F
100
AcDbEntity
  8
10
100
AcDbCircle
 10
1000.011371041154
 20
1052.070939669438
 30
0.0
 40
0.5000000000000001
100
AcDbArc
 50
180.0
 51
270.0
  0
ARC
  5
227A
330
1F
100
AcDbEntity
  8
10
100
AcDbCircle
 10
1002.011371041156
 20
1051.070939669438
 30
0.0
 40
0.5000000000000001
100
AcDbArc
 50
0.0
 51
90.0
  0
LINE
  5
227B
330
1F
100
AcDbEntity
  8
10
100
AcDbLine
 10
1000.011371041154
 20
1051.570939669438
 30
0.0
 11
1002.011371041156
 21
1051.570939669438
 31
0.0
  0
LINE
  5
227C
330
1F
100
AcDbEntity
  8
10
100
AcDbLine
 10
999.5113710411557
 20
1058.09714355908
 30
0.0
 11
999.5113710411557
 21
1055.097143559079
 31
0.0
  0
LINE
  5
227D
330
1F
100
AcDbEntity
  8
10
100
AcDbLine
 10
999.5113710411557
 20
1055.097143559079
 30
0.0
 11
1002.011371041156
 21
1055.097143559079
 31
0.0
  0
ARC
  5
227E
330
1F
100
AcDbEntity
  8
10
100
AcDbCircle
 10
1002.011371041156
 20
1054.59714355908
 30
0.0
 40
0.5000000000000001
100
AcDbArc
 50
0.0
 51
90.0
  0
LINE
  5
227F
330
1F
100
AcDbEntity
  8
10
100
AcDbLine
 10
1002.511371041155
 20
1054.59714355908
 30
0.0
 11
1002.511371041155
 21
1048.597143559079
 31
0.0
  0
ARC
  5
2280
330
1F
100
AcDbEntity
  8
10
100
AcDbCircle
 10
1002.011371041156
 20
1048.597143559079
 30
0.0
 40
0.4999999999999915
100
AcDbArc
 50
270.0
 51
0.0
  0
LINE
  5
2281
330
1F
100
AcDbEntity
  8
10
100
AcDbLine
 10
999.5113710411557
 20
1048.09714355908
 30
0.0
 11
1002.011371041156
 21
1048.09714355908
 31
0.0
  0
LINE
  5
2282
330
1F
100
AcDbEntity
  8
10
100
AcDbLine
 10
1026.761371041154
 20
1027.210939669437
 30
0.0
 11
1024.261371041154
 21
1027.210939669437
 31
0.0
  0
LINE
  5
2283
330
1F
100
AcDbEntity
  8
10
100
AcDbLine
 10
1026.761371041154
 20
1012.210939669438
 30
0.0
 11
1024.261371041154
 21
1012.210939669438
 31
0.0
  0
ARC
  5
2284
330
1F
100
AcDbEntity
  8
10
100
AcDbCircle
 10
1001.089081634999
 20
1075.127555244
 30
0.0
 40
3.000000000000003
100
AcDbArc
 50
121.7290884710793
 51
160.3162775136983
  0
ARC
  5
2285
330
1F
100
AcDbEntity
  8
10
100
AcDbCircle
 10
1026.511371041155
 20
1066.033205275496
 30
0.0
 40
29.99999999999996
100
AcDbArc
 50
160.3162775136998
 51
180.0
  0
ARC
  5
2286
330
1F
100
AcDbEntity
  8
10
100
AcDbCircle
 10
1029.511371041156
 20
1107.747564750798
 30
0.0
 40
30.00000000000005
100
AcDbArc
 50
176.1973934261183
 51
180.0
  0
ARC
  5
2287
330
1F
100
AcDbEntity
  8
10
100
AcDbCircle
 10
1019.511371041156
 20
1079.097143559079
 30
0.0
 40
0.4999999999999973
100
AcDbArc
 50
180.0
 51
270.0
  0
ARC
  5
2288
330
1F
100
AcDbEntity
  8
10
100
AcDbCircle
 10
1019.511371041156
 20
1079.097143559079
 30
0.0
 40
0.4999999999999973
100
AcDbArc
 50
180.0
 51
270.0
  0
LINE
  5
2289
330
1F
100
AcDbEntity
  8
10
100
AcDbLine
 10
1026.761371041154
 20
1077.210939669438
 30
0.0
 11
1024.261371041154
 21
1077.210939669438
 31
0.0
  0
LINE
  5
228A
330
1F
100
AcDbEntity
  8
10
100
AcDbLine
 10
1026.761371041154
 20
1062.210939669438
 30
0.0
 11
1024.261371041154
 21
1062.210939669438
 31
0.0
  0
ARC
  5
228B
330
1F
100
AcDbEntity
  8
10
100
AcDbCircle
 10
1025.511371041154
 20
1098.460939669436
 30
0.0
 40
1.25
100
AcDbArc
 50
0.0
 51
180.0
  0
LINE
  5
228C
330
1F
100
AcDbEntity
  8
10
100
AcDbLine
 10
1046.761371041154
 20
1027.210939669437
 30
0.0
 11
1044.261371041155
 21
1027.210939669437
 31
0.0
  0
LINE
  5
228D
330
1F
100
AcDbEntity
  8
10
100
AcDbLine
 10
1046.761371041154
 20
1012.210939669438
 30
0.0
 11
1044.261371041155
 21
1012.210939669438
 31
0.0
  0
LINE
  5
228E
330
1F
100
AcDbEntity
  8
10
100
AcDbLine
 10
1036.761371041154
 20
1027.210939669437
 30
0.0
 11
1034.261371041155
 21
1027.210939669437
 31
0.0
  0
LINE
  5
228F
330
1F
100
AcDbEntity
  8
10
100
AcDbLine
 10
1036.761371041154
 20
1012.210939669438
 30
0.0
 11
1034.261371041155
 21
1012.210939669438
 31
0.0
  0
LINE
  5
2290
330
1F
100
AcDbEntity
  8
10
100
AcDbLine
 10
1031.761371041155
 20
1027.210939669437
 30
0.0
 11
1029.261371041154
 21
1027.210939669437
 31
0.0
  0
LINE
  5
2291
330
1F
100
AcDbEntity
  8
10
100
AcDbLine
 10
1031.761371041155
 20
1012.210939669438
 30
0.0
 11
1029.261371041154
 21
1012.210939669438
 31
0.0
  0
LINE
  5
2292
330
1F
100
AcDbEntity
  8
10
100
AcDbLine
 10
1041.761371041155
 20
1027.210939669437
 30
0.0
 11
1039.261371041154
 21
1027.210939669437
 31
0.0
  0
LINE
  5
2293
330
1F
100
AcDbEntity
  8
10
100
AcDbLine
 10
1041.761371041155
 20
1012.210939669438
 30
0.0
 11
1039.261371041154
 21
1012.210939669438
 31
0.0
  0
LINE
  5
2294
330
1F
100
AcDbEntity
  8
10
100
AcDbLine
 10
1051.761371041154
 20
1027.210939669437
 30
0.0
 11
1049.261371041154
 21
1027.210939669437
 31
0.0
  0
LINE
  5
2295
330
1F
100
AcDbEntity
  8
10
100
AcDbLine
 10
1051.761371041154
 20
1012.210939669438
 30
0.0
 11
1049.261371041154
 21
1012.210939669438
 31
0.0
  0
LINE
  5
2296
330
1F
100
AcDbEntity
  8
10
100
AcDbLine
 10
1061.761371041154
 20
1027.210939669437
 30
0.0
 11
1059.261371041155
 21
1027.210939669437
 31
0.0
  0
LINE
  5
2297
330
1F
100
AcDbEntity
  8
10
100
AcDbLine
 10
1061.761371041154
 20
1012.210939669438
 30
0.0
 11
1059.261371041155
 21
1012.210939669438
 31
0.0
  0
LINE
  5
2298
330
1F
100
AcDbEntity
  8
10
100
AcDbLine
 10
1056.761371041154
 20
1027.210939669437
 30
0.0
 11
1054.261371041155
 21
1027.210939669437
 31
0.0
  0
LINE
  5
2299
330
1F
100
AcDbEntity
  8
10
100
AcDbLine
 10
1056.761371041154
 20
1012.210939669438
 30
0.0
 11
1054.261371041155
 21
1012.210939669438
 31
0.0
  0
LINE
  5
229A
330
1F
100
AcDbEntity
  8
10
100
AcDbLine
 10
1046.761371041154
 20
1077.210939669438
 30
0.0
 11
1044.261371041155
 21
1077.210939669438
 31
0.0
  0
LINE
  5
229B
330
1F
100
AcDbEntity
  8
10
100
AcDbLine
 10
1046.761371041154
 20
1062.210939669438
 30
0.0
 11
1044.261371041155
 21
1062.210939669438
 31
0.0
  0
ARC
  5
229C
330
1F
100
AcDbEntity
  8
10
100
AcDbCircle
 10
1045.511371041154
 20
1098.460939669436
 30
0.0
 40
1.25
100
AcDbArc
 50
0.0
 51
180.0
  0
LINE
  5
229D
330
1F
100
AcDbEntity
  8
10
100
AcDbLine
 10
1036.761371041154
 20
1077.210939669438
 30
0.0
 11
1034.261371041155
 21
1077.210939669438
 31
0.0
  0
LINE
  5
229E
330
1F
100
AcDbEntity
  8
10
100
AcDbLine
 10
1036.761371041154
 20
1062.210939669438
 30
0.0
 11
1034.261371041155
 21
1062.210939669438
 31
0.0
  0
LINE
  5
229F
330
1F
100
AcDbEntity
  8
10
100
AcDbLine
 10
1031.761371041155
 20
1077.210939669438
 30
0.0
 11
1029.261371041154
 21
1077.210939669438
 31
0.0
  0
LINE
  5
22A0
330
1F
100
AcDbEntity
  8
10
100
AcDbLine
 10
1031.761371041155
 20
1062.210939669438
 30
0.0
 11
1029.261371041154
 21
1062.210939669438
 31
0.0
  0
LINE
  5
22A1
330
1F
100
AcDbEntity
  8
10
100
AcDbLine
 10
1041.761371041155
 20
1077.210939669438
 30
0.0
 11
1039.261371041154
 21
1077.210939669438
 31
0.0
  0
LINE
  5
22A2
330
1F
100
AcDbEntity
  8
10
100
AcDbLine
 10
1041.761371041155
 20
1062.210939669438
 30
0.0
 11
1039.261371041154
 21
1062.210939669438
 31
0.0
  0
ARC
  5
22A3
330
1F
100
AcDbEntity
  8
10
100
AcDbCircle
 10
1035.511371041154
 20
1098.460939669436
 30
0.0
 40
1.25
100
AcDbArc
 50
0.0
 51
180.0
  0
ARC
  5
22A4
330
1F
100
AcDbEntity
  8
10
100
AcDbCircle
 10
1030.511371041154
 20
1098.460939669436
 30
0.0
 40
1.25
100
AcDbArc
 50
0.0
 51
180.0
  0
ARC
  5
22A5
330
1F
100
AcDbEntity
  8
10
100
AcDbCircle
 10
1040.511371041155
 20
1098.460939669436
 30
0.0
 40
1.25
100
AcDbArc
 50
0.0
 51
180.0
  0
LINE
  5
22A6
330
1F
100
AcDbEntity
  8
10
100
AcDbLine
 10
1051.761371041154
 20
1077.210939669438
 30
0.0
 11
1049.261371041154
 21
1077.210939669438
 31
0.0
  0
LINE
  5
22A7
330
1F
100
AcDbEntity
  8
10
100
AcDbLine
 10
1051.761371041154
 20
1062.210939669438
 30
0.0
 11
1049.261371041154
 21
1062.210939669438
 31
0.0
  0
LINE
  5
22A8
330
1F
100
AcDbEntity
  8
10
100
AcDbLine
 10
1061.761371041154
 20
1077.210939669438
 30
0.0
 11
1059.261371041155
 21
1077.210939669438
 31
0.0
  0
LINE
  5
22A9
330
1F
100
AcDbEntity
  8
10
100
AcDbLine
 10
1061.761371041154
 20
1062.210939669438
 30
0.0
 11
1059.261371041155
 21
1062.210939669438
 31
0.0
  0
LINE
  5
22AA
330
1F
100
AcDbEntity
  8
10
100
AcDbLine
 10
1056.761371041154
 20
1077.210939669438
 30
0.0
 11
1054.261371041155
 21
1077.210939669438
 31
0.0
  0
LINE
  5
22AB
330
1F
100
AcDbEntity
  8
10
100
AcDbLine
 10
1056.761371041154
 20
1062.210939669438
 30
0.0
 11
1054.261371041155
 21
1062.210939669438
 31
0.0
  0
ARC
  5
22AC
330
1F
100
AcDbEntity
  8
10
100
AcDbCircle
 10
1050.511371041155
 20
1098.460939669436
 30
0.0
 40
1.25
100
AcDbArc
 50
0.0
 51
180.0
  0
ARC
  5
22AD
330
1F
100
AcDbEntity
  8
10
100
AcDbCircle
 10
1060.511371041154
 20
1098.460939669436
 30
0.0
 40
1.25
100
AcDbArc
 50
0.0
 51
180.0
  0
ARC
  5
22AE
330
1F
100
AcDbEntity
  8
10
100
AcDbCircle
 10
1055.511371041154
 20
1098.460939669436
 30
0.0
 40
1.25
100
AcDbArc
 50
0.0
 51
180.0
  0
LINE
  5
22AF
330
1F
100
AcDbEntity
  8
10
100
AcDbLine
 10
1096.761371041155
 20
927.2109396694386
 30
0.0
 11
1094.261371041155
 21
927.2109396694386
 31
0.0
  0
LINE
  5
22B0
330
1F
100
AcDbEntity
  8
10
100
AcDbLine
 10
1096.761371041155
 20
912.2109396694382
 30
0.0
 11
1094.261371041155
 21
912.2109396694382
 31
0.0
  0
LINE
  5
22B1
330
1F
100
AcDbEntity
  8
10
100
AcDbLine
 10
1096.761371041155
 20
977.2109396694386
 30
0.0
 11
1094.261371041155
 21
977.2109396694386
 31
0.0
  0
LINE
  5
22B2
330
1F
100
AcDbEntity
  8
10
100
AcDbLine
 10
1096.761371041155
 20
962.2109396694382
 30
0.0
 11
1094.261371041155
 21
962.2109396694382
 31
0.0
  0
LINE
  5
22B3
330
1F
100
AcDbEntity
  8
10
100
AcDbLine
 10
1071.761371041155
 20
927.2109396694386
 30
0.0
 11
1069.261371041154
 21
927.2109396694386
 31
0.0
  0
LINE
  5
22B4
330
1F
100
AcDbEntity
  8
10
100
AcDbLine
 10
1071.761371041155
 20
912.2109396694382
 30
0.0
 11
1069.261371041154
 21
912.2109396694382
 31
0.0
  0
LINE
  5
22B5
330
1F
100
AcDbEntity
  8
10
100
AcDbLine
 10
1066.761371041154
 20
927.2109396694386
 30
0.0
 11
1064.261371041155
 21
927.2109396694386
 31
0.0
  0
LINE
  5
22B6
330
1F
100
AcDbEntity
  8
10
100
AcDbLine
 10
1066.761371041154
 20
912.2109396694382
 30
0.0
 11
1064.261371041155
 21
912.2109396694382
 31
0.0
  0
LINE
  5
22B7
330
1F
100
AcDbEntity
  8
10
100
AcDbLine
 10
1076.761371041154
 20
927.2109396694386
 30
0.0
 11
1074.261371041154
 21
927.2109396694386
 31
0.0
  0
LINE
  5
22B8
330
1F
100
AcDbEntity
  8
10
100
AcDbLine
 10
1076.761371041154
 20
912.2109396694382
 30
0.0
 11
1074.261371041154
 21
912.2109396694382
 31
0.0
  0
LINE
  5
22B9
330
1F
100
AcDbEntity
  8
10
100
AcDbLine
 10
1086.761371041155
 20
927.2109396694386
 30
0.0
 11
1084.261371041155
 21
927.2109396694386
 31
0.0
  0
LINE
  5
22BA
330
1F
100
AcDbEntity
  8
10
100
AcDbLine
 10
1086.761371041155
 20
912.2109396694382
 30
0.0
 11
1084.261371041155
 21
912.2109396694382
 31
0.0
  0
LINE
  5
22BB
330
1F
100
AcDbEntity
  8
10
100
AcDbLine
 10
1081.761371041155
 20
927.2109396694386
 30
0.0
 11
1079.261371041154
 21
927.2109396694386
 31
0.0
  0
LINE
  5
22BC
330
1F
100
AcDbEntity
  8
10
100
AcDbLine
 10
1081.761371041155
 20
912.2109396694382
 30
0.0
 11
1079.261371041154
 21
912.2109396694382
 31
0.0
  0
LINE
  5
22BD
330
1F
100
AcDbEntity
  8
10
100
AcDbLine
 10
1091.761371041154
 20
927.2109396694386
 30
0.0
 11
1089.261371041154
 21
927.2109396694386
 31
0.0
  0
LINE
  5
22BE
330
1F
100
AcDbEntity
  8
10
100
AcDbLine
 10
1091.761371041154
 20
912.2109396694382
 30
0.0
 11
1089.261371041154
 21
912.2109396694382
 31
0.0
  0
LINE
  5
22BF
330
1F
100
AcDbEntity
  8
10
100
AcDbLine
 10
1071.761371041155
 20
977.2109396694386
 30
0.0
 11
1069.261371041154
 21
977.2109396694386
 31
0.0
  0
LINE
  5
22C0
330
1F
100
AcDbEntity
  8
10
100
AcDbLine
 10
1071.761371041155
 20
962.2109396694382
 30
0.0
 11
1069.261371041154
 21
962.2109396694382
 31
0.0
  0
LINE
  5
22C1
330
1F
100
AcDbEntity
  8
10
100
AcDbLine
 10
1066.761371041154
 20
977.2109396694386
 30
0.0
 11
1064.261371041155
 21
977.2109396694386
 31
0.0
  0
LINE
  5
22C2
330
1F
100
AcDbEntity
  8
10
100
AcDbLine
 10
1066.761371041154
 20
962.2109396694382
 30
0.0
 11
1064.261371041155
 21
962.2109396694382
 31
0.0
  0
LINE
  5
22C3
330
1F
100
AcDbEntity
  8
10
100
AcDbLine
 10
1076.761371041154
 20
977.2109396694386
 30
0.0
 11
1074.261371041154
 21
977.2109396694386
 31
0.0
  0
LINE
  5
22C4
330
1F
100
AcDbEntity
  8
10
100
AcDbLine
 10
1076.761371041154
 20
962.2109396694382
 30
0.0
 11
1074.261371041154
 21
962.2109396694382
 31
0.0
  0
LINE
  5
22C5
330
1F
100
AcDbEntity
  8
10
100
AcDbLine
 10
1086.761371041155
 20
977.2109396694386
 30
0.0
 11
1084.261371041155
 21
977.2109396694386
 31
0.0
  0
LINE
  5
22C6
330
1F
100
AcDbEntity
  8
10
100
AcDbLine
 10
1086.761371041155
 20
962.2109396694382
 30
0.0
 11
1084.261371041155
 21
962.2109396694382
 31
0.0
  0
LINE
  5
22C7
330
1F
100
AcDbEntity
  8
10
100
AcDbLine
 10
1081.761371041155
 20
977.2109396694386
 30
0.0
 11
1079.261371041154
 21
977.2109396694386
 31
0.0
  0
LINE
  5
22C8
330
1F
100
AcDbEntity
  8
10
100
AcDbLine
 10
1081.761371041155
 20
962.2109396694382
 30
0.0
 11
1079.261371041154
 21
962.2109396694382
 31
0.0
  0
LINE
  5
22C9
330
1F
100
AcDbEntity
  8
10
100
AcDbLine
 10
1091.761371041154
 20
977.2109396694386
 30
0.0
 11
1089.261371041154
 21
977.2109396694386
 31
0.0
  0
LINE
  5
22CA
330
1F
100
AcDbEntity
  8
10
100
AcDbLine
 10
1091.761371041154
 20
962.2109396694382
 30
0.0
 11
1089.261371041154
 21
962.2109396694382
 31
0.0
  0
LINE
  5
22CB
330
1F
100
AcDbEntity
  8
10
100
AcDbLine
 10
1101.761371041154
 20
927.2109396694386
 30
0.0
 11
1099.261371041154
 21
927.2109396694386
 31
0.0
  0
LINE
  5
22CC
330
1F
100
AcDbEntity
  8
10
100
AcDbLine
 10
1101.761371041154
 20
912.2109396694382
 30
0.0
 11
1099.261371041154
 21
912.2109396694382
 31
0.0
  0
LINE
  5
22CD
330
1F
100
AcDbEntity
  8
10
100
AcDbLine
 10
1111.761371041154
 20
927.2109396694386
 30
0.0
 11
1109.261371041154
 21
927.2109396694386
 31
0.0
  0
LINE
  5
22CE
330
1F
100
AcDbEntity
  8
10
100
AcDbLine
 10
1111.761371041154
 20
912.2109396694382
 30
0.0
 11
1109.261371041154
 21
912.2109396694382
 31
0.0
  0
LINE
  5
22CF
330
1F
100
AcDbEntity
  8
10
100
AcDbLine
 10
1106.761371041155
 20
927.2109396694386
 30
0.0
 11
1104.261371041155
 21
927.2109396694386
 31
0.0
  0
LINE
  5
22D0
330
1F
100
AcDbEntity
  8
10
100
AcDbLine
 10
1106.761371041155
 20
912.2109396694382
 30
0.0
 11
1104.261371041155
 21
912.2109396694382
 31
0.0
  0
LINE
  5
22D1
330
1F
100
AcDbEntity
  8
10
100
AcDbLine
 10
1121.761371041155
 20
927.2109396694386
 30
0.0
 11
1119.261371041154
 21
927.2109396694386
 31
0.0
  0
LINE
  5
22D2
330
1F
100
AcDbEntity
  8
10
100
AcDbLine
 10
1121.761371041155
 20
912.2109396694382
 30
0.0
 11
1119.261371041154
 21
912.2109396694382
 31
0.0
  0
LINE
  5
22D3
330
1F
100
AcDbEntity
  8
10
100
AcDbLine
 10
1116.761371041155
 20
912.2109396694382
 30
0.0
 11
1114.261371041154
 21
912.2109396694382
 31
0.0
  0
LINE
  5
22D4
330
1F
100
AcDbEntity
  8
10
100
AcDbLine
 10
1116.761371041155
 20
927.2109396694386
 30
0.0
 11
1114.261371041154
 21
927.2109396694386
 31
0.0
  0
LINE
  5
22D5
330
1F
100
AcDbEntity
  8
10
100
AcDbLine
 10
1126.761371041155
 20
927.2109396694386
 30
0.0
 11
1124.261371041154
 21
927.2109396694386
 31
0.0
  0
LINE
  5
22D6
330
1F
100
AcDbEntity
  8
10
100
AcDbLine
 10
1126.761371041155
 20
912.2109396694382
 30
0.0
 11
1124.261371041154
 21
912.2109396694382
 31
0.0
  0
LINE
  5
22D7
330
1F
100
AcDbEntity
  8
10
100
AcDbLine
 10
1101.761371041154
 20
977.2109396694386
 30
0.0
 11
1099.261371041154
 21
977.2109396694386
 31
0.0
  0
LINE
  5
22D8
330
1F
100
AcDbEntity
  8
10
100
AcDbLine
 10
1101.761371041154
 20
962.2109396694382
 30
0.0
 11
1099.261371041154
 21
962.2109396694382
 31
0.0
  0
LINE
  5
22D9
330
1F
100
AcDbEntity
  8
10
100
AcDbLine
 10
1111.761371041154
 20
977.2109396694386
 30
0.0
 11
1109.261371041154
 21
977.2109396694386
 31
0.0
  0
LINE
  5
22DA
330
1F
100
AcDbEntity
  8
10
100
AcDbLine
 10
1111.761371041154
 20
962.2109396694382
 30
0.0
 11
1109.261371041154
 21
962.2109396694382
 31
0.0
  0
LINE
  5
22DB
330
1F
100
AcDbEntity
  8
10
100
AcDbLine
 10
1106.761371041155
 20
977.2109396694386
 30
0.0
 11
1104.261371041155
 21
977.2109396694386
 31
0.0
  0
LINE
  5
22DC
330
1F
100
AcDbEntity
  8
10
100
AcDbLine
 10
1106.761371041155
 20
962.2109396694382
 30
0.0
 11
1104.261371041155
 21
962.2109396694382
 31
0.0
  0
LINE
  5
22DD
330
1F
100
AcDbEntity
  8
10
100
AcDbLine
 10
1121.761371041155
 20
977.2109396694386
 30
0.0
 11
1119.261371041154
 21
977.2109396694386
 31
0.0
  0
LINE
  5
22DE
330
1F
100
AcDbEntity
  8
10
100
AcDbLine
 10
1121.761371041155
 20
962.2109396694382
 30
0.0
 11
1119.261371041154
 21
962.2109396694382
 31
0.0
  0
LINE
  5
22DF
330
1F
100
AcDbEntity
  8
10
100
AcDbLine
 10
1116.761371041155
 20
977.2109396694386
 30
0.0
 11
1114.261371041154
 21
977.2109396694386
 31
0.0
  0
LINE
  5
22E0
330
1F
100
AcDbEntity
  8
10
100
AcDbLine
 10
1116.761371041155
 20
962.2109396694382
 30
0.0
 11
1114.261371041154
 21
962.2109396694382
 31
0.0
  0
LINE
  5
22E1
330
1F
100
AcDbEntity
  8
10
100
AcDbLine
 10
1126.761371041155
 20
977.2109396694386
 30
0.0
 11
1124.261371041154
 21
977.2109396694386
 31
0.0
  0
LINE
  5
22E2
330
1F
100
AcDbEntity
  8
10
100
AcDbLine
 10
1126.761371041155
 20
962.2109396694382
 30
0.0
 11
1124.261371041154
 21
962.2109396694382
 31
0.0
  0
LINE
  5
22E3
330
1F
100
AcDbEntity
  8
10
100
AcDbLine
 10
1096.761371041155
 20
1077.210939669438
 30
0.0
 11
1094.261371041155
 21
1077.210939669438
 31
0.0
  0
LINE
  5
22E4
330
1F
100
AcDbEntity
  8
10
100
AcDbLine
 10
1096.761371041155
 20
1062.210939669438
 30
0.0
 11
1094.261371041155
 21
1062.210939669438
 31
0.0
  0
ARC
  5
22E5
330
1F
100
AcDbEntity
  8
10
100
AcDbCircle
 10
1095.511371041155
 20
1098.460939669436
 30
0.0
 40
1.25
100
AcDbArc
 50
0.0
 51
180.0
  0
LINE
  5
22E6
330
1F
100
AcDbEntity
  8
10
100
AcDbLine
 10
1096.761371041155
 20
1027.210939669437
 30
0.0
 11
1094.261371041155
 21
1027.210939669437
 31
0.0
  0
LINE
  5
22E7
330
1F
100
AcDbEntity
  8
10
100
AcDbLine
 10
1096.761371041155
 20
1012.210939669438
 30
0.0
 11
1094.261371041155
 21
1012.210939669438
 31
0.0
  0
LINE
  5
22E8
330
1F
100
AcDbEntity
  8
10
100
AcDbLine
 10
1071.761371041155
 20
1027.210939669437
 30
0.0
 11
1069.261371041154
 21
1027.210939669437
 31
0.0
  0
LINE
  5
22E9
330
1F
100
AcDbEntity
  8
10
100
AcDbLine
 10
1071.761371041155
 20
1012.210939669438
 30
0.0
 11
1069.261371041154
 21
1012.210939669438
 31
0.0
  0
LINE
  5
22EA
330
1F
100
AcDbEntity
  8
10
100
AcDbLine
 10
1066.761371041154
 20
1027.210939669437
 30
0.0
 11
1064.261371041155
 21
1027.210939669437
 31
0.0
  0
LINE
  5
22EB
330
1F
100
AcDbEntity
  8
10
100
AcDbLine
 10
1066.761371041154
 20
1012.210939669438
 30
0.0
 11
1064.261371041155
 21
1012.210939669438
 31
0.0
  0
LINE
  5
22EC
330
1F
100
AcDbEntity
  8
10
100
AcDbLine
 10
1076.761371041154
 20
1027.210939669437
 30
0.0
 11
1074.261371041154
 21
1027.210939669437
 31
0.0
  0
LINE
  5
22ED
330
1F
100
AcDbEntity
  8
10
100
AcDbLine
 10
1076.761371041154
 20
1012.210939669438
 30
0.0
 11
1074.261371041154
 21
1012.210939669438
 31
0.0
  0
LINE
  5
22EE
330
1F
100
AcDbEntity
  8
10
100
AcDbLine
 10
1086.761371041155
 20
1027.210939669437
 30
0.0
 11
1084.261371041155
 21
1027.210939669437
 31
0.0
  0
LINE
  5
22EF
330
1F
100
AcDbEntity
  8
10
100
AcDbLine
 10
1086.761371041155
 20
1012.210939669438
 30
0.0
 11
1084.261371041155
 21
1012.210939669438
 31
0.0
  0
LINE
  5
22F0
330
1F
100
AcDbEntity
  8
10
100
AcDbLine
 10
1081.761371041155
 20
1027.210939669437
 30
0.0
 11
1079.261371041154
 21
1027.210939669437
 31
0.0
  0
LINE
  5
22F1
330
1F
100
AcDbEntity
  8
10
100
AcDbLine
 10
1081.761371041155
 20
1012.210939669438
 30
0.0
 11
1079.261371041154
 21
1012.210939669438
 31
0.0
  0
LINE
  5
22F2
330
1F
100
AcDbEntity
  8
10
100
AcDbLine
 10
1091.761371041154
 20
1027.210939669437
 30
0.0
 11
1089.261371041154
 21
1027.210939669437
 31
0.0
  0
LINE
  5
22F3
330
1F
100
AcDbEntity
  8
10
100
AcDbLine
 10
1091.761371041154
 20
1012.210939669438
 30
0.0
 11
1089.261371041154
 21
1012.210939669438
 31
0.0
  0
LINE
  5
22F4
330
1F
100
AcDbEntity
  8
10
100
AcDbLine
 10
1071.761371041155
 20
1077.210939669438
 30
0.0
 11
1069.261371041154
 21
1077.210939669438
 31
0.0
  0
LINE
  5
22F5
330
1F
100
AcDbEntity
  8
10
100
AcDbLine
 10
1071.761371041155
 20
1062.210939669438
 30
0.0
 11
1069.261371041154
 21
1062.210939669438
 31
0.0
  0
LINE
  5
22F6
330
1F
100
AcDbEntity
  8
10
100
AcDbLine
 10
1066.761371041154
 20
1077.210939669438
 30
0.0
 11
1064.261371041155
 21
1077.210939669438
 31
0.0
  0
LINE
  5
22F7
330
1F
100
AcDbEntity
  8
10
100
AcDbLine
 10
1066.761371041154
 20
1062.210939669438
 30
0.0
 11
1064.261371041155
 21
1062.210939669438
 31
0.0
  0
LINE
  5
22F8
330
1F
100
AcDbEntity
  8
10
100
AcDbLine
 10
1076.761371041154
 20
1077.210939669438
 30
0.0
 11
1074.261371041154
 21
1077.210939669438
 31
0.0
  0
LINE
  5
22F9
330
1F
100
AcDbEntity
  8
10
100
AcDbLine
 10
1076.761371041154
 20
1062.210939669438
 30
0.0
 11
1074.261371041154
 21
1062.210939669438
 31
0.0
  0
ARC
  5
22FA
330
1F
100
AcDbEntity
  8
10
100
AcDbCircle
 10
1070.511371041154
 20
1098.460939669436
 30
0.0
 40
1.25
100
AcDbArc
 50
0.0
 51
180.0
  0
ARC
  5
22FB
330
1F
100
AcDbEntity
  8
10
100
AcDbCircle
 10
1065.511371041155
 20
1098.460939669436
 30
0.0
 40
1.25
100
AcDbArc
 50
0.0
 51
180.0
  0
ARC
  5
22FC
330
1F
100
AcDbEntity
  8
10
100
AcDbCircle
 10
1075.511371041155
 20
1098.460939669436
 30
0.0
 40
1.25
100
AcDbArc
 50
0.0
 51
180.0
  0
LINE
  5
22FD
330
1F
100
AcDbEntity
  8
10
100
AcDbLine
 10
1086.761371041155
 20
1077.210939669438
 30
0.0
 11
1084.261371041155
 21
1077.210939669438
 31
0.0
  0
LINE
  5
22FE
330
1F
100
AcDbEntity
  8
10
100
AcDbLine
 10
1086.761371041155
 20
1062.210939669438
 30
0.0
 11
1084.261371041155
 21
1062.210939669438
 31
0.0
  0
LINE
  5
22FF
330
1F
100
AcDbEntity
  8
10
100
AcDbLine
 10
1081.761371041155
 20
1077.210939669438
 30
0.0
 11
1079.261371041154
 21
1077.210939669438
 31
0.0
  0
LINE
  5
2300
330
1F
100
AcDbEntity
  8
10
100
AcDbLine
 10
1081.761371041155
 20
1062.210939669438
 30
0.0
 11
1079.261371041154
 21
1062.210939669438
 31
0.0
  0
LINE
  5
2301
330
1F
100
AcDbEntity
  8
10
100
AcDbLine
 10
1091.761371041154
 20
1077.210939669438
 30
0.0
 11
1089.261371041154
 21
1077.210939669438
 31
0.0
  0
LINE
  5
2302
330
1F
100
AcDbEntity
  8
10
100
AcDbLine
 10
1091.761371041154
 20
1062.210939669438
 30
0.0
 11
1089.261371041154
 21
1062.210939669438
 31
0.0
  0
ARC
  5
2303
330
1F
100
AcDbEntity
  8
10
100
AcDbCircle
 10
1085.511371041155
 20
1098.460939669436
 30
0.0
 40
1.25
100
AcDbArc
 50
0.0
 51
180.0
  0
ARC
  5
2304
330
1F
100
AcDbEntity
  8
10
100
AcDbCircle
 10
1080.511371041154
 20
1098.460939669436
 30
0.0
 40
1.25
100
AcDbArc
 50
0.0
 51
180.0
  0
ARC
  5
2305
330
1F
100
AcDbEntity
  8
10
100
AcDbCircle
 10
1090.511371041155
 20
1098.460939669436
 30
0.0
 40
1.25
100
AcDbArc
 50
0.0
 51
180.0
  0
LINE
  5
2306
330
1F
100
AcDbEntity
  8
10
100
AcDbLine
 10
1101.761371041154
 20
1027.210939669437
 30
0.0
 11
1099.261371041154
 21
1027.210939669437
 31
0.0
  0
LINE
  5
2307
330
1F
100
AcDbEntity
  8
10
100
AcDbLine
 10
1101.761371041154
 20
1012.210939669438
 30
0.0
 11
1099.261371041154
 21
1012.210939669438
 31
0.0
  0
LINE
  5
2308
330
1F
100
AcDbEntity
  8
10
100
AcDbLine
 10
1111.761371041154
 20
1027.210939669437
 30
0.0
 11
1109.261371041154
 21
1027.210939669437
 31
0.0
  0
LINE
  5
2309
330
1F
100
AcDbEntity
  8
10
100
AcDbLine
 10
1111.761371041154
 20
1012.210939669438
 30
0.0
 11
1109.261371041154
 21
1012.210939669438
 31
0.0
  0
LINE
  5
230A
330
1F
100
AcDbEntity
  8
10
100
AcDbLine
 10
1106.761371041155
 20
1027.210939669437
 30
0.0
 11
1104.261371041155
 21
1027.210939669437
 31
0.0
  0
LINE
  5
230B
330
1F
100
AcDbEntity
  8
10
100
AcDbLine
 10
1106.761371041155
 20
1012.210939669438
 30
0.0
 11
1104.261371041155
 21
1012.210939669438
 31
0.0
  0
LINE
  5
230C
330
1F
100
AcDbEntity
  8
10
100
AcDbLine
 10
1121.761371041155
 20
1027.210939669437
 30
0.0
 11
1119.261371041154
 21
1027.210939669437
 31
0.0
  0
LINE
  5
230D
330
1F
100
AcDbEntity
  8
10
100
AcDbLine
 10
1121.761371041155
 20
1012.210939669438
 30
0.0
 11
1119.261371041154
 21
1012.210939669438
 31
0.0
  0
LINE
  5
230E
330
1F
100
AcDbEntity
  8
10
100
AcDbLine
 10
1116.761371041155
 20
1027.210939669437
 30
0.0
 11
1114.261371041154
 21
1027.210939669437
 31
0.0
  0
LINE
  5
230F
330
1F
100
AcDbEntity
  8
10
100
AcDbLine
 10
1116.761371041155
 20
1012.210939669438
 30
0.0
 11
1114.261371041154
 21
1012.210939669438
 31
0.0
  0
LINE
  5
2310
330
1F
100
AcDbEntity
  8
10
100
AcDbLine
 10
1126.761371041155
 20
1027.210939669437
 30
0.0
 11
1124.261371041154
 21
1027.210939669437
 31
0.0
  0
LINE
  5
2311
330
1F
100
AcDbEntity
  8
10
100
AcDbLine
 10
1126.761371041155
 20
1012.210939669438
 30
0.0
 11
1124.261371041154
 21
1012.210939669438
 31
0.0
  0
LINE
  5
2312
330
1F
100
AcDbEntity
  8
10
100
AcDbLine
 10
1101.761371041154
 20
1077.210939669438
 30
0.0
 11
1099.261371041154
 21
1077.210939669438
 31
0.0
  0
LINE
  5
2313
330
1F
100
AcDbEntity
  8
10
100
AcDbLine
 10
1101.761371041154
 20
1062.210939669438
 30
0.0
 11
1099.261371041154
 21
1062.210939669438
 31
0.0
  0
LINE
  5
2314
330
1F
100
AcDbEntity
  8
10
100
AcDbLine
 10
1111.761371041154
 20
1077.210939669438
 30
0.0
 11
1109.261371041154
 21
1077.210939669438
 31
0.0
  0
LINE
  5
2315
330
1F
100
AcDbEntity
  8
10
100
AcDbLine
 10
1111.761371041154
 20
1062.210939669438
 30
0.0
 11
1109.261371041154
 21
1062.210939669438
 31
0.0
  0
LINE
  5
2316
330
1F
100
AcDbEntity
  8
10
100
AcDbLine
 10
1106.761371041155
 20
1077.210939669438
 30
0.0
 11
1104.261371041155
 21
1077.210939669438
 31
0.0
  0
LINE
  5
2317
330
1F
100
AcDbEntity
  8
10
100
AcDbLine
 10
1106.761371041155
 20
1062.210939669438
 30
0.0
 11
1104.261371041155
 21
1062.210939669438
 31
0.0
  0
ARC
  5
2318
330
1F
100
AcDbEntity
  8
10
100
AcDbCircle
 10
1100.511371041154
 20
1098.460939669436
 30
0.0
 40
1.25
100
AcDbArc
 50
0.0
 51
180.0
  0
ARC
  5
2319
330
1F
100
AcDbEntity
  8
10
100
AcDbCircle
 10
1110.511371041154
 20
1098.460939669436
 30
0.0
 40
1.25
100
AcDbArc
 50
0.0
 51
180.0
  0
ARC
  5
231A
330
1F
100
AcDbEntity
  8
10
100
AcDbCircle
 10
1105.511371041154
 20
1098.460939669436
 30
0.0
 40
1.25
100
AcDbArc
 50
0.0
 51
180.0
  0
LINE
  5
231B
330
1F
100
AcDbEntity
  8
10
100
AcDbLine
 10
1121.761371041155
 20
1077.210939669438
 30
0.0
 11
1119.261371041154
 21
1077.210939669438
 31
0.0
  0
LINE
  5
231C
330
1F
100
AcDbEntity
  8
10
100
AcDbLine
 10
1121.761371041155
 20
1062.210939669438
 30
0.0
 11
1119.261371041154
 21
1062.210939669438
 31
0.0
  0
LINE
  5
231D
330
1F
100
AcDbEntity
  8
10
100
AcDbLine
 10
1116.761371041155
 20
1077.210939669438
 30
0.0
 11
1114.261371041154
 21
1077.210939669438
 31
0.0
  0
LINE
  5
231E
330
1F
100
AcDbEntity
  8
10
100
AcDbLine
 10
1116.761371041155
 20
1062.210939669438
 30
0.0
 11
1114.261371041154
 21
1062.210939669438
 31
0.0
  0
LINE
  5
231F
330
1F
100
AcDbEntity
  8
10
100
AcDbLine
 10
1126.761371041155
 20
1077.210939669438
 30
0.0
 11
1124.261371041154
 21
1077.210939669438
 31
0.0
  0
LINE
  5
2320
330
1F
100
AcDbEntity
  8
10
100
AcDbLine
 10
1126.761371041155
 20
1062.210939669438
 30
0.0
 11
1124.261371041154
 21
1062.210939669438
 31
0.0
  0
ARC
  5
2321
330
1F
100
AcDbEntity
  8
10
100
AcDbCircle
 10
1120.511371041154
 20
1098.460939669436
 30
0.0
 40
1.25
100
AcDbArc
 50
0.0
 51
180.0
  0
ARC
  5
2322
330
1F
100
AcDbEntity
  8
10
100
AcDbCircle
 10
1115.511371041155
 20
1098.460939669436
 30
0.0
 40
1.25
100
AcDbArc
 50
0.0
 51
180.0
  0
ARC
  5
2323
330
1F
100
AcDbEntity
  8
10
100
AcDbCircle
 10
1125.511371041155
 20
1098.460939669436
 30
0.0
 40
1.25
100
AcDbArc
 50
0.0
 51
180.0
  0
LINE
  5
2324
330
1F
100
AcDbEntity
  8
10
100
AcDbLine
 10
1159.261371041155
 20
790.9609396694407
 30
0.0
 11
1159.261371041155
 21
1098.460939669436
 31
0.0
  0
LINE
  5
2325
330
1F
100
AcDbEntity
  8
10
100
AcDbLine
 10
1161.761371041154
 20
790.9609396694407
 30
0.0
 11
1161.761371041154
 21
1098.460939669436
 31
0.0
  0
LINE
  5
2326
330
1F
100
AcDbEntity
  8
10
100
AcDbLine
 10
1154.261371041154
 20
790.9609396694407
 30
0.0
 11
1154.261371041154
 21
1098.460939669436
 31
0.0
  0
LINE
  5
2327
330
1F
100
AcDbEntity
  8
10
100
AcDbLine
 10
1156.761371041155
 20
790.9609396694407
 30
0.0
 11
1156.761371041155
 21
1098.460939669436
 31
0.0
  0
LINE
  5
2328
330
1F
100
AcDbEntity
  8
10
100
AcDbLine
 10
1149.261371041154
 20
790.9609396694407
 30
0.0
 11
1149.261371041154
 21
1098.460939669436
 31
0.0
  0
LINE
  5
2329
330
1F
100
AcDbEntity
  8
10
100
AcDbLine
 10
1151.761371041154
 20
790.9609396694407
 30
0.0
 11
1151.761371041154
 21
1098.460939669436
 31
0.0
  0
LINE
  5
232A
330
1F
100
AcDbEntity
  8
10
100
AcDbLine
 10
1144.261371041155
 20
790.9609396694407
 30
0.0
 11
1144.261371041155
 21
1098.460939669436
 31
0.0
  0
LINE
  5
232B
330
1F
100
AcDbEntity
  8
10
100
AcDbLine
 10
1146.761371041155
 20
790.9609396694407
 30
0.0
 11
1146.761371041155
 21
1098.460939669436
 31
0.0
  0
LINE
  5
232C
330
1F
100
AcDbEntity
  8
10
100
AcDbLine
 10
1139.261371041154
 20
790.9609396694407
 30
0.0
 11
1139.261371041154
 21
1098.460939669436
 31
0.0
  0
LINE
  5
232D
330
1F
100
AcDbEntity
  8
10
100
AcDbLine
 10
1141.761371041154
 20
790.9609396694407
 30
0.0
 11
1141.761371041154
 21
1098.460939669436
 31
0.0
  0
LINE
  5
232E
330
1F
100
AcDbEntity
  8
10
100
AcDbLine
 10
1134.261371041155
 20
790.9609396694407
 30
0.0
 11
1134.261371041155
 21
1098.460939669436
 31
0.0
  0
LINE
  5
232F
330
1F
100
AcDbEntity
  8
10
100
AcDbLine
 10
1136.761371041154
 20
790.9609396694407
 30
0.0
 11
1136.761371041154
 21
1098.460939669436
 31
0.0
  0
LINE
  5
2330
330
1F
100
AcDbEntity
  8
10
100
AcDbLine
 10
1131.761371041154
 20
790.9609396694407
 30
0.0
 11
1131.761371041154
 21
1098.460939669436
 31
0.0
  0
LINE
  5
2331
330
1F
100
AcDbEntity
  8
10
100
AcDbLine
 10
1197.106955453427
 20
778.0109396694313
 30
0.0
 11
1192.906955453427
 21
782.210939669431
 31
0.0
  0
LINE
  5
2332
330
1F
100
AcDbEntity
  8
10
100
AcDbLine
 10
1185.511371041156
 20
814.210939669431
 30
0.0
 11
1185.511371041156
 21
788.2109396694311
 31
0.0
  0
LINE
  5
2333
330
1F
100
AcDbEntity
  8
10
100
AcDbLine
 10
1189.511371041156
 20
814.210939669431
 30
0.0
 11
1189.511371041156
 21
788.2109396694311
 31
0.0
  0
LINE
  5
2334
330
1F
100
AcDbEntity
  8
10
100
AcDbLine
 10
1180.161371041154
 20
820.2109396694311
 30
0.0
 11
1180.161371041154
 21
801.2439634101328
 31
0.0
  0
LINE
  5
2335
330
1F
100
AcDbEntity
  8
12
 48
3.0
100
AcDbLine
 10
1162.511371041154
 20
764.7109396694385
 30
0.0
 11
1186.511371041155
 21
764.7109396694385
 31
0.0
  0
ARC
  5
2337
330
1F
100
AcDbEntity
  8
10
100
AcDbCircle
 10
1145.511371041154
 20
790.9609396694407
 30
0.0
 40
1.25
100
AcDbArc
 50
180.0
 51
0.0
  0
ARC
  5
2338
330
1F
100
AcDbEntity
  8
10
100
AcDbCircle
 10
1135.511371041155
 20
790.9609396694407
 30
0.0
 40
1.25
100
AcDbArc
 50
180.0
 51
0.0
  0
ARC
  5
2339
330
1F
100
AcDbEntity
  8
10
100
AcDbCircle
 10
1140.511371041154
 20
790.9609396694407
 30
0.0
 40
1.25
100
AcDbArc
 50
180.0
 51
0.0
  0
ARC
  5
233A
330
1F
100
AcDbEntity
  8
10
100
AcDbCircle
 10
1155.511371041154
 20
790.9609396694407
 30
0.0
 40
1.25
100
AcDbArc
 50
180.0
 51
0.0
  0
ARC
  5
233B
330
1F
100
AcDbEntity
  8
10
100
AcDbCircle
 10
1150.511371041154
 20
790.9609396694407
 30
0.0
 40
1.25
100
AcDbArc
 50
180.0
 51
0.0
  0
ARC
  5
233C
330
1F
100
AcDbEntity
  8
10
100
AcDbCircle
 10
1160.511371041154
 20
790.9609396694407
 30
0.0
 40
1.25
100
AcDbArc
 50
180.0
 51
0.0
  0
LINE
  5
2340
330
1F
100
AcDbEntity
  8
10
100
AcDbLine
 10
1169.511371041154
 20
754.7109396694385
 30
0.0
 11
1179.511371041156
 21
754.7109396694385
 31
0.0
  0
LINE
  5
2341
330
1F
100
AcDbEntity
  8
10
100
AcDbLine
 10
1169.511371041154
 20
754.7109396694385
 30
0.0
 11
1169.511371041154
 21
759.7109396694385
 31
0.0
  0
LINE
  5
2342
330
1F
100
AcDbEntity
  8
10
100
AcDbLine
 10
1166.511371041154
 20
759.7109396694385
 30
0.0
 11
1171.011371041154
 21
759.7109396694385
 31
0.0
  0
ARC
  5
2343
330
1F
100
AcDbEntity
  8
10
100
AcDbCircle
 10
1187.511371041154
 20
777.8109396694315
 30
0.0
 40
1.5
100
AcDbArc
 50
270.0
 51
0.0
  0
ARC
  5
2344
330
1F
100
AcDbEntity
  8
10
100
AcDbCircle
 10
1187.511371041154
 20
777.8109396694315
 30
0.0
 40
1.499999999999974
100
AcDbArc
 50
180.0
 51
270.0
  0
LINE
  5
2345
330
1F
100
AcDbEntity
  8
10
100
AcDbLine
 10
1189.181700350004
 20
776.3109396694312
 30
0.0
 11
1185.841041732307
 21
776.3109396694312
 31
0.0
  0
LINE
  5
2346
330
1F
100
AcDbEntity
  8
10
100
AcDbLine
 10
1187.329029818156
 20
778.9109396694307
 30
0.0
 11
1188.329029818156
 21
779.9109396694307
 31
0.0
  0
LINE
  5
2347
330
1F
100
AcDbEntity
  8
10
100
AcDbLine
 10
1191.511371041156
 20
780.4109396694308
 30
0.0
 11
1183.511371041156
 21
780.4109396694308
 31
0.0
  0
LINE
  5
2348
330
1F
100
AcDbEntity
  8
10
100
AcDbLine
 10
1183.511371041156
 20
779.9109396694307
 30
0.0
 11
1191.511371041156
 21
779.9109396694307
 31
0.0
  0
LINE
  5
2349
330
1F
100
AcDbEntity
  8
10
100
AcDbLine
 10
1184.011371041156
 20
778.9109396694307
 30
0.0
 11
1191.011371041154
 21
778.9109396694307
 31
0.0
  0
LINE
  5
234A
330
1F
100
AcDbEntity
  8
10
100
AcDbLine
 10
1192.161371041156
 20
780.4109396694308
 30
0.0
 11
1181.061371041156
 21
780.4109396694308
 31
0.0
  0
ARC
  5
234B
330
1F
100
AcDbEntity
  8
10
100
AcDbCircle
 10
1185.841041732307
 20
777.8109396694315
 30
0.0
 40
1.500000000000247
100
AcDbArc
 50
213.3670129692367
 51
270.0
  0
LINE
  5
234C
330
1F
100
AcDbEntity
  8
10
100
AcDbLine
 10
1187.511371041154
 20
776.3109396694312
 30
0.0
 11
1187.511371041154
 21
776.3109396694312
 31
0.0
  0
LINE
  5
234D
330
1F
100
AcDbEntity
  8
10
100
AcDbLine
 10
1185.979910726305
 20
778.9109396694307
 30
0.0
 11
1186.979910726305
 21
779.9109396694307
 31
0.0
  0
LINE
  5
234E
330
1F
100
AcDbEntity
  8
10
100
AcDbLine
 10
1183.511371041156
 20
780.4109396694308
 30
0.0
 11
1183.511371041156
 21
779.9109396694307
 31
0.0
  0
LINE
  5
234F
330
1F
100
AcDbEntity
  8
10
100
AcDbLine
 10
1183.711371041156
 20
779.9109396694307
 30
0.0
 11
1183.711371041156
 21
778.9109396694307
 31
0.0
  0
LINE
  5
2350
330
1F
100
AcDbEntity
  8
10
100
AcDbLine
 10
1183.711371041156
 20
778.9109396694307
 30
0.0
 11
1184.011371041156
 21
778.9109396694307
 31
0.0
  0
ARC
  5
2351
330
1F
100
AcDbEntity
  8
10
100
AcDbCircle
 10
1187.511371041154
 20
778.9109396694307
 30
0.0
 40
3.499999999999982
100
AcDbArc
 50
180.0
 51
213.367012969225
  0
LINE
  5
2352
330
1F
100
AcDbEntity
  8
10
100
AcDbLine
 10
1180.161371041154
 20
788.2109396694311
 30
0.0
 11
1180.161371041154
 21
782.210939669431
 31
0.0
  0
LINE
  5
2353
330
1F
100
AcDbEntity
  8
10
100
AcDbLine
 10
1180.161371041154
 20
800.2439634101328
 30
0.0
 11
1180.161371041154
 21
788.2109396694311
 31
0.0
  0
ARC
  5
2354
330
1F
100
AcDbEntity
  8
10
100
AcDbCircle
 10
1181.061371041156
 20
781.3109396694308
 30
0.0
 40
0.9000000000000945
100
AcDbArc
 50
90.0
 51
270.0
  0
LINE
  5
2355
330
1F
100
AcDbEntity
  8
10
100
AcDbLine
 10
1191.511371041156
 20
779.9109396694307
 30
0.0
 11
1191.511371041156
 21
780.4109396694308
 31
0.0
  0
LINE
  5
2356
330
1F
100
AcDbEntity
  8
10
100
AcDbLine
 10
1191.311371041156
 20
778.9109396694307
 30
0.0
 11
1191.311371041156
 21
779.9109396694307
 31
0.0
  0
LINE
  5
2357
330
1F
100
AcDbEntity
  8
10
100
AcDbLine
 10
1191.011371041154
 20
778.9109396694307
 30
0.0
 11
1191.311371041156
 21
778.9109396694307
 31
0.0
  0
ARC
  5
2358
330
1F
100
AcDbEntity
  8
10
100
AcDbCircle
 10
1187.511371041154
 20
778.9109396694307
 30
0.0
 40
3.499999999999928
100
AcDbArc
 50
326.6329870307748
 51
0.0
  0
ARC
  5
2359
330
1F
100
AcDbEntity
  8
10
100
AcDbCircle
 10
1189.181700350004
 20
777.8109396694315
 30
0.0
 40
1.5
100
AcDbArc
 50
270.0
 51
326.6329870307631
  0
LINE
  5
235A
330
1F
100
AcDbEntity
  8
10
100
AcDbLine
 10
1196.361371041156
 20
776.2109396694309
 30
0.0
 11
1192.161371041156
 21
780.4109396694308
 31
0.0
  0
LINE
  5
235B
330
1F
100
AcDbEntity
  8
10
100
AcDbLine
 10
1194.561371041156
 20
778.0109396694313
 30
0.0
 11
1190.893677946213
 21
778.0109396694313
 31
0.0
  0
LINE
  5
235C
330
1F
100
AcDbEntity
  8
10
100
AcDbLine
 10
1146.761371041155
 20
827.2109396694386
 30
0.0
 11
1144.261371041155
 21
827.2109396694386
 31
0.0
  0
LINE
  5
235D
330
1F
100
AcDbEntity
  8
10
100
AcDbLine
 10
1146.761371041155
 20
812.2109396694385
 30
0.0
 11
1144.261371041155
 21
812.2109396694385
 31
0.0
  0
LINE
  5
235E
330
1F
100
AcDbEntity
  8
10
100
AcDbLine
 10
1136.761371041154
 20
827.2109396694386
 30
0.0
 11
1134.261371041155
 21
827.2109396694386
 31
0.0
  0
LINE
  5
235F
330
1F
100
AcDbEntity
  8
10
100
AcDbLine
 10
1136.761371041154
 20
812.2109396694385
 30
0.0
 11
1134.261371041155
 21
812.2109396694385
 31
0.0
  0
LINE
  5
2360
330
1F
100
AcDbEntity
  8
10
100
AcDbLine
 10
1141.761371041154
 20
827.2109396694386
 30
0.0
 11
1139.261371041154
 21
827.2109396694386
 31
0.0
  0
LINE
  5
2361
330
1F
100
AcDbEntity
  8
10
100
AcDbLine
 10
1141.761371041154
 20
812.2109396694385
 30
0.0
 11
1139.261371041154
 21
812.2109396694385
 31
0.0
  0
LINE
  5
2362
330
1F
100
AcDbEntity
  8
10
100
AcDbLine
 10
1156.761371041155
 20
827.2109396694386
 30
0.0
 11
1154.261371041154
 21
827.2109396694386
 31
0.0
  0
LINE
  5
2363
330
1F
100
AcDbEntity
  8
10
100
AcDbLine
 10
1156.761371041155
 20
812.2109396694385
 30
0.0
 11
1154.261371041154
 21
812.2109396694385
 31
0.0
  0
LINE
  5
2364
330
1F
100
AcDbEntity
  8
10
100
AcDbLine
 10
1151.761371041154
 20
827.2109396694386
 30
0.0
 11
1149.261371041154
 21
827.2109396694386
 31
0.0
  0
LINE
  5
2365
330
1F
100
AcDbEntity
  8
10
100
AcDbLine
 10
1151.761371041154
 20
812.2109396694385
 30
0.0
 11
1149.261371041154
 21
812.2109396694385
 31
0.0
  0
LINE
  5
2366
330
1F
100
AcDbEntity
  8
10
100
AcDbLine
 10
1161.761371041154
 20
827.2109396694386
 30
0.0
 11
1159.261371041155
 21
827.2109396694386
 31
0.0
  0
LINE
  5
2367
330
1F
100
AcDbEntity
  8
10
100
AcDbLine
 10
1161.761371041154
 20
812.2109396694385
 30
0.0
 11
1159.261371041155
 21
812.2109396694385
 31
0.0
  0
LINE
  5
2368
330
1F
100
AcDbEntity
  8
10
100
AcDbLine
 10
1146.761371041155
 20
877.2109396694386
 30
0.0
 11
1144.261371041155
 21
877.2109396694386
 31
0.0
  0
LINE
  5
2369
330
1F
100
AcDbEntity
  8
10
100
AcDbLine
 10
1146.761371041155
 20
862.2109396694385
 30
0.0
 11
1144.261371041155
 21
862.2109396694385
 31
0.0
  0
LINE
  5
236A
330
1F
100
AcDbEntity
  8
10
100
AcDbLine
 10
1136.761371041154
 20
877.2109396694386
 30
0.0
 11
1134.261371041155
 21
877.2109396694386
 31
0.0
  0
LINE
  5
236B
330
1F
100
AcDbEntity
  8
10
100
AcDbLine
 10
1136.761371041154
 20
862.2109396694385
 30
0.0
 11
1134.261371041155
 21
862.2109396694385
 31
0.0
  0
LINE
  5
236C
330
1F
100
AcDbEntity
  8
10
100
AcDbLine
 10
1141.761371041154
 20
877.2109396694386
 30
0.0
 11
1139.261371041154
 21
877.2109396694386
 31
0.0
  0
LINE
  5
236D
330
1F
100
AcDbEntity
  8
10
100
AcDbLine
 10
1141.761371041154
 20
862.2109396694385
 30
0.0
 11
1139.261371041154
 21
862.2109396694385
 31
0.0
  0
LINE
  5
236E
330
1F
100
AcDbEntity
  8
10
100
AcDbLine
 10
1156.761371041155
 20
877.2109396694386
 30
0.0
 11
1154.261371041154
 21
877.2109396694386
 31
0.0
  0
LINE
  5
236F
330
1F
100
AcDbEntity
  8
10
100
AcDbLine
 10
1156.761371041155
 20
862.2109396694385
 30
0.0
 11
1154.261371041154
 21
862.2109396694385
 31
0.0
  0
LINE
  5
2370
330
1F
100
AcDbEntity
  8
10
100
AcDbLine
 10
1151.761371041154
 20
877.2109396694386
 30
0.0
 11
1149.261371041154
 21
877.2109396694386
 31
0.0
  0
LINE
  5
2371
330
1F
100
AcDbEntity
  8
10
100
AcDbLine
 10
1151.761371041154
 20
862.2109396694385
 30
0.0
 11
1149.261371041154
 21
862.2109396694385
 31
0.0
  0
LINE
  5
2372
330
1F
100
AcDbEntity
  8
10
100
AcDbLine
 10
1161.761371041154
 20
877.2109396694386
 30
0.0
 11
1159.261371041155
 21
877.2109396694386
 31
0.0
  0
LINE
  5
2373
330
1F
100
AcDbEntity
  8
10
100
AcDbLine
 10
1161.761371041154
 20
862.2109396694385
 30
0.0
 11
1159.261371041155
 21
862.2109396694385
 31
0.0
  0
LINE
  5
2374
330
1F
100
AcDbEntity
  8
10
100
AcDbLine
 10
1146.761371041155
 20
927.2109396694386
 30
0.0
 11
1144.261371041155
 21
927.2109396694386
 31
0.0
  0
LINE
  5
2375
330
1F
100
AcDbEntity
  8
10
100
AcDbLine
 10
1146.761371041155
 20
912.2109396694382
 30
0.0
 11
1144.261371041155
 21
912.2109396694382
 31
0.0
  0
LINE
  5
2376
330
1F
100
AcDbEntity
  8
10
100
AcDbLine
 10
1136.761371041154
 20
927.2109396694386
 30
0.0
 11
1134.261371041155
 21
927.2109396694386
 31
0.0
  0
LINE
  5
2377
330
1F
100
AcDbEntity
  8
10
100
AcDbLine
 10
1136.761371041154
 20
912.2109396694382
 30
0.0
 11
1134.261371041155
 21
912.2109396694382
 31
0.0
  0
LINE
  5
2378
330
1F
100
AcDbEntity
  8
10
100
AcDbLine
 10
1141.761371041154
 20
927.2109396694386
 30
0.0
 11
1139.261371041154
 21
927.2109396694386
 31
0.0
  0
LINE
  5
2379
330
1F
100
AcDbEntity
  8
10
100
AcDbLine
 10
1141.761371041154
 20
912.2109396694382
 30
0.0
 11
1139.261371041154
 21
912.2109396694382
 31
0.0
  0
LINE
  5
237A
330
1F
100
AcDbEntity
  8
10
100
AcDbLine
 10
1156.761371041155
 20
927.2109396694386
 30
0.0
 11
1154.261371041154
 21
927.2109396694386
 31
0.0
  0
LINE
  5
237B
330
1F
100
AcDbEntity
  8
10
100
AcDbLine
 10
1156.761371041155
 20
912.2109396694382
 30
0.0
 11
1154.261371041154
 21
912.2109396694382
 31
0.0
  0
LINE
  5
237C
330
1F
100
AcDbEntity
  8
10
100
AcDbLine
 10
1151.761371041154
 20
927.2109396694386
 30
0.0
 11
1149.261371041154
 21
927.2109396694386
 31
0.0
  0
LINE
  5
237D
330
1F
100
AcDbEntity
  8
10
100
AcDbLine
 10
1151.761371041154
 20
912.2109396694382
 30
0.0
 11
1149.261371041154
 21
912.2109396694382
 31
0.0
  0
LINE
  5
237E
330
1F
100
AcDbEntity
  8
10
100
AcDbLine
 10
1161.761371041154
 20
927.2109396694386
 30
0.0
 11
1159.261371041155
 21
927.2109396694386
 31
0.0
  0
LINE
  5
237F
330
1F
100
AcDbEntity
  8
10
100
AcDbLine
 10
1161.761371041154
 20
912.2109396694382
 30
0.0
 11
1159.261371041155
 21
912.2109396694382
 31
0.0
  0
LINE
  5
2380
330
1F
100
AcDbEntity
  8
10
100
AcDbLine
 10
1146.761371041155
 20
977.2109396694386
 30
0.0
 11
1144.261371041155
 21
977.2109396694386
 31
0.0
  0
LINE
  5
2381
330
1F
100
AcDbEntity
  8
10
100
AcDbLine
 10
1146.761371041155
 20
962.2109396694382
 30
0.0
 11
1144.261371041155
 21
962.2109396694382
 31
0.0
  0
LINE
  5
2382
330
1F
100
AcDbEntity
  8
10
100
AcDbLine
 10
1136.761371041154
 20
977.2109396694386
 30
0.0
 11
1134.261371041155
 21
977.2109396694386
 31
0.0
  0
LINE
  5
2383
330
1F
100
AcDbEntity
  8
10
100
AcDbLine
 10
1136.761371041154
 20
962.2109396694382
 30
0.0
 11
1134.261371041155
 21
962.2109396694382
 31
0.0
  0
LINE
  5
2384
330
1F
100
AcDbEntity
  8
10
100
AcDbLine
 10
1141.761371041154
 20
977.2109396694386
 30
0.0
 11
1139.261371041154
 21
977.2109396694386
 31
0.0
  0
LINE
  5
2385
330
1F
100
AcDbEntity
  8
10
100
AcDbLine
 10
1141.761371041154
 20
962.2109396694382
 30
0.0
 11
1139.261371041154
 21
962.2109396694382
 31
0.0
  0
LINE
  5
2386
330
1F
100
AcDbEntity
  8
10
100
AcDbLine
 10
1156.761371041155
 20
977.2109396694386
 30
0.0
 11
1154.261371041154
 21
977.2109396694386
 31
0.0
  0
LINE
  5
2387
330
1F
100
AcDbEntity
  8
10
100
AcDbLine
 10
1156.761371041155
 20
962.2109396694382
 30
0.0
 11
1154.261371041154
 21
962.2109396694382
 31
0.0
  0
LINE
  5
2388
330
1F
100
AcDbEntity
  8
10
100
AcDbLine
 10
1151.761371041154
 20
977.2109396694386
 30
0.0
 11
1149.261371041154
 21
977.2109396694386
 31
0.0
  0
LINE
  5
2389
330
1F
100
AcDbEntity
  8
10
100
AcDbLine
 10
1151.761371041154
 20
962.2109396694382
 30
0.0
 11
1149.261371041154
 21
962.2109396694382
 31
0.0
  0
LINE
  5
238A
330
1F
100
AcDbEntity
  8
10
100
AcDbLine
 10
1161.761371041154
 20
977.2109396694386
 30
0.0
 11
1159.261371041155
 21
977.2109396694386
 31
0.0
  0
LINE
  5
238B
330
1F
100
AcDbEntity
  8
10
100
AcDbLine
 10
1161.761371041154
 20
962.2109396694382
 30
0.0
 11
1159.261371041155
 21
962.2109396694382
 31
0.0
  0
LINE
  5
238C
330
1F
100
AcDbEntity
  8
10
100
AcDbLine
 10
1146.761371041155
 20
1027.210939669437
 30
0.0
 11
1144.261371041155
 21
1027.210939669437
 31
0.0
  0
LINE
  5
238D
330
1F
100
AcDbEntity
  8
10
100
AcDbLine
 10
1146.761371041155
 20
1012.210939669438
 30
0.0
 11
1144.261371041155
 21
1012.210939669438
 31
0.0
  0
LINE
  5
238E
330
1F
100
AcDbEntity
  8
10
100
AcDbLine
 10
1136.761371041154
 20
1027.210939669437
 30
0.0
 11
1134.261371041155
 21
1027.210939669437
 31
0.0
  0
LINE
  5
238F
330
1F
100
AcDbEntity
  8
10
100
AcDbLine
 10
1136.761371041154
 20
1012.210939669438
 30
0.0
 11
1134.261371041155
 21
1012.210939669438
 31
0.0
  0
LINE
  5
2390
330
1F
100
AcDbEntity
  8
10
100
AcDbLine
 10
1141.761371041154
 20
1027.210939669437
 30
0.0
 11
1139.261371041154
 21
1027.210939669437
 31
0.0
  0
LINE
  5
2391
330
1F
100
AcDbEntity
  8
10
100
AcDbLine
 10
1141.761371041154
 20
1012.210939669438
 30
0.0
 11
1139.261371041154
 21
1012.210939669438
 31
0.0
  0
LINE
  5
2392
330
1F
100
AcDbEntity
  8
10
100
AcDbLine
 10
1156.761371041155
 20
1027.210939669437
 30
0.0
 11
1154.261371041154
 21
1027.210939669437
 31
0.0
  0
LINE
  5
2393
330
1F
100
AcDbEntity
  8
10
100
AcDbLine
 10
1156.761371041155
 20
1012.210939669438
 30
0.0
 11
1154.261371041154
 21
1012.210939669438
 31
0.0
  0
LINE
  5
2394
330
1F
100
AcDbEntity
  8
10
100
AcDbLine
 10
1151.761371041154
 20
1027.210939669437
 30
0.0
 11
1149.261371041154
 21
1027.210939669437
 31
0.0
  0
LINE
  5
2395
330
1F
100
AcDbEntity
  8
10
100
AcDbLine
 10
1151.761371041154
 20
1012.210939669438
 30
0.0
 11
1149.261371041154
 21
1012.210939669438
 31
0.0
  0
LINE
  5
2396
330
1F
100
AcDbEntity
  8
10
100
AcDbLine
 10
1161.761371041154
 20
1027.210939669437
 30
0.0
 11
1159.261371041155
 21
1027.210939669437
 31
0.0
  0
LINE
  5
2397
330
1F
100
AcDbEntity
  8
10
100
AcDbLine
 10
1161.761371041154
 20
1012.210939669438
 30
0.0
 11
1159.261371041155
 21
1012.210939669438
 31
0.0
  0
LINE
  5
2398
330
1F
100
AcDbEntity
  8
10
100
AcDbLine
 10
1146.761371041155
 20
1077.210939669438
 30
0.0
 11
1144.261371041155
 21
1077.210939669438
 31
0.0
  0
LINE
  5
2399
330
1F
100
AcDbEntity
  8
10
100
AcDbLine
 10
1146.761371041155
 20
1062.210939669438
 30
0.0
 11
1144.261371041155
 21
1062.210939669438
 31
0.0
  0
ARC
  5
239A
330
1F
100
AcDbEntity
  8
10
100
AcDbCircle
 10
1145.511371041154
 20
1098.460939669436
 30
0.0
 40
1.25
100
AcDbArc
 50
0.0
 51
180.0
  0
LINE
  5
239B
330
1F
100
AcDbEntity
  8
10
100
AcDbLine
 10
1136.761371041154
 20
1077.210939669438
 30
0.0
 11
1134.261371041155
 21
1077.210939669438
 31
0.0
  0
LINE
  5
239C
330
1F
100
AcDbEntity
  8
10
100
AcDbLine
 10
1136.761371041154
 20
1062.210939669438
 30
0.0
 11
1134.261371041155
 21
1062.210939669438
 31
0.0
  0
LINE
  5
239D
330
1F
100
AcDbEntity
  8
10
100
AcDbLine
 10
1141.761371041154
 20
1077.210939669438
 30
0.0
 11
1139.261371041154
 21
1077.210939669438
 31
0.0
  0
LINE
  5
239E
330
1F
100
AcDbEntity
  8
10
100
AcDbLine
 10
1141.761371041154
 20
1062.210939669438
 30
0.0
 11
1139.261371041154
 21
1062.210939669438
 31
0.0
  0
ARC
  5
239F
330
1F
100
AcDbEntity
  8
10
100
AcDbCircle
 10
1135.511371041155
 20
1098.460939669436
 30
0.0
 40
1.25
100
AcDbArc
 50
0.0
 51
180.0
  0
ARC
  5
23A0
330
1F
100
AcDbEntity
  8
10
100
AcDbCircle
 10
1140.511371041154
 20
1098.460939669436
 30
0.0
 40
1.25
100
AcDbArc
 50
0.0
 51
180.0
  0
LINE
  5
23A1
330
1F
100
AcDbEntity
  8
10
100
AcDbLine
 10
1156.761371041155
 20
1077.210939669438
 30
0.0
 11
1154.261371041154
 21
1077.210939669438
 31
0.0
  0
LINE
  5
23A2
330
1F
100
AcDbEntity
  8
10
100
AcDbLine
 10
1156.761371041155
 20
1062.210939669438
 30
0.0
 11
1154.261371041154
 21
1062.210939669438
 31
0.0
  0
LINE
  5
23A3
330
1F
100
AcDbEntity
  8
10
100
AcDbLine
 10
1151.761371041154
 20
1077.210939669438
 30
0.0
 11
1149.261371041154
 21
1077.210939669438
 31
0.0
  0
LINE
  5
23A4
330
1F
100
AcDbEntity
  8
10
100
AcDbLine
 10
1151.761371041154
 20
1062.210939669438
 30
0.0
 11
1149.261371041154
 21
1062.210939669438
 31
0.0
  0
LINE
  5
23A5
330
1F
100
AcDbEntity
  8
10
100
AcDbLine
 10
1161.761371041154
 20
1077.210939669438
 30
0.0
 11
1159.261371041155
 21
1077.210939669438
 31
0.0
  0
LINE
  5
23A6
330
1F
100
AcDbEntity
  8
10
100
AcDbLine
 10
1161.761371041154
 20
1062.210939669438
 30
0.0
 11
1159.261371041155
 21
1062.210939669438
 31
0.0
  0
ARC
  5
23A7
330
1F
100
AcDbEntity
  8
10
100
AcDbCircle
 10
1155.511371041154
 20
1098.460939669436
 30
0.0
 40
1.25
100
AcDbArc
 50
0.0
 51
180.0
  0
ARC
  5
23A8
330
1F
100
AcDbEntity
  8
10
100
AcDbCircle
 10
1150.511371041154
 20
1098.460939669436
 30
0.0
 40
1.25
100
AcDbArc
 50
0.0
 51
180.0
  0
ARC
  5
23A9
330
1F
100
AcDbEntity
  8
10
100
AcDbCircle
 10
1160.511371041154
 20
1098.460939669436
 30
0.0
 40
1.25
100
AcDbArc
 50
0.0
 51
180.0
  0
LINE
  5
23AA
330
1F
100
AcDbEntity
  8
10
100
AcDbLine
 10
1066.511371041156
 20
1119.710939669438
 30
0.0
 11
1166.511371041154
 21
1129.710939669438
 31
0.0
  0
LINE
  5
23AB
330
1F
100
AcDbEntity
  8
10
100
AcDbLine
 10
1019.511371041156
 20
1119.710939669438
 30
0.0
 11
1066.511371041156
 21
1119.710939669438
 31
0.0
  0
LINE
  5
23AC
330
1F
100
AcDbEntity
  8
10
100
AcDbLine
 10
1003.625640602802
 20
1118.930811594158
 30
0.0
 11
1019.011371041155
 21
1119.73714355908
 31
0.0
  0
ARC
  5
23AD
330
1F
100
AcDbEntity
  8
10
100
AcDbCircle
 10
1003.782648471531
 20
1115.934922989894
 30
0.0
 40
2.999999999999946
100
AcDbArc
 50
92.9999999999991
 51
162.3479617698537
  0
LINE
  5
23AE
330
1F
100
AcDbEntity
  8
10
100
AcDbLine
 10
1019.011371041155
 20
1119.210939669437
 30
0.0
 11
1019.511371041156
 21
1119.210939669437
 31
0.0
  0
LINE
  5
23AF
330
1F
100
AcDbEntity
  8
12
 48
3.0
100
AcDbLine
 10
1162.511371041154
 20
1124.710939669438
 30
0.0
 11
1186.511371041155
 21
1124.710939669438
 31
0.0
  0
LINE
  5
23B2
330
1F
100
AcDbEntity
  8
10
100
AcDbLine
 10
1169.511371041154
 20
1134.710939669438
 30
0.0
 11
1179.511371041156
 21
1134.710939669438
 31
0.0
  0
LINE
  5
23B3
330
1F
100
AcDbEntity
  8
10
100
AcDbLine
 10
1169.511371041154
 20
1129.710939669438
 30
0.0
 11
1169.511371041154
 21
1134.710939669438
 31
0.0
  0
LINE
  5
23B4
330
1F
100
AcDbEntity
  8
10
100
AcDbLine
 10
1166.511371041154
 20
1129.710939669438
 30
0.0
 11
1171.011371041154
 21
1129.710939669438
 31
0.0
  0
LINE
  5
23B6
330
1F
100
AcDbEntity
  8
10
100
AcDbLine
 10
1301.511371041154
 20
820.2109396694385
 30
0.0
 11
1301.511371041154
 21
1037.210939669438
 31
0.0
  0
LINE
  5
23B9
330
1F
100
AcDbEntity
  8
10
100
AcDbLine
 10
1299.661371041155
 20
820.2109396694311
 30
0.0
 11
1299.661371041155
 21
782.210939669431
 31
0.0
  0
LINE
  5
23BA
330
1F
100
AcDbEntity
  8
10
100
AcDbLine
 10
1298.761371041156
 20
780.4109396694308
 30
0.0
 11
1287.661371041155
 21
780.4109396694308
 31
0.0
  0
ARC
  5
23BB
330
1F
100
AcDbEntity
  8
10
100
AcDbCircle
 10
1292.311371041156
 20
777.8109396694315
 30
0.0
 40
1.5
100
AcDbArc
 50
270.0
 51
0.0
  0
ARC
  5
23BC
330
1F
100
AcDbEntity
  8
10
100
AcDbCircle
 10
1292.311371041156
 20
777.8109396694315
 30
0.0
 40
1.499999999999974
100
AcDbArc
 50
180.0
 51
270.0
  0
ARC
  5
23BD
330
1F
100
AcDbEntity
  8
10
100
AcDbCircle
 10
1292.311371041156
 20
778.9109396694307
 30
0.0
 40
3.499999999999982
100
AcDbArc
 50
180.0
 51
213.367012969225
  0
LINE
  5
23BE
330
1F
100
AcDbEntity
  8
10
100
AcDbLine
 10
1295.811371041156
 20
778.9109396694307
 30
0.0
 11
1288.811371041155
 21
778.9109396694307
 31
0.0
  0
LINE
  5
23BF
330
1F
100
AcDbEntity
  8
10
100
AcDbLine
 10
1296.311371041156
 20
779.9109396694307
 30
0.0
 11
1288.311371041156
 21
779.9109396694307
 31
0.0
  0
LINE
  5
23C0
330
1F
100
AcDbEntity
  8
10
100
AcDbLine
 10
1288.311371041156
 20
780.4109396694308
 30
0.0
 11
1296.311371041156
 21
780.4109396694308
 31
0.0
  0
LINE
  5
23C1
330
1F
100
AcDbEntity
  8
10
100
AcDbLine
 10
1296.361371041156
 20
791.4109396694307
 30
0.0
 11
1288.261371041156
 21
791.4109396694307
 31
0.0
  0
LINE
  5
23C2
330
1F
100
AcDbEntity
  8
10
100
AcDbLine
 10
1288.929064136098
 20
778.0109396694313
 30
0.0
 11
1285.261371041156
 21
778.0109396694313
 31
0.0
  0
LINE
  5
23C3
330
1F
100
AcDbEntity
  8
10
100
AcDbLine
 10
1288.811371041155
 20
778.9109396694307
 30
0.0
 11
1288.511371041154
 21
778.9109396694307
 31
0.0
  0
LINE
  5
23C4
330
1F
100
AcDbEntity
  8
10
100
AcDbLine
 10
1288.511371041154
 20
778.9109396694307
 30
0.0
 11
1288.511371041154
 21
779.9109396694307
 31
0.0
  0
LINE
  5
23C5
330
1F
100
AcDbEntity
  8
10
100
AcDbLine
 10
1288.311371041156
 20
779.9109396694307
 30
0.0
 11
1288.311371041156
 21
780.4109396694308
 31
0.0
  0
LINE
  5
23C6
330
1F
100
AcDbEntity
  8
10
100
AcDbLine
 10
1288.261371041156
 20
791.4109396694307
 30
0.0
 11
1288.261371041156
 21
788.2109396694311
 31
0.0
  0
LINE
  5
23C7
330
1F
100
AcDbEntity
  8
10
100
AcDbLine
 10
1283.461371041155
 20
776.2109396694309
 30
0.0
 11
1287.661371041155
 21
780.4109396694308
 31
0.0
  0
LINE
  5
23C8
330
1F
100
AcDbEntity
  8
10
100
AcDbLine
 10
1282.715786628884
 20
778.0109396694313
 30
0.0
 11
1286.915786628884
 21
782.210939669431
 31
0.0
  0
LINE
  5
23C9
330
1F
100
AcDbEntity
  8
10
100
AcDbLine
 10
1293.842831356005
 20
778.9109396694307
 30
0.0
 11
1292.842831356006
 21
779.9109396694307
 31
0.0
  0
LINE
  5
23CA
330
1F
100
AcDbEntity
  8
10
100
AcDbLine
 10
1292.493712264155
 20
778.9109396694307
 30
0.0
 11
1291.493712264155
 21
779.9109396694307
 31
0.0
  0
LINE
  5
23CB
330
1F
100
AcDbEntity
  8
10
100
AcDbLine
 10
1292.311371041156
 20
776.3109396694312
 30
0.0
 11
1292.311371041156
 21
776.3109396694312
 31
0.0
  0
ARC
  5
23CC
330
1F
100
AcDbEntity
  8
10
100
AcDbCircle
 10
1293.981700350004
 20
777.8109396694315
 30
0.0
 40
1.5
100
AcDbArc
 50
270.0
 51
326.6329870307631
  0
ARC
  5
23CD
330
1F
100
AcDbEntity
  8
10
100
AcDbCircle
 10
1290.641041732307
 20
777.8109396694315
 30
0.0
 40
1.500000000000247
100
AcDbArc
 50
213.3670129692367
 51
270.0
  0
LINE
  5
23CE
330
1F
100
AcDbEntity
  8
10
100
AcDbLine
 10
1290.641041732307
 20
776.3109396694312
 30
0.0
 11
1293.981700350004
 21
776.3109396694312
 31
0.0
  0
ARC
  5
23CF
330
1F
100
AcDbEntity
  8
10
100
AcDbCircle
 10
1292.311371041156
 20
778.9109396694307
 30
0.0
 40
3.499999999999928
100
AcDbArc
 50
326.6329870307748
 51
0.0
  0
LINE
  5
23D0
330
1F
100
AcDbEntity
  8
10
100
AcDbLine
 10
1296.111371041154
 20
778.9109396694307
 30
0.0
 11
1295.811371041156
 21
778.9109396694307
 31
0.0
  0
LINE
  5
23D1
330
1F
100
AcDbEntity
  8
10
100
AcDbLine
 10
1296.111371041154
 20
779.9109396694307
 30
0.0
 11
1296.111371041154
 21
778.9109396694307
 31
0.0
  0
LINE
  5
23D2
330
1F
100
AcDbEntity
  8
10
100
AcDbLine
 10
1296.311371041156
 20
780.4109396694308
 30
0.0
 11
1296.311371041156
 21
779.9109396694307
 31
0.0
  0
LINE
  5
23D3
330
1F
100
AcDbEntity
  8
10
100
AcDbLine
 10
1294.111371041156
 20
791.4109396694307
 30
0.0
 11
1294.111371041156
 21
788.2109396694311
 31
0.0
  0
LINE
  5
23D4
330
1F
100
AcDbEntity
  8
10
100
AcDbLine
 10
1290.511371041156
 20
791.4109396694307
 30
0.0
 11
1290.511371041156
 21
788.2109396694311
 31
0.0
  0
LINE
  5
23D5
330
1F
100
AcDbEntity
  8
10
100
AcDbLine
 10
1290.311371041156
 20
792.9109396694308
 30
0.0
 11
1294.311371041156
 21
792.9109396694308
 31
0.0
  0
LINE
  5
23D6
330
1F
100
AcDbEntity
  8
10
100
AcDbLine
 10
1290.311371041156
 20
792.9109396694308
 30
0.0
 11
1290.311371041156
 21
791.4109396694307
 31
0.0
  0
LINE
  5
23D7
330
1F
100
AcDbEntity
  8
10
100
AcDbLine
 10
1294.311371041156
 20
792.9109396694308
 30
0.0
 11
1294.311371041156
 21
791.4109396694307
 31
0.0
  0
LINE
  5
23D8
330
1F
100
AcDbEntity
  8
10
100
AcDbLine
 10
1296.361371041156
 20
791.4109396694307
 30
0.0
 11
1296.361371041156
 21
788.2109396694311
 31
0.0
  0
ARC
  5
23D9
330
1F
100
AcDbEntity
  8
10
100
AcDbCircle
 10
1298.761371041156
 20
781.3109396694308
 30
0.0
 40
0.9000000000000886
100
AcDbArc
 50
270.0
 51
90.0
  0
LINE
  5
23DA
330
1F
100
AcDbEntity
  8
10
 48
3.0
100
AcDbLine
 10
1301.511371041154
 20
1037.210939669438
 30
0.0
 11
1301.511371041154
 21
1113.210939669438
 31
0.0
  0
CIRCLE
  5
2607
330
1F
100
AcDbEntity
  8
10
100
AcDbCircle
 10
687.5113710411558
 20
1124.710939669438
 30
0.0
 40
3.500000000000085
  0
CIRCLE
  5
2608
330
1F
100
AcDbEntity
  8
10
100
AcDbCircle
 10
687.5113710411558
 20
1124.710939669438
 30
0.0
 40
4.000000000000096
  0
LINE
  5
2609
330
1F
100
AcDbEntity
  8
10
100
AcDbLine
 10
686.0971574787827
 20
1126.125153231811
 30
0.0
 11
688.925584603529
 21
1123.296726107065
 31
0.0
  0
LINE
  5
260A
330
1F
100
AcDbEntity
  8
10
100
AcDbLine
 10
688.925584603529
 20
1126.125153231811
 30
0.0
 11
686.0971574787827
 21
1123.296726107065
 31
0.0
  0
CIRCLE
  5
260B
330
1F
100
AcDbEntity
  8
10
100
AcDbCircle
 10
821.5113710411557
 20
1124.710939669438
 30
0.0
 40
3.500000000000085
  0
CIRCLE
  5
260C
330
1F
100
AcDbEntity
  8
10
100
AcDbCircle
 10
821.5113710411557
 20
1124.710939669438
 30
0.0
 40
4.000000000000096
  0
LINE
  5
260D
330
1F
100
AcDbEntity
  8
10
100
AcDbLine
 10
820.0971574787828
 20
1126.125153231811
 30
0.0
 11
822.925584603529
 21
1123.296726107065
 31
0.0
  0
LINE
  5
260E
330
1F
100
AcDbEntity
  8
10
100
AcDbLine
 10
822.925584603529
 20
1126.125153231811
 30
0.0
 11
820.0971574787828
 21
1123.296726107065
 31
0.0
  0
CIRCLE
  5
260F
330
1F
100
AcDbEntity
  8
10
100
AcDbCircle
 10
821.5113710411557
 20
764.7109396694313
 30
0.0
 40
3.500000000000085
  0
CIRCLE
  5
2610
330
1F
100
AcDbEntity
  8
10
100
AcDbCircle
 10
821.5113710411557
 20
764.7109396694313
 30
0.0
 40
4.000000000000096
  0
LINE
  5
2611
330
1F
100
AcDbEntity
  8
10
100
AcDbLine
 10
820.0971574787828
 20
766.1251532318043
 30
0.0
 11
822.925584603529
 21
763.2967261070582
 31
0.0
  0
LINE
  5
2612
330
1F
100
AcDbEntity
  8
10
100
AcDbLine
 10
822.925584603529
 20
766.1251532318043
 30
0.0
 11
820.0971574787828
 21
763.2967261070582
 31
0.0
  0
CIRCLE
  5
2613
330
1F
100
AcDbEntity
  8
10
100
AcDbCircle
 10
687.5113710411558
 20
764.7109396694313
 30
0.0
 40
3.500000000000085
  0
CIRCLE
  5
2614
330
1F
100
AcDbEntity
  8
10
100
AcDbCircle
 10
687.5113710411558
 20
764.7109396694313
 30
0.0
 40
4.000000000000096
  0
LINE
  5
2615
330
1F
100
AcDbEntity
  8
10
100
AcDbLine
 10
686.0971574787827
 20
766.1251532318043
 30
0.0
 11
688.925584603529
 21
763.2967261070582
 31
0.0
  0
LINE
  5
2616
330
1F
100
AcDbEntity
  8
10
100
AcDbLine
 10
688.925584603529
 20
766.1251532318043
 30
0.0
 11
686.0971574787827
 21
763.2967261070582
 31
0.0
  0
LWPOLYLINE
  5
2622
330
1F
100
AcDbEntity
  8
18
100
AcDbPolyline
 90
        4
 70
     1
 43
0.0
 10
629.511371041156
 20
1234.710939669438
 10
879.5113710411557
 20
1234.710939669438
 10
879.5113710411557
 20
654.7109396694386
 10
629.511371041156
 20
654.7109396694386
  0
LWPOLYLINE
  5
2640
330
1F
100
AcDbEntity
  8
18
100
AcDbPolyline
 90
        4
 70
     1
 43
0.0
 10
929.5113710411557
 20
1234.710939669438
 10
1179.511371041156
 20
1234.710939669438
 10
1179.511371041156
 20
654.7109396694386
 10
929.5113710411557
 20
654.7109396694386
  0
LINE
  5
2650
330
1F
100
AcDbEntity
  8
0
100
AcDbLine
 10
879.5113710411557
 20
654.7109396694386
 30
0.0
 11
879.5113710411557
 21
654.7109396694386
 31
0.0
  0
LINE
  5
2663
330
1F
100
AcDbEntity
  8
16
100
AcDbLine
 10
754.511371041156
 20
738.6579505940817
 30
0.0
 11
754.511371041156
 21
1148.003743195419
 31
0.0
  0
VIEWPORT
  5
1A9E
330
1B
100
AcDbEntity
 67
     1
  8
0
100
AcDbViewport
 10
5.249999639556162
 20
3.999999883606676
 30
0.0
 40
13.61503641713194
 41
8.992999745766947
 68
     1
 69
     1
 12
5.249999639556162
 22
3.999999883606676
 13
0.0
 23
0.0
 14
10.0
 24
10.0
 15
10.0
 25
10.0
 16
0.0
 26
0.0
 36
1.0
 17
0.0
 27
0.0
 37
0.0
 42
50.0
 43
0.0
 44
0.0
 45
8.992999745766947
 50
0.0
 51
0.0
 72
   100
 90
    32800
  1

281
     0
 71
     1
 74
     0
110
0.0
120
0.0
130
0.0
111
1.0
121
0.0
131
0.0
112
0.0
122
1.0
132
0.0
 79
     0
146
0.0
  0
VIEWPORT
  5
1AA0
330
1B
100
AcDbEntity
 67
     1
  8
0
100
AcDbViewport
 10
5.24999976158142
 20
3.999999761581419
 30
0.0
 40
8.399999618530271
 41
6.399999618530272
 68
     2
 69
     2
 12
-1363.137645193887
 22
-311.7485573738788
 13
0.0
 23
0.0
 14
10.0
 24
10.0
 15
10.0
 25
10.0
 16
0.0
 26
0.0
 36
1.0
 17
0.0
 27
0.0
 37
0.0
 42
50.0
 43
0.0
 44
0.0
 45
467.9695885509838
 50
0.0
 51
0.0
 72
   100
 90
    32864
  1

281
     0
 71
     1
 74
     0
110
0.0
120
0.0
130
0.0
111
1.0
121
0.0
131
0.0
112
0.0
122
1.0
132
0.0
 79
     0
146
0.0
  0
ENDSEC
  0
SECTION
  2
OBJECTS
  0
DICTIONARY
  5
C
330
0
100
AcDbDictionary
281
     1
  3
ACAD_GROUP
350
D
  3
ACAD_LAYOUT
350
1A
  3
ACAD_MLINESTYLE
350
17
  3
ACAD_PLOTSETTINGS
350
19
  3
ACAD_PLOTSTYLENAME
350
47
  3
AcDbVariableDictionary
350
191F
1001
ACAD
1000
TREAT_AS_HARD
1070
     0
  0
DICTIONARY
  5
41
330
1F
100
AcDbDictionary
280
     1
281
     1
  3
ACAD_LAYOUTSELFREF
360
1B2E
  0
DICTIONARY
  5
3F
330
1B
100
AcDbDictionary
280
     1
281
     1
  3
ACAD_LAYOUTSELFREF
360
1B2D
  0
DICTIONARY
  5
D
102
{ACAD_REACTORS
330
C
102
}
330
C
100
AcDbDictionary
281
     1
1001
ACAD
1000
TREAT_AS_HARD
1070
     0
  0
DICTIONARY
  5
1A
102
{ACAD_REACTORS
330
C
102
}
330
C
100
AcDbDictionary
281
     1
  3
Model
350
49
  3
ﾚｲｱｳﾄ1
350
4A
1001
ACAD
1000
TREAT_AS_HARD
1070
     0
  0
DICTIONARY
  5
17
102
{ACAD_REACTORS
330
C
102
}
330
C
100
AcDbDictionary
281
     1
  3
STANDARD
350
18
1001
ACAD
1000
TREAT_AS_HARD
1070
     0
  0
DICTIONARY
  5
19
102
{ACAD_REACTORS
330
C
102
}
330
C
100
AcDbDictionary
281
     1
1001
ACAD
1000
TREAT_AS_HARD
1070
     0
  0
ACDBDICTIONARYWDFLT
  5
47
102
{ACAD_REACTORS
330
C
102
}
330
C
100
AcDbDictionary
281
     1
  3
Normal
350
48
100
AcDbDictionaryWithDefault
340
48
  0
DICTIONARY
  5
191F
102
{ACAD_REACTORS
330
C
102
}
330
C
100
AcDbDictionary
281
     1
  3
DIMASSOC
350
1920
  0
XRECORD
  5
1B2E
102
{ACAD_REACTORS
330
41
102
}
330
41
100
AcDbXrecord
280
     1
340
1F
  0
XRECORD
  5
1B2D
102
{ACAD_REACTORS
330
3F
102
}
330
3F
100
AcDbXrecord
280
     1
340
1B
  0
LAYOUT
  5
49
102
{ACAD_REACTORS
330
1A
102
}
330
1A
100
AcDbPlotSettings
  1

  2
EPSON LP-9200PS2
  4

  6

 40
0.0
 41
0.0
 42
0.0
 43
0.0
 44
0.0
 45
0.0
 46
0.0
 47
0.0
 48
0.0
 49
0.0
140
0.0
141
0.0
142
1.0
143
1.0
 70
  1712
 72
     0
 73
     0
 74
     0
  7

 75
     0
147
1.0
148
0.0
149
0.0
100
AcDbLayout
  1
Model
 70
     1
 71
     0
 10
0.0
 20
0.0
 11
12.0
 21
9.0
 12
0.0
 22
0.0
 32
0.0
 14
0.0
 24
0.0
 34
0.0
 15
0.0
 25
0.0
 35
0.0
146
0.0
 13
0.0
 23
0.0
 33
0.0
 16
1.0
 26
0.0
 36
0.0
 17
0.0
 27
1.0
 37
0.0
 76
     0
330
1F
  0
LAYOUT
  5
4A
102
{ACAD_REACTORS
330
1A
102
}
330
1A
100
AcDbPlotSettings
  1

  2
none_device
  4
Letter_(8.50_x_11.00_Inches)
  6

 40
6.349999904632567
 41
6.349999904632567
 42
6.350006103515625
 43
6.350006103515625
 44
215.8999938964842
 45
279.3999938964843
 46
0.0
 47
0.0
 48
0.0
 49
0.0
140
0.0
141
0.0
142
1.0
143
1.0
 70
   688
 72
     0
 73
     1
 74
     5
  7

 75
    16
147
1.0
148
0.0
149
0.0
100
AcDbLayout
  1
ﾚｲｱｳﾄ1
 70
     1
 71
     1
 10
-0.2500002402958907
 20
-0.2499999962453767
 11
10.74999951940821
 21
8.249999763458731
 12
0.0
 22
0.0
 32
0.0
 14
1.049999952316283
 24
0.7999999523162842
 34
0.0
 15
9.449999570846555
 25
7.199999570846556
 35
0.0
146
0.0
 13
0.0
 23
0.0
 33
0.0
 16
1.0
 26
0.0
 36
0.0
 17
0.0
 27
1.0
 37
0.0
 76
     0
330
1B
331
1A9E
  0
MLINESTYLE
  5
18
102
{ACAD_REACTORS
330
17
102
}
330
17
100
AcDbMlineStyle
  2
STANDARD
 70
     0
  3

 62
   256
 51
90.0
 52
90.0
 71
     2
 49
0.5
 62
   256
  6
BYLAYER
 49
-0.5
 62
   256
  6
BYLAYER
  0
ACDBPLACEHOLDER
  5
48
102
{ACAD_REACTORS
330
47
102
}
330
47
  0
DICTIONARYVAR
  5
1920
102
{ACAD_REACTORS
330
191F
102
}
330
191F
100
DictionaryVariables
280
     0
  1
1
  0
ENDSEC
  0
EOF
