  0
SECTION
  2
HEADER
  9
$ACADVER
  1
AC1015
  9
$ACADMAINTVER
 70
    10
  9
$DWGCODEPAGE
  3
ANSI_932
  9
$INSBASE
 10
0.0
 20
0.0
 30
0.0
  9
$EXTMIN
 10
1904.611502756229
 20
790.4421348405584
 30
0.0
  9
$EXTMAX
 10
3106.121282072617
 20
2010.542134840559
 30
0.0
  9
$LIMMIN
 10
0.0
 20
0.0
  9
$LIMMAX
 10
420.0
 20
297.0
  9
$ORTHOMODE
 70
     1
  9
$REGENMODE
 70
     1
  9
$FILLMODE
 70
     1
  9
$QTEXTMODE
 70
     0
  9
$MIRRTEXT
 70
     1
  9
$LTSCALE
 40
1.0
  9
$ATTMODE
 70
     1
  9
$TEXTSIZE
 40
2.5
  9
$TRACEWID
 40
1.0
  9
$TEXTSTYLE
  7
STANDARD
  9
$CLAYER
  8
0
  9
$CELTYPE
  6
BYLAYER
  9
$CECOLOR
 62
   256
  9
$CELTSCALE
 40
1.0
  9
$DISPSILH
 70
     0
  9
$DIMSCALE
 40
1.0
  9
$DIMASZ
 40
2.5
  9
$DIMEXO
 40
0.625
  9
$DIMDLI
 40
3.75
  9
$DIMRND
 40
0.0
  9
$DIMDLE
 40
0.0
  9
$DIMEXE
 40
1.25
  9
$DIMTP
 40
0.0
  9
$DIMTM
 40
0.0
  9
$DIMTXT
 40
2.5
  9
$DIMCEN
 40
2.5
  9
$DIMTSZ
 40
0.0
  9
$DIMTOL
 70
     0
  9
$DIMLIM
 70
     0
  9
$DIMTIH
 70
     0
  9
$DIMTOH
 70
     0
  9
$DIMSE1
 70
     0
  9
$DIMSE2
 70
     0
  9
$DIMTAD
 70
     1
  9
$DIMZIN
 70
     8
  9
$DIMBLK
  1

  9
$DIMASO
 70
     1
  9
$DIMSHO
 70
     1
  9
$DIMPOST
  1

  9
$DIMAPOST
  1

  9
$DIMALT
 70
     0
  9
$DIMALTD
 70
     3
  9
$DIMALTF
 40
0.03937007874016
  9
$DIMLFAC
 40
1.0
  9
$DIMTOFL
 70
     1
  9
$DIMTVP
 40
0.0
  9
$DIMTIX
 70
     0
  9
$DIMSOXD
 70
     0
  9
$DIMSAH
 70
     0
  9
$DIMBLK1
  1

  9
$DIMBLK2
  1

  9
$DIMSTYLE
  2
ISO-25
  9
$DIMCLRD
 70
     0
  9
$DIMCLRE
 70
     0
  9
$DIMCLRT
 70
     0
  9
$DIMTFAC
 40
1.0
  9
$DIMGAP
 40
0.625
  9
$DIMJUST
 70
     0
  9
$DIMSD1
 70
     0
  9
$DIMSD2
 70
     0
  9
$DIMTOLJ
 70
     0
  9
$DIMTZIN
 70
     8
  9
$DIMALTZ
 70
     0
  9
$DIMALTTZ
 70
     0
  9
$DIMUPT
 70
     0
  9
$DIMDEC
 70
     0
  9
$DIMTDEC
 70
     0
  9
$DIMALTU
 70
     2
  9
$DIMALTTD
 70
     3
  9
$DIMTXSTY
  7
STANDARD
  9
$DIMAUNIT
 70
     0
  9
$DIMADEC
 70
     0
  9
$DIMALTRND
 40
0.0
  9
$DIMAZIN
 70
     0
  9
$DIMDSEP
 70
    46
  9
$DIMATFIT
 70
     3
  9
$DIMFRAC
 70
     0
  9
$DIMLDRBLK
  1

  9
$DIMLUNIT
 70
     2
  9
$DIMLWD
 70
    -2
  9
$DIMLWE
 70
    -2
  9
$DIMTMOVE
 70
     0
  9
$LUNITS
 70
     2
  9
$LUPREC
 70
     4
  9
$SKETCHINC
 40
1.0
  9
$FILLETRAD
 40
10.0
  9
$AUNITS
 70
     0
  9
$AUPREC
 70
     0
  9
$MENU
  1
.
  9
$ELEVATION
 40
0.0
  9
$PELEVATION
 40
0.0
  9
$THICKNESS
 40
0.0
  9
$LIMCHECK
 70
     0
  9
$CHAMFERA
 40
10.0
  9
$CHAMFERB
 40
10.0
  9
$CHAMFERC
 40
20.0
  9
$CHAMFERD
 40
0.0
  9
$SKPOLY
 70
     0
  9
$TDCREATE
 40
2453312.371317361
  9
$TDUCREATE
 40
2453311.996317361
  9
$TDUPDATE
 40
2454637.665092824
  9
$TDUUPDATE
 40
2454637.290092824
  9
$TDINDWG
 40
0.0394981481
  9
$TDUSRTIMER
 40
0.0394976736
  9
$USRTIMER
 70
     1
  9
$ANGBASE
 50
0.0
  9
$ANGDIR
 70
     0
  9
$PDMODE
 70
    34
  9
$PDSIZE
 40
0.0
  9
$PLINEWID
 40
0.0
  9
$SPLFRAME
 70
     0
  9
$SPLINETYPE
 70
     6
  9
$SPLINESEGS
 70
     8
  9
$HANDSEED
  5
2A08
  9
$SURFTAB1
 70
     6
  9
$SURFTAB2
 70
     6
  9
$SURFTYPE
 70
     6
  9
$SURFU
 70
     6
  9
$SURFV
 70
     6
  9
$UCSBASE
  2

  9
$UCSNAME
  2

  9
$UCSORG
 10
0.0
 20
0.0
 30
0.0
  9
$UCSXDIR
 10
1.0
 20
0.0
 30
0.0
  9
$UCSYDIR
 10
0.0
 20
1.0
 30
0.0
  9
$UCSORTHOREF
  2

  9
$UCSORTHOVIEW
 70
     0
  9
$UCSORGTOP
 10
0.0
 20
0.0
 30
0.0
  9
$UCSORGBOTTOM
 10
0.0
 20
0.0
 30
0.0
  9
$UCSORGLEFT
 10
0.0
 20
0.0
 30
0.0
  9
$UCSORGRIGHT
 10
0.0
 20
0.0
 30
0.0
  9
$UCSORGFRONT
 10
0.0
 20
0.0
 30
0.0
  9
$UCSORGBACK
 10
0.0
 20
0.0
 30
0.0
  9
$PUCSBASE
  2

  9
$PUCSNAME
  2

  9
$PUCSORG
 10
0.0
 20
0.0
 30
0.0
  9
$PUCSXDIR
 10
1.0
 20
0.0
 30
0.0
  9
$PUCSYDIR
 10
0.0
 20
1.0
 30
0.0
  9
$PUCSORTHOREF
  2

  9
$PUCSORTHOVIEW
 70
     0
  9
$PUCSORGTOP
 10
0.0
 20
0.0
 30
0.0
  9
$PUCSORGBOTTOM
 10
0.0
 20
0.0
 30
0.0
  9
$PUCSORGLEFT
 10
0.0
 20
0.0
 30
0.0
  9
$PUCSORGRIGHT
 10
0.0
 20
0.0
 30
0.0
  9
$PUCSORGFRONT
 10
0.0
 20
0.0
 30
0.0
  9
$PUCSORGBACK
 10
0.0
 20
0.0
 30
0.0
  9
$USERI1
 70
     0
  9
$USERI2
 70
     0
  9
$USERI3
 70
     0
  9
$USERI4
 70
     0
  9
$USERI5
 70
     0
  9
$USERR1
 40
0.0
  9
$USERR2
 40
0.0
  9
$USERR3
 40
0.0
  9
$USERR4
 40
0.0
  9
$USERR5
 40
0.0
  9
$WORLDVIEW
 70
     1
  9
$SHADEDGE
 70
     3
  9
$SHADEDIF
 70
    70
  9
$TILEMODE
 70
     1
  9
$MAXACTVP
 70
    48
  9
$PINSBASE
 10
0.0
 20
0.0
 30
0.0
  9
$PLIMCHECK
 70
     0
  9
$PEXTMIN
 10
1.049999952316283
 20
0.7999999523162842
 30
0.0
  9
$PEXTMAX
 10
9.449999570846555
 20
7.199999570846556
 30
0.0
  9
$PLIMMIN
 10
-0.2500002402958907
 20
-0.2499999962453767
  9
$PLIMMAX
 10
10.74999951940821
 20
8.249999763458731
  9
$UNITMODE
 70
     0
  9
$VISRETAIN
 70
     1
  9
$PLINEGEN
 70
     0
  9
$PSLTSCALE
 70
     1
  9
$TREEDEPTH
 70
  3020
  9
$CMLSTYLE
  2
STANDARD
  9
$CMLJUST
 70
     0
  9
$CMLSCALE
 40
20.0
  9
$PROXYGRAPHICS
 70
     1
  9
$MEASUREMENT
 70
     0
  9
$CELWEIGHT
370
    -1
  9
$ENDCAPS
280
     0
  9
$JOINSTYLE
280
     0
  9
$LWDISPLAY
290
     0
  9
$INSUNITS
 70
     0
  9
$HYPERLINKBASE
  1

  9
$STYLESHEET
  1

  9
$XEDIT
290
     1
  9
$CEPSNTYPE
380
     0
  9
$PSTYLEMODE
290
     1
  9
$FINGERPRINTGUID
  2
{C8342AD0-ADE8-45AD-AC00-933185DE4E38}
  9
$VERSIONGUID
  2
{7BAC9BA0-CB6E-4AB3-869D-2B962159BBA1}
  9
$EXTNAMES
290
     1
  9
$PSVPSCALE
 40
0.0
  9
$OLESTARTUP
290
     0
  0
ENDSEC
  0
SECTION
  2
CLASSES
  0
CLASS
  1
ACDBDICTIONARYWDFLT
  2
AcDbDictionaryWithDefault
  3
AutoCAD 2000
 90
        0
280
     0
281
     0
  0
CLASS
  1
ACDBPLACEHOLDER
  2
AcDbPlaceHolder
  3
AutoCAD 2000
 90
        0
280
     0
281
     0
  0
CLASS
  1
LAYOUT
  2
AcDbLayout
  3
AutoCAD 2000
 90
        0
280
     0
281
     0
  0
CLASS
  1
LONG_TRANSACTION
  2
AcDbLongTransaction
  3
AutoCAD 2000
 90
    32768
280
     0
281
     0
  0
CLASS
  1
LWPOLYLINE
  2
AcDbPolyline
  3
AutoCAD 2000
 90
    32768
280
     0
281
     1
  0
CLASS
  1
HATCH
  2
AcDbHatch
  3
AutoCAD 2000
 90
    32768
280
     0
281
     1
  0
CLASS
  1
XRECORD
  2
AcDbXrecord
  3
AutoCAD 2000
 90
    32768
280
     0
281
     0
  0
CLASS
  1
DICTIONARYVAR
  2
AcDbDictionaryVar
  3
AutoCAD 2000
 90
        0
280
     0
281
     0
  0
CLASS
  1
LONG_TRANSACTION
  2
AcDbLongTransaction
  3
AutoCAD 2000
 90
    32768
280
     0
281
     0
  0
CLASS
  1
LWPOLYLINE
  2
AcDbPolyline
  3
AutoCAD 2000
 90
    32768
280
     0
281
     1
  0
CLASS
  1
HATCH
  2
AcDbHatch
  3
AutoCAD 2000
 90
    32768
280
     0
281
     1
  0
CLASS
  1
XRECORD
  2
AcDbXrecord
  3
AutoCAD 2000
 90
    32768
280
     0
281
     0
  0
CLASS
  1
LONG_TRANSACTION
  2
AcDbLongTransaction
  3
AutoCAD 2000
 90
    32768
280
     0
281
     0
  0
CLASS
  1
LWPOLYLINE
  2
AcDbPolyline
  3
AutoCAD 2000
 90
    32768
280
     0
281
     1
  0
CLASS
  1
HATCH
  2
AcDbHatch
  3
AutoCAD 2000
 90
    32768
280
     0
281
     1
  0
CLASS
  1
XRECORD
  2
AcDbXrecord
  3
AutoCAD 2000
 90
    32768
280
     0
281
     0
  0
CLASS
  1
LONG_TRANSACTION
  2
AcDbLongTransaction
  3
AutoCAD 2000
 90
    32768
280
     0
281
     0
  0
CLASS
  1
LWPOLYLINE
  2
AcDbPolyline
  3
AutoCAD 2000
 90
    32768
280
     0
281
     1
  0
CLASS
  1
HATCH
  2
AcDbHatch
  3
AutoCAD 2000
 90
    32768
280
     0
281
     1
  0
CLASS
  1
XRECORD
  2
AcDbXrecord
  3
AutoCAD 2000
 90
    32768
280
     0
281
     0
  0
CLASS
  1
LONG_TRANSACTION
  2
AcDbLongTransaction
  3
AutoCAD 2000
 90
    32768
280
     0
281
     0
  0
CLASS
  1
LWPOLYLINE
  2
AcDbPolyline
  3
AutoCAD 2000
 90
    32768
280
     0
281
     1
  0
CLASS
  1
HATCH
  2
AcDbHatch
  3
AutoCAD 2000
 90
    32768
280
     0
281
     1
  0
CLASS
  1
XRECORD
  2
AcDbXrecord
  3
AutoCAD 2000
 90
    32768
280
     0
281
     0
  0
CLASS
  1
LONG_TRANSACTION
  2
AcDbLongTransaction
  3
AutoCAD 2000
 90
    32768
280
     0
281
     0
  0
CLASS
  1
LWPOLYLINE
  2
AcDbPolyline
  3
AutoCAD 2000
 90
    32768
280
     0
281
     1
  0
CLASS
  1
HATCH
  2
AcDbHatch
  3
AutoCAD 2000
 90
    32768
280
     0
281
     1
  0
CLASS
  1
XRECORD
  2
AcDbXrecord
  3
AutoCAD 2000
 90
    32768
280
     0
281
     0
  0
CLASS
  1
LONG_TRANSACTION
  2
AcDbLongTransaction
  3
AutoCAD 2000
 90
    32768
280
     0
281
     0
  0
CLASS
  1
LWPOLYLINE
  2
AcDbPolyline
  3
AutoCAD 2000
 90
    32768
280
     0
281
     1
  0
CLASS
  1
HATCH
  2
AcDbHatch
  3
AutoCAD 2000
 90
    32768
280
     0
281
     1
  0
CLASS
  1
XRECORD
  2
AcDbXrecord
  3
AutoCAD 2000
 90
    32768
280
     0
281
     0
  0
CLASS
  1
LONG_TRANSACTION
  2
AcDbLongTransaction
  3
AutoCAD 2000
 90
    32768
280
     0
281
     0
  0
CLASS
  1
LWPOLYLINE
  2
AcDbPolyline
  3
AutoCAD 2000
 90
    32768
280
     0
281
     1
  0
CLASS
  1
HATCH
  2
AcDbHatch
  3
AutoCAD 2000
 90
    32768
280
     0
281
     1
  0
CLASS
  1
XRECORD
  2
AcDbXrecord
  3
AutoCAD 2000
 90
    32768
280
     0
281
     0
  0
CLASS
  1
LONG_TRANSACTION
  2
AcDbLongTransaction
  3
AutoCAD 2000
 90
    32768
280
     0
281
     0
  0
CLASS
  1
LWPOLYLINE
  2
AcDbPolyline
  3
AutoCAD 2000
 90
    32768
280
     0
281
     1
  0
CLASS
  1
HATCH
  2
AcDbHatch
  3
AutoCAD 2000
 90
    32768
280
     0
281
     1
  0
CLASS
  1
XRECORD
  2
AcDbXrecord
  3
AutoCAD 2000
 90
    32768
280
     0
281
     0
  0
CLASS
  1
LONG_TRANSACTION
  2
AcDbLongTransaction
  3
AutoCAD 2000
 90
    32768
280
     0
281
     0
  0
CLASS
  1
LWPOLYLINE
  2
AcDbPolyline
  3
AutoCAD 2000
 90
    32768
280
     0
281
     1
  0
CLASS
  1
HATCH
  2
AcDbHatch
  3
AutoCAD 2000
 90
    32768
280
     0
281
     1
  0
CLASS
  1
XRECORD
  2
AcDbXrecord
  3
AutoCAD 2000
 90
    32768
280
     0
281
     0
  0
ENDSEC
  0
SECTION
  2
TABLES
  0
TABLE
  2
VPORT
  5
8
330
0
100
AcDbSymbolTable
 70
     3
  0
VPORT
  5
2A07
330
8
100
AcDbSymbolTableRecord
100
AcDbViewportTableRecord
  2
*Active
 70
     0
 10
0.0
 20
0.0
 11
1.0
 21
1.0
 12
2884.99980147149
 22
1395.013677480272
 13
0.0
 23
0.0
 14
10.0
 24
10.0
 15
10.0
 25
10.0
 16
0.0
 26
0.0
 36
1.0
 17
0.0
 27
0.0
 37
0.0
 40
1558.675987528117
 41
1.527918781725888
 42
50.0
 43
0.0
 44
0.0
 50
0.0
 51
0.0
 71
     0
 72
   100
 73
     1
 74
     3
 75
     0
 76
     0
 77
     0
 78
     0
281
     0
 65
     1
110
0.0
120
0.0
130
0.0
111
1.0
121
0.0
131
0.0
112
0.0
122
1.0
132
0.0
 79
     0
146
0.0
  0
ENDTAB
  0
TABLE
  2
LTYPE
  5
5
330
0
100
AcDbSymbolTable
 70
     3
  0
LTYPE
  5
14
330
5
100
AcDbSymbolTableRecord
100
AcDbLinetypeTableRecord
  2
BYBLOCK
 70
     0
  3

 72
    65
 73
     0
 40
0.0
  0
LTYPE
  5
15
330
5
100
AcDbSymbolTableRecord
100
AcDbLinetypeTableRecord
  2
BYLAYER
 70
     0
  3

 72
    65
 73
     0
 40
0.0
  0
LTYPE
  5
16
330
5
100
AcDbSymbolTableRecord
100
AcDbLinetypeTableRecord
  2
CONTINUOUS
 70
     0
  3
Solid line
 72
    65
 73
     0
 40
0.0
  0
LTYPE
  5
35
330
5
100
AcDbSymbolTableRecord
100
AcDbLinetypeTableRecord
  2
PHANTOMX2
 70
     0
  3
Phantom (2x) ____________    ____    ____   _
 72
    65
 73
     6
 40
127.0
 49
63.5
 74
     0
 49
-12.7
 74
     0
 49
12.7
 74
     0
 49
-12.7
 74
     0
 49
12.7
 74
     0
 49
-12.7
 74
     0
  0
LTYPE
  5
36
330
5
100
AcDbSymbolTableRecord
100
AcDbLinetypeTableRecord
  2
CENTERX2
 70
     0
  3
Center (2x) ________  __  ________  __  _____
 72
    65
 73
     4
 40
101.6
 49
63.5
 74
     0
 49
-12.7
 74
     0
 49
12.7
 74
     0
 49
-12.7
 74
     0
  0
ENDTAB
  0
TABLE
  2
LAYER
  5
2
330
0
100
AcDbSymbolTable
 70
     7
  0
LAYER
  5
10
330
2
100
AcDbSymbolTableRecord
100
AcDbLayerTableRecord
  2
0
 70
     0
 62
     7
  6
CONTINUOUS
370
    -3
390
48
  0
LAYER
  5
2D
330
2
100
AcDbSymbolTableRecord
100
AcDbLayerTableRecord
  2
10
 70
     0
 62
     4
  6
CONTINUOUS
370
    -3
390
48
  0
LAYER
  5
2F
330
2
100
AcDbSymbolTableRecord
100
AcDbLayerTableRecord
  2
12
 70
     0
 62
     3
  6
CONTINUOUS
370
    -3
390
48
  0
LAYER
  5
31
330
2
100
AcDbSymbolTableRecord
100
AcDbLayerTableRecord
  2
16
 70
     0
 62
     4
  6
CENTERX2
370
    -3
390
48
  0
LAYER
  5
33
330
2
100
AcDbSymbolTableRecord
100
AcDbLayerTableRecord
  2
18
 70
     0
 62
     1
  6
PHANTOMX2
370
    -3
390
48
  0
LAYER
  5
34
330
2
100
AcDbSymbolTableRecord
100
AcDbLayerTableRecord
  2
19
 70
     0
 62
     7
  6
CONTINUOUS
370
    -3
390
48
  0
LAYER
  5
1C41
330
2
100
AcDbSymbolTableRecord
100
AcDbLayerTableRecord
  2
DEFPOINTS
 70
     0
 62
     7
  6
CONTINUOUS
290
     0
370
    -3
390
48
  0
ENDTAB
  0
TABLE
  2
STYLE
  5
3
330
0
100
AcDbSymbolTable
 70
     2
  0
STYLE
  5
11
330
3
100
AcDbSymbolTableRecord
100
AcDbTextStyleTableRecord
  2
STANDARD
 70
     0
 40
0.0
 41
1.0
 50
0.0
 71
     0
 42
2.5
  3
txt
  4

  0
STYLE
  5
56
330
3
100
AcDbSymbolTableRecord
100
AcDbTextStyleTableRecord
  2
STANDARD1
 70
     0
 40
0.0
 41
0.7
 50
0.0
 71
     0
 42
4.0
  3
romans.shx
  4
extfont.shx
  0
ENDTAB
  0
TABLE
  2
VIEW
  5
6
330
0
100
AcDbSymbolTable
 70
     0
  0
ENDTAB
  0
TABLE
  2
UCS
  5
7
330
0
100
AcDbSymbolTable
 70
     0
  0
ENDTAB
  0
TABLE
  2
APPID
  5
9
330
0
100
AcDbSymbolTable
 70
     1
  0
APPID
  5
12
330
9
100
AcDbSymbolTableRecord
100
AcDbRegAppTableRecord
  2
ACAD
 70
     0
  0
ENDTAB
  0
TABLE
  2
DIMSTYLE
  5
A
330
0
100
AcDbSymbolTable
 70
     2
100
AcDbDimStyleTable
 71
     1
340
27
  0
DIMSTYLE
105
27
330
A
100
AcDbSymbolTableRecord
100
AcDbDimStyleTableRecord
  2
ISO-25
 70
     0
 41
2.5
 42
0.625
 43
3.75
 44
1.25
 73
     0
 74
     0
 77
     1
 78
     8
140
2.5
141
2.5
143
0.03937007874016
147
0.625
171
     3
172
     1
271
     0
272
     0
274
     3
283
     0
284
     8
340
11
  0
DIMSTYLE
105
1C42
330
A
100
AcDbSymbolTableRecord
100
AcDbDimStyleTableRecord
  2
STANDARD
 70
     0
340
11
  0
ENDTAB
  0
TABLE
  2
BLOCK_RECORD
  5
1
330
0
100
AcDbSymbolTable
 70
     1
  0
BLOCK_RECORD
  5
1F
102
{ACAD_XDICTIONARY
360
41
102
}
330
1
100
AcDbSymbolTableRecord
100
AcDbBlockTableRecord
  2
*MODEL_SPACE
340
49
  0
BLOCK_RECORD
  5
1B
102
{ACAD_XDICTIONARY
360
3F
102
}
330
1
100
AcDbSymbolTableRecord
100
AcDbBlockTableRecord
  2
*PAPER_SPACE
340
4A
  0
BLOCK_RECORD
  5
1B38
330
1
100
AcDbSymbolTableRecord
100
AcDbBlockTableRecord
  2
SYM28
340
0
102
{BLKREFS
331
242B
331
242F
331
2441
331
245A
331
2466
331
246F
102
}
  0
ENDTAB
  0
ENDSEC
  0
SECTION
  2
BLOCKS
  0
BLOCK
  5
20
330
1F
100
AcDbEntity
  8
0
100
AcDbBlockBegin
  2
*MODEL_SPACE
 70
     0
 10
0.0
 20
0.0
 30
0.0
  3
*MODEL_SPACE
  1

  0
ENDBLK
  5
21
330
1F
100
AcDbEntity
  8
0
100
AcDbBlockEnd
  0
BLOCK
  5
1C
330
1B
100
AcDbEntity
 67
     1
  8
0
100
AcDbBlockBegin
  2
*PAPER_SPACE
 70
     0
 10
0.0
 20
0.0
 30
0.0
  3
*PAPER_SPACE
  1

  0
ENDBLK
  5
1D
330
1B
100
AcDbEntity
 67
     1
  8
0
100
AcDbBlockEnd
  0
BLOCK
  5
1B4B
330
1B38
100
AcDbEntity
  8
16
100
AcDbBlockBegin
  2
SYM28
 70
     0
 10
0.0
 20
0.0
 30
0.0
  3
SYM28
  1

  0
LINE
  5
1B39
330
1B38
100
AcDbEntity
  8
16
  6
Continuous
 62
     3
100
AcDbLine
 10
1.934123401785249
 20
-4.9
 30
0.0
 11
6.065876598214752
 21
-4.9
 31
0.0
  0
LINE
  5
1B3A
330
1B38
100
AcDbEntity
  8
16
  6
Continuous
 62
     3
100
AcDbLine
 10
0.0
 20
-8.249999999999994
 30
0.0
 11
0.8948929172439241
 21
-9.8
 31
0.0
  0
LINE
  5
1B3B
330
1B38
100
AcDbEntity
  8
16
  6
Continuous
 62
     3
100
AcDbLine
 10
0.000000000000003
 20
-8.25
 30
0.0
 11
1.934123401785249
 21
-4.9
 31
0.0
  0
LINE
  5
1B3C
330
1B38
100
AcDbEntity
  8
16
  6
Continuous
 62
     3
100
AcDbLine
 10
0.000000000000002
 20
-1.55
 30
0.0
 11
1.934123401785249
 21
-4.9
 31
0.0
  0
LINE
  5
1B3D
330
1B38
100
AcDbEntity
  8
16
  6
Continuous
 62
     3
100
AcDbLine
 10
0.000000000000002
 20
1.55
 30
0.0
 11
1.934123401785248
 21
4.9
 31
0.0
  0
LINE
  5
1B3E
330
1B38
100
AcDbEntity
  8
16
  6
Continuous
 62
     3
100
AcDbLine
 10
0.000000000000001
 20
8.25
 30
0.0
 11
1.934123401785248
 21
4.9
 31
0.0
  0
LINE
  5
1B3F
330
1B38
100
AcDbEntity
  8
16
  6
Continuous
 62
     3
100
AcDbLine
 10
0.0
 20
8.25
 30
0.0
 11
0.8948929172439219
 21
9.8
 31
0.0
  0
LINE
  5
1B40
330
1B38
100
AcDbEntity
  8
16
  6
Continuous
 62
     3
100
AcDbLine
 10
8.0
 20
-1.55
 30
0.0
 11
6.065876598214752
 21
-4.9
 31
0.0
  0
LINE
  5
1B41
330
1B38
100
AcDbEntity
  8
16
  6
Continuous
 62
     3
100
AcDbLine
 10
8.0
 20
-8.25
 30
0.0
 11
6.065876598214752
 21
-4.9
 31
0.0
  0
LINE
  5
1B42
330
1B38
100
AcDbEntity
  8
16
  6
Continuous
 62
     3
100
AcDbLine
 10
8.0
 20
-8.25
 30
0.0
 11
7.10510708275608
 21
-9.8
 31
0.0
  0
LINE
  5
1B43
330
1B38
100
AcDbEntity
  8
16
  6
Continuous
 62
     3
100
AcDbLine
 10
8.0
 20
1.55
 30
0.0
 11
6.065876598214752
 21
4.9
 31
0.0
  0
LINE
  5
1B44
330
1B38
100
AcDbEntity
  8
16
  6
Continuous
 62
     3
100
AcDbLine
 10
1.934123401785249
 20
4.9
 30
0.0
 11
6.065876598214752
 21
4.9
 31
0.0
  0
LINE
  5
1B45
330
1B38
100
AcDbEntity
  8
16
  6
Continuous
 62
     3
100
AcDbLine
 10
7.10510708275608
 20
-9.8
 30
0.0
 11
0.8948929172439241
 21
-9.8
 31
0.0
  0
LINE
  5
1B46
330
1B38
100
AcDbEntity
  8
16
  6
Continuous
 62
     3
100
AcDbLine
 10
7.10510708275608
 20
9.8
 30
0.0
 11
0.8948929172439219
 21
9.8
 31
0.0
  0
LINE
  5
1B47
330
1B38
100
AcDbEntity
  8
16
  6
Continuous
 62
     3
100
AcDbLine
 10
8.0
 20
8.25
 30
0.0
 11
8.0
 21
-8.25
 31
0.0
  0
LINE
  5
1B48
330
1B38
100
AcDbEntity
  8
16
  6
Continuous
 62
     3
100
AcDbLine
 10
0.0
 20
8.25
 30
0.0
 11
0.0
 21
-8.249999999999994
 31
0.0
  0
LINE
  5
1B49
330
1B38
100
AcDbEntity
  8
16
  6
Continuous
 62
     3
100
AcDbLine
 10
8.0
 20
8.25
 30
0.0
 11
7.10510708275608
 21
9.8
 31
0.0
  0
LINE
  5
1B4A
330
1B38
100
AcDbEntity
  8
16
  6
Continuous
 62
     3
100
AcDbLine
 10
8.0
 20
8.25
 30
0.0
 11
6.065876598214752
 21
4.9
 31
0.0
  0
ENDBLK
  5
1B4C
330
1B38
100
AcDbEntity
  8
16
100
AcDbBlockEnd
  0
ENDSEC
  0
SECTION
  2
ENTITIES
  0
LINE
  5
21D2
330
1F
100
AcDbEntity
  8
10
100
AcDbLine
 10
2354.611502756229
 20
1034.442134840559
 30
0.0
 11
2354.611502756229
 21
925.4421348405584
 31
0.0
  0
LINE
  5
21D3
330
1F
100
AcDbEntity
  8
10
100
AcDbLine
 10
1954.611502756229
 20
1034.442134840558
 30
0.0
 11
1954.611502756229
 21
925.4421348405584
 31
0.0
  0
LINE
  5
21D4
330
1F
100
AcDbEntity
  8
10
100
AcDbLine
 10
2353.011502756229
 20
1028.042134840559
 30
0.0
 11
2353.011502756229
 21
961.4421348405587
 31
0.0
  0
LINE
  5
21D5
330
1F
100
AcDbEntity
  8
10
100
AcDbLine
 10
1956.211502756229
 20
1028.042134840558
 30
0.0
 11
1956.211502756229
 21
960.9421348405582
 31
0.0
  0
LINE
  5
21D6
330
1F
100
AcDbEntity
  8
10
100
AcDbLine
 10
2028.794577856961
 20
980.942134840558
 30
0.0
 11
2028.794577856961
 21
959.9421348405579
 31
0.0
  0
LINE
  5
21D7
330
1F
100
AcDbEntity
  8
10
100
AcDbLine
 10
2032.79457785696
 20
983.9421348405583
 30
0.0
 11
2032.79457785696
 21
974.9421348405579
 31
0.0
  0
LINE
  5
21D8
330
1F
100
AcDbEntity
  8
10
100
AcDbLine
 10
1988.794577856961
 20
983.9421348405583
 30
0.0
 11
1988.794577856961
 21
974.9421348405579
 31
0.0
  0
LINE
  5
21D9
330
1F
100
AcDbEntity
  8
10
100
AcDbLine
 10
2017.294577856961
 20
980.942134840558
 30
0.0
 11
2017.294577856961
 21
959.9421348405579
 31
0.0
  0
LINE
  5
21DA
330
1F
100
AcDbEntity
  8
10
100
AcDbLine
 10
2005.794577856961
 20
980.942134840558
 30
0.0
 11
2005.794577856961
 21
959.9421348405579
 31
0.0
  0
LINE
  5
21DB
330
1F
100
AcDbEntity
  8
10
100
AcDbLine
 10
2027.294577856961
 20
959.9421348405579
 30
0.0
 11
2027.294577856961
 21
980.942134840558
 31
0.0
  0
LINE
  5
21DC
330
1F
100
AcDbEntity
  8
10
100
AcDbLine
 10
2015.794577856961
 20
959.9421348405579
 30
0.0
 11
2015.794577856961
 21
980.942134840558
 31
0.0
  0
LINE
  5
21DD
330
1F
100
AcDbEntity
  8
10
100
AcDbLine
 10
2004.294577856961
 20
959.9421348405579
 30
0.0
 11
2004.294577856961
 21
980.942134840558
 31
0.0
  0
LINE
  5
21DE
330
1F
100
AcDbEntity
  8
10
100
AcDbLine
 10
1994.294577856961
 20
959.9421348405579
 30
0.0
 11
1994.294577856961
 21
980.942134840558
 31
0.0
  0
LINE
  5
21DF
330
1F
100
AcDbEntity
  8
10
100
AcDbLine
 10
1992.794577856961
 20
980.942134840558
 30
0.0
 11
1992.794577856961
 21
959.9421348405579
 31
0.0
  0
ARC
  5
21E0
330
1F
100
AcDbEntity
  8
10
100
AcDbCircle
 10
2325.111502756229
 20
976.5421348405579
 30
0.0
 40
4.499999999999988
100
AcDbArc
 50
148.6677485024054
 51
180.0
  0
ARC
  5
21E1
330
1F
100
AcDbEntity
  8
10
100
AcDbCircle
 10
2325.111502756229
 20
978.3421348405582
 30
0.0
 40
1.500000000000004
100
AcDbArc
 50
0.0
 51
90.0
  0
ARC
  5
21E2
330
1F
100
AcDbEntity
  8
10
100
AcDbCircle
 10
2325.111502756229
 20
978.3421348405582
 30
0.0
 40
1.500000000000019
100
AcDbArc
 50
90.0
 51
180.0
  0
ARC
  5
21E3
330
1F
100
AcDbEntity
  8
10
100
AcDbCircle
 10
2189.111502756229
 20
976.5421348405579
 30
0.0
 40
4.499999999999993
100
AcDbArc
 50
148.6677485024054
 51
180.0
  0
ARC
  5
21E4
330
1F
100
AcDbEntity
  8
10
100
AcDbCircle
 10
2189.111502756229
 20
976.5421348405579
 30
0.0
 40
4.499999999999993
100
AcDbArc
 50
0.0
 51
31.33225149759446
  0
ARC
  5
21E5
330
1F
100
AcDbEntity
  8
10
100
AcDbCircle
 10
2189.111502756229
 20
978.3421348405582
 30
0.0
 40
1.500000000000004
100
AcDbArc
 50
90.0
 51
180.0
  0
ARC
  5
21E6
330
1F
100
AcDbEntity
  8
10
100
AcDbCircle
 10
2189.111502756229
 20
978.3421348405582
 30
0.0
 40
1.499999999999984
100
AcDbArc
 50
0.0
 51
90.0
  0
ARC
  5
21E7
330
1F
100
AcDbEntity
  8
10
100
AcDbCircle
 10
2053.111502756229
 20
976.5421348405579
 30
0.0
 40
4.499999999999962
100
AcDbArc
 50
148.6677485024054
 51
180.0
  0
ARC
  5
21E8
330
1F
100
AcDbEntity
  8
10
100
AcDbCircle
 10
2053.111502756229
 20
976.5421348405579
 30
0.0
 40
4.500000000000028
100
AcDbArc
 50
0.0
 51
31.33225149759446
  0
ARC
  5
21E9
330
1F
100
AcDbEntity
  8
10
100
AcDbCircle
 10
2053.111502756229
 20
978.3421348405582
 30
0.0
 40
1.500000000000004
100
AcDbArc
 50
90.0
 51
180.0
  0
ARC
  5
21EA
330
1F
100
AcDbEntity
  8
10
100
AcDbCircle
 10
2053.111502756229
 20
978.3421348405582
 30
0.0
 40
1.499999999999984
100
AcDbArc
 50
0.0
 51
90.0
  0
LINE
  5
21EB
330
1F
100
AcDbEntity
  8
10
100
AcDbLine
 10
1956.611502756229
 20
1027.642134840557
 30
0.0
 11
1956.611502756229
 21
961.4421348405578
 31
0.0
  0
LINE
  5
21EC
330
1F
100
AcDbEntity
  8
10
100
AcDbLine
 10
2352.611502756229
 20
1027.642134840559
 30
0.0
 11
2352.611502756229
 21
961.4421348405587
 31
0.0
  0
LINE
  5
21ED
330
1F
100
AcDbEntity
  8
10
100
AcDbLine
 10
2326.611502756228
 20
1027.642134840559
 30
0.0
 11
2326.611502756228
 21
970.5421348405586
 31
0.0
  0
LINE
  5
21EE
330
1F
100
AcDbEntity
  8
10
100
AcDbLine
 10
1982.611502756228
 20
1027.642134840557
 30
0.0
 11
1982.611502756228
 21
970.5421348405586
 31
0.0
  0
LINE
  5
21EF
330
1F
100
AcDbEntity
  8
10
100
AcDbLine
 10
2067.111502756229
 20
1017.442134840558
 30
0.0
 11
2067.111502756229
 21
974.4421348405582
 31
0.0
  0
LINE
  5
21F0
330
1F
100
AcDbEntity
  8
10
100
AcDbLine
 10
2105.111502756229
 20
1017.442134840558
 30
0.0
 11
2105.111502756229
 21
974.4421348405582
 31
0.0
  0
LINE
  5
21F1
330
1F
100
AcDbEntity
  8
10
100
AcDbLine
 10
2099.111502756229
 20
1017.442134840558
 30
0.0
 11
2099.111502756229
 21
974.4421348405582
 31
0.0
  0
LINE
  5
21F2
330
1F
100
AcDbEntity
  8
10
100
AcDbLine
 10
2137.111502756229
 20
1017.442134840558
 30
0.0
 11
2137.111502756229
 21
974.4421348405582
 31
0.0
  0
LINE
  5
21F3
330
1F
100
AcDbEntity
  8
10
100
AcDbLine
 10
2143.111502756229
 20
1017.442134840558
 30
0.0
 11
2143.111502756229
 21
974.4421348405582
 31
0.0
  0
LINE
  5
21F4
330
1F
100
AcDbEntity
  8
10
100
AcDbLine
 10
2175.111502756229
 20
1017.442134840558
 30
0.0
 11
2175.111502756229
 21
974.4421348405582
 31
0.0
  0
LINE
  5
21F5
330
1F
100
AcDbEntity
  8
10
100
AcDbLine
 10
2054.111502756229
 20
1007.442134840558
 30
0.0
 11
2061.111502756229
 21
974.4421348405582
 31
0.0
  0
LINE
  5
21F6
330
1F
100
AcDbEntity
  8
10
100
AcDbLine
 10
2188.111502756229
 20
1007.442134840558
 30
0.0
 11
2181.111502756228
 21
974.4421348405582
 31
0.0
  0
LINE
  5
21F7
330
1F
100
AcDbEntity
  8
10
100
AcDbLine
 10
2203.111502756228
 20
1017.442134840558
 30
0.0
 11
2203.111502756228
 21
974.4421348405582
 31
0.0
  0
LINE
  5
21F8
330
1F
100
AcDbEntity
  8
10
100
AcDbLine
 10
2241.111502756228
 20
1017.442134840558
 30
0.0
 11
2241.111502756228
 21
974.4421348405582
 31
0.0
  0
LINE
  5
21F9
330
1F
100
AcDbEntity
  8
10
100
AcDbLine
 10
2235.111502756228
 20
1017.442134840558
 30
0.0
 11
2235.111502756228
 21
974.4421348405582
 31
0.0
  0
LINE
  5
21FA
330
1F
100
AcDbEntity
  8
10
100
AcDbLine
 10
2273.111502756229
 20
1017.442134840558
 30
0.0
 11
2273.111502756229
 21
974.4421348405582
 31
0.0
  0
LINE
  5
21FB
330
1F
100
AcDbEntity
  8
10
100
AcDbLine
 10
2279.111502756228
 20
1017.442134840558
 30
0.0
 11
2279.111502756228
 21
974.4421348405582
 31
0.0
  0
LINE
  5
21FC
330
1F
100
AcDbEntity
  8
10
100
AcDbLine
 10
2311.111502756229
 20
1017.442134840558
 30
0.0
 11
2311.111502756229
 21
974.4421348405582
 31
0.0
  0
LINE
  5
21FD
330
1F
100
AcDbEntity
  8
10
100
AcDbLine
 10
2190.111502756229
 20
1007.442134840558
 30
0.0
 11
2197.111502756229
 21
974.4421348405582
 31
0.0
  0
LINE
  5
21FE
330
1F
100
AcDbEntity
  8
10
100
AcDbLine
 10
2324.111502756228
 20
1007.442134840558
 30
0.0
 11
2317.111502756229
 21
974.4421348405582
 31
0.0
  0
LINE
  5
2200
330
1F
100
AcDbEntity
  8
10
100
AcDbLine
 10
1994.611502756228
 20
937.4421348405588
 30
0.0
 11
2314.611502756229
 21
937.4421348405588
 31
0.0
  0
LINE
  5
2201
330
1F
100
AcDbEntity
  8
10
100
AcDbLine
 10
2354.611502756229
 20
925.4421348405584
 30
0.0
 11
1954.611502756229
 21
925.4421348405584
 31
0.0
  0
LINE
  5
2202
330
1F
100
AcDbEntity
  8
10
100
AcDbLine
 10
2354.611502756229
 20
928.6421348405584
 30
0.0
 11
1954.611502756229
 21
928.6421348405584
 31
0.0
  0
LINE
  5
2203
330
1F
100
AcDbEntity
  8
10
 48
3.0
100
AcDbLine
 10
2354.611502756229
 20
793.6421348405586
 30
0.0
 11
1954.611502756229
 21
793.6421348405586
 31
0.0
  0
LINE
  5
2204
330
1F
100
AcDbEntity
  8
10
 48
3.0
100
AcDbLine
 10
2354.611502756229
 20
790.4421348405584
 30
0.0
 11
1954.611502756229
 21
790.4421348405584
 31
0.0
  0
LINE
  5
2205
330
1F
100
AcDbEntity
  8
10
 48
3.0
100
AcDbLine
 10
1994.611502756228
 20
802.4421348405587
 30
0.0
 11
2314.611502756229
 21
802.4421348405587
 31
0.0
  0
LINE
  5
2206
330
1F
100
AcDbEntity
  8
10
100
AcDbLine
 10
2318.91834886108
 20
957.4421348405579
 30
0.0
 11
1990.304656651376
 21
957.4421348405579
 31
0.0
  0
LINE
  5
2207
330
1F
100
AcDbEntity
  8
10
100
AcDbLine
 10
2344.611502756229
 20
791.4421348405587
 30
0.0
 11
1964.611502756229
 21
791.4421348405587
 31
0.0
  0
LINE
  5
2208
330
1F
100
AcDbEntity
  8
10
100
AcDbLine
 10
2343.011502756228
 20
793.0421348405587
 30
0.0
 11
1966.211502756229
 21
793.0421348405587
 31
0.0
  0
LINE
  5
2209
330
1F
100
AcDbEntity
  8
10
100
AcDbLine
 10
2151.611502756229
 20
848.3421348405586
 30
0.0
 11
2229.811502756228
 21
848.3421348405583
 31
0.0
  0
LINE
  5
220A
330
1F
100
AcDbEntity
  8
10
100
AcDbLine
 10
1994.611502756228
 20
803.0421348405589
 30
0.0
 11
2314.611502756229
 21
803.0421348405589
 31
0.0
  0
LINE
  5
220B
330
1F
100
AcDbEntity
  8
10
100
AcDbLine
 10
2342.611502756229
 20
793.0421348405587
 30
0.0
 11
1966.611502756228
 21
793.0421348405587
 31
0.0
  0
LINE
  5
220C
330
1F
100
AcDbEntity
  8
10
100
AcDbLine
 10
2314.611502756229
 20
878.0421348405583
 30
0.0
 11
1994.611502756228
 21
878.0421348405583
 31
0.0
  0
LINE
  5
220D
330
1F
100
AcDbEntity
  8
10
100
AcDbLine
 10
2311.611502756228
 20
955.5421348405586
 30
0.0
 11
1997.611502756229
 21
955.5421348405586
 31
0.0
  0
LINE
  5
220E
330
1F
100
AcDbEntity
  8
10
100
AcDbLine
 10
2195.611502756229
 20
957.4421348405579
 30
0.0
 11
2046.611502756229
 21
957.4421348405579
 31
0.0
  0
LINE
  5
2210
330
1F
100
AcDbEntity
  8
10
100
AcDbLine
 10
2048.111502756229
 20
975.2421348405583
 30
0.0
 11
2058.111502756229
 21
975.2421348405583
 31
0.0
  0
LINE
  5
2211
330
1F
100
AcDbEntity
  8
10
100
AcDbLine
 10
2058.111502756229
 20
974.4421348405582
 30
0.0
 11
2048.111502756229
 21
974.4421348405582
 31
0.0
  0
LINE
  5
2212
330
1F
100
AcDbEntity
  8
10
100
AcDbLine
 10
2057.711502756228
 20
976.5421348405579
 30
0.0
 11
2048.511502756228
 21
976.5421348405579
 31
0.0
  0
LINE
  5
2213
330
1F
100
AcDbEntity
  8
10
100
AcDbLine
 10
2067.111502756229
 20
974.4421348405582
 30
0.0
 11
2046.611502756229
 21
974.4421348405582
 31
0.0
  0
LINE
  5
2214
330
1F
100
AcDbEntity
  8
10
100
AcDbLine
 10
2143.511502756227
 20
806.4421348405588
 30
0.0
 11
1989.204100422391
 21
806.4421348405588
 31
0.0
  0
LINE
  5
2215
330
1F
100
AcDbEntity
  8
10
 48
3.0
100
AcDbLine
 10
1954.611502756229
 20
790.4421348405584
 30
0.0
 11
1954.611502756229
 21
824.4421348405582
 31
0.0
  0
ARC
  5
2216
330
1F
100
AcDbEntity
  8
12
 48
3.0
100
AcDbCircle
 10
1966.611502756228
 20
798.4421348405584
 30
0.0
 40
3.599999999999758
100
AcDbArc
 50
13.64408479549696
 51
166.3559152045061
  0
ARC
  5
2217
330
1F
100
AcDbEntity
  8
12
 48
3.0
100
AcDbCircle
 10
1986.611502756229
 20
798.4421348405584
 30
0.0
 40
3.599999999999758
100
AcDbArc
 50
13.64408479549696
 51
166.3559152045061
  0
ARC
  5
2218
330
1F
100
AcDbEntity
  8
10
 48
3.0
100
AcDbCircle
 10
1994.611502756228
 20
809.4421348405587
 30
0.0
 40
7.000000000000027
100
AcDbArc
 50
180.0
 51
270.0
  0
LINE
  5
2219
330
1F
100
AcDbEntity
  8
10
100
AcDbLine
 10
1964.611502756229
 20
925.4421348405584
 30
0.0
 11
1964.611502756229
 21
791.4421348405587
 31
0.0
  0
LINE
  5
221A
330
1F
100
AcDbEntity
  8
10
100
AcDbLine
 10
1966.211502756229
 20
925.4421348405584
 30
0.0
 11
1966.211502756229
 21
793.0421348405587
 31
0.0
  0
LINE
  5
221B
330
1F
100
AcDbEntity
  8
10
100
AcDbLine
 10
1966.611502756228
 20
925.4421348405584
 30
0.0
 11
1966.611502756228
 21
793.0421348405587
 31
0.0
  0
LINE
  5
221C
330
1F
100
AcDbEntity
  8
12
 48
3.0
100
AcDbLine
 10
1961.741807432363
 20
793.6421348405586
 30
0.0
 11
1963.113095516878
 21
799.291338460233
 31
0.0
  0
LINE
  5
221D
330
1F
100
AcDbEntity
  8
12
 48
3.0
100
AcDbLine
 10
1971.481198080095
 20
793.6421348405586
 30
0.0
 11
1970.109909995578
 21
799.291338460233
 31
0.0
  0
LINE
  5
221E
330
1F
100
AcDbEntity
  8
12
 48
3.0
100
AcDbLine
 10
1981.741807432363
 20
793.6421348405586
 30
0.0
 11
1983.11309551688
 21
799.291338460233
 31
0.0
  0
LINE
  5
221F
330
1F
100
AcDbEntity
  8
12
 48
3.0
100
AcDbLine
 10
1991.481198080094
 20
793.6421348405586
 30
0.0
 11
1990.109909995577
 21
799.291338460233
 31
0.0
  0
LINE
  5
2220
330
1F
100
AcDbEntity
  8
10
100
AcDbLine
 10
2004.294577856961
 20
978.4421348405579
 30
0.0
 11
1994.294577856961
 21
978.4421348405579
 31
0.0
  0
LINE
  5
2221
330
1F
100
AcDbEntity
  8
10
100
AcDbLine
 10
1996.89457785696
 20
976.2421348405583
 30
0.0
 11
2001.694577856961
 21
976.2421348405583
 31
0.0
  0
LINE
  5
2222
330
1F
100
AcDbEntity
  8
10
100
AcDbLine
 10
1995.894577856961
 20
973.6421348405579
 30
0.0
 11
2002.694577856961
 21
973.6421348405579
 31
0.0
  0
ARC
  5
2223
330
1F
100
AcDbEntity
  8
10
100
AcDbCircle
 10
1999.294577856961
 20
958.3278491262726
 30
0.0
 40
14.81428571428568
100
AcDbArc
 50
72.31637087961473
 51
107.6836291203852
  0
LINE
  5
2224
330
1F
100
AcDbEntity
  8
10
100
AcDbLine
 10
1994.294577856961
 20
968.9421348405582
 30
0.0
 11
2004.294577856961
 21
968.9421348405582
 31
0.0
  0
LINE
  5
2225
330
1F
100
AcDbEntity
  8
10
100
AcDbLine
 10
1994.294577856961
 20
969.9421348405579
 30
0.0
 11
2004.294577856961
 21
969.9421348405579
 31
0.0
  0
LINE
  5
2226
330
1F
100
AcDbEntity
  8
10
100
AcDbLine
 10
1990.304656651376
 20
957.4421348405579
 30
0.0
 11
2037.044577856961
 21
957.4421348405579
 31
0.0
  0
LINE
  5
2227
330
1F
100
AcDbEntity
  8
10
 48
3.0
100
AcDbLine
 10
1984.611502756228
 20
827.4421348405583
 30
0.0
 11
1957.611502756228
 21
827.4421348405583
 31
0.0
  0
CIRCLE
  5
2228
330
1F
100
AcDbEntity
  8
12
 48
3.0
100
AcDbCircle
 10
1977.111502756228
 20
815.4421348405586
 30
0.0
 40
8.999999999999982
  0
LINE
  5
2229
330
1F
100
AcDbEntity
  8
10
 48
3.0
100
AcDbLine
 10
1954.611502756229
 20
824.4421348405582
 30
0.0
 11
1957.611502756228
 21
827.4421348405583
 31
0.0
  0
LINE
  5
222A
330
1F
100
AcDbEntity
  8
10
100
AcDbLine
 10
1988.611502756228
 20
872.0421348405581
 30
0.0
 11
1988.611502756228
 21
809.0421348405586
 31
0.0
  0
LINE
  5
222B
330
1F
100
AcDbEntity
  8
12
 48
3.0
100
AcDbLine
 10
1984.617056255695
 20
815.4421348405582
 30
0.0
 11
1980.864279505961
 21
808.9421348405583
 31
0.0
  0
LINE
  5
222C
330
1F
100
AcDbEntity
  8
12
 48
3.0
100
AcDbLine
 10
1984.617056255695
 20
815.4421348405582
 30
0.0
 11
1980.864279505961
 21
821.9421348405584
 31
0.0
  0
CIRCLE
  5
222D
330
1F
100
AcDbEntity
  8
12
 48
3.0
100
AcDbCircle
 10
1977.111502756228
 20
815.4421348405586
 30
0.0
 40
7.699999999999956
  0
LINE
  5
222E
330
1F
100
AcDbEntity
  8
12
 48
3.0
100
AcDbLine
 10
1973.358726006496
 20
808.9421348405583
 30
0.0
 11
1969.605949256764
 21
815.4421348405582
 31
0.0
  0
LINE
  5
222F
330
1F
100
AcDbEntity
  8
12
 48
3.0
100
AcDbLine
 10
1980.864279505961
 20
808.9421348405583
 30
0.0
 11
1973.358726006496
 21
808.9421348405583
 31
0.0
  0
LINE
  5
2230
330
1F
100
AcDbEntity
  8
12
 48
3.0
100
AcDbLine
 10
1980.864279505961
 20
821.9421348405584
 30
0.0
 11
1973.358726006496
 21
821.9421348405584
 31
0.0
  0
LINE
  5
2231
330
1F
100
AcDbEntity
  8
12
 48
3.0
100
AcDbLine
 10
1973.358726006496
 20
821.9421348405584
 30
0.0
 11
1969.605949256764
 21
815.4421348405582
 31
0.0
  0
LINE
  5
2232
330
1F
100
AcDbEntity
  8
10
 48
3.0
100
AcDbLine
 10
1987.611502756228
 20
824.4421348405582
 30
0.0
 11
1987.611502756228
 21
809.4421348405587
 31
0.0
  0
LINE
  5
2233
330
1F
100
AcDbEntity
  8
10
 48
3.0
100
AcDbLine
 10
1984.611502756228
 20
827.4421348405583
 30
0.0
 11
1987.611502756228
 21
824.4421348405582
 31
0.0
  0
ARC
  5
2234
330
1F
100
AcDbEntity
  8
10
 48
3.0
100
AcDbCircle
 10
1994.611502756228
 20
809.0421348405586
 30
0.0
 40
6.000000000000013
100
AcDbArc
 50
180.0
 51
270.0
  0
ARC
  5
2235
330
1F
100
AcDbEntity
  8
10
100
AcDbCircle
 10
1994.611502756228
 20
872.0421348405581
 30
0.0
 40
6.000000000000013
100
AcDbArc
 50
90.0
 51
180.0
  0
ARC
  5
2236
330
1F
100
AcDbEntity
  8
12
100
AcDbCircle
 10
1966.611502756228
 20
933.4421348405582
 30
0.0
 40
3.599999999999753
100
AcDbArc
 50
13.64408479549537
 51
166.3559152045061
  0
LINE
  5
2237
330
1F
100
AcDbEntity
  8
10
100
AcDbLine
 10
1984.611502756228
 20
962.4421348405583
 30
0.0
 11
1957.611502756228
 21
962.4421348405583
 31
0.0
  0
CIRCLE
  5
2238
330
1F
100
AcDbEntity
  8
12
100
AcDbCircle
 10
1977.111502756228
 20
950.4421348405584
 30
0.0
 40
8.999999999999982
  0
LINE
  5
2239
330
1F
100
AcDbEntity
  8
12
100
AcDbLine
 10
1961.741807432363
 20
928.6421348405584
 30
0.0
 11
1963.113095516878
 21
934.2913384602328
 31
0.0
  0
LINE
  5
223A
330
1F
100
AcDbEntity
  8
10
100
AcDbLine
 10
1954.611502756229
 20
925.4421348405584
 30
0.0
 11
1954.611502756229
 21
959.4421348405584
 31
0.0
  0
LINE
  5
223B
330
1F
100
AcDbEntity
  8
10
100
AcDbLine
 10
1964.611502756229
 20
925.4421348405584
 30
0.0
 11
1954.611502756229
 21
925.4421348405584
 31
0.0
  0
LINE
  5
223C
330
1F
100
AcDbEntity
  8
10
100
AcDbLine
 10
1954.611502756229
 20
959.4421348405584
 30
0.0
 11
1957.611502756228
 21
962.4421348405583
 31
0.0
  0
LINE
  5
223D
330
1F
100
AcDbEntity
  8
12
100
AcDbLine
 10
1991.481198080094
 20
928.6421348405584
 30
0.0
 11
1990.109909995577
 21
934.2913384602328
 31
0.0
  0
LINE
  5
223E
330
1F
100
AcDbEntity
  8
12
100
AcDbLine
 10
1981.741807432363
 20
928.6421348405584
 30
0.0
 11
1983.11309551688
 21
934.2913384602328
 31
0.0
  0
LINE
  5
223F
330
1F
100
AcDbEntity
  8
12
100
AcDbLine
 10
1971.481198080095
 20
928.6421348405584
 30
0.0
 11
1970.109909995578
 21
934.2913384602328
 31
0.0
  0
ARC
  5
2240
330
1F
100
AcDbEntity
  8
12
100
AcDbCircle
 10
1986.611502756229
 20
933.4421348405582
 30
0.0
 40
3.599999999999753
100
AcDbArc
 50
13.64408479549537
 51
166.3559152045061
  0
ARC
  5
2241
330
1F
100
AcDbEntity
  8
10
100
AcDbCircle
 10
1997.611502756229
 20
970.5421348405586
 30
0.0
 40
14.99999999999999
100
AcDbArc
 50
180.0
 51
270.0
  0
CIRCLE
  5
2242
330
1F
100
AcDbEntity
  8
12
100
AcDbCircle
 10
1977.111502756228
 20
950.4421348405584
 30
0.0
 40
7.699999999999956
  0
LINE
  5
2243
330
1F
100
AcDbEntity
  8
12
100
AcDbLine
 10
1984.617056255695
 20
950.4421348405584
 30
0.0
 11
1980.864279505961
 21
943.9421348405582
 31
0.0
  0
LINE
  5
2244
330
1F
100
AcDbEntity
  8
12
100
AcDbLine
 10
1984.617056255695
 20
950.4421348405584
 30
0.0
 11
1980.864279505961
 21
956.9421348405583
 31
0.0
  0
CIRCLE
  5
2245
330
1F
100
AcDbEntity
  8
12
100
AcDbCircle
 10
1977.111502756228
 20
950.4421348405584
 30
0.0
 40
6.499999999999982
  0
LINE
  5
2246
330
1F
100
AcDbEntity
  8
12
100
AcDbLine
 10
1973.358726006496
 20
956.9421348405583
 30
0.0
 11
1969.605949256764
 21
950.4421348405584
 31
0.0
  0
LINE
  5
2247
330
1F
100
AcDbEntity
  8
12
100
AcDbLine
 10
1973.358726006496
 20
943.9421348405582
 30
0.0
 11
1969.605949256764
 21
950.4421348405584
 31
0.0
  0
LINE
  5
2248
330
1F
100
AcDbEntity
  8
12
100
AcDbLine
 10
1980.864279505961
 20
943.9421348405582
 30
0.0
 11
1973.358726006496
 21
943.9421348405582
 31
0.0
  0
LINE
  5
2249
330
1F
100
AcDbEntity
  8
12
100
AcDbLine
 10
1980.864279505961
 20
956.9421348405583
 30
0.0
 11
1973.358726006496
 21
956.9421348405583
 31
0.0
  0
ARC
  5
224A
330
1F
100
AcDbEntity
  8
10
100
AcDbCircle
 10
1994.611502756228
 20
944.4421348405583
 30
0.0
 40
7.000000000000027
100
AcDbArc
 50
180.0
 51
270.0
  0
LINE
  5
224B
330
1F
100
AcDbEntity
  8
10
100
AcDbLine
 10
1984.611502756228
 20
962.4421348405583
 30
0.0
 11
1987.611502756228
 21
959.4421348405584
 31
0.0
  0
LINE
  5
224C
330
1F
100
AcDbEntity
  8
10
100
AcDbLine
 10
1987.611502756228
 20
959.4421348405584
 30
0.0
 11
1987.611502756228
 21
944.4421348405583
 31
0.0
  0
LINE
  5
224D
330
1F
100
AcDbEntity
  8
10
100
AcDbLine
 10
1994.794577856961
 20
972.4421348405579
 30
0.0
 11
1994.794577856961
 21
970.4421348405583
 31
0.0
  0
LINE
  5
224E
330
1F
100
AcDbEntity
  8
10
100
AcDbLine
 10
1996.294577856961
 20
973.6421348405579
 30
0.0
 11
1996.294577856961
 21
972.8351942046971
 31
0.0
  0
LINE
  5
224F
330
1F
100
AcDbEntity
  8
10
100
AcDbLine
 10
1995.894577856961
 20
975.2421348405583
 30
0.0
 11
1995.894577856961
 21
973.6421348405579
 31
0.0
  0
ARC
  5
2250
330
1F
100
AcDbEntity
  8
10
100
AcDbCircle
 10
1996.89457785696
 20
975.2421348405583
 30
0.0
 40
0.9999999999999948
100
AcDbArc
 50
90.0
 51
180.0
  0
LINE
  5
2251
330
1F
100
AcDbEntity
  8
10
100
AcDbLine
 10
1992.794577856961
 20
965.4421348405582
 30
0.0
 11
1984.544577856961
 21
965.4421348405582
 31
0.0
  0
LINE
  5
2252
330
1F
100
AcDbEntity
  8
10
100
AcDbLine
 10
1992.794577856961
 20
974.9421348405579
 30
0.0
 11
1988.794577856961
 21
974.9421348405579
 31
0.0
  0
LINE
  5
2253
330
1F
100
AcDbEntity
  8
10
100
AcDbLine
 10
1994.294577856961
 20
959.9421348405579
 30
0.0
 11
1992.794577856961
 21
959.9421348405579
 31
0.0
  0
LINE
  5
2254
330
1F
100
AcDbEntity
  8
10
100
AcDbLine
 10
1984.544577856961
 20
965.4421348405582
 30
0.0
 11
1984.544577856961
 21
963.1763033412033
 31
0.0
  0
LINE
  5
2255
330
1F
100
AcDbEntity
  8
10
100
AcDbLine
 10
1984.544577856961
 20
965.9421348405579
 30
0.0
 11
1984.544577856961
 21
965.4421348405582
 31
0.0
  0
LINE
  5
2256
330
1F
100
AcDbEntity
  8
10
100
AcDbLine
 10
1984.544577856961
 20
965.4421348405582
 30
0.0
 11
1992.544577856961
 21
965.4421348405582
 31
0.0
  0
LINE
  5
2257
330
1F
100
AcDbEntity
  8
10
100
AcDbLine
 10
1992.544577856961
 20
965.4421348405582
 30
0.0
 11
1992.544577856961
 21
965.9421348405579
 31
0.0
  0
LINE
  5
2258
330
1F
100
AcDbEntity
  8
10
100
AcDbLine
 10
1992.544577856961
 20
965.9421348405579
 30
0.0
 11
1984.544577856961
 21
965.9421348405579
 31
0.0
  0
LINE
  5
2259
330
1F
100
AcDbEntity
  8
10
100
AcDbLine
 10
1992.344577856961
 20
965.9421348405579
 30
0.0
 11
1992.344577856961
 21
966.9421348405583
 31
0.0
  0
LINE
  5
225A
330
1F
100
AcDbEntity
  8
10
100
AcDbLine
 10
1992.344577856961
 20
966.9421348405583
 30
0.0
 11
1992.044577856961
 21
966.9421348405583
 31
0.0
  0
LINE
  5
225B
330
1F
100
AcDbEntity
  8
10
100
AcDbLine
 10
1984.744577856961
 20
966.9421348405583
 30
0.0
 11
1984.744577856961
 21
965.9421348405579
 31
0.0
  0
LINE
  5
225C
330
1F
100
AcDbEntity
  8
10
100
AcDbLine
 10
1992.044577856961
 20
966.9421348405583
 30
0.0
 11
1985.044577856961
 21
966.9421348405583
 31
0.0
  0
LINE
  5
225D
330
1F
100
AcDbEntity
  8
10
100
AcDbLine
 10
1985.044577856961
 20
966.9421348405583
 30
0.0
 11
1984.744577856961
 21
966.9421348405583
 31
0.0
  0
ARC
  5
225E
330
1F
100
AcDbEntity
  8
10
100
AcDbCircle
 10
1988.544577856961
 20
966.9421348405583
 30
0.0
 40
3.500000000000013
100
AcDbArc
 50
0.0
 51
33.36701296923139
  0
ARC
  5
225F
330
1F
100
AcDbEntity
  8
10
100
AcDbCircle
 10
1988.544577856961
 20
966.9421348405583
 30
0.0
 40
3.500000000000023
100
AcDbArc
 50
146.6329870307685
 51
180.0
  0
LINE
  5
2260
330
1F
100
AcDbEntity
  8
10
100
AcDbLine
 10
1986.874248548111
 20
969.5421348405583
 30
0.0
 11
1990.21490716581
 21
969.5421348405583
 31
0.0
  0
ARC
  5
2261
330
1F
100
AcDbEntity
  8
10
100
AcDbCircle
 10
1986.874248548111
 20
968.0421348405584
 30
0.0
 40
1.499999999999984
100
AcDbArc
 50
90.0
 51
146.6329870307685
  0
ARC
  5
2262
330
1F
100
AcDbEntity
  8
10
100
AcDbCircle
 10
1990.21490716581
 20
968.0421348405584
 30
0.0
 40
1.500000000000024
100
AcDbArc
 50
33.36701296923139
 51
90.0
  0
ARC
  5
2263
330
1F
100
AcDbEntity
  8
10
100
AcDbCircle
 10
1988.544577856961
 20
968.0421348405584
 30
0.0
 40
1.499999999999984
100
AcDbArc
 50
90.0
 51
180.0
  0
LINE
  5
2264
330
1F
100
AcDbEntity
  8
10
100
AcDbLine
 10
1988.544577856961
 20
969.5421348405583
 30
0.0
 11
1988.544577856961
 21
969.5421348405583
 31
0.0
  0
ARC
  5
2265
330
1F
100
AcDbEntity
  8
10
100
AcDbCircle
 10
1988.544577856961
 20
968.0421348405584
 30
0.0
 40
1.499999999999984
100
AcDbArc
 50
0.0
 51
90.0
  0
LINE
  5
2266
330
1F
100
AcDbEntity
  8
10
100
AcDbLine
 10
1988.726919079961
 20
966.9421348405583
 30
0.0
 11
1987.72691907996
 21
965.9421348405579
 31
0.0
  0
LINE
  5
2267
330
1F
100
AcDbEntity
  8
10
100
AcDbLine
 10
1990.076038171812
 20
966.9421348405583
 30
0.0
 11
1989.076038171812
 21
965.9421348405579
 31
0.0
  0
LINE
  5
2268
330
1F
100
AcDbEntity
  8
10
100
AcDbLine
 10
2011.111502756228
 20
806.4421348405588
 30
0.0
 11
2011.111502756228
 21
803.0421348405589
 31
0.0
  0
LINE
  5
2269
330
1F
100
AcDbEntity
  8
10
100
AcDbLine
 10
2012.111502756229
 20
806.4421348405588
 30
0.0
 11
2012.111502756229
 21
803.0421348405589
 31
0.0
  0
LINE
  5
226A
330
1F
100
AcDbEntity
  8
10
100
AcDbLine
 10
2008.111502756229
 20
806.4421348405588
 30
0.0
 11
2008.111502756229
 21
803.0421348405589
 31
0.0
  0
LINE
  5
226B
330
1F
100
AcDbEntity
  8
10
100
AcDbLine
 10
2009.111502756228
 20
806.4421348405588
 30
0.0
 11
2009.111502756228
 21
803.0421348405589
 31
0.0
  0
LINE
  5
226C
330
1F
100
AcDbEntity
  8
10
100
AcDbLine
 10
2005.111502756228
 20
806.4421348405588
 30
0.0
 11
2005.111502756228
 21
803.0421348405589
 31
0.0
  0
LINE
  5
226D
330
1F
100
AcDbEntity
  8
10
100
AcDbLine
 10
2006.111502756227
 20
806.4421348405588
 30
0.0
 11
2006.111502756227
 21
803.0421348405589
 31
0.0
  0
LINE
  5
226E
330
1F
100
AcDbEntity
  8
10
100
AcDbLine
 10
2026.111502756227
 20
806.4421348405588
 30
0.0
 11
2026.111502756227
 21
803.0421348405589
 31
0.0
  0
LINE
  5
226F
330
1F
100
AcDbEntity
  8
10
100
AcDbLine
 10
2027.111502756228
 20
806.4421348405588
 30
0.0
 11
2027.111502756228
 21
803.0421348405589
 31
0.0
  0
LINE
  5
2270
330
1F
100
AcDbEntity
  8
10
100
AcDbLine
 10
2023.111502756229
 20
806.4421348405588
 30
0.0
 11
2023.111502756229
 21
803.0421348405589
 31
0.0
  0
LINE
  5
2271
330
1F
100
AcDbEntity
  8
10
100
AcDbLine
 10
2024.111502756229
 20
806.4421348405588
 30
0.0
 11
2024.111502756229
 21
803.0421348405589
 31
0.0
  0
LINE
  5
2272
330
1F
100
AcDbEntity
  8
10
100
AcDbLine
 10
2020.111502756229
 20
806.4421348405588
 30
0.0
 11
2020.111502756229
 21
803.0421348405589
 31
0.0
  0
LINE
  5
2273
330
1F
100
AcDbEntity
  8
10
100
AcDbLine
 10
2021.111502756228
 20
806.4421348405588
 30
0.0
 11
2021.111502756228
 21
803.0421348405589
 31
0.0
  0
LINE
  5
2274
330
1F
100
AcDbEntity
  8
10
100
AcDbLine
 10
2017.111502756228
 20
806.4421348405588
 30
0.0
 11
2017.111502756228
 21
803.0421348405589
 31
0.0
  0
LINE
  5
2275
330
1F
100
AcDbEntity
  8
10
100
AcDbLine
 10
2018.111502756228
 20
806.4421348405588
 30
0.0
 11
2018.111502756228
 21
803.0421348405589
 31
0.0
  0
LINE
  5
2276
330
1F
100
AcDbEntity
  8
10
100
AcDbLine
 10
2014.111502756227
 20
806.4421348405588
 30
0.0
 11
2014.111502756227
 21
803.0421348405589
 31
0.0
  0
LINE
  5
2277
330
1F
100
AcDbEntity
  8
10
100
AcDbLine
 10
2015.111502756229
 20
806.4421348405588
 30
0.0
 11
2015.111502756229
 21
803.0421348405589
 31
0.0
  0
LINE
  5
2278
330
1F
100
AcDbEntity
  8
10
100
AcDbLine
 10
2041.111502756228
 20
806.4421348405588
 30
0.0
 11
2041.111502756228
 21
803.0421348405589
 31
0.0
  0
LINE
  5
2279
330
1F
100
AcDbEntity
  8
10
100
AcDbLine
 10
2042.111502756229
 20
806.4421348405588
 30
0.0
 11
2042.111502756229
 21
803.0421348405589
 31
0.0
  0
LINE
  5
227A
330
1F
100
AcDbEntity
  8
10
100
AcDbLine
 10
2038.111502756228
 20
806.4421348405588
 30
0.0
 11
2038.111502756228
 21
803.0421348405589
 31
0.0
  0
LINE
  5
227B
330
1F
100
AcDbEntity
  8
10
100
AcDbLine
 10
2039.111502756229
 20
806.4421348405588
 30
0.0
 11
2039.111502756229
 21
803.0421348405589
 31
0.0
  0
LINE
  5
227C
330
1F
100
AcDbEntity
  8
10
100
AcDbLine
 10
2035.111502756229
 20
806.4421348405588
 30
0.0
 11
2035.111502756229
 21
803.0421348405589
 31
0.0
  0
LINE
  5
227D
330
1F
100
AcDbEntity
  8
10
100
AcDbLine
 10
2036.111502756229
 20
806.4421348405588
 30
0.0
 11
2036.111502756229
 21
803.0421348405589
 31
0.0
  0
LINE
  5
227E
330
1F
100
AcDbEntity
  8
10
100
AcDbLine
 10
2032.111502756229
 20
806.4421348405588
 30
0.0
 11
2032.111502756229
 21
803.0421348405589
 31
0.0
  0
LINE
  5
227F
330
1F
100
AcDbEntity
  8
10
100
AcDbLine
 10
2033.111502756228
 20
806.4421348405588
 30
0.0
 11
2033.111502756228
 21
803.0421348405589
 31
0.0
  0
LINE
  5
2280
330
1F
100
AcDbEntity
  8
10
100
AcDbLine
 10
2029.111502756228
 20
806.4421348405588
 30
0.0
 11
2029.111502756228
 21
803.0421348405589
 31
0.0
  0
LINE
  5
2281
330
1F
100
AcDbEntity
  8
10
100
AcDbLine
 10
2030.111502756228
 20
806.4421348405588
 30
0.0
 11
2030.111502756228
 21
803.0421348405589
 31
0.0
  0
LINE
  5
2282
330
1F
100
AcDbEntity
  8
10
100
AcDbLine
 10
2056.111502756228
 20
806.4421348405588
 30
0.0
 11
2056.111502756228
 21
803.0421348405589
 31
0.0
  0
LINE
  5
2283
330
1F
100
AcDbEntity
  8
10
100
AcDbLine
 10
2057.111502756229
 20
806.4421348405588
 30
0.0
 11
2057.111502756229
 21
803.0421348405589
 31
0.0
  0
LINE
  5
2284
330
1F
100
AcDbEntity
  8
10
100
AcDbLine
 10
2053.111502756229
 20
806.4421348405588
 30
0.0
 11
2053.111502756229
 21
803.0421348405589
 31
0.0
  0
LINE
  5
2285
330
1F
100
AcDbEntity
  8
10
100
AcDbLine
 10
2054.111502756229
 20
806.4421348405588
 30
0.0
 11
2054.111502756229
 21
803.0421348405589
 31
0.0
  0
LINE
  5
2286
330
1F
100
AcDbEntity
  8
10
100
AcDbLine
 10
2050.111502756229
 20
806.4421348405588
 30
0.0
 11
2050.111502756229
 21
803.0421348405589
 31
0.0
  0
LINE
  5
2287
330
1F
100
AcDbEntity
  8
10
100
AcDbLine
 10
2051.111502756228
 20
806.4421348405588
 30
0.0
 11
2051.111502756228
 21
803.0421348405589
 31
0.0
  0
LINE
  5
2288
330
1F
100
AcDbEntity
  8
10
100
AcDbLine
 10
2047.111502756228
 20
806.4421348405588
 30
0.0
 11
2047.111502756228
 21
803.0421348405589
 31
0.0
  0
LINE
  5
2289
330
1F
100
AcDbEntity
  8
10
100
AcDbLine
 10
2048.111502756229
 20
806.4421348405588
 30
0.0
 11
2048.111502756229
 21
803.0421348405589
 31
0.0
  0
LINE
  5
228A
330
1F
100
AcDbEntity
  8
10
100
AcDbLine
 10
2044.111502756229
 20
806.4421348405588
 30
0.0
 11
2044.111502756229
 21
803.0421348405589
 31
0.0
  0
LINE
  5
228B
330
1F
100
AcDbEntity
  8
10
100
AcDbLine
 10
2045.111502756228
 20
806.4421348405588
 30
0.0
 11
2045.111502756228
 21
803.0421348405589
 31
0.0
  0
LINE
  5
228C
330
1F
100
AcDbEntity
  8
10
100
AcDbLine
 10
2028.794577856961
 20
959.9421348405579
 30
0.0
 11
2027.294577856961
 21
959.9421348405579
 31
0.0
  0
LINE
  5
228D
330
1F
100
AcDbEntity
  8
10
100
AcDbLine
 10
2015.794577856961
 20
978.4421348405579
 30
0.0
 11
2005.794577856961
 21
978.4421348405579
 31
0.0
  0
LINE
  5
228E
330
1F
100
AcDbEntity
  8
10
100
AcDbLine
 10
2008.39457785696
 20
976.2421348405583
 30
0.0
 11
2013.194577856961
 21
976.2421348405583
 31
0.0
  0
LINE
  5
228F
330
1F
100
AcDbEntity
  8
10
100
AcDbLine
 10
2007.394577856961
 20
973.6421348405579
 30
0.0
 11
2014.194577856961
 21
973.6421348405579
 31
0.0
  0
ARC
  5
2290
330
1F
100
AcDbEntity
  8
10
100
AcDbCircle
 10
2010.794577856961
 20
958.3278491262726
 30
0.0
 40
14.81428571428568
100
AcDbArc
 50
72.31637087961473
 51
107.6836291203852
  0
LINE
  5
2291
330
1F
100
AcDbEntity
  8
10
100
AcDbLine
 10
2005.794577856961
 20
968.9421348405582
 30
0.0
 11
2015.794577856961
 21
968.9421348405582
 31
0.0
  0
LINE
  5
2292
330
1F
100
AcDbEntity
  8
10
100
AcDbLine
 10
2005.794577856961
 20
969.9421348405579
 30
0.0
 11
2015.794577856961
 21
969.9421348405579
 31
0.0
  0
LINE
  5
2293
330
1F
100
AcDbEntity
  8
10
100
AcDbLine
 10
2006.29457785696
 20
972.4421348405579
 30
0.0
 11
2006.29457785696
 21
970.4421348405583
 31
0.0
  0
LINE
  5
2294
330
1F
100
AcDbEntity
  8
10
100
AcDbLine
 10
2007.794577856961
 20
973.6421348405579
 30
0.0
 11
2007.794577856961
 21
972.8351942046971
 31
0.0
  0
LINE
  5
2295
330
1F
100
AcDbEntity
  8
10
100
AcDbLine
 10
2007.394577856961
 20
975.2421348405583
 30
0.0
 11
2007.394577856961
 21
973.6421348405579
 31
0.0
  0
ARC
  5
2296
330
1F
100
AcDbEntity
  8
10
100
AcDbCircle
 10
2008.39457785696
 20
975.2421348405583
 30
0.0
 40
0.9999999999999948
100
AcDbArc
 50
90.0
 51
180.0
  0
LINE
  5
2297
330
1F
100
AcDbEntity
  8
10
100
AcDbLine
 10
2003.794577856961
 20
972.4421348405579
 30
0.0
 11
2003.794577856961
 21
970.4421348405583
 31
0.0
  0
LINE
  5
2298
330
1F
100
AcDbEntity
  8
10
100
AcDbLine
 10
2002.29457785696
 20
973.6421348405579
 30
0.0
 11
2002.29457785696
 21
972.8351942046971
 31
0.0
  0
LINE
  5
2299
330
1F
100
AcDbEntity
  8
10
100
AcDbLine
 10
2002.694577856961
 20
975.2421348405583
 30
0.0
 11
2002.694577856961
 21
973.6421348405579
 31
0.0
  0
ARC
  5
229A
330
1F
100
AcDbEntity
  8
10
100
AcDbCircle
 10
2001.694577856961
 20
975.2421348405583
 30
0.0
 40
0.9999999999999444
100
AcDbArc
 50
0.0
 51
90.0
  0
LINE
  5
229B
330
1F
100
AcDbEntity
  8
10
100
AcDbLine
 10
2005.794577856961
 20
959.9421348405579
 30
0.0
 11
2004.294577856961
 21
959.9421348405579
 31
0.0
  0
LINE
  5
229C
330
1F
100
AcDbEntity
  8
10
100
AcDbLine
 10
2027.294577856961
 20
978.4421348405579
 30
0.0
 11
2017.294577856961
 21
978.4421348405579
 31
0.0
  0
LINE
  5
229D
330
1F
100
AcDbEntity
  8
10
100
AcDbLine
 10
2017.794577856961
 20
972.4421348405579
 30
0.0
 11
2017.794577856961
 21
970.4421348405583
 31
0.0
  0
LINE
  5
229E
330
1F
100
AcDbEntity
  8
10
100
AcDbLine
 10
2019.89457785696
 20
976.2421348405583
 30
0.0
 11
2024.694577856961
 21
976.2421348405583
 31
0.0
  0
LINE
  5
229F
330
1F
100
AcDbEntity
  8
10
100
AcDbLine
 10
2018.894577856961
 20
973.6421348405579
 30
0.0
 11
2025.694577856961
 21
973.6421348405579
 31
0.0
  0
LINE
  5
22A0
330
1F
100
AcDbEntity
  8
10
100
AcDbLine
 10
2026.794577856961
 20
972.4421348405579
 30
0.0
 11
2026.794577856961
 21
970.4421348405583
 31
0.0
  0
ARC
  5
22A1
330
1F
100
AcDbEntity
  8
10
100
AcDbCircle
 10
2022.29457785696
 20
958.3278491262726
 30
0.0
 40
14.81428571428571
100
AcDbArc
 50
72.31637087961473
 51
107.6836291203852
  0
LINE
  5
22A2
330
1F
100
AcDbEntity
  8
10
100
AcDbLine
 10
2025.294577856961
 20
973.6421348405579
 30
0.0
 11
2025.294577856961
 21
972.8351942046971
 31
0.0
  0
LINE
  5
22A3
330
1F
100
AcDbEntity
  8
10
100
AcDbLine
 10
2019.294577856961
 20
973.6421348405579
 30
0.0
 11
2019.294577856961
 21
972.8351942046971
 31
0.0
  0
LINE
  5
22A4
330
1F
100
AcDbEntity
  8
10
100
AcDbLine
 10
2025.694577856961
 20
975.2421348405583
 30
0.0
 11
2025.694577856961
 21
973.6421348405579
 31
0.0
  0
LINE
  5
22A5
330
1F
100
AcDbEntity
  8
10
100
AcDbLine
 10
2018.894577856961
 20
975.2421348405583
 30
0.0
 11
2018.894577856961
 21
973.6421348405579
 31
0.0
  0
ARC
  5
22A6
330
1F
100
AcDbEntity
  8
10
100
AcDbCircle
 10
2019.89457785696
 20
975.2421348405583
 30
0.0
 40
0.9999999999999948
100
AcDbArc
 50
90.0
 51
180.0
  0
ARC
  5
22A7
330
1F
100
AcDbEntity
  8
10
100
AcDbCircle
 10
2024.694577856961
 20
975.2421348405583
 30
0.0
 40
1.000000000000013
100
AcDbArc
 50
0.0
 51
90.0
  0
LINE
  5
22A8
330
1F
100
AcDbEntity
  8
10
100
AcDbLine
 10
2015.29457785696
 20
972.4421348405579
 30
0.0
 11
2015.29457785696
 21
970.4421348405583
 31
0.0
  0
LINE
  5
22A9
330
1F
100
AcDbEntity
  8
10
100
AcDbLine
 10
2013.794577856961
 20
973.6421348405579
 30
0.0
 11
2013.794577856961
 21
972.8351942046971
 31
0.0
  0
LINE
  5
22AA
330
1F
100
AcDbEntity
  8
10
100
AcDbLine
 10
2014.194577856961
 20
975.2421348405583
 30
0.0
 11
2014.194577856961
 21
973.6421348405579
 31
0.0
  0
ARC
  5
22AB
330
1F
100
AcDbEntity
  8
10
100
AcDbCircle
 10
2013.194577856961
 20
975.2421348405583
 30
0.0
 40
1.000000000000013
100
AcDbArc
 50
0.0
 51
90.0
  0
LINE
  5
22AC
330
1F
100
AcDbEntity
  8
10
100
AcDbLine
 10
2017.294577856961
 20
968.9421348405582
 30
0.0
 11
2027.294577856961
 21
968.9421348405582
 31
0.0
  0
LINE
  5
22AD
330
1F
100
AcDbEntity
  8
10
100
AcDbLine
 10
2017.294577856961
 20
969.9421348405579
 30
0.0
 11
2027.294577856961
 21
969.9421348405579
 31
0.0
  0
LINE
  5
22AE
330
1F
100
AcDbEntity
  8
10
100
AcDbLine
 10
2017.294577856961
 20
959.9421348405579
 30
0.0
 11
2015.794577856961
 21
959.9421348405579
 31
0.0
  0
LINE
  5
22AF
330
1F
100
AcDbEntity
  8
10
100
AcDbLine
 10
2032.79457785696
 20
974.9421348405579
 30
0.0
 11
2028.794577856961
 21
974.9421348405579
 31
0.0
  0
LINE
  5
22B0
330
1F
100
AcDbEntity
  8
10
100
AcDbLine
 10
2037.044577856961
 20
965.4421348405582
 30
0.0
 11
2028.794577856961
 21
965.4421348405582
 31
0.0
  0
LINE
  5
22B1
330
1F
100
AcDbEntity
  8
10
100
AcDbLine
 10
2037.044577856961
 20
965.4421348405582
 30
0.0
 11
2037.044577856961
 21
957.4421348405579
 31
0.0
  0
LINE
  5
22B2
330
1F
100
AcDbEntity
  8
10
100
AcDbLine
 10
2029.044577856961
 20
965.9421348405579
 30
0.0
 11
2029.044577856961
 21
965.4421348405582
 31
0.0
  0
LINE
  5
22B3
330
1F
100
AcDbEntity
  8
10
100
AcDbLine
 10
2029.044577856961
 20
965.4421348405582
 30
0.0
 11
2037.044577856961
 21
965.4421348405582
 31
0.0
  0
LINE
  5
22B4
330
1F
100
AcDbEntity
  8
10
100
AcDbLine
 10
2037.044577856961
 20
965.4421348405582
 30
0.0
 11
2037.044577856961
 21
965.9421348405579
 31
0.0
  0
LINE
  5
22B5
330
1F
100
AcDbEntity
  8
10
100
AcDbLine
 10
2037.044577856961
 20
965.9421348405579
 30
0.0
 11
2029.044577856961
 21
965.9421348405579
 31
0.0
  0
LINE
  5
22B6
330
1F
100
AcDbEntity
  8
10
100
AcDbLine
 10
2036.844577856962
 20
965.9421348405579
 30
0.0
 11
2036.844577856962
 21
966.9421348405583
 31
0.0
  0
LINE
  5
22B7
330
1F
100
AcDbEntity
  8
10
100
AcDbLine
 10
2036.844577856962
 20
966.9421348405583
 30
0.0
 11
2036.544577856961
 21
966.9421348405583
 31
0.0
  0
LINE
  5
22B8
330
1F
100
AcDbEntity
  8
10
100
AcDbLine
 10
2029.244577856961
 20
966.9421348405583
 30
0.0
 11
2029.244577856961
 21
965.9421348405579
 31
0.0
  0
LINE
  5
22B9
330
1F
100
AcDbEntity
  8
10
100
AcDbLine
 10
2036.544577856961
 20
966.9421348405583
 30
0.0
 11
2029.544577856961
 21
966.9421348405583
 31
0.0
  0
LINE
  5
22BA
330
1F
100
AcDbEntity
  8
10
100
AcDbLine
 10
2029.544577856961
 20
966.9421348405583
 30
0.0
 11
2029.244577856961
 21
966.9421348405583
 31
0.0
  0
ARC
  5
22BB
330
1F
100
AcDbEntity
  8
10
100
AcDbCircle
 10
2033.044577856961
 20
966.9421348405583
 30
0.0
 40
3.500000000000013
100
AcDbArc
 50
0.0
 51
33.36701296923276
  0
ARC
  5
22BC
330
1F
100
AcDbEntity
  8
10
100
AcDbCircle
 10
2033.044577856961
 20
966.9421348405583
 30
0.0
 40
3.500000000000035
100
AcDbArc
 50
146.6329870307671
 51
180.0
  0
LINE
  5
22BD
330
1F
100
AcDbEntity
  8
10
100
AcDbLine
 10
2031.374248548111
 20
969.5421348405583
 30
0.0
 11
2034.71490716581
 21
969.5421348405583
 31
0.0
  0
ARC
  5
22BE
330
1F
100
AcDbEntity
  8
10
100
AcDbCircle
 10
2031.374248548111
 20
968.0421348405584
 30
0.0
 40
1.500000000000004
100
AcDbArc
 50
90.0
 51
146.6329870307671
  0
ARC
  5
22BF
330
1F
100
AcDbEntity
  8
10
100
AcDbCircle
 10
2034.71490716581
 20
968.0421348405584
 30
0.0
 40
1.499999999999974
100
AcDbArc
 50
33.36701296923276
 51
90.0
  0
ARC
  5
22C0
330
1F
100
AcDbEntity
  8
10
100
AcDbCircle
 10
2033.044577856961
 20
968.0421348405584
 30
0.0
 40
1.500000000000004
100
AcDbArc
 50
90.0
 51
180.0
  0
LINE
  5
22C1
330
1F
100
AcDbEntity
  8
10
100
AcDbLine
 10
2033.044577856961
 20
969.5421348405583
 30
0.0
 11
2033.044577856961
 21
969.5421348405583
 31
0.0
  0
ARC
  5
22C2
330
1F
100
AcDbEntity
  8
10
100
AcDbCircle
 10
2033.044577856961
 20
968.0421348405584
 30
0.0
 40
1.499999999999984
100
AcDbArc
 50
0.0
 51
90.0
  0
LINE
  5
22C3
330
1F
100
AcDbEntity
  8
10
100
AcDbLine
 10
2033.226919079961
 20
966.9421348405583
 30
0.0
 11
2032.226919079961
 21
965.9421348405579
 31
0.0
  0
LINE
  5
22C4
330
1F
100
AcDbEntity
  8
10
100
AcDbLine
 10
2034.576038171813
 20
966.9421348405583
 30
0.0
 11
2033.576038171811
 21
965.9421348405579
 31
0.0
  0
LINE
  5
22C5
330
1F
100
AcDbEntity
  8
10
100
AcDbLine
 10
2048.111502756229
 20
974.4421348405582
 30
0.0
 11
2048.111502756229
 21
975.2421348405583
 31
0.0
  0
LINE
  5
22C6
330
1F
100
AcDbEntity
  8
10
100
AcDbLine
 10
2048.511502756228
 20
976.5421348405579
 30
0.0
 11
2048.511502756228
 21
975.2421348405583
 31
0.0
  0
LINE
  5
22C7
330
1F
100
AcDbEntity
  8
10
100
AcDbLine
 10
2053.102066554499
 20
976.5421348405579
 30
0.0
 11
2051.802066554499
 21
975.2421348405583
 31
0.0
  0
LINE
  5
22C8
330
1F
100
AcDbEntity
  8
10
100
AcDbLine
 10
2053.397827600135
 20
975.2421348405583
 30
0.0
 11
2054.697827600135
 21
976.5421348405579
 31
0.0
  0
LINE
  5
22C9
330
1F
100
AcDbEntity
  8
10
100
AcDbLine
 10
2046.611502756229
 20
974.4421348405582
 30
0.0
 11
2046.611502756229
 21
957.4421348405579
 31
0.0
  0
LINE
  5
22CA
330
1F
100
AcDbEntity
  8
10
100
AcDbLine
 10
2071.111502756228
 20
806.4421348405588
 30
0.0
 11
2071.111502756228
 21
803.0421348405589
 31
0.0
  0
LINE
  5
22CB
330
1F
100
AcDbEntity
  8
10
100
AcDbLine
 10
2068.111502756229
 20
806.4421348405588
 30
0.0
 11
2068.111502756229
 21
803.0421348405589
 31
0.0
  0
LINE
  5
22CC
330
1F
100
AcDbEntity
  8
10
100
AcDbLine
 10
2069.111502756229
 20
806.4421348405588
 30
0.0
 11
2069.111502756229
 21
803.0421348405589
 31
0.0
  0
LINE
  5
22CD
330
1F
100
AcDbEntity
  8
10
100
AcDbLine
 10
2065.111502756229
 20
806.4421348405588
 30
0.0
 11
2065.111502756229
 21
803.0421348405589
 31
0.0
  0
LINE
  5
22CE
330
1F
100
AcDbEntity
  8
10
100
AcDbLine
 10
2066.111502756228
 20
806.4421348405588
 30
0.0
 11
2066.111502756228
 21
803.0421348405589
 31
0.0
  0
LINE
  5
22CF
330
1F
100
AcDbEntity
  8
10
100
AcDbLine
 10
2062.111502756229
 20
806.4421348405588
 30
0.0
 11
2062.111502756229
 21
803.0421348405589
 31
0.0
  0
LINE
  5
22D0
330
1F
100
AcDbEntity
  8
10
100
AcDbLine
 10
2063.111502756229
 20
806.4421348405588
 30
0.0
 11
2063.111502756229
 21
803.0421348405589
 31
0.0
  0
LINE
  5
22D1
330
1F
100
AcDbEntity
  8
10
100
AcDbLine
 10
2059.111502756229
 20
806.4421348405588
 30
0.0
 11
2059.111502756229
 21
803.0421348405589
 31
0.0
  0
LINE
  5
22D2
330
1F
100
AcDbEntity
  8
10
100
AcDbLine
 10
2060.111502756229
 20
806.4421348405588
 30
0.0
 11
2060.111502756229
 21
803.0421348405589
 31
0.0
  0
LINE
  5
22D3
330
1F
100
AcDbEntity
  8
10
100
AcDbLine
 10
2086.111502756228
 20
806.4421348405588
 30
0.0
 11
2086.111502756228
 21
803.0421348405589
 31
0.0
  0
LINE
  5
22D4
330
1F
100
AcDbEntity
  8
10
100
AcDbLine
 10
2083.111502756229
 20
806.4421348405588
 30
0.0
 11
2083.111502756229
 21
803.0421348405589
 31
0.0
  0
LINE
  5
22D5
330
1F
100
AcDbEntity
  8
10
100
AcDbLine
 10
2084.111502756229
 20
806.4421348405588
 30
0.0
 11
2084.111502756229
 21
803.0421348405589
 31
0.0
  0
LINE
  5
22D6
330
1F
100
AcDbEntity
  8
10
100
AcDbLine
 10
2080.111502756229
 20
806.4421348405588
 30
0.0
 11
2080.111502756229
 21
803.0421348405589
 31
0.0
  0
LINE
  5
22D7
330
1F
100
AcDbEntity
  8
10
100
AcDbLine
 10
2081.111502756229
 20
806.4421348405588
 30
0.0
 11
2081.111502756229
 21
803.0421348405589
 31
0.0
  0
LINE
  5
22D8
330
1F
100
AcDbEntity
  8
10
100
AcDbLine
 10
2077.111502756229
 20
806.4421348405588
 30
0.0
 11
2077.111502756229
 21
803.0421348405589
 31
0.0
  0
LINE
  5
22D9
330
1F
100
AcDbEntity
  8
10
100
AcDbLine
 10
2078.111502756228
 20
806.4421348405588
 30
0.0
 11
2078.111502756228
 21
803.0421348405589
 31
0.0
  0
LINE
  5
22DA
330
1F
100
AcDbEntity
  8
10
100
AcDbLine
 10
2074.111502756229
 20
806.4421348405588
 30
0.0
 11
2074.111502756229
 21
803.0421348405589
 31
0.0
  0
LINE
  5
22DB
330
1F
100
AcDbEntity
  8
10
100
AcDbLine
 10
2075.111502756229
 20
806.4421348405588
 30
0.0
 11
2075.111502756229
 21
803.0421348405589
 31
0.0
  0
LINE
  5
22DC
330
1F
100
AcDbEntity
  8
10
100
AcDbLine
 10
2072.111502756229
 20
806.4421348405588
 30
0.0
 11
2072.111502756229
 21
803.0421348405589
 31
0.0
  0
LINE
  5
22DD
330
1F
100
AcDbEntity
  8
10
100
AcDbLine
 10
2101.111502756228
 20
806.4421348405588
 30
0.0
 11
2101.111502756228
 21
803.0421348405589
 31
0.0
  0
LINE
  5
22DE
330
1F
100
AcDbEntity
  8
10
100
AcDbLine
 10
2098.111502756229
 20
806.4421348405588
 30
0.0
 11
2098.111502756229
 21
803.0421348405589
 31
0.0
  0
LINE
  5
22DF
330
1F
100
AcDbEntity
  8
10
100
AcDbLine
 10
2099.111502756229
 20
806.4421348405588
 30
0.0
 11
2099.111502756229
 21
803.0421348405589
 31
0.0
  0
LINE
  5
22E0
330
1F
100
AcDbEntity
  8
10
100
AcDbLine
 10
2095.111502756229
 20
806.4421348405588
 30
0.0
 11
2095.111502756229
 21
803.0421348405589
 31
0.0
  0
LINE
  5
22E1
330
1F
100
AcDbEntity
  8
10
100
AcDbLine
 10
2096.111502756228
 20
806.4421348405588
 30
0.0
 11
2096.111502756228
 21
803.0421348405589
 31
0.0
  0
LINE
  5
22E2
330
1F
100
AcDbEntity
  8
10
100
AcDbLine
 10
2092.111502756229
 20
806.4421348405588
 30
0.0
 11
2092.111502756229
 21
803.0421348405589
 31
0.0
  0
LINE
  5
22E3
330
1F
100
AcDbEntity
  8
10
100
AcDbLine
 10
2093.111502756229
 20
806.4421348405588
 30
0.0
 11
2093.111502756229
 21
803.0421348405589
 31
0.0
  0
LINE
  5
22E4
330
1F
100
AcDbEntity
  8
10
100
AcDbLine
 10
2089.111502756229
 20
806.4421348405588
 30
0.0
 11
2089.111502756229
 21
803.0421348405589
 31
0.0
  0
LINE
  5
22E5
330
1F
100
AcDbEntity
  8
10
100
AcDbLine
 10
2090.111502756229
 20
806.4421348405588
 30
0.0
 11
2090.111502756229
 21
803.0421348405589
 31
0.0
  0
LINE
  5
22E6
330
1F
100
AcDbEntity
  8
10
100
AcDbLine
 10
2087.111502756229
 20
806.4421348405588
 30
0.0
 11
2087.111502756229
 21
803.0421348405589
 31
0.0
  0
LINE
  5
22E7
330
1F
100
AcDbEntity
  8
10
100
AcDbLine
 10
2113.111502756229
 20
806.4421348405588
 30
0.0
 11
2113.111502756229
 21
803.0421348405589
 31
0.0
  0
LINE
  5
22E8
330
1F
100
AcDbEntity
  8
10
100
AcDbLine
 10
2114.111502756229
 20
806.4421348405588
 30
0.0
 11
2114.111502756229
 21
803.0421348405589
 31
0.0
  0
LINE
  5
22E9
330
1F
100
AcDbEntity
  8
10
100
AcDbLine
 10
2110.111502756228
 20
806.4421348405588
 30
0.0
 11
2110.111502756228
 21
803.0421348405589
 31
0.0
  0
LINE
  5
22EA
330
1F
100
AcDbEntity
  8
10
100
AcDbLine
 10
2111.111502756228
 20
806.4421348405588
 30
0.0
 11
2111.111502756228
 21
803.0421348405589
 31
0.0
  0
LINE
  5
22EB
330
1F
100
AcDbEntity
  8
10
100
AcDbLine
 10
2107.111502756229
 20
806.4421348405588
 30
0.0
 11
2107.111502756229
 21
803.0421348405589
 31
0.0
  0
LINE
  5
22EC
330
1F
100
AcDbEntity
  8
10
100
AcDbLine
 10
2108.111502756229
 20
806.4421348405588
 30
0.0
 11
2108.111502756229
 21
803.0421348405589
 31
0.0
  0
LINE
  5
22ED
330
1F
100
AcDbEntity
  8
10
100
AcDbLine
 10
2104.111502756229
 20
806.4421348405588
 30
0.0
 11
2104.111502756229
 21
803.0421348405589
 31
0.0
  0
LINE
  5
22EE
330
1F
100
AcDbEntity
  8
10
100
AcDbLine
 10
2105.111502756229
 20
806.4421348405588
 30
0.0
 11
2105.111502756229
 21
803.0421348405589
 31
0.0
  0
LINE
  5
22EF
330
1F
100
AcDbEntity
  8
10
100
AcDbLine
 10
2102.111502756229
 20
806.4421348405588
 30
0.0
 11
2102.111502756229
 21
803.0421348405589
 31
0.0
  0
LINE
  5
22F0
330
1F
100
AcDbEntity
  8
10
100
AcDbLine
 10
2058.111502756229
 20
975.2421348405583
 30
0.0
 11
2058.111502756229
 21
974.4421348405582
 31
0.0
  0
LINE
  5
22F1
330
1F
100
AcDbEntity
  8
10
100
AcDbLine
 10
2057.711502756228
 20
975.2421348405583
 30
0.0
 11
2057.711502756228
 21
976.5421348405579
 31
0.0
  0
LINE
  5
22F2
330
1F
100
AcDbEntity
  8
10
100
AcDbLine
 10
2061.111502756229
 20
974.4421348405582
 30
0.0
 11
2061.111502756229
 21
957.4421348405579
 31
0.0
  0
LINE
  5
22F3
330
1F
100
AcDbEntity
  8
10
100
AcDbLine
 10
2105.111502756229
 20
974.4421348405582
 30
0.0
 11
2099.111502756229
 21
974.4421348405582
 31
0.0
  0
LINE
  5
22F4
330
1F
100
AcDbEntity
  8
10
100
AcDbLine
 10
2141.211502756229
 20
878.0421348405583
 30
0.0
 11
2141.211502756229
 21
806.4421348405588
 31
0.0
  0
LINE
  5
22F5
330
1F
100
AcDbEntity
  8
10
100
AcDbLine
 10
2143.511502756227
 20
878.0421348405583
 30
0.0
 11
2143.511502756227
 21
806.4421348405588
 31
0.0
  0
LINE
  5
22F6
330
1F
100
AcDbEntity
  8
10
100
AcDbLine
 10
2144.111502756229
 20
878.0421348405583
 30
0.0
 11
2144.111502756229
 21
803.0421348405589
 31
0.0
  0
LINE
  5
22F7
330
1F
100
AcDbEntity
  8
10
100
AcDbLine
 10
2128.111502756229
 20
806.4421348405588
 30
0.0
 11
2128.111502756229
 21
803.0421348405589
 31
0.0
  0
LINE
  5
22F8
330
1F
100
AcDbEntity
  8
10
100
AcDbLine
 10
2129.111502756229
 20
806.4421348405588
 30
0.0
 11
2129.111502756229
 21
803.0421348405589
 31
0.0
  0
LINE
  5
22F9
330
1F
100
AcDbEntity
  8
10
100
AcDbLine
 10
2125.111502756229
 20
806.4421348405588
 30
0.0
 11
2125.111502756229
 21
803.0421348405589
 31
0.0
  0
LINE
  5
22FA
330
1F
100
AcDbEntity
  8
10
100
AcDbLine
 10
2126.111502756228
 20
806.4421348405588
 30
0.0
 11
2126.111502756228
 21
803.0421348405589
 31
0.0
  0
LINE
  5
22FB
330
1F
100
AcDbEntity
  8
10
100
AcDbLine
 10
2122.111502756229
 20
806.4421348405588
 30
0.0
 11
2122.111502756229
 21
803.0421348405589
 31
0.0
  0
LINE
  5
22FC
330
1F
100
AcDbEntity
  8
10
100
AcDbLine
 10
2123.111502756229
 20
806.4421348405588
 30
0.0
 11
2123.111502756229
 21
803.0421348405589
 31
0.0
  0
LINE
  5
22FD
330
1F
100
AcDbEntity
  8
10
100
AcDbLine
 10
2119.111502756229
 20
806.4421348405588
 30
0.0
 11
2119.111502756229
 21
803.0421348405589
 31
0.0
  0
LINE
  5
22FE
330
1F
100
AcDbEntity
  8
10
100
AcDbLine
 10
2120.111502756229
 20
806.4421348405588
 30
0.0
 11
2120.111502756229
 21
803.0421348405589
 31
0.0
  0
LINE
  5
22FF
330
1F
100
AcDbEntity
  8
10
100
AcDbLine
 10
2116.111502756228
 20
806.4421348405588
 30
0.0
 11
2116.111502756228
 21
803.0421348405589
 31
0.0
  0
LINE
  5
2300
330
1F
100
AcDbEntity
  8
10
100
AcDbLine
 10
2117.111502756229
 20
806.4421348405588
 30
0.0
 11
2117.111502756229
 21
803.0421348405589
 31
0.0
  0
LINE
  5
2301
330
1F
100
AcDbEntity
  8
10
100
AcDbLine
 10
2143.111502756229
 20
806.4421348405588
 30
0.0
 11
2143.111502756229
 21
803.0421348405589
 31
0.0
  0
LINE
  5
2302
330
1F
100
AcDbEntity
  8
10
100
AcDbLine
 10
2141.111502756228
 20
806.4421348405588
 30
0.0
 11
2141.111502756228
 21
803.0421348405589
 31
0.0
  0
LINE
  5
2303
330
1F
100
AcDbEntity
  8
10
100
AcDbLine
 10
2140.111502756229
 20
806.4421348405588
 30
0.0
 11
2140.111502756229
 21
803.0421348405589
 31
0.0
  0
LINE
  5
2304
330
1F
100
AcDbEntity
  8
10
100
AcDbLine
 10
2137.111502756229
 20
806.4421348405588
 30
0.0
 11
2137.111502756229
 21
803.0421348405589
 31
0.0
  0
LINE
  5
2305
330
1F
100
AcDbEntity
  8
10
100
AcDbLine
 10
2138.111502756229
 20
806.4421348405588
 30
0.0
 11
2138.111502756229
 21
803.0421348405589
 31
0.0
  0
LINE
  5
2306
330
1F
100
AcDbEntity
  8
10
100
AcDbLine
 10
2134.111502756229
 20
806.4421348405588
 30
0.0
 11
2134.111502756229
 21
803.0421348405589
 31
0.0
  0
LINE
  5
2307
330
1F
100
AcDbEntity
  8
10
100
AcDbLine
 10
2135.111502756229
 20
806.4421348405588
 30
0.0
 11
2135.111502756229
 21
803.0421348405589
 31
0.0
  0
LINE
  5
2308
330
1F
100
AcDbEntity
  8
10
100
AcDbLine
 10
2131.111502756228
 20
806.4421348405588
 30
0.0
 11
2131.111502756228
 21
803.0421348405589
 31
0.0
  0
LINE
  5
2309
330
1F
100
AcDbEntity
  8
10
100
AcDbLine
 10
2132.111502756229
 20
806.4421348405588
 30
0.0
 11
2132.111502756229
 21
803.0421348405589
 31
0.0
  0
LINE
  5
230A
330
1F
100
AcDbEntity
  8
10
100
AcDbLine
 10
2174.111502756228
 20
848.3421348405586
 30
0.0
 11
2174.111502756228
 21
803.0421348405589
 31
0.0
  0
LINE
  5
230B
330
1F
100
AcDbEntity
  8
10
100
AcDbLine
 10
2173.111502756229
 20
848.3421348405583
 30
0.0
 11
2173.111502756229
 21
803.0421348405589
 31
0.0
  0
LINE
  5
230C
330
1F
100
AcDbEntity
  8
10
100
AcDbLine
 10
2171.111502756228
 20
848.3421348405583
 30
0.0
 11
2171.111502756228
 21
803.0421348405589
 31
0.0
  0
LINE
  5
230D
330
1F
100
AcDbEntity
  8
10
100
AcDbLine
 10
2170.111502756229
 20
848.3421348405586
 30
0.0
 11
2170.111502756229
 21
803.0421348405589
 31
0.0
  0
LINE
  5
230E
330
1F
100
AcDbEntity
  8
10
100
AcDbLine
 10
2168.111502756229
 20
848.3421348405586
 30
0.0
 11
2168.111502756229
 21
803.0421348405589
 31
0.0
  0
LINE
  5
230F
330
1F
100
AcDbEntity
  8
10
100
AcDbLine
 10
2167.111502756229
 20
848.3421348405586
 30
0.0
 11
2167.111502756229
 21
803.0421348405589
 31
0.0
  0
LINE
  5
2310
330
1F
100
AcDbEntity
  8
10
100
AcDbLine
 10
2165.111502756229
 20
848.3421348405586
 30
0.0
 11
2165.111502756229
 21
803.0421348405589
 31
0.0
  0
LINE
  5
2311
330
1F
100
AcDbEntity
  8
10
100
AcDbLine
 10
2164.111502756229
 20
848.3421348405586
 30
0.0
 11
2164.111502756229
 21
803.0421348405589
 31
0.0
  0
LINE
  5
2312
330
1F
100
AcDbEntity
  8
10
100
AcDbLine
 10
2162.111502756229
 20
848.3421348405586
 30
0.0
 11
2162.111502756229
 21
803.0421348405589
 31
0.0
  0
LINE
  5
2313
330
1F
100
AcDbEntity
  8
10
100
AcDbLine
 10
2161.111502756229
 20
848.3421348405586
 30
0.0
 11
2161.111502756229
 21
803.0421348405589
 31
0.0
  0
LINE
  5
2314
330
1F
100
AcDbEntity
  8
10
100
AcDbLine
 10
2159.111502756229
 20
848.3421348405586
 30
0.0
 11
2159.111502756229
 21
803.0421348405589
 31
0.0
  0
LINE
  5
2315
330
1F
100
AcDbEntity
  8
10
100
AcDbLine
 10
2158.111502756228
 20
848.3421348405586
 30
0.0
 11
2158.111502756228
 21
803.0421348405589
 31
0.0
  0
LINE
  5
2316
330
1F
100
AcDbEntity
  8
10
100
AcDbLine
 10
2156.111502756228
 20
848.3421348405586
 30
0.0
 11
2156.111502756228
 21
803.0421348405589
 31
0.0
  0
LINE
  5
2317
330
1F
100
AcDbEntity
  8
10
100
AcDbLine
 10
2155.111502756229
 20
848.3421348405586
 30
0.0
 11
2155.111502756229
 21
803.0421348405589
 31
0.0
  0
LINE
  5
2318
330
1F
100
AcDbEntity
  8
10
100
AcDbLine
 10
2153.111502756229
 20
848.3421348405586
 30
0.0
 11
2153.111502756229
 21
803.0421348405589
 31
0.0
  0
LINE
  5
2319
330
1F
100
AcDbEntity
  8
10
100
AcDbLine
 10
2152.111502756229
 20
848.3421348405586
 30
0.0
 11
2152.111502756229
 21
803.0421348405589
 31
0.0
  0
LINE
  5
231A
330
1F
100
AcDbEntity
  8
10
100
AcDbLine
 10
2150.111502756229
 20
878.0421348405583
 30
0.0
 11
2150.111502756229
 21
803.0421348405589
 31
0.0
  0
LINE
  5
231B
330
1F
100
AcDbEntity
  8
10
100
AcDbLine
 10
2149.111502756229
 20
878.0421348405583
 30
0.0
 11
2149.111502756229
 21
803.0421348405589
 31
0.0
  0
LINE
  5
231C
330
1F
100
AcDbEntity
  8
10
100
AcDbLine
 10
2147.111502756229
 20
878.0421348405583
 30
0.0
 11
2147.111502756229
 21
803.0421348405589
 31
0.0
  0
LINE
  5
231D
330
1F
100
AcDbEntity
  8
10
100
AcDbLine
 10
2146.111502756228
 20
878.0421348405583
 30
0.0
 11
2146.111502756228
 21
803.0421348405589
 31
0.0
  0
LINE
  5
231E
330
1F
100
AcDbEntity
  8
10
100
AcDbLine
 10
2151.611502756229
 20
878.0421348405583
 30
0.0
 11
2151.611502756229
 21
848.3421348405586
 31
0.0
  0
LINE
  5
231F
330
1F
100
AcDbEntity
  8
10
100
AcDbLine
 10
2143.111502756229
 20
974.4421348405582
 30
0.0
 11
2137.111502756229
 21
974.4421348405582
 31
0.0
  0
LINE
  5
2320
330
1F
100
AcDbEntity
  8
10
100
AcDbLine
 10
2236.611502756228
 20
848.3421348405586
 30
0.0
 11
2314.811502756229
 21
848.3421348405583
 31
0.0
  0
LINE
  5
2321
330
1F
100
AcDbEntity
  8
10
100
AcDbLine
 10
2318.91834886108
 20
957.4421348405579
 30
0.0
 11
2182.611502756229
 21
957.4421348405579
 31
0.0
  0
LINE
  5
2322
330
1F
100
AcDbEntity
  8
10
100
AcDbLine
 10
2203.111502756228
 20
848.3421348405583
 30
0.0
 11
2203.111502756228
 21
803.0421348405589
 31
0.0
  0
LINE
  5
2323
330
1F
100
AcDbEntity
  8
10
100
AcDbLine
 10
2201.111502756228
 20
848.3421348405583
 30
0.0
 11
2201.111502756228
 21
803.0421348405589
 31
0.0
  0
LINE
  5
2324
330
1F
100
AcDbEntity
  8
10
100
AcDbLine
 10
2200.111502756229
 20
848.3421348405583
 30
0.0
 11
2200.111502756229
 21
803.0421348405589
 31
0.0
  0
LINE
  5
2325
330
1F
100
AcDbEntity
  8
10
100
AcDbLine
 10
2198.111502756229
 20
848.3421348405583
 30
0.0
 11
2198.111502756229
 21
803.0421348405589
 31
0.0
  0
LINE
  5
2326
330
1F
100
AcDbEntity
  8
10
100
AcDbLine
 10
2197.111502756229
 20
848.3421348405583
 30
0.0
 11
2197.111502756229
 21
803.0421348405589
 31
0.0
  0
LINE
  5
2327
330
1F
100
AcDbEntity
  8
10
100
AcDbLine
 10
2195.111502756229
 20
848.3421348405583
 30
0.0
 11
2195.111502756229
 21
803.0421348405589
 31
0.0
  0
LINE
  5
2328
330
1F
100
AcDbEntity
  8
10
100
AcDbLine
 10
2194.111502756228
 20
848.3421348405583
 30
0.0
 11
2194.111502756228
 21
803.0421348405589
 31
0.0
  0
LINE
  5
2329
330
1F
100
AcDbEntity
  8
10
100
AcDbLine
 10
2192.111502756229
 20
848.3421348405583
 30
0.0
 11
2192.111502756229
 21
803.0421348405589
 31
0.0
  0
LINE
  5
232A
330
1F
100
AcDbEntity
  8
10
100
AcDbLine
 10
2191.111502756228
 20
848.3421348405583
 30
0.0
 11
2191.111502756228
 21
803.0421348405589
 31
0.0
  0
LINE
  5
232B
330
1F
100
AcDbEntity
  8
10
100
AcDbLine
 10
2189.111502756229
 20
848.3421348405583
 30
0.0
 11
2189.111502756229
 21
803.0421348405589
 31
0.0
  0
LINE
  5
232C
330
1F
100
AcDbEntity
  8
10
100
AcDbLine
 10
2188.111502756229
 20
848.3421348405583
 30
0.0
 11
2188.111502756229
 21
803.0421348405589
 31
0.0
  0
LINE
  5
232D
330
1F
100
AcDbEntity
  8
10
100
AcDbLine
 10
2186.111502756229
 20
848.3421348405583
 30
0.0
 11
2186.111502756229
 21
803.0421348405589
 31
0.0
  0
LINE
  5
232E
330
1F
100
AcDbEntity
  8
10
100
AcDbLine
 10
2185.111502756229
 20
848.3421348405586
 30
0.0
 11
2185.111502756229
 21
803.0421348405589
 31
0.0
  0
LINE
  5
232F
330
1F
100
AcDbEntity
  8
10
100
AcDbLine
 10
2183.111502756229
 20
848.3421348405586
 30
0.0
 11
2183.111502756229
 21
803.0421348405589
 31
0.0
  0
LINE
  5
2330
330
1F
100
AcDbEntity
  8
10
100
AcDbLine
 10
2182.111502756229
 20
848.3421348405586
 30
0.0
 11
2182.111502756229
 21
803.0421348405589
 31
0.0
  0
LINE
  5
2331
330
1F
100
AcDbEntity
  8
10
100
AcDbLine
 10
2180.111502756229
 20
848.3421348405583
 30
0.0
 11
2180.111502756229
 21
803.0421348405589
 31
0.0
  0
LINE
  5
2332
330
1F
100
AcDbEntity
  8
10
100
AcDbLine
 10
2179.111502756229
 20
848.3421348405583
 30
0.0
 11
2179.111502756229
 21
803.0421348405589
 31
0.0
  0
LINE
  5
2333
330
1F
100
AcDbEntity
  8
10
100
AcDbLine
 10
2177.111502756229
 20
848.3421348405586
 30
0.0
 11
2177.111502756229
 21
803.0421348405589
 31
0.0
  0
LINE
  5
2334
330
1F
100
AcDbEntity
  8
10
100
AcDbLine
 10
2176.111502756228
 20
848.3421348405586
 30
0.0
 11
2176.111502756228
 21
803.0421348405589
 31
0.0
  0
LINE
  5
2335
330
1F
100
AcDbEntity
  8
10
100
AcDbLine
 10
2233.111502756229
 20
878.0421348405583
 30
0.0
 11
2233.111502756229
 21
803.0421348405589
 31
0.0
  0
LINE
  5
2336
330
1F
100
AcDbEntity
  8
10
100
AcDbLine
 10
2231.111502756229
 20
878.0421348405583
 30
0.0
 11
2231.111502756229
 21
803.0421348405589
 31
0.0
  0
LINE
  5
2337
330
1F
100
AcDbEntity
  8
10
100
AcDbLine
 10
2230.111502756229
 20
878.0421348405583
 30
0.0
 11
2230.111502756229
 21
803.0421348405589
 31
0.0
  0
LINE
  5
2338
330
1F
100
AcDbEntity
  8
10
100
AcDbLine
 10
2228.111502756229
 20
848.3421348405583
 30
0.0
 11
2228.111502756229
 21
803.0421348405589
 31
0.0
  0
LINE
  5
2339
330
1F
100
AcDbEntity
  8
10
100
AcDbLine
 10
2227.111502756229
 20
848.3421348405583
 30
0.0
 11
2227.111502756229
 21
803.0421348405589
 31
0.0
  0
LINE
  5
233A
330
1F
100
AcDbEntity
  8
10
100
AcDbLine
 10
2225.111502756229
 20
848.3421348405583
 30
0.0
 11
2225.111502756229
 21
803.0421348405589
 31
0.0
  0
LINE
  5
233B
330
1F
100
AcDbEntity
  8
10
100
AcDbLine
 10
2224.111502756229
 20
848.3421348405583
 30
0.0
 11
2224.111502756229
 21
803.0421348405589
 31
0.0
  0
LINE
  5
233C
330
1F
100
AcDbEntity
  8
10
100
AcDbLine
 10
2222.111502756229
 20
848.3421348405583
 30
0.0
 11
2222.111502756229
 21
803.0421348405589
 31
0.0
  0
LINE
  5
233D
330
1F
100
AcDbEntity
  8
10
100
AcDbLine
 10
2221.111502756229
 20
848.3421348405583
 30
0.0
 11
2221.111502756229
 21
803.0421348405589
 31
0.0
  0
LINE
  5
233E
330
1F
100
AcDbEntity
  8
10
100
AcDbLine
 10
2219.111502756228
 20
848.3421348405583
 30
0.0
 11
2219.111502756228
 21
803.0421348405589
 31
0.0
  0
LINE
  5
233F
330
1F
100
AcDbEntity
  8
10
100
AcDbLine
 10
2218.111502756229
 20
848.3421348405583
 30
0.0
 11
2218.111502756229
 21
803.0421348405589
 31
0.0
  0
LINE
  5
2340
330
1F
100
AcDbEntity
  8
10
100
AcDbLine
 10
2216.111502756229
 20
848.3421348405583
 30
0.0
 11
2216.111502756229
 21
803.0421348405589
 31
0.0
  0
LINE
  5
2341
330
1F
100
AcDbEntity
  8
10
100
AcDbLine
 10
2215.111502756229
 20
848.3421348405583
 30
0.0
 11
2215.111502756229
 21
803.0421348405589
 31
0.0
  0
LINE
  5
2342
330
1F
100
AcDbEntity
  8
10
100
AcDbLine
 10
2213.111502756229
 20
848.3421348405583
 30
0.0
 11
2213.111502756229
 21
803.0421348405589
 31
0.0
  0
LINE
  5
2343
330
1F
100
AcDbEntity
  8
10
100
AcDbLine
 10
2212.111502756229
 20
848.3421348405583
 30
0.0
 11
2212.111502756229
 21
803.0421348405589
 31
0.0
  0
LINE
  5
2344
330
1F
100
AcDbEntity
  8
10
100
AcDbLine
 10
2210.111502756229
 20
848.3421348405583
 30
0.0
 11
2210.111502756229
 21
803.0421348405589
 31
0.0
  0
LINE
  5
2345
330
1F
100
AcDbEntity
  8
10
100
AcDbLine
 10
2209.111502756229
 20
848.3421348405583
 30
0.0
 11
2209.111502756229
 21
803.0421348405589
 31
0.0
  0
LINE
  5
2346
330
1F
100
AcDbEntity
  8
10
100
AcDbLine
 10
2207.111502756229
 20
848.3421348405583
 30
0.0
 11
2207.111502756229
 21
803.0421348405589
 31
0.0
  0
LINE
  5
2347
330
1F
100
AcDbEntity
  8
10
100
AcDbLine
 10
2206.111502756229
 20
848.3421348405583
 30
0.0
 11
2206.111502756229
 21
803.0421348405589
 31
0.0
  0
LINE
  5
2348
330
1F
100
AcDbEntity
  8
10
100
AcDbLine
 10
2204.111502756228
 20
848.3421348405583
 30
0.0
 11
2204.111502756228
 21
803.0421348405589
 31
0.0
  0
LINE
  5
2349
330
1F
100
AcDbEntity
  8
10
100
AcDbLine
 10
2229.811502756228
 20
878.0421348405583
 30
0.0
 11
2229.811502756228
 21
848.3421348405583
 31
0.0
  0
LINE
  5
234A
330
1F
100
AcDbEntity
  8
10
100
AcDbLine
 10
2184.111502756229
 20
975.2421348405583
 30
0.0
 11
2194.111502756228
 21
975.2421348405583
 31
0.0
  0
LINE
  5
234B
330
1F
100
AcDbEntity
  8
10
100
AcDbLine
 10
2194.111502756228
 20
974.4421348405582
 30
0.0
 11
2184.111502756229
 21
974.4421348405582
 31
0.0
  0
LINE
  5
234C
330
1F
100
AcDbEntity
  8
10
100
AcDbLine
 10
2193.711502756228
 20
976.5421348405579
 30
0.0
 11
2184.511502756228
 21
976.5421348405579
 31
0.0
  0
LINE
  5
234D
330
1F
100
AcDbEntity
  8
10
100
AcDbLine
 10
2195.611502756229
 20
974.4421348405582
 30
0.0
 11
2175.111502756229
 21
974.4421348405582
 31
0.0
  0
LINE
  5
234E
330
1F
100
AcDbEntity
  8
10
100
AcDbLine
 10
2203.111502756228
 20
974.4421348405582
 30
0.0
 11
2182.611502756229
 21
974.4421348405582
 31
0.0
  0
LINE
  5
234F
330
1F
100
AcDbEntity
  8
10
100
AcDbLine
 10
2184.111502756229
 20
974.4421348405582
 30
0.0
 11
2184.111502756229
 21
975.2421348405583
 31
0.0
  0
LINE
  5
2350
330
1F
100
AcDbEntity
  8
10
100
AcDbLine
 10
2184.511502756228
 20
976.5421348405579
 30
0.0
 11
2184.511502756228
 21
975.2421348405583
 31
0.0
  0
LINE
  5
2351
330
1F
100
AcDbEntity
  8
10
100
AcDbLine
 10
2189.102066554498
 20
976.5421348405579
 30
0.0
 11
2187.802066554498
 21
975.2421348405583
 31
0.0
  0
LINE
  5
2353
330
1F
100
AcDbEntity
  8
10
100
AcDbLine
 10
2181.111502756228
 20
974.4421348405582
 30
0.0
 11
2181.111502756228
 21
957.4421348405579
 31
0.0
  0
LINE
  5
2354
330
1F
100
AcDbEntity
  8
10
100
AcDbLine
 10
2182.611502756229
 20
974.4421348405582
 30
0.0
 11
2182.611502756229
 21
957.4421348405579
 31
0.0
  0
LINE
  5
2355
330
1F
100
AcDbEntity
  8
10
100
AcDbLine
 10
2194.111502756228
 20
975.2421348405583
 30
0.0
 11
2194.111502756228
 21
974.4421348405582
 31
0.0
  0
LINE
  5
2356
330
1F
100
AcDbEntity
  8
10
100
AcDbLine
 10
2193.711502756228
 20
975.2421348405583
 30
0.0
 11
2193.711502756228
 21
976.5421348405579
 31
0.0
  0
LINE
  5
2357
330
1F
100
AcDbEntity
  8
10
100
AcDbLine
 10
2189.397827600135
 20
975.2421348405583
 30
0.0
 11
2190.697827600135
 21
976.5421348405579
 31
0.0
  0
LINE
  5
2358
330
1F
100
AcDbEntity
  8
10
100
AcDbLine
 10
2197.111502756229
 20
974.4421348405582
 30
0.0
 11
2197.111502756229
 21
957.4421348405579
 31
0.0
  0
LINE
  5
2359
330
1F
100
AcDbEntity
  8
10
100
AcDbLine
 10
2261.111502756229
 20
848.3421348405586
 30
0.0
 11
2261.111502756229
 21
803.0421348405589
 31
0.0
  0
LINE
  5
235A
330
1F
100
AcDbEntity
  8
10
100
AcDbLine
 10
2260.111502756229
 20
848.3421348405586
 30
0.0
 11
2260.111502756229
 21
803.0421348405589
 31
0.0
  0
LINE
  5
235B
330
1F
100
AcDbEntity
  8
10
100
AcDbLine
 10
2258.111502756229
 20
848.3421348405586
 30
0.0
 11
2258.111502756229
 21
803.0421348405589
 31
0.0
  0
LINE
  5
235C
330
1F
100
AcDbEntity
  8
10
100
AcDbLine
 10
2257.111502756229
 20
848.3421348405586
 30
0.0
 11
2257.111502756229
 21
803.0421348405589
 31
0.0
  0
LINE
  5
235D
330
1F
100
AcDbEntity
  8
10
100
AcDbLine
 10
2255.111502756229
 20
848.3421348405586
 30
0.0
 11
2255.111502756229
 21
803.0421348405589
 31
0.0
  0
LINE
  5
235E
330
1F
100
AcDbEntity
  8
10
100
AcDbLine
 10
2254.111502756229
 20
848.3421348405586
 30
0.0
 11
2254.111502756229
 21
803.0421348405589
 31
0.0
  0
LINE
  5
235F
330
1F
100
AcDbEntity
  8
10
100
AcDbLine
 10
2252.111502756229
 20
848.3421348405586
 30
0.0
 11
2252.111502756229
 21
803.0421348405589
 31
0.0
  0
LINE
  5
2360
330
1F
100
AcDbEntity
  8
10
100
AcDbLine
 10
2251.111502756228
 20
848.3421348405586
 30
0.0
 11
2251.111502756228
 21
803.0421348405589
 31
0.0
  0
LINE
  5
2361
330
1F
100
AcDbEntity
  8
10
100
AcDbLine
 10
2249.11150275623
 20
848.3421348405586
 30
0.0
 11
2249.11150275623
 21
803.0421348405589
 31
0.0
  0
LINE
  5
2362
330
1F
100
AcDbEntity
  8
10
100
AcDbLine
 10
2248.111502756229
 20
848.3421348405586
 30
0.0
 11
2248.111502756229
 21
803.0421348405589
 31
0.0
  0
LINE
  5
2363
330
1F
100
AcDbEntity
  8
10
100
AcDbLine
 10
2246.111502756229
 20
848.3421348405586
 30
0.0
 11
2246.111502756229
 21
803.0421348405589
 31
0.0
  0
LINE
  5
2364
330
1F
100
AcDbEntity
  8
10
100
AcDbLine
 10
2245.111502756229
 20
848.3421348405586
 30
0.0
 11
2245.111502756229
 21
803.0421348405589
 31
0.0
  0
LINE
  5
2365
330
1F
100
AcDbEntity
  8
10
100
AcDbLine
 10
2243.111502756229
 20
848.3421348405586
 30
0.0
 11
2243.111502756229
 21
803.0421348405589
 31
0.0
  0
LINE
  5
2366
330
1F
100
AcDbEntity
  8
10
100
AcDbLine
 10
2242.111502756229
 20
848.3421348405586
 30
0.0
 11
2242.111502756229
 21
803.0421348405589
 31
0.0
  0
LINE
  5
2367
330
1F
100
AcDbEntity
  8
10
100
AcDbLine
 10
2240.111502756229
 20
848.3421348405586
 30
0.0
 11
2240.111502756229
 21
803.0421348405589
 31
0.0
  0
LINE
  5
2368
330
1F
100
AcDbEntity
  8
10
100
AcDbLine
 10
2239.111502756229
 20
848.3421348405586
 30
0.0
 11
2239.111502756229
 21
803.0421348405589
 31
0.0
  0
LINE
  5
2369
330
1F
100
AcDbEntity
  8
10
100
AcDbLine
 10
2237.111502756229
 20
848.3421348405586
 30
0.0
 11
2237.111502756229
 21
803.0421348405589
 31
0.0
  0
LINE
  5
236A
330
1F
100
AcDbEntity
  8
10
100
AcDbLine
 10
2236.111502756229
 20
878.0421348405583
 30
0.0
 11
2236.111502756229
 21
803.0421348405589
 31
0.0
  0
LINE
  5
236B
330
1F
100
AcDbEntity
  8
10
100
AcDbLine
 10
2234.111502756229
 20
878.0421348405583
 30
0.0
 11
2234.111502756229
 21
803.0421348405589
 31
0.0
  0
LINE
  5
236C
330
1F
100
AcDbEntity
  8
10
100
AcDbLine
 10
2236.611502756228
 20
878.0421348405583
 30
0.0
 11
2236.611502756228
 21
848.3421348405586
 31
0.0
  0
LINE
  5
236D
330
1F
100
AcDbEntity
  8
10
100
AcDbLine
 10
2291.111502756229
 20
848.3421348405583
 30
0.0
 11
2291.111502756229
 21
803.0421348405589
 31
0.0
  0
LINE
  5
236E
330
1F
100
AcDbEntity
  8
10
100
AcDbLine
 10
2290.111502756229
 20
848.3421348405583
 30
0.0
 11
2290.111502756229
 21
803.0421348405589
 31
0.0
  0
LINE
  5
236F
330
1F
100
AcDbEntity
  8
10
100
AcDbLine
 10
2288.111502756229
 20
848.3421348405583
 30
0.0
 11
2288.111502756229
 21
803.0421348405589
 31
0.0
  0
LINE
  5
2370
330
1F
100
AcDbEntity
  8
10
100
AcDbLine
 10
2287.111502756229
 20
848.3421348405583
 30
0.0
 11
2287.111502756229
 21
803.0421348405589
 31
0.0
  0
LINE
  5
2371
330
1F
100
AcDbEntity
  8
10
100
AcDbLine
 10
2285.111502756229
 20
848.3421348405583
 30
0.0
 11
2285.111502756229
 21
803.0421348405589
 31
0.0
  0
LINE
  5
2372
330
1F
100
AcDbEntity
  8
10
100
AcDbLine
 10
2284.111502756229
 20
848.3421348405583
 30
0.0
 11
2284.111502756229
 21
803.0421348405589
 31
0.0
  0
LINE
  5
2373
330
1F
100
AcDbEntity
  8
10
100
AcDbLine
 10
2282.111502756229
 20
848.3421348405583
 30
0.0
 11
2282.111502756229
 21
803.0421348405589
 31
0.0
  0
LINE
  5
2374
330
1F
100
AcDbEntity
  8
10
100
AcDbLine
 10
2281.111502756229
 20
848.3421348405583
 30
0.0
 11
2281.111502756229
 21
803.0421348405589
 31
0.0
  0
LINE
  5
2375
330
1F
100
AcDbEntity
  8
10
100
AcDbLine
 10
2279.111502756229
 20
848.3421348405583
 30
0.0
 11
2279.111502756229
 21
803.0421348405589
 31
0.0
  0
LINE
  5
2376
330
1F
100
AcDbEntity
  8
10
100
AcDbLine
 10
2278.111502756229
 20
848.3421348405583
 30
0.0
 11
2278.111502756229
 21
803.0421348405589
 31
0.0
  0
LINE
  5
2377
330
1F
100
AcDbEntity
  8
10
100
AcDbLine
 10
2276.111502756229
 20
848.3421348405583
 30
0.0
 11
2276.111502756229
 21
803.0421348405589
 31
0.0
  0
LINE
  5
2378
330
1F
100
AcDbEntity
  8
10
100
AcDbLine
 10
2275.111502756229
 20
848.3421348405583
 30
0.0
 11
2275.111502756229
 21
803.0421348405589
 31
0.0
  0
LINE
  5
2379
330
1F
100
AcDbEntity
  8
10
100
AcDbLine
 10
2273.111502756229
 20
848.3421348405583
 30
0.0
 11
2273.111502756229
 21
803.0421348405589
 31
0.0
  0
LINE
  5
237A
330
1F
100
AcDbEntity
  8
10
100
AcDbLine
 10
2272.111502756229
 20
848.3421348405583
 30
0.0
 11
2272.111502756229
 21
803.0421348405589
 31
0.0
  0
LINE
  5
237B
330
1F
100
AcDbEntity
  8
10
100
AcDbLine
 10
2270.111502756229
 20
848.3421348405586
 30
0.0
 11
2270.111502756229
 21
803.0421348405589
 31
0.0
  0
LINE
  5
237C
330
1F
100
AcDbEntity
  8
10
100
AcDbLine
 10
2269.111502756229
 20
848.3421348405586
 30
0.0
 11
2269.111502756229
 21
803.0421348405589
 31
0.0
  0
LINE
  5
237D
330
1F
100
AcDbEntity
  8
10
100
AcDbLine
 10
2267.111502756228
 20
848.3421348405586
 30
0.0
 11
2267.111502756228
 21
803.0421348405589
 31
0.0
  0
LINE
  5
237E
330
1F
100
AcDbEntity
  8
10
100
AcDbLine
 10
2266.111502756229
 20
848.3421348405586
 30
0.0
 11
2266.111502756229
 21
803.0421348405589
 31
0.0
  0
LINE
  5
237F
330
1F
100
AcDbEntity
  8
10
100
AcDbLine
 10
2264.111502756229
 20
848.3421348405586
 30
0.0
 11
2264.111502756229
 21
803.0421348405589
 31
0.0
  0
LINE
  5
2380
330
1F
100
AcDbEntity
  8
10
100
AcDbLine
 10
2263.111502756229
 20
848.3421348405586
 30
0.0
 11
2263.111502756229
 21
803.0421348405589
 31
0.0
  0
LINE
  5
2381
330
1F
100
AcDbEntity
  8
10
100
AcDbLine
 10
2241.111502756228
 20
974.4421348405582
 30
0.0
 11
2235.111502756228
 21
974.4421348405582
 31
0.0
  0
LINE
  5
2382
330
1F
100
AcDbEntity
  8
10
100
AcDbLine
 10
2279.111502756228
 20
974.4421348405582
 30
0.0
 11
2273.111502756229
 21
974.4421348405582
 31
0.0
  0
LINE
  5
2383
330
1F
100
AcDbEntity
  8
10
100
AcDbLine
 10
2354.611502756229
 20
790.4421348405584
 30
0.0
 11
2354.611502756229
 21
824.4421348405582
 31
0.0
  0
ARC
  5
2384
330
1F
100
AcDbEntity
  8
12
 48
3.0
100
AcDbCircle
 10
2322.611502756229
 20
798.4421348405584
 30
0.0
 40
3.599999999999984
100
AcDbArc
 50
13.64408479549537
 51
166.3559152045045
  0
ARC
  5
2385
330
1F
100
AcDbEntity
  8
12
 48
3.0
100
AcDbCircle
 10
2342.611502756229
 20
798.4421348405584
 30
0.0
 40
3.599999999999984
100
AcDbArc
 50
13.64408479549537
 51
166.3559152045045
  0
ARC
  5
2386
330
1F
100
AcDbEntity
  8
10
 48
3.0
100
AcDbCircle
 10
2314.611502756229
 20
809.4421348405587
 30
0.0
 40
6.999999999999992
100
AcDbArc
 50
270.0
 51
0.0
  0
LINE
  5
2387
330
1F
100
AcDbEntity
  8
10
100
AcDbLine
 10
2344.611502756229
 20
925.4421348405584
 30
0.0
 11
2344.611502756229
 21
791.4421348405587
 31
0.0
  0
LINE
  5
2388
330
1F
100
AcDbEntity
  8
10
100
AcDbLine
 10
2343.011502756228
 20
925.4421348405584
 30
0.0
 11
2343.011502756228
 21
793.0421348405587
 31
0.0
  0
LINE
  5
2389
330
1F
100
AcDbEntity
  8
10
100
AcDbLine
 10
2342.611502756229
 20
925.4421348405584
 30
0.0
 11
2342.611502756229
 21
793.0421348405587
 31
0.0
  0
LINE
  5
238B
330
1F
100
AcDbEntity
  8
12
 48
3.0
100
AcDbLine
 10
2317.741807432363
 20
793.6421348405586
 30
0.0
 11
2319.11309551688
 21
799.291338460233
 31
0.0
  0
LINE
  5
238C
330
1F
100
AcDbEntity
  8
12
 48
3.0
100
AcDbLine
 10
2327.481198080095
 20
793.6421348405586
 30
0.0
 11
2326.109909995578
 21
799.291338460233
 31
0.0
  0
LINE
  5
238D
330
1F
100
AcDbEntity
  8
12
 48
3.0
100
AcDbLine
 10
2347.481198080095
 20
793.6421348405586
 30
0.0
 11
2346.109909995578
 21
799.291338460233
 31
0.0
  0
LINE
  5
238E
330
1F
100
AcDbEntity
  8
12
 48
3.0
100
AcDbLine
 10
2337.741807432363
 20
793.6421348405586
 30
0.0
 11
2339.11309551688
 21
799.291338460233
 31
0.0
  0
LINE
  5
238F
330
1F
100
AcDbEntity
  8
10
100
AcDbLine
 10
2342.611502756229
 20
793.0421348405587
 30
0.0
 11
2342.608966215661
 21
793.0421348405587
 31
0.0
  0
LINE
  5
2390
330
1F
100
AcDbEntity
  8
10
100
AcDbLine
 10
2351.611502756229
 20
962.4421348405583
 30
0.0
 11
2324.611502756229
 21
962.4421348405583
 31
0.0
  0
LINE
  5
2391
330
1F
100
AcDbEntity
  8
10
 48
3.0
100
AcDbLine
 10
2351.611502756229
 20
827.4421348405583
 30
0.0
 11
2324.611502756229
 21
827.4421348405583
 31
0.0
  0
LINE
  5
2392
330
1F
100
AcDbEntity
  8
10
100
AcDbLine
 10
2354.611502756229
 20
925.4421348405584
 30
0.0
 11
2344.611502756229
 21
925.4421348405584
 31
0.0
  0
ARC
  5
2393
330
1F
100
AcDbEntity
  8
10
100
AcDbCircle
 10
2314.611502756229
 20
872.0421348405581
 30
0.0
 40
5.999999999999993
100
AcDbArc
 50
0.0
 51
90.0
  0
ARC
  5
2394
330
1F
100
AcDbEntity
  8
10
100
AcDbCircle
 10
2314.611502756229
 20
809.0421348405586
 30
0.0
 40
6.000000000000013
100
AcDbArc
 50
270.0
 51
0.0
  0
LINE
  5
2395
330
1F
100
AcDbEntity
  8
10
100
AcDbLine
 10
2320.611502756229
 20
872.0421348405581
 30
0.0
 11
2320.611502756229
 21
809.0421348405586
 31
0.0
  0
LINE
  5
2396
330
1F
100
AcDbEntity
  8
10
100
AcDbLine
 10
2316.111502756229
 20
877.8516098598695
 30
0.0
 11
2316.111502756229
 21
803.2326598212476
 31
0.0
  0
LINE
  5
2397
330
1F
100
AcDbEntity
  8
10
100
AcDbLine
 10
2315.111502756229
 20
878.021265212109
 30
0.0
 11
2315.111502756229
 21
803.0630044690081
 31
0.0
  0
LINE
  5
2398
330
1F
100
AcDbEntity
  8
10
100
AcDbLine
 10
2311.111502756229
 20
848.3421348405583
 30
0.0
 11
2311.111502756229
 21
803.0421348405589
 31
0.0
  0
LINE
  5
2399
330
1F
100
AcDbEntity
  8
10
100
AcDbLine
 10
2312.111502756229
 20
848.3421348405583
 30
0.0
 11
2312.111502756229
 21
803.0421348405589
 31
0.0
  0
LINE
  5
239A
330
1F
100
AcDbEntity
  8
10
100
AcDbLine
 10
2309.111502756229
 20
848.3421348405583
 30
0.0
 11
2309.111502756229
 21
803.0421348405589
 31
0.0
  0
LINE
  5
239B
330
1F
100
AcDbEntity
  8
10
100
AcDbLine
 10
2308.111502756229
 20
848.3421348405583
 30
0.0
 11
2308.111502756229
 21
803.0421348405589
 31
0.0
  0
LINE
  5
239C
330
1F
100
AcDbEntity
  8
10
100
AcDbLine
 10
2306.111502756229
 20
848.3421348405583
 30
0.0
 11
2306.111502756229
 21
803.0421348405589
 31
0.0
  0
LINE
  5
239D
330
1F
100
AcDbEntity
  8
10
100
AcDbLine
 10
2305.111502756229
 20
848.3421348405583
 30
0.0
 11
2305.111502756229
 21
803.0421348405589
 31
0.0
  0
LINE
  5
239E
330
1F
100
AcDbEntity
  8
10
100
AcDbLine
 10
2303.111502756229
 20
848.3421348405583
 30
0.0
 11
2303.111502756229
 21
803.0421348405589
 31
0.0
  0
LINE
  5
239F
330
1F
100
AcDbEntity
  8
10
100
AcDbLine
 10
2302.111502756229
 20
848.3421348405583
 30
0.0
 11
2302.111502756229
 21
803.0421348405589
 31
0.0
  0
LINE
  5
23A0
330
1F
100
AcDbEntity
  8
10
100
AcDbLine
 10
2300.111502756229
 20
848.3421348405583
 30
0.0
 11
2300.111502756229
 21
803.0421348405589
 31
0.0
  0
LINE
  5
23A1
330
1F
100
AcDbEntity
  8
10
100
AcDbLine
 10
2299.111502756228
 20
848.3421348405583
 30
0.0
 11
2299.111502756228
 21
803.0421348405589
 31
0.0
  0
LINE
  5
23A2
330
1F
100
AcDbEntity
  8
10
100
AcDbLine
 10
2297.111502756229
 20
848.3421348405583
 30
0.0
 11
2297.111502756229
 21
803.0421348405589
 31
0.0
  0
LINE
  5
23A3
330
1F
100
AcDbEntity
  8
10
100
AcDbLine
 10
2296.111502756229
 20
848.3421348405583
 30
0.0
 11
2296.111502756229
 21
803.0421348405589
 31
0.0
  0
LINE
  5
23A4
330
1F
100
AcDbEntity
  8
10
100
AcDbLine
 10
2294.111502756229
 20
848.3421348405583
 30
0.0
 11
2294.111502756229
 21
803.0421348405589
 31
0.0
  0
LINE
  5
23A5
330
1F
100
AcDbEntity
  8
10
100
AcDbLine
 10
2293.111502756229
 20
848.3421348405583
 30
0.0
 11
2293.111502756229
 21
803.0421348405589
 31
0.0
  0
LINE
  5
23A6
330
1F
100
AcDbEntity
  8
10
100
AcDbLine
 10
2314.811502756229
 20
878.0388005807843
 30
0.0
 11
2314.811502756229
 21
848.3421348405583
 31
0.0
  0
LINE
  5
23A7
330
1F
100
AcDbEntity
  8
12
 48
3.0
100
AcDbLine
 10
2339.617056255693
 20
815.4421348405582
 30
0.0
 11
2335.86427950596
 21
808.9421348405583
 31
0.0
  0
LINE
  5
23A8
330
1F
100
AcDbEntity
  8
12
 48
3.0
100
AcDbLine
 10
2339.617056255693
 20
815.4421348405582
 30
0.0
 11
2335.86427950596
 21
821.9421348405584
 31
0.0
  0
CIRCLE
  5
23A9
330
1F
100
AcDbEntity
  8
12
 48
3.0
100
AcDbCircle
 10
2332.111502756228
 20
815.4421348405586
 30
0.0
 40
9.000000000000001
  0
CIRCLE
  5
23AA
330
1F
100
AcDbEntity
  8
12
 48
3.0
100
AcDbCircle
 10
2332.111502756228
 20
815.4421348405586
 30
0.0
 40
7.700000000000001
  0
LINE
  5
23AB
330
1F
100
AcDbEntity
  8
10
 48
3.0
100
AcDbLine
 10
2321.611502756229
 20
824.4421348405582
 30
0.0
 11
2321.611502756229
 21
809.4421348405587
 31
0.0
  0
LINE
  5
23AC
330
1F
100
AcDbEntity
  8
10
 48
3.0
100
AcDbLine
 10
2324.611502756229
 20
827.4421348405583
 30
0.0
 11
2321.611502756229
 21
824.4421348405582
 31
0.0
  0
LINE
  5
23AD
330
1F
100
AcDbEntity
  8
12
 48
3.0
100
AcDbLine
 10
2328.358726006495
 20
821.9421348405584
 30
0.0
 11
2324.605949256763
 21
815.4421348405582
 31
0.0
  0
LINE
  5
23AE
330
1F
100
AcDbEntity
  8
12
 48
3.0
100
AcDbLine
 10
2328.358726006495
 20
808.9421348405583
 30
0.0
 11
2324.605949256763
 21
815.4421348405582
 31
0.0
  0
LINE
  5
23AF
330
1F
100
AcDbEntity
  8
12
 48
3.0
100
AcDbLine
 10
2335.86427950596
 20
808.9421348405583
 30
0.0
 11
2328.358726006495
 21
808.9421348405583
 31
0.0
  0
LINE
  5
23B0
330
1F
100
AcDbEntity
  8
12
 48
3.0
100
AcDbLine
 10
2335.86427950596
 20
821.9421348405584
 30
0.0
 11
2328.358726006495
 21
821.9421348405584
 31
0.0
  0
ARC
  5
23B1
330
1F
100
AcDbEntity
  8
10
100
AcDbCircle
 10
2314.611502756229
 20
944.4421348405583
 30
0.0
 40
7.000000000000007
100
AcDbArc
 50
270.0
 51
0.0
  0
ARC
  5
23B2
330
1F
100
AcDbEntity
  8
12
100
AcDbCircle
 10
2322.611502756229
 20
933.4421348405582
 30
0.0
 40
3.599999999999978
100
AcDbArc
 50
13.64408479549537
 51
166.3559152045045
  0
LINE
  5
23B3
330
1F
100
AcDbEntity
  8
10
100
AcDbLine
 10
2326.611502756228
 20
975.2421348405583
 30
0.0
 11
2320.111502756229
 21
975.2421348405583
 31
0.0
  0
LINE
  5
23B4
330
1F
100
AcDbEntity
  8
10
100
AcDbLine
 10
2320.511502756227
 20
976.5421348405579
 30
0.0
 11
2326.611502756228
 21
976.5421348405579
 31
0.0
  0
ARC
  5
23B5
330
1F
100
AcDbEntity
  8
10
100
AcDbCircle
 10
2311.611502756228
 20
970.5421348405586
 30
0.0
 40
14.99999999999999
100
AcDbArc
 50
270.0
 51
0.0
  0
LINE
  5
23B6
330
1F
100
AcDbEntity
  8
10
100
AcDbLine
 10
2326.611502756228
 20
974.4421348405582
 30
0.0
 11
2311.111502756229
 21
974.4421348405582
 31
0.0
  0
LINE
  5
23B7
330
1F
100
AcDbEntity
  8
12
100
AcDbLine
 10
2317.741807432363
 20
928.6421348405584
 30
0.0
 11
2319.11309551688
 21
934.2913384602328
 31
0.0
  0
LINE
  5
23B8
330
1F
100
AcDbEntity
  8
10
100
AcDbLine
 10
2320.111502756229
 20
975.2421348405583
 30
0.0
 11
2320.111502756229
 21
974.4421348405582
 31
0.0
  0
LINE
  5
23B9
330
1F
100
AcDbEntity
  8
10
100
AcDbLine
 10
2320.511502756227
 20
975.2421348405583
 30
0.0
 11
2320.511502756227
 21
976.5421348405579
 31
0.0
  0
LINE
  5
23BA
330
1F
100
AcDbEntity
  8
10
100
AcDbLine
 10
2317.111502756229
 20
974.4421348405582
 30
0.0
 11
2317.111502756229
 21
957.4421348405579
 31
0.0
  0
LINE
  5
23BB
330
1F
100
AcDbEntity
  8
12
100
AcDbLine
 10
2337.741807432363
 20
928.6421348405584
 30
0.0
 11
2339.11309551688
 21
934.2913384602328
 31
0.0
  0
LINE
  5
23BC
330
1F
100
AcDbEntity
  8
12
100
AcDbLine
 10
2347.481198080095
 20
928.6421348405584
 30
0.0
 11
2346.109909995578
 21
934.2913384602328
 31
0.0
  0
LINE
  5
23BD
330
1F
100
AcDbEntity
  8
12
100
AcDbLine
 10
2327.481198080095
 20
928.6421348405584
 30
0.0
 11
2326.109909995578
 21
934.2913384602328
 31
0.0
  0
CIRCLE
  5
23BE
330
1F
100
AcDbEntity
  8
12
100
AcDbCircle
 10
2332.111502756228
 20
950.4421348405584
 30
0.0
 40
6.500000000000002
  0
LINE
  5
23BF
330
1F
100
AcDbEntity
  8
12
100
AcDbLine
 10
2339.617056255693
 20
950.4421348405584
 30
0.0
 11
2335.86427950596
 21
943.9421348405582
 31
0.0
  0
LINE
  5
23C0
330
1F
100
AcDbEntity
  8
12
100
AcDbLine
 10
2339.617056255693
 20
950.4421348405584
 30
0.0
 11
2335.86427950596
 21
956.9421348405583
 31
0.0
  0
CIRCLE
  5
23C1
330
1F
100
AcDbEntity
  8
12
100
AcDbCircle
 10
2332.111502756228
 20
950.4421348405584
 30
0.0
 40
9.000000000000001
  0
CIRCLE
  5
23C2
330
1F
100
AcDbEntity
  8
12
100
AcDbCircle
 10
2332.111502756228
 20
950.4421348405584
 30
0.0
 40
7.700000000000001
  0
LINE
  5
23C3
330
1F
100
AcDbEntity
  8
10
100
AcDbLine
 10
2324.611502756229
 20
962.4421348405583
 30
0.0
 11
2321.611502756229
 21
959.4421348405584
 31
0.0
  0
LINE
  5
23C4
330
1F
100
AcDbEntity
  8
10
100
AcDbLine
 10
2321.611502756229
 20
959.4421348405584
 30
0.0
 11
2321.611502756229
 21
944.4421348405583
 31
0.0
  0
LINE
  5
23C5
330
1F
100
AcDbEntity
  8
10
100
AcDbLine
 10
2325.120938957959
 20
976.5421348405579
 30
0.0
 11
2326.420938957959
 21
975.2421348405583
 31
0.0
  0
LINE
  5
23C6
330
1F
100
AcDbEntity
  8
10
100
AcDbLine
 10
2324.825177912321
 20
975.2421348405583
 30
0.0
 11
2323.525177912322
 21
976.5421348405579
 31
0.0
  0
LINE
  5
23C7
330
1F
100
AcDbEntity
  8
12
100
AcDbLine
 10
2328.358726006495
 20
956.9421348405583
 30
0.0
 11
2324.605949256763
 21
950.4421348405584
 31
0.0
  0
LINE
  5
23C8
330
1F
100
AcDbEntity
  8
12
100
AcDbLine
 10
2328.358726006495
 20
943.9421348405582
 30
0.0
 11
2324.605949256763
 21
950.4421348405584
 31
0.0
  0
LINE
  5
23C9
330
1F
100
AcDbEntity
  8
12
100
AcDbLine
 10
2335.86427950596
 20
943.9421348405582
 30
0.0
 11
2328.358726006495
 21
943.9421348405582
 31
0.0
  0
LINE
  5
23CA
330
1F
100
AcDbEntity
  8
12
100
AcDbLine
 10
2335.86427950596
 20
956.9421348405583
 30
0.0
 11
2328.358726006495
 21
956.9421348405583
 31
0.0
  0
ARC
  5
23CB
330
1F
100
AcDbEntity
  8
12
100
AcDbCircle
 10
2342.611502756229
 20
933.4421348405582
 30
0.0
 40
3.599999999999978
100
AcDbArc
 50
13.64408479549537
 51
166.3559152045045
  0
LINE
  5
23CC
330
1F
100
AcDbEntity
  8
10
 48
3.0
100
AcDbLine
 10
2354.611502756229
 20
824.4421348405582
 30
0.0
 11
2351.611502756229
 21
827.4421348405583
 31
0.0
  0
LINE
  5
23CD
330
1F
100
AcDbEntity
  8
10
100
AcDbLine
 10
2354.611502756229
 20
925.4421348405584
 30
0.0
 11
2354.611502756229
 21
959.4421348405584
 31
0.0
  0
LINE
  5
23CE
330
1F
100
AcDbEntity
  8
10
100
AcDbLine
 10
2354.611502756229
 20
959.4421348405584
 30
0.0
 11
2351.611502756229
 21
962.4421348405583
 31
0.0
  0
LINE
  5
23CF
330
1F
100
AcDbEntity
  8
10
100
AcDbLine
 10
1954.611502756229
 20
1330.542134840559
 30
0.0
 11
1954.611502756229
 21
1870.542134840559
 31
0.0
  0
LINE
  5
23D0
330
1F
100
AcDbEntity
  8
10
100
AcDbLine
 10
2354.611502756228
 20
1870.542134840559
 30
0.0
 11
2354.611502756228
 21
1330.542134840559
 31
0.0
  0
LINE
  5
23D2
330
1F
100
AcDbEntity
  8
10
100
AcDbLine
 10
1954.611502756229
 20
1872.542134840559
 30
0.0
 11
1954.611502756229
 21
1601.542134840559
 31
0.0
  0
LINE
  5
23D3
330
1F
100
AcDbEntity
  8
10
100
AcDbLine
 10
2354.611502756228
 20
1872.542134840559
 30
0.0
 11
2354.611502756228
 21
1601.542134840559
 31
0.0
  0
LINE
  5
23D4
330
1F
100
AcDbEntity
  8
10
100
AcDbLine
 10
2354.611502756228
 20
1872.542134840559
 30
0.0
 11
2354.611502756228
 21
1746.024411800751
 31
0.0
  0
LINE
  5
23D5
330
1F
100
AcDbEntity
  8
10
100
AcDbLine
 10
2304.611502756229
 20
1290.542134840559
 30
0.0
 11
2004.611502756229
 21
1290.542134840559
 31
0.0
  0
LINE
  5
23D6
330
1F
100
AcDbEntity
  8
10
100
AcDbLine
 10
1954.611502756229
 20
1329.042134840558
 30
0.0
 11
2354.611502756228
 21
1329.042134840558
 31
0.0
  0
LINE
  5
23D7
330
1F
100
AcDbEntity
  8
10
100
AcDbLine
 10
1954.611502756229
 20
1601.042134840559
 30
0.0
 11
2354.611502756228
 21
1601.042134840559
 31
0.0
  0
LINE
  5
23D8
330
1F
100
AcDbEntity
  8
10
100
AcDbLine
 10
2354.611502756229
 20
1035.642134840559
 30
0.0
 11
1954.611502756229
 21
1035.642134840558
 31
0.0
  0
LINE
  5
23D9
330
1F
100
AcDbEntity
  8
10
100
AcDbLine
 10
2352.611502756229
 20
1027.642134840559
 30
0.0
 11
1956.611502756229
 21
1027.642134840557
 31
0.0
  0
LINE
  5
23DA
330
1F
100
AcDbEntity
  8
10
100
AcDbLine
 10
2175.111502756229
 20
987.4421348405579
 30
0.0
 11
2143.111502756229
 21
987.4421348405579
 31
0.0
  0
LINE
  5
23DB
330
1F
100
AcDbEntity
  8
10
100
AcDbLine
 10
2188.111502756229
 20
1017.442134840558
 30
0.0
 11
2173.111502756229
 21
1017.442134840558
 31
0.0
  0
LINE
  5
23DC
330
1F
100
AcDbEntity
  8
10
 48
3.0
100
AcDbLine
 10
2054.111502756229
 20
1440.04213484056
 30
0.0
 11
2188.111502756228
 21
1440.04213484056
 31
0.0
  0
LINE
  5
23DD
330
1F
100
AcDbEntity
  8
10
 48
3.0
100
AcDbLine
 10
2188.111502756228
 20
1358.04213484056
 30
0.0
 11
2054.111502756229
 21
1358.04213484056
 31
0.0
  0
LINE
  5
23DE
330
1F
100
AcDbEntity
  8
12
 48
3.0
100
AcDbLine
 10
2319.611502756229
 20
1305.542134840559
 30
0.0
 11
1989.611502756228
 21
1305.542134840559
 31
0.0
  0
LINE
  5
23E1
330
1F
100
AcDbEntity
  8
10
100
AcDbLine
 10
1954.611502756229
 20
1601.542134840559
 30
0.0
 11
2354.611502756228
 21
1601.542134840559
 31
0.0
  0
LINE
  5
23E2
330
1F
100
AcDbEntity
  8
10
100
AcDbLine
 10
2354.611502756228
 20
1327.342134840558
 30
0.0
 11
1954.611502756229
 21
1327.342134840558
 31
0.0
  0
LINE
  5
23E3
330
1F
100
AcDbEntity
  8
10
100
AcDbLine
 10
1954.611502756229
 20
1601.042134840559
 30
0.0
 11
1954.611502756229
 21
1329.042134840558
 31
0.0
  0
LINE
  5
23E4
330
1F
100
AcDbEntity
  8
10
 48
3.0
100
AcDbLine
 10
2054.111502756229
 20
1358.04213484056
 30
0.0
 11
2054.111502756229
 21
1440.04213484056
 31
0.0
  0
TEXT
  5
23E5
330
1F
100
AcDbEntity
  8
10
100
AcDbText
 10
2056.111512564688
 20
1362.042133627866
 30
0.0
 40
16.00000023841857
  1
ＴＢ１－１
 50
0.0000025044784726
 41
0.7031250019402551
  7
STANDARD1
100
AcDbText
  0
LINE
  5
23E6
330
1F
100
AcDbEntity
  8
10
100
AcDbLine
 10
2069.111502756229
 20
1017.442134840558
 30
0.0
 11
2054.111502756229
 21
1017.442134840558
 31
0.0
  0
LINE
  5
23E8
330
1F
100
AcDbEntity
  8
10
100
AcDbLine
 10
1970.111502756228
 20
1035.642134840558
 30
0.0
 11
1963.111502756228
 21
1035.642134840558
 31
0.0
  0
ARC
  5
23E9
330
1F
100
AcDbEntity
  8
10
100
AcDbCircle
 10
1968.281832065077
 20
1036.742134840558
 30
0.0
 40
1.500000000000024
100
AcDbArc
 50
33.36701296923139
 51
90.0
  0
LINE
  5
23EA
330
1F
100
AcDbEntity
  8
10
100
AcDbLine
 10
1954.611502756229
 20
1029.642134840557
 30
0.0
 11
1954.611502756229
 21
1035.642134840558
 31
0.0
  0
LINE
  5
23EB
330
1F
100
AcDbEntity
  8
10
100
AcDbLine
 10
1954.611502756229
 20
1029.642134840557
 30
0.0
 11
1956.611502756229
 21
1027.642134840557
 31
0.0
  0
ARC
  5
23EC
330
1F
100
AcDbEntity
  8
10
100
AcDbCircle
 10
1966.611502756228
 20
1035.642134840558
 30
0.0
 40
3.499999999999963
100
AcDbArc
 50
146.6329870307671
 51
180.0
  0
LINE
  5
23ED
330
1F
100
AcDbEntity
  8
10
100
AcDbLine
 10
1964.94117344738
 20
1038.242134840559
 30
0.0
 11
1968.281832065077
 21
1038.242134840559
 31
0.0
  0
ARC
  5
23EE
330
1F
100
AcDbEntity
  8
10
100
AcDbCircle
 10
1964.94117344738
 20
1036.742134840558
 30
0.0
 40
1.499999999999999
100
AcDbArc
 50
90.0
 51
146.6329870307685
  0
ARC
  5
23EF
330
1F
100
AcDbEntity
  8
10
100
AcDbCircle
 10
1966.611502756228
 20
1036.742134840558
 30
0.0
 40
1.499999999999999
100
AcDbArc
 50
90.0
 51
180.0
  0
LINE
  5
23F0
330
1F
100
AcDbEntity
  8
10
100
AcDbLine
 10
1966.611502756228
 20
1038.242134840559
 30
0.0
 11
1966.611502756228
 21
1038.242134840559
 31
0.0
  0
ARC
  5
23F1
330
1F
100
AcDbEntity
  8
10
100
AcDbCircle
 10
1966.611502756228
 20
1036.742134840558
 30
0.0
 40
1.499999999999984
100
AcDbArc
 50
0.0
 51
90.0
  0
LINE
  5
23F2
330
1F
100
AcDbEntity
  8
10
100
AcDbLine
 10
1994.294577856961
 20
980.942134840558
 30
0.0
 11
1990.194577856961
 21
980.942134840558
 31
0.0
  0
LINE
  5
23F3
330
1F
100
AcDbEntity
  8
10
100
AcDbLine
 10
1992.794577856961
 20
982.4421348405579
 30
0.0
 11
1990.194577856961
 21
982.4421348405579
 31
0.0
  0
LINE
  5
23F4
330
1F
100
AcDbEntity
  8
10
100
AcDbLine
 10
1992.794577856961
 20
983.9421348405583
 30
0.0
 11
1988.794577856961
 21
983.9421348405583
 31
0.0
  0
LINE
  5
23F5
330
1F
100
AcDbEntity
  8
10
100
AcDbLine
 10
1990.194577856961
 20
982.4421348405579
 30
0.0
 11
1990.194577856961
 21
980.942134840558
 31
0.0
  0
LINE
  5
23F6
330
1F
100
AcDbEntity
  8
10
100
AcDbLine
 10
1992.794577856961
 20
983.9421348405583
 30
0.0
 11
1992.794577856961
 21
982.4421348405579
 31
0.0
  0
ARC
  5
23F7
330
1F
100
AcDbEntity
  8
10
100
AcDbCircle
 10
1966.611502756228
 20
1035.642134840558
 30
0.0
 40
3.500000000000013
100
AcDbArc
 50
0.0
 51
33.36701296923139
  0
LINE
  5
23F8
330
1F
100
AcDbEntity
  8
10
100
AcDbLine
 10
2031.394577856961
 20
980.942134840558
 30
0.0
 11
2027.294577856961
 21
980.942134840558
 31
0.0
  0
LINE
  5
23F9
330
1F
100
AcDbEntity
  8
10
100
AcDbLine
 10
2005.794577856961
 20
980.942134840558
 30
0.0
 11
2004.294577856961
 21
980.942134840558
 31
0.0
  0
LINE
  5
23FA
330
1F
100
AcDbEntity
  8
10
100
AcDbLine
 10
2017.294577856961
 20
980.942134840558
 30
0.0
 11
2015.794577856961
 21
980.942134840558
 31
0.0
  0
LINE
  5
23FB
330
1F
100
AcDbEntity
  8
10
100
AcDbLine
 10
2031.394577856961
 20
982.4421348405579
 30
0.0
 11
2028.794577856961
 21
982.4421348405579
 31
0.0
  0
LINE
  5
23FC
330
1F
100
AcDbEntity
  8
10
100
AcDbLine
 10
2032.79457785696
 20
983.9421348405583
 30
0.0
 11
2028.794577856961
 21
983.9421348405583
 31
0.0
  0
LINE
  5
23FD
330
1F
100
AcDbEntity
  8
10
100
AcDbLine
 10
2031.394577856961
 20
982.4421348405579
 30
0.0
 11
2031.394577856961
 21
980.942134840558
 31
0.0
  0
LINE
  5
23FE
330
1F
100
AcDbEntity
  8
10
100
AcDbLine
 10
2028.794577856961
 20
983.9421348405583
 30
0.0
 11
2028.794577856961
 21
982.4421348405579
 31
0.0
  0
LINE
  5
23FF
330
1F
100
AcDbEntity
  8
10
100
AcDbLine
 10
2050.976087105822
 20
979.8421348405581
 30
0.0
 11
2055.246918406635
 21
979.8421348405581
 31
0.0
  0
ARC
  5
2400
330
1F
100
AcDbEntity
  8
10
100
AcDbCircle
 10
2050.976087105822
 20
977.8421348405581
 30
0.0
 40
1.999999999999999
100
AcDbArc
 50
90.0
 51
148.6677485024054
  0
ARC
  5
2401
330
1F
100
AcDbEntity
  8
10
100
AcDbCircle
 10
2055.246918406635
 20
977.8421348405581
 30
0.0
 40
1.999999999999938
100
AcDbArc
 50
31.33225149759446
 51
90.0
  0
LINE
  5
2402
330
1F
100
AcDbEntity
  8
10
100
AcDbLine
 10
2054.111502756229
 20
1017.442134840558
 30
0.0
 11
2054.111502756229
 21
1007.442134840558
 31
0.0
  0
ARC
  5
2403
330
1F
100
AcDbEntity
  8
12
100
AcDbCircle
 10
1999.611502756229
 20
1305.542134840559
 30
0.0
 40
4.999999999999999
100
AcDbArc
 50
0.0
 51
180.0
  0
TEXT
  5
2404
330
1F
100
AcDbEntity
  8
10
 48
3.0
100
AcDbText
 10
1996.861512564689
 20
1402.542133627867
 30
0.0
 40
16.00000023841857
  1
ＴＢ２
 50
0.0000025044784726
 41
0.7031250019402551
  7
STANDARD1
100
AcDbText
  0
LINE
  5
2405
330
1F
100
AcDbEntity
  8
10
 48
3.0
100
AcDbLine
 10
1995.861502756228
 20
1433.542134840559
 30
0.0
 11
2035.861502756227
 21
1433.542134840559
 31
0.0
  0
LINE
  5
2406
330
1F
100
AcDbEntity
  8
10
 48
3.0
100
AcDbLine
 10
2035.861502756227
 20
1399.542134840559
 30
0.0
 11
1995.861502756228
 21
1399.542134840559
 31
0.0
  0
CIRCLE
  5
2407
330
1F
100
AcDbEntity
  8
10
 48
3.0
100
AcDbCircle
 10
1999.611502756227
 20
1348.542134840559
 30
0.0
 40
11.70000000000001
  0
CIRCLE
  5
2408
330
1F
100
AcDbEntity
  8
10
100
AcDbCircle
 10
1966.611502756228
 20
1342.542134840559
 30
0.0
 40
3.499999999999944
  0
CIRCLE
  5
2409
330
1F
100
AcDbEntity
  8
10
100
AcDbCircle
 10
1966.611502756228
 20
1342.542134840559
 30
0.0
 40
3.999999999999984
  0
LINE
  5
240A
330
1F
100
AcDbEntity
  8
10
100
AcDbLine
 10
1994.611502756228
 20
1290.542134840559
 30
0.0
 11
1957.611502756228
 21
1290.542134840559
 31
0.0
  0
LINE
  5
240B
330
1F
100
AcDbEntity
  8
10
100
AcDbLine
 10
1985.611502756228
 20
1327.342134840558
 30
0.0
 11
1967.611502756229
 21
1327.342134840558
 31
0.0
  0
LINE
  5
240C
330
1F
100
AcDbEntity
  8
10
100
AcDbLine
 10
1969.105949256763
 20
1318.242134840559
 30
0.0
 11
1984.117056255693
 21
1318.242134840559
 31
0.0
  0
LINE
  5
240D
330
1F
100
AcDbEntity
  8
10
100
AcDbLine
 10
1968.911502756228
 20
1323.742134840559
 30
0.0
 11
1984.311502756229
 21
1323.742134840559
 31
0.0
  0
LINE
  5
240E
330
1F
100
AcDbEntity
  8
10
100
AcDbLine
 10
1967.611502756229
 20
1325.742134840559
 30
0.0
 11
1985.611502756228
 21
1325.742134840559
 31
0.0
  0
LINE
  5
240F
330
1F
100
AcDbEntity
  8
10
100
AcDbLine
 10
1954.611502756229
 20
1293.542134840558
 30
0.0
 11
1954.611502756229
 21
1330.542134840559
 31
0.0
  0
LINE
  5
2410
330
1F
100
AcDbEntity
  8
10
100
AcDbLine
 10
1954.611502756229
 20
1293.542134840558
 30
0.0
 11
1957.611502756228
 21
1290.542134840559
 31
0.0
  0
LINE
  5
2411
330
1F
100
AcDbEntity
  8
10
100
AcDbLine
 10
1957.611502756228
 20
1327.342134840558
 30
0.0
 11
1957.611502756228
 21
1328.542134840559
 31
0.0
  0
LINE
  5
2412
330
1F
100
AcDbEntity
  8
10
100
AcDbLine
 10
1961.741807432363
 20
1327.342134840558
 30
0.0
 11
1963.113095516878
 21
1321.692931220884
 31
0.0
  0
ARC
  5
2413
330
1F
100
AcDbEntity
  8
10
100
AcDbCircle
 10
1966.611502756228
 20
1322.542134840559
 30
0.0
 40
3.600000000000193
100
AcDbArc
 50
193.644084795489
 51
313.8602531655293
  0
LINE
  5
2414
330
1F
100
AcDbEntity
  8
10
100
AcDbLine
 10
1965.197289193854
 20
1343.956348402932
 30
0.0
 11
1968.0257163186
 21
1341.127921278186
 31
0.0
  0
LINE
  5
2415
330
1F
100
AcDbEntity
  8
10
100
AcDbLine
 10
1968.0257163186
 20
1343.956348402932
 30
0.0
 11
1965.197289193854
 21
1341.127921278186
 31
0.0
  0
LINE
  5
2416
330
1F
100
AcDbEntity
  8
10
100
AcDbLine
 10
1972.858726006496
 20
1318.242134840559
 30
0.0
 11
1972.858726006496
 21
1323.742134840559
 31
0.0
  0
LINE
  5
2417
330
1F
100
AcDbEntity
  8
10
100
AcDbLine
 10
1968.911502756228
 20
1325.742134840559
 30
0.0
 11
1968.911502756228
 21
1323.742134840559
 31
0.0
  0
LINE
  5
2418
330
1F
100
AcDbEntity
  8
10
100
AcDbLine
 10
1967.611502756229
 20
1325.742134840559
 30
0.0
 11
1967.611502756229
 21
1327.342134840558
 31
0.0
  0
LINE
  5
2419
330
1F
100
AcDbEntity
  8
10
100
AcDbLine
 10
1969.105949256763
 20
1318.242134840559
 30
0.0
 11
1969.105949256763
 21
1323.742134840559
 31
0.0
  0
LINE
  5
241A
330
1F
100
AcDbEntity
  8
12
100
AcDbLine
 10
1994.611502756228
 20
1305.542134840559
 30
0.0
 11
1994.611502756228
 21
1290.542134840559
 31
0.0
  0
LINE
  5
241B
330
1F
100
AcDbEntity
  8
12
 48
3.0
100
AcDbLine
 10
1999.611502756229
 20
1315.542134840558
 30
0.0
 11
1999.611502756229
 21
1295.542134840559
 31
0.0
  0
ARC
  5
241C
330
1F
100
AcDbEntity
  8
10
100
AcDbCircle
 10
1986.611502756229
 20
1322.542134840559
 30
0.0
 40
3.600000000000178
100
AcDbArc
 50
226.1397468344796
 51
346.3559152045076
  0
LINE
  5
241D
330
1F
100
AcDbEntity
  8
10
100
AcDbLine
 10
1987.611502756228
 20
1327.342134840558
 30
0.0
 11
1987.611502756228
 21
1328.542134840559
 31
0.0
  0
LINE
  5
241E
330
1F
100
AcDbEntity
  8
10
100
AcDbLine
 10
1984.611502756228
 20
1327.342134840558
 30
0.0
 11
1984.611502756228
 21
1328.542134840559
 31
0.0
  0
LINE
  5
241F
330
1F
100
AcDbEntity
  8
10
100
AcDbLine
 10
1980.364279505962
 20
1318.242134840559
 30
0.0
 11
1980.364279505962
 21
1323.742134840559
 31
0.0
  0
LINE
  5
2420
330
1F
100
AcDbEntity
  8
10
100
AcDbLine
 10
1984.311502756229
 20
1325.742134840559
 30
0.0
 11
1984.311502756229
 21
1323.742134840559
 31
0.0
  0
LINE
  5
2421
330
1F
100
AcDbEntity
  8
10
100
AcDbLine
 10
1984.117056255693
 20
1318.242134840559
 30
0.0
 11
1984.117056255693
 21
1323.742134840559
 31
0.0
  0
LINE
  5
2422
330
1F
100
AcDbEntity
  8
10
100
AcDbLine
 10
1985.611502756228
 20
1325.742134840559
 30
0.0
 11
1985.611502756228
 21
1327.342134840558
 31
0.0
  0
LINE
  5
2423
330
1F
100
AcDbEntity
  8
10
100
AcDbLine
 10
1991.481198080094
 20
1327.342134840558
 30
0.0
 11
1990.109909995577
 21
1321.692931220884
 31
0.0
  0
LINE
  5
2424
330
1F
100
AcDbEntity
  8
10
 48
3.0
100
AcDbLine
 10
1995.861502756228
 20
1433.542134840559
 30
0.0
 11
1995.861502756228
 21
1400.941849850857
 31
0.0
  0
CIRCLE
  5
2425
330
1F
100
AcDbEntity
  8
10
 48
3.0
100
AcDbCircle
 10
2034.611502756228
 20
1348.542134840559
 30
0.0
 40
11.70000000000001
  0
LINE
  5
2426
330
1F
100
AcDbEntity
  8
12
100
AcDbLine
 10
2004.611502756229
 20
1305.542134840559
 30
0.0
 11
2004.611502756229
 21
1290.542134840559
 31
0.0
  0
LINE
  5
2427
330
1F
100
AcDbEntity
  8
10
 48
3.0
100
AcDbLine
 10
2035.861502756227
 20
1433.542134840559
 30
0.0
 11
2035.861502756227
 21
1399.542134840559
 31
0.0
  0
LINE
  5
2428
330
1F
100
AcDbEntity
  8
10
100
AcDbLine
 10
2137.111502756229
 20
987.4421348405579
 30
0.0
 11
2105.111502756229
 21
987.4421348405579
 31
0.0
  0
LINE
  5
2429
330
1F
100
AcDbEntity
  8
10
100
AcDbLine
 10
2132.111502756229
 20
989.0421348405579
 30
0.0
 11
2110.111502756228
 21
989.0421348405579
 31
0.0
  0
LINE
  5
242A
330
1F
100
AcDbEntity
  8
10
100
AcDbLine
 10
2130.311502756228
 20
991.542134840558
 30
0.0
 11
2111.911502756228
 21
991.542134840558
 31
0.0
  0
INSERT
  5
242B
330
1F
100
AcDbEntity
  8
10
100
AcDbBlockReference
  2
SYM28
 10
2121.111502756228
 20
991.542134840558
 30
0.0
 41
0.9999999999999428
 42
0.9999999999999428
 43
0.9999999999999998
 50
90.0
  0
LINE
  5
242C
330
1F
100
AcDbEntity
  8
10
100
AcDbLine
 10
2099.111502756229
 20
987.4421348405579
 30
0.0
 11
2067.111502756229
 21
987.4421348405579
 31
0.0
  0
LINE
  5
242D
330
1F
100
AcDbEntity
  8
10
100
AcDbLine
 10
2094.111502756228
 20
989.0421348405579
 30
0.0
 11
2072.111502756229
 21
989.0421348405579
 31
0.0
  0
LINE
  5
242E
330
1F
100
AcDbEntity
  8
10
100
AcDbLine
 10
2092.311502756229
 20
991.542134840558
 30
0.0
 11
2073.911502756228
 21
991.542134840558
 31
0.0
  0
INSERT
  5
242F
330
1F
100
AcDbEntity
  8
10
100
AcDbBlockReference
  2
SYM28
 10
2083.111502756229
 20
991.542134840558
 30
0.0
 41
0.9999999999999428
 42
0.9999999999999428
 43
0.9999999999999998
 50
90.0
  0
LINE
  5
2430
330
1F
100
AcDbEntity
  8
10
100
AcDbLine
 10
2069.111502756229
 20
1017.442134840558
 30
0.0
 11
2069.111502756229
 21
987.4421348405579
 31
0.0
  0
LINE
  5
2431
330
1F
100
AcDbEntity
  8
10
100
AcDbLine
 10
2072.111502756229
 20
989.0421348405579
 30
0.0
 11
2072.111502756229
 21
987.2199134497201
 31
0.0
  0
LINE
  5
2432
330
1F
100
AcDbEntity
  8
10
100
AcDbLine
 10
2073.911502756228
 20
991.542134840558
 30
0.0
 11
2073.911502756228
 21
989.0421348405579
 31
0.0
  0
LINE
  5
2433
330
1F
100
AcDbEntity
  8
10
100
AcDbLine
 10
2107.111502756229
 20
1017.442134840558
 30
0.0
 11
2097.111502756229
 21
1017.442134840558
 31
0.0
  0
LINE
  5
2434
330
1F
100
AcDbEntity
  8
10
100
AcDbLine
 10
2097.111502756229
 20
1017.442134840558
 30
0.0
 11
2097.111502756229
 21
987.4421348405579
 31
0.0
  0
LINE
  5
2435
330
1F
100
AcDbEntity
  8
10
100
AcDbLine
 10
2094.111502756228
 20
989.0421348405579
 30
0.0
 11
2094.111502756228
 21
987.4421348405579
 31
0.0
  0
LINE
  5
2436
330
1F
100
AcDbEntity
  8
10
100
AcDbLine
 10
2092.311502756229
 20
991.542134840558
 30
0.0
 11
2092.311502756229
 21
989.0421348405579
 31
0.0
  0
LINE
  5
2437
330
1F
100
AcDbEntity
  8
10
100
AcDbLine
 10
2107.111502756229
 20
1017.442134840558
 30
0.0
 11
2107.111502756229
 21
987.4421348405579
 31
0.0
  0
LINE
  5
2438
330
1F
100
AcDbEntity
  8
10
100
AcDbLine
 10
2110.111502756228
 20
989.0421348405579
 30
0.0
 11
2110.111502756228
 21
987.2199134497201
 31
0.0
  0
LINE
  5
2439
330
1F
100
AcDbEntity
  8
10
100
AcDbLine
 10
2111.911502756228
 20
991.542134840558
 30
0.0
 11
2111.911502756228
 21
989.0421348405579
 31
0.0
  0
LINE
  5
243A
330
1F
100
AcDbEntity
  8
10
100
AcDbLine
 10
2130.311502756228
 20
991.542134840558
 30
0.0
 11
2130.311502756228
 21
989.0421348405579
 31
0.0
  0
LINE
  5
243B
330
1F
100
AcDbEntity
  8
10
100
AcDbLine
 10
2145.111502756229
 20
1017.442134840558
 30
0.0
 11
2135.111502756229
 21
1017.442134840558
 31
0.0
  0
LINE
  5
243C
330
1F
100
AcDbEntity
  8
10
100
AcDbLine
 10
2135.111502756229
 20
1017.442134840558
 30
0.0
 11
2135.111502756229
 21
987.4421348405579
 31
0.0
  0
LINE
  5
243D
330
1F
100
AcDbEntity
  8
10
100
AcDbLine
 10
2145.111502756229
 20
1017.442134840558
 30
0.0
 11
2145.111502756229
 21
987.4421348405579
 31
0.0
  0
LINE
  5
243E
330
1F
100
AcDbEntity
  8
10
100
AcDbLine
 10
2132.111502756229
 20
989.0421348405579
 30
0.0
 11
2132.111502756229
 21
987.4421348405579
 31
0.0
  0
LINE
  5
243F
330
1F
100
AcDbEntity
  8
10
100
AcDbLine
 10
2170.111502756229
 20
989.0421348405579
 30
0.0
 11
2148.111502756229
 21
989.0421348405579
 31
0.0
  0
LINE
  5
2440
330
1F
100
AcDbEntity
  8
10
100
AcDbLine
 10
2168.311502756229
 20
991.542134840558
 30
0.0
 11
2149.911502756228
 21
991.542134840558
 31
0.0
  0
INSERT
  5
2441
330
1F
100
AcDbEntity
  8
10
100
AcDbBlockReference
  2
SYM28
 10
2159.111502756229
 20
991.542134840558
 30
0.0
 41
0.9999999999999428
 42
0.9999999999999428
 43
0.9999999999999998
 50
90.0
  0
LINE
  5
2442
330
1F
100
AcDbEntity
  8
10
100
AcDbLine
 10
2148.111502756229
 20
989.0421348405579
 30
0.0
 11
2148.111502756229
 21
987.2199134497201
 31
0.0
  0
LINE
  5
2443
330
1F
100
AcDbEntity
  8
10
100
AcDbLine
 10
2149.911502756228
 20
991.542134840558
 30
0.0
 11
2149.911502756228
 21
989.0421348405579
 31
0.0
  0
LINE
  5
2444
330
1F
100
AcDbEntity
  8
10
100
AcDbLine
 10
2173.111502756229
 20
1017.442134840558
 30
0.0
 11
2173.111502756229
 21
987.4421348405579
 31
0.0
  0
LINE
  5
2445
330
1F
100
AcDbEntity
  8
10
100
AcDbLine
 10
2170.111502756229
 20
989.0421348405579
 30
0.0
 11
2170.111502756229
 21
987.4421348405579
 31
0.0
  0
LINE
  5
2446
330
1F
100
AcDbEntity
  8
10
100
AcDbLine
 10
2168.311502756229
 20
991.542134840558
 30
0.0
 11
2168.311502756229
 21
989.0421348405579
 31
0.0
  0
CIRCLE
  5
2447
330
1F
100
AcDbEntity
  8
10
100
AcDbCircle
 10
1966.611502756228
 20
1609.542134840559
 30
0.0
 40
3.499999999999944
  0
CIRCLE
  5
2448
330
1F
100
AcDbEntity
  8
10
100
AcDbCircle
 10
1966.611502756228
 20
1609.542134840559
 30
0.0
 40
3.999999999999984
  0
LINE
  5
2449
330
1F
100
AcDbEntity
  8
10
100
AcDbLine
 10
1954.611502756229
 20
1601.042134840559
 30
0.0
 11
1954.611502756229
 21
1502.780151240506
 31
0.0
  0
LINE
  5
244A
330
1F
100
AcDbEntity
  8
10
100
AcDbLine
 10
1965.197289193854
 20
1610.956348402932
 30
0.0
 11
1968.0257163186
 21
1608.127921278186
 31
0.0
  0
LINE
  5
244B
330
1F
100
AcDbEntity
  8
10
100
AcDbLine
 10
1968.0257163186
 20
1610.956348402932
 30
0.0
 11
1965.197289193854
 21
1608.127921278186
 31
0.0
  0
LINE
  5
244C
330
1F
100
AcDbEntity
  8
10
100
AcDbLine
 10
1968.0257163186
 20
1594.956348402932
 30
0.0
 11
1965.197289193854
 21
1592.127921278185
 31
0.0
  0
LINE
  5
244D
330
1F
100
AcDbEntity
  8
10
100
AcDbLine
 10
1965.197289193854
 20
1594.956348402932
 30
0.0
 11
1968.0257163186
 21
1592.127921278185
 31
0.0
  0
CIRCLE
  5
244E
330
1F
100
AcDbEntity
  8
10
100
AcDbCircle
 10
1966.611502756228
 20
1593.542134840559
 30
0.0
 40
3.999999999999984
  0
CIRCLE
  5
244F
330
1F
100
AcDbEntity
  8
10
100
AcDbCircle
 10
1966.611502756228
 20
1593.542134840559
 30
0.0
 40
3.499999999999944
  0
LINE
  5
2450
330
1F
100
AcDbEntity
  8
10
100
AcDbLine
 10
1973.611502756228
 20
1601.042134840559
 30
0.0
 11
1973.611502756228
 21
1601.542134840559
 31
0.0
  0
LINE
  5
2451
330
1F
100
AcDbEntity
  8
10
100
AcDbLine
 10
2354.611502756228
 20
1601.042134840559
 30
0.0
 11
2354.611502756228
 21
1329.042134840558
 31
0.0
  0
LINE
  5
2452
330
1F
100
AcDbEntity
  8
10
100
AcDbLine
 10
2354.611502756228
 20
1601.042134840559
 30
0.0
 11
2354.611502756228
 21
1396.212916993723
 31
0.0
  0
LINE
  5
2453
330
1F
100
AcDbEntity
  8
10
 48
3.0
100
AcDbLine
 10
2324.111502756228
 20
1440.04213484056
 30
0.0
 11
2324.111502756228
 21
1358.066980310711
 31
0.0
  0
LINE
  5
2454
330
1F
100
AcDbEntity
  8
10
 48
3.0
100
AcDbLine
 10
2190.111502756229
 20
1440.04213484056
 30
0.0
 11
2190.111502756229
 21
1358.04213484056
 31
0.0
  0
LINE
  5
2455
330
1F
100
AcDbEntity
  8
10
 48
3.0
100
AcDbLine
 10
2188.111502756228
 20
1358.04213484056
 30
0.0
 11
2188.111502756228
 21
1440.04213484056
 31
0.0
  0
LINE
  5
2456
330
1F
100
AcDbEntity
  8
10
100
AcDbLine
 10
2311.111502756229
 20
987.4421348405579
 30
0.0
 11
2279.111502756228
 21
987.4421348405579
 31
0.0
  0
LINE
  5
2457
330
1F
100
AcDbEntity
  8
10
 48
3.0
100
AcDbLine
 10
2324.111502756228
 20
1358.04213484056
 30
0.0
 11
2190.111502756229
 21
1358.04213484056
 31
0.0
  0
LINE
  5
2458
330
1F
100
AcDbEntity
  8
10
100
AcDbLine
 10
2306.111502756228
 20
989.0421348405579
 30
0.0
 11
2284.111502756228
 21
989.0421348405579
 31
0.0
  0
LINE
  5
2459
330
1F
100
AcDbEntity
  8
10
100
AcDbLine
 10
2304.311502756229
 20
991.542134840558
 30
0.0
 11
2285.911502756229
 21
991.542134840558
 31
0.0
  0
INSERT
  5
245A
330
1F
100
AcDbEntity
  8
10
100
AcDbBlockReference
  2
SYM28
 10
2295.111502756229
 20
991.542134840558
 30
0.0
 41
0.9999999999999428
 42
0.9999999999999428
 43
0.9999999999999998
 50
90.0
  0
LINE
  5
245C
330
1F
100
AcDbEntity
  8
10
100
AcDbLine
 10
2235.111502756228
 20
987.4421348405579
 30
0.0
 11
2203.111502756228
 21
987.4421348405579
 31
0.0
  0
LINE
  5
245D
330
1F
100
AcDbEntity
  8
10
100
AcDbLine
 10
2243.111502756229
 20
1017.442134840558
 30
0.0
 11
2233.111502756229
 21
1017.442134840558
 31
0.0
  0
LINE
  5
245E
330
1F
100
AcDbEntity
  8
10
100
AcDbLine
 10
2205.111502756229
 20
1017.442134840558
 30
0.0
 11
2190.111502756229
 21
1017.442134840558
 31
0.0
  0
LINE
  5
245F
330
1F
100
AcDbEntity
  8
10
100
AcDbLine
 10
2186.976087105823
 20
979.8421348405581
 30
0.0
 11
2191.246918406635
 21
979.8421348405581
 31
0.0
  0
ARC
  5
2460
330
1F
100
AcDbEntity
  8
10
100
AcDbCircle
 10
2186.976087105823
 20
977.8421348405581
 30
0.0
 40
1.999999999999999
100
AcDbArc
 50
90.0
 51
148.6677485024054
  0
LINE
  5
2461
330
1F
100
AcDbEntity
  8
10
100
AcDbLine
 10
2188.111502756229
 20
1017.442134840558
 30
0.0
 11
2188.111502756229
 21
1007.442134840558
 31
0.0
  0
ARC
  5
2462
330
1F
100
AcDbEntity
  8
10
100
AcDbCircle
 10
2191.246918406635
 20
977.8421348405581
 30
0.0
 40
1.999999999999968
100
AcDbArc
 50
31.33225149759446
 51
90.0
  0
LINE
  5
2463
330
1F
100
AcDbEntity
  8
10
100
AcDbLine
 10
2190.111502756229
 20
1017.442134840558
 30
0.0
 11
2190.111502756229
 21
1007.442134840558
 31
0.0
  0
LINE
  5
2464
330
1F
100
AcDbEntity
  8
10
100
AcDbLine
 10
2230.111502756229
 20
989.0421348405579
 30
0.0
 11
2208.111502756229
 21
989.0421348405579
 31
0.0
  0
LINE
  5
2465
330
1F
100
AcDbEntity
  8
10
100
AcDbLine
 10
2228.311502756228
 20
991.542134840558
 30
0.0
 11
2209.911502756229
 21
991.542134840558
 31
0.0
  0
INSERT
  5
2466
330
1F
100
AcDbEntity
  8
10
100
AcDbBlockReference
  2
SYM28
 10
2219.111502756228
 20
991.542134840558
 30
0.0
 41
0.9999999999999428
 42
0.9999999999999428
 43
0.9999999999999998
 50
90.0
  0
LINE
  5
2467
330
1F
100
AcDbEntity
  8
10
100
AcDbLine
 10
2205.111502756229
 20
1017.442134840558
 30
0.0
 11
2205.111502756229
 21
987.4421348405579
 31
0.0
  0
LINE
  5
2468
330
1F
100
AcDbEntity
  8
10
100
AcDbLine
 10
2208.111502756229
 20
989.0421348405579
 30
0.0
 11
2208.111502756229
 21
987.2199134497201
 31
0.0
  0
LINE
  5
2469
330
1F
100
AcDbEntity
  8
10
100
AcDbLine
 10
2209.911502756229
 20
991.542134840558
 30
0.0
 11
2209.911502756229
 21
989.0421348405579
 31
0.0
  0
LINE
  5
246A
330
1F
100
AcDbEntity
  8
10
100
AcDbLine
 10
2233.111502756229
 20
1017.442134840558
 30
0.0
 11
2233.111502756229
 21
987.4421348405579
 31
0.0
  0
LINE
  5
246B
330
1F
100
AcDbEntity
  8
10
100
AcDbLine
 10
2230.111502756229
 20
989.0421348405579
 30
0.0
 11
2230.111502756229
 21
987.4421348405579
 31
0.0
  0
LINE
  5
246C
330
1F
100
AcDbEntity
  8
10
100
AcDbLine
 10
2228.311502756228
 20
991.542134840558
 30
0.0
 11
2228.311502756228
 21
989.0421348405579
 31
0.0
  0
LINE
  5
246D
330
1F
100
AcDbEntity
  8
10
100
AcDbLine
 10
2262.2717144312
 20
1040.542134840559
 30
0.0
 11
2282.247450768577
 21
1040.542134840559
 31
0.0
  0
LINE
  5
246E
330
1F
100
AcDbEntity
  8
10
100
AcDbLine
 10
2273.111502756229
 20
987.4421348405579
 30
0.0
 11
2241.111502756228
 21
987.4421348405579
 31
0.0
  0
INSERT
  5
246F
330
1F
100
AcDbEntity
  8
10
100
AcDbBlockReference
  2
SYM28
 10
2257.111502756229
 20
991.542134840558
 30
0.0
 41
0.9999999999999428
 42
0.9999999999999428
 43
0.9999999999999998
 50
90.0
  0
LINE
  5
2470
330
1F
100
AcDbEntity
  8
10
100
AcDbLine
 10
2268.111502756229
 20
989.0421348405579
 30
0.0
 11
2246.111502756228
 21
989.0421348405579
 31
0.0
  0
LINE
  5
2471
330
1F
100
AcDbEntity
  8
10
100
AcDbLine
 10
2266.311502756229
 20
991.542134840558
 30
0.0
 11
2247.911502756229
 21
991.542134840558
 31
0.0
  0
LINE
  5
2472
330
1F
100
AcDbEntity
  8
10
100
AcDbLine
 10
2243.111502756229
 20
1017.442134840558
 30
0.0
 11
2243.111502756229
 21
987.4421348405579
 31
0.0
  0
LINE
  5
2473
330
1F
100
AcDbEntity
  8
10
100
AcDbLine
 10
2247.911502756229
 20
991.542134840558
 30
0.0
 11
2247.911502756229
 21
989.0421348405579
 31
0.0
  0
LINE
  5
2474
330
1F
100
AcDbEntity
  8
10
100
AcDbLine
 10
2246.111502756228
 20
989.0421348405579
 30
0.0
 11
2246.111502756228
 21
987.2199134497201
 31
0.0
  0
LINE
  5
2475
330
1F
100
AcDbEntity
  8
10
100
AcDbLine
 10
2255.094577856961
 20
1036.042134840559
 30
0.0
 11
2258.517441282723
 21
1036.042134840559
 31
0.0
  0
ARC
  5
2476
330
1F
100
AcDbEntity
  8
10
100
AcDbCircle
 10
2255.094577856961
 20
1035.042134840558
 30
0.0
 40
0.9999999999999998
100
AcDbArc
 50
90.0
 51
143.1301023540973
  0
LINE
  5
2477
330
1F
100
AcDbEntity
  8
10
100
AcDbLine
 10
2261.405849357955
 20
1040.042412438433
 30
0.0
 11
2259.383306355967
 21
1036.541857242684
 31
0.0
  0
ARC
  5
2478
330
1F
100
AcDbEntity
  8
10
100
AcDbCircle
 10
2262.2717144312
 20
1039.542134840558
 30
0.0
 40
0.9999999999999998
100
AcDbArc
 50
90.0
 51
149.9816325723909
  0
ARC
  5
2479
330
1F
100
AcDbEntity
  8
10
100
AcDbCircle
 10
2258.517441282723
 20
1037.042134840558
 30
0.0
 40
0.9999999999999998
100
AcDbArc
 50
270.0
 51
329.9816325723998
  0
LINE
  5
247A
330
1F
100
AcDbEntity
  8
10
100
AcDbLine
 10
2259.383306355967
 20
1036.541857242684
 30
0.0
 11
2259.094577856961
 21
1036.042134840559
 31
0.0
  0
LINE
  5
247B
330
1F
100
AcDbEntity
  8
10
100
AcDbLine
 10
2281.111502756228
 20
1017.442134840558
 30
0.0
 11
2271.111502756228
 21
1017.442134840558
 31
0.0
  0
LINE
  5
247C
330
1F
100
AcDbEntity
  8
10
100
AcDbLine
 10
2271.111502756228
 20
1017.442134840558
 30
0.0
 11
2271.111502756228
 21
987.4421348405579
 31
0.0
  0
LINE
  5
247D
330
1F
100
AcDbEntity
  8
10
100
AcDbLine
 10
2268.111502756229
 20
989.0421348405579
 30
0.0
 11
2268.111502756229
 21
987.4421348405579
 31
0.0
  0
LINE
  5
247E
330
1F
100
AcDbEntity
  8
10
100
AcDbLine
 10
2266.311502756229
 20
991.542134840558
 30
0.0
 11
2266.311502756229
 21
989.0421348405579
 31
0.0
  0
LINE
  5
247F
330
1F
100
AcDbEntity
  8
10
100
AcDbLine
 10
2281.111502756228
 20
1017.442134840558
 30
0.0
 11
2281.111502756228
 21
987.4421348405579
 31
0.0
  0
LINE
  5
2480
330
1F
100
AcDbEntity
  8
10
100
AcDbLine
 10
2284.111502756228
 20
989.0421348405579
 30
0.0
 11
2284.111502756228
 21
987.2199134497201
 31
0.0
  0
LINE
  5
2481
330
1F
100
AcDbEntity
  8
10
100
AcDbLine
 10
2285.911502756229
 20
991.542134840558
 30
0.0
 11
2285.911502756229
 21
989.0421348405579
 31
0.0
  0
ARC
  5
2482
330
1F
100
AcDbEntity
  8
10
100
AcDbCircle
 10
2282.247450768577
 20
1039.542134840558
 30
0.0
 40
1.000000000000003
100
AcDbArc
 50
9.462322208021332
 51
90.0
  0
LINE
  5
2483
330
1F
100
AcDbEntity
  8
10
100
AcDbLine
 10
2283.911244523629
 20
1035.642134840559
 30
0.0
 11
2283.23384469241
 21
1039.706533827865
 31
0.0
  0
TEXT
  5
2484
330
1F
100
AcDbEntity
  8
10
 48
3.0
100
AcDbText
 10
2192.111512564689
 20
1362.042133627866
 30
0.0
 40
16.00000023841857
  1
ＴＢ１－２
 50
0.0000025044784726
 41
0.7031250019402551
  7
STANDARD1
100
AcDbText
  0
ARC
  5
2487
330
1F
100
AcDbEntity
  8
10
100
AcDbCircle
 10
2322.976087105822
 20
977.8421348405581
 30
0.0
 40
1.999999999999999
100
AcDbArc
 50
90.0
 51
148.6677485024069
  0
LINE
  5
2488
330
1F
100
AcDbEntity
  8
10
100
AcDbLine
 10
2324.111502756228
 20
1017.442134840558
 30
0.0
 11
2309.111502756228
 21
1017.442134840558
 31
0.0
  0
LINE
  5
2489
330
1F
100
AcDbEntity
  8
10
100
AcDbLine
 10
2306.111502756228
 20
989.0421348405579
 30
0.0
 11
2306.111502756228
 21
987.4421348405579
 31
0.0
  0
LINE
  5
248A
330
1F
100
AcDbEntity
  8
10
100
AcDbLine
 10
2304.311502756229
 20
991.542134840558
 30
0.0
 11
2304.311502756229
 21
989.0421348405579
 31
0.0
  0
LINE
  5
248B
330
1F
100
AcDbEntity
  8
10
100
AcDbLine
 10
2309.111502756228
 20
1017.442134840558
 30
0.0
 11
2309.111502756228
 21
987.4421348405579
 31
0.0
  0
LINE
  5
248C
330
1F
100
AcDbEntity
  8
10
100
AcDbLine
 10
2326.611502756228
 20
979.8421348405581
 30
0.0
 11
2322.976087105822
 21
979.8421348405581
 31
0.0
  0
LINE
  5
248D
330
1F
100
AcDbEntity
  8
10
100
AcDbLine
 10
2324.111502756228
 20
1017.442134840558
 30
0.0
 11
2324.111502756228
 21
1007.442134840558
 31
0.0
  0
LINE
  5
248E
330
1F
100
AcDbEntity
  8
10
100
AcDbLine
 10
2346.111502756228
 20
1035.642134840559
 30
0.0
 11
2339.111502756228
 21
1035.642134840559
 31
0.0
  0
ARC
  5
248F
330
1F
100
AcDbEntity
  8
10
100
AcDbCircle
 10
2342.611502756229
 20
1035.642134840559
 30
0.0
 40
3.499999999999993
100
AcDbArc
 50
0.0
 51
33.36701296923276
  0
ARC
  5
2490
330
1F
100
AcDbEntity
  8
10
100
AcDbCircle
 10
2342.611502756229
 20
1035.642134840559
 30
0.0
 40
3.500000000000003
100
AcDbArc
 50
146.6329870307671
 51
180.0
  0
LINE
  5
2491
330
1F
100
AcDbEntity
  8
10
100
AcDbLine
 10
2340.941173447379
 20
1038.242134840559
 30
0.0
 11
2344.281832065078
 21
1038.242134840559
 31
0.0
  0
ARC
  5
2492
330
1F
100
AcDbEntity
  8
10
100
AcDbCircle
 10
2340.941173447379
 20
1036.742134840558
 30
0.0
 40
1.499999999999999
100
AcDbArc
 50
90.0
 51
146.6329870307685
  0
ARC
  5
2493
330
1F
100
AcDbEntity
  8
10
100
AcDbCircle
 10
2344.281832065078
 20
1036.742134840558
 30
0.0
 40
1.499999999999993
100
AcDbArc
 50
33.36701296923276
 51
90.0
  0
ARC
  5
2494
330
1F
100
AcDbEntity
  8
10
100
AcDbCircle
 10
2342.611502756229
 20
1036.742134840558
 30
0.0
 40
1.499999999999999
100
AcDbArc
 50
90.0
 51
180.0
  0
LINE
  5
2495
330
1F
100
AcDbEntity
  8
10
100
AcDbLine
 10
2342.611502756229
 20
1038.242134840559
 30
0.0
 11
2342.611502756229
 21
1038.242134840559
 31
0.0
  0
ARC
  5
2496
330
1F
100
AcDbEntity
  8
10
100
AcDbCircle
 10
2342.611502756229
 20
1036.742134840558
 30
0.0
 40
1.499999999999993
100
AcDbArc
 50
0.0
 51
90.0
  0
LINE
  5
2497
330
1F
100
AcDbEntity
  8
10
100
AcDbLine
 10
2354.611502756229
 20
1035.642134840559
 30
0.0
 11
2354.611502756229
 21
1029.642134840559
 31
0.0
  0
LINE
  5
2498
330
1F
100
AcDbEntity
  8
10
100
AcDbLine
 10
2354.611502756229
 20
1029.642134840559
 30
0.0
 11
2352.611502756229
 21
1027.642134840559
 31
0.0
  0
CIRCLE
  5
2499
330
1F
100
AcDbEntity
  8
10
100
AcDbCircle
 10
2342.611502756228
 20
1342.542134840559
 30
0.0
 40
3.500000000000003
  0
CIRCLE
  5
249A
330
1F
100
AcDbEntity
  8
10
100
AcDbCircle
 10
2342.611502756228
 20
1342.542134840559
 30
0.0
 40
4.000000000000004
  0
LINE
  5
249B
330
1F
100
AcDbEntity
  8
10
100
AcDbLine
 10
2325.105949256763
 20
1318.242134840559
 30
0.0
 11
2340.117056255693
 21
1318.242134840559
 31
0.0
  0
LINE
  5
249C
330
1F
100
AcDbEntity
  8
10
100
AcDbLine
 10
2324.911502756227
 20
1323.742134840559
 30
0.0
 11
2340.311502756227
 21
1323.742134840559
 31
0.0
  0
LINE
  5
249D
330
1F
100
AcDbEntity
  8
10
100
AcDbLine
 10
2323.611502756227
 20
1325.742134840559
 30
0.0
 11
2341.611502756227
 21
1325.742134840559
 31
0.0
  0
LINE
  5
249E
330
1F
100
AcDbEntity
  8
10
100
AcDbLine
 10
2341.611502756227
 20
1327.342134840558
 30
0.0
 11
2323.611502756227
 21
1327.342134840558
 31
0.0
  0
LINE
  5
249F
330
1F
100
AcDbEntity
  8
10
100
AcDbLine
 10
2351.611502756228
 20
1290.542134840559
 30
0.0
 11
2314.611502756229
 21
1290.542134840559
 31
0.0
  0
LINE
  5
24A0
330
1F
100
AcDbEntity
  8
12
100
AcDbLine
 10
2314.611502756229
 20
1305.542134840559
 30
0.0
 11
2314.611502756229
 21
1290.542134840559
 31
0.0
  0
LINE
  5
24A1
330
1F
100
AcDbEntity
  8
12
100
AcDbLine
 10
2304.611502756229
 20
1305.542134840559
 30
0.0
 11
2304.611502756229
 21
1290.542134840559
 31
0.0
  0
LINE
  5
24A2
330
1F
100
AcDbEntity
  8
12
 48
3.0
100
AcDbLine
 10
2309.611502756229
 20
1315.542134840558
 30
0.0
 11
2309.611502756229
 21
1295.542134840559
 31
0.0
  0
ARC
  5
24A3
330
1F
100
AcDbEntity
  8
12
100
AcDbCircle
 10
2309.611502756229
 20
1305.542134840559
 30
0.0
 40
4.999999999999999
100
AcDbArc
 50
0.0
 51
180.0
  0
LINE
  5
24A4
330
1F
100
AcDbEntity
  8
10
100
AcDbLine
 10
2317.741807432363
 20
1327.342134840558
 30
0.0
 11
2319.113095516879
 21
1321.692931220884
 31
0.0
  0
ARC
  5
24A5
330
1F
100
AcDbEntity
  8
10
100
AcDbCircle
 10
2322.611502756228
 20
1322.542134840559
 30
0.0
 40
3.599999999999709
100
AcDbArc
 50
193.6440847954937
 51
313.860253165511
  0
LINE
  5
24A6
330
1F
100
AcDbEntity
  8
10
100
AcDbLine
 10
2321.611502756228
 20
1327.342134840558
 30
0.0
 11
2321.611502756228
 21
1328.542134840559
 31
0.0
  0
LINE
  5
24A7
330
1F
100
AcDbEntity
  8
10
100
AcDbLine
 10
2324.611502756228
 20
1327.342134840558
 30
0.0
 11
2324.611502756228
 21
1328.542134840559
 31
0.0
  0
LINE
  5
24A8
330
1F
100
AcDbEntity
  8
10
100
AcDbLine
 10
2324.911502756227
 20
1325.742134840559
 30
0.0
 11
2324.911502756227
 21
1323.742134840559
 31
0.0
  0
LINE
  5
24A9
330
1F
100
AcDbEntity
  8
10
100
AcDbLine
 10
2325.105949256763
 20
1318.242134840559
 30
0.0
 11
2325.105949256763
 21
1323.742134840559
 31
0.0
  0
LINE
  5
24AA
330
1F
100
AcDbEntity
  8
10
100
AcDbLine
 10
2323.611502756227
 20
1325.742134840559
 30
0.0
 11
2323.611502756227
 21
1327.342134840558
 31
0.0
  0
LINE
  5
24AB
330
1F
100
AcDbEntity
  8
10
100
AcDbLine
 10
2354.611502756228
 20
1330.542134840559
 30
0.0
 11
2354.611502756228
 21
1293.542134840558
 31
0.0
  0
LINE
  5
24AC
330
1F
100
AcDbEntity
  8
10
100
AcDbLine
 10
2354.611502756228
 20
1293.542134840558
 30
0.0
 11
2351.611502756228
 21
1290.542134840559
 31
0.0
  0
ARC
  5
24AD
330
1F
100
AcDbEntity
  8
10
100
AcDbCircle
 10
2342.611502756228
 20
1322.542134840559
 30
0.0
 40
3.600000000000139
100
AcDbArc
 50
226.13974683446
 51
346.3559152045076
  0
LINE
  5
24AE
330
1F
100
AcDbEntity
  8
10
100
AcDbLine
 10
2328.858726006495
 20
1318.242134840559
 30
0.0
 11
2328.858726006495
 21
1323.742134840559
 31
0.0
  0
LINE
  5
24AF
330
1F
100
AcDbEntity
  8
10
100
AcDbLine
 10
2336.36427950596
 20
1318.242134840559
 30
0.0
 11
2336.36427950596
 21
1323.742134840559
 31
0.0
  0
LINE
  5
24B0
330
1F
100
AcDbEntity
  8
10
100
AcDbLine
 10
2340.311502756227
 20
1325.742134840559
 30
0.0
 11
2340.311502756227
 21
1323.742134840559
 31
0.0
  0
LINE
  5
24B1
330
1F
100
AcDbEntity
  8
10
100
AcDbLine
 10
2340.117056255693
 20
1318.242134840559
 30
0.0
 11
2340.117056255693
 21
1323.742134840559
 31
0.0
  0
LINE
  5
24B2
330
1F
100
AcDbEntity
  8
10
100
AcDbLine
 10
2347.481198080094
 20
1327.342134840558
 30
0.0
 11
2346.109909995578
 21
1321.692931220884
 31
0.0
  0
LINE
  5
24B3
330
1F
100
AcDbEntity
  8
10
100
AcDbLine
 10
2351.611502756228
 20
1327.342134840558
 30
0.0
 11
2351.611502756228
 21
1328.542134840559
 31
0.0
  0
LINE
  5
24B4
330
1F
100
AcDbEntity
  8
10
100
AcDbLine
 10
2341.197289193855
 20
1343.956348402932
 30
0.0
 11
2344.025716318601
 21
1341.127921278186
 31
0.0
  0
LINE
  5
24B5
330
1F
100
AcDbEntity
  8
10
100
AcDbLine
 10
2344.025716318601
 20
1343.956348402932
 30
0.0
 11
2341.197289193855
 21
1341.127921278186
 31
0.0
  0
LINE
  5
24B6
330
1F
100
AcDbEntity
  8
10
100
AcDbLine
 10
2341.611502756227
 20
1325.742134840559
 30
0.0
 11
2341.611502756227
 21
1327.342134840558
 31
0.0
  0
LINE
  5
24B7
330
1F
100
AcDbEntity
  8
10
100
AcDbLine
 10
2258.111502756228
 20
1758.042134840559
 30
0.0
 11
2316.111502756228
 21
1758.042134840559
 31
0.0
  0
LINE
  5
24B8
330
1F
100
AcDbEntity
  8
10
100
AcDbLine
 10
2257.111502756229
 20
1643.542134840559
 30
0.0
 11
2317.111502756229
 21
1643.542134840559
 31
0.0
  0
LINE
  5
24B9
330
1F
100
AcDbEntity
  8
10
100
AcDbLine
 10
2257.611502756229
 20
1727.042134840557
 30
0.0
 11
2316.611502756229
 21
1727.042134840557
 31
0.0
  0
LINE
  5
24BA
330
1F
100
AcDbEntity
  8
10
100
AcDbLine
 10
2258.00243500404
 20
1649.042134840559
 30
0.0
 11
2300.611502756229
 21
1649.042134840559
 31
0.0
  0
LINE
  5
24BB
330
1F
100
AcDbEntity
  8
10
100
AcDbLine
 10
2258.00243500404
 20
1711.042134840559
 30
0.0
 11
2316.611502756229
 21
1711.042134840559
 31
0.0
  0
LINE
  5
24BC
330
1F
100
AcDbEntity
  8
10
100
AcDbLine
 10
2282.611502756229
 20
1748.242134840559
 30
0.0
 11
2298.811502756229
 21
1748.242134840559
 31
0.0
  0
LINE
  5
24BD
330
1F
100
AcDbEntity
  8
10
100
AcDbLine
 10
2282.611502756229
 20
1737.042134840558
 30
0.0
 11
2298.811502756229
 21
1737.042134840558
 31
0.0
  0
LINE
  5
24BE
330
1F
100
AcDbEntity
  8
10
100
AcDbLine
 10
2282.711502756229
 20
1734.042134840557
 30
0.0
 11
2316.611502756229
 21
1734.042134840557
 31
0.0
  0
TEXT
  5
24BF
330
1F
100
AcDbEntity
  8
10
 48
3.0
100
AcDbText
 10
2266.911500357656
 20
1660.042148886657
 30
0.0
 40
16.00000023841857
  1
ＴＢ３
 50
0.0000025044784726
 41
0.7031250019402551
  7
STANDARD1
100
AcDbText
  0
LINE
  5
24C0
330
1F
100
AcDbEntity
  8
10
100
AcDbLine
 10
2317.311502756229
 20
1643.542134840559
 30
0.0
 11
2256.911502756227
 21
1643.542134840559
 31
0.0
  0
LINE
  5
24C1
330
1F
100
AcDbEntity
  8
10
100
AcDbLine
 10
2317.111502756229
 20
1641.942134840558
 30
0.0
 11
2257.111502756229
 21
1641.942134840558
 31
0.0
  0
LINE
  5
24C2
330
1F
100
AcDbEntity
  8
10
 48
3.0
100
AcDbLine
 10
2190.111502756229
 20
1440.04213484056
 30
0.0
 11
2324.111502756228
 21
1440.04213484056
 31
0.0
  0
LINE
  5
24C3
330
1F
100
AcDbEntity
  8
10
100
AcDbLine
 10
2282.111502756228
 20
1758.542134840559
 30
0.0
 11
2316.311502756229
 21
1758.542134840559
 31
0.0
  0
LINE
  5
24C4
330
1F
100
AcDbEntity
  8
10
100
AcDbLine
 10
2316.311502756229
 20
1641.542134840559
 30
0.0
 11
2257.911502756229
 21
1641.542134840559
 31
0.0
  0
LINE
  5
24C5
330
1F
100
AcDbEntity
  8
10
100
AcDbLine
 10
2257.111502756229
 20
1757.042134840557
 30
0.0
 11
2257.111502756229
 21
1643.542134840559
 31
0.0
  0
LINE
  5
24C6
330
1F
100
AcDbEntity
  8
10
100
AcDbLine
 10
2266.509578967581
 20
1649.142134840558
 30
0.0
 11
2266.509578967581
 21
1710.942134840559
 31
0.0
  0
LINE
  5
24C7
330
1F
100
AcDbEntity
  8
10
100
AcDbLine
 10
2263.911502756227
 20
1649.142134840558
 30
0.0
 11
2263.911502756227
 21
1710.942134840559
 31
0.0
  0
LINE
  5
24C8
330
1F
100
AcDbEntity
  8
10
100
AcDbLine
 10
2287.689633538407
 20
1677.188727353456
 30
0.0
 11
2287.689633538407
 21
1710.942134840559
 31
0.0
  0
LINE
  5
24C9
330
1F
100
AcDbEntity
  8
10
100
AcDbLine
 10
2288.110318037097
 20
1677.188727353456
 30
0.0
 11
2288.110318037097
 21
1708.942134840559
 31
0.0
  0
LINE
  5
24CA
330
1F
100
AcDbEntity
  8
10
 48
3.0
100
AcDbLine
 10
2274.711502756229
 20
1707.542134840559
 30
0.0
 11
2274.711502756229
 21
1677.188727353456
 31
0.0
  0
LINE
  5
24CB
330
1F
100
AcDbEntity
  8
10
 48
3.0
100
AcDbLine
 10
2266.711502756229
 20
1707.542134840559
 30
0.0
 11
2266.711502756229
 21
1652.542134840559
 31
0.0
  0
LINE
  5
24CC
330
1F
100
AcDbEntity
  8
10
100
AcDbLine
 10
2256.911502756227
 20
1757.542134840559
 30
0.0
 11
2256.911502756227
 21
1642.542134840559
 31
0.0
  0
LINE
  5
24CD
330
1F
100
AcDbEntity
  8
10
100
AcDbLine
 10
2258.911502756228
 20
1649.142134840558
 30
0.0
 11
2288.911502756227
 21
1649.142134840558
 31
0.0
  0
LINE
  5
24CE
330
1F
100
AcDbEntity
  8
10
 48
3.0
100
AcDbLine
 10
2266.711502756229
 20
1652.542134840559
 30
0.0
 11
2274.711502756229
 21
1652.542134840559
 31
0.0
  0
LINE
  5
24CF
330
1F
100
AcDbEntity
  8
10
100
AcDbLine
 10
2259.311502756228
 20
1651.142134840558
 30
0.0
 11
2259.311502756228
 21
1651.542134840559
 31
0.0
  0
LINE
  5
24D0
330
1F
100
AcDbEntity
  8
10
100
AcDbLine
 10
2260.311502756228
 20
1651.142134840558
 30
0.0
 11
2260.311502756228
 21
1651.542134840559
 31
0.0
  0
LINE
  5
24D1
330
1F
100
AcDbEntity
  8
10
100
AcDbLine
 10
2261.511502756229
 20
1651.142134840558
 30
0.0
 11
2261.511502756229
 21
1651.542134840559
 31
0.0
  0
LINE
  5
24D2
330
1F
100
AcDbEntity
  8
10
100
AcDbLine
 10
2262.711502756229
 20
1651.142134840558
 30
0.0
 11
2262.711502756229
 21
1651.542134840559
 31
0.0
  0
LINE
  5
24D3
330
1F
100
AcDbEntity
  8
10
100
AcDbLine
 10
2264.611502756229
 20
1649.142134840558
 30
0.0
 11
2264.611502756229
 21
1649.042134840559
 31
0.0
  0
LINE
  5
24D4
330
1F
100
AcDbEntity
  8
10
100
AcDbLine
 10
2258.00243500404
 20
1651.542134840559
 30
0.0
 11
2263.911502756227
 21
1651.542134840559
 31
0.0
  0
LINE
  5
24D5
330
1F
100
AcDbEntity
  8
10
100
AcDbLine
 10
2258.00243500404
 20
1649.042134840559
 30
0.0
 11
2258.00243500404
 21
1651.542134840559
 31
0.0
  0
LINE
  5
24D6
330
1F
100
AcDbEntity
  8
10
100
AcDbLine
 10
2262.711502756229
 20
1649.042134840559
 30
0.0
 11
2262.711502756229
 21
1649.142134840558
 31
0.0
  0
LINE
  5
24D7
330
1F
100
AcDbEntity
  8
10
100
AcDbLine
 10
2260.311502756228
 20
1649.042134840559
 30
0.0
 11
2260.311502756228
 21
1649.142134840558
 31
0.0
  0
LINE
  5
24D8
330
1F
100
AcDbEntity
  8
10
100
AcDbLine
 10
2261.511502756229
 20
1649.042134840559
 30
0.0
 11
2261.511502756229
 21
1649.142134840558
 31
0.0
  0
LINE
  5
24D9
330
1F
100
AcDbEntity
  8
10
100
AcDbLine
 10
2259.311502756228
 20
1649.042134840559
 30
0.0
 11
2259.311502756228
 21
1649.142134840558
 31
0.0
  0
LINE
  5
24DA
330
1F
100
AcDbEntity
  8
10
100
AcDbLine
 10
2257.111502756229
 20
1643.542134840559
 30
0.0
 11
2257.111502756229
 21
1641.942134840558
 31
0.0
  0
LINE
  5
24DB
330
1F
100
AcDbEntity
  8
10
100
AcDbLine
 10
2259.111502756228
 20
1643.542134840559
 30
0.0
 11
2259.111502756228
 21
1641.942134840558
 31
0.0
  0
LINE
  5
24DC
330
1F
100
AcDbEntity
  8
10
100
AcDbLine
 10
2263.911502756227
 20
1651.142134840558
 30
0.0
 11
2258.911502756228
 21
1651.142134840558
 31
0.0
  0
LINE
  5
24DD
330
1F
100
AcDbEntity
  8
10
100
AcDbLine
 10
2258.911502756228
 20
1649.142134840558
 30
0.0
 11
2258.911502756228
 21
1651.142134840558
 31
0.0
  0
ARC
  5
24DE
330
1F
100
AcDbEntity
  8
10
100
AcDbCircle
 10
2257.911502756229
 20
1642.542134840559
 30
0.0
 40
1.000000000000013
100
AcDbArc
 50
180.0
 51
270.0
  0
LINE
  5
24DF
330
1F
100
AcDbEntity
  8
10
100
AcDbLine
 10
2288.110318037097
 20
1651.142134840558
 30
0.0
 11
2288.110318037097
 21
1657.54214955107
 31
0.0
  0
LINE
  5
24E0
330
1F
100
AcDbEntity
  8
10
100
AcDbLine
 10
2287.689633538407
 20
1649.142134840558
 30
0.0
 11
2287.689633538407
 21
1657.54214955107
 31
0.0
  0
LINE
  5
24E1
330
1F
100
AcDbEntity
  8
10
 48
3.0
100
AcDbLine
 10
2274.711502756229
 20
1657.542148222243
 30
0.0
 11
2274.711502756229
 21
1652.542134840559
 31
0.0
  0
LINE
  5
24E2
330
1F
100
AcDbEntity
  8
10
100
AcDbLine
 10
2271.611502756229
 20
1641.942134840558
 30
0.0
 11
2271.611502756229
 21
1641.542134840559
 31
0.0
  0
LINE
  5
24E3
330
1F
100
AcDbEntity
  8
10
100
AcDbLine
 10
2267.611502756229
 20
1641.942134840558
 30
0.0
 11
2267.611502756229
 21
1641.542134840559
 31
0.0
  0
LINE
  5
24E4
330
1F
100
AcDbEntity
  8
10
100
AcDbLine
 10
2283.976292518425
 20
1649.042134840559
 30
0.0
 11
2283.976292518425
 21
1649.142134840558
 31
0.0
  0
LINE
  5
24E5
330
1F
100
AcDbEntity
  8
10
100
AcDbLine
 10
2289.976292518427
 20
1649.042134840559
 30
0.0
 11
2289.976292518427
 21
1650.042134840559
 31
0.0
  0
LINE
  5
24E6
330
1F
100
AcDbEntity
  8
10
100
AcDbLine
 10
2288.911502756227
 20
1650.542134840559
 30
0.0
 11
2289.476292518425
 21
1650.542134840559
 31
0.0
  0
ARC
  5
24E7
330
1F
100
AcDbEntity
  8
10
100
AcDbCircle
 10
2289.476292518425
 20
1650.042134840559
 30
0.0
 40
0.4999999999999901
100
AcDbArc
 50
0.0
 51
90.0
  0
ARC
  5
24E8
330
1F
100
AcDbEntity
  8
10
100
AcDbCircle
 10
2287.411502756229
 20
1649.142134840558
 30
0.0
 40
0.5000000000000748
100
AcDbArc
 50
348.4630409671881
 51
0.0
  0
ARC
  5
24E9
330
1F
100
AcDbEntity
  8
10
100
AcDbCircle
 10
2286.411502756228
 20
1649.142134840558
 30
0.0
 40
0.499999999999865
100
AcDbArc
 50
180.0
 51
191.5369590328116
  0
LINE
  5
24EA
330
1F
100
AcDbEntity
  8
10
100
AcDbLine
 10
2287.853540871978
 20
1651.142134840558
 30
0.0
 11
2288.911502756227
 21
1651.142134840558
 31
0.0
  0
LINE
  5
24EB
330
1F
100
AcDbEntity
  8
10
100
AcDbLine
 10
2288.911502756227
 20
1649.142134840558
 30
0.0
 11
2288.911502756227
 21
1651.142134840558
 31
0.0
  0
LINE
  5
24EC
330
1F
100
AcDbEntity
  8
10
100
AcDbLine
 10
2261.311502756229
 20
1730.542134840557
 30
0.0
 11
2281.711502756228
 21
1730.542134840557
 31
0.0
  0
LINE
  5
24ED
330
1F
100
AcDbEntity
  8
10
100
AcDbLine
 10
2262.111502756229
 20
1728.542134840559
 30
0.0
 11
2280.911502756228
 21
1728.542134840559
 31
0.0
  0
LINE
  5
24EE
330
1F
100
AcDbEntity
  8
10
100
AcDbLine
 10
2262.211502756229
 20
1732.542134840559
 30
0.0
 11
2280.811502756229
 21
1732.542134840559
 31
0.0
  0
LINE
  5
24EF
330
1F
100
AcDbEntity
  8
10
100
AcDbLine
 10
2262.211502756229
 20
1745.107089908371
 30
0.0
 11
2280.811502756229
 21
1745.107089908371
 31
0.0
  0
LINE
  5
24F0
330
1F
100
AcDbEntity
  8
10
100
AcDbLine
 10
2267.011502756229
 20
1757.963523171635
 30
0.0
 11
2276.011502756229
 21
1757.963523171635
 31
0.0
  0
LINE
  5
24F1
330
1F
100
AcDbEntity
  8
10
100
AcDbLine
 10
2267.011502756229
 20
1757.858707613068
 30
0.0
 11
2276.011502756229
 21
1757.858707613068
 31
0.0
  0
LINE
  5
24F2
330
1F
100
AcDbEntity
  8
10
100
AcDbLine
 10
2267.011502756229
 20
1757.753892054502
 30
0.0
 11
2276.011502756229
 21
1757.753892054502
 31
0.0
  0
LINE
  5
24F3
330
1F
100
AcDbEntity
  8
10
100
AcDbLine
 10
2266.511502756228
 20
1757.22772407638
 30
0.0
 11
2276.511502756227
 21
1757.22772407638
 31
0.0
  0
LINE
  5
24F4
330
1F
100
AcDbEntity
  8
10
100
AcDbLine
 10
2262.711502756229
 20
1730.542134840559
 30
0.0
 11
2280.311502756228
 21
1730.542134840559
 31
0.0
  0
LINE
  5
24F5
330
1F
100
AcDbEntity
  8
10
100
AcDbLine
 10
2258.911502756228
 20
1710.942134840559
 30
0.0
 11
2288.911502756227
 21
1710.942134840559
 31
0.0
  0
LINE
  5
24F6
330
1F
100
AcDbEntity
  8
10
100
AcDbLine
 10
2266.711502756229
 20
1707.542134840559
 30
0.0
 11
2274.711502756229
 21
1707.542134840559
 31
0.0
  0
LINE
  5
24F7
330
1F
100
AcDbEntity
  8
10
100
AcDbLine
 10
2278.111502756228
 20
1768.542134840559
 30
0.0
 11
2264.911502756228
 21
1768.542134840559
 31
0.0
  0
LINE
  5
24F8
330
1F
100
AcDbEntity
  8
10
100
AcDbLine
 10
2262.111502756229
 20
1757.439445378804
 30
0.0
 11
2262.111502756229
 21
1728.542134840559
 31
0.0
  0
LINE
  5
24F9
330
1F
100
AcDbEntity
  8
10
100
AcDbLine
 10
2262.211502756229
 20
1757.042134840559
 30
0.0
 11
2262.211502756229
 21
1731.042134840559
 31
0.0
  0
LINE
  5
24FA
330
1F
100
AcDbEntity
  8
10
100
AcDbLine
 10
2259.311502756228
 20
1710.942134840559
 30
0.0
 11
2259.311502756228
 21
1711.042134840559
 31
0.0
  0
LINE
  5
24FB
330
1F
100
AcDbEntity
  8
10
100
AcDbLine
 10
2260.311502756228
 20
1710.942134840559
 30
0.0
 11
2260.311502756228
 21
1711.042134840559
 31
0.0
  0
LINE
  5
24FC
330
1F
100
AcDbEntity
  8
10
100
AcDbLine
 10
2262.711502756229
 20
1710.942134840559
 30
0.0
 11
2262.711502756229
 21
1711.042134840559
 31
0.0
  0
LINE
  5
24FD
330
1F
100
AcDbEntity
  8
10
100
AcDbLine
 10
2261.511502756229
 20
1710.942134840559
 30
0.0
 11
2261.511502756229
 21
1711.042134840559
 31
0.0
  0
LINE
  5
24FE
330
1F
100
AcDbEntity
  8
10
100
AcDbLine
 10
2257.611502756229
 20
1734.042134840557
 30
0.0
 11
2260.311502756228
 21
1734.042134840557
 31
0.0
  0
LINE
  5
24FF
330
1F
100
AcDbEntity
  8
10
100
AcDbLine
 10
2264.611502756229
 20
1711.042134840559
 30
0.0
 11
2264.611502756229
 21
1710.942134840559
 31
0.0
  0
LINE
  5
2500
330
1F
100
AcDbEntity
  8
10
100
AcDbLine
 10
2260.811502756228
 20
1733.542134840559
 30
0.0
 11
2260.811502756228
 21
1731.042134840559
 31
0.0
  0
LINE
  5
2501
330
1F
100
AcDbEntity
  8
10
100
AcDbLine
 10
2262.111502756229
 20
1735.042134840559
 30
0.0
 11
2262.211502756229
 21
1735.042134840559
 31
0.0
  0
LINE
  5
2502
330
1F
100
AcDbEntity
  8
10
100
AcDbLine
 10
2262.111502756229
 20
1735.542134840557
 30
0.0
 11
2262.211502756229
 21
1735.542134840557
 31
0.0
  0
LINE
  5
2503
330
1F
100
AcDbEntity
  8
10
100
AcDbLine
 10
2258.00243500404
 20
1708.542134840557
 30
0.0
 11
2263.911502756227
 21
1708.542134840557
 31
0.0
  0
LINE
  5
2504
330
1F
100
AcDbEntity
  8
10
100
AcDbLine
 10
2258.00243500404
 20
1708.542134840557
 30
0.0
 11
2258.00243500404
 21
1711.042134840559
 31
0.0
  0
LINE
  5
2505
330
1F
100
AcDbEntity
  8
10
100
AcDbLine
 10
2262.711502756229
 20
1708.542134840557
 30
0.0
 11
2262.711502756229
 21
1708.942134840559
 31
0.0
  0
LINE
  5
2506
330
1F
100
AcDbEntity
  8
10
100
AcDbLine
 10
2262.111502756229
 20
1731.942134840559
 30
0.0
 11
2262.211502756229
 21
1731.942134840559
 31
0.0
  0
LINE
  5
2507
330
1F
100
AcDbEntity
  8
10
100
AcDbLine
 10
2262.111502756229
 20
1733.142134840559
 30
0.0
 11
2262.211502756229
 21
1733.142134840559
 31
0.0
  0
LINE
  5
2508
330
1F
100
AcDbEntity
  8
10
100
AcDbLine
 10
2261.511502756229
 20
1708.542134840557
 30
0.0
 11
2261.511502756229
 21
1708.942134840559
 31
0.0
  0
LINE
  5
2509
330
1F
100
AcDbEntity
  8
10
100
AcDbLine
 10
2260.311502756228
 20
1708.542134840557
 30
0.0
 11
2260.311502756228
 21
1708.942134840559
 31
0.0
  0
LINE
  5
250A
330
1F
100
AcDbEntity
  8
10
100
AcDbLine
 10
2259.311502756228
 20
1708.542134840557
 30
0.0
 11
2259.311502756228
 21
1708.942134840559
 31
0.0
  0
ARC
  5
250B
330
1F
100
AcDbEntity
  8
10
100
AcDbCircle
 10
2257.611502756229
 20
1726.542134840557
 30
0.0
 40
0.4999999999999699
100
AcDbArc
 50
90.0
 51
180.0
  0
ARC
  5
250C
330
1F
100
AcDbEntity
  8
10
100
AcDbCircle
 10
2257.611502756229
 20
1734.542134840559
 30
0.0
 40
0.5000000000000049
100
AcDbArc
 50
180.0
 51
270.0
  0
ARC
  5
250D
330
1F
100
AcDbEntity
  8
10
100
AcDbCircle
 10
2260.311502756228
 20
1733.542134840559
 30
0.0
 40
0.5000000000000049
100
AcDbArc
 50
0.0
 51
90.0
  0
ARC
  5
250E
330
1F
100
AcDbEntity
  8
10
100
AcDbCircle
 10
2261.311502756229
 20
1731.042134840559
 30
0.0
 40
0.5000000000000049
100
AcDbArc
 50
180.0
 51
270.0
  0
ARC
  5
250F
330
1F
100
AcDbEntity
  8
10
100
AcDbCircle
 10
2262.711502756229
 20
1731.042134840559
 30
0.0
 40
0.5000000000000049
100
AcDbArc
 50
180.0
 51
270.0
  0
LINE
  5
2510
330
1F
100
AcDbEntity
  8
10
100
AcDbLine
 10
2258.911502756228
 20
1708.942134840559
 30
0.0
 11
2258.911502756228
 21
1710.942134840559
 31
0.0
  0
LINE
  5
2511
330
1F
100
AcDbEntity
  8
10
100
AcDbLine
 10
2263.911502756227
 20
1708.942134840559
 30
0.0
 11
2258.911502756228
 21
1708.942134840559
 31
0.0
  0
LINE
  5
2512
330
1F
100
AcDbEntity
  8
10
100
AcDbLine
 10
2262.111502756229
 20
1755.239170909604
 30
0.0
 11
2262.211502756229
 21
1755.239170909604
 31
0.0
  0
LINE
  5
2513
330
1F
100
AcDbEntity
  8
10
100
AcDbLine
 10
2262.111502756229
 20
1757.387037599521
 30
0.0
 11
2262.111502756229
 21
1746.630833173934
 31
0.0
  0
LINE
  5
2514
330
1F
100
AcDbEntity
  8
10
100
AcDbLine
 10
2262.111502756229
 20
1757.439445378804
 30
0.0
 11
2262.407949900536
 21
1757.439445378804
 31
0.0
  0
ARC
  5
2515
330
1F
100
AcDbEntity
  8
10
100
AcDbCircle
 10
2258.111502756228
 20
1757.042134840557
 30
0.0
 40
1.000000000000013
100
AcDbArc
 50
90.0
 51
180.0
  0
LINE
  5
2516
330
1F
100
AcDbEntity
  8
10
100
AcDbLine
 10
2262.711502756229
 20
1757.542134840559
 30
0.0
 11
2266.517721220012
 21
1757.542134840559
 31
0.0
  0
ARC
  5
2517
330
1F
100
AcDbEntity
  8
10
100
AcDbCircle
 10
2267.011502756229
 20
1757.463523171634
 30
0.0
 40
0.5000000000000449
100
AcDbArc
 50
90.0
 51
180.0
  0
LINE
  5
2518
330
1F
100
AcDbEntity
  8
10
100
AcDbLine
 10
2266.511502756228
 20
1757.22772407638
 30
0.0
 11
2266.511502756228
 21
1757.463523171634
 31
0.0
  0
ARC
  5
2519
330
1F
100
AcDbEntity
  8
10
100
AcDbCircle
 10
2267.011502756229
 20
1757.358707613067
 30
0.0
 40
0.5000000000000449
100
AcDbArc
 50
90.0
 51
180.0
  0
ARC
  5
251A
330
1F
100
AcDbEntity
  8
10
100
AcDbCircle
 10
2267.011502756229
 20
1757.253892054501
 30
0.0
 40
0.4999999999999699
100
AcDbArc
 50
90.0
 51
180.0
  0
ARC
  5
251B
330
1F
100
AcDbEntity
  8
10
100
AcDbCircle
 10
2262.711502756229
 20
1757.042134840559
 30
0.0
 40
0.4999999999999699
100
AcDbArc
 50
90.0
 51
180.0
  0
ARC
  5
251C
330
1F
100
AcDbEntity
  8
10
100
AcDbCircle
 10
2257.911502756229
 20
1757.542134840559
 30
0.0
 40
1.000000000000013
100
AcDbArc
 50
90.0
 51
180.0
  0
ARC
  5
251D
330
1F
100
AcDbEntity
  8
10
100
AcDbCircle
 10
2264.911502756228
 20
1766.542134840559
 30
0.0
 40
2.000000000000028
100
AcDbArc
 50
90.0
 51
180.0
  0
ARC
  5
251E
330
1F
100
AcDbEntity
  8
10
100
AcDbCircle
 10
2260.911502756229
 20
1760.542134840559
 30
0.0
 40
1.999999999999954
100
AcDbArc
 50
270.0
 51
0.0
  0
LINE
  5
251F
330
1F
100
AcDbEntity
  8
10
100
AcDbLine
 10
2262.911502756228
 20
1760.542134840559
 30
0.0
 11
2262.911502756228
 21
1766.542134840559
 31
0.0
  0
LINE
  5
2520
330
1F
100
AcDbEntity
  8
10
100
AcDbLine
 10
2257.911502756229
 20
1758.542134840559
 30
0.0
 11
2260.911502756229
 21
1758.542134840559
 31
0.0
  0
LINE
  5
2521
330
1F
100
AcDbEntity
  8
10
100
AcDbLine
 10
2281.611502756228
 20
1747.242134840559
 30
0.0
 11
2281.611502756228
 21
1738.042134840559
 31
0.0
  0
LINE
  5
2522
330
1F
100
AcDbEntity
  8
10
100
AcDbLine
 10
2280.911502756228
 20
1757.439445378804
 30
0.0
 11
2280.911502756228
 21
1728.542134840559
 31
0.0
  0
LINE
  5
2523
330
1F
100
AcDbEntity
  8
10
100
AcDbLine
 10
2280.911502756228
 20
1757.439445378804
 30
0.0
 11
2280.911502756228
 21
1741.518172070152
 31
0.0
  0
LINE
  5
2524
330
1F
100
AcDbEntity
  8
10
100
AcDbLine
 10
2280.811502756229
 20
1757.042134840559
 30
0.0
 11
2280.811502756229
 21
1731.042134840559
 31
0.0
  0
ARC
  5
2525
330
1F
100
AcDbEntity
  8
10
100
AcDbCircle
 10
2282.711502756229
 20
1733.542134840559
 30
0.0
 40
0.5000000000000449
100
AcDbArc
 50
90.0
 51
180.0
  0
ARC
  5
2526
330
1F
100
AcDbEntity
  8
10
100
AcDbCircle
 10
2281.711502756228
 20
1731.042134840559
 30
0.0
 40
0.4999999999999699
100
AcDbArc
 50
270.0
 51
0.0
  0
ARC
  5
2527
330
1F
100
AcDbEntity
  8
10
100
AcDbCircle
 10
2282.611502756229
 20
1738.042134840559
 30
0.0
 40
1.000000000000013
100
AcDbArc
 50
180.0
 51
270.0
  0
LINE
  5
2528
330
1F
100
AcDbEntity
  8
10
100
AcDbLine
 10
2282.211502756229
 20
1733.542134840559
 30
0.0
 11
2282.211502756229
 21
1731.042134840559
 31
0.0
  0
LINE
  5
2529
330
1F
100
AcDbEntity
  8
10
100
AcDbLine
 10
2280.811502756229
 20
1735.042134840559
 30
0.0
 11
2280.911502756228
 21
1735.042134840559
 31
0.0
  0
LINE
  5
252A
330
1F
100
AcDbEntity
  8
10
100
AcDbLine
 10
2280.811502756229
 20
1735.542134840557
 30
0.0
 11
2280.911502756228
 21
1735.542134840557
 31
0.0
  0
LINE
  5
252B
330
1F
100
AcDbEntity
  8
10
100
AcDbLine
 10
2280.811502756229
 20
1733.142134840559
 30
0.0
 11
2280.911502756228
 21
1733.142134840559
 31
0.0
  0
LINE
  5
252C
330
1F
100
AcDbEntity
  8
10
100
AcDbLine
 10
2280.811502756229
 20
1731.942134840559
 30
0.0
 11
2280.911502756228
 21
1731.942134840559
 31
0.0
  0
ARC
  5
252D
330
1F
100
AcDbEntity
  8
10
100
AcDbCircle
 10
2280.311502756228
 20
1731.042134840559
 30
0.0
 40
0.5000000000000449
100
AcDbArc
 50
270.0
 51
0.0
  0
LINE
  5
252E
330
1F
100
AcDbEntity
  8
10
100
AcDbLine
 10
2288.911502756227
 20
1709.542134840559
 30
0.0
 11
2289.476292518425
 21
1709.542134840559
 31
0.0
  0
LINE
  5
252F
330
1F
100
AcDbEntity
  8
10
100
AcDbLine
 10
2283.976292518425
 20
1710.942134840559
 30
0.0
 11
2283.976292518425
 21
1711.042134840559
 31
0.0
  0
LINE
  5
2530
330
1F
100
AcDbEntity
  8
10
100
AcDbLine
 10
2289.976292518427
 20
1710.042134840557
 30
0.0
 11
2289.976292518427
 21
1711.042134840559
 31
0.0
  0
ARC
  5
2531
330
1F
100
AcDbEntity
  8
10
100
AcDbCircle
 10
2289.476292518425
 20
1710.042134840557
 30
0.0
 40
0.4999999999999699
100
AcDbArc
 50
270.0
 51
0.0
  0
ARC
  5
2532
330
1F
100
AcDbEntity
  8
10
100
AcDbCircle
 10
2286.411502756228
 20
1710.942134840559
 30
0.0
 40
0.4999999999999901
100
AcDbArc
 50
168.4630409671945
 51
180.0
  0
ARC
  5
2533
330
1F
100
AcDbEntity
  8
10
100
AcDbCircle
 10
2287.411502756229
 20
1710.942134840559
 30
0.0
 40
0.500000000000115
100
AcDbArc
 50
0.0
 51
11.53695903280856
  0
LINE
  5
2534
330
1F
100
AcDbEntity
  8
10
100
AcDbLine
 10
2288.911502756227
 20
1708.942134840559
 30
0.0
 11
2288.911502756227
 21
1710.942134840559
 31
0.0
  0
LINE
  5
2535
330
1F
100
AcDbEntity
  8
10
100
AcDbLine
 10
2287.853540871978
 20
1708.942134840559
 30
0.0
 11
2288.911502756227
 21
1708.942134840559
 31
0.0
  0
ARC
  5
2536
330
1F
100
AcDbEntity
  8
10
100
AcDbCircle
 10
2282.611502756229
 20
1747.242134840559
 30
0.0
 40
1.000000000000013
100
AcDbArc
 50
90.0
 51
180.0
  0
LINE
  5
2537
330
1F
100
AcDbEntity
  8
10
100
AcDbLine
 10
2280.61505561192
 20
1757.439445378804
 30
0.0
 11
2280.911502756228
 21
1757.439445378804
 31
0.0
  0
LINE
  5
2538
330
1F
100
AcDbEntity
  8
10
100
AcDbLine
 10
2280.811502756229
 20
1755.239170909604
 30
0.0
 11
2280.911502756228
 21
1755.239170909604
 31
0.0
  0
LINE
  5
2539
330
1F
100
AcDbEntity
  8
10
100
AcDbLine
 10
2276.505284292446
 20
1757.542134840559
 30
0.0
 11
2280.311502756228
 21
1757.542134840559
 31
0.0
  0
ARC
  5
253A
330
1F
100
AcDbEntity
  8
10
100
AcDbCircle
 10
2276.011502756229
 20
1757.463523171634
 30
0.0
 40
0.5000000000000049
100
AcDbArc
 50
0.0
 51
90.0
  0
LINE
  5
253B
330
1F
100
AcDbEntity
  8
10
100
AcDbLine
 10
2276.511502756227
 20
1757.22772407638
 30
0.0
 11
2276.511502756227
 21
1757.463523171634
 31
0.0
  0
ARC
  5
253C
330
1F
100
AcDbEntity
  8
10
100
AcDbCircle
 10
2276.011502756229
 20
1757.358707613067
 30
0.0
 40
0.5000000000000049
100
AcDbArc
 50
0.0
 51
90.0
  0
ARC
  5
253D
330
1F
100
AcDbEntity
  8
10
100
AcDbCircle
 10
2276.011502756229
 20
1757.253892054501
 30
0.0
 40
0.5000000000000049
100
AcDbArc
 50
0.0
 51
90.0
  0
ARC
  5
253E
330
1F
100
AcDbEntity
  8
10
100
AcDbCircle
 10
2280.311502756228
 20
1757.042134840559
 30
0.0
 40
0.4999999999999901
100
AcDbArc
 50
0.0
 51
90.0
  0
ARC
  5
253F
330
1F
100
AcDbEntity
  8
10
100
AcDbCircle
 10
2278.111502756228
 20
1766.542134840559
 30
0.0
 40
1.999999999999993
100
AcDbArc
 50
0.0
 51
90.0
  0
ARC
  5
2540
330
1F
100
AcDbEntity
  8
10
100
AcDbCircle
 10
2282.111502756228
 20
1760.542134840559
 30
0.0
 40
1.999999999999993
100
AcDbArc
 50
180.0
 51
270.0
  0
LINE
  5
2541
330
1F
100
AcDbEntity
  8
10
100
AcDbLine
 10
2280.111502756228
 20
1760.542134840559
 30
0.0
 11
2280.111502756228
 21
1766.542134840559
 31
0.0
  0
CIRCLE
  5
2542
330
1F
100
AcDbEntity
  8
10
100
AcDbCircle
 10
2342.611502756228
 20
1609.542134840559
 30
0.0
 40
3.500000000000003
  0
CIRCLE
  5
2543
330
1F
100
AcDbEntity
  8
10
100
AcDbCircle
 10
2342.611502756228
 20
1609.542134840559
 30
0.0
 40
4.000000000000004
  0
CIRCLE
  5
2544
330
1F
100
AcDbEntity
  8
10
100
AcDbCircle
 10
2342.611502756228
 20
1593.542134840559
 30
0.0
 40
4.000000000000004
  0
CIRCLE
  5
2545
330
1F
100
AcDbEntity
  8
10
100
AcDbCircle
 10
2342.611502756228
 20
1593.542134840559
 30
0.0
 40
3.500000000000003
  0
LINE
  5
2546
330
1F
100
AcDbEntity
  8
10
100
AcDbLine
 10
2335.611502756228
 20
1601.542134840559
 30
0.0
 11
2335.611502756228
 21
1601.042134840559
 31
0.0
  0
LINE
  5
2547
330
1F
100
AcDbEntity
  8
10
100
AcDbLine
 10
2341.197289193855
 20
1610.956348402932
 30
0.0
 11
2344.025716318601
 21
1608.127921278186
 31
0.0
  0
LINE
  5
2548
330
1F
100
AcDbEntity
  8
10
100
AcDbLine
 10
2344.025716318601
 20
1610.956348402932
 30
0.0
 11
2341.197289193855
 21
1608.127921278186
 31
0.0
  0
LINE
  5
2549
330
1F
100
AcDbEntity
  8
10
100
AcDbLine
 10
2344.025716318601
 20
1594.956348402932
 30
0.0
 11
2341.197289193855
 21
1592.127921278185
 31
0.0
  0
LINE
  5
254A
330
1F
100
AcDbEntity
  8
10
100
AcDbLine
 10
2341.197289193855
 20
1594.956348402932
 30
0.0
 11
2344.025716318601
 21
1592.127921278185
 31
0.0
  0
LINE
  5
254B
330
1F
100
AcDbEntity
  8
10
100
AcDbLine
 10
2317.111502756229
 20
1757.042134840557
 30
0.0
 11
2317.111502756229
 21
1643.542134840559
 31
0.0
  0
LINE
  5
254C
330
1F
100
AcDbEntity
  8
10
100
AcDbLine
 10
2327.311502756229
 20
1713.042134840559
 30
0.0
 11
2327.311502756229
 21
1647.042134840559
 31
0.0
  0
LINE
  5
254D
330
1F
100
AcDbEntity
  8
10
100
AcDbLine
 10
2317.311502756229
 20
1711.042134840559
 30
0.0
 11
2317.311502756229
 21
1649.042134840559
 31
0.0
  0
LINE
  5
254E
330
1F
100
AcDbEntity
  8
10
100
AcDbLine
 10
2317.311502756229
 20
1649.042134840559
 30
0.0
 11
2327.311502756229
 21
1649.042134840559
 31
0.0
  0
LINE
  5
254F
330
1F
100
AcDbEntity
  8
10
100
AcDbLine
 10
2319.311502756228
 20
1647.042134840559
 30
0.0
 11
2327.311502756229
 21
1647.042134840559
 31
0.0
  0
LINE
  5
2550
330
1F
100
AcDbEntity
  8
10
100
AcDbLine
 10
2307.611502756229
 20
1649.042134840559
 30
0.0
 11
2316.611502756229
 21
1649.042134840559
 31
0.0
  0
LINE
  5
2551
330
1F
100
AcDbEntity
  8
10
100
AcDbLine
 10
2302.611502756229
 20
1641.942134840558
 30
0.0
 11
2302.611502756229
 21
1641.542134840559
 31
0.0
  0
LINE
  5
2552
330
1F
100
AcDbEntity
  8
10
100
AcDbLine
 10
2306.611502756228
 20
1641.942134840558
 30
0.0
 11
2306.611502756228
 21
1641.542134840559
 31
0.0
  0
CIRCLE
  5
2553
330
1F
100
AcDbEntity
  8
10
100
AcDbCircle
 10
2304.111502756228
 20
1649.042134840559
 30
0.0
 40
3.000000000000003
  0
ARC
  5
2554
330
1F
100
AcDbEntity
  8
10
100
AcDbCircle
 10
2304.111502756228
 20
1649.042134840559
 30
0.0
 40
4.000000000000004
100
AcDbArc
 50
180.0
 51
0.0
  0
ARC
  5
2555
330
1F
100
AcDbEntity
  8
10
100
AcDbCircle
 10
2304.111502756228
 20
1649.042134840559
 30
0.0
 40
3.499999999999993
100
AcDbArc
 50
0.0
 51
180.0
  0
ARC
  5
2556
330
1F
100
AcDbEntity
  8
10
100
AcDbCircle
 10
2304.111502756228
 20
1649.042134840559
 30
0.0
 40
4.999999999999893
100
AcDbArc
 50
0.0
 51
180.0
  0
ARC
  5
2557
330
1F
100
AcDbEntity
  8
10
100
AcDbCircle
 10
2304.111502756228
 20
1649.042134840559
 30
0.0
 40
6.500000000000002
100
AcDbArc
 50
0.0
 51
180.0
  0
ARC
  5
2558
330
1F
100
AcDbEntity
  8
10
100
AcDbCircle
 10
2316.611502756229
 20
1648.542134840557
 30
0.0
 40
0.5000000000000049
100
AcDbArc
 50
0.0
 51
90.0
  0
LINE
  5
2559
330
1F
100
AcDbEntity
  8
10
100
AcDbLine
 10
2317.111502756229
 20
1643.542134840559
 30
0.0
 11
2317.111502756229
 21
1641.942134840558
 31
0.0
  0
LINE
  5
255A
330
1F
100
AcDbEntity
  8
10
100
AcDbLine
 10
2315.111502756229
 20
1643.542134840559
 30
0.0
 11
2315.111502756229
 21
1641.942134840558
 31
0.0
  0
ARC
  5
255B
330
1F
100
AcDbEntity
  8
10
100
AcDbCircle
 10
2319.311502756228
 20
1645.042134840559
 30
0.0
 40
2.000000000000028
100
AcDbArc
 50
90.0
 51
180.0
  0
LINE
  5
255C
330
1F
100
AcDbEntity
  8
10
100
AcDbLine
 10
2317.311502756229
 20
1645.042134840559
 30
0.0
 11
2317.311502756229
 21
1642.542134840559
 31
0.0
  0
ARC
  5
255D
330
1F
100
AcDbEntity
  8
10
100
AcDbCircle
 10
2316.311502756229
 20
1642.542134840559
 30
0.0
 40
1.000000000000013
100
AcDbArc
 50
270.0
 51
0.0
  0
LINE
  5
255E
330
1F
100
AcDbEntity
  8
10
100
AcDbLine
 10
2317.311502756229
 20
1654.042134840559
 30
0.0
 11
2317.311502756229
 21
1650.542134840559
 31
0.0
  0
LINE
  5
255F
330
1F
100
AcDbEntity
  8
10
100
AcDbLine
 10
2319.311502756228
 20
1713.042134840559
 30
0.0
 11
2327.311502756229
 21
1713.042134840559
 31
0.0
  0
LINE
  5
2560
330
1F
100
AcDbEntity
  8
10
100
AcDbLine
 10
2317.311502756229
 20
1711.042134840559
 30
0.0
 11
2327.311502756229
 21
1711.042134840559
 31
0.0
  0
LINE
  5
2561
330
1F
100
AcDbEntity
  8
10
100
AcDbLine
 10
2299.811502756229
 20
1747.242134840559
 30
0.0
 11
2299.811502756229
 21
1738.042134840559
 31
0.0
  0
LINE
  5
2562
330
1F
100
AcDbEntity
  8
10
100
AcDbLine
 10
2317.311502756229
 20
1757.542134840559
 30
0.0
 11
2317.311502756229
 21
1715.042134840559
 31
0.0
  0
ARC
  5
2563
330
1F
100
AcDbEntity
  8
10
100
AcDbCircle
 10
2298.811502756229
 20
1738.042134840559
 30
0.0
 40
1.000000000000013
100
AcDbArc
 50
270.0
 51
0.0
  0
ARC
  5
2564
330
1F
100
AcDbEntity
  8
10
100
AcDbCircle
 10
2316.611502756229
 20
1734.542134840559
 30
0.0
 40
0.4999999999999699
100
AcDbArc
 50
270.0
 51
0.0
  0
ARC
  5
2565
330
1F
100
AcDbEntity
  8
10
100
AcDbCircle
 10
2316.611502756229
 20
1726.542134840557
 30
0.0
 40
0.5000000000000049
100
AcDbArc
 50
0.0
 51
90.0
  0
ARC
  5
2566
330
1F
100
AcDbEntity
  8
10
100
AcDbCircle
 10
2316.611502756229
 20
1711.542134840559
 30
0.0
 40
0.5000000000000449
100
AcDbArc
 50
270.0
 51
0.0
  0
ARC
  5
2567
330
1F
100
AcDbEntity
  8
10
100
AcDbCircle
 10
2319.311502756228
 20
1715.042134840559
 30
0.0
 40
2.000000000000008
100
AcDbArc
 50
180.0
 51
270.0
  0
ARC
  5
2568
330
1F
100
AcDbEntity
  8
10
100
AcDbCircle
 10
2298.811502756229
 20
1747.242134840559
 30
0.0
 40
1.000000000000013
100
AcDbArc
 50
0.0
 51
90.0
  0
ARC
  5
2569
330
1F
100
AcDbEntity
  8
10
100
AcDbCircle
 10
2316.111502756228
 20
1757.042134840557
 30
0.0
 40
0.9999999999999948
100
AcDbArc
 50
0.0
 51
90.0
  0
ARC
  5
256A
330
1F
100
AcDbEntity
  8
10
100
AcDbCircle
 10
2316.311502756229
 20
1757.542134840559
 30
0.0
 40
0.9999999999999948
100
AcDbArc
 50
0.0
 51
90.0
  0
LINE
  5
256C
330
1F
100
AcDbEntity
  8
12
 48
3.0
100
AcDbLine
 10
2319.611502756229
 20
1895.542134840559
 30
0.0
 11
1989.611502756228
 21
1895.542134840559
 31
0.0
  0
LINE
  5
256D
330
1F
100
AcDbEntity
  8
10
100
AcDbLine
 10
2354.611502756228
 20
1872.542134840559
 30
0.0
 11
1954.611502756229
 21
1872.542134840559
 31
0.0
  0
LINE
  5
256E
330
1F
100
AcDbEntity
  8
10
100
AcDbLine
 10
2351.611502756228
 20
1910.542134840559
 30
0.0
 11
1957.611502756228
 21
1910.542134840559
 31
0.0
  0
LINE
  5
256F
330
1F
100
AcDbEntity
  8
10
100
AcDbLine
 10
2354.611502756228
 20
1873.742134840559
 30
0.0
 11
1954.611502756229
 21
1873.742134840559
 31
0.0
  0
CIRCLE
  5
2570
330
1F
100
AcDbEntity
  8
12
100
AcDbCircle
 10
1999.611502756229
 20
1895.542134840559
 30
0.0
 40
4.999999999999999
  0
LINE
  5
2571
330
1F
100
AcDbEntity
  8
10
100
AcDbLine
 10
1991.481198080094
 20
1873.742134840559
 30
0.0
 11
1990.109909995577
 21
1879.391338460234
 31
0.0
  0
LINE
  5
2572
330
1F
100
AcDbEntity
  8
10
100
AcDbLine
 10
1961.741807432363
 20
1873.742134840559
 30
0.0
 11
1963.113095516878
 21
1879.391338460234
 31
0.0
  0
LINE
  5
2573
330
1F
100
AcDbEntity
  8
10
100
AcDbLine
 10
1980.864279505961
 20
1882.842134840559
 30
0.0
 11
1980.864279505961
 21
1877.342134840559
 31
0.0
  0
LINE
  5
2574
330
1F
100
AcDbEntity
  8
10
100
AcDbLine
 10
1973.358726006496
 20
1882.842134840559
 30
0.0
 11
1973.358726006496
 21
1877.342134840559
 31
0.0
  0
LINE
  5
2575
330
1F
100
AcDbEntity
  8
10
100
AcDbLine
 10
1984.617056255694
 20
1882.842134840559
 30
0.0
 11
1984.617056255694
 21
1877.342134840559
 31
0.0
  0
LINE
  5
2576
330
1F
100
AcDbEntity
  8
10
100
AcDbLine
 10
1969.605949256763
 20
1882.842134840559
 30
0.0
 11
1969.605949256763
 21
1877.342134840559
 31
0.0
  0
LINE
  5
2577
330
1F
100
AcDbEntity
  8
10
100
AcDbLine
 10
1954.611502756229
 20
1870.542134840559
 30
0.0
 11
1954.611502756229
 21
1907.542134840559
 31
0.0
  0
LINE
  5
2578
330
1F
100
AcDbEntity
  8
10
100
AcDbLine
 10
1984.811502756229
 20
1877.342134840559
 30
0.0
 11
1969.411502756229
 21
1877.342134840559
 31
0.0
  0
LINE
  5
2579
330
1F
100
AcDbEntity
  8
10
100
AcDbLine
 10
1986.111502756228
 20
1875.342134840559
 30
0.0
 11
1968.111502756229
 21
1875.342134840559
 31
0.0
  0
LINE
  5
257A
330
1F
100
AcDbEntity
  8
10
100
AcDbLine
 10
1968.111502756229
 20
1873.742134840559
 30
0.0
 11
1986.111502756228
 21
1873.742134840559
 31
0.0
  0
LINE
  5
257B
330
1F
100
AcDbEntity
  8
10
100
AcDbLine
 10
1957.611502756228
 20
1873.742134840559
 30
0.0
 11
1957.611502756228
 21
1872.542134840559
 31
0.0
  0
CIRCLE
  5
257C
330
1F
100
AcDbEntity
  8
10
100
AcDbCircle
 10
1966.611502756228
 20
1858.542134840559
 30
0.0
 40
3.499999999999944
  0
CIRCLE
  5
257D
330
1F
100
AcDbEntity
  8
10
100
AcDbCircle
 10
1966.611502756228
 20
1858.542134840559
 30
0.0
 40
3.999999999999984
  0
LINE
  5
257E
330
1F
100
AcDbEntity
  8
10
100
AcDbLine
 10
1965.197289193854
 20
1859.956348402932
 30
0.0
 11
1968.0257163186
 21
1857.127921278186
 31
0.0
  0
LINE
  5
257F
330
1F
100
AcDbEntity
  8
10
100
AcDbLine
 10
1968.0257163186
 20
1859.956348402932
 30
0.0
 11
1965.197289193854
 21
1857.127921278186
 31
0.0
  0
LINE
  5
2580
330
1F
100
AcDbEntity
  8
10
100
AcDbLine
 10
1969.411502756229
 20
1875.342134840559
 30
0.0
 11
1969.411502756229
 21
1877.342134840559
 31
0.0
  0
LINE
  5
2581
330
1F
100
AcDbEntity
  8
10
100
AcDbLine
 10
1968.111502756229
 20
1875.342134840559
 30
0.0
 11
1968.111502756229
 21
1873.742134840559
 31
0.0
  0
LINE
  5
2582
330
1F
100
AcDbEntity
  8
10
100
AcDbLine
 10
1983.611502756227
 20
1873.742134840559
 30
0.0
 11
1983.611502756227
 21
1872.542134840559
 31
0.0
  0
LINE
  5
2583
330
1F
100
AcDbEntity
  8
10
100
AcDbLine
 10
1986.611502756229
 20
1873.742134840559
 30
0.0
 11
1986.611502756229
 21
1872.542134840559
 31
0.0
  0
LINE
  5
2584
330
1F
100
AcDbEntity
  8
10
100
AcDbLine
 10
1984.811502756229
 20
1875.342134840559
 30
0.0
 11
1984.811502756229
 21
1877.342134840559
 31
0.0
  0
LINE
  5
2585
330
1F
100
AcDbEntity
  8
10
100
AcDbLine
 10
1986.111502756228
 20
1875.342134840559
 30
0.0
 11
1986.111502756228
 21
1873.742134840559
 31
0.0
  0
LINE
  5
2586
330
1F
100
AcDbEntity
  8
10
100
AcDbLine
 10
1984.617056255694
 20
1882.842134840559
 30
0.0
 11
1969.605949256763
 21
1882.842134840559
 31
0.0
  0
LINE
  5
2587
330
1F
100
AcDbEntity
  8
10
100
AcDbLine
 10
1957.611502756228
 20
1910.542134840559
 30
0.0
 11
1954.611502756229
 21
1907.542134840559
 31
0.0
  0
ARC
  5
2588
330
1F
100
AcDbEntity
  8
10
100
AcDbCircle
 10
1966.611502756228
 20
1878.542134840559
 30
0.0
 40
3.600000000000093
100
AcDbArc
 50
33.71687255197159
 51
166.3559152044999
  0
ARC
  5
2589
330
1F
100
AcDbEntity
  8
10
100
AcDbCircle
 10
1986.611502756229
 20
1878.542134840559
 30
0.0
 40
3.600000000000233
100
AcDbArc
 50
13.64408479549853
 51
123.6427538262866
  0
LINE
  5
258A
330
1F
100
AcDbEntity
  8
12
 48
3.0
100
AcDbLine
 10
1999.611502756229
 20
1905.542134840559
 30
0.0
 11
1999.611502756229
 21
1885.542134840559
 31
0.0
  0
LINE
  5
258D
330
1F
100
AcDbEntity
  8
10
100
AcDbLine
 10
2347.481198080094
 20
1873.742134840559
 30
0.0
 11
2346.109909995578
 21
1879.391338460234
 31
0.0
  0
LINE
  5
258E
330
1F
100
AcDbEntity
  8
10
100
AcDbLine
 10
2317.741807432363
 20
1873.742134840559
 30
0.0
 11
2319.113095516879
 21
1879.391338460234
 31
0.0
  0
LINE
  5
258F
330
1F
100
AcDbEntity
  8
10
100
AcDbLine
 10
2335.86427950596
 20
1882.842134840559
 30
0.0
 11
2335.86427950596
 21
1877.342134840559
 31
0.0
  0
LINE
  5
2590
330
1F
100
AcDbEntity
  8
10
100
AcDbLine
 10
2328.358726006495
 20
1882.842134840559
 30
0.0
 11
2328.358726006495
 21
1877.342134840559
 31
0.0
  0
LINE
  5
2591
330
1F
100
AcDbEntity
  8
10
100
AcDbLine
 10
2339.617056255693
 20
1882.842134840559
 30
0.0
 11
2339.617056255693
 21
1877.342134840559
 31
0.0
  0
LINE
  5
2592
330
1F
100
AcDbEntity
  8
10
100
AcDbLine
 10
2324.605949256763
 20
1882.842134840559
 30
0.0
 11
2324.605949256763
 21
1877.342134840559
 31
0.0
  0
LINE
  5
2593
330
1F
100
AcDbEntity
  8
10
100
AcDbLine
 10
2354.611502756228
 20
1907.542134840559
 30
0.0
 11
2354.611502756228
 21
1870.542134840559
 31
0.0
  0
LINE
  5
2594
330
1F
100
AcDbEntity
  8
10
100
AcDbLine
 10
2339.811502756228
 20
1877.342134840559
 30
0.0
 11
2324.411502756228
 21
1877.342134840559
 31
0.0
  0
LINE
  5
2595
330
1F
100
AcDbEntity
  8
10
100
AcDbLine
 10
2341.111502756228
 20
1875.342134840559
 30
0.0
 11
2323.111502756228
 21
1875.342134840559
 31
0.0
  0
LINE
  5
2596
330
1F
100
AcDbEntity
  8
10
100
AcDbLine
 10
2323.111502756228
 20
1873.742134840559
 30
0.0
 11
2341.111502756228
 21
1873.742134840559
 31
0.0
  0
LINE
  5
2597
330
1F
100
AcDbEntity
  8
10
100
AcDbLine
 10
2324.411502756228
 20
1875.342134840559
 30
0.0
 11
2324.411502756228
 21
1877.342134840559
 31
0.0
  0
LINE
  5
2598
330
1F
100
AcDbEntity
  8
10
100
AcDbLine
 10
2323.111502756228
 20
1875.342134840559
 30
0.0
 11
2323.111502756228
 21
1873.742134840559
 31
0.0
  0
CIRCLE
  5
2599
330
1F
100
AcDbEntity
  8
10
100
AcDbCircle
 10
2342.611502756228
 20
1858.542134840559
 30
0.0
 40
3.500000000000003
  0
CIRCLE
  5
259A
330
1F
100
AcDbEntity
  8
10
100
AcDbCircle
 10
2342.611502756228
 20
1858.542134840559
 30
0.0
 40
4.000000000000004
  0
LINE
  5
259B
330
1F
100
AcDbEntity
  8
10
100
AcDbLine
 10
2339.811502756228
 20
1875.342134840559
 30
0.0
 11
2339.811502756228
 21
1877.342134840559
 31
0.0
  0
LINE
  5
259C
330
1F
100
AcDbEntity
  8
10
100
AcDbLine
 10
2351.611502756228
 20
1873.742134840559
 30
0.0
 11
2351.611502756228
 21
1872.542134840559
 31
0.0
  0
LINE
  5
259D
330
1F
100
AcDbEntity
  8
10
100
AcDbLine
 10
2341.197289193855
 20
1859.956348402932
 30
0.0
 11
2344.025716318601
 21
1857.127921278186
 31
0.0
  0
LINE
  5
259E
330
1F
100
AcDbEntity
  8
10
100
AcDbLine
 10
2344.025716318601
 20
1859.956348402932
 30
0.0
 11
2341.197289193855
 21
1857.127921278186
 31
0.0
  0
LINE
  5
259F
330
1F
100
AcDbEntity
  8
10
100
AcDbLine
 10
2341.111502756228
 20
1875.342134840559
 30
0.0
 11
2341.111502756228
 21
1873.742134840559
 31
0.0
  0
LINE
  5
25A0
330
1F
100
AcDbEntity
  8
10
100
AcDbLine
 10
2339.617056255693
 20
1882.842134840559
 30
0.0
 11
2324.605949256763
 21
1882.842134840559
 31
0.0
  0
CIRCLE
  5
25A1
330
1F
100
AcDbEntity
  8
12
100
AcDbCircle
 10
2309.611502756229
 20
1895.542134840559
 30
0.0
 40
4.999999999999999
  0
LINE
  5
25A2
330
1F
100
AcDbEntity
  8
12
 48
3.0
100
AcDbLine
 10
2309.611502756229
 20
1905.542134840559
 30
0.0
 11
2309.611502756229
 21
1885.542134840559
 31
0.0
  0
ARC
  5
25A3
330
1F
100
AcDbEntity
  8
10
100
AcDbCircle
 10
2322.611502756228
 20
1878.542134840559
 30
0.0
 40
3.600000000000183
100
AcDbArc
 50
56.35724617371333
 51
166.3559152044999
  0
ARC
  5
25A6
330
1F
100
AcDbEntity
  8
10
100
AcDbCircle
 10
2342.611502756228
 20
1878.542134840559
 30
0.0
 40
3.600000000000268
100
AcDbArc
 50
13.64408479549853
 51
146.2831274480324
  0
LINE
  5
25A7
330
1F
100
AcDbEntity
  8
10
100
AcDbLine
 10
2354.611502756228
 20
1907.542134840559
 30
0.0
 11
2351.611502756228
 21
1910.542134840559
 31
0.0
  0
LINE
  5
25A8
330
1F
100
AcDbEntity
  8
10
100
AcDbLine
 10
2656.211502756228
 20
1801.542134840559
 30
0.0
 11
2656.211502756228
 21
1779.542134840559
 31
0.0
  0
LINE
  5
25A9
330
1F
100
AcDbEntity
  8
10
100
AcDbLine
 10
2653.211502756227
 20
1779.542134840559
 30
0.0
 11
2653.211502756227
 21
1801.542134840559
 31
0.0
  0
LINE
  5
25AA
330
1F
100
AcDbEntity
  8
10
100
AcDbLine
 10
2650.211502756227
 20
1801.542134840559
 30
0.0
 11
2650.211502756227
 21
1779.542134840559
 31
0.0
  0
LINE
  5
25AB
330
1F
100
AcDbEntity
  8
10
100
AcDbLine
 10
2647.211502756228
 20
1779.542134840559
 30
0.0
 11
2647.211502756228
 21
1801.542134840559
 31
0.0
  0
LINE
  5
25AC
330
1F
100
AcDbEntity
  8
10
100
AcDbLine
 10
2620.211502756228
 20
1801.542134840559
 30
0.0
 11
2620.211502756228
 21
1779.542134840559
 31
0.0
  0
LINE
  5
25AD
330
1F
100
AcDbEntity
  8
10
100
AcDbLine
 10
2617.211502756227
 20
1779.542134840559
 30
0.0
 11
2617.211502756227
 21
1801.542134840559
 31
0.0
  0
LINE
  5
25AE
330
1F
100
AcDbEntity
  8
10
100
AcDbLine
 10
2626.211502756227
 20
1801.542134840559
 30
0.0
 11
2626.211502756227
 21
1779.542134840559
 31
0.0
  0
LINE
  5
25AF
330
1F
100
AcDbEntity
  8
10
100
AcDbLine
 10
2623.211502756227
 20
1779.542134840559
 30
0.0
 11
2623.211502756227
 21
1801.542134840559
 31
0.0
  0
LINE
  5
25B0
330
1F
100
AcDbEntity
  8
10
100
AcDbLine
 10
2632.211502756227
 20
1801.542134840559
 30
0.0
 11
2632.211502756227
 21
1779.542134840559
 31
0.0
  0
LINE
  5
25B1
330
1F
100
AcDbEntity
  8
10
100
AcDbLine
 10
2629.211502756227
 20
1779.542134840559
 30
0.0
 11
2629.211502756227
 21
1801.542134840559
 31
0.0
  0
LINE
  5
25B2
330
1F
100
AcDbEntity
  8
10
100
AcDbLine
 10
2638.211502756227
 20
1801.542134840559
 30
0.0
 11
2638.211502756227
 21
1779.542134840559
 31
0.0
  0
LINE
  5
25B3
330
1F
100
AcDbEntity
  8
10
100
AcDbLine
 10
2635.211502756227
 20
1779.542134840559
 30
0.0
 11
2635.211502756227
 21
1801.542134840559
 31
0.0
  0
LINE
  5
25B4
330
1F
100
AcDbEntity
  8
10
100
AcDbLine
 10
2644.211502756228
 20
1801.542134840559
 30
0.0
 11
2644.211502756228
 21
1779.542134840559
 31
0.0
  0
LINE
  5
25B5
330
1F
100
AcDbEntity
  8
10
100
AcDbLine
 10
2641.211502756227
 20
1779.542134840559
 30
0.0
 11
2641.211502756227
 21
1801.542134840559
 31
0.0
  0
LINE
  5
25B6
330
1F
100
AcDbEntity
  8
10
100
AcDbLine
 10
2611.211502756228
 20
1779.542134840559
 30
0.0
 11
2611.211502756228
 21
1801.542134840559
 31
0.0
  0
LINE
  5
25B7
330
1F
100
AcDbEntity
  8
10
100
AcDbLine
 10
2605.211502756227
 20
1779.542134840559
 30
0.0
 11
2605.211502756227
 21
1801.542134840559
 31
0.0
  0
LINE
  5
25B8
330
1F
100
AcDbEntity
  8
10
100
AcDbLine
 10
2614.211502756227
 20
1801.542134840559
 30
0.0
 11
2614.211502756227
 21
1779.542134840559
 31
0.0
  0
LINE
  5
25B9
330
1F
100
AcDbEntity
  8
10
100
AcDbLine
 10
2608.211502756228
 20
1801.542134840559
 30
0.0
 11
2608.211502756228
 21
1779.542134840559
 31
0.0
  0
LINE
  5
25BA
330
1F
100
AcDbEntity
  8
10
100
AcDbLine
 10
2599.211502756228
 20
1779.542134840559
 30
0.0
 11
2599.211502756228
 21
1801.542134840559
 31
0.0
  0
LINE
  5
25BB
330
1F
100
AcDbEntity
  8
10
100
AcDbLine
 10
2602.211502756228
 20
1801.542134840559
 30
0.0
 11
2602.211502756228
 21
1779.542134840559
 31
0.0
  0
LINE
  5
25BC
330
1F
100
AcDbEntity
  8
10
100
AcDbLine
 10
2803.711502756227
 20
1870.542134840559
 30
0.0
 11
2803.711502756227
 21
1330.542134840559
 31
0.0
  0
LINE
  5
25BD
330
1F
100
AcDbEntity
  8
10
100
AcDbLine
 10
2669.711502756228
 20
1870.542134840559
 30
0.0
 11
2669.711502756228
 21
1330.542134840559
 31
0.0
  0
LINE
  5
25BE
330
1F
100
AcDbEntity
  8
10
100
AcDbLine
 10
2560.711502756228
 20
1870.542134840559
 30
0.0
 11
2560.711502756228
 21
1330.542134840559
 31
0.0
  0
LINE
  5
25C0
330
1F
100
AcDbEntity
  8
10
100
AcDbLine
 10
2559.511502756228
 20
1872.542134840559
 30
0.0
 11
2559.511502756228
 21
1601.542134840559
 31
0.0
  0
LINE
  5
25C1
330
1F
100
AcDbEntity
  8
10
100
AcDbLine
 10
2560.711502756228
 20
1871.342134840559
 30
0.0
 11
2560.711502756228
 21
1632.155636032077
 31
0.0
  0
LINE
  5
25C2
330
1F
100
AcDbEntity
  8
10
100
AcDbLine
 10
2560.711502756228
 20
1871.342134840559
 30
0.0
 11
2560.711502756228
 21
1591.542134840559
 31
0.0
  0
LINE
  5
25C3
330
1F
100
AcDbEntity
  8
10
100
AcDbLine
 10
2560.711502756228
 20
1330.542134840559
 30
0.0
 11
2803.711502756227
 21
1330.542134840559
 31
0.0
  0
LINE
  5
25C6
330
1F
100
AcDbEntity
  8
10
100
AcDbLine
 10
2559.511502756228
 20
1601.042134840559
 30
0.0
 11
2559.511502756228
 21
1329.042134840558
 31
0.0
  0
LINE
  5
25C7
330
1F
100
AcDbEntity
  8
10
100
AcDbLine
 10
2560.711502756228
 20
1601.042134840559
 30
0.0
 11
2560.711502756228
 21
1330.242134840559
 31
0.0
  0
LINE
  5
25C8
330
1F
100
AcDbEntity
  8
10
100
AcDbLine
 10
2559.511502756228
 20
1338.542134840559
 30
0.0
 11
2559.511502756228
 21
1346.542134840559
 31
0.0
  0
LINE
  5
25C9
330
1F
100
AcDbEntity
  8
10
100
AcDbLine
 10
2559.511502756228
 20
1346.042134840558
 30
0.0
 11
2559.511502756228
 21
1339.042134840559
 31
0.0
  0
ARC
  5
25CA
330
1F
100
AcDbEntity
  8
10
100
AcDbCircle
 10
2559.511502756228
 20
1342.542134840559
 30
0.0
 40
3.499999999999978
100
AcDbArc
 50
90.0
 51
123.3670129692291
  0
LINE
  5
25CB
330
1F
100
AcDbEntity
  8
10
100
AcDbLine
 10
2570.611502756228
 20
1341.042134840559
 30
0.0
 11
2570.611502756228
 21
1390.042134840559
 31
0.0
  0
LINE
  5
25CC
330
1F
100
AcDbEntity
  8
10
100
AcDbLine
 10
2600.611502756228
 20
1341.042134840559
 30
0.0
 11
2600.611502756228
 21
1390.042134840559
 31
0.0
  0
LINE
  5
25CD
330
1F
100
AcDbEntity
  8
10
100
AcDbLine
 10
2571.111502756228
 20
1340.542134840559
 30
0.0
 11
2600.111502756228
 21
1340.542134840559
 31
0.0
  0
LINE
  5
25CE
330
1F
100
AcDbEntity
  8
10
100
AcDbLine
 10
2559.511502756228
 20
1329.042134840558
 30
0.0
 11
2567.511502756227
 21
1329.042134840558
 31
0.0
  0
LINE
  5
25CF
330
1F
100
AcDbEntity
  8
10
100
AcDbLine
 10
2560.711502756228
 20
1330.242134840559
 30
0.0
 11
2567.511502756227
 21
1330.242134840559
 31
0.0
  0
ARC
  5
25D0
330
1F
100
AcDbEntity
  8
10
100
AcDbCircle
 10
2559.511502756228
 20
1342.542134840559
 30
0.0
 40
3.500000000000035
100
AcDbArc
 50
236.6329870307708
 51
270.0
  0
LINE
  5
25D1
330
1F
100
AcDbEntity
  8
10
100
AcDbLine
 10
2556.911502756228
 20
1340.871805531709
 30
0.0
 11
2556.911502756228
 21
1344.212464149407
 31
0.0
  0
ARC
  5
25D2
330
1F
100
AcDbEntity
  8
10
100
AcDbCircle
 10
2558.411502756228
 20
1340.871805531709
 30
0.0
 40
1.499999999999984
100
AcDbArc
 50
180.0
 51
236.6329870307708
  0
ARC
  5
25D3
330
1F
100
AcDbEntity
  8
10
100
AcDbCircle
 10
2558.411502756228
 20
1344.212464149407
 30
0.0
 40
1.500000000000073
100
AcDbArc
 50
123.3670129692291
 51
180.0
  0
ARC
  5
25D4
330
1F
100
AcDbEntity
  8
10
100
AcDbCircle
 10
2558.411502756228
 20
1342.542134840559
 30
0.0
 40
1.499999999999984
100
AcDbArc
 50
180.0
 51
270.0
  0
LINE
  5
25D5
330
1F
100
AcDbEntity
  8
10
100
AcDbLine
 10
2556.911502756228
 20
1342.542134840559
 30
0.0
 11
2556.911502756228
 21
1342.542134840559
 31
0.0
  0
ARC
  5
25D6
330
1F
100
AcDbEntity
  8
10
100
AcDbCircle
 10
2558.411502756228
 20
1342.542134840559
 30
0.0
 40
1.499999999999984
100
AcDbArc
 50
90.0
 51
180.0
  0
LINE
  5
25D7
330
1F
100
AcDbEntity
  8
10
100
AcDbLine
 10
2567.511502756227
 20
1330.242134840559
 30
0.0
 11
2567.511502756227
 21
1329.042134840558
 31
0.0
  0
LINE
  5
25D8
330
1F
100
AcDbEntity
  8
10
100
AcDbLine
 10
2565.511502756228
 20
1330.242134840559
 30
0.0
 11
2565.511502756228
 21
1329.042134840558
 31
0.0
  0
ARC
  5
25D9
330
1F
100
AcDbEntity
  8
10
100
AcDbCircle
 10
2571.111502756228
 20
1341.042134840559
 30
0.0
 40
0.5000000000000049
100
AcDbArc
 50
180.0
 51
270.0
  0
ARC
  5
25DA
330
1F
100
AcDbEntity
  8
10
100
AcDbCircle
 10
2600.111502756228
 20
1341.042134840559
 30
0.0
 40
0.5000000000000049
100
AcDbArc
 50
270.0
 51
0.0
  0
TEXT
  5
25DB
330
1F
100
AcDbEntity
  8
10
100
AcDbText
 10
2572.611498718256
 20
1377.792133627867
 30
0.0
 40
16.00000023841857
  1
ＮＰ
 50
270.0000025044751
 41
0.7031250019402551
  7
STANDARD1
100
AcDbText
  0
LINE
  5
25DC
330
1F
100
AcDbEntity
  8
10
100
AcDbLine
 10
2571.111502756228
 20
1390.542134840559
 30
0.0
 11
2600.111502756228
 21
1390.542134840559
 31
0.0
  0
ARC
  5
25DD
330
1F
100
AcDbEntity
  8
10
100
AcDbCircle
 10
2571.111502756228
 20
1390.042134840559
 30
0.0
 40
0.5000000000000049
100
AcDbArc
 50
90.0
 51
180.0
  0
ARC
  5
25DE
330
1F
100
AcDbEntity
  8
10
100
AcDbCircle
 10
2600.111502756228
 20
1390.042134840559
 30
0.0
 40
0.4999999999999699
100
AcDbArc
 50
0.0
 51
90.0
  0
LINE
  5
25DF
330
1F
100
AcDbEntity
  8
10
100
AcDbLine
 10
2559.511502756228
 20
1613.042134840559
 30
0.0
 11
2559.511502756228
 21
1606.042134840559
 31
0.0
  0
ARC
  5
25E0
330
1F
100
AcDbEntity
  8
10
100
AcDbCircle
 10
2558.411502756228
 20
1611.212464149408
 30
0.0
 40
1.500000000000103
100
AcDbArc
 50
123.3670129692291
 51
180.0
  0
LINE
  5
25E1
330
1F
100
AcDbEntity
  8
10
100
AcDbLine
 10
2559.511502756228
 20
1597.042134840559
 30
0.0
 11
2559.511502756228
 21
1590.042134840559
 31
0.0
  0
ARC
  5
25E2
330
1F
100
AcDbEntity
  8
10
100
AcDbCircle
 10
2559.511502756228
 20
1593.542134840559
 30
0.0
 40
3.500000000000013
100
AcDbArc
 50
90.0
 51
123.3670129692291
  0
ARC
  5
25E3
330
1F
100
AcDbEntity
  8
10
100
AcDbCircle
 10
2559.511502756228
 20
1609.542134840559
 30
0.0
 40
3.500000000000063
100
AcDbArc
 50
236.6329870307708
 51
270.0
  0
ARC
  5
25E4
330
1F
100
AcDbEntity
  8
10
100
AcDbCircle
 10
2559.511502756228
 20
1593.542134840559
 30
0.0
 40
3.500000000000003
100
AcDbArc
 50
236.6329870307708
 51
270.0
  0
LINE
  5
25E5
330
1F
100
AcDbEntity
  8
10
100
AcDbLine
 10
2556.911502756228
 20
1607.87180553171
 30
0.0
 11
2556.911502756228
 21
1611.212464149408
 31
0.0
  0
LINE
  5
25E6
330
1F
100
AcDbEntity
  8
10
100
AcDbLine
 10
2556.911502756228
 20
1591.87180553171
 30
0.0
 11
2556.911502756228
 21
1595.212464149407
 31
0.0
  0
ARC
  5
25E7
330
1F
100
AcDbEntity
  8
10
100
AcDbCircle
 10
2558.411502756228
 20
1607.87180553171
 30
0.0
 40
1.499999999999984
100
AcDbArc
 50
180.0
 51
236.6329870307708
  0
ARC
  5
25E8
330
1F
100
AcDbEntity
  8
10
100
AcDbCircle
 10
2558.411502756228
 20
1591.87180553171
 30
0.0
 40
1.499999999999984
100
AcDbArc
 50
180.0
 51
236.63298703077
  0
LINE
  5
25E9
330
1F
100
AcDbEntity
  8
10
100
AcDbLine
 10
2559.511502756228
 20
1601.042134840559
 30
0.0
 11
2560.711502756228
 21
1601.042134840559
 31
0.0
  0
ARC
  5
25EA
330
1F
100
AcDbEntity
  8
10
100
AcDbCircle
 10
2558.411502756228
 20
1595.212464149407
 30
0.0
 40
1.500000000000043
100
AcDbArc
 50
123.3670129692354
 51
180.0
  0
ARC
  5
25EB
330
1F
100
AcDbEntity
  8
10
100
AcDbCircle
 10
2558.411502756228
 20
1609.542134840559
 30
0.0
 40
1.499999999999984
100
AcDbArc
 50
180.0
 51
270.0
  0
ARC
  5
25EC
330
1F
100
AcDbEntity
  8
10
100
AcDbCircle
 10
2558.411502756228
 20
1593.542134840559
 30
0.0
 40
1.499999999999984
100
AcDbArc
 50
180.0
 51
270.0
  0
LINE
  5
25ED
330
1F
100
AcDbEntity
  8
10
100
AcDbLine
 10
2556.911502756228
 20
1609.542134840559
 30
0.0
 11
2556.911502756228
 21
1609.542134840559
 31
0.0
  0
LINE
  5
25EE
330
1F
100
AcDbEntity
  8
10
100
AcDbLine
 10
2556.911502756228
 20
1593.542134840559
 30
0.0
 11
2556.911502756228
 21
1593.542134840559
 31
0.0
  0
ARC
  5
25EF
330
1F
100
AcDbEntity
  8
10
100
AcDbCircle
 10
2558.411502756228
 20
1609.542134840559
 30
0.0
 40
1.499999999999984
100
AcDbArc
 50
90.0
 51
180.0
  0
ARC
  5
25F0
330
1F
100
AcDbEntity
  8
10
100
AcDbCircle
 10
2558.411502756228
 20
1593.542134840559
 30
0.0
 40
1.499999999999984
100
AcDbArc
 50
90.0
 51
180.0
  0
LINE
  5
25F1
330
1F
100
AcDbEntity
  8
10
100
AcDbLine
 10
2560.711502756228
 20
1601.542134840559
 30
0.0
 11
2559.511502756228
 21
1601.542134840559
 31
0.0
  0
LINE
  5
25F2
330
1F
100
AcDbEntity
  8
10
100
AcDbLine
 10
2599.211502756228
 20
1689.542134840559
 30
0.0
 11
2599.211502756228
 21
1711.542134840559
 31
0.0
  0
LINE
  5
25F3
330
1F
100
AcDbEntity
  8
10
100
AcDbLine
 10
2605.211502756227
 20
1689.542134840559
 30
0.0
 11
2605.211502756227
 21
1711.542134840559
 31
0.0
  0
LINE
  5
25F4
330
1F
100
AcDbEntity
  8
10
100
AcDbLine
 10
2602.211502756228
 20
1711.542134840559
 30
0.0
 11
2602.211502756228
 21
1689.542134840559
 31
0.0
  0
LINE
  5
25F5
330
1F
100
AcDbEntity
  8
10
100
AcDbLine
 10
2608.211502756228
 20
1711.542134840559
 30
0.0
 11
2608.211502756228
 21
1689.542134840559
 31
0.0
  0
LINE
  5
25F6
330
1F
100
AcDbEntity
  8
10
100
AcDbLine
 10
2554.611502756228
 20
1717.678723598146
 30
0.0
 11
2554.611502756228
 21
1658.405546082972
 31
0.0
  0
LINE
  5
25F7
330
1F
100
AcDbEntity
  8
10
100
AcDbLine
 10
2556.611502756228
 20
1716.229759031431
 30
0.0
 11
2556.611502756228
 21
1659.854510649687
 31
0.0
  0
LINE
  5
25F8
330
1F
100
AcDbEntity
  8
10
100
AcDbLine
 10
2558.513426544875
 20
1659.254835047557
 30
0.0
 11
2558.513426544875
 21
1716.829434633559
 31
0.0
  0
ARC
  5
25F9
330
1F
100
AcDbEntity
  8
10
100
AcDbCircle
 10
2559.511502756228
 20
1609.542134840559
 30
0.0
 40
3.500000000000013
100
AcDbArc
 50
90.0
 51
123.3670129692291
  0
LINE
  5
25FA
330
1F
100
AcDbEntity
  8
10
100
AcDbLine
 10
2556.611502756228
 20
1659.854510649687
 30
0.0
 11
2556.111502756228
 21
1659.854510649687
 31
0.0
  0
LINE
  5
25FB
330
1F
100
AcDbEntity
  8
10
100
AcDbLine
 10
2556.611502756228
 20
1659.354510649686
 30
0.0
 11
2556.111502756228
 21
1659.354510649686
 31
0.0
  0
LINE
  5
25FC
330
1F
100
AcDbEntity
  8
10
100
AcDbLine
 10
2556.111502756228
 20
1659.854510649687
 30
0.0
 11
2556.111502756228
 21
1659.354510649686
 31
0.0
  0
ARC
  5
25FD
330
1F
100
AcDbEntity
  8
10
100
AcDbCircle
 10
2555.611502756228
 20
1658.405546082972
 30
0.0
 40
1.000000000000013
100
AcDbArc
 50
180.0
 51
266.9999999999943
  0
LINE
  5
25FE
330
1F
100
AcDbEntity
  8
10
100
AcDbLine
 10
2555.559166799985
 20
1657.406916548216
 30
0.0
 11
2559.511502756228
 21
1657.199783397769
 31
0.0
  0
LINE
  5
25FF
330
1F
100
AcDbEntity
  8
10
100
AcDbLine
 10
2556.611502756228
 20
1659.354510649686
 30
0.0
 11
2559.511502756228
 21
1659.202528089766
 31
0.0
  0
LINE
  5
2600
330
1F
100
AcDbEntity
  8
10
100
AcDbLine
 10
2608.211502756228
 20
1651.542134840559
 30
0.0
 11
2608.211502756228
 21
1629.542134840558
 31
0.0
  0
LINE
  5
2601
330
1F
100
AcDbEntity
  8
10
100
AcDbLine
 10
2602.211502756228
 20
1651.542134840559
 30
0.0
 11
2602.211502756228
 21
1629.542134840558
 31
0.0
  0
LINE
  5
2602
330
1F
100
AcDbEntity
  8
10
100
AcDbLine
 10
2605.211502756227
 20
1629.542134840558
 30
0.0
 11
2605.211502756227
 21
1651.542134840559
 31
0.0
  0
LINE
  5
2603
330
1F
100
AcDbEntity
  8
10
100
AcDbLine
 10
2599.211502756228
 20
1629.542134840558
 30
0.0
 11
2599.211502756228
 21
1651.542134840559
 31
0.0
  0
ARC
  5
2604
330
1F
100
AcDbEntity
  8
10
100
AcDbCircle
 10
2606.711502756228
 20
1629.542134840558
 30
0.0
 40
1.499999999999984
100
AcDbArc
 50
180.0
 51
0.0
  0
ARC
  5
2605
330
1F
100
AcDbEntity
  8
10
100
AcDbCircle
 10
2600.711502756228
 20
1629.542134840558
 30
0.0
 40
1.500000000000019
100
AcDbArc
 50
180.0
 51
0.0
  0
ARC
  5
2606
330
1F
100
AcDbEntity
  8
10
100
AcDbCircle
 10
2606.711502756228
 20
1651.542134840559
 30
0.0
 40
1.500000000000019
100
AcDbArc
 50
0.0
 51
180.0
  0
ARC
  5
2607
330
1F
100
AcDbEntity
  8
10
100
AcDbCircle
 10
2600.711502756228
 20
1651.542134840559
 30
0.0
 40
1.499999999999984
100
AcDbArc
 50
0.0
 51
180.0
  0
ARC
  5
2608
330
1F
100
AcDbEntity
  8
10
100
AcDbCircle
 10
2600.711502756228
 20
1681.542134840559
 30
0.0
 40
1.499999999999984
100
AcDbArc
 50
0.0
 51
180.0
  0
ARC
  5
2609
330
1F
100
AcDbEntity
  8
10
100
AcDbCircle
 10
2606.711502756228
 20
1681.542134840559
 30
0.0
 40
1.500000000000019
100
AcDbArc
 50
0.0
 51
180.0
  0
ARC
  5
260A
330
1F
100
AcDbEntity
  8
10
100
AcDbCircle
 10
2600.711502756228
 20
1689.542134840559
 30
0.0
 40
1.500000000000019
100
AcDbArc
 50
180.0
 51
0.0
  0
ARC
  5
260B
330
1F
100
AcDbEntity
  8
10
100
AcDbCircle
 10
2606.711502756228
 20
1689.542134840559
 30
0.0
 40
1.499999999999984
100
AcDbArc
 50
180.0
 51
0.0
  0
ARC
  5
260C
330
1F
100
AcDbEntity
  8
10
100
AcDbCircle
 10
2600.711502756228
 20
1659.542134840559
 30
0.0
 40
1.500000000000019
100
AcDbArc
 50
180.0
 51
0.0
  0
ARC
  5
260D
330
1F
100
AcDbEntity
  8
10
100
AcDbCircle
 10
2606.711502756228
 20
1659.542134840559
 30
0.0
 40
1.499999999999984
100
AcDbArc
 50
180.0
 51
0.0
  0
LINE
  5
260E
330
1F
100
AcDbEntity
  8
10
100
AcDbLine
 10
2599.211502756228
 20
1659.542134840559
 30
0.0
 11
2599.211502756228
 21
1681.542134840559
 31
0.0
  0
LINE
  5
260F
330
1F
100
AcDbEntity
  8
10
100
AcDbLine
 10
2605.211502756227
 20
1659.542134840559
 30
0.0
 11
2605.211502756227
 21
1681.542134840559
 31
0.0
  0
LINE
  5
2610
330
1F
100
AcDbEntity
  8
10
100
AcDbLine
 10
2602.211502756228
 20
1681.542134840559
 30
0.0
 11
2602.211502756228
 21
1659.542134840559
 31
0.0
  0
LINE
  5
2611
330
1F
100
AcDbEntity
  8
10
100
AcDbLine
 10
2608.211502756228
 20
1681.542134840559
 30
0.0
 11
2608.211502756228
 21
1659.542134840559
 31
0.0
  0
LINE
  5
2612
330
1F
100
AcDbEntity
  8
10
100
AcDbLine
 10
2556.611502756228
 20
1753.10708990837
 30
0.0
 11
2556.611502756228
 21
1740.956348402932
 31
0.0
  0
LINE
  5
2613
330
1F
100
AcDbEntity
  8
10
100
AcDbLine
 10
2559.0257163186
 20
1738.542134840559
 30
0.0
 11
2559.511502756228
 21
1738.542134840559
 31
0.0
  0
LINE
  5
2614
330
1F
100
AcDbEntity
  8
10
100
AcDbLine
 10
2558.318609537414
 20
1738.835028059372
 30
0.0
 11
2556.904395975041
 21
1740.249241621745
 31
0.0
  0
ARC
  5
2615
330
1F
100
AcDbEntity
  8
10
100
AcDbCircle
 10
2557.611502756228
 20
1740.956348402932
 30
0.0
 40
1.000000000000013
100
AcDbArc
 50
180.0
 51
224.9999999999988
  0
ARC
  5
2616
330
1F
100
AcDbEntity
  8
10
100
AcDbCircle
 10
2559.0257163186
 20
1739.542134840559
 30
0.0
 40
1.000000000000174
100
AcDbArc
 50
224.9999999999988
 51
270.0
  0
LINE
  5
2617
330
1F
100
AcDbEntity
  8
10
100
AcDbLine
 10
2556.611502756228
 20
1716.229759031431
 30
0.0
 11
2556.111502756227
 21
1716.229759031431
 31
0.0
  0
LINE
  5
2618
330
1F
100
AcDbEntity
  8
10
100
AcDbLine
 10
2556.111502756228
 20
1716.729759031431
 30
0.0
 11
2556.111502756227
 21
1716.229759031431
 31
0.0
  0
LINE
  5
2619
330
1F
100
AcDbEntity
  8
10
100
AcDbLine
 10
2556.611502756228
 20
1716.729759031431
 30
0.0
 11
2556.111502756228
 21
1716.729759031431
 31
0.0
  0
ARC
  5
261A
330
1F
100
AcDbEntity
  8
10
100
AcDbCircle
 10
2555.611502756228
 20
1717.678723598146
 30
0.0
 40
0.9999999999998047
100
AcDbArc
 50
93.00000000000556
 51
180.0
  0
LINE
  5
261B
330
1F
100
AcDbEntity
  8
10
100
AcDbLine
 10
2555.559166799985
 20
1718.6773531329
 30
0.0
 11
2559.511502756228
 21
1718.884486283347
 31
0.0
  0
LINE
  5
261C
330
1F
100
AcDbEntity
  8
10
100
AcDbLine
 10
2556.611502756228
 20
1716.729759031431
 30
0.0
 11
2559.511502756228
 21
1716.881741591351
 31
0.0
  0
ARC
  5
261D
330
1F
100
AcDbEntity
  8
10
100
AcDbCircle
 10
2586.611502756228
 20
1753.10708990837
 30
0.0
 40
30.00000000000023
100
AcDbArc
 50
160.3162775137014
 51
180.0
  0
ARC
  5
261E
330
1F
100
AcDbEntity
  8
10
100
AcDbCircle
 10
2561.189213350071
 20
1762.201439876875
 30
0.0
 40
2.99999999999936
100
AcDbArc
 50
124.0030382616385
 51
160.3162775137044
  0
ARC
  5
261F
330
1F
100
AcDbEntity
  8
10
100
AcDbCircle
 10
2600.711502756228
 20
1711.542134840559
 30
0.0
 40
1.499999999999984
100
AcDbArc
 50
0.0
 51
180.0
  0
ARC
  5
2620
330
1F
100
AcDbEntity
  8
10
100
AcDbCircle
 10
2606.711502756228
 20
1711.542134840559
 30
0.0
 40
1.500000000000019
100
AcDbArc
 50
0.0
 51
180.0
  0
ARC
  5
2621
330
1F
100
AcDbEntity
  8
10
100
AcDbCircle
 10
2600.711502756228
 20
1719.542134840559
 30
0.0
 40
1.500000000000019
100
AcDbArc
 50
180.0
 51
0.0
  0
LINE
  5
2622
330
1F
100
AcDbEntity
  8
10
100
AcDbLine
 10
2599.211502756228
 20
1719.542134840559
 30
0.0
 11
2599.211502756228
 21
1741.542134840559
 31
0.0
  0
LINE
  5
2623
330
1F
100
AcDbEntity
  8
10
100
AcDbLine
 10
2602.211502756228
 20
1741.542134840559
 30
0.0
 11
2602.211502756228
 21
1719.542134840559
 31
0.0
  0
ARC
  5
2624
330
1F
100
AcDbEntity
  8
10
100
AcDbCircle
 10
2606.711502756228
 20
1719.542134840559
 30
0.0
 40
1.499999999999984
100
AcDbArc
 50
180.0
 51
0.0
  0
LINE
  5
2625
330
1F
100
AcDbEntity
  8
10
100
AcDbLine
 10
2605.211502756227
 20
1719.542134840559
 30
0.0
 11
2605.211502756227
 21
1741.542134840559
 31
0.0
  0
LINE
  5
2626
330
1F
100
AcDbEntity
  8
10
100
AcDbLine
 10
2608.211502756228
 20
1741.542134840559
 30
0.0
 11
2608.211502756228
 21
1719.542134840559
 31
0.0
  0
ARC
  5
2627
330
1F
100
AcDbEntity
  8
10
100
AcDbCircle
 10
2600.711502756228
 20
1741.542134840559
 30
0.0
 40
1.499999999999984
100
AcDbArc
 50
0.0
 51
180.0
  0
ARC
  5
2628
330
1F
100
AcDbEntity
  8
10
100
AcDbCircle
 10
2606.711502756228
 20
1741.542134840559
 30
0.0
 40
1.500000000000019
100
AcDbArc
 50
0.0
 51
180.0
  0
ARC
  5
2629
330
1F
100
AcDbEntity
  8
10
100
AcDbCircle
 10
2606.711502756227
 20
1779.542134840559
 30
0.0
 40
1.499999999999984
100
AcDbArc
 50
180.0
 51
0.0
  0
LINE
  5
262A
330
1F
100
AcDbEntity
  8
10
100
AcDbLine
 10
2608.211502756228
 20
1771.542134840559
 30
0.0
 11
2608.211502756228
 21
1749.542134840559
 31
0.0
  0
LINE
  5
262B
330
1F
100
AcDbEntity
  8
10
100
AcDbLine
 10
2605.211502756227
 20
1749.542134840559
 30
0.0
 11
2605.211502756227
 21
1771.542134840559
 31
0.0
  0
ARC
  5
262C
330
1F
100
AcDbEntity
  8
10
100
AcDbCircle
 10
2606.711502756227
 20
1771.542134840559
 30
0.0
 40
1.500000000000019
100
AcDbArc
 50
0.0
 51
180.0
  0
ARC
  5
262D
330
1F
100
AcDbEntity
  8
10
100
AcDbCircle
 10
2606.711502756228
 20
1749.542134840559
 30
0.0
 40
1.499999999999984
100
AcDbArc
 50
180.0
 51
0.0
  0
ARC
  5
262E
330
1F
100
AcDbEntity
  8
10
100
AcDbCircle
 10
2600.711502756228
 20
1779.542134840559
 30
0.0
 40
1.500000000000019
100
AcDbArc
 50
180.0
 51
0.0
  0
LINE
  5
262F
330
1F
100
AcDbEntity
  8
10
100
AcDbLine
 10
2602.211502756228
 20
1771.542134840559
 30
0.0
 11
2602.211502756228
 21
1749.542134840559
 31
0.0
  0
LINE
  5
2630
330
1F
100
AcDbEntity
  8
10
100
AcDbLine
 10
2599.211502756228
 20
1749.542134840559
 30
0.0
 11
2599.211502756228
 21
1771.542134840559
 31
0.0
  0
ARC
  5
2631
330
1F
100
AcDbEntity
  8
10
100
AcDbCircle
 10
2600.711502756228
 20
1771.542134840559
 30
0.0
 40
1.499999999999984
100
AcDbArc
 50
0.0
 51
180.0
  0
ARC
  5
2632
330
1F
100
AcDbEntity
  8
10
100
AcDbCircle
 10
2600.711502756228
 20
1749.542134840559
 30
0.0
 40
1.500000000000019
100
AcDbArc
 50
180.0
 51
0.0
  0
LINE
  5
2634
330
1F
100
AcDbEntity
  8
12
 48
3.0
100
AcDbLine
 10
2656.511502756227
 20
1305.542134840559
 30
0.0
 11
2679.711502756228
 21
1305.542134840559
 31
0.0
  0
LINE
  5
2635
330
1F
100
AcDbEntity
  8
10
100
AcDbLine
 10
2666.511502756228
 20
1290.542134840559
 30
0.0
 11
2669.711502756228
 21
1290.542134840559
 31
0.0
  0
LINE
  5
2636
330
1F
100
AcDbEntity
  8
10
100
AcDbLine
 10
2669.711502756228
 20
1330.542134840559
 30
0.0
 11
2632.711502756228
 21
1330.542134840559
 31
0.0
  0
LINE
  5
2638
330
1F
100
AcDbEntity
  8
10
100
AcDbLine
 10
2653.711502756228
 20
1327.342134840558
 30
0.0
 11
2635.711502756228
 21
1327.342134840558
 31
0.0
  0
LINE
  5
2639
330
1F
100
AcDbEntity
  8
10
100
AcDbLine
 10
2635.711502756228
 20
1325.742134840559
 30
0.0
 11
2653.711502756228
 21
1325.742134840559
 31
0.0
  0
LINE
  5
263A
330
1F
100
AcDbEntity
  8
10
100
AcDbLine
 10
2637.011502756227
 20
1323.742134840559
 30
0.0
 11
2652.411502756228
 21
1323.742134840559
 31
0.0
  0
LINE
  5
263B
330
1F
100
AcDbEntity
  8
10
100
AcDbLine
 10
2637.205949256763
 20
1318.242134840559
 30
0.0
 11
2652.217056255693
 21
1318.242134840559
 31
0.0
  0
LINE
  5
263C
330
1F
100
AcDbEntity
  8
10
100
AcDbLine
 10
2632.711502756228
 20
1327.342134840558
 30
0.0
 11
2666.511502756228
 21
1327.342134840558
 31
0.0
  0
LINE
  5
263D
330
1F
100
AcDbEntity
  8
10
100
AcDbLine
 10
2635.711502756228
 20
1325.742134840559
 30
0.0
 11
2635.711502756228
 21
1327.342134840558
 31
0.0
  0
LINE
  5
263E
330
1F
100
AcDbEntity
  8
10
100
AcDbLine
 10
2637.205949256763
 20
1318.242134840559
 30
0.0
 11
2637.205949256763
 21
1323.742134840559
 31
0.0
  0
LINE
  5
263F
330
1F
100
AcDbEntity
  8
10
100
AcDbLine
 10
2637.011502756227
 20
1325.742134840559
 30
0.0
 11
2637.011502756227
 21
1323.742134840559
 31
0.0
  0
LINE
  5
2640
330
1F
100
AcDbEntity
  8
10
100
AcDbLine
 10
2632.711502756228
 20
1330.542134840559
 30
0.0
 11
2632.711502756228
 21
1327.342134840558
 31
0.0
  0
LINE
  5
2641
330
1F
100
AcDbEntity
  8
10
100
AcDbLine
 10
2635.711502756228
 20
1330.542134840559
 30
0.0
 11
2635.711502756228
 21
1327.342134840558
 31
0.0
  0
LINE
  5
2642
330
1F
100
AcDbEntity
  8
10
100
AcDbLine
 10
2666.511502756228
 20
1327.342134840558
 30
0.0
 11
2666.511502756228
 21
1290.542134840559
 31
0.0
  0
LINE
  5
2643
330
1F
100
AcDbEntity
  8
10
100
AcDbLine
 10
2652.217056255693
 20
1318.242134840559
 30
0.0
 11
2652.217056255693
 21
1323.742134840559
 31
0.0
  0
LINE
  5
2644
330
1F
100
AcDbEntity
  8
10
100
AcDbLine
 10
2652.411502756228
 20
1325.742134840559
 30
0.0
 11
2652.411502756228
 21
1323.742134840559
 31
0.0
  0
LINE
  5
2645
330
1F
100
AcDbEntity
  8
10
100
AcDbLine
 10
2648.46427950596
 20
1318.242134840559
 30
0.0
 11
2648.46427950596
 21
1323.742134840559
 31
0.0
  0
LINE
  5
2646
330
1F
100
AcDbEntity
  8
10
100
AcDbLine
 10
2640.958726006495
 20
1318.242134840559
 30
0.0
 11
2640.958726006495
 21
1323.742134840559
 31
0.0
  0
LINE
  5
2647
330
1F
100
AcDbEntity
  8
10
100
AcDbLine
 10
2653.711502756228
 20
1325.742134840559
 30
0.0
 11
2653.711502756228
 21
1327.342134840558
 31
0.0
  0
LINE
  5
2648
330
1F
100
AcDbEntity
  8
10
100
AcDbLine
 10
2658.386019356633
 20
1327.342134840558
 30
0.0
 11
2666.511502756228
 21
1319.216651440965
 31
0.0
  0
LINE
  5
2649
330
1F
100
AcDbEntity
  8
10
100
AcDbLine
 10
2669.711502756228
 20
1330.542134840559
 30
0.0
 11
2669.711502756228
 21
1290.542134840559
 31
0.0
  0
LINE
  5
264A
330
1F
100
AcDbEntity
  8
10
 48
3.0
100
AcDbLine
 10
2767.711502756228
 20
1327.342134840558
 30
0.0
 11
2801.511502756227
 21
1327.342134840558
 31
0.0
  0
LINE
  5
264B
330
1F
100
AcDbEntity
  8
10
 48
3.0
100
AcDbLine
 10
2804.711502756228
 20
1330.542134840559
 30
0.0
 11
2767.711502756228
 21
1330.542134840559
 31
0.0
  0
LINE
  5
264C
330
1F
100
AcDbEntity
  8
10
 48
3.0
100
AcDbLine
 10
2772.205949256763
 20
1318.242134840559
 30
0.0
 11
2787.217056255693
 21
1318.242134840559
 31
0.0
  0
LINE
  5
264D
330
1F
100
AcDbEntity
  8
10
 48
3.0
100
AcDbLine
 10
2772.011502756228
 20
1323.742134840559
 30
0.0
 11
2787.411502756228
 21
1323.742134840559
 31
0.0
  0
LINE
  5
264E
330
1F
100
AcDbEntity
  8
10
 48
3.0
100
AcDbLine
 10
2770.711502756228
 20
1325.742134840559
 30
0.0
 11
2788.711502756227
 21
1325.742134840559
 31
0.0
  0
LINE
  5
264F
330
1F
100
AcDbEntity
  8
10
 48
3.0
100
AcDbLine
 10
2767.711502756228
 20
1330.542134840559
 30
0.0
 11
2767.711502756228
 21
1327.342134840558
 31
0.0
  0
LINE
  5
2650
330
1F
100
AcDbEntity
  8
10
 48
3.0
100
AcDbLine
 10
2770.711502756228
 20
1325.742134840559
 30
0.0
 11
2770.711502756228
 21
1327.342134840558
 31
0.0
  0
LINE
  5
2651
330
1F
100
AcDbEntity
  8
10
 48
3.0
100
AcDbLine
 10
2775.958726006495
 20
1318.242134840559
 30
0.0
 11
2775.958726006495
 21
1323.742134840559
 31
0.0
  0
LINE
  5
2652
330
1F
100
AcDbEntity
  8
10
 48
3.0
100
AcDbLine
 10
2783.46427950596
 20
1318.242134840559
 30
0.0
 11
2783.46427950596
 21
1323.742134840559
 31
0.0
  0
LINE
  5
2653
330
1F
100
AcDbEntity
  8
10
 48
3.0
100
AcDbLine
 10
2772.011502756228
 20
1325.742134840559
 30
0.0
 11
2772.011502756228
 21
1323.742134840559
 31
0.0
  0
LINE
  5
2654
330
1F
100
AcDbEntity
  8
10
 48
3.0
100
AcDbLine
 10
2772.205949256763
 20
1318.242134840559
 30
0.0
 11
2772.205949256763
 21
1323.742134840559
 31
0.0
  0
LINE
  5
2656
330
1F
100
AcDbEntity
  8
10
 48
3.0
100
AcDbLine
 10
2804.711502756228
 20
1330.542134840559
 30
0.0
 11
2804.711502756228
 21
1290.542134840559
 31
0.0
  0
LINE
  5
2657
330
1F
100
AcDbEntity
  8
10
 48
3.0
100
AcDbLine
 10
2801.511502756227
 20
1327.342134840558
 30
0.0
 11
2801.511502756227
 21
1290.542134840559
 31
0.0
  0
LINE
  5
2658
330
1F
100
AcDbEntity
  8
10
 48
3.0
100
AcDbLine
 10
2801.511502756227
 20
1290.542134840559
 30
0.0
 11
2804.711502756228
 21
1290.542134840559
 31
0.0
  0
LINE
  5
2659
330
1F
100
AcDbEntity
  8
10
 48
3.0
100
AcDbLine
 10
2793.386019356633
 20
1327.342134840558
 30
0.0
 11
2801.511502756227
 21
1319.216651440965
 31
0.0
  0
LINE
  5
265A
330
1F
100
AcDbEntity
  8
12
 48
3.0
100
AcDbLine
 10
2791.511502756228
 20
1305.542134840559
 30
0.0
 11
2814.711502756228
 21
1305.542134840559
 31
0.0
  0
LINE
  5
265B
330
1F
100
AcDbEntity
  8
10
 48
3.0
100
AcDbLine
 10
2787.411502756228
 20
1325.742134840559
 30
0.0
 11
2787.411502756228
 21
1323.742134840559
 31
0.0
  0
LINE
  5
265C
330
1F
100
AcDbEntity
  8
10
 48
3.0
100
AcDbLine
 10
2787.217056255693
 20
1318.242134840559
 30
0.0
 11
2787.217056255693
 21
1323.742134840559
 31
0.0
  0
LINE
  5
265D
330
1F
100
AcDbEntity
  8
10
 48
3.0
100
AcDbLine
 10
2788.711502756227
 20
1325.742134840559
 30
0.0
 11
2788.711502756227
 21
1327.342134840558
 31
0.0
  0
LINE
  5
265E
330
1F
100
AcDbEntity
  8
10
100
AcDbLine
 10
2653.211502756228
 20
1689.542134840559
 30
0.0
 11
2653.211502756228
 21
1711.542134840559
 31
0.0
  0
LINE
  5
265F
330
1F
100
AcDbEntity
  8
10
100
AcDbLine
 10
2647.211502756228
 20
1689.542134840559
 30
0.0
 11
2647.211502756228
 21
1711.542134840559
 31
0.0
  0
LINE
  5
2660
330
1F
100
AcDbEntity
  8
10
100
AcDbLine
 10
2641.211502756227
 20
1689.542134840559
 30
0.0
 11
2641.211502756227
 21
1711.542134840559
 31
0.0
  0
LINE
  5
2661
330
1F
100
AcDbEntity
  8
10
100
AcDbLine
 10
2635.211502756227
 20
1689.542134840559
 30
0.0
 11
2635.211502756227
 21
1711.542134840559
 31
0.0
  0
LINE
  5
2662
330
1F
100
AcDbEntity
  8
10
100
AcDbLine
 10
2629.211502756228
 20
1689.542134840559
 30
0.0
 11
2629.211502756228
 21
1711.542134840559
 31
0.0
  0
LINE
  5
2663
330
1F
100
AcDbEntity
  8
10
100
AcDbLine
 10
2611.211502756228
 20
1689.542134840559
 30
0.0
 11
2611.211502756228
 21
1711.542134840559
 31
0.0
  0
LINE
  5
2664
330
1F
100
AcDbEntity
  8
10
100
AcDbLine
 10
2623.211502756228
 20
1689.542134840559
 30
0.0
 11
2623.211502756228
 21
1711.542134840559
 31
0.0
  0
LINE
  5
2665
330
1F
100
AcDbEntity
  8
10
100
AcDbLine
 10
2617.211502756228
 20
1689.542134840559
 30
0.0
 11
2617.211502756228
 21
1711.542134840559
 31
0.0
  0
LINE
  5
2666
330
1F
100
AcDbEntity
  8
10
100
AcDbLine
 10
2656.211502756228
 20
1711.542134840559
 30
0.0
 11
2656.211502756228
 21
1689.542134840559
 31
0.0
  0
LINE
  5
2667
330
1F
100
AcDbEntity
  8
10
100
AcDbLine
 10
2650.211502756227
 20
1711.542134840559
 30
0.0
 11
2650.211502756227
 21
1689.542134840559
 31
0.0
  0
LINE
  5
2668
330
1F
100
AcDbEntity
  8
10
100
AcDbLine
 10
2644.211502756228
 20
1711.542134840559
 30
0.0
 11
2644.211502756228
 21
1689.542134840559
 31
0.0
  0
LINE
  5
2669
330
1F
100
AcDbEntity
  8
10
100
AcDbLine
 10
2638.211502756228
 20
1711.542134840559
 30
0.0
 11
2638.211502756228
 21
1689.542134840559
 31
0.0
  0
LINE
  5
266A
330
1F
100
AcDbEntity
  8
10
100
AcDbLine
 10
2632.211502756228
 20
1711.542134840559
 30
0.0
 11
2632.211502756228
 21
1689.542134840559
 31
0.0
  0
LINE
  5
266B
330
1F
100
AcDbEntity
  8
10
100
AcDbLine
 10
2614.211502756228
 20
1711.542134840559
 30
0.0
 11
2614.211502756228
 21
1689.542134840559
 31
0.0
  0
LINE
  5
266C
330
1F
100
AcDbEntity
  8
10
100
AcDbLine
 10
2626.211502756227
 20
1711.542134840559
 30
0.0
 11
2626.211502756227
 21
1689.542134840559
 31
0.0
  0
LINE
  5
266D
330
1F
100
AcDbEntity
  8
10
100
AcDbLine
 10
2620.211502756228
 20
1711.542134840559
 30
0.0
 11
2620.211502756228
 21
1689.542134840559
 31
0.0
  0
ARC
  5
266E
330
1F
100
AcDbEntity
  8
10
100
AcDbCircle
 10
2624.711502756228
 20
1629.542134840558
 30
0.0
 40
1.499999999999984
100
AcDbArc
 50
180.0
 51
0.0
  0
ARC
  5
266F
330
1F
100
AcDbEntity
  8
10
100
AcDbCircle
 10
2624.711502756228
 20
1651.542134840559
 30
0.0
 40
1.499999999999984
100
AcDbArc
 50
0.0
 51
180.0
  0
LINE
  5
2670
330
1F
100
AcDbEntity
  8
10
100
AcDbLine
 10
2620.211502756228
 20
1651.542134840559
 30
0.0
 11
2620.211502756228
 21
1629.542134840558
 31
0.0
  0
LINE
  5
2671
330
1F
100
AcDbEntity
  8
10
100
AcDbLine
 10
2614.211502756228
 20
1651.542134840559
 30
0.0
 11
2614.211502756228
 21
1629.542134840558
 31
0.0
  0
LINE
  5
2672
330
1F
100
AcDbEntity
  8
10
100
AcDbLine
 10
2617.211502756228
 20
1629.542134840558
 30
0.0
 11
2617.211502756228
 21
1651.542134840559
 31
0.0
  0
LINE
  5
2673
330
1F
100
AcDbEntity
  8
10
100
AcDbLine
 10
2623.211502756228
 20
1629.542134840558
 30
0.0
 11
2623.211502756228
 21
1651.542134840559
 31
0.0
  0
LINE
  5
2674
330
1F
100
AcDbEntity
  8
10
100
AcDbLine
 10
2611.211502756228
 20
1629.542134840558
 30
0.0
 11
2611.211502756228
 21
1651.542134840559
 31
0.0
  0
ARC
  5
2675
330
1F
100
AcDbEntity
  8
10
100
AcDbCircle
 10
2618.711502756227
 20
1629.542134840558
 30
0.0
 40
1.499999999999984
100
AcDbArc
 50
180.0
 51
0.0
  0
ARC
  5
2676
330
1F
100
AcDbEntity
  8
10
100
AcDbCircle
 10
2612.711502756227
 20
1629.542134840558
 30
0.0
 40
1.500000000000019
100
AcDbArc
 50
180.0
 51
0.0
  0
ARC
  5
2677
330
1F
100
AcDbEntity
  8
10
100
AcDbCircle
 10
2618.711502756227
 20
1651.542134840559
 30
0.0
 40
1.500000000000019
100
AcDbArc
 50
0.0
 51
180.0
  0
ARC
  5
2678
330
1F
100
AcDbEntity
  8
10
100
AcDbCircle
 10
2612.711502756227
 20
1651.542134840559
 30
0.0
 40
1.499999999999984
100
AcDbArc
 50
0.0
 51
180.0
  0
LINE
  5
2679
330
1F
100
AcDbEntity
  8
10
100
AcDbLine
 10
2626.211502756227
 20
1651.542134840559
 30
0.0
 11
2626.211502756227
 21
1629.542134840558
 31
0.0
  0
LINE
  5
267A
330
1F
100
AcDbEntity
  8
10
100
AcDbLine
 10
2632.211502756228
 20
1651.542134840559
 30
0.0
 11
2632.211502756228
 21
1629.542134840558
 31
0.0
  0
LINE
  5
267B
330
1F
100
AcDbEntity
  8
10
100
AcDbLine
 10
2638.211502756228
 20
1651.542134840559
 30
0.0
 11
2638.211502756228
 21
1629.542134840558
 31
0.0
  0
LINE
  5
267C
330
1F
100
AcDbEntity
  8
10
100
AcDbLine
 10
2629.211502756228
 20
1629.542134840558
 30
0.0
 11
2629.211502756228
 21
1651.542134840559
 31
0.0
  0
LINE
  5
267D
330
1F
100
AcDbEntity
  8
10
100
AcDbLine
 10
2635.211502756227
 20
1629.542134840558
 30
0.0
 11
2635.211502756227
 21
1651.542134840559
 31
0.0
  0
ARC
  5
267E
330
1F
100
AcDbEntity
  8
10
100
AcDbCircle
 10
2630.711502756228
 20
1629.542134840558
 30
0.0
 40
1.500000000000019
100
AcDbArc
 50
180.0
 51
0.0
  0
ARC
  5
267F
330
1F
100
AcDbEntity
  8
10
100
AcDbCircle
 10
2636.711502756228
 20
1629.542134840558
 30
0.0
 40
1.499999999999984
100
AcDbArc
 50
180.0
 51
0.0
  0
ARC
  5
2680
330
1F
100
AcDbEntity
  8
10
100
AcDbCircle
 10
2630.711502756228
 20
1651.542134840559
 30
0.0
 40
1.499999999999984
100
AcDbArc
 50
0.0
 51
180.0
  0
ARC
  5
2681
330
1F
100
AcDbEntity
  8
10
100
AcDbCircle
 10
2636.711502756228
 20
1651.542134840559
 30
0.0
 40
1.500000000000019
100
AcDbArc
 50
0.0
 51
180.0
  0
ARC
  5
2682
330
1F
100
AcDbEntity
  8
10
100
AcDbCircle
 10
2624.711502756228
 20
1681.542134840559
 30
0.0
 40
1.499999999999984
100
AcDbArc
 50
0.0
 51
180.0
  0
ARC
  5
2683
330
1F
100
AcDbEntity
  8
10
100
AcDbCircle
 10
2624.711502756228
 20
1689.542134840559
 30
0.0
 40
1.499999999999984
100
AcDbArc
 50
180.0
 51
0.0
  0
ARC
  5
2684
330
1F
100
AcDbEntity
  8
10
100
AcDbCircle
 10
2624.711502756228
 20
1659.542134840559
 30
0.0
 40
1.499999999999984
100
AcDbArc
 50
180.0
 51
0.0
  0
ARC
  5
2685
330
1F
100
AcDbEntity
  8
10
100
AcDbCircle
 10
2612.711502756227
 20
1681.542134840559
 30
0.0
 40
1.499999999999984
100
AcDbArc
 50
0.0
 51
180.0
  0
ARC
  5
2686
330
1F
100
AcDbEntity
  8
10
100
AcDbCircle
 10
2618.711502756227
 20
1681.542134840559
 30
0.0
 40
1.500000000000019
100
AcDbArc
 50
0.0
 51
180.0
  0
ARC
  5
2687
330
1F
100
AcDbEntity
  8
10
100
AcDbCircle
 10
2612.711502756227
 20
1689.542134840559
 30
0.0
 40
1.500000000000019
100
AcDbArc
 50
180.0
 51
0.0
  0
ARC
  5
2688
330
1F
100
AcDbEntity
  8
10
100
AcDbCircle
 10
2618.711502756227
 20
1689.542134840559
 30
0.0
 40
1.499999999999984
100
AcDbArc
 50
180.0
 51
0.0
  0
ARC
  5
2689
330
1F
100
AcDbEntity
  8
10
100
AcDbCircle
 10
2612.711502756227
 20
1659.542134840559
 30
0.0
 40
1.500000000000019
100
AcDbArc
 50
180.0
 51
0.0
  0
ARC
  5
268A
330
1F
100
AcDbEntity
  8
10
100
AcDbCircle
 10
2618.711502756227
 20
1659.542134840559
 30
0.0
 40
1.499999999999984
100
AcDbArc
 50
180.0
 51
0.0
  0
LINE
  5
268B
330
1F
100
AcDbEntity
  8
10
100
AcDbLine
 10
2611.211502756228
 20
1659.542134840559
 30
0.0
 11
2611.211502756228
 21
1681.542134840559
 31
0.0
  0
LINE
  5
268C
330
1F
100
AcDbEntity
  8
10
100
AcDbLine
 10
2623.211502756228
 20
1659.542134840559
 30
0.0
 11
2623.211502756228
 21
1681.542134840559
 31
0.0
  0
LINE
  5
268D
330
1F
100
AcDbEntity
  8
10
100
AcDbLine
 10
2617.211502756228
 20
1659.542134840559
 30
0.0
 11
2617.211502756228
 21
1681.542134840559
 31
0.0
  0
LINE
  5
268E
330
1F
100
AcDbEntity
  8
10
100
AcDbLine
 10
2614.211502756228
 20
1681.542134840559
 30
0.0
 11
2614.211502756228
 21
1659.542134840559
 31
0.0
  0
LINE
  5
268F
330
1F
100
AcDbEntity
  8
10
100
AcDbLine
 10
2620.211502756228
 20
1681.542134840559
 30
0.0
 11
2620.211502756228
 21
1659.542134840559
 31
0.0
  0
ARC
  5
2690
330
1F
100
AcDbEntity
  8
10
100
AcDbCircle
 10
2636.711502756228
 20
1681.542134840559
 30
0.0
 40
1.500000000000019
100
AcDbArc
 50
0.0
 51
180.0
  0
ARC
  5
2691
330
1F
100
AcDbEntity
  8
10
100
AcDbCircle
 10
2630.711502756228
 20
1681.542134840559
 30
0.0
 40
1.499999999999984
100
AcDbArc
 50
0.0
 51
180.0
  0
ARC
  5
2692
330
1F
100
AcDbEntity
  8
10
100
AcDbCircle
 10
2636.711502756228
 20
1689.542134840559
 30
0.0
 40
1.499999999999984
100
AcDbArc
 50
180.0
 51
0.0
  0
ARC
  5
2693
330
1F
100
AcDbEntity
  8
10
100
AcDbCircle
 10
2630.711502756228
 20
1689.542134840559
 30
0.0
 40
1.500000000000019
100
AcDbArc
 50
180.0
 51
0.0
  0
ARC
  5
2694
330
1F
100
AcDbEntity
  8
10
100
AcDbCircle
 10
2636.711502756228
 20
1659.542134840559
 30
0.0
 40
1.499999999999984
100
AcDbArc
 50
180.0
 51
0.0
  0
ARC
  5
2695
330
1F
100
AcDbEntity
  8
10
100
AcDbCircle
 10
2630.711502756228
 20
1659.542134840559
 30
0.0
 40
1.500000000000019
100
AcDbArc
 50
180.0
 51
0.0
  0
LINE
  5
2696
330
1F
100
AcDbEntity
  8
10
100
AcDbLine
 10
2635.211502756227
 20
1659.542134840559
 30
0.0
 11
2635.211502756227
 21
1681.542134840559
 31
0.0
  0
LINE
  5
2697
330
1F
100
AcDbEntity
  8
10
100
AcDbLine
 10
2629.211502756228
 20
1659.542134840559
 30
0.0
 11
2629.211502756228
 21
1681.542134840559
 31
0.0
  0
LINE
  5
2698
330
1F
100
AcDbEntity
  8
10
100
AcDbLine
 10
2638.211502756228
 20
1681.542134840559
 30
0.0
 11
2638.211502756228
 21
1659.542134840559
 31
0.0
  0
LINE
  5
2699
330
1F
100
AcDbEntity
  8
10
100
AcDbLine
 10
2632.211502756228
 20
1681.542134840559
 30
0.0
 11
2632.211502756228
 21
1659.542134840559
 31
0.0
  0
LINE
  5
269A
330
1F
100
AcDbEntity
  8
10
100
AcDbLine
 10
2626.211502756227
 20
1681.542134840559
 30
0.0
 11
2626.211502756227
 21
1659.542134840559
 31
0.0
  0
ARC
  5
269B
330
1F
100
AcDbEntity
  8
10
100
AcDbCircle
 10
2654.711502756228
 20
1629.542134840558
 30
0.0
 40
1.499999999999984
100
AcDbArc
 50
180.0
 51
0.0
  0
ARC
  5
269C
330
1F
100
AcDbEntity
  8
10
100
AcDbCircle
 10
2654.711502756228
 20
1651.542134840559
 30
0.0
 40
1.499999999999984
100
AcDbArc
 50
0.0
 51
180.0
  0
LINE
  5
269D
330
1F
100
AcDbEntity
  8
10
100
AcDbLine
 10
2644.211502756228
 20
1651.542134840559
 30
0.0
 11
2644.211502756228
 21
1629.542134840558
 31
0.0
  0
LINE
  5
269E
330
1F
100
AcDbEntity
  8
10
100
AcDbLine
 10
2650.211502756227
 20
1651.542134840559
 30
0.0
 11
2650.211502756227
 21
1629.542134840558
 31
0.0
  0
LINE
  5
269F
330
1F
100
AcDbEntity
  8
10
100
AcDbLine
 10
2641.211502756227
 20
1629.542134840558
 30
0.0
 11
2641.211502756227
 21
1651.542134840559
 31
0.0
  0
LINE
  5
26A0
330
1F
100
AcDbEntity
  8
10
100
AcDbLine
 10
2647.211502756228
 20
1629.542134840558
 30
0.0
 11
2647.211502756228
 21
1651.542134840559
 31
0.0
  0
LINE
  5
26A1
330
1F
100
AcDbEntity
  8
10
100
AcDbLine
 10
2653.211502756228
 20
1629.542134840558
 30
0.0
 11
2653.211502756228
 21
1651.542134840559
 31
0.0
  0
ARC
  5
26A2
330
1F
100
AcDbEntity
  8
10
100
AcDbCircle
 10
2642.711502756228
 20
1629.542134840558
 30
0.0
 40
1.500000000000019
100
AcDbArc
 50
180.0
 51
0.0
  0
ARC
  5
26A3
330
1F
100
AcDbEntity
  8
10
100
AcDbCircle
 10
2648.711502756228
 20
1629.542134840558
 30
0.0
 40
1.499999999999984
100
AcDbArc
 50
180.0
 51
0.0
  0
ARC
  5
26A4
330
1F
100
AcDbEntity
  8
10
100
AcDbCircle
 10
2642.711502756228
 20
1651.542134840559
 30
0.0
 40
1.499999999999984
100
AcDbArc
 50
0.0
 51
180.0
  0
ARC
  5
26A5
330
1F
100
AcDbEntity
  8
10
100
AcDbCircle
 10
2648.711502756228
 20
1651.542134840559
 30
0.0
 40
1.500000000000019
100
AcDbArc
 50
0.0
 51
180.0
  0
LINE
  5
26A6
330
1F
100
AcDbEntity
  8
10
100
AcDbLine
 10
2656.211502756228
 20
1651.542134840559
 30
0.0
 11
2656.211502756228
 21
1629.542134840558
 31
0.0
  0
ARC
  5
26A7
330
1F
100
AcDbEntity
  8
10
100
AcDbCircle
 10
2654.711502756228
 20
1681.542134840559
 30
0.0
 40
1.499999999999984
100
AcDbArc
 50
0.0
 51
180.0
  0
ARC
  5
26A8
330
1F
100
AcDbEntity
  8
10
100
AcDbCircle
 10
2654.711502756228
 20
1689.542134840559
 30
0.0
 40
1.499999999999984
100
AcDbArc
 50
180.0
 51
0.0
  0
ARC
  5
26A9
330
1F
100
AcDbEntity
  8
10
100
AcDbCircle
 10
2654.711502756228
 20
1659.542134840559
 30
0.0
 40
1.499999999999984
100
AcDbArc
 50
180.0
 51
0.0
  0
ARC
  5
26AA
330
1F
100
AcDbEntity
  8
10
100
AcDbCircle
 10
2648.711502756228
 20
1681.542134840559
 30
0.0
 40
1.500000000000019
100
AcDbArc
 50
0.0
 51
180.0
  0
ARC
  5
26AB
330
1F
100
AcDbEntity
  8
10
100
AcDbCircle
 10
2642.711502756228
 20
1681.542134840559
 30
0.0
 40
1.499999999999984
100
AcDbArc
 50
0.0
 51
180.0
  0
ARC
  5
26AC
330
1F
100
AcDbEntity
  8
10
100
AcDbCircle
 10
2648.711502756228
 20
1689.542134840559
 30
0.0
 40
1.499999999999984
100
AcDbArc
 50
180.0
 51
0.0
  0
ARC
  5
26AD
330
1F
100
AcDbEntity
  8
10
100
AcDbCircle
 10
2642.711502756228
 20
1689.542134840559
 30
0.0
 40
1.500000000000019
100
AcDbArc
 50
180.0
 51
0.0
  0
ARC
  5
26AE
330
1F
100
AcDbEntity
  8
10
100
AcDbCircle
 10
2648.711502756228
 20
1659.542134840559
 30
0.0
 40
1.499999999999984
100
AcDbArc
 50
180.0
 51
0.0
  0
ARC
  5
26AF
330
1F
100
AcDbEntity
  8
10
100
AcDbCircle
 10
2642.711502756228
 20
1659.542134840559
 30
0.0
 40
1.500000000000019
100
AcDbArc
 50
180.0
 51
0.0
  0
LINE
  5
26B0
330
1F
100
AcDbEntity
  8
10
100
AcDbLine
 10
2653.211502756228
 20
1659.542134840559
 30
0.0
 11
2653.211502756228
 21
1681.542134840559
 31
0.0
  0
LINE
  5
26B1
330
1F
100
AcDbEntity
  8
10
100
AcDbLine
 10
2647.211502756228
 20
1659.542134840559
 30
0.0
 11
2647.211502756228
 21
1681.542134840559
 31
0.0
  0
LINE
  5
26B2
330
1F
100
AcDbEntity
  8
10
100
AcDbLine
 10
2641.211502756227
 20
1659.542134840559
 30
0.0
 11
2641.211502756227
 21
1681.542134840559
 31
0.0
  0
LINE
  5
26B3
330
1F
100
AcDbEntity
  8
10
100
AcDbLine
 10
2650.211502756227
 20
1681.542134840559
 30
0.0
 11
2650.211502756227
 21
1659.542134840559
 31
0.0
  0
LINE
  5
26B4
330
1F
100
AcDbEntity
  8
10
100
AcDbLine
 10
2644.211502756228
 20
1681.542134840559
 30
0.0
 11
2644.211502756228
 21
1659.542134840559
 31
0.0
  0
LINE
  5
26B5
330
1F
100
AcDbEntity
  8
10
100
AcDbLine
 10
2656.211502756228
 20
1681.542134840559
 30
0.0
 11
2656.211502756228
 21
1659.542134840559
 31
0.0
  0
ARC
  5
26B6
330
1F
100
AcDbEntity
  8
10
100
AcDbCircle
 10
2624.711502756228
 20
1711.542134840559
 30
0.0
 40
1.499999999999984
100
AcDbArc
 50
0.0
 51
180.0
  0
ARC
  5
26B7
330
1F
100
AcDbEntity
  8
10
100
AcDbCircle
 10
2624.711502756228
 20
1719.542134840559
 30
0.0
 40
1.499999999999984
100
AcDbArc
 50
180.0
 51
0.0
  0
ARC
  5
26B8
330
1F
100
AcDbEntity
  8
10
100
AcDbCircle
 10
2624.711502756228
 20
1741.542134840559
 30
0.0
 40
1.499999999999984
100
AcDbArc
 50
0.0
 51
180.0
  0
ARC
  5
26B9
330
1F
100
AcDbEntity
  8
10
100
AcDbCircle
 10
2612.711502756227
 20
1711.542134840559
 30
0.0
 40
1.499999999999984
100
AcDbArc
 50
0.0
 51
180.0
  0
ARC
  5
26BA
330
1F
100
AcDbEntity
  8
10
100
AcDbCircle
 10
2618.711502756227
 20
1711.542134840559
 30
0.0
 40
1.500000000000019
100
AcDbArc
 50
0.0
 51
180.0
  0
ARC
  5
26BB
330
1F
100
AcDbEntity
  8
10
100
AcDbCircle
 10
2612.711502756227
 20
1719.542134840559
 30
0.0
 40
1.500000000000019
100
AcDbArc
 50
180.0
 51
0.0
  0
LINE
  5
26BC
330
1F
100
AcDbEntity
  8
10
100
AcDbLine
 10
2611.211502756228
 20
1719.542134840559
 30
0.0
 11
2611.211502756228
 21
1741.542134840559
 31
0.0
  0
LINE
  5
26BD
330
1F
100
AcDbEntity
  8
10
100
AcDbLine
 10
2614.211502756228
 20
1741.542134840559
 30
0.0
 11
2614.211502756228
 21
1719.542134840559
 31
0.0
  0
LINE
  5
26BE
330
1F
100
AcDbEntity
  8
10
100
AcDbLine
 10
2623.211502756228
 20
1719.542134840559
 30
0.0
 11
2623.211502756228
 21
1741.542134840559
 31
0.0
  0
LINE
  5
26BF
330
1F
100
AcDbEntity
  8
10
100
AcDbLine
 10
2617.211502756228
 20
1719.542134840559
 30
0.0
 11
2617.211502756228
 21
1741.542134840559
 31
0.0
  0
LINE
  5
26C0
330
1F
100
AcDbEntity
  8
10
100
AcDbLine
 10
2620.211502756228
 20
1741.542134840559
 30
0.0
 11
2620.211502756228
 21
1719.542134840559
 31
0.0
  0
ARC
  5
26C1
330
1F
100
AcDbEntity
  8
10
100
AcDbCircle
 10
2618.711502756227
 20
1719.542134840559
 30
0.0
 40
1.499999999999984
100
AcDbArc
 50
180.0
 51
0.0
  0
ARC
  5
26C2
330
1F
100
AcDbEntity
  8
10
100
AcDbCircle
 10
2612.711502756227
 20
1741.542134840559
 30
0.0
 40
1.499999999999984
100
AcDbArc
 50
0.0
 51
180.0
  0
ARC
  5
26C3
330
1F
100
AcDbEntity
  8
10
100
AcDbCircle
 10
2618.711502756227
 20
1741.542134840559
 30
0.0
 40
1.500000000000019
100
AcDbArc
 50
0.0
 51
180.0
  0
ARC
  5
26C4
330
1F
100
AcDbEntity
  8
10
100
AcDbCircle
 10
2636.711502756228
 20
1711.542134840559
 30
0.0
 40
1.500000000000019
100
AcDbArc
 50
0.0
 51
180.0
  0
ARC
  5
26C5
330
1F
100
AcDbEntity
  8
10
100
AcDbCircle
 10
2630.711502756228
 20
1711.542134840559
 30
0.0
 40
1.499999999999984
100
AcDbArc
 50
0.0
 51
180.0
  0
LINE
  5
26C6
330
1F
100
AcDbEntity
  8
10
100
AcDbLine
 10
2635.211502756227
 20
1719.542134840559
 30
0.0
 11
2635.211502756227
 21
1741.542134840559
 31
0.0
  0
LINE
  5
26C7
330
1F
100
AcDbEntity
  8
10
100
AcDbLine
 10
2638.211502756228
 20
1741.542134840559
 30
0.0
 11
2638.211502756228
 21
1719.542134840559
 31
0.0
  0
ARC
  5
26C8
330
1F
100
AcDbEntity
  8
10
100
AcDbCircle
 10
2636.711502756228
 20
1719.542134840559
 30
0.0
 40
1.499999999999984
100
AcDbArc
 50
180.0
 51
0.0
  0
LINE
  5
26C9
330
1F
100
AcDbEntity
  8
10
100
AcDbLine
 10
2629.211502756228
 20
1719.542134840559
 30
0.0
 11
2629.211502756228
 21
1741.542134840559
 31
0.0
  0
LINE
  5
26CA
330
1F
100
AcDbEntity
  8
10
100
AcDbLine
 10
2632.211502756228
 20
1741.542134840559
 30
0.0
 11
2632.211502756228
 21
1719.542134840559
 31
0.0
  0
ARC
  5
26CB
330
1F
100
AcDbEntity
  8
10
100
AcDbCircle
 10
2630.711502756228
 20
1719.542134840559
 30
0.0
 40
1.500000000000019
100
AcDbArc
 50
180.0
 51
0.0
  0
LINE
  5
26CC
330
1F
100
AcDbEntity
  8
10
100
AcDbLine
 10
2626.211502756227
 20
1741.542134840559
 30
0.0
 11
2626.211502756227
 21
1719.542134840559
 31
0.0
  0
ARC
  5
26CD
330
1F
100
AcDbEntity
  8
10
100
AcDbCircle
 10
2636.711502756228
 20
1741.542134840559
 30
0.0
 40
1.500000000000019
100
AcDbArc
 50
0.0
 51
180.0
  0
ARC
  5
26CE
330
1F
100
AcDbEntity
  8
10
100
AcDbCircle
 10
2630.711502756228
 20
1741.542134840559
 30
0.0
 40
1.499999999999984
100
AcDbArc
 50
0.0
 51
180.0
  0
ARC
  5
26CF
330
1F
100
AcDbEntity
  8
10
100
AcDbCircle
 10
2624.711502756228
 20
1749.542134840559
 30
0.0
 40
1.499999999999984
100
AcDbArc
 50
180.0
 51
0.0
  0
ARC
  5
26D0
330
1F
100
AcDbEntity
  8
10
100
AcDbCircle
 10
2624.711502756227
 20
1779.542134840559
 30
0.0
 40
1.499999999999984
100
AcDbArc
 50
180.0
 51
0.0
  0
ARC
  5
26D1
330
1F
100
AcDbEntity
  8
10
100
AcDbCircle
 10
2624.711502756227
 20
1771.542134840559
 30
0.0
 40
1.500000000000019
100
AcDbArc
 50
0.0
 51
180.0
  0
ARC
  5
26D2
330
1F
100
AcDbEntity
  8
10
100
AcDbCircle
 10
2618.711502756227
 20
1749.542134840559
 30
0.0
 40
1.499999999999984
100
AcDbArc
 50
180.0
 51
0.0
  0
ARC
  5
26D3
330
1F
100
AcDbEntity
  8
10
100
AcDbCircle
 10
2618.711502756227
 20
1779.542134840559
 30
0.0
 40
1.500000000000019
100
AcDbArc
 50
180.0
 51
0.0
  0
LINE
  5
26D4
330
1F
100
AcDbEntity
  8
10
100
AcDbLine
 10
2620.211502756228
 20
1771.542134840559
 30
0.0
 11
2620.211502756228
 21
1749.542134840559
 31
0.0
  0
LINE
  5
26D5
330
1F
100
AcDbEntity
  8
10
100
AcDbLine
 10
2617.211502756228
 20
1749.542134840559
 30
0.0
 11
2617.211502756227
 21
1771.542134840559
 31
0.0
  0
ARC
  5
26D6
330
1F
100
AcDbEntity
  8
10
100
AcDbCircle
 10
2618.711502756227
 20
1771.542134840559
 30
0.0
 40
1.499999999999984
100
AcDbArc
 50
0.0
 51
180.0
  0
LINE
  5
26D7
330
1F
100
AcDbEntity
  8
10
100
AcDbLine
 10
2623.211502756228
 20
1749.542134840559
 30
0.0
 11
2623.211502756227
 21
1771.542134840559
 31
0.0
  0
ARC
  5
26D8
330
1F
100
AcDbEntity
  8
10
100
AcDbCircle
 10
2612.711502756227
 20
1779.542134840559
 30
0.0
 40
1.499999999999984
100
AcDbArc
 50
180.0
 51
0.0
  0
LINE
  5
26D9
330
1F
100
AcDbEntity
  8
10
100
AcDbLine
 10
2614.211502756227
 20
1771.542134840559
 30
0.0
 11
2614.211502756228
 21
1749.542134840559
 31
0.0
  0
LINE
  5
26DA
330
1F
100
AcDbEntity
  8
10
100
AcDbLine
 10
2611.211502756228
 20
1749.542134840559
 30
0.0
 11
2611.211502756228
 21
1771.542134840559
 31
0.0
  0
ARC
  5
26DB
330
1F
100
AcDbEntity
  8
10
100
AcDbCircle
 10
2612.711502756227
 20
1771.542134840559
 30
0.0
 40
1.499999999999984
100
AcDbArc
 50
0.0
 51
180.0
  0
ARC
  5
26DC
330
1F
100
AcDbEntity
  8
10
100
AcDbCircle
 10
2612.711502756227
 20
1749.542134840559
 30
0.0
 40
1.500000000000019
100
AcDbArc
 50
180.0
 51
0.0
  0
LINE
  5
26DD
330
1F
100
AcDbEntity
  8
10
100
AcDbLine
 10
2626.211502756227
 20
1771.542134840559
 30
0.0
 11
2626.211502756227
 21
1749.542134840559
 31
0.0
  0
ARC
  5
26DE
330
1F
100
AcDbEntity
  8
10
100
AcDbCircle
 10
2630.711502756228
 20
1749.542134840559
 30
0.0
 40
1.500000000000019
100
AcDbArc
 50
180.0
 51
0.0
  0
ARC
  5
26DF
330
1F
100
AcDbEntity
  8
10
100
AcDbCircle
 10
2630.711502756227
 20
1779.542134840559
 30
0.0
 40
1.500000000000019
100
AcDbArc
 50
180.0
 51
0.0
  0
LINE
  5
26E0
330
1F
100
AcDbEntity
  8
10
100
AcDbLine
 10
2632.211502756227
 20
1771.542134840559
 30
0.0
 11
2632.211502756228
 21
1749.542134840559
 31
0.0
  0
LINE
  5
26E1
330
1F
100
AcDbEntity
  8
10
100
AcDbLine
 10
2629.211502756228
 20
1749.542134840559
 30
0.0
 11
2629.211502756227
 21
1771.542134840559
 31
0.0
  0
ARC
  5
26E2
330
1F
100
AcDbEntity
  8
10
100
AcDbCircle
 10
2630.711502756227
 20
1771.542134840559
 30
0.0
 40
1.499999999999984
100
AcDbArc
 50
0.0
 51
180.0
  0
ARC
  5
26E3
330
1F
100
AcDbEntity
  8
10
100
AcDbCircle
 10
2636.711502756228
 20
1749.542134840559
 30
0.0
 40
1.499999999999984
100
AcDbArc
 50
180.0
 51
0.0
  0
ARC
  5
26E4
330
1F
100
AcDbEntity
  8
10
100
AcDbCircle
 10
2636.711502756227
 20
1779.542134840559
 30
0.0
 40
1.499999999999984
100
AcDbArc
 50
180.0
 51
0.0
  0
LINE
  5
26E5
330
1F
100
AcDbEntity
  8
10
100
AcDbLine
 10
2638.211502756227
 20
1771.542134840559
 30
0.0
 11
2638.211502756228
 21
1749.542134840559
 31
0.0
  0
LINE
  5
26E6
330
1F
100
AcDbEntity
  8
10
100
AcDbLine
 10
2635.211502756227
 20
1749.542134840559
 30
0.0
 11
2635.211502756227
 21
1771.542134840559
 31
0.0
  0
ARC
  5
26E7
330
1F
100
AcDbEntity
  8
10
100
AcDbCircle
 10
2636.711502756227
 20
1771.542134840559
 30
0.0
 40
1.500000000000019
100
AcDbArc
 50
0.0
 51
180.0
  0
ARC
  5
26E8
330
1F
100
AcDbEntity
  8
10
100
AcDbCircle
 10
2654.711502756228
 20
1711.542134840559
 30
0.0
 40
1.499999999999984
100
AcDbArc
 50
0.0
 51
180.0
  0
ARC
  5
26E9
330
1F
100
AcDbEntity
  8
10
100
AcDbCircle
 10
2654.711502756228
 20
1719.542134840559
 30
0.0
 40
1.499999999999984
100
AcDbArc
 50
180.0
 51
0.0
  0
ARC
  5
26EA
330
1F
100
AcDbEntity
  8
10
100
AcDbCircle
 10
2654.711502756228
 20
1741.542134840559
 30
0.0
 40
1.499999999999984
100
AcDbArc
 50
0.0
 51
180.0
  0
ARC
  5
26EB
330
1F
100
AcDbEntity
  8
10
100
AcDbCircle
 10
2648.711502756228
 20
1711.542134840559
 30
0.0
 40
1.500000000000019
100
AcDbArc
 50
0.0
 51
180.0
  0
ARC
  5
26EC
330
1F
100
AcDbEntity
  8
10
100
AcDbCircle
 10
2642.711502756228
 20
1711.542134840559
 30
0.0
 40
1.499999999999984
100
AcDbArc
 50
0.0
 51
180.0
  0
LINE
  5
26ED
330
1F
100
AcDbEntity
  8
10
100
AcDbLine
 10
2641.211502756227
 20
1719.542134840559
 30
0.0
 11
2641.211502756227
 21
1741.542134840559
 31
0.0
  0
LINE
  5
26EE
330
1F
100
AcDbEntity
  8
10
100
AcDbLine
 10
2644.211502756228
 20
1741.542134840559
 30
0.0
 11
2644.211502756228
 21
1719.542134840559
 31
0.0
  0
ARC
  5
26EF
330
1F
100
AcDbEntity
  8
10
100
AcDbCircle
 10
2642.711502756228
 20
1719.542134840559
 30
0.0
 40
1.500000000000019
100
AcDbArc
 50
180.0
 51
0.0
  0
ARC
  5
26F0
330
1F
100
AcDbEntity
  8
10
100
AcDbCircle
 10
2648.711502756228
 20
1719.542134840559
 30
0.0
 40
1.499999999999984
100
AcDbArc
 50
180.0
 51
0.0
  0
LINE
  5
26F1
330
1F
100
AcDbEntity
  8
10
100
AcDbLine
 10
2647.211502756228
 20
1719.542134840559
 30
0.0
 11
2647.211502756228
 21
1741.542134840559
 31
0.0
  0
LINE
  5
26F2
330
1F
100
AcDbEntity
  8
10
100
AcDbLine
 10
2650.211502756227
 20
1741.542134840559
 30
0.0
 11
2650.211502756227
 21
1719.542134840559
 31
0.0
  0
LINE
  5
26F3
330
1F
100
AcDbEntity
  8
10
100
AcDbLine
 10
2653.211502756228
 20
1719.542134840559
 30
0.0
 11
2653.211502756228
 21
1741.542134840559
 31
0.0
  0
ARC
  5
26F4
330
1F
100
AcDbEntity
  8
10
100
AcDbCircle
 10
2642.711502756228
 20
1741.542134840559
 30
0.0
 40
1.499999999999984
100
AcDbArc
 50
0.0
 51
180.0
  0
ARC
  5
26F5
330
1F
100
AcDbEntity
  8
10
100
AcDbCircle
 10
2648.711502756228
 20
1741.542134840559
 30
0.0
 40
1.500000000000019
100
AcDbArc
 50
0.0
 51
180.0
  0
LINE
  5
26F6
330
1F
100
AcDbEntity
  8
10
100
AcDbLine
 10
2656.211502756228
 20
1741.542134840559
 30
0.0
 11
2656.211502756228
 21
1719.542134840559
 31
0.0
  0
ARC
  5
26F7
330
1F
100
AcDbEntity
  8
10
100
AcDbCircle
 10
2654.711502756228
 20
1771.542134840559
 30
0.0
 40
1.500000000000019
100
AcDbArc
 50
0.0
 51
180.0
  0
ARC
  5
26F8
330
1F
100
AcDbEntity
  8
10
100
AcDbCircle
 10
2654.711502756228
 20
1749.542134840559
 30
0.0
 40
1.499999999999984
100
AcDbArc
 50
180.0
 51
0.0
  0
ARC
  5
26F9
330
1F
100
AcDbEntity
  8
10
100
AcDbCircle
 10
2654.711502756228
 20
1779.542134840559
 30
0.0
 40
1.499999999999984
100
AcDbArc
 50
180.0
 51
0.0
  0
LINE
  5
26FA
330
1F
100
AcDbEntity
  8
10
100
AcDbLine
 10
2653.211502756228
 20
1749.542134840559
 30
0.0
 11
2653.211502756227
 21
1771.542134840559
 31
0.0
  0
ARC
  5
26FB
330
1F
100
AcDbEntity
  8
10
100
AcDbCircle
 10
2648.711502756228
 20
1771.542134840559
 30
0.0
 40
1.499999999999984
100
AcDbArc
 50
0.0
 51
180.0
  0
LINE
  5
26FC
330
1F
100
AcDbEntity
  8
10
100
AcDbLine
 10
2650.211502756227
 20
1771.542134840559
 30
0.0
 11
2650.211502756227
 21
1749.542134840559
 31
0.0
  0
LINE
  5
26FD
330
1F
100
AcDbEntity
  8
10
100
AcDbLine
 10
2647.211502756228
 20
1749.542134840559
 30
0.0
 11
2647.211502756228
 21
1771.542134840559
 31
0.0
  0
ARC
  5
26FE
330
1F
100
AcDbEntity
  8
10
100
AcDbCircle
 10
2648.711502756228
 20
1749.542134840559
 30
0.0
 40
1.499999999999984
100
AcDbArc
 50
180.0
 51
0.0
  0
ARC
  5
26FF
330
1F
100
AcDbEntity
  8
10
100
AcDbCircle
 10
2648.711502756228
 20
1779.542134840559
 30
0.0
 40
1.500000000000019
100
AcDbArc
 50
180.0
 51
0.0
  0
ARC
  5
2700
330
1F
100
AcDbEntity
  8
10
100
AcDbCircle
 10
2642.711502756228
 20
1749.542134840559
 30
0.0
 40
1.500000000000019
100
AcDbArc
 50
180.0
 51
0.0
  0
ARC
  5
2701
330
1F
100
AcDbEntity
  8
10
100
AcDbCircle
 10
2642.711502756228
 20
1779.542134840559
 30
0.0
 40
1.499999999999984
100
AcDbArc
 50
180.0
 51
0.0
  0
LINE
  5
2702
330
1F
100
AcDbEntity
  8
10
100
AcDbLine
 10
2644.211502756228
 20
1771.542134840559
 30
0.0
 11
2644.211502756228
 21
1749.542134840559
 31
0.0
  0
LINE
  5
2703
330
1F
100
AcDbEntity
  8
10
100
AcDbLine
 10
2641.211502756227
 20
1749.542134840559
 30
0.0
 11
2641.211502756227
 21
1771.542134840559
 31
0.0
  0
ARC
  5
2704
330
1F
100
AcDbEntity
  8
10
100
AcDbCircle
 10
2642.711502756228
 20
1771.542134840559
 30
0.0
 40
1.499999999999984
100
AcDbArc
 50
0.0
 51
180.0
  0
LINE
  5
2705
330
1F
100
AcDbEntity
  8
10
100
AcDbLine
 10
2656.211502756228
 20
1771.542134840559
 30
0.0
 11
2656.211502756228
 21
1749.542134840559
 31
0.0
  0
LINE
  5
2706
330
1F
100
AcDbEntity
  8
10
100
AcDbLine
 10
2788.711502756227
 20
1520.542134840559
 30
0.0
 11
2778.711502756227
 21
1520.542134840559
 31
0.0
  0
LINE
  5
2707
330
1F
100
AcDbEntity
  8
10
100
AcDbLine
 10
2788.711502756227
 20
1455.542134840559
 30
0.0
 11
2778.711502756227
 21
1455.542134840559
 31
0.0
  0
LINE
  5
2708
330
1F
100
AcDbEntity
  8
10
100
AcDbLine
 10
2760.711502756228
 20
1520.542134840559
 30
0.0
 11
2750.711502756228
 21
1520.542134840559
 31
0.0
  0
LINE
  5
2709
330
1F
100
AcDbEntity
  8
10
100
AcDbLine
 10
2760.711502756228
 20
1455.542134840559
 30
0.0
 11
2750.711502756228
 21
1455.542134840559
 31
0.0
  0
LINE
  5
270A
330
1F
100
AcDbEntity
  8
10
100
AcDbLine
 10
2746.711502756228
 20
1520.542134840559
 30
0.0
 11
2746.711502756228
 21
1455.542134840559
 31
0.0
  0
LINE
  5
270B
330
1F
100
AcDbEntity
  8
10
100
AcDbLine
 10
2736.711502756228
 20
1520.542134840559
 30
0.0
 11
2736.711502756228
 21
1455.542134840559
 31
0.0
  0
LINE
  5
270C
330
1F
100
AcDbEntity
  8
10
100
AcDbLine
 10
2750.711502756228
 20
1520.542134840559
 30
0.0
 11
2750.711502756228
 21
1455.542134840559
 31
0.0
  0
LINE
  5
270D
330
1F
100
AcDbEntity
  8
10
100
AcDbLine
 10
2746.711502756228
 20
1455.542134840559
 30
0.0
 11
2736.711502756228
 21
1455.542134840559
 31
0.0
  0
LINE
  5
270E
330
1F
100
AcDbEntity
  8
10
100
AcDbLine
 10
2746.711502756228
 20
1520.542134840559
 30
0.0
 11
2736.711502756228
 21
1520.542134840559
 31
0.0
  0
LINE
  5
270F
330
1F
100
AcDbEntity
  8
10
100
AcDbLine
 10
2760.711502756228
 20
1520.542134840559
 30
0.0
 11
2760.711502756228
 21
1455.542134840559
 31
0.0
  0
LINE
  5
2710
330
1F
100
AcDbEntity
  8
10
100
AcDbLine
 10
2764.711502756228
 20
1520.542134840559
 30
0.0
 11
2764.711502756228
 21
1455.542134840559
 31
0.0
  0
LINE
  5
2711
330
1F
100
AcDbEntity
  8
10
100
AcDbLine
 10
2774.711502756228
 20
1520.542134840559
 30
0.0
 11
2774.711502756228
 21
1455.542134840559
 31
0.0
  0
LINE
  5
2712
330
1F
100
AcDbEntity
  8
10
100
AcDbLine
 10
2778.711502756227
 20
1520.542134840559
 30
0.0
 11
2778.711502756227
 21
1455.542134840559
 31
0.0
  0
LINE
  5
2713
330
1F
100
AcDbEntity
  8
10
100
AcDbLine
 10
2774.711502756228
 20
1455.542134840559
 30
0.0
 11
2764.711502756228
 21
1455.542134840559
 31
0.0
  0
LINE
  5
2714
330
1F
100
AcDbEntity
  8
10
100
AcDbLine
 10
2774.711502756228
 20
1520.542134840559
 30
0.0
 11
2764.711502756228
 21
1520.542134840559
 31
0.0
  0
LINE
  5
2715
330
1F
100
AcDbEntity
  8
10
100
AcDbLine
 10
2788.711502756227
 20
1520.542134840559
 30
0.0
 11
2788.711502756227
 21
1455.542134840559
 31
0.0
  0
LINE
  5
2716
330
1F
100
AcDbEntity
  8
10
100
AcDbLine
 10
2560.711502756228
 20
1870.542134840559
 30
0.0
 11
2803.711502756227
 21
1870.542134840559
 31
0.0
  0
LINE
  5
2717
330
1F
100
AcDbEntity
  8
10
100
AcDbLine
 10
2559.511502756228
 20
1872.542134840559
 30
0.0
 11
2567.511502756227
 21
1872.542134840559
 31
0.0
  0
LINE
  5
2718
330
1F
100
AcDbEntity
  8
10
100
AcDbLine
 10
2560.711502756228
 20
1871.342134840559
 30
0.0
 11
2567.511502756227
 21
1871.342134840559
 31
0.0
  0
LINE
  5
2719
330
1F
100
AcDbEntity
  8
10
100
AcDbLine
 10
2556.911502756228
 20
1856.87180553171
 30
0.0
 11
2556.911502756228
 21
1860.212464149406
 31
0.0
  0
ARC
  5
271A
330
1F
100
AcDbEntity
  8
10
100
AcDbCircle
 10
2558.411502756228
 20
1856.87180553171
 30
0.0
 40
1.499999999999984
100
AcDbArc
 50
180.0
 51
236.63298703077
  0
ARC
  5
271B
330
1F
100
AcDbEntity
  8
10
100
AcDbCircle
 10
2558.411502756228
 20
1860.212464149406
 30
0.0
 40
1.500000000000043
100
AcDbArc
 50
123.3670129692354
 51
180.0
  0
ARC
  5
271C
330
1F
100
AcDbEntity
  8
10
100
AcDbCircle
 10
2558.411502756228
 20
1858.542134840559
 30
0.0
 40
1.499999999999984
100
AcDbArc
 50
180.0
 51
270.0
  0
LINE
  5
271D
330
1F
100
AcDbEntity
  8
10
100
AcDbLine
 10
2556.911502756228
 20
1858.542134840559
 30
0.0
 11
2556.911502756228
 21
1858.542134840559
 31
0.0
  0
ARC
  5
271E
330
1F
100
AcDbEntity
  8
10
100
AcDbCircle
 10
2558.411502756228
 20
1858.542134840559
 30
0.0
 40
1.500000000000054
100
AcDbArc
 50
90.0
 51
180.0
  0
LINE
  5
271F
330
1F
100
AcDbEntity
  8
10
100
AcDbLine
 10
2559.511502756228
 20
1862.042134840559
 30
0.0
 11
2559.511502756228
 21
1855.042134840559
 31
0.0
  0
ARC
  5
2720
330
1F
100
AcDbEntity
  8
10
100
AcDbCircle
 10
2559.511502756228
 20
1858.542134840559
 30
0.0
 40
3.500000000000085
100
AcDbArc
 50
90.0
 51
123.3670129692291
  0
ARC
  5
2721
330
1F
100
AcDbEntity
  8
10
100
AcDbCircle
 10
2559.511502756228
 20
1858.542134840559
 30
0.0
 40
3.500000000000003
100
AcDbArc
 50
236.6329870307708
 51
270.0
  0
LINE
  5
2722
330
1F
100
AcDbEntity
  8
10
100
AcDbLine
 10
2567.511502756227
 20
1872.542134840559
 30
0.0
 11
2567.511502756227
 21
1871.342134840559
 31
0.0
  0
LINE
  5
2723
330
1F
100
AcDbEntity
  8
10
100
AcDbLine
 10
2565.511502756228
 20
1872.542134840559
 30
0.0
 11
2565.511502756228
 21
1871.342134840559
 31
0.0
  0
ARC
  5
2724
330
1F
100
AcDbEntity
  8
10
100
AcDbCircle
 10
2606.711502756227
 20
1801.542134840559
 30
0.0
 40
1.500000000000019
100
AcDbArc
 50
0.0
 51
180.0
  0
ARC
  5
2725
330
1F
100
AcDbEntity
  8
10
100
AcDbCircle
 10
2600.711502756228
 20
1801.542134840559
 30
0.0
 40
1.499999999999984
100
AcDbArc
 50
0.0
 51
180.0
  0
LINE
  5
2726
330
1F
100
AcDbEntity
  8
12
 48
3.0
100
AcDbLine
 10
2656.511502756227
 20
1895.542134840559
 30
0.0
 11
2679.711502756228
 21
1895.542134840559
 31
0.0
  0
LINE
  5
2727
330
1F
100
AcDbEntity
  8
10
100
AcDbLine
 10
2666.511502756228
 20
1910.542134840559
 30
0.0
 11
2669.711502756228
 21
1910.542134840559
 31
0.0
  0
LINE
  5
2728
330
1F
100
AcDbEntity
  8
10
100
AcDbLine
 10
2669.711502756228
 20
1870.542134840559
 30
0.0
 11
2632.711502756228
 21
1870.542134840559
 31
0.0
  0
LINE
  5
2729
330
1F
100
AcDbEntity
  8
10
100
AcDbLine
 10
2648.464279505961
 20
1882.842134840559
 30
0.0
 11
2648.464279505961
 21
1877.342134840559
 31
0.0
  0
LINE
  5
272A
330
1F
100
AcDbEntity
  8
10
100
AcDbLine
 10
2640.958726006495
 20
1882.842134840559
 30
0.0
 11
2640.958726006495
 21
1877.342134840559
 31
0.0
  0
LINE
  5
272B
330
1F
100
AcDbEntity
  8
10
100
AcDbLine
 10
2652.217056255693
 20
1882.842134840559
 30
0.0
 11
2652.217056255693
 21
1877.342134840559
 31
0.0
  0
LINE
  5
272C
330
1F
100
AcDbEntity
  8
10
100
AcDbLine
 10
2637.205949256763
 20
1882.842134840559
 30
0.0
 11
2637.205949256763
 21
1877.342134840559
 31
0.0
  0
LINE
  5
272D
330
1F
100
AcDbEntity
  8
10
100
AcDbLine
 10
2666.511502756228
 20
1910.542134840559
 30
0.0
 11
2666.511502756228
 21
1873.742134840559
 31
0.0
  0
LINE
  5
272E
330
1F
100
AcDbEntity
  8
10
100
AcDbLine
 10
2658.386019356633
 20
1873.742134840559
 30
0.0
 11
2666.511502756228
 21
1881.867618240153
 31
0.0
  0
LINE
  5
272F
330
1F
100
AcDbEntity
  8
10
100
AcDbLine
 10
2652.411502756228
 20
1877.342134840559
 30
0.0
 11
2637.011502756227
 21
1877.342134840559
 31
0.0
  0
LINE
  5
2730
330
1F
100
AcDbEntity
  8
10
100
AcDbLine
 10
2653.711502756228
 20
1875.342134840559
 30
0.0
 11
2635.711502756228
 21
1875.342134840559
 31
0.0
  0
LINE
  5
2731
330
1F
100
AcDbEntity
  8
10
100
AcDbLine
 10
2635.711502756228
 20
1873.742134840559
 30
0.0
 11
2653.711502756228
 21
1873.742134840559
 31
0.0
  0
LINE
  5
2732
330
1F
100
AcDbEntity
  8
10
100
AcDbLine
 10
2632.711502756228
 20
1873.742134840559
 30
0.0
 11
2666.511502756228
 21
1873.742134840559
 31
0.0
  0
ARC
  5
2733
330
1F
100
AcDbEntity
  8
10
100
AcDbCircle
 10
2624.711502756227
 20
1801.542134840559
 30
0.0
 40
1.500000000000019
100
AcDbArc
 50
0.0
 51
180.0
  0
ARC
  5
2734
330
1F
100
AcDbEntity
  8
10
100
AcDbCircle
 10
2618.711502756227
 20
1801.542134840559
 30
0.0
 40
1.499999999999984
100
AcDbArc
 50
0.0
 51
180.0
  0
ARC
  5
2735
330
1F
100
AcDbEntity
  8
10
100
AcDbCircle
 10
2612.711502756227
 20
1801.542134840559
 30
0.0
 40
1.499999999999984
100
AcDbArc
 50
0.0
 51
180.0
  0
ARC
  5
2736
330
1F
100
AcDbEntity
  8
10
100
AcDbCircle
 10
2630.711502756227
 20
1801.542134840559
 30
0.0
 40
1.499999999999984
100
AcDbArc
 50
0.0
 51
180.0
  0
ARC
  5
2737
330
1F
100
AcDbEntity
  8
10
100
AcDbCircle
 10
2636.711502756227
 20
1801.542134840559
 30
0.0
 40
1.500000000000019
100
AcDbArc
 50
0.0
 51
180.0
  0
LINE
  5
2738
330
1F
100
AcDbEntity
  8
10
100
AcDbLine
 10
2637.011502756227
 20
1875.342134840559
 30
0.0
 11
2637.011502756227
 21
1877.342134840559
 31
0.0
  0
LINE
  5
2739
330
1F
100
AcDbEntity
  8
10
100
AcDbLine
 10
2635.711502756228
 20
1875.342134840559
 30
0.0
 11
2635.711502756228
 21
1873.742134840559
 31
0.0
  0
LINE
  5
273A
330
1F
100
AcDbEntity
  8
10
100
AcDbLine
 10
2632.711502756228
 20
1873.742134840559
 30
0.0
 11
2632.711502756228
 21
1870.542134840559
 31
0.0
  0
LINE
  5
273B
330
1F
100
AcDbEntity
  8
10
100
AcDbLine
 10
2635.711502756228
 20
1873.742134840559
 30
0.0
 11
2635.711502756228
 21
1870.542134840559
 31
0.0
  0
ARC
  5
273C
330
1F
100
AcDbEntity
  8
10
100
AcDbCircle
 10
2654.711502756228
 20
1801.542134840559
 30
0.0
 40
1.500000000000019
100
AcDbArc
 50
0.0
 51
180.0
  0
ARC
  5
273D
330
1F
100
AcDbEntity
  8
10
100
AcDbCircle
 10
2648.711502756228
 20
1801.542134840559
 30
0.0
 40
1.499999999999984
100
AcDbArc
 50
0.0
 51
180.0
  0
ARC
  5
273E
330
1F
100
AcDbEntity
  8
10
100
AcDbCircle
 10
2642.711502756228
 20
1801.542134840559
 30
0.0
 40
1.499999999999984
100
AcDbArc
 50
0.0
 51
180.0
  0
LINE
  5
273F
330
1F
100
AcDbEntity
  8
10
100
AcDbLine
 10
2652.411502756228
 20
1875.342134840559
 30
0.0
 11
2652.411502756228
 21
1877.342134840559
 31
0.0
  0
LINE
  5
2740
330
1F
100
AcDbEntity
  8
10
100
AcDbLine
 10
2653.711502756228
 20
1875.342134840559
 30
0.0
 11
2653.711502756228
 21
1873.742134840559
 31
0.0
  0
LINE
  5
2741
330
1F
100
AcDbEntity
  8
10
100
AcDbLine
 10
2652.217056255693
 20
1882.842134840559
 30
0.0
 11
2637.205949256763
 21
1882.842134840559
 31
0.0
  0
LINE
  5
2742
330
1F
100
AcDbEntity
  8
10
100
AcDbLine
 10
2669.711502756228
 20
1910.542134840559
 30
0.0
 11
2669.711502756228
 21
1870.542134840559
 31
0.0
  0
LINE
  5
2743
330
1F
100
AcDbEntity
  8
10
 48
3.0
100
AcDbLine
 10
2767.711502756228
 20
1873.742134840559
 30
0.0
 11
2801.511502756227
 21
1873.742134840559
 31
0.0
  0
LINE
  5
2744
330
1F
100
AcDbEntity
  8
10
 48
3.0
100
AcDbLine
 10
2804.711502756228
 20
1870.542134840559
 30
0.0
 11
2767.711502756228
 21
1870.542134840559
 31
0.0
  0
LINE
  5
2745
330
1F
100
AcDbEntity
  8
10
 48
3.0
100
AcDbLine
 10
2788.711502756227
 20
1875.342134840559
 30
0.0
 11
2770.711502756228
 21
1875.342134840559
 31
0.0
  0
LINE
  5
2746
330
1F
100
AcDbEntity
  8
10
 48
3.0
100
AcDbLine
 10
2787.411502756228
 20
1877.342134840559
 30
0.0
 11
2772.011502756228
 21
1877.342134840559
 31
0.0
  0
LINE
  5
2747
330
1F
100
AcDbEntity
  8
10
 48
3.0
100
AcDbLine
 10
2787.217056255693
 20
1882.842134840559
 30
0.0
 11
2772.205949256763
 21
1882.842134840559
 31
0.0
  0
LINE
  5
2748
330
1F
100
AcDbEntity
  8
10
 48
3.0
100
AcDbLine
 10
2772.205949256763
 20
1882.842134840559
 30
0.0
 11
2772.205949256763
 21
1877.342134840559
 31
0.0
  0
LINE
  5
2749
330
1F
100
AcDbEntity
  8
10
 48
3.0
100
AcDbLine
 10
2775.958726006495
 20
1882.842134840559
 30
0.0
 11
2775.958726006495
 21
1877.342134840559
 31
0.0
  0
LINE
  5
274A
330
1F
100
AcDbEntity
  8
10
 48
3.0
100
AcDbLine
 10
2783.46427950596
 20
1882.842134840559
 30
0.0
 11
2783.46427950596
 21
1877.342134840559
 31
0.0
  0
LINE
  5
274B
330
1F
100
AcDbEntity
  8
10
 48
3.0
100
AcDbLine
 10
2767.711502756228
 20
1873.742134840559
 30
0.0
 11
2767.711502756228
 21
1870.542134840559
 31
0.0
  0
LINE
  5
274C
330
1F
100
AcDbEntity
  8
10
 48
3.0
100
AcDbLine
 10
2770.711502756228
 20
1875.342134840559
 30
0.0
 11
2770.711502756228
 21
1873.742134840559
 31
0.0
  0
LINE
  5
274D
330
1F
100
AcDbEntity
  8
10
 48
3.0
100
AcDbLine
 10
2772.011502756228
 20
1875.342134840559
 30
0.0
 11
2772.011502756228
 21
1877.342134840559
 31
0.0
  0
LINE
  5
274E
330
1F
100
AcDbEntity
  8
10
 48
3.0
100
AcDbLine
 10
2793.386019356633
 20
1873.742134840559
 30
0.0
 11
2801.511502756227
 21
1881.867618240153
 31
0.0
  0
LINE
  5
274F
330
1F
100
AcDbEntity
  8
10
 48
3.0
100
AcDbLine
 10
2804.711502756228
 20
1910.542134840559
 30
0.0
 11
2804.711502756228
 21
1870.542134840559
 31
0.0
  0
LINE
  5
2750
330
1F
100
AcDbEntity
  8
10
 48
3.0
100
AcDbLine
 10
2801.511502756227
 20
1910.542134840559
 30
0.0
 11
2801.511502756227
 21
1873.742134840559
 31
0.0
  0
LINE
  5
2752
330
1F
100
AcDbEntity
  8
10
 48
3.0
100
AcDbLine
 10
2787.217056255693
 20
1882.842134840559
 30
0.0
 11
2787.217056255693
 21
1877.342134840559
 31
0.0
  0
LINE
  5
2753
330
1F
100
AcDbEntity
  8
10
 48
3.0
100
AcDbLine
 10
2788.711502756227
 20
1875.342134840559
 30
0.0
 11
2788.711502756227
 21
1873.742134840559
 31
0.0
  0
LINE
  5
2754
330
1F
100
AcDbEntity
  8
10
 48
3.0
100
AcDbLine
 10
2787.411502756228
 20
1875.342134840559
 30
0.0
 11
2787.411502756228
 21
1877.342134840559
 31
0.0
  0
LINE
  5
2755
330
1F
100
AcDbEntity
  8
12
 48
3.0
100
AcDbLine
 10
2791.511502756228
 20
1895.542134840559
 30
0.0
 11
2814.711502756228
 21
1895.542134840559
 31
0.0
  0
LINE
  5
2756
330
1F
100
AcDbEntity
  8
10
 48
3.0
100
AcDbLine
 10
2801.511502756227
 20
1910.542134840559
 30
0.0
 11
2804.711502756228
 21
1910.542134840559
 31
0.0
  0
LWPOLYLINE
  5
29BD
330
1F
100
AcDbEntity
  8
18
100
AcDbPolyline
 90
        4
 70
     1
 43
0.0
 10
1904.611502756229
 20
1090.542134840559
 10
2404.611502756228
 20
1090.542134840559
 10
2404.611502756228
 20
790.4421348405584
 10
1904.611502756229
 20
790.4421348405584
  0
LWPOLYLINE
  5
29BE
330
1F
100
AcDbEntity
  8
18
100
AcDbPolyline
 90
        4
 70
     1
 43
0.0
 10
1904.611502756229
 20
1190.542134840558
 10
2404.611502756228
 20
1190.542134840558
 10
2404.611502756228
 20
2010.542134840559
 10
1904.611502756229
 20
2010.542134840559
  0
LWPOLYLINE
  5
29C2
330
1F
100
AcDbEntity
  8
18
100
AcDbPolyline
 90
        4
 70
     1
 43
0.0
 10
2504.611502756228
 20
2010.542134840559
 10
2804.711502756228
 20
2010.542134840559
 10
2804.711502756228
 20
1190.542134840558
 10
2504.611502756228
 20
1190.542134840558
  0
LINE
  5
29CF
330
1F
100
AcDbEntity
  8
16
100
AcDbLine
 10
2154.611502756229
 20
1947.422834810555
 30
0.0
 11
2154.611502756229
 21
1240.846471670137
 31
0.0
  0
VIEWPORT
  5
1A9E
330
1B
100
AcDbEntity
 67
     1
  8
0
100
AcDbViewport
 10
5.249999639556162
 20
3.999999883606676
 30
0.0
 40
13.61503641713194
 41
8.992999745766947
 68
     1
 69
     1
 12
5.249999639556162
 22
3.999999883606676
 13
0.0
 23
0.0
 14
10.0
 24
10.0
 15
10.0
 25
10.0
 16
0.0
 26
0.0
 36
1.0
 17
0.0
 27
0.0
 37
0.0
 42
50.0
 43
0.0
 44
0.0
 45
8.992999745766947
 50
0.0
 51
0.0
 72
   100
 90
    32800
  1

281
     0
 71
     1
 74
     0
110
0.0
120
0.0
130
0.0
111
1.0
121
0.0
131
0.0
112
0.0
122
1.0
132
0.0
 79
     0
146
0.0
  0
VIEWPORT
  5
1AA0
330
1B
100
AcDbEntity
 67
     1
  8
0
100
AcDbViewport
 10
5.24999976158142
 20
3.999999761581419
 30
0.0
 40
8.399999618530271
 41
6.399999618530272
 68
     2
 69
     2
 12
-1363.137645193887
 22
-311.7485573738788
 13
0.0
 23
0.0
 14
10.0
 24
10.0
 15
10.0
 25
10.0
 16
0.0
 26
0.0
 36
1.0
 17
0.0
 27
0.0
 37
0.0
 42
50.0
 43
0.0
 44
0.0
 45
467.9695885509838
 50
0.0
 51
0.0
 72
   100
 90
    32864
  1

281
     0
 71
     1
 74
     0
110
0.0
120
0.0
130
0.0
111
1.0
121
0.0
131
0.0
112
0.0
122
1.0
132
0.0
 79
     0
146
0.0
  0
ENDSEC
  0
SECTION
  2
OBJECTS
  0
DICTIONARY
  5
C
330
0
100
AcDbDictionary
281
     1
  3
ACAD_GROUP
350
D
  3
ACAD_LAYOUT
350
1A
  3
ACAD_MLINESTYLE
350
17
  3
ACAD_PLOTSETTINGS
350
19
  3
ACAD_PLOTSTYLENAME
350
47
  3
AcDbVariableDictionary
350
191F
1001
ACAD
1000
TREAT_AS_HARD
1070
     0
  0
DICTIONARY
  5
41
330
1F
100
AcDbDictionary
280
     1
281
     1
  3
ACAD_LAYOUTSELFREF
360
1B2E
  0
DICTIONARY
  5
3F
330
1B
100
AcDbDictionary
280
     1
281
     1
  3
ACAD_LAYOUTSELFREF
360
1B2D
  0
DICTIONARY
  5
D
102
{ACAD_REACTORS
330
C
102
}
330
C
100
AcDbDictionary
281
     1
1001
ACAD
1000
TREAT_AS_HARD
1070
     0
  0
DICTIONARY
  5
1A
102
{ACAD_REACTORS
330
C
102
}
330
C
100
AcDbDictionary
281
     1
  3
Model
350
49
  3
ﾚｲｱｳﾄ1
350
4A
1001
ACAD
1000
TREAT_AS_HARD
1070
     0
  0
DICTIONARY
  5
17
102
{ACAD_REACTORS
330
C
102
}
330
C
100
AcDbDictionary
281
     1
  3
STANDARD
350
18
1001
ACAD
1000
TREAT_AS_HARD
1070
     0
  0
DICTIONARY
  5
19
102
{ACAD_REACTORS
330
C
102
}
330
C
100
AcDbDictionary
281
     1
1001
ACAD
1000
TREAT_AS_HARD
1070
     0
  0
ACDBDICTIONARYWDFLT
  5
47
102
{ACAD_REACTORS
330
C
102
}
330
C
100
AcDbDictionary
281
     1
  3
Normal
350
48
100
AcDbDictionaryWithDefault
340
48
  0
DICTIONARY
  5
191F
102
{ACAD_REACTORS
330
C
102
}
330
C
100
AcDbDictionary
281
     1
  3
DIMASSOC
350
1920
  0
XRECORD
  5
1B2E
102
{ACAD_REACTORS
330
41
102
}
330
41
100
AcDbXrecord
280
     1
340
1F
  0
XRECORD
  5
1B2D
102
{ACAD_REACTORS
330
3F
102
}
330
3F
100
AcDbXrecord
280
     1
340
1B
  0
LAYOUT
  5
49
102
{ACAD_REACTORS
330
1A
102
}
330
1A
100
AcDbPlotSettings
  1

  2
EPSON LP-9200PS2
  4

  6

 40
0.0
 41
0.0
 42
0.0
 43
0.0
 44
0.0
 45
0.0
 46
0.0
 47
0.0
 48
0.0
 49
0.0
140
0.0
141
0.0
142
1.0
143
1.0
 70
  1712
 72
     0
 73
     0
 74
     0
  7

 75
     0
147
1.0
148
0.0
149
0.0
100
AcDbLayout
  1
Model
 70
     1
 71
     0
 10
0.0
 20
0.0
 11
12.0
 21
9.0
 12
0.0
 22
0.0
 32
0.0
 14
0.0
 24
0.0
 34
0.0
 15
0.0
 25
0.0
 35
0.0
146
0.0
 13
0.0
 23
0.0
 33
0.0
 16
1.0
 26
0.0
 36
0.0
 17
0.0
 27
1.0
 37
0.0
 76
     0
330
1F
  0
LAYOUT
  5
4A
102
{ACAD_REACTORS
330
1A
102
}
330
1A
100
AcDbPlotSettings
  1

  2
none_device
  4
Letter_(8.50_x_11.00_Inches)
  6

 40
6.349999904632567
 41
6.349999904632567
 42
6.350006103515625
 43
6.350006103515625
 44
215.8999938964842
 45
279.3999938964843
 46
0.0
 47
0.0
 48
0.0
 49
0.0
140
0.0
141
0.0
142
1.0
143
1.0
 70
   688
 72
     0
 73
     1
 74
     5
  7

 75
    16
147
1.0
148
0.0
149
0.0
100
AcDbLayout
  1
ﾚｲｱｳﾄ1
 70
     1
 71
     1
 10
-0.2500002402958907
 20
-0.2499999962453767
 11
10.74999951940821
 21
8.249999763458731
 12
0.0
 22
0.0
 32
0.0
 14
1.049999952316283
 24
0.7999999523162842
 34
0.0
 15
9.449999570846555
 25
7.199999570846556
 35
0.0
146
0.0
 13
0.0
 23
0.0
 33
0.0
 16
1.0
 26
0.0
 36
0.0
 17
0.0
 27
1.0
 37
0.0
 76
     0
330
1B
331
1A9E
  0
MLINESTYLE
  5
18
102
{ACAD_REACTORS
330
17
102
}
330
17
100
AcDbMlineStyle
  2
STANDARD
 70
     0
  3

 62
   256
 51
90.0
 52
90.0
 71
     2
 49
0.5
 62
   256
  6
BYLAYER
 49
-0.5
 62
   256
  6
BYLAYER
  0
ACDBPLACEHOLDER
  5
48
102
{ACAD_REACTORS
330
47
102
}
330
47
  0
DICTIONARYVAR
  5
1920
102
{ACAD_REACTORS
330
191F
102
}
330
191F
100
DictionaryVariables
280
     0
  1
1
  0
ENDSEC
  0
EOF
