  0
SECTION
  2
HEADER
  9
$ACADVER
  1
AC1015
  9
$ACADMAINTVER
 70
    10
  9
$DWGCODEPAGE
  3
ANSI_932
  9
$INSBASE
 10
0.0
 20
0.0
 30
0.0
  9
$EXTMIN
 10
823.3848665062357
 20
518.8768937686521
 30
0.0
  9
$EXTMAX
 10
2041.174934638867
 20
1738.976893768652
 30
0.0
  9
$LIMMIN
 10
0.0
 20
0.0
  9
$LIMMAX
 10
420.0
 20
297.0
  9
$ORTHOMODE
 70
     1
  9
$REGENMODE
 70
     1
  9
$FILLMODE
 70
     1
  9
$QTEXTMODE
 70
     0
  9
$MIRRTEXT
 70
     1
  9
$LTSCALE
 40
1.0
  9
$ATTMODE
 70
     1
  9
$TEXTSIZE
 40
2.5
  9
$TRACEWID
 40
1.0
  9
$TEXTSTYLE
  7
STANDARD
  9
$CLAYER
  8
0
  9
$CELTYPE
  6
BYLAYER
  9
$CECOLOR
 62
   256
  9
$CELTSCALE
 40
1.0
  9
$DISPSILH
 70
     0
  9
$DIMSCALE
 40
1.0
  9
$DIMASZ
 40
2.5
  9
$DIMEXO
 40
0.625
  9
$DIMDLI
 40
3.75
  9
$DIMRND
 40
0.0
  9
$DIMDLE
 40
0.0
  9
$DIMEXE
 40
1.25
  9
$DIMTP
 40
0.0
  9
$DIMTM
 40
0.0
  9
$DIMTXT
 40
2.5
  9
$DIMCEN
 40
2.5
  9
$DIMTSZ
 40
0.0
  9
$DIMTOL
 70
     0
  9
$DIMLIM
 70
     0
  9
$DIMTIH
 70
     0
  9
$DIMTOH
 70
     0
  9
$DIMSE1
 70
     0
  9
$DIMSE2
 70
     0
  9
$DIMTAD
 70
     1
  9
$DIMZIN
 70
     8
  9
$DIMBLK
  1

  9
$DIMASO
 70
     1
  9
$DIMSHO
 70
     1
  9
$DIMPOST
  1

  9
$DIMAPOST
  1

  9
$DIMALT
 70
     0
  9
$DIMALTD
 70
     3
  9
$DIMALTF
 40
0.03937007874016
  9
$DIMLFAC
 40
1.0
  9
$DIMTOFL
 70
     1
  9
$DIMTVP
 40
0.0
  9
$DIMTIX
 70
     0
  9
$DIMSOXD
 70
     0
  9
$DIMSAH
 70
     0
  9
$DIMBLK1
  1

  9
$DIMBLK2
  1

  9
$DIMSTYLE
  2
ISO-25
  9
$DIMCLRD
 70
     0
  9
$DIMCLRE
 70
     0
  9
$DIMCLRT
 70
     0
  9
$DIMTFAC
 40
1.0
  9
$DIMGAP
 40
0.625
  9
$DIMJUST
 70
     0
  9
$DIMSD1
 70
     0
  9
$DIMSD2
 70
     0
  9
$DIMTOLJ
 70
     0
  9
$DIMTZIN
 70
     8
  9
$DIMALTZ
 70
     0
  9
$DIMALTTZ
 70
     0
  9
$DIMUPT
 70
     0
  9
$DIMDEC
 70
     0
  9
$DIMTDEC
 70
     0
  9
$DIMALTU
 70
     2
  9
$DIMALTTD
 70
     3
  9
$DIMTXSTY
  7
STANDARD
  9
$DIMAUNIT
 70
     0
  9
$DIMADEC
 70
     0
  9
$DIMALTRND
 40
0.0
  9
$DIMAZIN
 70
     0
  9
$DIMDSEP
 70
    46
  9
$DIMATFIT
 70
     3
  9
$DIMFRAC
 70
     0
  9
$DIMLDRBLK
  1

  9
$DIMLUNIT
 70
     2
  9
$DIMLWD
 70
    -2
  9
$DIMLWE
 70
    -2
  9
$DIMTMOVE
 70
     0
  9
$LUNITS
 70
     2
  9
$LUPREC
 70
     4
  9
$SKETCHINC
 40
1.0
  9
$FILLETRAD
 40
10.0
  9
$AUNITS
 70
     0
  9
$AUPREC
 70
     0
  9
$MENU
  1
.
  9
$ELEVATION
 40
0.0
  9
$PELEVATION
 40
0.0
  9
$THICKNESS
 40
0.0
  9
$LIMCHECK
 70
     0
  9
$CHAMFERA
 40
10.0
  9
$CHAMFERB
 40
10.0
  9
$CHAMFERC
 40
20.0
  9
$CHAMFERD
 40
0.0
  9
$SKPOLY
 70
     0
  9
$TDCREATE
 40
2453312.371317361
  9
$TDUCREATE
 40
2453311.996317361
  9
$TDUPDATE
 40
2454637.665609328
  9
$TDUUPDATE
 40
2454637.290609329
  9
$TDINDWG
 40
0.1233416551
  9
$TDUSRTIMER
 40
0.1233411690
  9
$USRTIMER
 70
     1
  9
$ANGBASE
 50
0.0
  9
$ANGDIR
 70
     0
  9
$PDMODE
 70
    34
  9
$PDSIZE
 40
0.0
  9
$PLINEWID
 40
0.0
  9
$SPLFRAME
 70
     0
  9
$SPLINETYPE
 70
     6
  9
$SPLINESEGS
 70
     8
  9
$HANDSEED
  5
377B
  9
$SURFTAB1
 70
     6
  9
$SURFTAB2
 70
     6
  9
$SURFTYPE
 70
     6
  9
$SURFU
 70
     6
  9
$SURFV
 70
     6
  9
$UCSBASE
  2

  9
$UCSNAME
  2

  9
$UCSORG
 10
0.0
 20
0.0
 30
0.0
  9
$UCSXDIR
 10
1.0
 20
0.0
 30
0.0
  9
$UCSYDIR
 10
0.0
 20
1.0
 30
0.0
  9
$UCSORTHOREF
  2

  9
$UCSORTHOVIEW
 70
     0
  9
$UCSORGTOP
 10
0.0
 20
0.0
 30
0.0
  9
$UCSORGBOTTOM
 10
0.0
 20
0.0
 30
0.0
  9
$UCSORGLEFT
 10
0.0
 20
0.0
 30
0.0
  9
$UCSORGRIGHT
 10
0.0
 20
0.0
 30
0.0
  9
$UCSORGFRONT
 10
0.0
 20
0.0
 30
0.0
  9
$UCSORGBACK
 10
0.0
 20
0.0
 30
0.0
  9
$PUCSBASE
  2

  9
$PUCSNAME
  2

  9
$PUCSORG
 10
0.0
 20
0.0
 30
0.0
  9
$PUCSXDIR
 10
1.0
 20
0.0
 30
0.0
  9
$PUCSYDIR
 10
0.0
 20
1.0
 30
0.0
  9
$PUCSORTHOREF
  2

  9
$PUCSORTHOVIEW
 70
     0
  9
$PUCSORGTOP
 10
0.0
 20
0.0
 30
0.0
  9
$PUCSORGBOTTOM
 10
0.0
 20
0.0
 30
0.0
  9
$PUCSORGLEFT
 10
0.0
 20
0.0
 30
0.0
  9
$PUCSORGRIGHT
 10
0.0
 20
0.0
 30
0.0
  9
$PUCSORGFRONT
 10
0.0
 20
0.0
 30
0.0
  9
$PUCSORGBACK
 10
0.0
 20
0.0
 30
0.0
  9
$USERI1
 70
     0
  9
$USERI2
 70
     0
  9
$USERI3
 70
     0
  9
$USERI4
 70
     0
  9
$USERI5
 70
     0
  9
$USERR1
 40
0.0
  9
$USERR2
 40
0.0
  9
$USERR3
 40
0.0
  9
$USERR4
 40
0.0
  9
$USERR5
 40
0.0
  9
$WORLDVIEW
 70
     1
  9
$SHADEDGE
 70
     3
  9
$SHADEDIF
 70
    70
  9
$TILEMODE
 70
     1
  9
$MAXACTVP
 70
    48
  9
$PINSBASE
 10
0.0
 20
0.0
 30
0.0
  9
$PLIMCHECK
 70
     0
  9
$PEXTMIN
 10
1.049999952316283
 20
0.7999999523162842
 30
0.0
  9
$PEXTMAX
 10
9.449999570846555
 20
7.199999570846556
 30
0.0
  9
$PLIMMIN
 10
-0.2500002402958907
 20
-0.2499999962453767
  9
$PLIMMAX
 10
10.74999951940821
 20
8.249999763458731
  9
$UNITMODE
 70
     0
  9
$VISRETAIN
 70
     1
  9
$PLINEGEN
 70
     0
  9
$PSLTSCALE
 70
     1
  9
$TREEDEPTH
 70
  3020
  9
$CMLSTYLE
  2
STANDARD
  9
$CMLJUST
 70
     0
  9
$CMLSCALE
 40
20.0
  9
$PROXYGRAPHICS
 70
     1
  9
$MEASUREMENT
 70
     0
  9
$CELWEIGHT
370
    -1
  9
$ENDCAPS
280
     0
  9
$JOINSTYLE
280
     0
  9
$LWDISPLAY
290
     0
  9
$INSUNITS
 70
     0
  9
$HYPERLINKBASE
  1

  9
$STYLESHEET
  1

  9
$XEDIT
290
     1
  9
$CEPSNTYPE
380
     0
  9
$PSTYLEMODE
290
     1
  9
$FINGERPRINTGUID
  2
{C8342AD0-ADE8-45AD-AC00-933185DE4E38}
  9
$VERSIONGUID
  2
{9953BF18-9926-474F-AB0A-F5C95262D404}
  9
$EXTNAMES
290
     1
  9
$PSVPSCALE
 40
0.0
  9
$OLESTARTUP
290
     0
  0
ENDSEC
  0
SECTION
  2
CLASSES
  0
CLASS
  1
ACDBDICTIONARYWDFLT
  2
AcDbDictionaryWithDefault
  3
AutoCAD 2000
 90
        0
280
     0
281
     0
  0
CLASS
  1
ACDBPLACEHOLDER
  2
AcDbPlaceHolder
  3
AutoCAD 2000
 90
        0
280
     0
281
     0
  0
CLASS
  1
LAYOUT
  2
AcDbLayout
  3
AutoCAD 2000
 90
        0
280
     0
281
     0
  0
CLASS
  1
LONG_TRANSACTION
  2
AcDbLongTransaction
  3
AutoCAD 2000
 90
    32768
280
     0
281
     0
  0
CLASS
  1
LWPOLYLINE
  2
AcDbPolyline
  3
AutoCAD 2000
 90
    32768
280
     0
281
     1
  0
CLASS
  1
HATCH
  2
AcDbHatch
  3
AutoCAD 2000
 90
    32768
280
     0
281
     1
  0
CLASS
  1
XRECORD
  2
AcDbXrecord
  3
AutoCAD 2000
 90
    32768
280
     0
281
     0
  0
CLASS
  1
DICTIONARYVAR
  2
AcDbDictionaryVar
  3
AutoCAD 2000
 90
        0
280
     0
281
     0
  0
CLASS
  1
LONG_TRANSACTION
  2
AcDbLongTransaction
  3
AutoCAD 2000
 90
    32768
280
     0
281
     0
  0
CLASS
  1
LWPOLYLINE
  2
AcDbPolyline
  3
AutoCAD 2000
 90
    32768
280
     0
281
     1
  0
CLASS
  1
HATCH
  2
AcDbHatch
  3
AutoCAD 2000
 90
    32768
280
     0
281
     1
  0
CLASS
  1
XRECORD
  2
AcDbXrecord
  3
AutoCAD 2000
 90
    32768
280
     0
281
     0
  0
CLASS
  1
LONG_TRANSACTION
  2
AcDbLongTransaction
  3
AutoCAD 2000
 90
    32768
280
     0
281
     0
  0
CLASS
  1
LWPOLYLINE
  2
AcDbPolyline
  3
AutoCAD 2000
 90
    32768
280
     0
281
     1
  0
CLASS
  1
HATCH
  2
AcDbHatch
  3
AutoCAD 2000
 90
    32768
280
     0
281
     1
  0
CLASS
  1
XRECORD
  2
AcDbXrecord
  3
AutoCAD 2000
 90
    32768
280
     0
281
     0
  0
CLASS
  1
LONG_TRANSACTION
  2
AcDbLongTransaction
  3
AutoCAD 2000
 90
    32768
280
     0
281
     0
  0
CLASS
  1
LWPOLYLINE
  2
AcDbPolyline
  3
AutoCAD 2000
 90
    32768
280
     0
281
     1
  0
CLASS
  1
HATCH
  2
AcDbHatch
  3
AutoCAD 2000
 90
    32768
280
     0
281
     1
  0
CLASS
  1
XRECORD
  2
AcDbXrecord
  3
AutoCAD 2000
 90
    32768
280
     0
281
     0
  0
CLASS
  1
LONG_TRANSACTION
  2
AcDbLongTransaction
  3
AutoCAD 2000
 90
    32768
280
     0
281
     0
  0
CLASS
  1
LWPOLYLINE
  2
AcDbPolyline
  3
AutoCAD 2000
 90
    32768
280
     0
281
     1
  0
CLASS
  1
HATCH
  2
AcDbHatch
  3
AutoCAD 2000
 90
    32768
280
     0
281
     1
  0
CLASS
  1
XRECORD
  2
AcDbXrecord
  3
AutoCAD 2000
 90
    32768
280
     0
281
     0
  0
CLASS
  1
LONG_TRANSACTION
  2
AcDbLongTransaction
  3
AutoCAD 2000
 90
    32768
280
     0
281
     0
  0
CLASS
  1
LWPOLYLINE
  2
AcDbPolyline
  3
AutoCAD 2000
 90
    32768
280
     0
281
     1
  0
CLASS
  1
HATCH
  2
AcDbHatch
  3
AutoCAD 2000
 90
    32768
280
     0
281
     1
  0
CLASS
  1
XRECORD
  2
AcDbXrecord
  3
AutoCAD 2000
 90
    32768
280
     0
281
     0
  0
CLASS
  1
LONG_TRANSACTION
  2
AcDbLongTransaction
  3
AutoCAD 2000
 90
    32768
280
     0
281
     0
  0
CLASS
  1
LWPOLYLINE
  2
AcDbPolyline
  3
AutoCAD 2000
 90
    32768
280
     0
281
     1
  0
CLASS
  1
HATCH
  2
AcDbHatch
  3
AutoCAD 2000
 90
    32768
280
     0
281
     1
  0
CLASS
  1
XRECORD
  2
AcDbXrecord
  3
AutoCAD 2000
 90
    32768
280
     0
281
     0
  0
CLASS
  1
LONG_TRANSACTION
  2
AcDbLongTransaction
  3
AutoCAD 2000
 90
    32768
280
     0
281
     0
  0
CLASS
  1
LWPOLYLINE
  2
AcDbPolyline
  3
AutoCAD 2000
 90
    32768
280
     0
281
     1
  0
CLASS
  1
HATCH
  2
AcDbHatch
  3
AutoCAD 2000
 90
    32768
280
     0
281
     1
  0
CLASS
  1
XRECORD
  2
AcDbXrecord
  3
AutoCAD 2000
 90
    32768
280
     0
281
     0
  0
CLASS
  1
LONG_TRANSACTION
  2
AcDbLongTransaction
  3
AutoCAD 2000
 90
    32768
280
     0
281
     0
  0
CLASS
  1
LWPOLYLINE
  2
AcDbPolyline
  3
AutoCAD 2000
 90
    32768
280
     0
281
     1
  0
CLASS
  1
HATCH
  2
AcDbHatch
  3
AutoCAD 2000
 90
    32768
280
     0
281
     1
  0
CLASS
  1
XRECORD
  2
AcDbXrecord
  3
AutoCAD 2000
 90
    32768
280
     0
281
     0
  0
CLASS
  1
LONG_TRANSACTION
  2
AcDbLongTransaction
  3
AutoCAD 2000
 90
    32768
280
     0
281
     0
  0
CLASS
  1
LWPOLYLINE
  2
AcDbPolyline
  3
AutoCAD 2000
 90
    32768
280
     0
281
     1
  0
CLASS
  1
HATCH
  2
AcDbHatch
  3
AutoCAD 2000
 90
    32768
280
     0
281
     1
  0
CLASS
  1
XRECORD
  2
AcDbXrecord
  3
AutoCAD 2000
 90
    32768
280
     0
281
     0
  0
ENDSEC
  0
SECTION
  2
TABLES
  0
TABLE
  2
VPORT
  5
8
330
0
100
AcDbSymbolTable
 70
     3
  0
VPORT
  5
377A
330
8
100
AcDbSymbolTableRecord
100
AcDbViewportTableRecord
  2
*Active
 70
     0
 10
0.0
 20
0.0
 11
1.0
 21
1.0
 12
1890.112726157003
 22
1117.903883015216
 13
0.0
 23
0.0
 14
10.0
 24
10.0
 15
10.0
 25
10.0
 16
0.0
 26
0.0
 36
1.0
 17
0.0
 27
0.0
 37
0.0
 40
1782.024489671549
 41
1.527918781725888
 42
50.0
 43
0.0
 44
0.0
 50
0.0
 51
0.0
 71
     0
 72
   100
 73
     1
 74
     3
 75
     0
 76
     0
 77
     0
 78
     0
281
     0
 65
     1
110
0.0
120
0.0
130
0.0
111
1.0
121
0.0
131
0.0
112
0.0
122
1.0
132
0.0
 79
     0
146
0.0
  0
ENDTAB
  0
TABLE
  2
LTYPE
  5
5
330
0
100
AcDbSymbolTable
 70
     4
  0
LTYPE
  5
14
330
5
100
AcDbSymbolTableRecord
100
AcDbLinetypeTableRecord
  2
BYBLOCK
 70
     0
  3

 72
    65
 73
     0
 40
0.0
  0
LTYPE
  5
15
330
5
100
AcDbSymbolTableRecord
100
AcDbLinetypeTableRecord
  2
BYLAYER
 70
     0
  3

 72
    65
 73
     0
 40
0.0
  0
LTYPE
  5
16
330
5
100
AcDbSymbolTableRecord
100
AcDbLinetypeTableRecord
  2
CONTINUOUS
 70
     0
  3
Solid line
 72
    65
 73
     0
 40
0.0
  0
LTYPE
  5
35
330
5
100
AcDbSymbolTableRecord
100
AcDbLinetypeTableRecord
  2
PHANTOMX2
 70
     0
  3
Phantom (2x) ____________    ____    ____   _
 72
    65
 73
     6
 40
127.0
 49
63.5
 74
     0
 49
-12.7
 74
     0
 49
12.7
 74
     0
 49
-12.7
 74
     0
 49
12.7
 74
     0
 49
-12.7
 74
     0
  0
LTYPE
  5
36
330
5
100
AcDbSymbolTableRecord
100
AcDbLinetypeTableRecord
  2
CENTERX2
 70
     0
  3
Center (2x) ________  __  ________  __  _____
 72
    65
 73
     4
 40
101.6
 49
63.5
 74
     0
 49
-12.7
 74
     0
 49
12.7
 74
     0
 49
-12.7
 74
     0
  0
LTYPE
  5
29E8
330
5
100
AcDbSymbolTableRecord
100
AcDbLinetypeTableRecord
  2
CENTER
 70
     0
  3
Center ____ _ ____ _ ____ _ ____ _ ____ _ ____
 72
    65
 73
     4
 40
2.0
 49
1.25
 74
     0
 49
-0.25
 74
     0
 49
0.25
 74
     0
 49
-0.25
 74
     0
  0
ENDTAB
  0
TABLE
  2
LAYER
  5
2
330
0
100
AcDbSymbolTable
 70
     7
  0
LAYER
  5
10
330
2
100
AcDbSymbolTableRecord
100
AcDbLayerTableRecord
  2
0
 70
     0
 62
     7
  6
CONTINUOUS
370
    -3
390
48
  0
LAYER
  5
2D
330
2
100
AcDbSymbolTableRecord
100
AcDbLayerTableRecord
  2
10
 70
     0
 62
     4
  6
CONTINUOUS
370
    -3
390
48
  0
LAYER
  5
2F
330
2
100
AcDbSymbolTableRecord
100
AcDbLayerTableRecord
  2
12
 70
     0
 62
     3
  6
CONTINUOUS
370
    -3
390
48
  0
LAYER
  5
33
330
2
100
AcDbSymbolTableRecord
100
AcDbLayerTableRecord
  2
18
 70
     0
 62
     1
  6
PHANTOMX2
370
    -3
390
48
  0
LAYER
  5
34
330
2
100
AcDbSymbolTableRecord
100
AcDbLayerTableRecord
  2
19
 70
     0
 62
     7
  6
CONTINUOUS
370
    -3
390
48
  0
LAYER
  5
29EA
330
2
100
AcDbSymbolTableRecord
100
AcDbLayerTableRecord
  2
DEFPOINTS
 70
     0
 62
     7
  6
CONTINUOUS
290
     0
370
    -3
390
48
  0
LAYER
  5
373A
330
2
100
AcDbSymbolTableRecord
100
AcDbLayerTableRecord
  2
16
 70
     0
 62
     4
  6
CENTERX2
370
    -3
390
48
  0
ENDTAB
  0
TABLE
  2
STYLE
  5
3
330
0
100
AcDbSymbolTable
 70
     2
  0
STYLE
  5
11
330
3
100
AcDbSymbolTableRecord
100
AcDbTextStyleTableRecord
  2
STANDARD
 70
     0
 40
0.0
 41
1.0
 50
0.0
 71
     0
 42
2.5
  3
txt
  4

  0
STYLE
  5
56
330
3
100
AcDbSymbolTableRecord
100
AcDbTextStyleTableRecord
  2
STANDARD1
 70
     0
 40
0.0
 41
0.7
 50
0.0
 71
     0
 42
4.0
  3
romans.shx
  4
extfont.shx
  0
ENDTAB
  0
TABLE
  2
VIEW
  5
6
330
0
100
AcDbSymbolTable
 70
     0
  0
ENDTAB
  0
TABLE
  2
UCS
  5
7
330
0
100
AcDbSymbolTable
 70
     0
  0
ENDTAB
  0
TABLE
  2
APPID
  5
9
330
0
100
AcDbSymbolTable
 70
     1
  0
APPID
  5
12
330
9
100
AcDbSymbolTableRecord
100
AcDbRegAppTableRecord
  2
ACAD
 70
     0
  0
ENDTAB
  0
TABLE
  2
DIMSTYLE
  5
A
330
0
100
AcDbSymbolTable
 70
     2
100
AcDbDimStyleTable
 71
     1
340
27
  0
DIMSTYLE
105
27
330
A
100
AcDbSymbolTableRecord
100
AcDbDimStyleTableRecord
  2
ISO-25
 70
     0
 41
2.5
 42
0.625
 43
3.75
 44
1.25
 73
     0
 74
     0
 77
     1
 78
     8
140
2.5
141
2.5
143
0.03937007874016
147
0.625
171
     3
172
     1
271
     0
272
     0
274
     3
283
     0
284
     8
340
11
  0
DIMSTYLE
105
29EB
330
A
100
AcDbSymbolTableRecord
100
AcDbDimStyleTableRecord
  2
STANDARD
 70
     0
340
11
  0
ENDTAB
  0
TABLE
  2
BLOCK_RECORD
  5
1
330
0
100
AcDbSymbolTable
 70
     0
  0
BLOCK_RECORD
  5
1F
102
{ACAD_XDICTIONARY
360
41
102
}
330
1
100
AcDbSymbolTableRecord
100
AcDbBlockTableRecord
  2
*MODEL_SPACE
340
49
  0
BLOCK_RECORD
  5
1B
102
{ACAD_XDICTIONARY
360
3F
102
}
330
1
100
AcDbSymbolTableRecord
100
AcDbBlockTableRecord
  2
*PAPER_SPACE
340
4A
  0
ENDTAB
  0
ENDSEC
  0
SECTION
  2
BLOCKS
  0
BLOCK
  5
20
330
1F
100
AcDbEntity
  8
0
100
AcDbBlockBegin
  2
*MODEL_SPACE
 70
     0
 10
0.0
 20
0.0
 30
0.0
  3
*MODEL_SPACE
  1

  0
ENDBLK
  5
21
330
1F
100
AcDbEntity
  8
0
100
AcDbBlockEnd
  0
BLOCK
  5
1C
330
1B
100
AcDbEntity
 67
     1
  8
0
100
AcDbBlockBegin
  2
*PAPER_SPACE
 70
     0
 10
0.0
 20
0.0
 30
0.0
  3
*PAPER_SPACE
  1

  0
ENDBLK
  5
1D
330
1B
100
AcDbEntity
 67
     1
  8
0
100
AcDbBlockEnd
  0
ENDSEC
  0
SECTION
  2
ENTITIES
  0
LINE
  5
2F2D
330
1F
100
AcDbEntity
  8
10
100
AcDbLine
 10
952.8848665062357
 20
709.3768937686517
 30
0.0
 11
952.8848665062357
 21
688.3768937686517
 31
0.0
  0
LINE
  5
2F2E
330
1F
100
AcDbEntity
  8
10
100
AcDbLine
 10
956.8848665062356
 20
712.376893768652
 30
0.0
 11
956.8848665062356
 21
703.3768937686517
 31
0.0
  0
LINE
  5
2F2F
330
1F
100
AcDbEntity
  8
10
100
AcDbLine
 10
912.8848665062358
 20
712.376893768652
 30
0.0
 11
912.8848665062358
 21
703.3768937686517
 31
0.0
  0
LINE
  5
2F30
330
1F
100
AcDbEntity
  8
10
100
AcDbLine
 10
941.3848665062356
 20
709.3768937686517
 30
0.0
 11
941.3848665062356
 21
688.3768937686517
 31
0.0
  0
LINE
  5
2F31
330
1F
100
AcDbEntity
  8
10
100
AcDbLine
 10
929.8848665062356
 20
709.3768937686517
 30
0.0
 11
929.8848665062356
 21
688.3768937686517
 31
0.0
  0
LINE
  5
2F32
330
1F
100
AcDbEntity
  8
10
100
AcDbLine
 10
951.3848665062353
 20
688.3768937686517
 30
0.0
 11
951.3848665062353
 21
709.3768937686517
 31
0.0
  0
LINE
  5
2F33
330
1F
100
AcDbEntity
  8
10
100
AcDbLine
 10
939.8848665062356
 20
688.3768937686517
 30
0.0
 11
939.8848665062356
 21
709.3768937686517
 31
0.0
  0
LINE
  5
2F34
330
1F
100
AcDbEntity
  8
10
100
AcDbLine
 10
928.3848665062359
 20
688.3768937686517
 30
0.0
 11
928.3848665062359
 21
709.3768937686517
 31
0.0
  0
LINE
  5
2F35
330
1F
100
AcDbEntity
  8
10
100
AcDbLine
 10
918.3848665062358
 20
688.3768937686517
 30
0.0
 11
918.3848665062358
 21
709.3768937686517
 31
0.0
  0
LINE
  5
2F36
330
1F
100
AcDbEntity
  8
10
100
AcDbLine
 10
916.8848665062355
 20
709.3768937686517
 30
0.0
 11
916.8848665062355
 21
688.3768937686517
 31
0.0
  0
LINE
  5
2F37
330
1F
100
AcDbEntity
  8
10
100
AcDbLine
 10
875.3848665062358
 20
756.0768937686524
 30
0.0
 11
875.3848665062358
 21
689.8768937686516
 31
0.0
  0
LINE
  5
2F38
330
1F
100
AcDbEntity
  8
10
100
AcDbLine
 10
1271.384866506235
 20
756.0768937686532
 30
0.0
 11
1271.384866506235
 21
689.8768937686525
 31
0.0
  0
LINE
  5
2F39
330
1F
100
AcDbEntity
  8
10
100
AcDbLine
 10
1245.384866506235
 20
756.0768937686532
 30
0.0
 11
1245.384866506235
 21
698.9768937686522
 31
0.0
  0
LINE
  5
2F3A
330
1F
100
AcDbEntity
  8
10
100
AcDbLine
 10
901.384866506236
 20
756.0768937686524
 30
0.0
 11
901.384866506236
 21
698.9768937686522
 31
0.0
  0
LINE
  5
2F3B
330
1F
100
AcDbEntity
  8
10
100
AcDbLine
 10
1010.384866506235
 20
755.8768937686517
 30
0.0
 11
1010.384866506235
 21
695.8768937686516
 31
0.0
  0
LINE
  5
2F3C
330
1F
100
AcDbEntity
  8
10
100
AcDbLine
 10
1273.384866506236
 20
762.8768937686528
 30
0.0
 11
1273.384866506236
 21
653.8768937686523
 31
0.0
  0
LINE
  5
2F3D
330
1F
100
AcDbEntity
  8
10
100
AcDbLine
 10
873.3848665062357
 20
762.876893768652
 30
0.0
 11
873.3848665062357
 21
653.8768937686523
 31
0.0
  0
LINE
  5
2F3E
330
1F
100
AcDbEntity
  8
10
100
AcDbLine
 10
1271.784866506235
 20
756.4768937686531
 30
0.0
 11
1271.784866506235
 21
689.8768937686525
 31
0.0
  0
LINE
  5
2F3F
330
1F
100
AcDbEntity
  8
10
100
AcDbLine
 10
874.984866506236
 20
756.4768937686522
 30
0.0
 11
874.984866506236
 21
689.376893768652
 31
0.0
  0
LINE
  5
2F40
330
1F
100
AcDbEntity
  8
10
100
AcDbLine
 10
1056.384866506236
 20
755.8768937686517
 30
0.0
 11
1056.384866506236
 21
695.8768937686516
 31
0.0
  0
LINE
  5
2F41
330
1F
100
AcDbEntity
  8
10
100
AcDbLine
 10
1048.384866506235
 20
755.8768937686517
 30
0.0
 11
1048.384866506235
 21
695.8768937686516
 31
0.0
  0
LINE
  5
2F42
330
1F
100
AcDbEntity
  8
10
100
AcDbLine
 10
1054.384866506236
 20
755.8768937686517
 30
0.0
 11
1054.384866506236
 21
695.8768937686516
 31
0.0
  0
LINE
  5
2F43
330
1F
100
AcDbEntity
  8
10
100
AcDbLine
 10
1046.384866506235
 20
755.8768937686517
 30
0.0
 11
1046.384866506235
 21
695.8768937686516
 31
0.0
  0
LINE
  5
2F44
330
1F
100
AcDbEntity
  8
10
100
AcDbLine
 10
1102.384866506236
 20
755.8768937686517
 30
0.0
 11
1102.384866506236
 21
695.8768937686516
 31
0.0
  0
LINE
  5
2F45
330
1F
100
AcDbEntity
  8
10
100
AcDbLine
 10
1094.384866506235
 20
755.8768937686517
 30
0.0
 11
1094.384866506235
 21
695.8768937686516
 31
0.0
  0
LINE
  5
2F46
330
1F
100
AcDbEntity
  8
10
100
AcDbLine
 10
1100.384866506236
 20
755.8768937686517
 30
0.0
 11
1100.384866506236
 21
695.8768937686516
 31
0.0
  0
LINE
  5
2F47
330
1F
100
AcDbEntity
  8
10
100
AcDbLine
 10
1092.384866506235
 20
755.8768937686517
 30
0.0
 11
1092.384866506235
 21
695.8768937686516
 31
0.0
  0
LINE
  5
2F48
330
1F
100
AcDbEntity
  8
10
100
AcDbLine
 10
1148.384866506235
 20
755.8768937686517
 30
0.0
 11
1148.384866506235
 21
695.8768937686516
 31
0.0
  0
LINE
  5
2F49
330
1F
100
AcDbEntity
  8
10
100
AcDbLine
 10
1140.384866506235
 20
755.8768937686517
 30
0.0
 11
1140.384866506235
 21
695.8768937686516
 31
0.0
  0
LINE
  5
2F4A
330
1F
100
AcDbEntity
  8
10
100
AcDbLine
 10
1146.384866506235
 20
755.8768937686517
 30
0.0
 11
1146.384866506235
 21
695.8768937686516
 31
0.0
  0
LINE
  5
2F4B
330
1F
100
AcDbEntity
  8
10
100
AcDbLine
 10
1138.384866506235
 20
755.8768937686517
 30
0.0
 11
1138.384866506235
 21
695.8768937686516
 31
0.0
  0
LINE
  5
2F4C
330
1F
100
AcDbEntity
  8
10
100
AcDbLine
 10
1186.384866506235
 20
755.8768937686517
 30
0.0
 11
1186.384866506235
 21
695.8768937686516
 31
0.0
  0
LINE
  5
2F4D
330
1F
100
AcDbEntity
  8
10
100
AcDbLine
 10
1192.384866506235
 20
755.8768937686517
 30
0.0
 11
1192.384866506235
 21
695.8768937686516
 31
0.0
  0
LINE
  5
2F4E
330
1F
100
AcDbEntity
  8
10
100
AcDbLine
 10
1184.384866506235
 20
755.8768937686517
 30
0.0
 11
1184.384866506235
 21
695.8768937686516
 31
0.0
  0
LINE
  5
2F4F
330
1F
100
AcDbEntity
  8
10
100
AcDbLine
 10
1194.384866506235
 20
755.8768937686517
 30
0.0
 11
1194.384866506235
 21
695.8768937686516
 31
0.0
  0
LINE
  5
2F50
330
1F
100
AcDbEntity
  8
10
100
AcDbLine
 10
1230.384866506235
 20
755.8768937686517
 30
0.0
 11
1230.384866506235
 21
695.8768937686516
 31
0.0
  0
LINE
  5
2F51
330
1F
100
AcDbEntity
  8
10
100
AcDbLine
 10
1008.384866506235
 20
756.0768937686524
 30
0.0
 11
1008.384866506235
 21
685.8768937686517
 31
0.0
  0
LINE
  5
2F52
330
1F
100
AcDbEntity
  8
10
100
AcDbLine
 10
1232.384866506235
 20
756.0768937686532
 30
0.0
 11
1232.384866506235
 21
685.8768937686517
 31
0.0
  0
LINE
  5
2F53
330
1F
100
AcDbEntity
  8
10
100
AcDbLine
 10
1002.384866506235
 20
756.0768937686524
 30
0.0
 11
1002.384866506235
 21
685.8768937686517
 31
0.0
  0
LINE
  5
2F54
330
1F
100
AcDbEntity
  8
10
100
AcDbLine
 10
1238.384866506235
 20
756.0768937686532
 30
0.0
 11
1238.384866506235
 21
686.2883162282026
 31
0.0
  0
LINE
  5
2F56
330
1F
100
AcDbEntity
  8
10
100
AcDbLine
 10
928.3848665062359
 20
706.8768937686517
 30
0.0
 11
918.3848665062358
 21
706.8768937686517
 31
0.0
  0
LINE
  5
2F57
330
1F
100
AcDbEntity
  8
10
100
AcDbLine
 10
920.9848665062358
 20
704.6768937686522
 30
0.0
 11
925.7848665062359
 21
704.6768937686522
 31
0.0
  0
LINE
  5
2F58
330
1F
100
AcDbEntity
  8
10
100
AcDbLine
 10
919.9848665062356
 20
702.0768937686518
 30
0.0
 11
926.7848665062356
 21
702.0768937686518
 31
0.0
  0
ARC
  5
2F59
330
1F
100
AcDbEntity
  8
10
100
AcDbCircle
 10
923.384866506236
 20
686.7626080543664
 30
0.0
 40
14.81428571428568
100
AcDbArc
 50
72.31637087961473
 51
107.6836291203852
  0
LINE
  5
2F5A
330
1F
100
AcDbEntity
  8
10
100
AcDbLine
 10
918.3848665062358
 20
697.3768937686521
 30
0.0
 11
928.3848665062359
 21
697.3768937686521
 31
0.0
  0
LINE
  5
2F5B
330
1F
100
AcDbEntity
  8
10
100
AcDbLine
 10
918.3848665062358
 20
698.3768937686517
 30
0.0
 11
928.3848665062359
 21
698.3768937686517
 31
0.0
  0
LINE
  5
2F5C
330
1F
100
AcDbEntity
  8
10
100
AcDbLine
 10
909.0780204013839
 20
685.8768937686517
 30
0.0
 11
961.1348665062356
 21
685.8768937686517
 31
0.0
  0
LINE
  5
2F5D
330
1F
100
AcDbEntity
  8
10
100
AcDbLine
 10
913.3848665062359
 20
531.4768937686526
 30
0.0
 11
1233.384866506236
 21
531.4768937686526
 31
0.0
  0
LINE
  5
2F5E
330
1F
100
AcDbEntity
  8
10
100
AcDbLine
 10
1261.384866506236
 20
521.4768937686526
 30
0.0
 11
885.3848665062358
 21
521.4768937686526
 31
0.0
  0
LINE
  5
2F5F
330
1F
100
AcDbEntity
  8
10
100
AcDbLine
 10
1233.384866506236
 20
606.4768937686523
 30
0.0
 11
913.3848665062359
 21
606.4768937686523
 31
0.0
  0
LINE
  5
2F60
330
1F
100
AcDbEntity
  8
10
100
AcDbLine
 10
1230.384866506235
 20
683.9768937686523
 30
0.0
 11
916.384866506236
 21
683.9768937686523
 31
0.0
  0
LINE
  5
2F61
330
1F
100
AcDbEntity
  8
10
100
AcDbLine
 10
913.3848665062364
 20
665.8768937686525
 30
0.0
 11
1233.384866506236
 21
665.8768937686525
 31
0.0
  0
LINE
  5
2F62
330
1F
100
AcDbEntity
  8
10
100
AcDbLine
 10
1273.384866506236
 20
653.8768937686523
 30
0.0
 11
873.3848665062364
 21
653.8768937686523
 31
0.0
  0
LINE
  5
2F63
330
1F
100
AcDbEntity
  8
10
100
AcDbLine
 10
1273.384866506236
 20
657.0768937686522
 30
0.0
 11
873.3848665062364
 21
657.0768937686522
 31
0.0
  0
LINE
  5
2F64
330
1F
100
AcDbEntity
  8
10
 48
3.0
100
AcDbLine
 10
1273.384866506236
 20
522.0768937686523
 30
0.0
 11
873.3848665062364
 21
522.0768937686523
 31
0.0
  0
LINE
  5
2F65
330
1F
100
AcDbEntity
  8
10
 48
3.0
100
AcDbLine
 10
1273.384866506236
 20
518.8768937686521
 30
0.0
 11
873.3848665062364
 21
518.8768937686521
 31
0.0
  0
LINE
  5
2F66
330
1F
100
AcDbEntity
  8
10
 48
3.0
100
AcDbLine
 10
913.3848665062364
 20
530.8768937686525
 30
0.0
 11
1233.384866506236
 21
530.8768937686525
 31
0.0
  0
LINE
  5
2F67
330
1F
100
AcDbEntity
  8
10
100
AcDbLine
 10
1237.691712611087
 20
685.8768937686517
 30
0.0
 11
909.0780204013837
 21
685.8768937686517
 31
0.0
  0
LINE
  5
2F68
330
1F
100
AcDbEntity
  8
10
100
AcDbLine
 10
1263.384866506235
 20
519.8768937686525
 30
0.0
 11
883.3848665062358
 21
519.8768937686525
 31
0.0
  0
LINE
  5
2F69
330
1F
100
AcDbEntity
  8
10
100
AcDbLine
 10
1261.784866506236
 20
521.4768937686526
 30
0.0
 11
884.9848665062362
 21
521.4768937686526
 31
0.0
  0
LINE
  5
2F6A
330
1F
100
AcDbEntity
  8
10
100
AcDbLine
 10
1062.284866506235
 20
534.8768937686525
 30
0.0
 11
907.9774641723975
 21
534.8768937686525
 31
0.0
  0
LINE
  5
2F6C
330
1F
100
AcDbEntity
  8
10
100
AcDbLine
 10
885.3848665062358
 20
653.8768937686523
 30
0.0
 11
885.3848665062358
 21
521.4768937686526
 31
0.0
  0
LINE
  5
2F6D
330
1F
100
AcDbEntity
  8
10
 48
3.0
100
AcDbLine
 10
873.3848665062364
 20
518.8768937686521
 30
0.0
 11
873.3848665062364
 21
552.8768937686519
 31
0.0
  0
ARC
  5
2F6E
330
1F
100
AcDbEntity
  8
12
 48
3.0
100
AcDbCircle
 10
885.3848665062361
 20
526.8768937686521
 30
0.0
 40
3.599999999999758
100
AcDbArc
 50
13.64408479549696
 51
166.3559152045061
  0
ARC
  5
2F6F
330
1F
100
AcDbEntity
  8
12
 48
3.0
100
AcDbCircle
 10
905.3848665062362
 20
526.8768937686521
 30
0.0
 40
3.599999999999758
100
AcDbArc
 50
13.64408479549696
 51
166.3559152045061
  0
LINE
  5
2F70
330
1F
100
AcDbEntity
  8
10
100
AcDbLine
 10
883.3848665062358
 20
653.8768937686523
 30
0.0
 11
883.3848665062358
 21
519.8768937686525
 31
0.0
  0
LINE
  5
2F71
330
1F
100
AcDbEntity
  8
10
100
AcDbLine
 10
884.9848665062362
 20
653.8768937686523
 30
0.0
 11
884.9848665062362
 21
521.4768937686526
 31
0.0
  0
LINE
  5
2F72
330
1F
100
AcDbEntity
  8
12
 48
3.0
100
AcDbLine
 10
880.5151711823706
 20
522.0768937686523
 30
0.0
 11
881.8864592668868
 21
527.7260973883267
 31
0.0
  0
LINE
  5
2F73
330
1F
100
AcDbEntity
  8
12
 48
3.0
100
AcDbLine
 10
890.2545618301019
 20
522.0768937686523
 30
0.0
 11
888.8832737455851
 21
527.7260973883267
 31
0.0
  0
LINE
  5
2F74
330
1F
100
AcDbEntity
  8
12
 48
3.0
100
AcDbLine
 10
900.5151711823703
 20
522.0768937686523
 30
0.0
 11
901.8864592668867
 21
527.7260973883267
 31
0.0
  0
LINE
  5
2F75
330
1F
100
AcDbEntity
  8
12
 48
3.0
100
AcDbLine
 10
910.2545618301022
 20
522.0768937686523
 30
0.0
 11
908.8832737455854
 21
527.7260973883267
 31
0.0
  0
CIRCLE
  5
2F76
330
1F
100
AcDbEntity
  8
12
 48
3.0
100
AcDbCircle
 10
895.8848665062362
 20
543.8768937686521
 30
0.0
 40
8.999999999999982
  0
LINE
  5
2F77
330
1F
100
AcDbEntity
  8
10
 48
3.0
100
AcDbLine
 10
903.3848665062365
 20
555.8768937686521
 30
0.0
 11
876.3848665062365
 21
555.8768937686521
 31
0.0
  0
LINE
  5
2F78
330
1F
100
AcDbEntity
  8
10
 48
3.0
100
AcDbLine
 10
873.3848665062364
 20
552.8768937686519
 30
0.0
 11
876.3848665062365
 21
555.8768937686521
 31
0.0
  0
LINE
  5
2F79
330
1F
100
AcDbEntity
  8
10
100
AcDbLine
 10
907.3848665062357
 20
600.4768937686518
 30
0.0
 11
907.3848665062357
 21
537.4768937686523
 31
0.0
  0
LINE
  5
2F7A
330
1F
100
AcDbEntity
  8
10
 48
3.0
100
AcDbLine
 10
903.3848665062365
 20
555.8768937686521
 30
0.0
 11
906.3848665062366
 21
552.8768937686519
 31
0.0
  0
ARC
  5
2F7B
330
1F
100
AcDbEntity
  8
10
 48
3.0
100
AcDbCircle
 10
913.3848665062364
 20
537.8768937686523
 30
0.0
 40
7.000000000000027
100
AcDbArc
 50
180.0
 51
270.0
  0
LINE
  5
2F7C
330
1F
100
AcDbEntity
  8
12
 48
3.0
100
AcDbLine
 10
903.3904200057015
 20
543.8768937686519
 30
0.0
 11
899.6376432559687
 21
537.3768937686519
 31
0.0
  0
LINE
  5
2F7D
330
1F
100
AcDbEntity
  8
12
 48
3.0
100
AcDbLine
 10
892.132089756504
 20
537.3768937686519
 30
0.0
 11
888.3793130067711
 21
543.8768937686519
 31
0.0
  0
LINE
  5
2F7E
330
1F
100
AcDbEntity
  8
12
 48
3.0
100
AcDbLine
 10
899.6376432559687
 20
537.3768937686519
 30
0.0
 11
892.132089756504
 21
537.3768937686519
 31
0.0
  0
LINE
  5
2F7F
330
1F
100
AcDbEntity
  8
12
 48
3.0
100
AcDbLine
 10
899.6376432559687
 20
550.3768937686519
 30
0.0
 11
892.132089756504
 21
550.3768937686519
 31
0.0
  0
LINE
  5
2F80
330
1F
100
AcDbEntity
  8
12
 48
3.0
100
AcDbLine
 10
892.132089756504
 20
550.3768937686519
 30
0.0
 11
888.3793130067711
 21
543.8768937686519
 31
0.0
  0
LINE
  5
2F81
330
1F
100
AcDbEntity
  8
12
 48
3.0
100
AcDbLine
 10
903.3904200057015
 20
543.8768937686519
 30
0.0
 11
899.6376432559687
 21
550.3768937686519
 31
0.0
  0
CIRCLE
  5
2F82
330
1F
100
AcDbEntity
  8
12
 48
3.0
100
AcDbCircle
 10
895.8848665062362
 20
543.8768937686521
 30
0.0
 40
7.699999999999956
  0
ARC
  5
2F83
330
1F
100
AcDbEntity
  8
10
 48
3.0
100
AcDbCircle
 10
913.3848665062359
 20
537.4768937686523
 30
0.0
 40
6.000000000000013
100
AcDbArc
 50
180.0
 51
270.0
  0
LINE
  5
2F84
330
1F
100
AcDbEntity
  8
10
 48
3.0
100
AcDbLine
 10
906.3848665062366
 20
552.8768937686519
 30
0.0
 11
906.3848665062366
 21
537.8768937686523
 31
0.0
  0
ARC
  5
2F85
330
1F
100
AcDbEntity
  8
10
100
AcDbCircle
 10
913.3848665062359
 20
600.4768937686518
 30
0.0
 40
6.000000000000013
100
AcDbArc
 50
90.0
 51
180.0
  0
CIRCLE
  5
2F86
330
1F
100
AcDbEntity
  8
12
100
AcDbCircle
 10
895.8848665062362
 20
678.8768937686523
 30
0.0
 40
8.999999999999982
  0
ARC
  5
2F87
330
1F
100
AcDbEntity
  8
12
100
AcDbCircle
 10
885.3848665062361
 20
661.8768937686519
 30
0.0
 40
3.599999999999753
100
AcDbArc
 50
13.64408479549537
 51
166.3559152045061
  0
LINE
  5
2F88
330
1F
100
AcDbEntity
  8
10
100
AcDbLine
 10
903.3848665062365
 20
690.8768937686521
 30
0.0
 11
876.3848665062365
 21
690.8768937686521
 31
0.0
  0
LINE
  5
2F89
330
1F
100
AcDbEntity
  8
12
100
AcDbLine
 10
880.5151711823706
 20
657.0768937686522
 30
0.0
 11
881.8864592668868
 21
662.7260973883267
 31
0.0
  0
LINE
  5
2F8A
330
1F
100
AcDbEntity
  8
10
100
AcDbLine
 10
873.3848665062364
 20
653.8768937686523
 30
0.0
 11
873.3848665062364
 21
687.876893768652
 31
0.0
  0
LINE
  5
2F8B
330
1F
100
AcDbEntity
  8
10
100
AcDbLine
 10
883.3848665062358
 20
653.8768937686523
 30
0.0
 11
873.3848665062357
 21
653.8768937686523
 31
0.0
  0
LINE
  5
2F8C
330
1F
100
AcDbEntity
  8
10
100
AcDbLine
 10
873.3848665062364
 20
687.876893768652
 30
0.0
 11
876.3848665062365
 21
690.8768937686521
 31
0.0
  0
LINE
  5
2F8D
330
1F
100
AcDbEntity
  8
12
100
AcDbLine
 10
910.2545618301022
 20
657.0768937686522
 30
0.0
 11
908.8832737455854
 21
662.7260973883267
 31
0.0
  0
LINE
  5
2F8E
330
1F
100
AcDbEntity
  8
12
100
AcDbLine
 10
900.5151711823703
 20
657.0768937686522
 30
0.0
 11
901.8864592668867
 21
662.7260973883267
 31
0.0
  0
LINE
  5
2F8F
330
1F
100
AcDbEntity
  8
12
100
AcDbLine
 10
890.2545618301019
 20
657.0768937686522
 30
0.0
 11
888.8832737455851
 21
662.7260973883267
 31
0.0
  0
ARC
  5
2F90
330
1F
100
AcDbEntity
  8
10
100
AcDbCircle
 10
916.384866506236
 20
698.9768937686522
 30
0.0
 40
14.99999999999999
100
AcDbArc
 50
180.0
 51
270.0
  0
ARC
  5
2F91
330
1F
100
AcDbEntity
  8
10
100
AcDbCircle
 10
913.3848665062364
 20
672.8768937686522
 30
0.0
 40
7.000000000000027
100
AcDbArc
 50
180.0
 51
270.0
  0
LINE
  5
2F92
330
1F
100
AcDbEntity
  8
10
100
AcDbLine
 10
903.3848665062365
 20
690.8768937686521
 30
0.0
 11
906.3848665062366
 21
687.876893768652
 31
0.0
  0
ARC
  5
2F93
330
1F
100
AcDbEntity
  8
12
100
AcDbCircle
 10
905.3848665062362
 20
661.8768937686519
 30
0.0
 40
3.599999999999753
100
AcDbArc
 50
13.64408479549537
 51
166.3559152045061
  0
CIRCLE
  5
2F94
330
1F
100
AcDbEntity
  8
12
100
AcDbCircle
 10
895.8848665062362
 20
678.8768937686523
 30
0.0
 40
7.699999999999956
  0
CIRCLE
  5
2F95
330
1F
100
AcDbEntity
  8
12
100
AcDbCircle
 10
895.8848665062362
 20
678.8768937686519
 30
0.0
 40
6.499999999999982
  0
LINE
  5
2F96
330
1F
100
AcDbEntity
  8
12
100
AcDbLine
 10
892.132089756504
 20
685.3768937686519
 30
0.0
 11
888.3793130067711
 21
678.8768937686519
 31
0.0
  0
LINE
  5
2F97
330
1F
100
AcDbEntity
  8
12
100
AcDbLine
 10
903.3904200057015
 20
678.8768937686519
 30
0.0
 11
899.6376432559687
 21
672.3768937686521
 31
0.0
  0
LINE
  5
2F98
330
1F
100
AcDbEntity
  8
12
100
AcDbLine
 10
892.132089756504
 20
672.3768937686521
 30
0.0
 11
888.3793130067711
 21
678.8768937686519
 31
0.0
  0
LINE
  5
2F99
330
1F
100
AcDbEntity
  8
12
100
AcDbLine
 10
899.6376432559687
 20
672.3768937686521
 30
0.0
 11
892.132089756504
 21
672.3768937686521
 31
0.0
  0
LINE
  5
2F9A
330
1F
100
AcDbEntity
  8
12
100
AcDbLine
 10
899.6376432559687
 20
685.3768937686519
 30
0.0
 11
892.132089756504
 21
685.3768937686519
 31
0.0
  0
LINE
  5
2F9B
330
1F
100
AcDbEntity
  8
12
100
AcDbLine
 10
903.3904200057015
 20
678.8768937686519
 30
0.0
 11
899.6376432559687
 21
685.3768937686519
 31
0.0
  0
LINE
  5
2F9C
330
1F
100
AcDbEntity
  8
10
100
AcDbLine
 10
912.6348665062351
 20
684.3768937686517
 30
0.0
 11
912.6348665062351
 21
695.376893768652
 31
0.0
  0
LINE
  5
2F9D
330
1F
100
AcDbEntity
  8
10
100
AcDbLine
 10
918.8848665062351
 20
700.8768937686517
 30
0.0
 11
918.8848665062351
 21
698.876893768652
 31
0.0
  0
LINE
  5
2F9E
330
1F
100
AcDbEntity
  8
10
100
AcDbLine
 10
920.3848665062356
 20
702.0768937686518
 30
0.0
 11
920.3848665062356
 21
701.2699531327906
 31
0.0
  0
LINE
  5
2F9F
330
1F
100
AcDbEntity
  8
10
100
AcDbLine
 10
919.9848665062356
 20
703.6768937686519
 30
0.0
 11
919.9848665062356
 21
702.0768937686518
 31
0.0
  0
ARC
  5
2FA0
330
1F
100
AcDbEntity
  8
10
100
AcDbCircle
 10
920.9848665062358
 20
703.6768937686519
 30
0.0
 40
0.9999999999999948
100
AcDbArc
 50
90.0
 51
180.0
  0
LINE
  5
2FA1
330
1F
100
AcDbEntity
  8
10
100
AcDbLine
 10
916.8848665062355
 20
693.876893768652
 30
0.0
 11
908.6348665062356
 21
693.876893768652
 31
0.0
  0
LINE
  5
2FA2
330
1F
100
AcDbEntity
  8
10
100
AcDbLine
 10
916.8848665062355
 20
703.3768937686517
 30
0.0
 11
912.8848665062358
 21
703.3768937686517
 31
0.0
  0
LINE
  5
2FA3
330
1F
100
AcDbEntity
  8
10
100
AcDbLine
 10
918.3848665062358
 20
688.3768937686517
 30
0.0
 11
916.8848665062355
 21
688.3768937686517
 31
0.0
  0
LINE
  5
2FA4
330
1F
100
AcDbEntity
  8
10
100
AcDbLine
 10
908.6348665062356
 20
693.876893768652
 30
0.0
 11
908.6348665062356
 21
686.1340942296112
 31
0.0
  0
LINE
  5
2FA5
330
1F
100
AcDbEntity
  8
10
100
AcDbLine
 10
906.3848665062366
 20
687.876893768652
 30
0.0
 11
906.3848665062366
 21
672.8768937686522
 31
0.0
  0
LINE
  5
2FA6
330
1F
100
AcDbEntity
  8
10
100
AcDbLine
 10
1155.384866506236
 20
543.4768937686526
 30
0.0
 11
1233.584866506236
 21
543.4768937686526
 31
0.0
  0
LINE
  5
2FA7
330
1F
100
AcDbEntity
  8
10
100
AcDbLine
 10
1237.691712611087
 20
685.8768937686517
 30
0.0
 11
990.3848665062351
 21
685.8768937686517
 31
0.0
  0
LINE
  5
2FA8
330
1F
100
AcDbEntity
  8
10
100
AcDbLine
 10
1006.384866506236
 20
695.8768937686516
 30
0.0
 11
990.3848665062351
 21
695.8768937686516
 31
0.0
  0
LINE
  5
2FA9
330
1F
100
AcDbEntity
  8
10
100
AcDbLine
 10
938.884866506236
 20
534.8768937686525
 30
0.0
 11
938.884866506236
 21
531.4768937686526
 31
0.0
  0
LINE
  5
2FAA
330
1F
100
AcDbEntity
  8
10
100
AcDbLine
 10
939.8848665062356
 20
534.8768937686525
 30
0.0
 11
939.8848665062356
 21
531.4768937686526
 31
0.0
  0
LINE
  5
2FAB
330
1F
100
AcDbEntity
  8
10
100
AcDbLine
 10
935.884866506236
 20
534.8768937686525
 30
0.0
 11
935.884866506236
 21
531.4768937686526
 31
0.0
  0
LINE
  5
2FAC
330
1F
100
AcDbEntity
  8
10
100
AcDbLine
 10
936.884866506236
 20
534.8768937686525
 30
0.0
 11
936.884866506236
 21
531.4768937686526
 31
0.0
  0
LINE
  5
2FAD
330
1F
100
AcDbEntity
  8
10
100
AcDbLine
 10
932.8848665062356
 20
534.8768937686525
 30
0.0
 11
932.8848665062356
 21
531.4768937686526
 31
0.0
  0
LINE
  5
2FAE
330
1F
100
AcDbEntity
  8
10
100
AcDbLine
 10
933.8848665062359
 20
534.8768937686525
 30
0.0
 11
933.8848665062359
 21
531.4768937686526
 31
0.0
  0
LINE
  5
2FAF
330
1F
100
AcDbEntity
  8
10
100
AcDbLine
 10
929.8848665062356
 20
534.8768937686525
 30
0.0
 11
929.8848665062356
 21
531.4768937686526
 31
0.0
  0
LINE
  5
2FB0
330
1F
100
AcDbEntity
  8
10
100
AcDbLine
 10
930.8848665062358
 20
534.8768937686525
 30
0.0
 11
930.8848665062358
 21
531.4768937686526
 31
0.0
  0
LINE
  5
2FB1
330
1F
100
AcDbEntity
  8
10
100
AcDbLine
 10
926.884866506236
 20
534.8768937686525
 30
0.0
 11
926.884866506236
 21
531.4768937686526
 31
0.0
  0
LINE
  5
2FB2
330
1F
100
AcDbEntity
  8
10
100
AcDbLine
 10
927.8848665062357
 20
534.8768937686525
 30
0.0
 11
927.8848665062357
 21
531.4768937686526
 31
0.0
  0
LINE
  5
2FB3
330
1F
100
AcDbEntity
  8
10
100
AcDbLine
 10
923.8848665062359
 20
534.8768937686525
 30
0.0
 11
923.8848665062359
 21
531.4768937686526
 31
0.0
  0
LINE
  5
2FB4
330
1F
100
AcDbEntity
  8
10
100
AcDbLine
 10
924.8848665062356
 20
534.8768937686525
 30
0.0
 11
924.8848665062356
 21
531.4768937686526
 31
0.0
  0
LINE
  5
2FB5
330
1F
100
AcDbEntity
  8
10
100
AcDbLine
 10
956.8848665062359
 20
534.8768937686525
 30
0.0
 11
956.8848665062359
 21
531.4768937686526
 31
0.0
  0
LINE
  5
2FB6
330
1F
100
AcDbEntity
  8
10
100
AcDbLine
 10
957.8848665062356
 20
534.8768937686525
 30
0.0
 11
957.8848665062356
 21
531.4768937686526
 31
0.0
  0
LINE
  5
2FB7
330
1F
100
AcDbEntity
  8
10
100
AcDbLine
 10
953.884866506236
 20
534.8768937686525
 30
0.0
 11
953.884866506236
 21
531.4768937686526
 31
0.0
  0
LINE
  5
2FB8
330
1F
100
AcDbEntity
  8
10
100
AcDbLine
 10
954.8848665062356
 20
534.8768937686525
 30
0.0
 11
954.8848665062356
 21
531.4768937686526
 31
0.0
  0
LINE
  5
2FB9
330
1F
100
AcDbEntity
  8
10
100
AcDbLine
 10
950.8848665062359
 20
534.8768937686525
 30
0.0
 11
950.8848665062359
 21
531.4768937686526
 31
0.0
  0
LINE
  5
2FBA
330
1F
100
AcDbEntity
  8
10
100
AcDbLine
 10
951.884866506236
 20
534.8768937686525
 30
0.0
 11
951.884866506236
 21
531.4768937686526
 31
0.0
  0
LINE
  5
2FBB
330
1F
100
AcDbEntity
  8
10
100
AcDbLine
 10
947.8848665062358
 20
534.8768937686525
 30
0.0
 11
947.8848665062358
 21
531.4768937686526
 31
0.0
  0
LINE
  5
2FBC
330
1F
100
AcDbEntity
  8
10
100
AcDbLine
 10
948.8848665062359
 20
534.8768937686525
 30
0.0
 11
948.8848665062359
 21
531.4768937686526
 31
0.0
  0
LINE
  5
2FBD
330
1F
100
AcDbEntity
  8
10
100
AcDbLine
 10
944.8848665062357
 20
534.8768937686525
 30
0.0
 11
944.8848665062357
 21
531.4768937686526
 31
0.0
  0
LINE
  5
2FBE
330
1F
100
AcDbEntity
  8
10
100
AcDbLine
 10
945.8848665062358
 20
534.8768937686525
 30
0.0
 11
945.8848665062358
 21
531.4768937686526
 31
0.0
  0
LINE
  5
2FBF
330
1F
100
AcDbEntity
  8
10
100
AcDbLine
 10
941.8848665062359
 20
534.8768937686525
 30
0.0
 11
941.8848665062359
 21
531.4768937686526
 31
0.0
  0
LINE
  5
2FC0
330
1F
100
AcDbEntity
  8
10
100
AcDbLine
 10
942.8848665062357
 20
534.8768937686525
 30
0.0
 11
942.8848665062357
 21
531.4768937686526
 31
0.0
  0
LINE
  5
2FC1
330
1F
100
AcDbEntity
  8
10
100
AcDbLine
 10
974.8848665062356
 20
534.8768937686525
 30
0.0
 11
974.8848665062356
 21
531.4768937686526
 31
0.0
  0
LINE
  5
2FC2
330
1F
100
AcDbEntity
  8
10
100
AcDbLine
 10
975.8848665062359
 20
534.8768937686525
 30
0.0
 11
975.8848665062359
 21
531.4768937686526
 31
0.0
  0
LINE
  5
2FC3
330
1F
100
AcDbEntity
  8
10
100
AcDbLine
 10
971.8848665062362
 20
534.8768937686525
 30
0.0
 11
971.8848665062362
 21
531.4768937686526
 31
0.0
  0
LINE
  5
2FC4
330
1F
100
AcDbEntity
  8
10
100
AcDbLine
 10
972.8848665062358
 20
534.8768937686525
 30
0.0
 11
972.8848665062358
 21
531.4768937686526
 31
0.0
  0
LINE
  5
2FC5
330
1F
100
AcDbEntity
  8
10
100
AcDbLine
 10
968.884866506236
 20
534.8768937686525
 30
0.0
 11
968.884866506236
 21
531.4768937686526
 31
0.0
  0
LINE
  5
2FC6
330
1F
100
AcDbEntity
  8
10
100
AcDbLine
 10
969.8848665062357
 20
534.8768937686525
 30
0.0
 11
969.8848665062357
 21
531.4768937686526
 31
0.0
  0
LINE
  5
2FC7
330
1F
100
AcDbEntity
  8
10
100
AcDbLine
 10
965.8848665062359
 20
534.8768937686525
 30
0.0
 11
965.8848665062359
 21
531.4768937686526
 31
0.0
  0
LINE
  5
2FC8
330
1F
100
AcDbEntity
  8
10
100
AcDbLine
 10
966.8848665062359
 20
534.8768937686525
 30
0.0
 11
966.8848665062359
 21
531.4768937686526
 31
0.0
  0
LINE
  5
2FC9
330
1F
100
AcDbEntity
  8
10
100
AcDbLine
 10
962.8848665062358
 20
534.8768937686525
 30
0.0
 11
962.8848665062358
 21
531.4768937686526
 31
0.0
  0
LINE
  5
2FCA
330
1F
100
AcDbEntity
  8
10
100
AcDbLine
 10
963.884866506236
 20
534.8768937686525
 30
0.0
 11
963.884866506236
 21
531.4768937686526
 31
0.0
  0
LINE
  5
2FCB
330
1F
100
AcDbEntity
  8
10
100
AcDbLine
 10
959.8848665062357
 20
534.8768937686525
 30
0.0
 11
959.8848665062357
 21
531.4768937686526
 31
0.0
  0
LINE
  5
2FCC
330
1F
100
AcDbEntity
  8
10
100
AcDbLine
 10
960.884866506236
 20
534.8768937686525
 30
0.0
 11
960.884866506236
 21
531.4768937686526
 31
0.0
  0
LINE
  5
2FCD
330
1F
100
AcDbEntity
  8
10
100
AcDbLine
 10
992.8848665062357
 20
534.8768937686525
 30
0.0
 11
992.8848665062357
 21
531.4768937686526
 31
0.0
  0
LINE
  5
2FCE
330
1F
100
AcDbEntity
  8
10
100
AcDbLine
 10
993.884866506236
 20
534.8768937686525
 30
0.0
 11
993.884866506236
 21
531.4768937686526
 31
0.0
  0
LINE
  5
2FCF
330
1F
100
AcDbEntity
  8
10
100
AcDbLine
 10
989.8848665062356
 20
534.8768937686525
 30
0.0
 11
989.8848665062356
 21
531.4768937686526
 31
0.0
  0
LINE
  5
2FD0
330
1F
100
AcDbEntity
  8
10
100
AcDbLine
 10
990.8848665062359
 20
534.8768937686525
 30
0.0
 11
990.8848665062359
 21
531.4768937686526
 31
0.0
  0
LINE
  5
2FD1
330
1F
100
AcDbEntity
  8
10
100
AcDbLine
 10
986.884866506236
 20
534.8768937686525
 30
0.0
 11
986.884866506236
 21
531.4768937686526
 31
0.0
  0
LINE
  5
2FD2
330
1F
100
AcDbEntity
  8
10
100
AcDbLine
 10
987.8848665062358
 20
534.8768937686525
 30
0.0
 11
987.8848665062358
 21
531.4768937686526
 31
0.0
  0
LINE
  5
2FD3
330
1F
100
AcDbEntity
  8
10
100
AcDbLine
 10
983.8848665062359
 20
534.8768937686525
 30
0.0
 11
983.8848665062359
 21
531.4768937686526
 31
0.0
  0
LINE
  5
2FD4
330
1F
100
AcDbEntity
  8
10
100
AcDbLine
 10
984.8848665062357
 20
534.8768937686525
 30
0.0
 11
984.8848665062357
 21
531.4768937686526
 31
0.0
  0
LINE
  5
2FD5
330
1F
100
AcDbEntity
  8
10
100
AcDbLine
 10
980.8848665062358
 20
534.8768937686525
 30
0.0
 11
980.8848665062358
 21
531.4768937686526
 31
0.0
  0
LINE
  5
2FD6
330
1F
100
AcDbEntity
  8
10
100
AcDbLine
 10
981.8848665062359
 20
534.8768937686525
 30
0.0
 11
981.8848665062359
 21
531.4768937686526
 31
0.0
  0
LINE
  5
2FD7
330
1F
100
AcDbEntity
  8
10
100
AcDbLine
 10
977.8848665062357
 20
534.8768937686525
 30
0.0
 11
977.8848665062357
 21
531.4768937686526
 31
0.0
  0
LINE
  5
2FD8
330
1F
100
AcDbEntity
  8
10
100
AcDbLine
 10
978.884866506236
 20
534.8768937686525
 30
0.0
 11
978.884866506236
 21
531.4768937686526
 31
0.0
  0
LINE
  5
2FD9
330
1F
100
AcDbEntity
  8
10
100
AcDbLine
 10
961.1348665062356
 20
693.876893768652
 30
0.0
 11
952.8848665062357
 21
693.876893768652
 31
0.0
  0
LINE
  5
2FDA
330
1F
100
AcDbEntity
  8
10
100
AcDbLine
 10
941.3848665062356
 20
688.3768937686517
 30
0.0
 11
939.8848665062356
 21
688.3768937686517
 31
0.0
  0
LINE
  5
2FDB
330
1F
100
AcDbEntity
  8
10
100
AcDbLine
 10
939.8848665062356
 20
706.8768937686517
 30
0.0
 11
929.8848665062356
 21
706.8768937686517
 31
0.0
  0
LINE
  5
2FDC
330
1F
100
AcDbEntity
  8
10
100
AcDbLine
 10
930.3848665062357
 20
700.8768937686517
 30
0.0
 11
930.3848665062357
 21
698.876893768652
 31
0.0
  0
LINE
  5
2FDD
330
1F
100
AcDbEntity
  8
10
100
AcDbLine
 10
932.4848665062356
 20
704.6768937686522
 30
0.0
 11
937.2848665062358
 21
704.6768937686522
 31
0.0
  0
LINE
  5
2FDE
330
1F
100
AcDbEntity
  8
10
100
AcDbLine
 10
931.4848665062358
 20
702.0768937686518
 30
0.0
 11
938.2848665062359
 21
702.0768937686518
 31
0.0
  0
LINE
  5
2FDF
330
1F
100
AcDbEntity
  8
10
100
AcDbLine
 10
939.3848665062357
 20
700.8768937686517
 30
0.0
 11
939.3848665062357
 21
698.876893768652
 31
0.0
  0
ARC
  5
2FE0
330
1F
100
AcDbEntity
  8
10
100
AcDbCircle
 10
934.8848665062357
 20
686.7626080543664
 30
0.0
 40
14.81428571428566
100
AcDbArc
 50
72.31637087961473
 51
107.6836291203852
  0
LINE
  5
2FE1
330
1F
100
AcDbEntity
  8
10
100
AcDbLine
 10
937.8848665062358
 20
702.0768937686518
 30
0.0
 11
937.8848665062358
 21
701.2699531327906
 31
0.0
  0
LINE
  5
2FE2
330
1F
100
AcDbEntity
  8
10
100
AcDbLine
 10
931.8848665062356
 20
702.0768937686518
 30
0.0
 11
931.8848665062356
 21
701.2699531327906
 31
0.0
  0
LINE
  5
2FE3
330
1F
100
AcDbEntity
  8
10
100
AcDbLine
 10
938.2848665062359
 20
703.6768937686519
 30
0.0
 11
938.2848665062359
 21
702.0768937686518
 31
0.0
  0
LINE
  5
2FE4
330
1F
100
AcDbEntity
  8
10
100
AcDbLine
 10
931.4848665062358
 20
703.6768937686519
 30
0.0
 11
931.4848665062358
 21
702.0768937686518
 31
0.0
  0
ARC
  5
2FE5
330
1F
100
AcDbEntity
  8
10
100
AcDbCircle
 10
932.4848665062356
 20
703.6768937686519
 30
0.0
 40
0.9999999999999948
100
AcDbArc
 50
90.0
 51
180.0
  0
ARC
  5
2FE6
330
1F
100
AcDbEntity
  8
10
100
AcDbCircle
 10
937.2848665062358
 20
703.6768937686519
 30
0.0
 40
0.9999999999999444
100
AcDbArc
 50
0.0
 51
90.0
  0
LINE
  5
2FE7
330
1F
100
AcDbEntity
  8
10
100
AcDbLine
 10
927.8848665062357
 20
700.8768937686517
 30
0.0
 11
927.8848665062357
 21
698.876893768652
 31
0.0
  0
LINE
  5
2FE8
330
1F
100
AcDbEntity
  8
10
100
AcDbLine
 10
926.3848665062353
 20
702.0768937686518
 30
0.0
 11
926.3848665062353
 21
701.2699531327906
 31
0.0
  0
LINE
  5
2FE9
330
1F
100
AcDbEntity
  8
10
100
AcDbLine
 10
926.7848665062356
 20
703.6768937686519
 30
0.0
 11
926.7848665062356
 21
702.0768937686518
 31
0.0
  0
ARC
  5
2FEA
330
1F
100
AcDbEntity
  8
10
100
AcDbCircle
 10
925.7848665062359
 20
703.6768937686519
 30
0.0
 40
1.000000000000013
100
AcDbArc
 50
0.0
 51
90.0
  0
LINE
  5
2FEB
330
1F
100
AcDbEntity
  8
10
100
AcDbLine
 10
929.8848665062356
 20
697.3768937686521
 30
0.0
 11
939.8848665062356
 21
697.3768937686521
 31
0.0
  0
LINE
  5
2FEC
330
1F
100
AcDbEntity
  8
10
100
AcDbLine
 10
929.8848665062356
 20
698.3768937686517
 30
0.0
 11
939.8848665062356
 21
698.3768937686517
 31
0.0
  0
LINE
  5
2FED
330
1F
100
AcDbEntity
  8
10
100
AcDbLine
 10
929.8848665062356
 20
688.3768937686517
 30
0.0
 11
928.3848665062359
 21
688.3768937686517
 31
0.0
  0
LINE
  5
2FEE
330
1F
100
AcDbEntity
  8
12
100
AcDbLine
 10
925.3848665062351
 20
690.8768937686517
 30
0.0
 11
925.3848665062351
 21
668.5768937686519
 31
0.0
  0
LINE
  5
2FEF
330
1F
100
AcDbEntity
  8
10
100
AcDbLine
 10
951.3848665062353
 20
706.8768937686517
 30
0.0
 11
941.3848665062356
 21
706.8768937686517
 31
0.0
  0
LINE
  5
2FF0
330
1F
100
AcDbEntity
  8
10
100
AcDbLine
 10
957.1348665062359
 20
684.3768937686517
 30
0.0
 11
957.1348665062359
 21
695.376893768652
 31
0.0
  0
LINE
  5
2FF1
330
1F
100
AcDbEntity
  8
10
100
AcDbLine
 10
941.8848665062355
 20
700.8768937686517
 30
0.0
 11
941.8848665062355
 21
698.876893768652
 31
0.0
  0
LINE
  5
2FF2
330
1F
100
AcDbEntity
  8
10
100
AcDbLine
 10
943.9848665062358
 20
704.6768937686522
 30
0.0
 11
948.784866506236
 21
704.6768937686522
 31
0.0
  0
LINE
  5
2FF3
330
1F
100
AcDbEntity
  8
10
100
AcDbLine
 10
942.9848665062356
 20
702.0768937686518
 30
0.0
 11
949.7848665062358
 21
702.0768937686518
 31
0.0
  0
LINE
  5
2FF4
330
1F
100
AcDbEntity
  8
10
100
AcDbLine
 10
950.8848665062359
 20
700.8768937686517
 30
0.0
 11
950.8848665062359
 21
698.876893768652
 31
0.0
  0
ARC
  5
2FF5
330
1F
100
AcDbEntity
  8
10
100
AcDbCircle
 10
946.3848665062354
 20
686.7626080543664
 30
0.0
 40
14.81428571428568
100
AcDbArc
 50
72.31637087961473
 51
107.6836291203852
  0
LINE
  5
2FF6
330
1F
100
AcDbEntity
  8
10
100
AcDbLine
 10
949.3848665062357
 20
702.0768937686518
 30
0.0
 11
949.3848665062357
 21
701.2699531327906
 31
0.0
  0
LINE
  5
2FF7
330
1F
100
AcDbEntity
  8
10
100
AcDbLine
 10
943.3848665062358
 20
702.0768937686518
 30
0.0
 11
943.3848665062358
 21
701.2699531327906
 31
0.0
  0
LINE
  5
2FF8
330
1F
100
AcDbEntity
  8
10
100
AcDbLine
 10
949.7848665062358
 20
703.6768937686519
 30
0.0
 11
949.7848665062358
 21
702.0768937686518
 31
0.0
  0
LINE
  5
2FF9
330
1F
100
AcDbEntity
  8
10
100
AcDbLine
 10
942.9848665062356
 20
703.6768937686519
 30
0.0
 11
942.9848665062356
 21
702.0768937686518
 31
0.0
  0
ARC
  5
2FFA
330
1F
100
AcDbEntity
  8
10
100
AcDbCircle
 10
943.9848665062358
 20
703.6768937686519
 30
0.0
 40
0.9999999999999948
100
AcDbArc
 50
90.0
 51
180.0
  0
ARC
  5
2FFB
330
1F
100
AcDbEntity
  8
10
100
AcDbCircle
 10
948.784866506236
 20
703.6768937686519
 30
0.0
 40
1.000000000000013
100
AcDbArc
 50
0.0
 51
90.0
  0
LINE
  5
2FFC
330
1F
100
AcDbEntity
  8
10
100
AcDbLine
 10
941.3848665062356
 20
697.3768937686521
 30
0.0
 11
951.3848665062353
 21
697.3768937686521
 31
0.0
  0
LINE
  5
2FFD
330
1F
100
AcDbEntity
  8
10
100
AcDbLine
 10
941.3848665062356
 20
698.3768937686517
 30
0.0
 11
951.3848665062353
 21
698.3768937686517
 31
0.0
  0
LINE
  5
2FFE
330
1F
100
AcDbEntity
  8
10
100
AcDbLine
 10
952.8848665062357
 20
688.3768937686517
 30
0.0
 11
951.3848665062353
 21
688.3768937686517
 31
0.0
  0
LINE
  5
2FFF
330
1F
100
AcDbEntity
  8
10
100
AcDbLine
 10
956.8848665062356
 20
703.3768937686517
 30
0.0
 11
952.8848665062357
 21
703.3768937686517
 31
0.0
  0
LINE
  5
3000
330
1F
100
AcDbEntity
  8
12
100
AcDbLine
 10
955.3848665062352
 20
690.8768937686517
 30
0.0
 11
955.3848665062352
 21
668.5768937686519
 31
0.0
  0
LINE
  5
3001
330
1F
100
AcDbEntity
  8
10
100
AcDbLine
 10
961.1348665062356
 20
693.876893768652
 30
0.0
 11
961.1348665062356
 21
685.8768937686517
 31
0.0
  0
LINE
  5
3002
330
1F
100
AcDbEntity
  8
10
100
AcDbLine
 10
990.3848665062351
 20
695.8768937686516
 30
0.0
 11
990.3848665062351
 21
685.8768937686517
 31
0.0
  0
LINE
  5
3003
330
1F
100
AcDbEntity
  8
10
100
AcDbLine
 10
1010.884866506235
 20
534.8768937686525
 30
0.0
 11
1010.884866506235
 21
531.4768937686526
 31
0.0
  0
LINE
  5
3004
330
1F
100
AcDbEntity
  8
10
100
AcDbLine
 10
1011.884866506235
 20
534.8768937686525
 30
0.0
 11
1011.884866506235
 21
531.4768937686526
 31
0.0
  0
LINE
  5
3005
330
1F
100
AcDbEntity
  8
10
100
AcDbLine
 10
1007.884866506235
 20
534.8768937686525
 30
0.0
 11
1007.884866506235
 21
531.4768937686526
 31
0.0
  0
LINE
  5
3006
330
1F
100
AcDbEntity
  8
10
100
AcDbLine
 10
1008.884866506235
 20
534.8768937686525
 30
0.0
 11
1008.884866506235
 21
531.4768937686526
 31
0.0
  0
LINE
  5
3007
330
1F
100
AcDbEntity
  8
10
100
AcDbLine
 10
1004.884866506235
 20
534.8768937686525
 30
0.0
 11
1004.884866506235
 21
531.4768937686526
 31
0.0
  0
LINE
  5
3008
330
1F
100
AcDbEntity
  8
10
100
AcDbLine
 10
1005.884866506235
 20
534.8768937686525
 30
0.0
 11
1005.884866506235
 21
531.4768937686526
 31
0.0
  0
LINE
  5
3009
330
1F
100
AcDbEntity
  8
10
100
AcDbLine
 10
1001.884866506236
 20
534.8768937686525
 30
0.0
 11
1001.884866506236
 21
531.4768937686526
 31
0.0
  0
LINE
  5
300A
330
1F
100
AcDbEntity
  8
10
100
AcDbLine
 10
1002.884866506235
 20
534.8768937686525
 30
0.0
 11
1002.884866506235
 21
531.4768937686526
 31
0.0
  0
LINE
  5
300B
330
1F
100
AcDbEntity
  8
10
100
AcDbLine
 10
998.8848665062359
 20
534.8768937686525
 30
0.0
 11
998.8848665062359
 21
531.4768937686526
 31
0.0
  0
LINE
  5
300C
330
1F
100
AcDbEntity
  8
10
100
AcDbLine
 10
999.8848665062356
 20
534.8768937686525
 30
0.0
 11
999.8848665062356
 21
531.4768937686526
 31
0.0
  0
LINE
  5
300D
330
1F
100
AcDbEntity
  8
10
100
AcDbLine
 10
995.8848665062358
 20
534.8768937686525
 30
0.0
 11
995.8848665062358
 21
531.4768937686526
 31
0.0
  0
LINE
  5
300E
330
1F
100
AcDbEntity
  8
10
100
AcDbLine
 10
996.8848665062362
 20
534.8768937686525
 30
0.0
 11
996.8848665062362
 21
531.4768937686526
 31
0.0
  0
LINE
  5
300F
330
1F
100
AcDbEntity
  8
10
100
AcDbLine
 10
1028.884866506236
 20
534.8768937686525
 30
0.0
 11
1028.884866506236
 21
531.4768937686526
 31
0.0
  0
LINE
  5
3010
330
1F
100
AcDbEntity
  8
10
100
AcDbLine
 10
1029.884866506236
 20
534.8768937686525
 30
0.0
 11
1029.884866506236
 21
531.4768937686526
 31
0.0
  0
LINE
  5
3011
330
1F
100
AcDbEntity
  8
10
100
AcDbLine
 10
1025.884866506235
 20
534.8768937686525
 30
0.0
 11
1025.884866506235
 21
531.4768937686526
 31
0.0
  0
LINE
  5
3012
330
1F
100
AcDbEntity
  8
10
100
AcDbLine
 10
1026.884866506236
 20
534.8768937686525
 30
0.0
 11
1026.884866506236
 21
531.4768937686526
 31
0.0
  0
LINE
  5
3013
330
1F
100
AcDbEntity
  8
10
100
AcDbLine
 10
1022.884866506235
 20
534.8768937686525
 30
0.0
 11
1022.884866506235
 21
531.4768937686526
 31
0.0
  0
LINE
  5
3014
330
1F
100
AcDbEntity
  8
10
100
AcDbLine
 10
1023.884866506236
 20
534.8768937686525
 30
0.0
 11
1023.884866506236
 21
531.4768937686526
 31
0.0
  0
LINE
  5
3015
330
1F
100
AcDbEntity
  8
10
100
AcDbLine
 10
1019.884866506235
 20
534.8768937686525
 30
0.0
 11
1019.884866506235
 21
531.4768937686526
 31
0.0
  0
LINE
  5
3016
330
1F
100
AcDbEntity
  8
10
100
AcDbLine
 10
1020.884866506235
 20
534.8768937686525
 30
0.0
 11
1020.884866506235
 21
531.4768937686526
 31
0.0
  0
LINE
  5
3017
330
1F
100
AcDbEntity
  8
10
100
AcDbLine
 10
1016.884866506235
 20
534.8768937686525
 30
0.0
 11
1016.884866506235
 21
531.4768937686526
 31
0.0
  0
LINE
  5
3018
330
1F
100
AcDbEntity
  8
10
100
AcDbLine
 10
1017.884866506234
 20
534.8768937686525
 30
0.0
 11
1017.884866506234
 21
531.4768937686526
 31
0.0
  0
LINE
  5
3019
330
1F
100
AcDbEntity
  8
10
100
AcDbLine
 10
1013.884866506236
 20
534.8768937686525
 30
0.0
 11
1013.884866506236
 21
531.4768937686526
 31
0.0
  0
LINE
  5
301A
330
1F
100
AcDbEntity
  8
10
100
AcDbLine
 10
1014.884866506235
 20
534.8768937686525
 30
0.0
 11
1014.884866506235
 21
531.4768937686526
 31
0.0
  0
LINE
  5
301B
330
1F
100
AcDbEntity
  8
10
100
AcDbLine
 10
1059.984866506235
 20
606.4768937686523
 30
0.0
 11
1059.984866506235
 21
534.8768937686525
 31
0.0
  0
LINE
  5
301C
330
1F
100
AcDbEntity
  8
10
100
AcDbLine
 10
1062.284866506235
 20
606.4768937686523
 30
0.0
 11
1062.284866506235
 21
534.8768937686525
 31
0.0
  0
LINE
  5
301D
330
1F
100
AcDbEntity
  8
10
100
AcDbLine
 10
1065.884866506235
 20
606.4768937686523
 30
0.0
 11
1065.884866506235
 21
531.4768937686526
 31
0.0
  0
LINE
  5
301E
330
1F
100
AcDbEntity
  8
10
100
AcDbLine
 10
1064.884866506236
 20
606.4768937686523
 30
0.0
 11
1064.884866506236
 21
531.4768937686526
 31
0.0
  0
LINE
  5
301F
330
1F
100
AcDbEntity
  8
10
100
AcDbLine
 10
1062.884866506236
 20
606.4768937686523
 30
0.0
 11
1062.884866506236
 21
531.4768937686526
 31
0.0
  0
LINE
  5
3020
330
1F
100
AcDbEntity
  8
10
100
AcDbLine
 10
1046.884866506236
 20
534.8768937686525
 30
0.0
 11
1046.884866506236
 21
531.4768937686526
 31
0.0
  0
LINE
  5
3021
330
1F
100
AcDbEntity
  8
10
100
AcDbLine
 10
1047.884866506236
 20
534.8768937686525
 30
0.0
 11
1047.884866506236
 21
531.4768937686526
 31
0.0
  0
LINE
  5
3022
330
1F
100
AcDbEntity
  8
10
100
AcDbLine
 10
1043.884866506236
 20
534.8768937686525
 30
0.0
 11
1043.884866506236
 21
531.4768937686526
 31
0.0
  0
LINE
  5
3023
330
1F
100
AcDbEntity
  8
10
100
AcDbLine
 10
1044.884866506236
 20
534.8768937686525
 30
0.0
 11
1044.884866506236
 21
531.4768937686526
 31
0.0
  0
LINE
  5
3024
330
1F
100
AcDbEntity
  8
10
100
AcDbLine
 10
1040.884866506236
 20
534.8768937686525
 30
0.0
 11
1040.884866506236
 21
531.4768937686526
 31
0.0
  0
LINE
  5
3025
330
1F
100
AcDbEntity
  8
10
100
AcDbLine
 10
1041.884866506235
 20
534.8768937686525
 30
0.0
 11
1041.884866506235
 21
531.4768937686526
 31
0.0
  0
LINE
  5
3026
330
1F
100
AcDbEntity
  8
10
100
AcDbLine
 10
1037.884866506236
 20
534.8768937686525
 30
0.0
 11
1037.884866506236
 21
531.4768937686526
 31
0.0
  0
LINE
  5
3027
330
1F
100
AcDbEntity
  8
10
100
AcDbLine
 10
1038.884866506236
 20
534.8768937686525
 30
0.0
 11
1038.884866506236
 21
531.4768937686526
 31
0.0
  0
LINE
  5
3028
330
1F
100
AcDbEntity
  8
10
100
AcDbLine
 10
1034.884866506236
 20
534.8768937686525
 30
0.0
 11
1034.884866506236
 21
531.4768937686526
 31
0.0
  0
LINE
  5
3029
330
1F
100
AcDbEntity
  8
10
100
AcDbLine
 10
1035.884866506236
 20
534.8768937686525
 30
0.0
 11
1035.884866506236
 21
531.4768937686526
 31
0.0
  0
LINE
  5
302A
330
1F
100
AcDbEntity
  8
10
100
AcDbLine
 10
1031.884866506236
 20
534.8768937686525
 30
0.0
 11
1031.884866506236
 21
531.4768937686526
 31
0.0
  0
LINE
  5
302B
330
1F
100
AcDbEntity
  8
10
100
AcDbLine
 10
1032.884866506236
 20
534.8768937686525
 30
0.0
 11
1032.884866506236
 21
531.4768937686526
 31
0.0
  0
LINE
  5
302C
330
1F
100
AcDbEntity
  8
10
100
AcDbLine
 10
1061.884866506236
 20
534.8768937686525
 30
0.0
 11
1061.884866506236
 21
531.4768937686526
 31
0.0
  0
LINE
  5
302D
330
1F
100
AcDbEntity
  8
10
100
AcDbLine
 10
1059.884866506236
 20
534.8768937686525
 30
0.0
 11
1059.884866506236
 21
531.4768937686526
 31
0.0
  0
LINE
  5
302E
330
1F
100
AcDbEntity
  8
10
100
AcDbLine
 10
1058.884866506236
 20
534.8768937686525
 30
0.0
 11
1058.884866506236
 21
531.4768937686526
 31
0.0
  0
LINE
  5
302F
330
1F
100
AcDbEntity
  8
10
100
AcDbLine
 10
1055.884866506236
 20
534.8768937686525
 30
0.0
 11
1055.884866506236
 21
531.4768937686526
 31
0.0
  0
LINE
  5
3030
330
1F
100
AcDbEntity
  8
10
100
AcDbLine
 10
1056.884866506236
 20
534.8768937686525
 30
0.0
 11
1056.884866506236
 21
531.4768937686526
 31
0.0
  0
LINE
  5
3031
330
1F
100
AcDbEntity
  8
10
100
AcDbLine
 10
1052.884866506236
 20
534.8768937686525
 30
0.0
 11
1052.884866506236
 21
531.4768937686526
 31
0.0
  0
LINE
  5
3032
330
1F
100
AcDbEntity
  8
10
100
AcDbLine
 10
1053.884866506236
 20
534.8768937686525
 30
0.0
 11
1053.884866506236
 21
531.4768937686526
 31
0.0
  0
LINE
  5
3033
330
1F
100
AcDbEntity
  8
10
100
AcDbLine
 10
1049.884866506235
 20
534.8768937686525
 30
0.0
 11
1049.884866506235
 21
531.4768937686526
 31
0.0
  0
LINE
  5
3034
330
1F
100
AcDbEntity
  8
10
100
AcDbLine
 10
1050.884866506236
 20
534.8768937686525
 30
0.0
 11
1050.884866506236
 21
531.4768937686526
 31
0.0
  0
LINE
  5
3035
330
1F
100
AcDbEntity
  8
10
100
AcDbLine
 10
1008.384866506235
 20
695.8768937686516
 30
0.0
 11
1010.384866506235
 21
695.8768937686516
 31
0.0
  0
LINE
  5
3036
330
1F
100
AcDbEntity
  8
10
100
AcDbLine
 10
1006.384866506236
 20
695.8768937686516
 30
0.0
 11
1006.384866506236
 21
685.8768937686517
 31
0.0
  0
LINE
  5
3037
330
1F
100
AcDbEntity
  8
10
100
AcDbLine
 10
1056.384866506236
 20
695.8768937686516
 30
0.0
 11
1046.384866506235
 21
695.8768937686516
 31
0.0
  0
LINE
  5
3038
330
1F
100
AcDbEntity
  8
10
100
AcDbLine
 10
1070.384866506236
 20
543.4768937686522
 30
0.0
 11
1148.584866506236
 21
543.4768937686522
 31
0.0
  0
LINE
  5
3039
330
1F
100
AcDbEntity
  8
10
100
AcDbLine
 10
1148.384866506235
 20
695.8768937686516
 30
0.0
 11
1138.384866506235
 21
695.8768937686516
 31
0.0
  0
LINE
  5
303A
330
1F
100
AcDbEntity
  8
10
100
AcDbLine
 10
1070.384866506236
 20
606.4768937686523
 30
0.0
 11
1070.384866506236
 21
543.4768937686522
 31
0.0
  0
LINE
  5
303B
330
1F
100
AcDbEntity
  8
10
100
AcDbLine
 10
1068.884866506236
 20
606.4768937686523
 30
0.0
 11
1068.884866506236
 21
531.4768937686526
 31
0.0
  0
LINE
  5
303C
330
1F
100
AcDbEntity
  8
10
100
AcDbLine
 10
1067.884866506235
 20
606.4768937686523
 30
0.0
 11
1067.884866506235
 21
531.4768937686526
 31
0.0
  0
LINE
  5
303D
330
1F
100
AcDbEntity
  8
10
100
AcDbLine
 10
1083.884866506235
 20
543.4768937686522
 30
0.0
 11
1083.884866506235
 21
531.4768937686526
 31
0.0
  0
LINE
  5
303E
330
1F
100
AcDbEntity
  8
10
100
AcDbLine
 10
1082.884866506236
 20
543.4768937686522
 30
0.0
 11
1082.884866506236
 21
531.4768937686526
 31
0.0
  0
LINE
  5
303F
330
1F
100
AcDbEntity
  8
10
100
AcDbLine
 10
1080.884866506236
 20
543.4768937686522
 30
0.0
 11
1080.884866506236
 21
531.4768937686526
 31
0.0
  0
LINE
  5
3040
330
1F
100
AcDbEntity
  8
10
100
AcDbLine
 10
1079.884866506236
 20
543.4768937686522
 30
0.0
 11
1079.884866506236
 21
531.4768937686526
 31
0.0
  0
LINE
  5
3041
330
1F
100
AcDbEntity
  8
10
100
AcDbLine
 10
1077.884866506236
 20
543.4768937686522
 30
0.0
 11
1077.884866506236
 21
531.4768937686526
 31
0.0
  0
LINE
  5
3042
330
1F
100
AcDbEntity
  8
10
100
AcDbLine
 10
1076.884866506236
 20
543.4768937686522
 30
0.0
 11
1076.884866506236
 21
531.4768937686526
 31
0.0
  0
LINE
  5
3043
330
1F
100
AcDbEntity
  8
10
100
AcDbLine
 10
1074.884866506236
 20
543.4768937686522
 30
0.0
 11
1074.884866506236
 21
531.4768937686526
 31
0.0
  0
LINE
  5
3044
330
1F
100
AcDbEntity
  8
10
100
AcDbLine
 10
1073.884866506235
 20
543.4768937686522
 30
0.0
 11
1073.884866506235
 21
531.4768937686526
 31
0.0
  0
LINE
  5
3045
330
1F
100
AcDbEntity
  8
10
100
AcDbLine
 10
1071.884866506236
 20
543.4768937686522
 30
0.0
 11
1071.884866506236
 21
531.4768937686526
 31
0.0
  0
LINE
  5
3046
330
1F
100
AcDbEntity
  8
10
100
AcDbLine
 10
1070.884866506236
 20
543.4768937686522
 30
0.0
 11
1070.884866506236
 21
531.4768937686526
 31
0.0
  0
LINE
  5
3047
330
1F
100
AcDbEntity
  8
10
100
AcDbLine
 10
1101.884866506236
 20
543.4768937686522
 30
0.0
 11
1101.884866506236
 21
531.4768937686526
 31
0.0
  0
LINE
  5
3048
330
1F
100
AcDbEntity
  8
10
100
AcDbLine
 10
1100.884866506236
 20
543.4768937686522
 30
0.0
 11
1100.884866506236
 21
531.4768937686526
 31
0.0
  0
LINE
  5
3049
330
1F
100
AcDbEntity
  8
10
100
AcDbLine
 10
1098.884866506236
 20
543.4768937686522
 30
0.0
 11
1098.884866506236
 21
531.4768937686526
 31
0.0
  0
LINE
  5
304A
330
1F
100
AcDbEntity
  8
10
100
AcDbLine
 10
1097.884866506235
 20
543.4768937686522
 30
0.0
 11
1097.884866506235
 21
531.4768937686526
 31
0.0
  0
LINE
  5
304B
330
1F
100
AcDbEntity
  8
10
100
AcDbLine
 10
1095.884866506236
 20
543.4768937686522
 30
0.0
 11
1095.884866506236
 21
531.4768937686526
 31
0.0
  0
LINE
  5
304C
330
1F
100
AcDbEntity
  8
10
100
AcDbLine
 10
1094.884866506236
 20
543.4768937686522
 30
0.0
 11
1094.884866506236
 21
531.4768937686526
 31
0.0
  0
LINE
  5
304D
330
1F
100
AcDbEntity
  8
10
100
AcDbLine
 10
1092.884866506236
 20
543.4768937686522
 30
0.0
 11
1092.884866506236
 21
531.4768937686526
 31
0.0
  0
LINE
  5
304E
330
1F
100
AcDbEntity
  8
10
100
AcDbLine
 10
1091.884866506235
 20
543.4768937686522
 30
0.0
 11
1091.884866506235
 21
531.4768937686526
 31
0.0
  0
LINE
  5
304F
330
1F
100
AcDbEntity
  8
10
100
AcDbLine
 10
1089.884866506235
 20
543.4768937686522
 30
0.0
 11
1089.884866506235
 21
531.4768937686526
 31
0.0
  0
LINE
  5
3050
330
1F
100
AcDbEntity
  8
10
100
AcDbLine
 10
1088.884866506236
 20
543.4768937686522
 30
0.0
 11
1088.884866506236
 21
531.4768937686526
 31
0.0
  0
LINE
  5
3051
330
1F
100
AcDbEntity
  8
10
100
AcDbLine
 10
1086.884866506236
 20
543.4768937686522
 30
0.0
 11
1086.884866506236
 21
531.4768937686526
 31
0.0
  0
LINE
  5
3052
330
1F
100
AcDbEntity
  8
10
100
AcDbLine
 10
1085.884866506236
 20
543.4768937686522
 30
0.0
 11
1085.884866506236
 21
531.4768937686526
 31
0.0
  0
LINE
  5
3053
330
1F
100
AcDbEntity
  8
10
100
AcDbLine
 10
1119.884866506236
 20
543.4768937686522
 30
0.0
 11
1119.884866506236
 21
531.4768937686526
 31
0.0
  0
LINE
  5
3054
330
1F
100
AcDbEntity
  8
10
100
AcDbLine
 10
1118.884866506236
 20
543.4768937686522
 30
0.0
 11
1118.884866506236
 21
531.4768937686526
 31
0.0
  0
LINE
  5
3055
330
1F
100
AcDbEntity
  8
10
100
AcDbLine
 10
1116.884866506236
 20
543.4768937686522
 30
0.0
 11
1116.884866506236
 21
531.4768937686526
 31
0.0
  0
LINE
  5
3056
330
1F
100
AcDbEntity
  8
10
100
AcDbLine
 10
1115.884866506235
 20
543.4768937686522
 30
0.0
 11
1115.884866506235
 21
531.4768937686526
 31
0.0
  0
LINE
  5
3057
330
1F
100
AcDbEntity
  8
10
100
AcDbLine
 10
1113.884866506235
 20
543.4768937686522
 30
0.0
 11
1113.884866506235
 21
531.4768937686526
 31
0.0
  0
LINE
  5
3058
330
1F
100
AcDbEntity
  8
10
100
AcDbLine
 10
1112.884866506235
 20
543.4768937686522
 30
0.0
 11
1112.884866506235
 21
531.4768937686526
 31
0.0
  0
LINE
  5
3059
330
1F
100
AcDbEntity
  8
10
100
AcDbLine
 10
1110.884866506236
 20
543.4768937686522
 30
0.0
 11
1110.884866506236
 21
531.4768937686526
 31
0.0
  0
LINE
  5
305A
330
1F
100
AcDbEntity
  8
10
100
AcDbLine
 10
1109.884866506236
 20
543.4768937686522
 30
0.0
 11
1109.884866506236
 21
531.4768937686526
 31
0.0
  0
LINE
  5
305B
330
1F
100
AcDbEntity
  8
10
100
AcDbLine
 10
1107.884866506235
 20
543.4768937686522
 30
0.0
 11
1107.884866506235
 21
531.4768937686526
 31
0.0
  0
LINE
  5
305C
330
1F
100
AcDbEntity
  8
10
100
AcDbLine
 10
1106.884866506236
 20
543.4768937686522
 30
0.0
 11
1106.884866506236
 21
531.4768937686526
 31
0.0
  0
LINE
  5
305D
330
1F
100
AcDbEntity
  8
10
100
AcDbLine
 10
1104.884866506236
 20
543.4768937686522
 30
0.0
 11
1104.884866506236
 21
531.4768937686526
 31
0.0
  0
LINE
  5
305E
330
1F
100
AcDbEntity
  8
10
100
AcDbLine
 10
1103.884866506236
 20
543.4768937686522
 30
0.0
 11
1103.884866506236
 21
531.4768937686526
 31
0.0
  0
LINE
  5
305F
330
1F
100
AcDbEntity
  8
10
100
AcDbLine
 10
1137.884866506235
 20
543.4768937686522
 30
0.0
 11
1137.884866506235
 21
531.4768937686526
 31
0.0
  0
LINE
  5
3060
330
1F
100
AcDbEntity
  8
10
100
AcDbLine
 10
1136.884866506236
 20
543.4768937686522
 30
0.0
 11
1136.884866506236
 21
531.4768937686526
 31
0.0
  0
LINE
  5
3061
330
1F
100
AcDbEntity
  8
10
100
AcDbLine
 10
1134.884866506236
 20
543.4768937686522
 30
0.0
 11
1134.884866506236
 21
531.4768937686526
 31
0.0
  0
LINE
  5
3062
330
1F
100
AcDbEntity
  8
10
100
AcDbLine
 10
1133.884866506235
 20
543.4768937686522
 30
0.0
 11
1133.884866506235
 21
531.4768937686526
 31
0.0
  0
LINE
  5
3063
330
1F
100
AcDbEntity
  8
10
100
AcDbLine
 10
1131.884866506235
 20
543.4768937686522
 30
0.0
 11
1131.884866506235
 21
531.4768937686526
 31
0.0
  0
LINE
  5
3064
330
1F
100
AcDbEntity
  8
10
100
AcDbLine
 10
1130.884866506236
 20
543.4768937686522
 30
0.0
 11
1130.884866506236
 21
531.4768937686526
 31
0.0
  0
LINE
  5
3065
330
1F
100
AcDbEntity
  8
10
100
AcDbLine
 10
1128.884866506236
 20
543.4768937686522
 30
0.0
 11
1128.884866506236
 21
531.4768937686526
 31
0.0
  0
LINE
  5
3066
330
1F
100
AcDbEntity
  8
10
100
AcDbLine
 10
1127.884866506236
 20
543.4768937686522
 30
0.0
 11
1127.884866506236
 21
531.4768937686526
 31
0.0
  0
LINE
  5
3067
330
1F
100
AcDbEntity
  8
10
100
AcDbLine
 10
1125.884866506235
 20
543.4768937686522
 30
0.0
 11
1125.884866506235
 21
531.4768937686526
 31
0.0
  0
LINE
  5
3068
330
1F
100
AcDbEntity
  8
10
100
AcDbLine
 10
1124.884866506236
 20
543.4768937686522
 30
0.0
 11
1124.884866506236
 21
531.4768937686526
 31
0.0
  0
LINE
  5
3069
330
1F
100
AcDbEntity
  8
10
100
AcDbLine
 10
1122.884866506236
 20
543.4768937686522
 30
0.0
 11
1122.884866506236
 21
531.4768937686526
 31
0.0
  0
LINE
  5
306A
330
1F
100
AcDbEntity
  8
10
100
AcDbLine
 10
1121.884866506235
 20
543.4768937686522
 30
0.0
 11
1121.884866506235
 21
531.4768937686526
 31
0.0
  0
LINE
  5
306B
330
1F
100
AcDbEntity
  8
10
100
AcDbLine
 10
1102.384866506236
 20
695.8768937686516
 30
0.0
 11
1092.384866506235
 21
695.8768937686516
 31
0.0
  0
LINE
  5
306C
330
1F
100
AcDbEntity
  8
10
100
AcDbLine
 10
1148.584866506236
 20
606.4768937686523
 30
0.0
 11
1148.584866506236
 21
543.4768937686522
 31
0.0
  0
LINE
  5
306D
330
1F
100
AcDbEntity
  8
10
100
AcDbLine
 10
1155.384866506236
 20
606.4768937686523
 30
0.0
 11
1155.384866506236
 21
543.4768937686526
 31
0.0
  0
LINE
  5
306E
330
1F
100
AcDbEntity
  8
10
100
AcDbLine
 10
1154.884866506236
 20
606.4768937686523
 30
0.0
 11
1154.884866506236
 21
531.4768937686526
 31
0.0
  0
LINE
  5
306F
330
1F
100
AcDbEntity
  8
10
100
AcDbLine
 10
1152.884866506236
 20
606.4768937686523
 30
0.0
 11
1152.884866506236
 21
531.4768937686526
 31
0.0
  0
LINE
  5
3070
330
1F
100
AcDbEntity
  8
10
100
AcDbLine
 10
1151.884866506236
 20
606.4768937686523
 30
0.0
 11
1151.884866506236
 21
531.4768937686526
 31
0.0
  0
LINE
  5
3071
330
1F
100
AcDbEntity
  8
10
100
AcDbLine
 10
1149.884866506236
 20
606.4768937686523
 30
0.0
 11
1149.884866506236
 21
531.4768937686526
 31
0.0
  0
LINE
  5
3072
330
1F
100
AcDbEntity
  8
10
100
AcDbLine
 10
1148.884866506236
 20
606.4768937686523
 30
0.0
 11
1148.884866506236
 21
531.4768937686526
 31
0.0
  0
LINE
  5
3073
330
1F
100
AcDbEntity
  8
10
100
AcDbLine
 10
1155.884866506236
 20
543.4768937686526
 30
0.0
 11
1155.884866506236
 21
531.4768937686526
 31
0.0
  0
LINE
  5
3074
330
1F
100
AcDbEntity
  8
10
100
AcDbLine
 10
1146.884866506236
 20
543.4768937686522
 30
0.0
 11
1146.884866506236
 21
531.4768937686526
 31
0.0
  0
LINE
  5
3075
330
1F
100
AcDbEntity
  8
10
100
AcDbLine
 10
1145.884866506235
 20
543.4768937686522
 30
0.0
 11
1145.884866506235
 21
531.4768937686526
 31
0.0
  0
LINE
  5
3076
330
1F
100
AcDbEntity
  8
10
100
AcDbLine
 10
1143.884866506236
 20
543.4768937686522
 30
0.0
 11
1143.884866506236
 21
531.4768937686526
 31
0.0
  0
LINE
  5
3077
330
1F
100
AcDbEntity
  8
10
100
AcDbLine
 10
1142.884866506234
 20
543.4768937686522
 30
0.0
 11
1142.884866506234
 21
531.4768937686526
 31
0.0
  0
LINE
  5
3078
330
1F
100
AcDbEntity
  8
10
100
AcDbLine
 10
1140.884866506236
 20
543.4768937686522
 30
0.0
 11
1140.884866506236
 21
531.4768937686526
 31
0.0
  0
LINE
  5
3079
330
1F
100
AcDbEntity
  8
10
100
AcDbLine
 10
1139.884866506235
 20
543.4768937686522
 30
0.0
 11
1139.884866506235
 21
531.4768937686526
 31
0.0
  0
LINE
  5
307A
330
1F
100
AcDbEntity
  8
10
100
AcDbLine
 10
1175.884866506236
 20
543.4768937686526
 30
0.0
 11
1175.884866506236
 21
531.4768937686526
 31
0.0
  0
LINE
  5
307B
330
1F
100
AcDbEntity
  8
10
100
AcDbLine
 10
1173.884866506236
 20
543.4768937686526
 30
0.0
 11
1173.884866506236
 21
531.4768937686526
 31
0.0
  0
LINE
  5
307C
330
1F
100
AcDbEntity
  8
10
100
AcDbLine
 10
1172.884866506236
 20
543.4768937686526
 30
0.0
 11
1172.884866506236
 21
531.4768937686526
 31
0.0
  0
LINE
  5
307D
330
1F
100
AcDbEntity
  8
10
100
AcDbLine
 10
1170.884866506236
 20
543.4768937686526
 30
0.0
 11
1170.884866506236
 21
531.4768937686526
 31
0.0
  0
LINE
  5
307E
330
1F
100
AcDbEntity
  8
10
100
AcDbLine
 10
1169.884866506236
 20
543.4768937686526
 30
0.0
 11
1169.884866506236
 21
531.4768937686526
 31
0.0
  0
LINE
  5
307F
330
1F
100
AcDbEntity
  8
10
100
AcDbLine
 10
1167.884866506236
 20
543.4768937686526
 30
0.0
 11
1167.884866506236
 21
531.4768937686526
 31
0.0
  0
LINE
  5
3080
330
1F
100
AcDbEntity
  8
10
100
AcDbLine
 10
1166.884866506235
 20
543.4768937686526
 30
0.0
 11
1166.884866506235
 21
531.4768937686526
 31
0.0
  0
LINE
  5
3081
330
1F
100
AcDbEntity
  8
10
100
AcDbLine
 10
1164.884866506236
 20
543.4768937686526
 30
0.0
 11
1164.884866506236
 21
531.4768937686526
 31
0.0
  0
LINE
  5
3082
330
1F
100
AcDbEntity
  8
10
100
AcDbLine
 10
1163.884866506236
 20
543.4768937686526
 30
0.0
 11
1163.884866506236
 21
531.4768937686526
 31
0.0
  0
LINE
  5
3083
330
1F
100
AcDbEntity
  8
10
100
AcDbLine
 10
1161.884866506236
 20
543.4768937686526
 30
0.0
 11
1161.884866506236
 21
531.4768937686526
 31
0.0
  0
LINE
  5
3084
330
1F
100
AcDbEntity
  8
10
100
AcDbLine
 10
1160.884866506236
 20
543.4768937686526
 30
0.0
 11
1160.884866506236
 21
531.4768937686526
 31
0.0
  0
LINE
  5
3085
330
1F
100
AcDbEntity
  8
10
100
AcDbLine
 10
1158.884866506235
 20
543.4768937686526
 30
0.0
 11
1158.884866506235
 21
531.4768937686526
 31
0.0
  0
LINE
  5
3086
330
1F
100
AcDbEntity
  8
10
100
AcDbLine
 10
1157.884866506236
 20
543.4768937686526
 30
0.0
 11
1157.884866506236
 21
531.4768937686526
 31
0.0
  0
LINE
  5
3087
330
1F
100
AcDbEntity
  8
10
100
AcDbLine
 10
1193.884866506236
 20
543.4768937686526
 30
0.0
 11
1193.884866506236
 21
531.4768937686526
 31
0.0
  0
LINE
  5
3088
330
1F
100
AcDbEntity
  8
10
100
AcDbLine
 10
1191.884866506236
 20
543.4768937686526
 30
0.0
 11
1191.884866506236
 21
531.4768937686526
 31
0.0
  0
LINE
  5
3089
330
1F
100
AcDbEntity
  8
10
100
AcDbLine
 10
1190.884866506235
 20
543.4768937686526
 30
0.0
 11
1190.884866506235
 21
531.4768937686526
 31
0.0
  0
LINE
  5
308A
330
1F
100
AcDbEntity
  8
10
100
AcDbLine
 10
1188.884866506236
 20
543.4768937686526
 30
0.0
 11
1188.884866506236
 21
531.4768937686526
 31
0.0
  0
LINE
  5
308B
330
1F
100
AcDbEntity
  8
10
100
AcDbLine
 10
1187.884866506236
 20
543.4768937686526
 30
0.0
 11
1187.884866506236
 21
531.4768937686526
 31
0.0
  0
LINE
  5
308C
330
1F
100
AcDbEntity
  8
10
100
AcDbLine
 10
1185.884866506236
 20
543.4768937686526
 30
0.0
 11
1185.884866506236
 21
531.4768937686526
 31
0.0
  0
LINE
  5
308D
330
1F
100
AcDbEntity
  8
10
100
AcDbLine
 10
1184.884866506236
 20
543.4768937686526
 30
0.0
 11
1184.884866506236
 21
531.4768937686526
 31
0.0
  0
LINE
  5
308E
330
1F
100
AcDbEntity
  8
10
100
AcDbLine
 10
1182.884866506235
 20
543.4768937686526
 30
0.0
 11
1182.884866506235
 21
531.4768937686526
 31
0.0
  0
LINE
  5
308F
330
1F
100
AcDbEntity
  8
10
100
AcDbLine
 10
1181.884866506236
 20
543.4768937686526
 30
0.0
 11
1181.884866506236
 21
531.4768937686526
 31
0.0
  0
LINE
  5
3090
330
1F
100
AcDbEntity
  8
10
100
AcDbLine
 10
1179.884866506236
 20
543.4768937686526
 30
0.0
 11
1179.884866506236
 21
531.4768937686526
 31
0.0
  0
LINE
  5
3091
330
1F
100
AcDbEntity
  8
10
100
AcDbLine
 10
1178.884866506236
 20
543.4768937686526
 30
0.0
 11
1178.884866506236
 21
531.4768937686526
 31
0.0
  0
LINE
  5
3092
330
1F
100
AcDbEntity
  8
10
100
AcDbLine
 10
1176.884866506236
 20
543.4768937686526
 30
0.0
 11
1176.884866506236
 21
531.4768937686526
 31
0.0
  0
LINE
  5
3093
330
1F
100
AcDbEntity
  8
10
100
AcDbLine
 10
1211.884866506236
 20
543.4768937686526
 30
0.0
 11
1211.884866506236
 21
531.4768937686526
 31
0.0
  0
LINE
  5
3094
330
1F
100
AcDbEntity
  8
10
100
AcDbLine
 10
1209.884866506236
 20
543.4768937686526
 30
0.0
 11
1209.884866506236
 21
531.4768937686526
 31
0.0
  0
LINE
  5
3095
330
1F
100
AcDbEntity
  8
10
100
AcDbLine
 10
1208.884866506235
 20
543.4768937686526
 30
0.0
 11
1208.884866506235
 21
531.4768937686526
 31
0.0
  0
LINE
  5
3096
330
1F
100
AcDbEntity
  8
10
100
AcDbLine
 10
1206.884866506236
 20
543.4768937686526
 30
0.0
 11
1206.884866506236
 21
531.4768937686526
 31
0.0
  0
LINE
  5
3097
330
1F
100
AcDbEntity
  8
10
100
AcDbLine
 10
1205.884866506236
 20
543.4768937686526
 30
0.0
 11
1205.884866506236
 21
531.4768937686526
 31
0.0
  0
LINE
  5
3098
330
1F
100
AcDbEntity
  8
10
100
AcDbLine
 10
1203.884866506236
 20
543.4768937686526
 30
0.0
 11
1203.884866506236
 21
531.4768937686526
 31
0.0
  0
LINE
  5
3099
330
1F
100
AcDbEntity
  8
10
100
AcDbLine
 10
1202.884866506236
 20
543.4768937686526
 30
0.0
 11
1202.884866506236
 21
531.4768937686526
 31
0.0
  0
LINE
  5
309A
330
1F
100
AcDbEntity
  8
10
100
AcDbLine
 10
1200.884866506235
 20
543.4768937686526
 30
0.0
 11
1200.884866506235
 21
531.4768937686526
 31
0.0
  0
LINE
  5
309B
330
1F
100
AcDbEntity
  8
10
100
AcDbLine
 10
1199.884866506236
 20
543.4768937686526
 30
0.0
 11
1199.884866506236
 21
531.4768937686526
 31
0.0
  0
LINE
  5
309C
330
1F
100
AcDbEntity
  8
10
100
AcDbLine
 10
1197.884866506236
 20
543.4768937686526
 30
0.0
 11
1197.884866506236
 21
531.4768937686526
 31
0.0
  0
LINE
  5
309D
330
1F
100
AcDbEntity
  8
10
100
AcDbLine
 10
1196.884866506236
 20
543.4768937686526
 30
0.0
 11
1196.884866506236
 21
531.4768937686526
 31
0.0
  0
LINE
  5
309E
330
1F
100
AcDbEntity
  8
10
100
AcDbLine
 10
1194.884866506236
 20
543.4768937686526
 30
0.0
 11
1194.884866506236
 21
531.4768937686526
 31
0.0
  0
LINE
  5
309F
330
1F
100
AcDbEntity
  8
10
100
AcDbLine
 10
1194.384866506235
 20
695.8768937686516
 30
0.0
 11
1184.384866506235
 21
695.8768937686516
 31
0.0
  0
LINE
  5
30A1
330
1F
100
AcDbEntity
  8
10
100
AcDbLine
 10
1261.384866506236
 20
653.8768937686523
 30
0.0
 11
1261.384866506236
 21
521.4768937686526
 31
0.0
  0
LINE
  5
30A2
330
1F
100
AcDbEntity
  8
10
 48
3.0
100
AcDbLine
 10
1273.384866506236
 20
518.8768937686521
 30
0.0
 11
1273.384866506236
 21
552.8768937686519
 31
0.0
  0
ARC
  5
30A3
330
1F
100
AcDbEntity
  8
12
 48
3.0
100
AcDbCircle
 10
1241.384866506236
 20
526.8768937686521
 30
0.0
 40
3.599999999999984
100
AcDbArc
 50
13.64408479549537
 51
166.3559152045045
  0
ARC
  5
30A4
330
1F
100
AcDbEntity
  8
12
 48
3.0
100
AcDbCircle
 10
1261.384866506236
 20
526.8768937686521
 30
0.0
 40
3.599999999999984
100
AcDbArc
 50
13.64408479549537
 51
166.3559152045045
  0
LINE
  5
30A5
330
1F
100
AcDbEntity
  8
10
100
AcDbLine
 10
1263.384866506235
 20
653.8768937686523
 30
0.0
 11
1263.384866506235
 21
519.8768937686525
 31
0.0
  0
LINE
  5
30A6
330
1F
100
AcDbEntity
  8
10
100
AcDbLine
 10
1261.784866506236
 20
653.8768937686523
 30
0.0
 11
1261.784866506236
 21
521.4768937686526
 31
0.0
  0
LINE
  5
30A7
330
1F
100
AcDbEntity
  8
12
 48
3.0
100
AcDbLine
 10
1236.51517118237
 20
522.0768937686523
 30
0.0
 11
1237.886459266887
 21
527.7260973883267
 31
0.0
  0
LINE
  5
30A8
330
1F
100
AcDbEntity
  8
12
 48
3.0
100
AcDbLine
 10
1246.254561830101
 20
522.0768937686523
 30
0.0
 11
1244.883273745585
 21
527.7260973883267
 31
0.0
  0
LINE
  5
30A9
330
1F
100
AcDbEntity
  8
12
 48
3.0
100
AcDbLine
 10
1266.254561830101
 20
522.0768937686523
 30
0.0
 11
1264.883273745585
 21
527.7260973883267
 31
0.0
  0
LINE
  5
30AA
330
1F
100
AcDbEntity
  8
10
100
AcDbLine
 10
1261.384866506236
 20
521.4768937686526
 30
0.0
 11
1261.382329965668
 21
521.4768937686526
 31
0.0
  0
LINE
  5
30AB
330
1F
100
AcDbEntity
  8
12
 48
3.0
100
AcDbLine
 10
1256.51517118237
 20
522.0768937686523
 30
0.0
 11
1257.886459266887
 21
527.7260973883267
 31
0.0
  0
LINE
  5
30AC
330
1F
100
AcDbEntity
  8
12
 48
3.0
100
AcDbLine
 10
1254.637643255968
 20
537.3768937686519
 30
0.0
 11
1247.132089756503
 21
537.3768937686519
 31
0.0
  0
LINE
  5
30AD
330
1F
100
AcDbEntity
  8
12
 48
3.0
100
AcDbLine
 10
1254.637643255968
 20
550.3768937686519
 30
0.0
 11
1247.132089756503
 21
550.3768937686519
 31
0.0
  0
CIRCLE
  5
30AE
330
1F
100
AcDbEntity
  8
12
 48
3.0
100
AcDbCircle
 10
1250.884866506235
 20
543.8768937686521
 30
0.0
 40
9.000000000000001
  0
CIRCLE
  5
30AF
330
1F
100
AcDbEntity
  8
12
 48
3.0
100
AcDbCircle
 10
1250.884866506235
 20
543.8768937686521
 30
0.0
 40
7.700000000000001
  0
LINE
  5
30B0
330
1F
100
AcDbEntity
  8
10
 48
3.0
100
AcDbLine
 10
1270.384866506236
 20
555.8768937686521
 30
0.0
 11
1243.384866506236
 21
555.8768937686521
 31
0.0
  0
LINE
  5
30B1
330
1F
100
AcDbEntity
  8
10
100
AcDbLine
 10
1233.584866506236
 20
606.4735595088778
 30
0.0
 11
1233.584866506236
 21
543.4768937686526
 31
0.0
  0
LINE
  5
30B2
330
1F
100
AcDbEntity
  8
10
100
AcDbLine
 10
1239.384866506236
 20
600.4768937686518
 30
0.0
 11
1239.384866506236
 21
537.4768937686523
 31
0.0
  0
LINE
  5
30B3
330
1F
100
AcDbEntity
  8
10
100
AcDbLine
 10
1234.884866506236
 20
606.2863687879633
 30
0.0
 11
1234.884866506236
 21
531.6674187493413
 31
0.0
  0
LINE
  5
30B4
330
1F
100
AcDbEntity
  8
10
100
AcDbLine
 10
1233.884866506236
 20
606.4560241402026
 30
0.0
 11
1233.884866506236
 21
531.4977633971019
 31
0.0
  0
LINE
  5
30B5
330
1F
100
AcDbEntity
  8
10
100
AcDbLine
 10
1229.884866506236
 20
543.4768937686526
 30
0.0
 11
1229.884866506236
 21
531.4768937686526
 31
0.0
  0
LINE
  5
30B6
330
1F
100
AcDbEntity
  8
10
100
AcDbLine
 10
1227.884866506236
 20
543.4768937686526
 30
0.0
 11
1227.884866506236
 21
531.4768937686526
 31
0.0
  0
LINE
  5
30B7
330
1F
100
AcDbEntity
  8
10
100
AcDbLine
 10
1226.884866506236
 20
543.4768937686526
 30
0.0
 11
1226.884866506236
 21
531.4768937686526
 31
0.0
  0
LINE
  5
30B8
330
1F
100
AcDbEntity
  8
10
100
AcDbLine
 10
1224.884866506235
 20
543.4768937686526
 30
0.0
 11
1224.884866506235
 21
531.4768937686526
 31
0.0
  0
LINE
  5
30B9
330
1F
100
AcDbEntity
  8
10
100
AcDbLine
 10
1223.884866506236
 20
543.4768937686526
 30
0.0
 11
1223.884866506236
 21
531.4768937686526
 31
0.0
  0
LINE
  5
30BA
330
1F
100
AcDbEntity
  8
10
100
AcDbLine
 10
1221.884866506236
 20
543.4768937686526
 30
0.0
 11
1221.884866506236
 21
531.4768937686526
 31
0.0
  0
LINE
  5
30BB
330
1F
100
AcDbEntity
  8
10
100
AcDbLine
 10
1220.884866506236
 20
543.4768937686526
 30
0.0
 11
1220.884866506236
 21
531.4768937686526
 31
0.0
  0
LINE
  5
30BC
330
1F
100
AcDbEntity
  8
10
100
AcDbLine
 10
1218.884866506236
 20
543.4768937686526
 30
0.0
 11
1218.884866506236
 21
531.4768937686526
 31
0.0
  0
LINE
  5
30BD
330
1F
100
AcDbEntity
  8
10
100
AcDbLine
 10
1217.884866506236
 20
543.4768937686526
 30
0.0
 11
1217.884866506236
 21
531.4768937686526
 31
0.0
  0
LINE
  5
30BE
330
1F
100
AcDbEntity
  8
10
100
AcDbLine
 10
1215.884866506236
 20
543.4768937686526
 30
0.0
 11
1215.884866506236
 21
531.4768937686526
 31
0.0
  0
LINE
  5
30BF
330
1F
100
AcDbEntity
  8
10
100
AcDbLine
 10
1214.884866506236
 20
543.4768937686526
 30
0.0
 11
1214.884866506236
 21
531.4768937686526
 31
0.0
  0
LINE
  5
30C0
330
1F
100
AcDbEntity
  8
10
100
AcDbLine
 10
1212.884866506236
 20
543.4768937686526
 30
0.0
 11
1212.884866506236
 21
531.4768937686526
 31
0.0
  0
ARC
  5
30C1
330
1F
100
AcDbEntity
  8
10
 48
3.0
100
AcDbCircle
 10
1233.384866506236
 20
537.4768937686523
 30
0.0
 40
6.000000000000013
100
AcDbArc
 50
270.0
 51
0.0
  0
LINE
  5
30C2
330
1F
100
AcDbEntity
  8
12
 48
3.0
100
AcDbLine
 10
1247.132089756503
 20
550.3768937686519
 30
0.0
 11
1243.37931300677
 21
543.8768937686519
 31
0.0
  0
LINE
  5
30C3
330
1F
100
AcDbEntity
  8
12
 48
3.0
100
AcDbLine
 10
1247.132089756503
 20
537.3768937686519
 30
0.0
 11
1243.37931300677
 21
543.8768937686519
 31
0.0
  0
LINE
  5
30C4
330
1F
100
AcDbEntity
  8
10
 48
3.0
100
AcDbLine
 10
1240.384866506236
 20
552.8768937686519
 30
0.0
 11
1240.384866506236
 21
537.8768937686523
 31
0.0
  0
LINE
  5
30C5
330
1F
100
AcDbEntity
  8
10
 48
3.0
100
AcDbLine
 10
1243.384866506236
 20
555.8768937686521
 30
0.0
 11
1240.384866506236
 21
552.8768937686519
 31
0.0
  0
ARC
  5
30C6
330
1F
100
AcDbEntity
  8
10
 48
3.0
100
AcDbCircle
 10
1233.384866506236
 20
537.8768937686523
 30
0.0
 40
6.999999999999992
100
AcDbArc
 50
270.0
 51
0.0
  0
LINE
  5
30C7
330
1F
100
AcDbEntity
  8
10
100
AcDbLine
 10
1230.884866506236
 20
543.4768937686526
 30
0.0
 11
1230.884866506236
 21
531.4768937686526
 31
0.0
  0
ARC
  5
30C8
330
1F
100
AcDbEntity
  8
10
100
AcDbCircle
 10
1233.384866506236
 20
600.4768937686518
 30
0.0
 40
5.999999999999993
100
AcDbArc
 50
0.0
 51
90.0
  0
LINE
  5
30C9
330
1F
100
AcDbEntity
  8
12
 48
3.0
100
AcDbLine
 10
1258.3904200057
 20
543.8768937686519
 30
0.0
 11
1254.637643255968
 21
537.3768937686519
 31
0.0
  0
LINE
  5
30CA
330
1F
100
AcDbEntity
  8
12
 48
3.0
100
AcDbLine
 10
1258.3904200057
 20
543.8768937686519
 30
0.0
 11
1254.637643255968
 21
550.3768937686519
 31
0.0
  0
LINE
  5
30CB
330
1F
100
AcDbEntity
  8
10
 48
3.0
100
AcDbLine
 10
1273.384866506236
 20
552.8768937686519
 30
0.0
 11
1270.384866506236
 21
555.8768937686521
 31
0.0
  0
ARC
  5
30CC
330
1F
100
AcDbEntity
  8
10
100
AcDbCircle
 10
1230.384866506235
 20
698.9768937686522
 30
0.0
 40
14.99999999999999
100
AcDbArc
 50
270.0
 51
0.0
  0
CIRCLE
  5
30CD
330
1F
100
AcDbEntity
  8
12
100
AcDbCircle
 10
1250.884866506235
 20
678.8768937686519
 30
0.0
 40
6.500000000000002
  0
LINE
  5
30CE
330
1F
100
AcDbEntity
  8
12
100
AcDbLine
 10
1254.637643255968
 20
672.3768937686521
 30
0.0
 11
1247.132089756503
 21
672.3768937686521
 31
0.0
  0
LINE
  5
30CF
330
1F
100
AcDbEntity
  8
12
100
AcDbLine
 10
1254.637643255968
 20
685.3768937686519
 30
0.0
 11
1247.132089756503
 21
685.3768937686519
 31
0.0
  0
CIRCLE
  5
30D0
330
1F
100
AcDbEntity
  8
12
100
AcDbCircle
 10
1250.884866506235
 20
678.8768937686523
 30
0.0
 40
9.000000000000001
  0
CIRCLE
  5
30D1
330
1F
100
AcDbEntity
  8
12
100
AcDbCircle
 10
1250.884866506235
 20
678.8768937686523
 30
0.0
 40
7.700000000000001
  0
LINE
  5
30D2
330
1F
100
AcDbEntity
  8
10
100
AcDbLine
 10
1270.384866506236
 20
690.8768937686521
 30
0.0
 11
1243.384866506236
 21
690.8768937686521
 31
0.0
  0
LINE
  5
30D3
330
1F
100
AcDbEntity
  8
12
100
AcDbLine
 10
1246.254561830101
 20
657.0768937686522
 30
0.0
 11
1244.883273745585
 21
662.7260973883267
 31
0.0
  0
LINE
  5
30D4
330
1F
100
AcDbEntity
  8
12
100
AcDbLine
 10
1236.51517118237
 20
657.0768937686522
 30
0.0
 11
1237.886459266887
 21
662.7260973883267
 31
0.0
  0
LINE
  5
30D5
330
1F
100
AcDbEntity
  8
12
100
AcDbLine
 10
1247.132089756503
 20
685.3768937686519
 30
0.0
 11
1243.37931300677
 21
678.8768937686519
 31
0.0
  0
LINE
  5
30D6
330
1F
100
AcDbEntity
  8
12
100
AcDbLine
 10
1247.132089756503
 20
672.3768937686521
 30
0.0
 11
1243.37931300677
 21
678.8768937686519
 31
0.0
  0
ARC
  5
30D7
330
1F
100
AcDbEntity
  8
10
100
AcDbCircle
 10
1233.384866506236
 20
672.8768937686522
 30
0.0
 40
7.000000000000007
100
AcDbArc
 50
270.0
 51
0.0
  0
LINE
  5
30D8
330
1F
100
AcDbEntity
  8
10
100
AcDbLine
 10
1243.384866506236
 20
690.8768937686521
 30
0.0
 11
1240.384866506236
 21
687.876893768652
 31
0.0
  0
ARC
  5
30D9
330
1F
100
AcDbEntity
  8
12
100
AcDbCircle
 10
1241.384866506236
 20
661.8768937686519
 30
0.0
 40
3.599999999999978
100
AcDbArc
 50
13.64408479549537
 51
166.3559152045045
  0
LINE
  5
30DA
330
1F
100
AcDbEntity
  8
10
100
AcDbLine
 10
1240.384866506236
 20
687.876893768652
 30
0.0
 11
1240.384866506236
 21
672.8768937686522
 31
0.0
  0
LINE
  5
30DB
330
1F
100
AcDbEntity
  8
10
100
AcDbLine
 10
1232.384866506235
 20
695.8768937686516
 30
0.0
 11
1230.384866506235
 21
695.8768937686516
 31
0.0
  0
LINE
  5
30DC
330
1F
100
AcDbEntity
  8
10
100
AcDbLine
 10
1234.384866506235
 20
695.8768937686516
 30
0.0
 11
1234.384866506235
 21
685.8768937686517
 31
0.0
  0
LINE
  5
30DD
330
1F
100
AcDbEntity
  8
10
100
AcDbLine
 10
1245.061037669042
 20
695.8768937686516
 30
0.0
 11
1234.384866506235
 21
695.8768937686516
 31
0.0
  0
LINE
  5
30DE
330
1F
100
AcDbEntity
  8
12
100
AcDbLine
 10
1256.51517118237
 20
657.0768937686522
 30
0.0
 11
1257.886459266887
 21
662.7260973883267
 31
0.0
  0
LINE
  5
30DF
330
1F
100
AcDbEntity
  8
12
100
AcDbLine
 10
1266.254561830101
 20
657.0768937686522
 30
0.0
 11
1264.883273745585
 21
662.7260973883267
 31
0.0
  0
LINE
  5
30E0
330
1F
100
AcDbEntity
  8
10
100
AcDbLine
 10
1273.384866506236
 20
653.8768937686523
 30
0.0
 11
1273.384866506236
 21
687.876893768652
 31
0.0
  0
LINE
  5
30E1
330
1F
100
AcDbEntity
  8
10
100
AcDbLine
 10
1273.384866506236
 20
653.8768937686523
 30
0.0
 11
1263.384866506235
 21
653.8768937686523
 31
0.0
  0
LINE
  5
30E2
330
1F
100
AcDbEntity
  8
12
100
AcDbLine
 10
1258.3904200057
 20
678.8768937686519
 30
0.0
 11
1254.637643255968
 21
672.3768937686521
 31
0.0
  0
LINE
  5
30E3
330
1F
100
AcDbEntity
  8
12
100
AcDbLine
 10
1258.3904200057
 20
678.8768937686519
 30
0.0
 11
1254.637643255968
 21
685.3768937686519
 31
0.0
  0
ARC
  5
30E4
330
1F
100
AcDbEntity
  8
12
100
AcDbCircle
 10
1261.384866506236
 20
661.8768937686519
 30
0.0
 40
3.599999999999978
100
AcDbArc
 50
13.64408479549537
 51
166.3559152045045
  0
LINE
  5
30E5
330
1F
100
AcDbEntity
  8
10
100
AcDbLine
 10
1273.384866506236
 20
687.876893768652
 30
0.0
 11
1270.384866506236
 21
690.8768937686521
 31
0.0
  0
CIRCLE
  5
30E6
330
1F
100
AcDbEntity
  8
10
 48
3.0
100
AcDbCircle
 10
938.3848665062354
 20
1076.976893768652
 30
0.0
 40
11.70000000000001
  0
LINE
  5
30E7
330
1F
100
AcDbEntity
  8
10
 48
3.0
100
AcDbLine
 10
972.7017914055029
 20
1112.476893768652
 30
0.0
 11
917.701791405503
 21
1112.476893768652
 31
0.0
  0
LINE
  5
30E8
330
1F
100
AcDbEntity
  8
10
 48
3.0
100
AcDbLine
 10
917.701791405503
 20
1147.476893768652
 30
0.0
 11
972.7017914055029
 21
1147.476893768652
 31
0.0
  0
LINE
  5
30E9
330
1F
100
AcDbEntity
  8
10
100
AcDbLine
 10
873.3848665062357
 20
1057.476893768652
 30
0.0
 11
1273.384866506235
 21
1057.476893768652
 31
0.0
  0
LINE
  5
30EA
330
1F
100
AcDbEntity
  8
10
100
AcDbLine
 10
873.3848665062357
 20
1329.476893768652
 30
0.0
 11
1273.384866506235
 21
1329.476893768652
 31
0.0
  0
LINE
  5
30EB
330
1F
100
AcDbEntity
  8
10
100
AcDbLine
 10
1273.384866506236
 20
764.076893768653
 30
0.0
 11
873.3848665062357
 21
764.0768937686522
 31
0.0
  0
LINE
  5
30EC
330
1F
100
AcDbEntity
  8
10
100
AcDbLine
 10
1271.384866506235
 20
756.0768937686532
 30
0.0
 11
875.3848665062358
 21
756.0768937686524
 31
0.0
  0
LINE
  5
30EE
330
1F
100
AcDbEntity
  8
10
100
AcDbLine
 10
1270.384866506235
 20
1638.976893768653
 30
0.0
 11
876.384866506236
 21
1638.976893768653
 31
0.0
  0
LINE
  5
30EF
330
1F
100
AcDbEntity
  8
10
100
AcDbLine
 10
1273.384866506235
 20
1602.176893768653
 30
0.0
 11
873.3848665062357
 21
1602.176893768653
 31
0.0
  0
LINE
  5
30F0
330
1F
100
AcDbEntity
  8
10
100
AcDbLine
 10
1273.384866506235
 20
1055.776893768653
 30
0.0
 11
873.3848665062357
 21
1055.776893768653
 31
0.0
  0
LINE
  5
30F1
330
1F
100
AcDbEntity
  8
10
100
AcDbLine
 10
1223.384866506235
 20
1018.976893768652
 30
0.0
 11
923.384866506236
 21
1018.976893768652
 31
0.0
  0
TEXT
  5
30F2
330
1F
100
AcDbEntity
  8
10
 48
3.0
100
AcDbText
 10
919.9018135705548
 20
1117.476892555961
 30
0.0
 40
16.00000023841857
  1
ＴＢ２
 50
0.0000025044784726
 41
0.7031250019402551
  7
STANDARD1
100
AcDbText
  0
LINE
  5
30F3
330
1F
100
AcDbEntity
  8
12
 48
3.0
100
AcDbLine
 10
1238.384866506235
 20
1623.976893768652
 30
0.0
 11
908.3848665062358
 21
1623.976893768652
 31
0.0
  0
LINE
  5
30F4
330
1F
100
AcDbEntity
  8
12
 48
3.0
100
AcDbLine
 10
1238.384866506235
 20
1033.976893768652
 30
0.0
 11
908.3848665062358
 21
1033.976893768652
 31
0.0
  0
LINE
  5
30F7
330
1F
100
AcDbEntity
  8
10
100
AcDbLine
 10
873.3848665062357
 20
1329.976893768653
 30
0.0
 11
1273.384866506235
 21
1329.976893768653
 31
0.0
  0
LINE
  5
30F8
330
1F
100
AcDbEntity
  8
10
100
AcDbLine
 10
1273.384866506235
 20
1600.976893768653
 30
0.0
 11
873.3848665062357
 21
1600.976893768653
 31
0.0
  0
LINE
  5
30F9
330
1F
100
AcDbEntity
  8
10
100
AcDbLine
 10
873.3848665062357
 20
1058.976893768653
 30
0.0
 11
873.3848665062357
 21
1598.976893768653
 31
0.0
  0
LINE
  5
30FA
330
1F
100
AcDbEntity
  8
10
100
AcDbLine
 10
873.3848665062357
 20
1600.976893768653
 30
0.0
 11
873.3848665062357
 21
1329.976893768653
 31
0.0
  0
LINE
  5
30FB
330
1F
100
AcDbEntity
  8
10
100
AcDbLine
 10
873.3848665062357
 20
1329.476893768652
 30
0.0
 11
873.3848665062357
 21
1057.476893768652
 31
0.0
  0
LINE
  5
30FD
330
1F
100
AcDbEntity
  8
10
100
AcDbLine
 10
888.884866506236
 20
764.0768937686522
 30
0.0
 11
881.8848665062361
 21
764.0768937686522
 31
0.0
  0
LINE
  5
30FE
330
1F
100
AcDbEntity
  8
10
100
AcDbLine
 10
883.7145371973869
 20
766.6768937686526
 30
0.0
 11
887.0551958150846
 21
766.6768937686526
 31
0.0
  0
ARC
  5
30FF
330
1F
100
AcDbEntity
  8
10
100
AcDbCircle
 10
885.3848665062358
 20
765.1768937686523
 30
0.0
 40
1.499999999999984
100
AcDbArc
 50
0.0
 51
90.0
  0
ARC
  5
3100
330
1F
100
AcDbEntity
  8
10
100
AcDbCircle
 10
885.3848665062358
 20
764.0768937686522
 30
0.0
 40
3.499999999999963
100
AcDbArc
 50
146.6329870307671
 51
180.0
  0
ARC
  5
3101
330
1F
100
AcDbEntity
  8
10
100
AcDbCircle
 10
883.7145371973869
 20
765.1768937686523
 30
0.0
 40
1.499999999999999
100
AcDbArc
 50
90.0
 51
146.6329870307685
  0
ARC
  5
3102
330
1F
100
AcDbEntity
  8
10
100
AcDbCircle
 10
885.3848665062358
 20
765.1768937686523
 30
0.0
 40
1.499999999999999
100
AcDbArc
 50
90.0
 51
180.0
  0
LINE
  5
3103
330
1F
100
AcDbEntity
  8
10
100
AcDbLine
 10
885.3848665062358
 20
766.6768937686526
 30
0.0
 11
885.3848665062358
 21
766.6768937686526
 31
0.0
  0
LINE
  5
3104
330
1F
100
AcDbEntity
  8
10
100
AcDbLine
 10
873.3848665062357
 20
758.0768937686524
 30
0.0
 11
873.3848665062357
 21
764.0768937686522
 31
0.0
  0
LINE
  5
3105
330
1F
100
AcDbEntity
  8
10
100
AcDbLine
 10
873.3848665062357
 20
758.0768937686524
 30
0.0
 11
875.3848665062358
 21
756.0768937686524
 31
0.0
  0
LINE
  5
3106
330
1F
100
AcDbEntity
  8
10
100
AcDbLine
 10
918.3848665062358
 20
709.3768937686517
 30
0.0
 11
914.2848665062356
 21
709.3768937686517
 31
0.0
  0
LINE
  5
3107
330
1F
100
AcDbEntity
  8
10
100
AcDbLine
 10
916.8848665062355
 20
710.8768937686517
 30
0.0
 11
914.2848665062356
 21
710.8768937686517
 31
0.0
  0
LINE
  5
3108
330
1F
100
AcDbEntity
  8
10
100
AcDbLine
 10
916.8848665062355
 20
712.376893768652
 30
0.0
 11
912.8848665062358
 21
712.376893768652
 31
0.0
  0
LINE
  5
3109
330
1F
100
AcDbEntity
  8
10
100
AcDbLine
 10
914.2848665062356
 20
710.8768937686517
 30
0.0
 11
914.2848665062356
 21
709.3768937686517
 31
0.0
  0
LINE
  5
310A
330
1F
100
AcDbEntity
  8
10
100
AcDbLine
 10
916.8848665062355
 20
712.376893768652
 30
0.0
 11
916.8848665062355
 21
710.8768937686517
 31
0.0
  0
ARC
  5
310B
330
1F
100
AcDbEntity
  8
10
100
AcDbCircle
 10
885.3848665062358
 20
764.0768937686522
 30
0.0
 40
3.500000000000013
100
AcDbArc
 50
0.0
 51
33.36701296923139
  0
ARC
  5
310C
330
1F
100
AcDbEntity
  8
10
100
AcDbCircle
 10
887.0551958150846
 20
765.1768937686523
 30
0.0
 40
1.500000000000024
100
AcDbArc
 50
33.36701296923139
 51
90.0
  0
CIRCLE
  5
310D
330
1F
100
AcDbEntity
  8
10
100
AcDbCircle
 10
885.3848665062358
 20
1070.976893768653
 30
0.0
 40
3.499999999999944
  0
CIRCLE
  5
310E
330
1F
100
AcDbEntity
  8
10
100
AcDbCircle
 10
885.3848665062358
 20
1070.976893768653
 30
0.0
 40
3.999999999999984
  0
LINE
  5
310F
330
1F
100
AcDbEntity
  8
10
100
AcDbLine
 10
913.3848665062359
 20
1018.976893768652
 30
0.0
 11
876.384866506236
 21
1018.976893768652
 31
0.0
  0
LINE
  5
3110
330
1F
100
AcDbEntity
  8
10
100
AcDbLine
 10
904.3848665062355
 20
1055.776893768653
 30
0.0
 11
886.3848665062358
 21
1055.776893768653
 31
0.0
  0
LINE
  5
3111
330
1F
100
AcDbEntity
  8
10
100
AcDbLine
 10
887.8793130067711
 20
1046.676893768653
 30
0.0
 11
902.8904200057006
 21
1046.676893768653
 31
0.0
  0
LINE
  5
3112
330
1F
100
AcDbEntity
  8
10
100
AcDbLine
 10
887.6848665062357
 20
1052.176893768652
 30
0.0
 11
903.0848665062359
 21
1052.176893768652
 31
0.0
  0
LINE
  5
3113
330
1F
100
AcDbEntity
  8
10
100
AcDbLine
 10
886.3848665062358
 20
1054.176893768651
 30
0.0
 11
904.3848665062355
 21
1054.176893768652
 31
0.0
  0
LINE
  5
3114
330
1F
100
AcDbEntity
  8
10
100
AcDbLine
 10
873.3848665062357
 20
1021.976893768653
 30
0.0
 11
873.3848665062357
 21
1058.976893768653
 31
0.0
  0
LINE
  5
3115
330
1F
100
AcDbEntity
  8
10
100
AcDbLine
 10
873.3848665062357
 20
1021.976893768653
 30
0.0
 11
876.384866506236
 21
1018.976893768652
 31
0.0
  0
LINE
  5
3116
330
1F
100
AcDbEntity
  8
10
100
AcDbLine
 10
883.9706529438624
 20
1072.391107331026
 30
0.0
 11
886.7990800686087
 21
1069.56268020628
 31
0.0
  0
LINE
  5
3117
330
1F
100
AcDbEntity
  8
10
100
AcDbLine
 10
886.7990800686087
 20
1072.391107331026
 30
0.0
 11
883.9706529438624
 21
1069.56268020628
 31
0.0
  0
LINE
  5
3118
330
1F
100
AcDbEntity
  8
10
100
AcDbLine
 10
880.5151711823699
 20
1055.776893768653
 30
0.0
 11
881.8864592668861
 21
1050.127690148977
 31
0.0
  0
ARC
  5
3119
330
1F
100
AcDbEntity
  8
10
100
AcDbCircle
 10
885.3848665062358
 20
1050.976893768652
 30
0.0
 40
3.600000000000193
100
AcDbArc
 50
193.644084795489
 51
313.8602531655293
  0
LINE
  5
311A
330
1F
100
AcDbEntity
  8
10
100
AcDbLine
 10
876.384866506236
 20
1055.776893768653
 30
0.0
 11
876.384866506236
 21
1056.976893768653
 31
0.0
  0
LINE
  5
311B
330
1F
100
AcDbEntity
  8
10
100
AcDbLine
 10
891.6320897565034
 20
1046.676893768653
 30
0.0
 11
891.6320897565034
 21
1052.176893768652
 31
0.0
  0
LINE
  5
311C
330
1F
100
AcDbEntity
  8
10
100
AcDbLine
 10
887.6848665062357
 20
1054.176893768652
 30
0.0
 11
887.6848665062357
 21
1052.176893768652
 31
0.0
  0
LINE
  5
311D
330
1F
100
AcDbEntity
  8
10
100
AcDbLine
 10
886.3848665062358
 20
1054.176893768651
 30
0.0
 11
886.3848665062358
 21
1055.776893768653
 31
0.0
  0
LINE
  5
311E
330
1F
100
AcDbEntity
  8
10
100
AcDbLine
 10
887.8793130067711
 20
1046.676893768653
 30
0.0
 11
887.8793130067711
 21
1052.176893768652
 31
0.0
  0
LINE
  5
311F
330
1F
100
AcDbEntity
  8
12
100
AcDbLine
 10
923.384866506236
 20
1033.976893768652
 30
0.0
 11
923.384866506236
 21
1018.976893768652
 31
0.0
  0
LINE
  5
3120
330
1F
100
AcDbEntity
  8
12
100
AcDbLine
 10
913.3848665062359
 20
1033.976893768652
 30
0.0
 11
913.3848665062359
 21
1018.976893768652
 31
0.0
  0
LINE
  5
3121
330
1F
100
AcDbEntity
  8
12
 48
3.0
100
AcDbLine
 10
918.3848665062358
 20
1043.976893768652
 30
0.0
 11
918.3848665062358
 21
1023.976893768653
 31
0.0
  0
LINE
  5
3122
330
1F
100
AcDbEntity
  8
10
100
AcDbLine
 10
910.2545618301016
 20
1055.776893768653
 30
0.0
 11
908.8832737455854
 21
1050.127690148977
 31
0.0
  0
ARC
  5
3123
330
1F
100
AcDbEntity
  8
10
100
AcDbCircle
 10
905.3848665062357
 20
1050.976893768652
 30
0.0
 40
3.600000000000178
100
AcDbArc
 50
226.1397468344796
 51
346.3559152045076
  0
LINE
  5
3124
330
1F
100
AcDbEntity
  8
10
100
AcDbLine
 10
906.384866506236
 20
1055.776893768653
 30
0.0
 11
906.384866506236
 21
1056.976893768653
 31
0.0
  0
LINE
  5
3125
330
1F
100
AcDbEntity
  8
10
100
AcDbLine
 10
903.3848665062365
 20
1055.776893768653
 30
0.0
 11
903.3848665062365
 21
1056.976893768653
 31
0.0
  0
LINE
  5
3126
330
1F
100
AcDbEntity
  8
10
100
AcDbLine
 10
899.1376432559686
 20
1046.676893768653
 30
0.0
 11
899.1376432559686
 21
1052.176893768652
 31
0.0
  0
LINE
  5
3127
330
1F
100
AcDbEntity
  8
10
100
AcDbLine
 10
903.0848665062359
 20
1054.176893768652
 30
0.0
 11
903.0848665062359
 21
1052.176893768652
 31
0.0
  0
LINE
  5
3128
330
1F
100
AcDbEntity
  8
10
100
AcDbLine
 10
902.8904200057006
 20
1046.676893768653
 30
0.0
 11
902.8904200057006
 21
1052.176893768652
 31
0.0
  0
LINE
  5
3129
330
1F
100
AcDbEntity
  8
10
100
AcDbLine
 10
904.3848665062355
 20
1054.176893768652
 30
0.0
 11
904.3848665062355
 21
1055.776893768653
 31
0.0
  0
ARC
  5
312A
330
1F
100
AcDbEntity
  8
12
100
AcDbCircle
 10
918.3848665062358
 20
1033.976893768652
 30
0.0
 40
4.999999999999999
100
AcDbArc
 50
0.0
 51
180.0
  0
LINE
  5
312B
330
1F
100
AcDbEntity
  8
10
 48
3.0
100
AcDbLine
 10
917.701791405503
 20
1112.476893768652
 30
0.0
 11
917.701791405503
 21
1147.476893768652
 31
0.0
  0
CIRCLE
  5
312C
330
1F
100
AcDbEntity
  8
10
100
AcDbCircle
 10
885.3848665062358
 20
1337.976893768653
 30
0.0
 40
3.499999999999944
  0
CIRCLE
  5
312D
330
1F
100
AcDbEntity
  8
10
100
AcDbCircle
 10
885.3848665062358
 20
1337.976893768653
 30
0.0
 40
3.999999999999984
  0
LINE
  5
312E
330
1F
100
AcDbEntity
  8
10
100
AcDbLine
 10
873.3848665062357
 20
1329.476893768652
 30
0.0
 11
873.3848665062357
 21
1231.2149101686
 31
0.0
  0
LINE
  5
312F
330
1F
100
AcDbEntity
  8
10
100
AcDbLine
 10
883.9706529438624
 20
1339.391107331026
 30
0.0
 11
886.7990800686087
 21
1336.56268020628
 31
0.0
  0
LINE
  5
3130
330
1F
100
AcDbEntity
  8
10
100
AcDbLine
 10
886.7990800686087
 20
1339.391107331026
 30
0.0
 11
883.9706529438624
 21
1336.56268020628
 31
0.0
  0
LINE
  5
3131
330
1F
100
AcDbEntity
  8
10
100
AcDbLine
 10
886.7990800686087
 20
1323.391107331026
 30
0.0
 11
883.9706529438624
 21
1320.56268020628
 31
0.0
  0
LINE
  5
3132
330
1F
100
AcDbEntity
  8
10
100
AcDbLine
 10
883.9706529438624
 20
1323.391107331026
 30
0.0
 11
886.7990800686087
 21
1320.56268020628
 31
0.0
  0
CIRCLE
  5
3133
330
1F
100
AcDbEntity
  8
10
100
AcDbCircle
 10
885.3848665062358
 20
1321.976893768653
 30
0.0
 40
3.999999999999984
  0
CIRCLE
  5
3134
330
1F
100
AcDbEntity
  8
10
100
AcDbCircle
 10
885.3848665062358
 20
1321.976893768653
 30
0.0
 40
3.499999999999944
  0
LINE
  5
3135
330
1F
100
AcDbEntity
  8
10
100
AcDbLine
 10
892.3848665062356
 20
1329.476893768652
 30
0.0
 11
892.3848665062356
 21
1329.976893768653
 31
0.0
  0
LINE
  5
3136
330
1F
100
AcDbEntity
  8
10
100
AcDbLine
 10
873.3848665062357
 20
1598.976893768653
 30
0.0
 11
873.3848665062357
 21
1635.976893768653
 31
0.0
  0
LINE
  5
3137
330
1F
100
AcDbEntity
  8
10
100
AcDbLine
 10
910.2545618301022
 20
1602.176893768653
 30
0.0
 11
908.8832737455854
 21
1607.826097388328
 31
0.0
  0
LINE
  5
3138
330
1F
100
AcDbEntity
  8
10
100
AcDbLine
 10
880.5151711823699
 20
1602.176893768653
 30
0.0
 11
881.8864592668868
 21
1607.826097388328
 31
0.0
  0
LINE
  5
3139
330
1F
100
AcDbEntity
  8
10
100
AcDbLine
 10
899.6376432559687
 20
1611.276893768653
 30
0.0
 11
899.6376432559687
 21
1605.776893768653
 31
0.0
  0
LINE
  5
313A
330
1F
100
AcDbEntity
  8
10
100
AcDbLine
 10
892.1320897565035
 20
1611.276893768653
 30
0.0
 11
892.1320897565035
 21
1605.776893768653
 31
0.0
  0
LINE
  5
313B
330
1F
100
AcDbEntity
  8
10
100
AcDbLine
 10
903.390420005701
 20
1611.276893768653
 30
0.0
 11
903.390420005701
 21
1605.776893768653
 31
0.0
  0
LINE
  5
313C
330
1F
100
AcDbEntity
  8
10
100
AcDbLine
 10
888.3793130067706
 20
1611.276893768653
 30
0.0
 11
888.3793130067706
 21
1605.776893768653
 31
0.0
  0
LINE
  5
313D
330
1F
100
AcDbEntity
  8
10
100
AcDbLine
 10
903.5848665062362
 20
1605.776893768653
 30
0.0
 11
888.1848665062365
 21
1605.776893768653
 31
0.0
  0
LINE
  5
313E
330
1F
100
AcDbEntity
  8
10
100
AcDbLine
 10
904.8848665062362
 20
1603.776893768652
 30
0.0
 11
886.884866506236
 21
1603.776893768652
 31
0.0
  0
LINE
  5
313F
330
1F
100
AcDbEntity
  8
10
100
AcDbLine
 10
886.884866506236
 20
1602.176893768653
 30
0.0
 11
904.8848665062362
 21
1602.176893768653
 31
0.0
  0
CIRCLE
  5
3140
330
1F
100
AcDbEntity
  8
10
100
AcDbCircle
 10
885.3848665062358
 20
1586.976893768652
 30
0.0
 40
3.499999999999944
  0
CIRCLE
  5
3141
330
1F
100
AcDbEntity
  8
10
100
AcDbCircle
 10
885.3848665062358
 20
1586.976893768652
 30
0.0
 40
3.999999999999984
  0
LINE
  5
3142
330
1F
100
AcDbEntity
  8
10
100
AcDbLine
 10
883.9706529438624
 20
1588.391107331026
 30
0.0
 11
886.7990800686087
 21
1585.56268020628
 31
0.0
  0
LINE
  5
3143
330
1F
100
AcDbEntity
  8
10
100
AcDbLine
 10
886.7990800686087
 20
1588.391107331026
 30
0.0
 11
883.9706529438624
 21
1585.56268020628
 31
0.0
  0
LINE
  5
3144
330
1F
100
AcDbEntity
  8
10
100
AcDbLine
 10
876.384866506236
 20
1602.176893768653
 30
0.0
 11
876.384866506236
 21
1600.976893768653
 31
0.0
  0
LINE
  5
3145
330
1F
100
AcDbEntity
  8
10
100
AcDbLine
 10
888.1848665062365
 20
1603.776893768652
 30
0.0
 11
888.1848665062365
 21
1605.776893768653
 31
0.0
  0
LINE
  5
3146
330
1F
100
AcDbEntity
  8
10
100
AcDbLine
 10
886.884866506236
 20
1603.776893768652
 30
0.0
 11
886.884866506236
 21
1602.176893768653
 31
0.0
  0
LINE
  5
3147
330
1F
100
AcDbEntity
  8
10
100
AcDbLine
 10
902.3848665062356
 20
1602.176893768653
 30
0.0
 11
902.3848665062356
 21
1600.976893768653
 31
0.0
  0
LINE
  5
3148
330
1F
100
AcDbEntity
  8
10
100
AcDbLine
 10
905.3848665062357
 20
1602.176893768653
 30
0.0
 11
905.3848665062357
 21
1600.976893768653
 31
0.0
  0
LINE
  5
3149
330
1F
100
AcDbEntity
  8
10
100
AcDbLine
 10
903.5848665062362
 20
1603.776893768652
 30
0.0
 11
903.5848665062362
 21
1605.776893768653
 31
0.0
  0
LINE
  5
314A
330
1F
100
AcDbEntity
  8
10
100
AcDbLine
 10
904.8848665062362
 20
1603.776893768652
 30
0.0
 11
904.8848665062362
 21
1602.176893768653
 31
0.0
  0
LINE
  5
314B
330
1F
100
AcDbEntity
  8
10
100
AcDbLine
 10
903.390420005701
 20
1611.276893768653
 30
0.0
 11
888.3793130067706
 21
1611.276893768653
 31
0.0
  0
LINE
  5
314C
330
1F
100
AcDbEntity
  8
10
100
AcDbLine
 10
876.384866506236
 20
1638.976893768653
 30
0.0
 11
873.3848665062357
 21
1635.976893768653
 31
0.0
  0
ARC
  5
314D
330
1F
100
AcDbEntity
  8
10
100
AcDbCircle
 10
885.3848665062358
 20
1606.976893768653
 30
0.0
 40
3.600000000000093
100
AcDbArc
 50
33.71687255197159
 51
166.3559152044999
  0
ARC
  5
314E
330
1F
100
AcDbEntity
  8
10
100
AcDbCircle
 10
905.3848665062357
 20
1606.976893768653
 30
0.0
 40
3.600000000000233
100
AcDbArc
 50
13.64408479549853
 51
123.6427538262866
  0
CIRCLE
  5
314F
330
1F
100
AcDbEntity
  8
0
  6
Continuous
 62
     3
100
AcDbCircle
 10
918.3848665062358
 20
1623.976893768652
 30
0.0
 40
4.999999999999999
  0
LINE
  5
3150
330
1F
100
AcDbEntity
  8
12
 48
3.0
100
AcDbLine
 10
918.3848665062358
 20
1633.976893768652
 30
0.0
 11
918.3848665062358
 21
1613.976893768652
 31
0.0
  0
LINE
  5
3151
330
1F
100
AcDbEntity
  8
10
100
AcDbLine
 10
1273.384866506235
 20
1598.976893768653
 30
0.0
 11
1273.384866506235
 21
1058.976893768653
 31
0.0
  0
LINE
  5
3154
330
1F
100
AcDbEntity
  8
10
100
AcDbLine
 10
1273.384866506235
 20
1600.976893768653
 30
0.0
 11
1273.384866506235
 21
1329.976893768653
 31
0.0
  0
LINE
  5
3155
330
1F
100
AcDbEntity
  8
10
100
AcDbLine
 10
1273.384866506235
 20
1600.976893768653
 30
0.0
 11
1273.384866506235
 21
1474.459170728843
 31
0.0
  0
LINE
  5
3156
330
1F
100
AcDbEntity
  8
10
100
AcDbLine
 10
1236.084866506235
 20
1371.976893768652
 30
0.0
 11
1175.684866506234
 21
1371.976893768652
 31
0.0
  0
LINE
  5
3157
330
1F
100
AcDbEntity
  8
10
100
AcDbLine
 10
1235.884866506235
 20
1370.376893768653
 30
0.0
 11
1175.884866506235
 21
1370.376893768653
 31
0.0
  0
LINE
  5
3158
330
1F
100
AcDbEntity
  8
10
 48
3.0
100
AcDbLine
 10
1245.384866506235
 20
1163.976893768652
 30
0.0
 11
985.3848665062352
 21
1163.976893768652
 31
0.0
  0
LINE
  5
3159
330
1F
100
AcDbEntity
  8
10
 48
3.0
100
AcDbLine
 10
1245.384866506235
 20
1093.976893768652
 30
0.0
 11
985.3848665062352
 21
1093.976893768652
 31
0.0
  0
LINE
  5
315A
330
1F
100
AcDbEntity
  8
10
100
AcDbLine
 10
1225.383238508499
 20
726.8768937686517
 30
0.0
 11
1199.38649450397
 21
726.8768937686517
 31
0.0
  0
LINE
  5
315B
330
1F
100
AcDbEntity
  8
10
100
AcDbLine
 10
1225.383238508499
 20
729.1768937686518
 30
0.0
 11
1199.38649450397
 21
729.1768937686518
 31
0.0
  0
LINE
  5
315C
330
1F
100
AcDbEntity
  8
10
100
AcDbLine
 10
1223.354521620838
 20
732.1768937686518
 30
0.0
 11
1201.415211391632
 21
732.1768937686518
 31
0.0
  0
LINE
  5
315D
330
1F
100
AcDbEntity
  8
10
100
AcDbLine
 10
1223.354521620838
 20
740.176893768652
 30
0.0
 11
1201.415211391632
 21
740.176893768652
 31
0.0
  0
LINE
  5
315E
330
1F
100
AcDbEntity
  8
10
100
AcDbLine
 10
1176.884866506235
 20
1486.476893768652
 30
0.0
 11
1234.884866506235
 21
1486.476893768652
 31
0.0
  0
LINE
  5
315F
330
1F
100
AcDbEntity
  8
10
100
AcDbLine
 10
1175.884866506235
 20
1371.976893768652
 30
0.0
 11
1235.884866506235
 21
1371.976893768652
 31
0.0
  0
LINE
  5
3160
330
1F
100
AcDbEntity
  8
10
100
AcDbLine
 10
1176.384866506235
 20
1455.476893768651
 30
0.0
 11
1235.384866506235
 21
1455.476893768651
 31
0.0
  0
LINE
  5
3161
330
1F
100
AcDbEntity
  8
10
100
AcDbLine
 10
1176.775798754047
 20
1377.476893768652
 30
0.0
 11
1219.384866506235
 21
1377.476893768652
 31
0.0
  0
LINE
  5
3162
330
1F
100
AcDbEntity
  8
10
100
AcDbLine
 10
1176.775798754047
 20
1439.476893768651
 30
0.0
 11
1235.384866506235
 21
1439.476893768651
 31
0.0
  0
LINE
  5
3163
330
1F
100
AcDbEntity
  8
10
100
AcDbLine
 10
1201.384866506235
 20
1476.676893768653
 30
0.0
 11
1217.584866506236
 21
1476.676893768653
 31
0.0
  0
LINE
  5
3164
330
1F
100
AcDbEntity
  8
10
100
AcDbLine
 10
1201.384866506235
 20
1465.476893768651
 30
0.0
 11
1217.584866506236
 21
1465.476893768651
 31
0.0
  0
LINE
  5
3165
330
1F
100
AcDbEntity
  8
10
100
AcDbLine
 10
1201.484866506236
 20
1462.476893768652
 30
0.0
 11
1235.384866506235
 21
1462.476893768652
 31
0.0
  0
ARC
  5
3166
330
1F
100
AcDbEntity
  8
10
100
AcDbCircle
 10
1222.884866506235
 20
1377.476893768652
 30
0.0
 40
6.500000000000002
100
AcDbArc
 50
0.0
 51
180.0
  0
TEXT
  5
3167
330
1F
100
AcDbEntity
  8
10
100
AcDbText
 10
1185.684864107664
 20
1388.47690781475
 30
0.0
 40
16.00000023841857
  1
ＴＢ３
 50
0.0000025044784726
 41
0.7031250019402551
  7
STANDARD1
100
AcDbText
  0
LINE
  5
3168
330
1F
100
AcDbEntity
  8
10
100
AcDbLine
 10
1230.384866506235
 20
723.876893768652
 30
0.0
 11
1194.384866506235
 21
723.876893768652
 31
0.0
  0
LINE
  5
3169
330
1F
100
AcDbEntity
  8
10
100
AcDbLine
 10
1230.384866506235
 20
710.8768937686517
 30
0.0
 11
1194.384866506235
 21
710.8768937686517
 31
0.0
  0
LINE
  5
316B
330
1F
100
AcDbEntity
  8
10
100
AcDbLine
 10
1200.884866506235
 20
1486.976893768653
 30
0.0
 11
1235.084866506236
 21
1486.976893768653
 31
0.0
  0
LINE
  5
316C
330
1F
100
AcDbEntity
  8
10
100
AcDbLine
 10
1235.084866506236
 20
1369.976893768652
 30
0.0
 11
1176.684866506235
 21
1369.976893768652
 31
0.0
  0
LINE
  5
316D
330
1F
100
AcDbEntity
  8
10
 48
3.0
100
AcDbLine
 10
985.3848665062352
 20
1093.976893768652
 30
0.0
 11
985.3848665062352
 21
1163.976893768652
 31
0.0
  0
LINE
  5
316E
330
1F
100
AcDbEntity
  8
10
100
AcDbLine
 10
1087.3832385085
 20
729.1768937686518
 30
0.0
 11
1061.38649450397
 21
729.1768937686518
 31
0.0
  0
LINE
  5
316F
330
1F
100
AcDbEntity
  8
10
100
AcDbLine
 10
1085.354521620838
 20
732.1768937686518
 30
0.0
 11
1063.415211391631
 21
732.1768937686518
 31
0.0
  0
LINE
  5
3170
330
1F
100
AcDbEntity
  8
10
100
AcDbLine
 10
1085.354521620838
 20
740.176893768652
 30
0.0
 11
1063.415211391631
 21
740.176893768652
 31
0.0
  0
LINE
  5
3171
330
1F
100
AcDbEntity
  8
10
100
AcDbLine
 10
1087.3832385085
 20
726.8768937686517
 30
0.0
 11
1061.38649450397
 21
726.8768937686517
 31
0.0
  0
LINE
  5
3172
330
1F
100
AcDbEntity
  8
10
100
AcDbLine
 10
1092.384866506235
 20
723.876893768652
 30
0.0
 11
1056.384866506236
 21
723.876893768652
 31
0.0
  0
LINE
  5
3173
330
1F
100
AcDbEntity
  8
10
100
AcDbLine
 10
1092.384866506235
 20
710.8768937686517
 30
0.0
 11
1056.384866506236
 21
710.8768937686517
 31
0.0
  0
LINE
  5
3174
330
1F
100
AcDbEntity
  8
10
100
AcDbLine
 10
941.3848665062356
 20
709.3768937686517
 30
0.0
 11
939.8848665062356
 21
709.3768937686517
 31
0.0
  0
LINE
  5
3175
330
1F
100
AcDbEntity
  8
10
100
AcDbLine
 10
929.8848665062356
 20
709.3768937686517
 30
0.0
 11
928.3848665062359
 21
709.3768937686517
 31
0.0
  0
LINE
  5
3176
330
1F
100
AcDbEntity
  8
10
100
AcDbLine
 10
955.4848665062356
 20
710.8768937686517
 30
0.0
 11
952.8848665062357
 21
710.8768937686517
 31
0.0
  0
LINE
  5
3177
330
1F
100
AcDbEntity
  8
10
100
AcDbLine
 10
955.4848665062356
 20
709.3768937686517
 30
0.0
 11
951.3848665062353
 21
709.3768937686517
 31
0.0
  0
LINE
  5
3178
330
1F
100
AcDbEntity
  8
10
100
AcDbLine
 10
956.8848665062356
 20
712.376893768652
 30
0.0
 11
952.8848665062357
 21
712.376893768652
 31
0.0
  0
LINE
  5
3179
330
1F
100
AcDbEntity
  8
10
100
AcDbLine
 10
955.4848665062356
 20
710.8768937686517
 30
0.0
 11
955.4848665062356
 21
709.3768937686517
 31
0.0
  0
LINE
  5
317A
330
1F
100
AcDbEntity
  8
10
100
AcDbLine
 10
952.8848665062357
 20
712.376893768652
 30
0.0
 11
952.8848665062357
 21
710.8768937686517
 31
0.0
  0
LINE
  5
317B
330
1F
100
AcDbEntity
  8
10
100
AcDbLine
 10
1041.3832385085
 20
729.1768937686518
 30
0.0
 11
1015.386494503971
 21
729.1768937686518
 31
0.0
  0
LINE
  5
317C
330
1F
100
AcDbEntity
  8
10
100
AcDbLine
 10
1039.354521620838
 20
732.1768937686518
 30
0.0
 11
1017.415211391631
 21
732.1768937686518
 31
0.0
  0
LINE
  5
317D
330
1F
100
AcDbEntity
  8
10
100
AcDbLine
 10
1039.354521620838
 20
740.176893768652
 30
0.0
 11
1017.415211391631
 21
740.176893768652
 31
0.0
  0
LINE
  5
317E
330
1F
100
AcDbEntity
  8
10
100
AcDbLine
 10
1041.3832385085
 20
726.8768937686517
 30
0.0
 11
1015.386494503971
 21
726.8768937686517
 31
0.0
  0
LINE
  5
317F
330
1F
100
AcDbEntity
  8
10
100
AcDbLine
 10
1010.384866506235
 20
723.876893768652
 30
0.0
 11
1046.384866506235
 21
723.876893768652
 31
0.0
  0
LINE
  5
3180
330
1F
100
AcDbEntity
  8
10
100
AcDbLine
 10
1010.384866506235
 20
710.8768937686517
 30
0.0
 11
1046.384866506235
 21
710.8768937686517
 31
0.0
  0
LINE
  5
3181
330
1F
100
AcDbEntity
  8
10
100
AcDbLine
 10
1017.415211391631
 20
740.176893768652
 30
0.0
 11
1017.415211391631
 21
732.1768937686518
 31
0.0
  0
LINE
  5
3182
330
1F
100
AcDbEntity
  8
10
100
AcDbLine
 10
1015.386494503971
 20
729.1768937686518
 30
0.0
 11
1015.386494503971
 21
726.8768937686517
 31
0.0
  0
LINE
  5
3183
330
1F
100
AcDbEntity
  8
10
100
AcDbLine
 10
1017.634866506236
 20
729.1768937686518
 30
0.0
 11
1017.634866506236
 21
732.1768937686518
 31
0.0
  0
LINE
  5
3184
330
1F
100
AcDbEntity
  8
10
100
AcDbLine
 10
1022.900038948934
 20
740.176893768652
 30
0.0
 11
1022.900038948934
 21
732.1768937686518
 31
0.0
  0
LINE
  5
3185
330
1F
100
AcDbEntity
  8
10
100
AcDbLine
 10
1008.384866506235
 20
755.8768937686517
 30
0.0
 11
1010.384866506235
 21
755.8768937686517
 31
0.0
  0
LINE
  5
3186
330
1F
100
AcDbEntity
  8
10
100
AcDbLine
 10
1039.354521620838
 20
740.176893768652
 30
0.0
 11
1039.354521620838
 21
732.1768937686518
 31
0.0
  0
LINE
  5
3187
330
1F
100
AcDbEntity
  8
10
100
AcDbLine
 10
1041.3832385085
 20
729.1768937686518
 30
0.0
 11
1041.3832385085
 21
726.8768937686517
 31
0.0
  0
LINE
  5
3188
330
1F
100
AcDbEntity
  8
10
100
AcDbLine
 10
1039.134866506236
 20
729.1768937686518
 30
0.0
 11
1039.134866506236
 21
731.3184307544827
 31
0.0
  0
LINE
  5
3189
330
1F
100
AcDbEntity
  8
10
100
AcDbLine
 10
1033.869694063537
 20
740.176893768652
 30
0.0
 11
1033.869694063537
 21
732.1768937686518
 31
0.0
  0
LINE
  5
318A
330
1F
100
AcDbEntity
  8
10
100
AcDbLine
 10
1063.415211391631
 20
740.176893768652
 30
0.0
 11
1063.415211391631
 21
732.1768937686518
 31
0.0
  0
LINE
  5
318B
330
1F
100
AcDbEntity
  8
10
100
AcDbLine
 10
1061.38649450397
 20
729.1768937686518
 30
0.0
 11
1061.38649450397
 21
726.8768937686517
 31
0.0
  0
LINE
  5
318C
330
1F
100
AcDbEntity
  8
10
100
AcDbLine
 10
1063.634866506236
 20
729.1768937686518
 30
0.0
 11
1063.634866506236
 21
732.1768937686518
 31
0.0
  0
LINE
  5
318D
330
1F
100
AcDbEntity
  8
10
100
AcDbLine
 10
1056.384866506236
 20
755.8768937686517
 30
0.0
 11
1046.384866506235
 21
755.8768937686517
 31
0.0
  0
TEXT
  5
318E
330
1F
100
AcDbEntity
  8
10
 48
3.0
100
AcDbText
 10
987.5848885217267
 20
1098.976892555961
 30
0.0
 40
16.00000023841857
  1
ＴＢ１
 50
0.0000025044784726
 41
0.7031250019402551
  7
STANDARD1
100
AcDbText
  0
CIRCLE
  5
318F
330
1F
100
AcDbEntity
  8
10
 48
3.0
100
AcDbCircle
 10
973.3848665062351
 20
1076.976893768652
 30
0.0
 40
11.70000000000001
  0
LINE
  5
3190
330
1F
100
AcDbEntity
  8
10
 48
3.0
100
AcDbLine
 10
972.7017914055029
 20
1112.476893768652
 30
0.0
 11
972.7017914055029
 21
1147.476893768652
 31
0.0
  0
LINE
  5
3191
330
1F
100
AcDbEntity
  8
10
100
AcDbLine
 10
1148.384866506235
 20
755.8768937686517
 30
0.0
 11
1138.384866506235
 21
755.8768937686517
 31
0.0
  0
LINE
  5
3192
330
1F
100
AcDbEntity
  8
10
100
AcDbLine
 10
1138.384866506235
 20
723.876893768652
 30
0.0
 11
1102.384866506236
 21
723.876893768652
 31
0.0
  0
LINE
  5
3193
330
1F
100
AcDbEntity
  8
10
100
AcDbLine
 10
1138.384866506235
 20
710.8768937686517
 30
0.0
 11
1102.384866506236
 21
710.8768937686517
 31
0.0
  0
LINE
  5
3194
330
1F
100
AcDbEntity
  8
10
100
AcDbLine
 10
1085.354521620838
 20
740.176893768652
 30
0.0
 11
1085.354521620838
 21
732.1768937686518
 31
0.0
  0
LINE
  5
3195
330
1F
100
AcDbEntity
  8
10
100
AcDbLine
 10
1085.134866506236
 20
729.1768937686518
 30
0.0
 11
1085.134866506236
 21
731.3184307544827
 31
0.0
  0
LINE
  5
3196
330
1F
100
AcDbEntity
  8
10
100
AcDbLine
 10
1068.900038948934
 20
740.176893768652
 30
0.0
 11
1068.900038948934
 21
732.1768937686518
 31
0.0
  0
LINE
  5
3197
330
1F
100
AcDbEntity
  8
10
100
AcDbLine
 10
1079.869694063537
 20
740.176893768652
 30
0.0
 11
1079.869694063537
 21
732.1768937686518
 31
0.0
  0
LINE
  5
3198
330
1F
100
AcDbEntity
  8
10
100
AcDbLine
 10
1087.3832385085
 20
729.1768937686518
 30
0.0
 11
1087.3832385085
 21
726.8768937686517
 31
0.0
  0
LINE
  5
3199
330
1F
100
AcDbEntity
  8
10
100
AcDbLine
 10
1102.384866506236
 20
755.8768937686517
 30
0.0
 11
1092.384866506235
 21
755.8768937686517
 31
0.0
  0
LINE
  5
319A
330
1F
100
AcDbEntity
  8
10
100
AcDbLine
 10
1133.3832385085
 20
729.1768937686518
 30
0.0
 11
1107.38649450397
 21
729.1768937686518
 31
0.0
  0
LINE
  5
319B
330
1F
100
AcDbEntity
  8
10
100
AcDbLine
 10
1131.354521620838
 20
732.1768937686518
 30
0.0
 11
1109.415211391633
 21
732.1768937686518
 31
0.0
  0
LINE
  5
319C
330
1F
100
AcDbEntity
  8
10
100
AcDbLine
 10
1131.354521620838
 20
740.176893768652
 30
0.0
 11
1109.415211391633
 21
740.176893768652
 31
0.0
  0
LINE
  5
319D
330
1F
100
AcDbEntity
  8
10
100
AcDbLine
 10
1133.3832385085
 20
726.8768937686517
 30
0.0
 11
1107.38649450397
 21
726.8768937686517
 31
0.0
  0
LINE
  5
319E
330
1F
100
AcDbEntity
  8
10
100
AcDbLine
 10
1109.415211391633
 20
740.176893768652
 30
0.0
 11
1109.415211391633
 21
732.1768937686518
 31
0.0
  0
LINE
  5
319F
330
1F
100
AcDbEntity
  8
10
100
AcDbLine
 10
1107.38649450397
 20
729.1768937686518
 30
0.0
 11
1107.38649450397
 21
726.8768937686517
 31
0.0
  0
LINE
  5
31A0
330
1F
100
AcDbEntity
  8
10
100
AcDbLine
 10
1109.634866506236
 20
729.1768937686518
 30
0.0
 11
1109.634866506236
 21
732.1768937686518
 31
0.0
  0
LINE
  5
31A1
330
1F
100
AcDbEntity
  8
10
100
AcDbLine
 10
1114.900038948934
 20
740.176893768652
 30
0.0
 11
1114.900038948934
 21
732.1768937686518
 31
0.0
  0
LINE
  5
31A2
330
1F
100
AcDbEntity
  8
10
100
AcDbLine
 10
1131.354521620838
 20
740.176893768652
 30
0.0
 11
1131.354521620838
 21
732.1768937686518
 31
0.0
  0
LINE
  5
31A3
330
1F
100
AcDbEntity
  8
10
100
AcDbLine
 10
1133.3832385085
 20
729.1768937686518
 30
0.0
 11
1133.3832385085
 21
726.8768937686517
 31
0.0
  0
LINE
  5
31A4
330
1F
100
AcDbEntity
  8
10
100
AcDbLine
 10
1131.134866506235
 20
729.1768937686518
 30
0.0
 11
1131.134866506235
 21
731.3184307544827
 31
0.0
  0
LINE
  5
31A5
330
1F
100
AcDbEntity
  8
10
100
AcDbLine
 10
1125.869694063537
 20
740.176893768652
 30
0.0
 11
1125.869694063537
 21
732.1768937686518
 31
0.0
  0
LINE
  5
31A6
330
1F
100
AcDbEntity
  8
10
100
AcDbLine
 10
1173.867941606967
 20
764.4768937686527
 30
0.0
 11
1177.290805032729
 21
764.4768937686527
 31
0.0
  0
LINE
  5
31A7
330
1F
100
AcDbEntity
  8
10
100
AcDbLine
 10
1179.3832385085
 20
729.1768937686518
 30
0.0
 11
1153.38649450397
 21
729.1768937686518
 31
0.0
  0
LINE
  5
31A8
330
1F
100
AcDbEntity
  8
10
100
AcDbLine
 10
1177.354521620838
 20
732.1768937686518
 30
0.0
 11
1155.415211391631
 21
732.1768937686518
 31
0.0
  0
LINE
  5
31A9
330
1F
100
AcDbEntity
  8
10
100
AcDbLine
 10
1177.354521620838
 20
740.176893768652
 30
0.0
 11
1155.415211391631
 21
740.176893768652
 31
0.0
  0
LINE
  5
31AA
330
1F
100
AcDbEntity
  8
10
100
AcDbLine
 10
1179.3832385085
 20
726.8768937686517
 30
0.0
 11
1153.38649450397
 21
726.8768937686517
 31
0.0
  0
LINE
  5
31AB
330
1F
100
AcDbEntity
  8
10
100
AcDbLine
 10
1184.384866506235
 20
723.876893768652
 30
0.0
 11
1148.384866506235
 21
723.876893768652
 31
0.0
  0
LINE
  5
31AC
330
1F
100
AcDbEntity
  8
10
100
AcDbLine
 10
1184.384866506235
 20
710.8768937686517
 30
0.0
 11
1148.384866506235
 21
710.8768937686517
 31
0.0
  0
LINE
  5
31AD
330
1F
100
AcDbEntity
  8
10
100
AcDbLine
 10
1155.415211391631
 20
740.176893768652
 30
0.0
 11
1155.415211391631
 21
732.1768937686518
 31
0.0
  0
LINE
  5
31AE
330
1F
100
AcDbEntity
  8
10
100
AcDbLine
 10
1153.38649450397
 20
729.1768937686518
 30
0.0
 11
1153.38649450397
 21
726.8768937686517
 31
0.0
  0
LINE
  5
31AF
330
1F
100
AcDbEntity
  8
10
100
AcDbLine
 10
1155.634866506236
 20
729.1768937686518
 30
0.0
 11
1155.634866506236
 21
732.1768937686518
 31
0.0
  0
LINE
  5
31B0
330
1F
100
AcDbEntity
  8
10
100
AcDbLine
 10
1160.900038948934
 20
740.176893768652
 30
0.0
 11
1160.900038948934
 21
732.1768937686518
 31
0.0
  0
LINE
  5
31B1
330
1F
100
AcDbEntity
  8
10
100
AcDbLine
 10
1171.869694063537
 20
740.176893768652
 30
0.0
 11
1171.869694063537
 21
732.1768937686518
 31
0.0
  0
ARC
  5
31B2
330
1F
100
AcDbEntity
  8
10
100
AcDbCircle
 10
1173.867941606967
 20
763.4768937686527
 30
0.0
 40
0.9999999999999998
100
AcDbArc
 50
90.0
 51
143.1301023540973
  0
LINE
  5
31B3
330
1F
100
AcDbEntity
  8
10
100
AcDbLine
 10
1177.354521620838
 20
740.176893768652
 30
0.0
 11
1177.354521620838
 21
732.1768937686518
 31
0.0
  0
LINE
  5
31B4
330
1F
100
AcDbEntity
  8
10
100
AcDbLine
 10
1179.3832385085
 20
729.1768937686518
 30
0.0
 11
1179.3832385085
 21
726.8768937686517
 31
0.0
  0
LINE
  5
31B5
330
1F
100
AcDbEntity
  8
10
100
AcDbLine
 10
1177.134866506235
 20
729.1768937686518
 30
0.0
 11
1177.134866506235
 21
731.3184307544827
 31
0.0
  0
LINE
  5
31B6
330
1F
100
AcDbEntity
  8
10
100
AcDbLine
 10
1201.415211391632
 20
740.176893768652
 30
0.0
 11
1201.415211391632
 21
732.1768937686518
 31
0.0
  0
LINE
  5
31B7
330
1F
100
AcDbEntity
  8
10
100
AcDbLine
 10
1199.38649450397
 20
729.1768937686518
 30
0.0
 11
1199.38649450397
 21
726.8768937686517
 31
0.0
  0
LINE
  5
31B8
330
1F
100
AcDbEntity
  8
10
100
AcDbLine
 10
1201.634866506235
 20
729.1768937686518
 30
0.0
 11
1201.634866506235
 21
732.1768937686518
 31
0.0
  0
LINE
  5
31B9
330
1F
100
AcDbEntity
  8
10
100
AcDbLine
 10
1206.900038948934
 20
740.176893768652
 30
0.0
 11
1206.900038948934
 21
732.1768937686518
 31
0.0
  0
LINE
  5
31BA
330
1F
100
AcDbEntity
  8
10
100
AcDbLine
 10
1181.045078181206
 20
768.9768937686527
 30
0.0
 11
1201.020814518585
 21
768.9768937686531
 31
0.0
  0
LINE
  5
31BB
330
1F
100
AcDbEntity
  8
10
100
AcDbLine
 10
1194.384866506235
 20
755.8768937686517
 30
0.0
 11
1184.384866506235
 21
755.8768937686517
 31
0.0
  0
LINE
  5
31BC
330
1F
100
AcDbEntity
  8
10
100
AcDbLine
 10
1180.179213107962
 20
768.4771713665274
 30
0.0
 11
1178.156670105974
 21
764.9766161707782
 31
0.0
  0
ARC
  5
31BD
330
1F
100
AcDbEntity
  8
10
100
AcDbCircle
 10
1181.045078181206
 20
767.9768937686527
 30
0.0
 40
0.9999999999999998
100
AcDbArc
 50
90.0
 51
149.9816325723909
  0
ARC
  5
31BE
330
1F
100
AcDbEntity
  8
10
100
AcDbCircle
 10
1177.290805032729
 20
765.4768937686527
 30
0.0
 40
0.9999999999999998
100
AcDbArc
 50
270.0
 51
329.9816325723998
  0
LINE
  5
31BF
330
1F
100
AcDbEntity
  8
10
100
AcDbLine
 10
1178.156670105974
 20
764.9766161707782
 30
0.0
 11
1177.867941606967
 21
764.4768937686526
 31
0.0
  0
ARC
  5
31C0
330
1F
100
AcDbEntity
  8
10
100
AcDbCircle
 10
1201.020814518585
 20
767.9768937686531
 30
0.0
 40
1.000000000000003
100
AcDbArc
 50
9.462322208021332
 51
90.0
  0
LINE
  5
31C1
330
1F
100
AcDbEntity
  8
10
100
AcDbLine
 10
1202.684608273635
 20
764.076893768653
 30
0.0
 11
1202.007208442418
 21
768.1412927559586
 31
0.0
  0
LINE
  5
31C2
330
1F
100
AcDbEntity
  8
10
100
AcDbLine
 10
1185.282942717589
 20
1377.576893768653
 30
0.0
 11
1185.282942717589
 21
1439.376893768653
 31
0.0
  0
LINE
  5
31C3
330
1F
100
AcDbEntity
  8
10
100
AcDbLine
 10
1182.684866506235
 20
1377.576893768653
 30
0.0
 11
1182.684866506235
 21
1439.376893768653
 31
0.0
  0
LINE
  5
31C4
330
1F
100
AcDbEntity
  8
10
100
AcDbLine
 10
1206.462997288414
 20
1405.62348628155
 30
0.0
 11
1206.462997288414
 21
1439.376893768653
 31
0.0
  0
LINE
  5
31C5
330
1F
100
AcDbEntity
  8
10
100
AcDbLine
 10
1206.883681787104
 20
1405.62348628155
 30
0.0
 11
1206.883681787104
 21
1437.376893768653
 31
0.0
  0
LINE
  5
31C6
330
1F
100
AcDbEntity
  8
10
100
AcDbLine
 10
1175.884866506235
 20
1485.476893768652
 30
0.0
 11
1175.884866506235
 21
1371.976893768652
 31
0.0
  0
LINE
  5
31C7
330
1F
100
AcDbEntity
  8
10
 48
3.0
100
AcDbLine
 10
1193.484866506236
 20
1435.976893768653
 30
0.0
 11
1193.484866506236
 21
1405.62348628155
 31
0.0
  0
LINE
  5
31C8
330
1F
100
AcDbEntity
  8
10
 48
3.0
100
AcDbLine
 10
1185.484866506236
 20
1435.976893768653
 30
0.0
 11
1185.484866506236
 21
1380.976893768653
 31
0.0
  0
LINE
  5
31C9
330
1F
100
AcDbEntity
  8
10
100
AcDbLine
 10
1175.684866506234
 20
1485.976893768652
 30
0.0
 11
1175.684866506234
 21
1370.976893768653
 31
0.0
  0
LINE
  5
31CA
330
1F
100
AcDbEntity
  8
10
100
AcDbLine
 10
1182.684866506235
 20
1379.576893768653
 30
0.0
 11
1177.684866506235
 21
1379.576893768653
 31
0.0
  0
LINE
  5
31CB
330
1F
100
AcDbEntity
  8
10
100
AcDbLine
 10
1177.684866506235
 20
1377.576893768653
 30
0.0
 11
1207.684866506235
 21
1377.576893768653
 31
0.0
  0
LINE
  5
31CC
330
1F
100
AcDbEntity
  8
10
100
AcDbLine
 10
1176.775798754047
 20
1379.976893768652
 30
0.0
 11
1182.684866506235
 21
1379.976893768652
 31
0.0
  0
LINE
  5
31CD
330
1F
100
AcDbEntity
  8
10
100
AcDbLine
 10
1175.884866506235
 20
1371.976893768652
 30
0.0
 11
1175.884866506235
 21
1370.376893768653
 31
0.0
  0
LINE
  5
31CE
330
1F
100
AcDbEntity
  8
10
100
AcDbLine
 10
1177.884866506236
 20
1371.976893768652
 30
0.0
 11
1177.884866506236
 21
1370.376893768653
 31
0.0
  0
LINE
  5
31CF
330
1F
100
AcDbEntity
  8
10
100
AcDbLine
 10
1177.684866506235
 20
1377.576893768653
 30
0.0
 11
1177.684866506235
 21
1379.576893768653
 31
0.0
  0
LINE
  5
31D0
330
1F
100
AcDbEntity
  8
10
100
AcDbLine
 10
1178.084866506235
 20
1379.576893768653
 30
0.0
 11
1178.084866506235
 21
1379.976893768652
 31
0.0
  0
LINE
  5
31D1
330
1F
100
AcDbEntity
  8
10
100
AcDbLine
 10
1179.084866506235
 20
1379.576893768653
 30
0.0
 11
1179.084866506235
 21
1379.976893768652
 31
0.0
  0
LINE
  5
31D2
330
1F
100
AcDbEntity
  8
10
100
AcDbLine
 10
1180.284866506234
 20
1379.576893768653
 30
0.0
 11
1180.284866506234
 21
1379.976893768652
 31
0.0
  0
LINE
  5
31D3
330
1F
100
AcDbEntity
  8
10
100
AcDbLine
 10
1176.775798754047
 20
1377.476893768652
 30
0.0
 11
1176.775798754047
 21
1379.976893768652
 31
0.0
  0
LINE
  5
31D4
330
1F
100
AcDbEntity
  8
10
100
AcDbLine
 10
1179.084866506235
 20
1377.476893768652
 30
0.0
 11
1179.084866506235
 21
1377.576893768653
 31
0.0
  0
LINE
  5
31D5
330
1F
100
AcDbEntity
  8
10
100
AcDbLine
 10
1180.284866506234
 20
1377.476893768652
 30
0.0
 11
1180.284866506234
 21
1377.576893768653
 31
0.0
  0
LINE
  5
31D6
330
1F
100
AcDbEntity
  8
10
100
AcDbLine
 10
1178.084866506235
 20
1377.476893768652
 30
0.0
 11
1178.084866506235
 21
1377.576893768653
 31
0.0
  0
ARC
  5
31D7
330
1F
100
AcDbEntity
  8
10
100
AcDbCircle
 10
1176.684866506235
 20
1370.976893768653
 30
0.0
 40
1.000000000000013
100
AcDbArc
 50
180.0
 51
270.0
  0
LINE
  5
31D8
330
1F
100
AcDbEntity
  8
10
100
AcDbLine
 10
1206.883681787104
 20
1379.576893768653
 30
0.0
 11
1206.883681787104
 21
1385.976908479162
 31
0.0
  0
LINE
  5
31D9
330
1F
100
AcDbEntity
  8
10
100
AcDbLine
 10
1206.462997288414
 20
1377.576893768653
 30
0.0
 11
1206.462997288414
 21
1385.976908479162
 31
0.0
  0
LINE
  5
31DA
330
1F
100
AcDbEntity
  8
10
 48
3.0
100
AcDbLine
 10
1193.484866506236
 20
1385.976907150337
 30
0.0
 11
1193.484866506236
 21
1380.976893768653
 31
0.0
  0
LINE
  5
31DB
330
1F
100
AcDbEntity
  8
10
100
AcDbLine
 10
1181.484866506234
 20
1379.576893768653
 30
0.0
 11
1181.484866506234
 21
1379.976893768652
 31
0.0
  0
LINE
  5
31DC
330
1F
100
AcDbEntity
  8
10
100
AcDbLine
 10
1183.384866506235
 20
1377.576893768653
 30
0.0
 11
1183.384866506235
 21
1377.476893768652
 31
0.0
  0
LINE
  5
31DD
330
1F
100
AcDbEntity
  8
10
100
AcDbLine
 10
1190.384866506235
 20
1370.376893768653
 30
0.0
 11
1190.384866506235
 21
1369.976893768652
 31
0.0
  0
LINE
  5
31DE
330
1F
100
AcDbEntity
  8
10
100
AcDbLine
 10
1186.384866506235
 20
1370.376893768653
 30
0.0
 11
1186.384866506235
 21
1369.976893768652
 31
0.0
  0
LINE
  5
31DF
330
1F
100
AcDbEntity
  8
10
100
AcDbLine
 10
1181.484866506234
 20
1377.476893768652
 30
0.0
 11
1181.484866506234
 21
1377.576893768653
 31
0.0
  0
LINE
  5
31E0
330
1F
100
AcDbEntity
  8
10
 48
3.0
100
AcDbLine
 10
1185.484866506236
 20
1380.976893768653
 30
0.0
 11
1193.484866506236
 21
1380.976893768653
 31
0.0
  0
ARC
  5
31E1
330
1F
100
AcDbEntity
  8
10
100
AcDbCircle
 10
1206.184866506235
 20
1377.576893768653
 30
0.0
 40
0.5000000000000748
100
AcDbArc
 50
348.4630409671881
 51
0.0
  0
ARC
  5
31E2
330
1F
100
AcDbEntity
  8
10
100
AcDbCircle
 10
1205.184866506235
 20
1377.576893768653
 30
0.0
 40
0.499999999999865
100
AcDbArc
 50
180.0
 51
191.5369590328116
  0
LINE
  5
31E3
330
1F
100
AcDbEntity
  8
10
100
AcDbLine
 10
1206.626904621983
 20
1379.576893768653
 30
0.0
 11
1207.684866506235
 21
1379.576893768653
 31
0.0
  0
LINE
  5
31E4
330
1F
100
AcDbEntity
  8
10
100
AcDbLine
 10
1207.684866506235
 20
1377.576893768653
 30
0.0
 11
1207.684866506235
 21
1379.576893768653
 31
0.0
  0
LINE
  5
31E5
330
1F
100
AcDbEntity
  8
10
100
AcDbLine
 10
1202.749656268433
 20
1377.476893768652
 30
0.0
 11
1202.749656268433
 21
1377.576893768653
 31
0.0
  0
LINE
  5
31E6
330
1F
100
AcDbEntity
  8
10
100
AcDbLine
 10
1208.749656268433
 20
1377.476893768652
 30
0.0
 11
1208.749656268433
 21
1378.476893768652
 31
0.0
  0
LINE
  5
31E7
330
1F
100
AcDbEntity
  8
10
100
AcDbLine
 10
1207.684866506235
 20
1378.976893768653
 30
0.0
 11
1208.249656268433
 21
1378.976893768653
 31
0.0
  0
ARC
  5
31E8
330
1F
100
AcDbEntity
  8
10
100
AcDbCircle
 10
1208.249656268433
 20
1378.476893768652
 30
0.0
 40
0.4999999999999901
100
AcDbArc
 50
0.0
 51
90.0
  0
LINE
  5
31E9
330
1F
100
AcDbEntity
  8
10
100
AcDbLine
 10
1182.684866506235
 20
1437.376893768653
 30
0.0
 11
1177.684866506235
 21
1437.376893768653
 31
0.0
  0
LINE
  5
31EA
330
1F
100
AcDbEntity
  8
10
100
AcDbLine
 10
1177.684866506235
 20
1439.376893768653
 30
0.0
 11
1207.684866506235
 21
1439.376893768653
 31
0.0
  0
LINE
  5
31EB
330
1F
100
AcDbEntity
  8
10
100
AcDbLine
 10
1180.084866506236
 20
1458.976893768652
 30
0.0
 11
1200.484866506235
 21
1458.976893768652
 31
0.0
  0
LINE
  5
31EC
330
1F
100
AcDbEntity
  8
10
100
AcDbLine
 10
1176.775798754047
 20
1436.976893768653
 30
0.0
 11
1182.684866506235
 21
1436.976893768653
 31
0.0
  0
ARC
  5
31ED
330
1F
100
AcDbEntity
  8
10
100
AcDbCircle
 10
1179.684866506235
 20
1488.976893768652
 30
0.0
 40
1.999999999999954
100
AcDbArc
 50
270.0
 51
0.0
  0
LINE
  5
31EE
330
1F
100
AcDbEntity
  8
10
100
AcDbLine
 10
1177.684866506235
 20
1437.376893768653
 30
0.0
 11
1177.684866506235
 21
1439.376893768653
 31
0.0
  0
LINE
  5
31EF
330
1F
100
AcDbEntity
  8
10
100
AcDbLine
 10
1178.084866506235
 20
1439.376893768653
 30
0.0
 11
1178.084866506235
 21
1439.476893768651
 31
0.0
  0
LINE
  5
31F0
330
1F
100
AcDbEntity
  8
10
100
AcDbLine
 10
1179.084866506235
 20
1439.376893768653
 30
0.0
 11
1179.084866506235
 21
1439.476893768651
 31
0.0
  0
LINE
  5
31F1
330
1F
100
AcDbEntity
  8
10
100
AcDbLine
 10
1180.284866506234
 20
1439.376893768653
 30
0.0
 11
1180.284866506234
 21
1439.476893768651
 31
0.0
  0
LINE
  5
31F2
330
1F
100
AcDbEntity
  8
10
100
AcDbLine
 10
1176.384866506235
 20
1462.476893768652
 30
0.0
 11
1179.084866506235
 21
1462.476893768652
 31
0.0
  0
LINE
  5
31F3
330
1F
100
AcDbEntity
  8
10
100
AcDbLine
 10
1179.584866506235
 20
1461.976893768651
 30
0.0
 11
1179.584866506235
 21
1459.476893768653
 31
0.0
  0
LINE
  5
31F4
330
1F
100
AcDbEntity
  8
10
100
AcDbLine
 10
1176.775798754047
 20
1436.976893768653
 30
0.0
 11
1176.775798754047
 21
1439.476893768651
 31
0.0
  0
LINE
  5
31F5
330
1F
100
AcDbEntity
  8
10
100
AcDbLine
 10
1180.284866506234
 20
1436.976893768653
 30
0.0
 11
1180.284866506234
 21
1437.376893768653
 31
0.0
  0
LINE
  5
31F6
330
1F
100
AcDbEntity
  8
10
100
AcDbLine
 10
1179.084866506235
 20
1436.976893768653
 30
0.0
 11
1179.084866506235
 21
1437.376893768653
 31
0.0
  0
LINE
  5
31F7
330
1F
100
AcDbEntity
  8
10
100
AcDbLine
 10
1178.084866506235
 20
1436.976893768653
 30
0.0
 11
1178.084866506235
 21
1437.376893768653
 31
0.0
  0
ARC
  5
31F8
330
1F
100
AcDbEntity
  8
10
100
AcDbCircle
 10
1176.384866506235
 20
1454.976893768653
 30
0.0
 40
0.4999999999999699
100
AcDbArc
 50
90.0
 51
180.0
  0
ARC
  5
31F9
330
1F
100
AcDbEntity
  8
10
100
AcDbCircle
 10
1176.384866506235
 20
1462.976893768652
 30
0.0
 40
0.5000000000000049
100
AcDbArc
 50
180.0
 51
270.0
  0
ARC
  5
31FA
330
1F
100
AcDbEntity
  8
10
100
AcDbCircle
 10
1179.084866506235
 20
1461.976893768651
 30
0.0
 40
0.5000000000000049
100
AcDbArc
 50
0.0
 51
90.0
  0
ARC
  5
31FB
330
1F
100
AcDbEntity
  8
10
100
AcDbCircle
 10
1180.084866506236
 20
1459.476893768653
 30
0.0
 40
0.5000000000000049
100
AcDbArc
 50
180.0
 51
270.0
  0
ARC
  5
31FC
330
1F
100
AcDbEntity
  8
10
100
AcDbCircle
 10
1176.884866506235
 20
1485.476893768652
 30
0.0
 40
1.000000000000013
100
AcDbArc
 50
90.0
 51
180.0
  0
ARC
  5
31FD
330
1F
100
AcDbEntity
  8
10
100
AcDbCircle
 10
1176.684866506235
 20
1485.976893768652
 30
0.0
 40
1.000000000000013
100
AcDbArc
 50
90.0
 51
180.0
  0
LINE
  5
31FE
330
1F
100
AcDbEntity
  8
10
100
AcDbLine
 10
1176.684866506235
 20
1486.976893768653
 30
0.0
 11
1179.684866506235
 21
1486.976893768653
 31
0.0
  0
LINE
  5
31FF
330
1F
100
AcDbEntity
  8
10
100
AcDbLine
 10
1199.584866506235
 20
1485.476893768653
 30
0.0
 11
1199.584866506235
 21
1459.476893768653
 31
0.0
  0
LINE
  5
3200
330
1F
100
AcDbEntity
  8
10
100
AcDbLine
 10
1180.984866506235
 20
1485.476893768653
 30
0.0
 11
1180.984866506235
 21
1459.476893768653
 31
0.0
  0
LINE
  5
3201
330
1F
100
AcDbEntity
  8
10
100
AcDbLine
 10
1200.384866506235
 20
1475.676893768653
 30
0.0
 11
1200.384866506235
 21
1466.476893768652
 31
0.0
  0
LINE
  5
3202
330
1F
100
AcDbEntity
  8
10
100
AcDbLine
 10
1199.684866506234
 20
1485.874204306897
 30
0.0
 11
1199.684866506234
 21
1456.976893768652
 31
0.0
  0
LINE
  5
3203
330
1F
100
AcDbEntity
  8
10
100
AcDbLine
 10
1180.884866506235
 20
1485.874204306897
 30
0.0
 11
1180.884866506235
 21
1456.976893768652
 31
0.0
  0
LINE
  5
3204
330
1F
100
AcDbEntity
  8
10
100
AcDbLine
 10
1199.684866506234
 20
1485.874204306897
 30
0.0
 11
1199.684866506234
 21
1469.952930998245
 31
0.0
  0
LINE
  5
3205
330
1F
100
AcDbEntity
  8
10
100
AcDbLine
 10
1180.984866506235
 20
1460.976893768652
 30
0.0
 11
1199.584866506235
 21
1460.976893768652
 31
0.0
  0
LINE
  5
3206
330
1F
100
AcDbEntity
  8
10
100
AcDbLine
 10
1181.484866506234
 20
1458.976893768652
 30
0.0
 11
1199.084866506235
 21
1458.976893768652
 31
0.0
  0
LINE
  5
3207
330
1F
100
AcDbEntity
  8
10
100
AcDbLine
 10
1180.884866506235
 20
1456.976893768652
 30
0.0
 11
1199.684866506234
 21
1456.976893768652
 31
0.0
  0
ARC
  5
3208
330
1F
100
AcDbEntity
  8
10
100
AcDbCircle
 10
1181.484866506234
 20
1459.476893768653
 30
0.0
 40
0.5000000000000049
100
AcDbArc
 50
180.0
 51
270.0
  0
LINE
  5
3209
330
1F
100
AcDbEntity
  8
10
100
AcDbLine
 10
1181.484866506234
 20
1439.376893768653
 30
0.0
 11
1181.484866506234
 21
1439.476893768651
 31
0.0
  0
LINE
  5
320A
330
1F
100
AcDbEntity
  8
10
100
AcDbLine
 10
1183.384866506235
 20
1439.476893768651
 30
0.0
 11
1183.384866506235
 21
1439.376893768653
 31
0.0
  0
LINE
  5
320B
330
1F
100
AcDbEntity
  8
10
100
AcDbLine
 10
1180.884866506235
 20
1463.476893768652
 30
0.0
 11
1180.984866506235
 21
1463.476893768652
 31
0.0
  0
LINE
  5
320C
330
1F
100
AcDbEntity
  8
10
100
AcDbLine
 10
1180.884866506235
 20
1463.976893768653
 30
0.0
 11
1180.984866506235
 21
1463.976893768653
 31
0.0
  0
LINE
  5
320D
330
1F
100
AcDbEntity
  8
10
100
AcDbLine
 10
1181.484866506234
 20
1436.976893768653
 30
0.0
 11
1181.484866506234
 21
1437.376893768653
 31
0.0
  0
LINE
  5
320E
330
1F
100
AcDbEntity
  8
10
100
AcDbLine
 10
1180.884866506235
 20
1460.376893768652
 30
0.0
 11
1180.984866506235
 21
1460.376893768652
 31
0.0
  0
LINE
  5
320F
330
1F
100
AcDbEntity
  8
10
100
AcDbLine
 10
1180.884866506235
 20
1461.576893768653
 30
0.0
 11
1180.984866506235
 21
1461.576893768653
 31
0.0
  0
LINE
  5
3210
330
1F
100
AcDbEntity
  8
10
 48
3.0
100
AcDbLine
 10
1185.484866506236
 20
1435.976893768653
 30
0.0
 11
1193.484866506236
 21
1435.976893768653
 31
0.0
  0
ARC
  5
3211
330
1F
100
AcDbEntity
  8
10
100
AcDbCircle
 10
1199.084866506235
 20
1459.476893768653
 30
0.0
 40
0.5000000000000449
100
AcDbArc
 50
270.0
 51
0.0
  0
ARC
  5
3212
330
1F
100
AcDbEntity
  8
10
100
AcDbCircle
 10
1205.184866506235
 20
1439.376893768653
 30
0.0
 40
0.4999999999999901
100
AcDbArc
 50
168.4630409671945
 51
180.0
  0
ARC
  5
3213
330
1F
100
AcDbEntity
  8
10
100
AcDbCircle
 10
1206.184866506235
 20
1439.376893768653
 30
0.0
 40
0.500000000000115
100
AcDbArc
 50
0.0
 51
11.53695903280856
  0
LINE
  5
3214
330
1F
100
AcDbEntity
  8
10
100
AcDbLine
 10
1207.684866506235
 20
1437.376893768653
 30
0.0
 11
1207.684866506235
 21
1439.376893768653
 31
0.0
  0
LINE
  5
3215
330
1F
100
AcDbEntity
  8
10
100
AcDbLine
 10
1206.626904621983
 20
1437.376893768653
 30
0.0
 11
1207.684866506235
 21
1437.376893768653
 31
0.0
  0
LINE
  5
3216
330
1F
100
AcDbEntity
  8
10
100
AcDbLine
 10
1200.984866506235
 20
1461.976893768651
 30
0.0
 11
1200.984866506235
 21
1459.476893768653
 31
0.0
  0
LINE
  5
3217
330
1F
100
AcDbEntity
  8
10
100
AcDbLine
 10
1199.584866506235
 20
1463.476893768651
 30
0.0
 11
1199.684866506234
 21
1463.476893768651
 31
0.0
  0
LINE
  5
3218
330
1F
100
AcDbEntity
  8
10
100
AcDbLine
 10
1199.584866506235
 20
1463.976893768653
 30
0.0
 11
1199.684866506234
 21
1463.976893768653
 31
0.0
  0
LINE
  5
3219
330
1F
100
AcDbEntity
  8
10
100
AcDbLine
 10
1207.684866506235
 20
1437.976893768652
 30
0.0
 11
1208.249656268433
 21
1437.976893768652
 31
0.0
  0
LINE
  5
321A
330
1F
100
AcDbEntity
  8
10
100
AcDbLine
 10
1202.749656268433
 20
1439.376893768653
 30
0.0
 11
1202.749656268433
 21
1439.476893768651
 31
0.0
  0
LINE
  5
321B
330
1F
100
AcDbEntity
  8
10
100
AcDbLine
 10
1208.749656268433
 20
1438.476893768652
 30
0.0
 11
1208.749656268433
 21
1439.476893768651
 31
0.0
  0
LINE
  5
321C
330
1F
100
AcDbEntity
  8
10
100
AcDbLine
 10
1199.584866506235
 20
1461.576893768653
 30
0.0
 11
1199.684866506234
 21
1461.576893768653
 31
0.0
  0
LINE
  5
321D
330
1F
100
AcDbEntity
  8
10
100
AcDbLine
 10
1199.584866506235
 20
1460.376893768652
 30
0.0
 11
1199.684866506234
 21
1460.376893768652
 31
0.0
  0
ARC
  5
321E
330
1F
100
AcDbEntity
  8
10
100
AcDbCircle
 10
1201.484866506236
 20
1461.976893768651
 30
0.0
 40
0.5000000000000449
100
AcDbArc
 50
90.0
 51
180.0
  0
ARC
  5
321F
330
1F
100
AcDbEntity
  8
10
100
AcDbCircle
 10
1200.484866506235
 20
1459.476893768653
 30
0.0
 40
0.4999999999999699
100
AcDbArc
 50
270.0
 51
0.0
  0
ARC
  5
3220
330
1F
100
AcDbEntity
  8
10
100
AcDbCircle
 10
1201.384866506235
 20
1466.476893768652
 30
0.0
 40
1.000000000000013
100
AcDbArc
 50
180.0
 51
270.0
  0
ARC
  5
3221
330
1F
100
AcDbEntity
  8
10
100
AcDbCircle
 10
1208.249656268433
 20
1438.476893768652
 30
0.0
 40
0.4999999999999699
100
AcDbArc
 50
270.0
 51
0.0
  0
LINE
  5
3222
330
1F
100
AcDbEntity
  8
10
100
AcDbLine
 10
1180.984866506235
 20
1473.541848836465
 30
0.0
 11
1199.584866506235
 21
1473.541848836465
 31
0.0
  0
LINE
  5
3223
330
1F
100
AcDbEntity
  8
10
100
AcDbLine
 10
1195.278648042453
 20
1485.976893768652
 30
0.0
 11
1199.084866506235
 21
1485.976893768652
 31
0.0
  0
ARC
  5
3224
330
1F
100
AcDbEntity
  8
10
100
AcDbCircle
 10
1196.884866506235
 20
1494.976893768652
 30
0.0
 40
1.999999999999993
100
AcDbArc
 50
0.0
 51
90.0
  0
ARC
  5
3225
330
1F
100
AcDbEntity
  8
10
100
AcDbCircle
 10
1200.884866506235
 20
1488.976893768652
 30
0.0
 40
1.999999999999993
100
AcDbArc
 50
180.0
 51
270.0
  0
LINE
  5
3226
330
1F
100
AcDbEntity
  8
10
100
AcDbLine
 10
1181.484866506234
 20
1485.976893768652
 30
0.0
 11
1185.291084970018
 21
1485.976893768652
 31
0.0
  0
ARC
  5
3227
330
1F
100
AcDbEntity
  8
10
100
AcDbCircle
 10
1194.784866506235
 20
1485.898282099728
 30
0.0
 40
0.5000000000000049
100
AcDbArc
 50
0.0
 51
90.0
  0
LINE
  5
3228
330
1F
100
AcDbEntity
  8
10
100
AcDbLine
 10
1195.284866506234
 20
1485.662483004474
 30
0.0
 11
1195.284866506234
 21
1485.898282099728
 31
0.0
  0
LINE
  5
3229
330
1F
100
AcDbEntity
  8
10
100
AcDbLine
 10
1185.784866506234
 20
1486.398282099728
 30
0.0
 11
1194.784866506235
 21
1486.398282099728
 31
0.0
  0
ARC
  5
322A
330
1F
100
AcDbEntity
  8
10
100
AcDbCircle
 10
1185.784866506234
 20
1485.898282099728
 30
0.0
 40
0.5000000000000449
100
AcDbArc
 50
90.0
 51
180.0
  0
LINE
  5
322B
330
1F
100
AcDbEntity
  8
10
100
AcDbLine
 10
1185.284866506234
 20
1485.662483004474
 30
0.0
 11
1185.284866506234
 21
1485.898282099728
 31
0.0
  0
ARC
  5
322C
330
1F
100
AcDbEntity
  8
10
100
AcDbCircle
 10
1185.784866506234
 20
1485.793466541162
 30
0.0
 40
0.5000000000000449
100
AcDbArc
 50
90.0
 51
180.0
  0
LINE
  5
322D
330
1F
100
AcDbEntity
  8
10
100
AcDbLine
 10
1185.784866506234
 20
1486.293466541162
 30
0.0
 11
1194.784866506235
 21
1486.293466541162
 31
0.0
  0
ARC
  5
322E
330
1F
100
AcDbEntity
  8
10
100
AcDbCircle
 10
1194.784866506235
 20
1485.793466541162
 30
0.0
 40
0.5000000000000049
100
AcDbArc
 50
0.0
 51
90.0
  0
ARC
  5
322F
330
1F
100
AcDbEntity
  8
10
100
AcDbCircle
 10
1194.784866506235
 20
1485.688650982596
 30
0.0
 40
0.5000000000000049
100
AcDbArc
 50
0.0
 51
90.0
  0
LINE
  5
3230
330
1F
100
AcDbEntity
  8
10
100
AcDbLine
 10
1185.784866506234
 20
1486.188650982596
 30
0.0
 11
1194.784866506235
 21
1486.188650982596
 31
0.0
  0
ARC
  5
3231
330
1F
100
AcDbEntity
  8
10
100
AcDbCircle
 10
1185.784866506234
 20
1485.688650982596
 30
0.0
 40
0.4999999999999699
100
AcDbArc
 50
90.0
 51
180.0
  0
LINE
  5
3232
330
1F
100
AcDbEntity
  8
10
100
AcDbLine
 10
1185.284866506234
 20
1485.662483004474
 30
0.0
 11
1195.284866506234
 21
1485.662483004474
 31
0.0
  0
ARC
  5
3233
330
1F
100
AcDbEntity
  8
10
100
AcDbCircle
 10
1181.484866506234
 20
1485.476893768653
 30
0.0
 40
0.4999999999999699
100
AcDbArc
 50
90.0
 51
180.0
  0
LINE
  5
3234
330
1F
100
AcDbEntity
  8
10
100
AcDbLine
 10
1180.884866506235
 20
1483.673929837698
 30
0.0
 11
1180.984866506235
 21
1483.673929837698
 31
0.0
  0
LINE
  5
3235
330
1F
100
AcDbEntity
  8
10
100
AcDbLine
 10
1180.884866506235
 20
1485.821796527615
 30
0.0
 11
1180.884866506235
 21
1475.065592102029
 31
0.0
  0
LINE
  5
3236
330
1F
100
AcDbEntity
  8
10
100
AcDbLine
 10
1180.884866506235
 20
1485.874204306897
 30
0.0
 11
1181.181313650542
 21
1485.874204306897
 31
0.0
  0
ARC
  5
3237
330
1F
100
AcDbEntity
  8
10
100
AcDbCircle
 10
1183.684866506234
 20
1494.976893768652
 30
0.0
 40
2.000000000000028
100
AcDbArc
 50
90.0
 51
180.0
  0
LINE
  5
3238
330
1F
100
AcDbEntity
  8
10
100
AcDbLine
 10
1181.684866506235
 20
1488.976893768652
 30
0.0
 11
1181.684866506235
 21
1494.976893768652
 31
0.0
  0
LINE
  5
3239
330
1F
100
AcDbEntity
  8
10
100
AcDbLine
 10
1196.884866506235
 20
1496.976893768652
 30
0.0
 11
1183.684866506234
 21
1496.976893768652
 31
0.0
  0
ARC
  5
323A
330
1F
100
AcDbEntity
  8
10
100
AcDbCircle
 10
1199.084866506235
 20
1485.476893768653
 30
0.0
 40
0.4999999999999901
100
AcDbArc
 50
0.0
 51
90.0
  0
LINE
  5
323B
330
1F
100
AcDbEntity
  8
10
100
AcDbLine
 10
1199.388419361927
 20
1485.874204306897
 30
0.0
 11
1199.684866506234
 21
1485.874204306897
 31
0.0
  0
LINE
  5
323C
330
1F
100
AcDbEntity
  8
10
100
AcDbLine
 10
1199.584866506235
 20
1483.673929837698
 30
0.0
 11
1199.684866506234
 21
1483.673929837698
 31
0.0
  0
ARC
  5
323D
330
1F
100
AcDbEntity
  8
10
100
AcDbCircle
 10
1201.384866506235
 20
1475.676893768653
 30
0.0
 40
1.000000000000013
100
AcDbArc
 50
90.0
 51
180.0
  0
LINE
  5
323E
330
1F
100
AcDbEntity
  8
10
100
AcDbLine
 10
1198.884866506235
 20
1488.976893768652
 30
0.0
 11
1198.884866506235
 21
1494.976893768652
 31
0.0
  0
LINE
  5
323F
330
1F
100
AcDbEntity
  8
10
 48
3.0
100
AcDbLine
 10
1245.384866506235
 20
1163.976893768652
 30
0.0
 11
1245.384866506235
 21
1093.976893768652
 31
0.0
  0
LINE
  5
3240
330
1F
100
AcDbEntity
  8
10
100
AcDbLine
 10
1273.384866506235
 20
1329.476893768652
 30
0.0
 11
1273.384866506235
 21
1057.476893768652
 31
0.0
  0
LINE
  5
3241
330
1F
100
AcDbEntity
  8
10
100
AcDbLine
 10
1273.384866506235
 20
1329.476893768652
 30
0.0
 11
1273.384866506235
 21
1124.647675921816
 31
0.0
  0
LINE
  5
3244
330
1F
100
AcDbEntity
  8
10
100
AcDbLine
 10
1223.354521620838
 20
740.176893768652
 30
0.0
 11
1223.354521620838
 21
732.1768937686518
 31
0.0
  0
LINE
  5
3245
330
1F
100
AcDbEntity
  8
10
100
AcDbLine
 10
1225.383238508499
 20
729.1768937686518
 30
0.0
 11
1225.383238508499
 21
726.8768937686517
 31
0.0
  0
LINE
  5
3246
330
1F
100
AcDbEntity
  8
10
100
AcDbLine
 10
1223.134866506235
 20
729.1768937686518
 30
0.0
 11
1223.134866506235
 21
731.3184307544827
 31
0.0
  0
LINE
  5
3247
330
1F
100
AcDbEntity
  8
10
100
AcDbLine
 10
1217.869694063537
 20
740.176893768652
 30
0.0
 11
1217.869694063537
 21
732.1768937686518
 31
0.0
  0
LINE
  5
3248
330
1F
100
AcDbEntity
  8
10
100
AcDbLine
 10
1232.384866506235
 20
755.8768937686517
 30
0.0
 11
1230.384866506235
 21
755.8768937686517
 31
0.0
  0
LINE
  5
3249
330
1F
100
AcDbEntity
  8
10
100
AcDbLine
 10
1264.884866506235
 20
764.076893768653
 30
0.0
 11
1257.884866506235
 21
764.076893768653
 31
0.0
  0
ARC
  5
324A
330
1F
100
AcDbEntity
  8
10
100
AcDbCircle
 10
1261.384866506235
 20
764.076893768653
 30
0.0
 40
3.499999999999993
100
AcDbArc
 50
0.0
 51
33.36701296923276
  0
ARC
  5
324B
330
1F
100
AcDbEntity
  8
10
100
AcDbCircle
 10
1261.384866506235
 20
764.076893768653
 30
0.0
 40
3.500000000000003
100
AcDbArc
 50
146.6329870307671
 51
180.0
  0
LINE
  5
324C
330
1F
100
AcDbEntity
  8
10
100
AcDbLine
 10
1259.714537197387
 20
766.6768937686531
 30
0.0
 11
1263.055195815085
 21
766.6768937686531
 31
0.0
  0
ARC
  5
324D
330
1F
100
AcDbEntity
  8
10
100
AcDbCircle
 10
1259.714537197387
 20
765.1768937686528
 30
0.0
 40
1.499999999999999
100
AcDbArc
 50
90.0
 51
146.6329870307685
  0
ARC
  5
324E
330
1F
100
AcDbEntity
  8
10
100
AcDbCircle
 10
1263.055195815085
 20
765.1768937686528
 30
0.0
 40
1.499999999999993
100
AcDbArc
 50
33.36701296923276
 51
90.0
  0
ARC
  5
324F
330
1F
100
AcDbEntity
  8
10
100
AcDbCircle
 10
1261.384866506235
 20
765.1768937686528
 30
0.0
 40
1.499999999999999
100
AcDbArc
 50
90.0
 51
180.0
  0
LINE
  5
3250
330
1F
100
AcDbEntity
  8
10
100
AcDbLine
 10
1261.384866506235
 20
766.6768937686531
 30
0.0
 11
1261.384866506235
 21
766.6768937686531
 31
0.0
  0
ARC
  5
3251
330
1F
100
AcDbEntity
  8
10
100
AcDbCircle
 10
1261.384866506235
 20
765.1768937686528
 30
0.0
 40
1.499999999999993
100
AcDbArc
 50
0.0
 51
90.0
  0
LINE
  5
3252
330
1F
100
AcDbEntity
  8
10
100
AcDbLine
 10
1273.384866506236
 20
764.076893768653
 30
0.0
 11
1273.384866506236
 21
758.076893768653
 31
0.0
  0
LINE
  5
3253
330
1F
100
AcDbEntity
  8
10
100
AcDbLine
 10
1273.384866506236
 20
758.076893768653
 30
0.0
 11
1271.384866506235
 21
756.0768937686532
 31
0.0
  0
CIRCLE
  5
3256
330
1F
100
AcDbEntity
  8
10
100
AcDbCircle
 10
1261.384866506235
 20
1070.976893768653
 30
0.0
 40
3.500000000000003
  0
CIRCLE
  5
3257
330
1F
100
AcDbEntity
  8
10
100
AcDbCircle
 10
1261.384866506235
 20
1070.976893768653
 30
0.0
 40
4.000000000000004
  0
LINE
  5
3258
330
1F
100
AcDbEntity
  8
10
100
AcDbLine
 10
1270.384866506235
 20
1018.976893768652
 30
0.0
 11
1233.384866506235
 21
1018.976893768652
 31
0.0
  0
LINE
  5
3259
330
1F
100
AcDbEntity
  8
10
100
AcDbLine
 10
1243.879313006769
 20
1046.676893768653
 30
0.0
 11
1258.8904200057
 21
1046.676893768653
 31
0.0
  0
LINE
  5
325A
330
1F
100
AcDbEntity
  8
10
100
AcDbLine
 10
1243.684866506235
 20
1052.176893768652
 30
0.0
 11
1259.084866506235
 21
1052.176893768652
 31
0.0
  0
LINE
  5
325B
330
1F
100
AcDbEntity
  8
10
100
AcDbLine
 10
1242.384866506234
 20
1054.176893768651
 30
0.0
 11
1260.384866506234
 21
1054.176893768652
 31
0.0
  0
LINE
  5
325C
330
1F
100
AcDbEntity
  8
10
100
AcDbLine
 10
1260.384866506234
 20
1055.776893768653
 30
0.0
 11
1242.384866506234
 21
1055.776893768653
 31
0.0
  0
LINE
  5
325D
330
1F
100
AcDbEntity
  8
12
100
AcDbLine
 10
1233.384866506235
 20
1033.976893768652
 30
0.0
 11
1233.384866506235
 21
1018.976893768652
 31
0.0
  0
LINE
  5
325E
330
1F
100
AcDbEntity
  8
12
100
AcDbLine
 10
1223.384866506235
 20
1033.976893768652
 30
0.0
 11
1223.384866506235
 21
1018.976893768652
 31
0.0
  0
LINE
  5
325F
330
1F
100
AcDbEntity
  8
12
 48
3.0
100
AcDbLine
 10
1228.384866506235
 20
1043.976893768652
 30
0.0
 11
1228.384866506235
 21
1023.976893768653
 31
0.0
  0
ARC
  5
3260
330
1F
100
AcDbEntity
  8
12
100
AcDbCircle
 10
1228.384866506235
 20
1033.976893768652
 30
0.0
 40
4.999999999999999
100
AcDbArc
 50
0.0
 51
180.0
  0
LINE
  5
3261
330
1F
100
AcDbEntity
  8
10
100
AcDbLine
 10
1236.51517118237
 20
1055.776893768653
 30
0.0
 11
1237.886459266886
 21
1050.127690148977
 31
0.0
  0
ARC
  5
3262
330
1F
100
AcDbEntity
  8
10
100
AcDbCircle
 10
1241.384866506235
 20
1050.976893768652
 30
0.0
 40
3.599999999999709
100
AcDbArc
 50
193.6440847954937
 51
313.860253165511
  0
LINE
  5
3263
330
1F
100
AcDbEntity
  8
10
100
AcDbLine
 10
1240.384866506235
 20
1055.776893768653
 30
0.0
 11
1240.384866506235
 21
1056.976893768653
 31
0.0
  0
LINE
  5
3264
330
1F
100
AcDbEntity
  8
10
100
AcDbLine
 10
1243.384866506235
 20
1055.776893768653
 30
0.0
 11
1243.384866506235
 21
1056.976893768653
 31
0.0
  0
LINE
  5
3265
330
1F
100
AcDbEntity
  8
10
100
AcDbLine
 10
1247.632089756502
 20
1046.676893768653
 30
0.0
 11
1247.632089756502
 21
1052.176893768652
 31
0.0
  0
LINE
  5
3266
330
1F
100
AcDbEntity
  8
10
100
AcDbLine
 10
1243.684866506235
 20
1054.176893768652
 30
0.0
 11
1243.684866506235
 21
1052.176893768652
 31
0.0
  0
LINE
  5
3267
330
1F
100
AcDbEntity
  8
10
100
AcDbLine
 10
1243.879313006769
 20
1046.676893768653
 30
0.0
 11
1243.879313006769
 21
1052.176893768652
 31
0.0
  0
LINE
  5
3268
330
1F
100
AcDbEntity
  8
10
100
AcDbLine
 10
1242.384866506234
 20
1054.176893768651
 30
0.0
 11
1242.384866506234
 21
1055.776893768653
 31
0.0
  0
LINE
  5
3269
330
1F
100
AcDbEntity
  8
10
100
AcDbLine
 10
1273.384866506235
 20
1058.976893768653
 30
0.0
 11
1273.384866506235
 21
1021.976893768653
 31
0.0
  0
LINE
  5
326A
330
1F
100
AcDbEntity
  8
10
100
AcDbLine
 10
1273.384866506235
 20
1021.976893768653
 30
0.0
 11
1270.384866506235
 21
1018.976893768652
 31
0.0
  0
LINE
  5
326B
330
1F
100
AcDbEntity
  8
10
100
AcDbLine
 10
1259.970652943862
 20
1072.391107331026
 30
0.0
 11
1262.799080068607
 21
1069.56268020628
 31
0.0
  0
LINE
  5
326C
330
1F
100
AcDbEntity
  8
10
100
AcDbLine
 10
1262.799080068607
 20
1072.391107331026
 30
0.0
 11
1259.970652943862
 21
1069.56268020628
 31
0.0
  0
ARC
  5
326D
330
1F
100
AcDbEntity
  8
10
100
AcDbCircle
 10
1261.384866506235
 20
1050.976893768652
 30
0.0
 40
3.600000000000139
100
AcDbArc
 50
226.13974683446
 51
346.3559152045076
  0
LINE
  5
326E
330
1F
100
AcDbEntity
  8
10
100
AcDbLine
 10
1266.254561830101
 20
1055.776893768653
 30
0.0
 11
1264.883273745585
 21
1050.127690148977
 31
0.0
  0
LINE
  5
326F
330
1F
100
AcDbEntity
  8
10
100
AcDbLine
 10
1270.384866506235
 20
1055.776893768653
 30
0.0
 11
1270.384866506235
 21
1056.976893768653
 31
0.0
  0
LINE
  5
3270
330
1F
100
AcDbEntity
  8
10
100
AcDbLine
 10
1255.137643255967
 20
1046.676893768653
 30
0.0
 11
1255.137643255967
 21
1052.176893768652
 31
0.0
  0
LINE
  5
3271
330
1F
100
AcDbEntity
  8
10
100
AcDbLine
 10
1259.084866506235
 20
1054.176893768652
 30
0.0
 11
1259.084866506235
 21
1052.176893768652
 31
0.0
  0
LINE
  5
3272
330
1F
100
AcDbEntity
  8
10
100
AcDbLine
 10
1258.8904200057
 20
1046.676893768653
 30
0.0
 11
1258.8904200057
 21
1052.176893768652
 31
0.0
  0
LINE
  5
3273
330
1F
100
AcDbEntity
  8
10
100
AcDbLine
 10
1260.384866506234
 20
1054.176893768652
 30
0.0
 11
1260.384866506234
 21
1055.776893768653
 31
0.0
  0
CIRCLE
  5
3274
330
1F
100
AcDbEntity
  8
10
100
AcDbCircle
 10
1261.384866506235
 20
1337.976893768653
 30
0.0
 40
3.500000000000003
  0
CIRCLE
  5
3275
330
1F
100
AcDbEntity
  8
10
100
AcDbCircle
 10
1261.384866506235
 20
1337.976893768653
 30
0.0
 40
4.000000000000004
  0
LINE
  5
3276
330
1F
100
AcDbEntity
  8
10
100
AcDbLine
 10
1259.970652943862
 20
1339.391107331026
 30
0.0
 11
1262.799080068607
 21
1336.56268020628
 31
0.0
  0
LINE
  5
3277
330
1F
100
AcDbEntity
  8
10
100
AcDbLine
 10
1262.799080068607
 20
1339.391107331026
 30
0.0
 11
1259.970652943862
 21
1336.56268020628
 31
0.0
  0
LINE
  5
3278
330
1F
100
AcDbEntity
  8
10
100
AcDbLine
 10
1262.799080068607
 20
1323.391107331026
 30
0.0
 11
1259.970652943862
 21
1320.56268020628
 31
0.0
  0
LINE
  5
3279
330
1F
100
AcDbEntity
  8
10
100
AcDbLine
 10
1259.970652943862
 20
1323.391107331026
 30
0.0
 11
1262.799080068607
 21
1320.56268020628
 31
0.0
  0
CIRCLE
  5
327A
330
1F
100
AcDbEntity
  8
10
100
AcDbCircle
 10
1261.384866506235
 20
1321.976893768653
 30
0.0
 40
4.000000000000004
  0
CIRCLE
  5
327B
330
1F
100
AcDbEntity
  8
10
100
AcDbCircle
 10
1261.384866506235
 20
1321.976893768653
 30
0.0
 40
3.500000000000003
  0
LINE
  5
327C
330
1F
100
AcDbEntity
  8
10
100
AcDbLine
 10
1254.384866506235
 20
1329.976893768653
 30
0.0
 11
1254.384866506235
 21
1329.476893768652
 31
0.0
  0
LINE
  5
327D
330
1F
100
AcDbEntity
  8
10
100
AcDbLine
 10
1235.884866506235
 20
1485.476893768652
 30
0.0
 11
1235.884866506235
 21
1371.976893768652
 31
0.0
  0
LINE
  5
327E
330
1F
100
AcDbEntity
  8
10
100
AcDbLine
 10
1246.084866506235
 20
1441.476893768653
 30
0.0
 11
1246.084866506235
 21
1375.476893768653
 31
0.0
  0
LINE
  5
327F
330
1F
100
AcDbEntity
  8
10
100
AcDbLine
 10
1236.084866506235
 20
1439.476893768652
 30
0.0
 11
1236.084866506235
 21
1377.476893768653
 31
0.0
  0
LINE
  5
3280
330
1F
100
AcDbEntity
  8
10
100
AcDbLine
 10
1226.384866506235
 20
1377.476893768652
 30
0.0
 11
1235.384866506235
 21
1377.476893768652
 31
0.0
  0
LINE
  5
3281
330
1F
100
AcDbEntity
  8
10
100
AcDbLine
 10
1233.884866506236
 20
1371.976893768652
 30
0.0
 11
1233.884866506236
 21
1370.376893768653
 31
0.0
  0
LINE
  5
3282
330
1F
100
AcDbEntity
  8
10
100
AcDbLine
 10
1221.384866506235
 20
1370.376893768653
 30
0.0
 11
1221.384866506235
 21
1369.976893768652
 31
0.0
  0
LINE
  5
3283
330
1F
100
AcDbEntity
  8
10
100
AcDbLine
 10
1225.384866506235
 20
1370.376893768653
 30
0.0
 11
1225.384866506235
 21
1369.976893768652
 31
0.0
  0
CIRCLE
  5
3284
330
1F
100
AcDbEntity
  8
10
100
AcDbCircle
 10
1222.884866506235
 20
1377.476893768652
 30
0.0
 40
3.000000000000003
  0
ARC
  5
3285
330
1F
100
AcDbEntity
  8
10
100
AcDbCircle
 10
1222.884866506235
 20
1377.476893768652
 30
0.0
 40
4.000000000000004
100
AcDbArc
 50
180.0
 51
0.0
  0
ARC
  5
3286
330
1F
100
AcDbEntity
  8
10
100
AcDbCircle
 10
1222.884866506235
 20
1377.476893768652
 30
0.0
 40
3.499999999999993
100
AcDbArc
 50
0.0
 51
180.0
  0
ARC
  5
3287
330
1F
100
AcDbEntity
  8
10
100
AcDbCircle
 10
1222.884866506235
 20
1377.476893768652
 30
0.0
 40
4.999999999999893
100
AcDbArc
 50
0.0
 51
180.0
  0
LINE
  5
3288
330
1F
100
AcDbEntity
  8
10
100
AcDbLine
 10
1235.884866506235
 20
1371.976893768652
 30
0.0
 11
1235.884866506235
 21
1370.376893768653
 31
0.0
  0
ARC
  5
3289
330
1F
100
AcDbEntity
  8
10
100
AcDbCircle
 10
1235.384866506235
 20
1376.976893768651
 30
0.0
 40
0.5000000000000049
100
AcDbArc
 50
0.0
 51
90.0
  0
ARC
  5
328A
330
1F
100
AcDbEntity
  8
10
100
AcDbCircle
 10
1238.084866506236
 20
1373.476893768653
 30
0.0
 40
2.000000000000028
100
AcDbArc
 50
90.0
 51
180.0
  0
LINE
  5
328B
330
1F
100
AcDbEntity
  8
10
100
AcDbLine
 10
1236.084866506235
 20
1377.476893768653
 30
0.0
 11
1246.084866506235
 21
1377.476893768653
 31
0.0
  0
LINE
  5
328C
330
1F
100
AcDbEntity
  8
10
100
AcDbLine
 10
1236.084866506235
 20
1373.476893768653
 30
0.0
 11
1236.084866506235
 21
1370.976893768653
 31
0.0
  0
LINE
  5
328D
330
1F
100
AcDbEntity
  8
10
100
AcDbLine
 10
1238.084866506236
 20
1375.476893768653
 30
0.0
 11
1246.084866506235
 21
1375.476893768653
 31
0.0
  0
ARC
  5
328E
330
1F
100
AcDbEntity
  8
10
100
AcDbCircle
 10
1235.084866506236
 20
1370.976893768653
 30
0.0
 40
1.000000000000013
100
AcDbArc
 50
270.0
 51
0.0
  0
LINE
  5
328F
330
1F
100
AcDbEntity
  8
10
100
AcDbLine
 10
1236.084866506235
 20
1382.476893768652
 30
0.0
 11
1236.084866506235
 21
1378.976893768653
 31
0.0
  0
LINE
  5
3290
330
1F
100
AcDbEntity
  8
10
100
AcDbLine
 10
1218.584866506235
 20
1475.676893768653
 30
0.0
 11
1218.584866506235
 21
1466.476893768652
 31
0.0
  0
LINE
  5
3291
330
1F
100
AcDbEntity
  8
10
100
AcDbLine
 10
1236.084866506235
 20
1485.976893768652
 30
0.0
 11
1236.084866506235
 21
1443.476893768653
 31
0.0
  0
ARC
  5
3292
330
1F
100
AcDbEntity
  8
10
100
AcDbCircle
 10
1217.584866506236
 20
1466.476893768652
 30
0.0
 40
1.000000000000013
100
AcDbArc
 50
270.0
 51
0.0
  0
ARC
  5
3293
330
1F
100
AcDbEntity
  8
10
100
AcDbCircle
 10
1235.384866506235
 20
1462.976893768652
 30
0.0
 40
0.4999999999999699
100
AcDbArc
 50
270.0
 51
0.0
  0
ARC
  5
3294
330
1F
100
AcDbEntity
  8
10
100
AcDbCircle
 10
1235.384866506235
 20
1454.976893768653
 30
0.0
 40
0.5000000000000049
100
AcDbArc
 50
0.0
 51
90.0
  0
ARC
  5
3295
330
1F
100
AcDbEntity
  8
10
100
AcDbCircle
 10
1235.384866506235
 20
1439.976893768653
 30
0.0
 40
0.5000000000000449
100
AcDbArc
 50
270.0
 51
0.0
  0
ARC
  5
3296
330
1F
100
AcDbEntity
  8
10
100
AcDbCircle
 10
1238.084866506236
 20
1443.476893768653
 30
0.0
 40
2.000000000000008
100
AcDbArc
 50
180.0
 51
270.0
  0
LINE
  5
3297
330
1F
100
AcDbEntity
  8
10
100
AcDbLine
 10
1238.084866506236
 20
1441.476893768653
 30
0.0
 11
1246.084866506235
 21
1441.476893768653
 31
0.0
  0
LINE
  5
3298
330
1F
100
AcDbEntity
  8
10
100
AcDbLine
 10
1236.084866506235
 20
1439.476893768652
 30
0.0
 11
1246.084866506235
 21
1439.476893768652
 31
0.0
  0
ARC
  5
3299
330
1F
100
AcDbEntity
  8
10
100
AcDbCircle
 10
1234.884866506235
 20
1485.476893768652
 30
0.0
 40
0.9999999999999948
100
AcDbArc
 50
0.0
 51
90.0
  0
ARC
  5
329A
330
1F
100
AcDbEntity
  8
10
100
AcDbCircle
 10
1217.584866506236
 20
1475.676893768653
 30
0.0
 40
1.000000000000013
100
AcDbArc
 50
0.0
 51
90.0
  0
ARC
  5
329B
330
1F
100
AcDbEntity
  8
10
100
AcDbCircle
 10
1235.084866506236
 20
1485.976893768652
 30
0.0
 40
0.9999999999999948
100
AcDbArc
 50
0.0
 51
90.0
  0
LINE
  5
32A0
330
1F
100
AcDbEntity
  8
10
100
AcDbLine
 10
1273.384866506235
 20
1635.976893768653
 30
0.0
 11
1273.384866506235
 21
1598.976893768653
 31
0.0
  0
LINE
  5
32A1
330
1F
100
AcDbEntity
  8
10
100
AcDbLine
 10
1266.254561830101
 20
1602.176893768653
 30
0.0
 11
1264.883273745585
 21
1607.826097388328
 31
0.0
  0
LINE
  5
32A2
330
1F
100
AcDbEntity
  8
10
100
AcDbLine
 10
1236.51517118237
 20
1602.176893768653
 30
0.0
 11
1237.886459266886
 21
1607.826097388328
 31
0.0
  0
LINE
  5
32A3
330
1F
100
AcDbEntity
  8
10
100
AcDbLine
 10
1254.637643255966
 20
1611.276893768653
 30
0.0
 11
1254.637643255966
 21
1605.776893768653
 31
0.0
  0
LINE
  5
32A4
330
1F
100
AcDbEntity
  8
10
100
AcDbLine
 10
1247.132089756502
 20
1611.276893768653
 30
0.0
 11
1247.132089756502
 21
1605.776893768653
 31
0.0
  0
LINE
  5
32A5
330
1F
100
AcDbEntity
  8
10
100
AcDbLine
 10
1258.3904200057
 20
1611.276893768653
 30
0.0
 11
1258.3904200057
 21
1605.776893768653
 31
0.0
  0
LINE
  5
32A6
330
1F
100
AcDbEntity
  8
10
100
AcDbLine
 10
1243.37931300677
 20
1611.276893768653
 30
0.0
 11
1243.37931300677
 21
1605.776893768653
 31
0.0
  0
LINE
  5
32A7
330
1F
100
AcDbEntity
  8
10
100
AcDbLine
 10
1258.584866506235
 20
1605.776893768653
 30
0.0
 11
1243.184866506235
 21
1605.776893768653
 31
0.0
  0
LINE
  5
32A8
330
1F
100
AcDbEntity
  8
10
100
AcDbLine
 10
1259.884866506235
 20
1603.776893768652
 30
0.0
 11
1241.884866506235
 21
1603.776893768652
 31
0.0
  0
LINE
  5
32A9
330
1F
100
AcDbEntity
  8
10
100
AcDbLine
 10
1241.884866506235
 20
1602.176893768653
 30
0.0
 11
1259.884866506235
 21
1602.176893768653
 31
0.0
  0
LINE
  5
32AA
330
1F
100
AcDbEntity
  8
10
100
AcDbLine
 10
1243.184866506235
 20
1603.776893768652
 30
0.0
 11
1243.184866506235
 21
1605.776893768653
 31
0.0
  0
LINE
  5
32AB
330
1F
100
AcDbEntity
  8
10
100
AcDbLine
 10
1241.884866506235
 20
1603.776893768652
 30
0.0
 11
1241.884866506235
 21
1602.176893768653
 31
0.0
  0
CIRCLE
  5
32AC
330
1F
100
AcDbEntity
  8
10
100
AcDbCircle
 10
1261.384866506235
 20
1586.976893768652
 30
0.0
 40
3.500000000000003
  0
CIRCLE
  5
32AD
330
1F
100
AcDbEntity
  8
10
100
AcDbCircle
 10
1261.384866506235
 20
1586.976893768652
 30
0.0
 40
4.000000000000004
  0
LINE
  5
32AE
330
1F
100
AcDbEntity
  8
10
100
AcDbLine
 10
1259.970652943862
 20
1588.391107331026
 30
0.0
 11
1262.799080068607
 21
1585.56268020628
 31
0.0
  0
LINE
  5
32AF
330
1F
100
AcDbEntity
  8
10
100
AcDbLine
 10
1262.799080068607
 20
1588.391107331026
 30
0.0
 11
1259.970652943862
 21
1585.56268020628
 31
0.0
  0
LINE
  5
32B0
330
1F
100
AcDbEntity
  8
10
100
AcDbLine
 10
1270.384866506235
 20
1602.176893768653
 30
0.0
 11
1270.384866506235
 21
1600.976893768653
 31
0.0
  0
LINE
  5
32B1
330
1F
100
AcDbEntity
  8
10
100
AcDbLine
 10
1258.584866506235
 20
1603.776893768652
 30
0.0
 11
1258.584866506235
 21
1605.776893768653
 31
0.0
  0
LINE
  5
32B2
330
1F
100
AcDbEntity
  8
10
100
AcDbLine
 10
1259.884866506235
 20
1603.776893768652
 30
0.0
 11
1259.884866506235
 21
1602.176893768653
 31
0.0
  0
LINE
  5
32B3
330
1F
100
AcDbEntity
  8
10
100
AcDbLine
 10
1258.3904200057
 20
1611.276893768653
 30
0.0
 11
1243.37931300677
 21
1611.276893768653
 31
0.0
  0
CIRCLE
  5
32B6
330
1F
100
AcDbEntity
  8
0
  6
Continuous
 62
     3
100
AcDbCircle
 10
1228.384866506235
 20
1623.976893768652
 30
0.0
 40
4.999999999999999
  0
LINE
  5
32B7
330
1F
100
AcDbEntity
  8
12
 48
3.0
100
AcDbLine
 10
1228.384866506235
 20
1633.976893768652
 30
0.0
 11
1228.384866506235
 21
1613.976893768652
 31
0.0
  0
ARC
  5
32B8
330
1F
100
AcDbEntity
  8
10
100
AcDbCircle
 10
1241.384866506235
 20
1606.976893768653
 30
0.0
 40
3.600000000000183
100
AcDbArc
 50
56.35724617371333
 51
166.3559152044999
  0
LINE
  5
32B9
330
1F
100
AcDbEntity
  8
10
100
AcDbLine
 10
1273.384866506235
 20
1635.976893768653
 30
0.0
 11
1270.384866506235
 21
1638.976893768653
 31
0.0
  0
ARC
  5
32BA
330
1F
100
AcDbEntity
  8
10
100
AcDbCircle
 10
1261.384866506235
 20
1606.976893768653
 30
0.0
 40
3.600000000000268
100
AcDbArc
 50
13.64408479549853
 51
146.2831274480324
  0
LINE
  5
32BB
330
1F
100
AcDbEntity
  8
10
  6
Continuous
100
AcDbLine
 10
1574.984866506235
 20
1529.976893768653
 30
0.0
 11
1574.984866506235
 21
1507.976893768653
 31
0.0
  0
LINE
  5
32BC
330
1F
100
AcDbEntity
  8
10
  6
Continuous
100
AcDbLine
 10
1571.984866506234
 20
1507.976893768653
 30
0.0
 11
1571.984866506234
 21
1529.976893768653
 31
0.0
  0
LINE
  5
32BD
330
1F
100
AcDbEntity
  8
10
  6
Continuous
100
AcDbLine
 10
1568.984866506235
 20
1529.976893768653
 30
0.0
 11
1568.984866506235
 21
1507.976893768653
 31
0.0
  0
LINE
  5
32BE
330
1F
100
AcDbEntity
  8
10
  6
Continuous
100
AcDbLine
 10
1565.984866506235
 20
1507.976893768653
 30
0.0
 11
1565.984866506235
 21
1529.976893768653
 31
0.0
  0
LINE
  5
32BF
330
1F
100
AcDbEntity
  8
10
  6
Continuous
100
AcDbLine
 10
1538.984866506235
 20
1529.976893768653
 30
0.0
 11
1538.984866506235
 21
1507.976893768653
 31
0.0
  0
LINE
  5
32C0
330
1F
100
AcDbEntity
  8
10
  6
Continuous
100
AcDbLine
 10
1535.984866506234
 20
1507.976893768653
 30
0.0
 11
1535.984866506234
 21
1529.976893768653
 31
0.0
  0
LINE
  5
32C1
330
1F
100
AcDbEntity
  8
10
  6
Continuous
100
AcDbLine
 10
1544.984866506235
 20
1529.976893768653
 30
0.0
 11
1544.984866506235
 21
1507.976893768653
 31
0.0
  0
LINE
  5
32C2
330
1F
100
AcDbEntity
  8
10
  6
Continuous
100
AcDbLine
 10
1541.984866506235
 20
1507.976893768653
 30
0.0
 11
1541.984866506235
 21
1529.976893768653
 31
0.0
  0
LINE
  5
32C3
330
1F
100
AcDbEntity
  8
10
  6
Continuous
100
AcDbLine
 10
1550.984866506235
 20
1529.976893768653
 30
0.0
 11
1550.984866506235
 21
1507.976893768653
 31
0.0
  0
LINE
  5
32C4
330
1F
100
AcDbEntity
  8
10
  6
Continuous
100
AcDbLine
 10
1547.984866506235
 20
1507.976893768653
 30
0.0
 11
1547.984866506235
 21
1529.976893768653
 31
0.0
  0
LINE
  5
32C5
330
1F
100
AcDbEntity
  8
10
  6
Continuous
100
AcDbLine
 10
1556.984866506234
 20
1529.976893768653
 30
0.0
 11
1556.984866506234
 21
1507.976893768653
 31
0.0
  0
LINE
  5
32C6
330
1F
100
AcDbEntity
  8
10
  6
Continuous
100
AcDbLine
 10
1553.984866506235
 20
1507.976893768653
 30
0.0
 11
1553.984866506235
 21
1529.976893768653
 31
0.0
  0
LINE
  5
32C7
330
1F
100
AcDbEntity
  8
10
  6
Continuous
100
AcDbLine
 10
1562.984866506234
 20
1529.976893768653
 30
0.0
 11
1562.984866506234
 21
1507.976893768653
 31
0.0
  0
LINE
  5
32C8
330
1F
100
AcDbEntity
  8
10
  6
Continuous
100
AcDbLine
 10
1559.984866506234
 20
1507.976893768653
 30
0.0
 11
1559.984866506234
 21
1529.976893768653
 31
0.0
  0
LINE
  5
32C9
330
1F
100
AcDbEntity
  8
10
  6
Continuous
100
AcDbLine
 10
1529.984866506235
 20
1507.976893768653
 30
0.0
 11
1529.984866506235
 21
1529.976893768653
 31
0.0
  0
LINE
  5
32CA
330
1F
100
AcDbEntity
  8
10
  6
Continuous
100
AcDbLine
 10
1523.984866506235
 20
1507.976893768653
 30
0.0
 11
1523.984866506235
 21
1529.976893768653
 31
0.0
  0
LINE
  5
32CB
330
1F
100
AcDbEntity
  8
10
  6
Continuous
100
AcDbLine
 10
1532.984866506234
 20
1529.976893768653
 30
0.0
 11
1532.984866506234
 21
1507.976893768653
 31
0.0
  0
LINE
  5
32CC
330
1F
100
AcDbEntity
  8
10
  6
Continuous
100
AcDbLine
 10
1526.984866506234
 20
1529.976893768653
 30
0.0
 11
1526.984866506234
 21
1507.976893768653
 31
0.0
  0
LINE
  5
32CD
330
1F
100
AcDbEntity
  8
10
  6
Continuous
100
AcDbLine
 10
1517.984866506234
 20
1507.976893768653
 30
0.0
 11
1517.984866506234
 21
1529.976893768653
 31
0.0
  0
LINE
  5
32CE
330
1F
100
AcDbEntity
  8
10
  6
Continuous
100
AcDbLine
 10
1520.984866506235
 20
1529.976893768653
 30
0.0
 11
1520.984866506235
 21
1507.976893768653
 31
0.0
  0
LINE
  5
32CF
330
1F
100
AcDbEntity
  8
10
  6
Continuous
100
AcDbLine
 10
1722.484866506235
 20
1598.976893768653
 30
0.0
 11
1722.484866506235
 21
1058.976893768653
 31
0.0
  0
LINE
  5
32D0
330
1F
100
AcDbEntity
  8
10
  6
Continuous
100
AcDbLine
 10
1588.484866506234
 20
1598.976893768653
 30
0.0
 11
1588.484866506234
 21
1058.976893768653
 31
0.0
  0
LINE
  5
32D1
330
1F
100
AcDbEntity
  8
10
  6
Continuous
100
AcDbLine
 10
1479.484866506235
 20
1598.976893768653
 30
0.0
 11
1479.484866506235
 21
1058.976893768653
 31
0.0
  0
LINE
  5
32D3
330
1F
100
AcDbEntity
  8
10
  6
Continuous
100
AcDbLine
 10
1478.284866506235
 20
1600.976893768653
 30
0.0
 11
1478.284866506235
 21
1329.976893768653
 31
0.0
  0
LINE
  5
32D4
330
1F
100
AcDbEntity
  8
10
  6
Continuous
100
AcDbLine
 10
1479.484866506235
 20
1599.776893768653
 30
0.0
 11
1479.484866506235
 21
1360.590394960172
 31
0.0
  0
LINE
  5
32D5
330
1F
100
AcDbEntity
  8
10
  6
Continuous
100
AcDbLine
 10
1479.484866506235
 20
1599.776893768653
 30
0.0
 11
1479.484866506235
 21
1319.976893768652
 31
0.0
  0
LINE
  5
32D7
330
1F
100
AcDbEntity
  8
10
  6
Continuous
100
AcDbLine
 10
1478.284866506235
 20
1329.476893768652
 30
0.0
 11
1478.284866506235
 21
1057.476893768652
 31
0.0
  0
LINE
  5
32D8
330
1F
100
AcDbEntity
  8
10
  6
Continuous
100
AcDbLine
 10
1479.484866506235
 20
1329.476893768652
 30
0.0
 11
1479.484866506235
 21
1058.676893768652
 31
0.0
  0
LINE
  5
32DB
330
1F
100
AcDbEntity
  8
10
  6
Continuous
100
AcDbLine
 10
1479.484866506235
 20
1058.976893768653
 30
0.0
 11
1722.484866506235
 21
1058.976893768653
 31
0.0
  0
LINE
  5
32DE
330
1F
100
AcDbEntity
  8
10
  6
Continuous
100
AcDbLine
 10
1478.284866506235
 20
1066.976893768653
 30
0.0
 11
1478.284866506235
 21
1074.976893768653
 31
0.0
  0
LINE
  5
32DF
330
1F
100
AcDbEntity
  8
10
  6
Continuous
100
AcDbLine
 10
1478.284866506235
 20
1074.476893768652
 30
0.0
 11
1478.284866506235
 21
1067.476893768652
 31
0.0
  0
ARC
  5
32E0
330
1F
100
AcDbEntity
  8
10
  6
Continuous
100
AcDbCircle
 10
1478.284866506235
 20
1070.976893768653
 30
0.0
 40
3.499999999999978
100
AcDbArc
 50
90.0
 51
123.3670129692291
  0
ARC
  5
32E1
330
1F
100
AcDbEntity
  8
10
  6
Continuous
100
AcDbCircle
 10
1477.184866506235
 20
1072.647223077502
 30
0.0
 40
1.500000000000073
100
AcDbArc
 50
123.3670129692291
 51
180.0
  0
LINE
  5
32E2
330
1F
100
AcDbEntity
  8
10
  6
Continuous
100
AcDbLine
 10
1489.384866506235
 20
1069.476893768652
 30
0.0
 11
1489.384866506235
 21
1118.476893768652
 31
0.0
  0
LINE
  5
32E3
330
1F
100
AcDbEntity
  8
10
  6
Continuous
100
AcDbLine
 10
1519.384866506235
 20
1069.476893768652
 30
0.0
 11
1519.384866506235
 21
1118.476893768652
 31
0.0
  0
LINE
  5
32E4
330
1F
100
AcDbEntity
  8
10
  6
Continuous
100
AcDbLine
 10
1489.884866506236
 20
1068.976893768652
 30
0.0
 11
1518.884866506235
 21
1068.976893768652
 31
0.0
  0
LINE
  5
32E5
330
1F
100
AcDbEntity
  8
10
  6
Continuous
100
AcDbLine
 10
1478.284866506235
 20
1057.476893768652
 30
0.0
 11
1486.284866506235
 21
1057.476893768652
 31
0.0
  0
LINE
  5
32E6
330
1F
100
AcDbEntity
  8
10
  6
Continuous
100
AcDbLine
 10
1479.484866506235
 20
1058.676893768652
 30
0.0
 11
1486.284866506235
 21
1058.676893768652
 31
0.0
  0
ARC
  5
32E7
330
1F
100
AcDbEntity
  8
10
  6
Continuous
100
AcDbCircle
 10
1478.284866506235
 20
1070.976893768653
 30
0.0
 40
3.500000000000035
100
AcDbArc
 50
236.6329870307708
 51
270.0
  0
LINE
  5
32E8
330
1F
100
AcDbEntity
  8
10
  6
Continuous
100
AcDbLine
 10
1475.684866506234
 20
1069.306564459804
 30
0.0
 11
1475.684866506234
 21
1072.647223077502
 31
0.0
  0
ARC
  5
32E9
330
1F
100
AcDbEntity
  8
10
  6
Continuous
100
AcDbCircle
 10
1477.184866506235
 20
1069.306564459804
 30
0.0
 40
1.499999999999984
100
AcDbArc
 50
180.0
 51
236.6329870307708
  0
ARC
  5
32EA
330
1F
100
AcDbEntity
  8
10
  6
Continuous
100
AcDbCircle
 10
1477.184866506235
 20
1070.976893768653
 30
0.0
 40
1.499999999999984
100
AcDbArc
 50
180.0
 51
270.0
  0
LINE
  5
32EB
330
1F
100
AcDbEntity
  8
10
  6
Continuous
100
AcDbLine
 10
1475.684866506234
 20
1070.976893768653
 30
0.0
 11
1475.684866506234
 21
1070.976893768653
 31
0.0
  0
ARC
  5
32EC
330
1F
100
AcDbEntity
  8
10
  6
Continuous
100
AcDbCircle
 10
1477.184866506235
 20
1070.976893768653
 30
0.0
 40
1.499999999999984
100
AcDbArc
 50
90.0
 51
180.0
  0
ARC
  5
32ED
330
1F
100
AcDbEntity
  8
10
  6
Continuous
100
AcDbCircle
 10
1489.884866506236
 20
1069.476893768652
 30
0.0
 40
0.5000000000000049
100
AcDbArc
 50
180.0
 51
270.0
  0
LINE
  5
32EE
330
1F
100
AcDbEntity
  8
10
  6
Continuous
100
AcDbLine
 10
1486.284866506235
 20
1058.676893768652
 30
0.0
 11
1486.284866506235
 21
1057.476893768652
 31
0.0
  0
LINE
  5
32EF
330
1F
100
AcDbEntity
  8
10
  6
Continuous
100
AcDbLine
 10
1484.284866506235
 20
1058.676893768652
 30
0.0
 11
1484.284866506235
 21
1057.476893768652
 31
0.0
  0
ARC
  5
32F0
330
1F
100
AcDbEntity
  8
10
  6
Continuous
100
AcDbCircle
 10
1518.884866506235
 20
1069.476893768652
 30
0.0
 40
0.5000000000000049
100
AcDbArc
 50
270.0
 51
0.0
  0
LINE
  5
32F1
330
1F
100
AcDbEntity
  8
10
  6
Continuous
100
AcDbLine
 10
1489.884866506236
 20
1118.976893768652
 30
0.0
 11
1518.884866506235
 21
1118.976893768652
 31
0.0
  0
TEXT
  5
32F2
330
1F
100
AcDbEntity
  8
10
  6
Continuous
100
AcDbText
 10
1491.384862468263
 20
1106.226892555961
 30
0.0
 40
16.00000023841857
  1
ＮＰ
 50
270.0000025044751
 41
0.7031250019402551
  7
STANDARD1
100
AcDbText
  0
ARC
  5
32F3
330
1F
100
AcDbEntity
  8
10
  6
Continuous
100
AcDbCircle
 10
1489.884866506236
 20
1118.476893768652
 30
0.0
 40
0.5000000000000049
100
AcDbArc
 50
90.0
 51
180.0
  0
ARC
  5
32F4
330
1F
100
AcDbEntity
  8
10
  6
Continuous
100
AcDbCircle
 10
1518.884866506235
 20
1118.476893768652
 30
0.0
 40
0.4999999999999699
100
AcDbArc
 50
0.0
 51
90.0
  0
LINE
  5
32F5
330
1F
100
AcDbEntity
  8
10
  6
Continuous
100
AcDbLine
 10
1551.484866506235
 20
1055.776893768653
 30
0.0
 11
1585.284866506235
 21
1055.776893768653
 31
0.0
  0
LINE
  5
32F6
330
1F
100
AcDbEntity
  8
10
  6
Continuous
100
AcDbLine
 10
1588.484866506234
 20
1058.976893768653
 30
0.0
 11
1551.484866506235
 21
1058.976893768653
 31
0.0
  0
LINE
  5
32F7
330
1F
100
AcDbEntity
  8
10
  6
Continuous
100
AcDbLine
 10
1572.484866506234
 20
1055.776893768653
 30
0.0
 11
1554.484866506235
 21
1055.776893768653
 31
0.0
  0
LINE
  5
32F8
330
1F
100
AcDbEntity
  8
10
  6
Continuous
100
AcDbLine
 10
1554.484866506235
 20
1054.176893768652
 30
0.0
 11
1572.484866506234
 21
1054.176893768652
 31
0.0
  0
LINE
  5
32F9
330
1F
100
AcDbEntity
  8
10
  6
Continuous
100
AcDbLine
 10
1555.784866506234
 20
1052.176893768652
 30
0.0
 11
1571.184866506235
 21
1052.176893768652
 31
0.0
  0
LINE
  5
32FA
330
1F
100
AcDbEntity
  8
10
  6
Continuous
100
AcDbLine
 10
1551.484866506235
 20
1058.976893768653
 30
0.0
 11
1551.484866506235
 21
1055.776893768653
 31
0.0
  0
LINE
  5
32FB
330
1F
100
AcDbEntity
  8
10
  6
Continuous
100
AcDbLine
 10
1554.484866506235
 20
1058.976893768653
 30
0.0
 11
1554.484866506235
 21
1055.776893768653
 31
0.0
  0
LINE
  5
32FC
330
1F
100
AcDbEntity
  8
10
  6
Continuous
100
AcDbLine
 10
1554.484866506235
 20
1054.176893768652
 30
0.0
 11
1554.484866506235
 21
1055.776893768653
 31
0.0
  0
LINE
  5
32FD
330
1F
100
AcDbEntity
  8
10
  6
Continuous
100
AcDbLine
 10
1555.784866506234
 20
1054.176893768652
 30
0.0
 11
1555.784866506234
 21
1052.176893768652
 31
0.0
  0
LINE
  5
32FE
330
1F
100
AcDbEntity
  8
10
  6
Continuous
100
AcDbLine
 10
1572.484866506234
 20
1054.176893768652
 30
0.0
 11
1572.484866506234
 21
1055.776893768653
 31
0.0
  0
LINE
  5
32FF
330
1F
100
AcDbEntity
  8
10
  6
Continuous
100
AcDbLine
 10
1570.9904200057
 20
1046.676893768653
 30
0.0
 11
1570.9904200057
 21
1052.176893768652
 31
0.0
  0
LINE
  5
3300
330
1F
100
AcDbEntity
  8
10
  6
Continuous
100
AcDbLine
 10
1555.97931300677
 20
1046.676893768653
 30
0.0
 11
1555.97931300677
 21
1052.176893768652
 31
0.0
  0
LINE
  5
3301
330
1F
100
AcDbEntity
  8
10
  6
Continuous
100
AcDbLine
 10
1571.184866506235
 20
1054.176893768652
 30
0.0
 11
1571.184866506235
 21
1052.176893768652
 31
0.0
  0
LINE
  5
3302
330
1F
100
AcDbEntity
  8
10
  6
Continuous
100
AcDbLine
 10
1555.97931300677
 20
1046.676893768653
 30
0.0
 11
1570.9904200057
 21
1046.676893768653
 31
0.0
  0
LINE
  5
3303
330
1F
100
AcDbEntity
  8
10
  6
Continuous
100
AcDbLine
 10
1567.237643255967
 20
1046.676893768653
 30
0.0
 11
1567.237643255967
 21
1052.176893768652
 31
0.0
  0
LINE
  5
3304
330
1F
100
AcDbEntity
  8
10
  6
Continuous
100
AcDbLine
 10
1559.732089756503
 20
1046.676893768653
 30
0.0
 11
1559.732089756503
 21
1052.176893768652
 31
0.0
  0
LINE
  5
3305
330
1F
100
AcDbEntity
  8
10
  6
Continuous
100
AcDbLine
 10
1585.284866506235
 20
1055.776893768653
 30
0.0
 11
1585.284866506235
 21
1018.976893768652
 31
0.0
  0
LINE
  5
3306
330
1F
100
AcDbEntity
  8
10
  6
Continuous
100
AcDbLine
 10
1588.484866506234
 20
1058.976893768653
 30
0.0
 11
1588.484866506234
 21
1018.976893768652
 31
0.0
  0
LINE
  5
3307
330
1F
100
AcDbEntity
  8
10
  6
Continuous
100
AcDbLine
 10
1585.284866506235
 20
1018.976893768652
 30
0.0
 11
1588.484866506234
 21
1018.976893768652
 31
0.0
  0
LINE
  5
3308
330
1F
100
AcDbEntity
  8
12
  6
ByBlock
 48
3.0
100
AcDbLine
 10
1575.284866506235
 20
1033.976893768652
 30
0.0
 11
1598.484866506234
 21
1033.976893768652
 31
0.0
  0
LINE
  5
3309
330
1F
100
AcDbEntity
  8
10
  6
Continuous
100
AcDbLine
 10
1577.159383106641
 20
1055.776893768653
 30
0.0
 11
1585.284866506235
 21
1047.651410369059
 31
0.0
  0
LINE
  5
330A
330
1F
100
AcDbEntity
  8
10
  6
CENTER
 48
3.0
100
AcDbLine
 10
1712.159383106641
 20
1055.776893768653
 30
0.0
 11
1720.284866506236
 21
1047.651410369059
 31
0.0
  0
LINE
  5
330B
330
1F
100
AcDbEntity
  8
10
  6
CENTER
 48
3.0
100
AcDbLine
 10
1686.484866506235
 20
1055.776893768653
 30
0.0
 11
1720.284866506236
 21
1055.776893768653
 31
0.0
  0
LINE
  5
330C
330
1F
100
AcDbEntity
  8
10
  6
CENTER
 48
3.0
100
AcDbLine
 10
1723.484866506235
 20
1058.976893768653
 30
0.0
 11
1686.484866506235
 21
1058.976893768653
 31
0.0
  0
LINE
  5
330D
330
1F
100
AcDbEntity
  8
12
  6
ByBlock
 48
3.0
100
AcDbLine
 10
1710.284866506235
 20
1033.976893768652
 30
0.0
 11
1733.484866506235
 21
1033.976893768652
 31
0.0
  0
LINE
  5
330E
330
1F
100
AcDbEntity
  8
10
  6
CENTER
 48
3.0
100
AcDbLine
 10
1690.97931300677
 20
1046.676893768653
 30
0.0
 11
1705.990420005701
 21
1046.676893768653
 31
0.0
  0
LINE
  5
330F
330
1F
100
AcDbEntity
  8
10
  6
CENTER
 48
3.0
100
AcDbLine
 10
1690.784866506235
 20
1052.176893768652
 30
0.0
 11
1706.184866506235
 21
1052.176893768652
 31
0.0
  0
LINE
  5
3310
330
1F
100
AcDbEntity
  8
10
  6
CENTER
 48
3.0
100
AcDbLine
 10
1689.484866506235
 20
1054.176893768652
 30
0.0
 11
1707.484866506235
 21
1054.176893768652
 31
0.0
  0
LINE
  5
3311
330
1F
100
AcDbEntity
  8
10
  6
CENTER
 48
3.0
100
AcDbLine
 10
1686.484866506235
 20
1058.976893768653
 30
0.0
 11
1686.484866506235
 21
1055.776893768653
 31
0.0
  0
LINE
  5
3312
330
1F
100
AcDbEntity
  8
10
  6
CENTER
 48
3.0
100
AcDbLine
 10
1694.732089756502
 20
1046.676893768653
 30
0.0
 11
1694.732089756502
 21
1052.176893768652
 31
0.0
  0
LINE
  5
3313
330
1F
100
AcDbEntity
  8
10
  6
CENTER
 48
3.0
100
AcDbLine
 10
1690.784866506235
 20
1054.176893768652
 30
0.0
 11
1690.784866506235
 21
1052.176893768652
 31
0.0
  0
LINE
  5
3314
330
1F
100
AcDbEntity
  8
10
  6
CENTER
 48
3.0
100
AcDbLine
 10
1690.97931300677
 20
1046.676893768653
 30
0.0
 11
1690.97931300677
 21
1052.176893768652
 31
0.0
  0
LINE
  5
3315
330
1F
100
AcDbEntity
  8
10
  6
CENTER
 48
3.0
100
AcDbLine
 10
1689.484866506235
 20
1054.176893768652
 30
0.0
 11
1689.484866506235
 21
1055.776893768653
 31
0.0
  0
LINE
  5
3316
330
1F
100
AcDbEntity
  8
10
  6
CENTER
 48
3.0
100
AcDbLine
 10
1702.237643255967
 20
1046.676893768653
 30
0.0
 11
1702.237643255967
 21
1052.176893768652
 31
0.0
  0
LINE
  5
3317
330
1F
100
AcDbEntity
  8
10
  6
CENTER
 48
3.0
100
AcDbLine
 10
1706.184866506235
 20
1054.176893768652
 30
0.0
 11
1706.184866506235
 21
1052.176893768652
 31
0.0
  0
LINE
  5
3318
330
1F
100
AcDbEntity
  8
10
  6
CENTER
 48
3.0
100
AcDbLine
 10
1705.990420005701
 20
1046.676893768653
 30
0.0
 11
1705.990420005701
 21
1052.176893768652
 31
0.0
  0
LINE
  5
3319
330
1F
100
AcDbEntity
  8
10
  6
CENTER
 48
3.0
100
AcDbLine
 10
1707.484866506235
 20
1054.176893768652
 30
0.0
 11
1707.484866506235
 21
1055.776893768653
 31
0.0
  0
LINE
  5
331A
330
1F
100
AcDbEntity
  8
10
  6
CENTER
 48
3.0
100
AcDbLine
 10
1723.484866506235
 20
1058.976893768653
 30
0.0
 11
1723.484866506235
 21
1018.976893768652
 31
0.0
  0
LINE
  5
331B
330
1F
100
AcDbEntity
  8
10
  6
CENTER
 48
3.0
100
AcDbLine
 10
1720.284866506236
 20
1055.776893768653
 30
0.0
 11
1720.284866506236
 21
1018.976893768652
 31
0.0
  0
LINE
  5
331C
330
1F
100
AcDbEntity
  8
10
  6
CENTER
 48
3.0
100
AcDbLine
 10
1720.284866506236
 20
1018.976893768652
 30
0.0
 11
1723.484866506235
 21
1018.976893768652
 31
0.0
  0
LINE
  5
331D
330
1F
100
AcDbEntity
  8
10
  6
Continuous
100
AcDbLine
 10
1478.284866506235
 20
1341.476893768652
 30
0.0
 11
1478.284866506235
 21
1334.476893768653
 31
0.0
  0
ARC
  5
331E
330
1F
100
AcDbEntity
  8
10
  6
Continuous
100
AcDbCircle
 10
1477.184866506235
 20
1339.647223077502
 30
0.0
 40
1.500000000000103
100
AcDbArc
 50
123.3670129692291
 51
180.0
  0
LINE
  5
331F
330
1F
100
AcDbEntity
  8
10
  6
Continuous
100
AcDbLine
 10
1478.284866506235
 20
1325.476893768652
 30
0.0
 11
1478.284866506235
 21
1318.476893768653
 31
0.0
  0
ARC
  5
3320
330
1F
100
AcDbEntity
  8
10
  6
Continuous
100
AcDbCircle
 10
1478.284866506235
 20
1321.976893768653
 30
0.0
 40
3.500000000000013
100
AcDbArc
 50
90.0
 51
123.3670129692291
  0
ARC
  5
3321
330
1F
100
AcDbEntity
  8
10
  6
Continuous
100
AcDbCircle
 10
1478.284866506235
 20
1337.976893768653
 30
0.0
 40
3.500000000000063
100
AcDbArc
 50
236.6329870307708
 51
270.0
  0
ARC
  5
3322
330
1F
100
AcDbEntity
  8
10
  6
Continuous
100
AcDbCircle
 10
1478.284866506235
 20
1321.976893768653
 30
0.0
 40
3.500000000000003
100
AcDbArc
 50
236.6329870307708
 51
270.0
  0
LINE
  5
3323
330
1F
100
AcDbEntity
  8
10
  6
Continuous
100
AcDbLine
 10
1475.684866506234
 20
1336.306564459804
 30
0.0
 11
1475.684866506234
 21
1339.647223077502
 31
0.0
  0
LINE
  5
3324
330
1F
100
AcDbEntity
  8
10
  6
Continuous
100
AcDbLine
 10
1475.684866506234
 20
1320.306564459803
 30
0.0
 11
1475.684866506234
 21
1323.647223077502
 31
0.0
  0
ARC
  5
3325
330
1F
100
AcDbEntity
  8
10
  6
Continuous
100
AcDbCircle
 10
1477.184866506235
 20
1336.306564459804
 30
0.0
 40
1.499999999999984
100
AcDbArc
 50
180.0
 51
236.6329870307708
  0
ARC
  5
3326
330
1F
100
AcDbEntity
  8
10
  6
Continuous
100
AcDbCircle
 10
1477.184866506235
 20
1320.306564459803
 30
0.0
 40
1.499999999999984
100
AcDbArc
 50
180.0
 51
236.63298703077
  0
ARC
  5
3327
330
1F
100
AcDbEntity
  8
10
  6
Continuous
100
AcDbCircle
 10
1477.184866506235
 20
1323.647223077502
 30
0.0
 40
1.500000000000043
100
AcDbArc
 50
123.3670129692354
 51
180.0
  0
ARC
  5
3328
330
1F
100
AcDbEntity
  8
10
  6
Continuous
100
AcDbCircle
 10
1477.184866506235
 20
1337.976893768653
 30
0.0
 40
1.499999999999984
100
AcDbArc
 50
180.0
 51
270.0
  0
ARC
  5
3329
330
1F
100
AcDbEntity
  8
10
  6
Continuous
100
AcDbCircle
 10
1477.184866506235
 20
1321.976893768653
 30
0.0
 40
1.499999999999984
100
AcDbArc
 50
180.0
 51
270.0
  0
LINE
  5
332A
330
1F
100
AcDbEntity
  8
10
  6
Continuous
100
AcDbLine
 10
1475.684866506234
 20
1337.976893768653
 30
0.0
 11
1475.684866506234
 21
1337.976893768653
 31
0.0
  0
LINE
  5
332B
330
1F
100
AcDbEntity
  8
10
  6
Continuous
100
AcDbLine
 10
1475.684866506234
 20
1321.976893768653
 30
0.0
 11
1475.684866506234
 21
1321.976893768653
 31
0.0
  0
ARC
  5
332C
330
1F
100
AcDbEntity
  8
10
  6
Continuous
100
AcDbCircle
 10
1477.184866506235
 20
1337.976893768653
 30
0.0
 40
1.499999999999984
100
AcDbArc
 50
90.0
 51
180.0
  0
ARC
  5
332D
330
1F
100
AcDbEntity
  8
10
  6
Continuous
100
AcDbCircle
 10
1477.184866506235
 20
1321.976893768653
 30
0.0
 40
1.499999999999984
100
AcDbArc
 50
90.0
 51
180.0
  0
LINE
  5
332E
330
1F
100
AcDbEntity
  8
10
  6
Continuous
100
AcDbLine
 10
1478.284866506235
 20
1329.476893768652
 30
0.0
 11
1479.484866506235
 21
1329.476893768652
 31
0.0
  0
LINE
  5
332F
330
1F
100
AcDbEntity
  8
10
  6
Continuous
100
AcDbLine
 10
1479.484866506235
 20
1329.976893768653
 30
0.0
 11
1478.284866506235
 21
1329.976893768653
 31
0.0
  0
ARC
  5
3330
330
1F
100
AcDbEntity
  8
10
  6
Continuous
100
AcDbCircle
 10
1537.484866506235
 20
1477.976893768652
 30
0.0
 40
1.499999999999984
100
AcDbArc
 50
180.0
 51
0.0
  0
ARC
  5
3331
330
1F
100
AcDbEntity
  8
10
  6
Continuous
100
AcDbCircle
 10
1537.484866506235
 20
1507.976893768653
 30
0.0
 40
1.500000000000019
100
AcDbArc
 50
180.0
 51
0.0
  0
ARC
  5
3332
330
1F
100
AcDbEntity
  8
10
  6
Continuous
100
AcDbCircle
 10
1537.484866506235
 20
1499.976893768653
 30
0.0
 40
1.499999999999984
100
AcDbArc
 50
0.0
 51
180.0
  0
ARC
  5
3333
330
1F
100
AcDbEntity
  8
10
  6
Continuous
100
AcDbCircle
 10
1537.484866506235
 20
1439.976893768653
 30
0.0
 40
1.500000000000019
100
AcDbArc
 50
0.0
 51
180.0
  0
ARC
  5
3334
330
1F
100
AcDbEntity
  8
10
  6
Continuous
100
AcDbCircle
 10
1537.484866506235
 20
1409.976893768653
 30
0.0
 40
1.500000000000019
100
AcDbArc
 50
0.0
 51
180.0
  0
ARC
  5
3335
330
1F
100
AcDbEntity
  8
10
  6
Continuous
100
AcDbCircle
 10
1537.484866506235
 20
1417.976893768653
 30
0.0
 40
1.499999999999984
100
AcDbArc
 50
180.0
 51
0.0
  0
ARC
  5
3336
330
1F
100
AcDbEntity
  8
10
  6
Continuous
100
AcDbCircle
 10
1537.484866506235
 20
1387.976893768652
 30
0.0
 40
1.499999999999984
100
AcDbArc
 50
180.0
 51
0.0
  0
ARC
  5
3337
330
1F
100
AcDbEntity
  8
10
  6
Continuous
100
AcDbCircle
 10
1537.484866506235
 20
1447.976893768653
 30
0.0
 40
1.499999999999984
100
AcDbArc
 50
180.0
 51
0.0
  0
ARC
  5
3338
330
1F
100
AcDbEntity
  8
10
  6
Continuous
100
AcDbCircle
 10
1537.484866506235
 20
1469.976893768652
 30
0.0
 40
1.500000000000019
100
AcDbArc
 50
0.0
 51
180.0
  0
ARC
  5
3339
330
1F
100
AcDbEntity
  8
10
  6
Continuous
100
AcDbCircle
 10
1537.484866506235
 20
1357.976893768652
 30
0.0
 40
1.499999999999984
100
AcDbArc
 50
180.0
 51
0.0
  0
ARC
  5
333A
330
1F
100
AcDbEntity
  8
10
  6
Continuous
100
AcDbCircle
 10
1537.484866506235
 20
1379.976893768652
 30
0.0
 40
1.500000000000019
100
AcDbArc
 50
0.0
 51
180.0
  0
LINE
  5
333B
330
1F
100
AcDbEntity
  8
10
  6
Continuous
100
AcDbLine
 10
1473.384866506235
 20
1446.113482526239
 30
0.0
 11
1473.384866506235
 21
1386.840305011066
 31
0.0
  0
LINE
  5
333C
330
1F
100
AcDbEntity
  8
10
  6
Continuous
100
AcDbLine
 10
1475.384866506235
 20
1444.664517959525
 30
0.0
 11
1475.384866506235
 21
1388.289269577781
 31
0.0
  0
LINE
  5
333D
330
1F
100
AcDbEntity
  8
10
  6
Continuous
100
AcDbLine
 10
1477.286790294883
 20
1387.689593975651
 30
0.0
 11
1477.286790294883
 21
1445.264193561653
 31
0.0
  0
LINE
  5
333E
330
1F
100
AcDbEntity
  8
10
  6
Continuous
100
AcDbLine
 10
1529.984866506235
 20
1417.976893768653
 30
0.0
 11
1529.984866506235
 21
1439.976893768653
 31
0.0
  0
LINE
  5
333F
330
1F
100
AcDbEntity
  8
10
  6
Continuous
100
AcDbLine
 10
1517.984866506234
 20
1417.976893768653
 30
0.0
 11
1517.984866506234
 21
1439.976893768653
 31
0.0
  0
LINE
  5
3340
330
1F
100
AcDbEntity
  8
10
  6
Continuous
100
AcDbLine
 10
1523.984866506235
 20
1417.976893768653
 30
0.0
 11
1523.984866506235
 21
1439.976893768653
 31
0.0
  0
LINE
  5
3341
330
1F
100
AcDbEntity
  8
10
  6
Continuous
100
AcDbLine
 10
1535.984866506234
 20
1417.976893768653
 30
0.0
 11
1535.984866506234
 21
1439.976893768653
 31
0.0
  0
LINE
  5
3342
330
1F
100
AcDbEntity
  8
10
  6
Continuous
100
AcDbLine
 10
1532.984866506235
 20
1439.976893768653
 30
0.0
 11
1532.984866506235
 21
1417.976893768653
 31
0.0
  0
LINE
  5
3343
330
1F
100
AcDbEntity
  8
10
  6
Continuous
100
AcDbLine
 10
1520.984866506235
 20
1439.976893768653
 30
0.0
 11
1520.984866506235
 21
1417.976893768653
 31
0.0
  0
LINE
  5
3344
330
1F
100
AcDbEntity
  8
10
  6
Continuous
100
AcDbLine
 10
1526.984866506235
 20
1439.976893768653
 30
0.0
 11
1526.984866506235
 21
1417.976893768653
 31
0.0
  0
ARC
  5
3345
330
1F
100
AcDbEntity
  8
10
  6
Continuous
100
AcDbCircle
 10
1478.284866506235
 20
1337.976893768653
 30
0.0
 40
3.500000000000013
100
AcDbArc
 50
90.0
 51
123.3670129692291
  0
LINE
  5
3346
330
1F
100
AcDbEntity
  8
10
  6
Continuous
100
AcDbLine
 10
1475.384866506235
 20
1388.289269577781
 30
0.0
 11
1474.884866506235
 21
1388.289269577781
 31
0.0
  0
LINE
  5
3347
330
1F
100
AcDbEntity
  8
10
  6
Continuous
100
AcDbLine
 10
1475.384866506235
 20
1387.789269577781
 30
0.0
 11
1474.884866506235
 21
1387.789269577781
 31
0.0
  0
LINE
  5
3348
330
1F
100
AcDbEntity
  8
10
  6
Continuous
100
AcDbLine
 10
1474.884866506235
 20
1388.289269577781
 30
0.0
 11
1474.884866506235
 21
1387.789269577781
 31
0.0
  0
ARC
  5
3349
330
1F
100
AcDbEntity
  8
10
  6
Continuous
100
AcDbCircle
 10
1474.384866506235
 20
1386.840305011066
 30
0.0
 40
1.000000000000013
100
AcDbArc
 50
180.0
 51
266.9999999999943
  0
LINE
  5
334A
330
1F
100
AcDbEntity
  8
10
  6
Continuous
100
AcDbLine
 10
1474.332530549992
 20
1385.841675476311
 30
0.0
 11
1478.284866506235
 21
1385.634542325864
 31
0.0
  0
LINE
  5
334B
330
1F
100
AcDbEntity
  8
10
  6
Continuous
100
AcDbLine
 10
1475.384866506235
 20
1387.789269577781
 30
0.0
 11
1478.284866506235
 21
1387.63728701786
 31
0.0
  0
ARC
  5
334C
330
1F
100
AcDbEntity
  8
10
  6
Continuous
100
AcDbCircle
 10
1519.484866506235
 20
1357.976893768652
 30
0.0
 40
1.500000000000019
100
AcDbArc
 50
180.0
 51
0.0
  0
ARC
  5
334D
330
1F
100
AcDbEntity
  8
10
  6
Continuous
100
AcDbCircle
 10
1519.484866506235
 20
1379.976893768652
 30
0.0
 40
1.499999999999984
100
AcDbArc
 50
0.0
 51
180.0
  0
LINE
  5
334E
330
1F
100
AcDbEntity
  8
10
  6
Continuous
100
AcDbLine
 10
1517.984866506234
 20
1357.976893768652
 30
0.0
 11
1517.984866506234
 21
1379.976893768652
 31
0.0
  0
LINE
  5
334F
330
1F
100
AcDbEntity
  8
10
  6
Continuous
100
AcDbLine
 10
1526.984866506235
 20
1379.976893768652
 30
0.0
 11
1526.984866506235
 21
1357.976893768652
 31
0.0
  0
LINE
  5
3350
330
1F
100
AcDbEntity
  8
10
  6
Continuous
100
AcDbLine
 10
1520.984866506235
 20
1379.976893768652
 30
0.0
 11
1520.984866506235
 21
1357.976893768652
 31
0.0
  0
LINE
  5
3351
330
1F
100
AcDbEntity
  8
10
  6
Continuous
100
AcDbLine
 10
1532.984866506235
 20
1379.976893768652
 30
0.0
 11
1532.984866506235
 21
1357.976893768652
 31
0.0
  0
LINE
  5
3352
330
1F
100
AcDbEntity
  8
10
  6
Continuous
100
AcDbLine
 10
1535.984866506234
 20
1357.976893768652
 30
0.0
 11
1535.984866506234
 21
1379.976893768652
 31
0.0
  0
LINE
  5
3353
330
1F
100
AcDbEntity
  8
10
  6
Continuous
100
AcDbLine
 10
1523.984866506235
 20
1357.976893768652
 30
0.0
 11
1523.984866506235
 21
1379.976893768652
 31
0.0
  0
LINE
  5
3354
330
1F
100
AcDbEntity
  8
10
  6
Continuous
100
AcDbLine
 10
1529.984866506235
 20
1357.976893768652
 30
0.0
 11
1529.984866506235
 21
1379.976893768652
 31
0.0
  0
ARC
  5
3355
330
1F
100
AcDbEntity
  8
10
  6
Continuous
100
AcDbCircle
 10
1525.484866506235
 20
1357.976893768652
 30
0.0
 40
1.499999999999984
100
AcDbArc
 50
180.0
 51
0.0
  0
ARC
  5
3356
330
1F
100
AcDbEntity
  8
10
  6
Continuous
100
AcDbCircle
 10
1531.484866506235
 20
1357.976893768652
 30
0.0
 40
1.500000000000019
100
AcDbArc
 50
180.0
 51
0.0
  0
ARC
  5
3357
330
1F
100
AcDbEntity
  8
10
  6
Continuous
100
AcDbCircle
 10
1525.484866506235
 20
1379.976893768652
 30
0.0
 40
1.500000000000019
100
AcDbArc
 50
0.0
 51
180.0
  0
ARC
  5
3358
330
1F
100
AcDbEntity
  8
10
  6
Continuous
100
AcDbCircle
 10
1531.484866506235
 20
1379.976893768652
 30
0.0
 40
1.499999999999984
100
AcDbArc
 50
0.0
 51
180.0
  0
ARC
  5
3359
330
1F
100
AcDbEntity
  8
10
  6
Continuous
100
AcDbCircle
 10
1519.484866506235
 20
1409.976893768653
 30
0.0
 40
1.499999999999984
100
AcDbArc
 50
0.0
 51
180.0
  0
ARC
  5
335A
330
1F
100
AcDbEntity
  8
10
  6
Continuous
100
AcDbCircle
 10
1519.484866506235
 20
1417.976893768653
 30
0.0
 40
1.500000000000019
100
AcDbArc
 50
180.0
 51
0.0
  0
ARC
  5
335B
330
1F
100
AcDbEntity
  8
10
  6
Continuous
100
AcDbCircle
 10
1519.484866506235
 20
1387.976893768652
 30
0.0
 40
1.500000000000019
100
AcDbArc
 50
180.0
 51
0.0
  0
LINE
  5
335C
330
1F
100
AcDbEntity
  8
10
  6
Continuous
100
AcDbLine
 10
1517.984866506234
 20
1387.976893768652
 30
0.0
 11
1517.984866506234
 21
1409.976893768653
 31
0.0
  0
ARC
  5
335D
330
1F
100
AcDbEntity
  8
10
  6
Continuous
100
AcDbCircle
 10
1531.484866506235
 20
1409.976893768653
 30
0.0
 40
1.499999999999984
100
AcDbArc
 50
0.0
 51
180.0
  0
ARC
  5
335E
330
1F
100
AcDbEntity
  8
10
  6
Continuous
100
AcDbCircle
 10
1525.484866506235
 20
1409.976893768653
 30
0.0
 40
1.500000000000019
100
AcDbArc
 50
0.0
 51
180.0
  0
ARC
  5
335F
330
1F
100
AcDbEntity
  8
10
  6
Continuous
100
AcDbCircle
 10
1531.484866506235
 20
1417.976893768653
 30
0.0
 40
1.500000000000019
100
AcDbArc
 50
180.0
 51
0.0
  0
ARC
  5
3360
330
1F
100
AcDbEntity
  8
10
  6
Continuous
100
AcDbCircle
 10
1525.484866506235
 20
1417.976893768653
 30
0.0
 40
1.499999999999984
100
AcDbArc
 50
180.0
 51
0.0
  0
ARC
  5
3361
330
1F
100
AcDbEntity
  8
10
  6
Continuous
100
AcDbCircle
 10
1531.484866506235
 20
1387.976893768652
 30
0.0
 40
1.500000000000019
100
AcDbArc
 50
180.0
 51
0.0
  0
ARC
  5
3362
330
1F
100
AcDbEntity
  8
10
  6
Continuous
100
AcDbCircle
 10
1525.484866506235
 20
1387.976893768652
 30
0.0
 40
1.499999999999984
100
AcDbArc
 50
180.0
 51
0.0
  0
LINE
  5
3363
330
1F
100
AcDbEntity
  8
10
  6
Continuous
100
AcDbLine
 10
1529.984866506235
 20
1387.976893768652
 30
0.0
 11
1529.984866506235
 21
1409.976893768653
 31
0.0
  0
LINE
  5
3364
330
1F
100
AcDbEntity
  8
10
  6
Continuous
100
AcDbLine
 10
1523.984866506235
 20
1387.976893768652
 30
0.0
 11
1523.984866506235
 21
1409.976893768653
 31
0.0
  0
LINE
  5
3365
330
1F
100
AcDbEntity
  8
10
  6
Continuous
100
AcDbLine
 10
1535.984866506234
 20
1387.976893768652
 30
0.0
 11
1535.984866506234
 21
1409.976893768653
 31
0.0
  0
LINE
  5
3366
330
1F
100
AcDbEntity
  8
10
  6
Continuous
100
AcDbLine
 10
1532.984866506235
 20
1409.976893768653
 30
0.0
 11
1532.984866506235
 21
1387.976893768652
 31
0.0
  0
LINE
  5
3367
330
1F
100
AcDbEntity
  8
10
  6
Continuous
100
AcDbLine
 10
1520.984866506235
 20
1409.976893768653
 30
0.0
 11
1520.984866506235
 21
1387.976893768652
 31
0.0
  0
LINE
  5
3368
330
1F
100
AcDbEntity
  8
10
  6
Continuous
100
AcDbLine
 10
1526.984866506235
 20
1409.976893768653
 30
0.0
 11
1526.984866506235
 21
1387.976893768652
 31
0.0
  0
LINE
  5
3369
330
1F
100
AcDbEntity
  8
10
  6
Continuous
100
AcDbLine
 10
1475.384866506235
 20
1481.541848836465
 30
0.0
 11
1475.384866506235
 21
1469.391107331026
 31
0.0
  0
LINE
  5
336A
330
1F
100
AcDbEntity
  8
10
  6
Continuous
100
AcDbLine
 10
1477.799080068608
 20
1466.976893768652
 30
0.0
 11
1478.284866506235
 21
1466.976893768652
 31
0.0
  0
LINE
  5
336B
330
1F
100
AcDbEntity
  8
10
  6
Continuous
100
AcDbLine
 10
1477.091973287421
 20
1467.269786987466
 30
0.0
 11
1475.677759725048
 21
1468.684000549838
 31
0.0
  0
ARC
  5
336C
330
1F
100
AcDbEntity
  8
10
  6
Continuous
100
AcDbCircle
 10
1476.384866506235
 20
1469.391107331026
 30
0.0
 40
1.000000000000013
100
AcDbArc
 50
180.0
 51
224.9999999999988
  0
ARC
  5
336D
330
1F
100
AcDbEntity
  8
10
  6
Continuous
100
AcDbCircle
 10
1477.799080068608
 20
1467.976893768653
 30
0.0
 40
1.000000000000174
100
AcDbArc
 50
224.9999999999988
 51
270.0
  0
LINE
  5
336E
330
1F
100
AcDbEntity
  8
10
  6
Continuous
100
AcDbLine
 10
1475.384866506235
 20
1444.664517959525
 30
0.0
 11
1474.884866506235
 21
1444.664517959525
 31
0.0
  0
LINE
  5
336F
330
1F
100
AcDbEntity
  8
10
  6
Continuous
100
AcDbLine
 10
1474.884866506235
 20
1445.164517959525
 30
0.0
 11
1474.884866506235
 21
1444.664517959525
 31
0.0
  0
LINE
  5
3370
330
1F
100
AcDbEntity
  8
10
  6
Continuous
100
AcDbLine
 10
1475.384866506235
 20
1445.164517959525
 30
0.0
 11
1474.884866506235
 21
1445.164517959525
 31
0.0
  0
ARC
  5
3371
330
1F
100
AcDbEntity
  8
10
  6
Continuous
100
AcDbCircle
 10
1474.384866506235
 20
1446.113482526239
 30
0.0
 40
0.9999999999998047
100
AcDbArc
 50
93.00000000000556
 51
180.0
  0
LINE
  5
3372
330
1F
100
AcDbEntity
  8
10
  6
Continuous
100
AcDbLine
 10
1474.332530549992
 20
1447.112112060993
 30
0.0
 11
1478.284866506235
 21
1447.319245211441
 31
0.0
  0
LINE
  5
3373
330
1F
100
AcDbEntity
  8
10
  6
Continuous
100
AcDbLine
 10
1475.384866506235
 20
1445.164517959525
 30
0.0
 11
1478.284866506235
 21
1445.316500519446
 31
0.0
  0
ARC
  5
3374
330
1F
100
AcDbEntity
  8
10
  6
Continuous
100
AcDbCircle
 10
1505.384866506235
 20
1481.541848836465
 30
0.0
 40
30.00000000000023
100
AcDbArc
 50
160.3162775137014
 51
180.0
  0
ARC
  5
3375
330
1F
100
AcDbEntity
  8
10
  6
Continuous
100
AcDbCircle
 10
1479.962577100079
 20
1490.636198804969
 30
0.0
 40
2.99999999999936
100
AcDbArc
 50
124.0030382616385
 51
160.3162775137044
  0
ARC
  5
3376
330
1F
100
AcDbEntity
  8
10
  6
Continuous
100
AcDbCircle
 10
1519.484866506235
 20
1439.976893768653
 30
0.0
 40
1.499999999999984
100
AcDbArc
 50
0.0
 51
180.0
  0
ARC
  5
3377
330
1F
100
AcDbEntity
  8
10
  6
Continuous
100
AcDbCircle
 10
1519.484866506235
 20
1447.976893768653
 30
0.0
 40
1.500000000000019
100
AcDbArc
 50
180.0
 51
0.0
  0
ARC
  5
3378
330
1F
100
AcDbEntity
  8
10
  6
Continuous
100
AcDbCircle
 10
1519.484866506235
 20
1469.976893768652
 30
0.0
 40
1.499999999999984
100
AcDbArc
 50
0.0
 51
180.0
  0
LINE
  5
3379
330
1F
100
AcDbEntity
  8
10
  6
Continuous
100
AcDbLine
 10
1517.984866506234
 20
1447.976893768653
 30
0.0
 11
1517.984866506234
 21
1469.976893768652
 31
0.0
  0
ARC
  5
337A
330
1F
100
AcDbEntity
  8
10
  6
Continuous
100
AcDbCircle
 10
1531.484866506235
 20
1439.976893768653
 30
0.0
 40
1.499999999999984
100
AcDbArc
 50
0.0
 51
180.0
  0
ARC
  5
337B
330
1F
100
AcDbEntity
  8
10
  6
Continuous
100
AcDbCircle
 10
1525.484866506235
 20
1439.976893768653
 30
0.0
 40
1.500000000000019
100
AcDbArc
 50
0.0
 51
180.0
  0
LINE
  5
337C
330
1F
100
AcDbEntity
  8
10
  6
Continuous
100
AcDbLine
 10
1520.984866506235
 20
1469.976893768652
 30
0.0
 11
1520.984866506235
 21
1447.976893768653
 31
0.0
  0
ARC
  5
337D
330
1F
100
AcDbEntity
  8
10
  6
Continuous
100
AcDbCircle
 10
1531.484866506235
 20
1447.976893768653
 30
0.0
 40
1.500000000000019
100
AcDbArc
 50
180.0
 51
0.0
  0
ARC
  5
337E
330
1F
100
AcDbEntity
  8
10
  6
Continuous
100
AcDbCircle
 10
1525.484866506235
 20
1447.976893768653
 30
0.0
 40
1.499999999999984
100
AcDbArc
 50
180.0
 51
0.0
  0
LINE
  5
337F
330
1F
100
AcDbEntity
  8
10
  6
Continuous
100
AcDbLine
 10
1529.984866506235
 20
1447.976893768653
 30
0.0
 11
1529.984866506235
 21
1469.976893768652
 31
0.0
  0
LINE
  5
3380
330
1F
100
AcDbEntity
  8
10
  6
Continuous
100
AcDbLine
 10
1532.984866506235
 20
1469.976893768652
 30
0.0
 11
1532.984866506235
 21
1447.976893768653
 31
0.0
  0
LINE
  5
3381
330
1F
100
AcDbEntity
  8
10
  6
Continuous
100
AcDbLine
 10
1523.984866506235
 20
1447.976893768653
 30
0.0
 11
1523.984866506235
 21
1469.976893768652
 31
0.0
  0
LINE
  5
3382
330
1F
100
AcDbEntity
  8
10
  6
Continuous
100
AcDbLine
 10
1526.984866506235
 20
1469.976893768652
 30
0.0
 11
1526.984866506235
 21
1447.976893768653
 31
0.0
  0
LINE
  5
3383
330
1F
100
AcDbEntity
  8
10
  6
Continuous
100
AcDbLine
 10
1535.984866506234
 20
1447.976893768653
 30
0.0
 11
1535.984866506234
 21
1469.976893768652
 31
0.0
  0
ARC
  5
3384
330
1F
100
AcDbEntity
  8
10
  6
Continuous
100
AcDbCircle
 10
1531.484866506235
 20
1469.976893768652
 30
0.0
 40
1.499999999999984
100
AcDbArc
 50
0.0
 51
180.0
  0
ARC
  5
3385
330
1F
100
AcDbEntity
  8
10
  6
Continuous
100
AcDbCircle
 10
1525.484866506235
 20
1469.976893768652
 30
0.0
 40
1.500000000000019
100
AcDbArc
 50
0.0
 51
180.0
  0
ARC
  5
3386
330
1F
100
AcDbEntity
  8
10
  6
Continuous
100
AcDbCircle
 10
1519.484866506235
 20
1507.976893768653
 30
0.0
 40
1.500000000000019
100
AcDbArc
 50
180.0
 51
0.0
  0
ARC
  5
3387
330
1F
100
AcDbEntity
  8
10
  6
Continuous
100
AcDbCircle
 10
1519.484866506235
 20
1499.976893768653
 30
0.0
 40
1.499999999999984
100
AcDbArc
 50
0.0
 51
180.0
  0
ARC
  5
3388
330
1F
100
AcDbEntity
  8
10
  6
Continuous
100
AcDbCircle
 10
1519.484866506235
 20
1477.976893768652
 30
0.0
 40
1.500000000000019
100
AcDbArc
 50
180.0
 51
0.0
  0
LINE
  5
3389
330
1F
100
AcDbEntity
  8
10
  6
Continuous
100
AcDbLine
 10
1517.984866506234
 20
1477.976893768652
 30
0.0
 11
1517.984866506234
 21
1499.976893768653
 31
0.0
  0
LINE
  5
338A
330
1F
100
AcDbEntity
  8
10
  6
Continuous
100
AcDbLine
 10
1535.984866506234
 20
1477.976893768652
 30
0.0
 11
1535.984866506234
 21
1499.976893768653
 31
0.0
  0
ARC
  5
338B
330
1F
100
AcDbEntity
  8
10
  6
Continuous
100
AcDbCircle
 10
1531.484866506235
 20
1507.976893768653
 30
0.0
 40
1.499999999999984
100
AcDbArc
 50
180.0
 51
0.0
  0
ARC
  5
338C
330
1F
100
AcDbEntity
  8
10
  6
Continuous
100
AcDbCircle
 10
1525.484866506234
 20
1507.976893768653
 30
0.0
 40
1.499999999999984
100
AcDbArc
 50
180.0
 51
0.0
  0
LINE
  5
338D
330
1F
100
AcDbEntity
  8
10
  6
Continuous
100
AcDbLine
 10
1526.984866506234
 20
1499.976893768653
 30
0.0
 11
1526.984866506235
 21
1477.976893768652
 31
0.0
  0
LINE
  5
338E
330
1F
100
AcDbEntity
  8
10
  6
Continuous
100
AcDbLine
 10
1523.984866506235
 20
1477.976893768652
 30
0.0
 11
1523.984866506235
 21
1499.976893768653
 31
0.0
  0
ARC
  5
338F
330
1F
100
AcDbEntity
  8
10
  6
Continuous
100
AcDbCircle
 10
1525.484866506234
 20
1499.976893768653
 30
0.0
 40
1.500000000000019
100
AcDbArc
 50
0.0
 51
180.0
  0
LINE
  5
3390
330
1F
100
AcDbEntity
  8
10
  6
Continuous
100
AcDbLine
 10
1532.984866506234
 20
1499.976893768653
 30
0.0
 11
1532.984866506235
 21
1477.976893768652
 31
0.0
  0
LINE
  5
3391
330
1F
100
AcDbEntity
  8
10
  6
Continuous
100
AcDbLine
 10
1529.984866506235
 20
1477.976893768652
 30
0.0
 11
1529.984866506235
 21
1499.976893768653
 31
0.0
  0
ARC
  5
3392
330
1F
100
AcDbEntity
  8
10
  6
Continuous
100
AcDbCircle
 10
1531.484866506235
 20
1499.976893768653
 30
0.0
 40
1.499999999999984
100
AcDbArc
 50
0.0
 51
180.0
  0
ARC
  5
3393
330
1F
100
AcDbEntity
  8
10
  6
Continuous
100
AcDbCircle
 10
1525.484866506235
 20
1477.976893768652
 30
0.0
 40
1.499999999999984
100
AcDbArc
 50
180.0
 51
0.0
  0
ARC
  5
3394
330
1F
100
AcDbEntity
  8
10
  6
Continuous
100
AcDbCircle
 10
1531.484866506235
 20
1477.976893768652
 30
0.0
 40
1.500000000000019
100
AcDbArc
 50
180.0
 51
0.0
  0
LINE
  5
3395
330
1F
100
AcDbEntity
  8
10
  6
Continuous
100
AcDbLine
 10
1520.984866506235
 20
1499.976893768653
 30
0.0
 11
1520.984866506235
 21
1477.976893768652
 31
0.0
  0
LINE
  5
3396
330
1F
100
AcDbEntity
  8
10
  6
Continuous
100
AcDbLine
 10
1571.984866506235
 20
1417.976893768653
 30
0.0
 11
1571.984866506235
 21
1439.976893768653
 31
0.0
  0
LINE
  5
3397
330
1F
100
AcDbEntity
  8
10
  6
Continuous
100
AcDbLine
 10
1565.984866506235
 20
1417.976893768653
 30
0.0
 11
1565.984866506235
 21
1439.976893768653
 31
0.0
  0
LINE
  5
3398
330
1F
100
AcDbEntity
  8
10
  6
Continuous
100
AcDbLine
 10
1559.984866506234
 20
1417.976893768653
 30
0.0
 11
1559.984866506234
 21
1439.976893768653
 31
0.0
  0
LINE
  5
3399
330
1F
100
AcDbEntity
  8
10
  6
Continuous
100
AcDbLine
 10
1553.984866506235
 20
1417.976893768653
 30
0.0
 11
1553.984866506235
 21
1439.976893768653
 31
0.0
  0
LINE
  5
339A
330
1F
100
AcDbEntity
  8
10
  6
Continuous
100
AcDbLine
 10
1547.984866506235
 20
1417.976893768653
 30
0.0
 11
1547.984866506235
 21
1439.976893768653
 31
0.0
  0
LINE
  5
339B
330
1F
100
AcDbEntity
  8
10
  6
Continuous
100
AcDbLine
 10
1541.984866506235
 20
1417.976893768653
 30
0.0
 11
1541.984866506235
 21
1439.976893768653
 31
0.0
  0
LINE
  5
339C
330
1F
100
AcDbEntity
  8
10
  6
Continuous
100
AcDbLine
 10
1574.984866506235
 20
1439.976893768653
 30
0.0
 11
1574.984866506235
 21
1417.976893768653
 31
0.0
  0
LINE
  5
339D
330
1F
100
AcDbEntity
  8
10
  6
Continuous
100
AcDbLine
 10
1568.984866506235
 20
1439.976893768653
 30
0.0
 11
1568.984866506235
 21
1417.976893768653
 31
0.0
  0
LINE
  5
339E
330
1F
100
AcDbEntity
  8
10
  6
Continuous
100
AcDbLine
 10
1562.984866506235
 20
1439.976893768653
 30
0.0
 11
1562.984866506235
 21
1417.976893768653
 31
0.0
  0
LINE
  5
339F
330
1F
100
AcDbEntity
  8
10
  6
Continuous
100
AcDbLine
 10
1556.984866506235
 20
1439.976893768653
 30
0.0
 11
1556.984866506235
 21
1417.976893768653
 31
0.0
  0
LINE
  5
33A0
330
1F
100
AcDbEntity
  8
10
  6
Continuous
100
AcDbLine
 10
1550.984866506235
 20
1439.976893768653
 30
0.0
 11
1550.984866506235
 21
1417.976893768653
 31
0.0
  0
LINE
  5
33A1
330
1F
100
AcDbEntity
  8
10
  6
Continuous
100
AcDbLine
 10
1544.984866506235
 20
1439.976893768653
 30
0.0
 11
1544.984866506235
 21
1417.976893768653
 31
0.0
  0
LINE
  5
33A2
330
1F
100
AcDbEntity
  8
10
  6
Continuous
100
AcDbLine
 10
1538.984866506235
 20
1439.976893768653
 30
0.0
 11
1538.984866506235
 21
1417.976893768653
 31
0.0
  0
ARC
  5
33A3
330
1F
100
AcDbEntity
  8
10
  6
Continuous
100
AcDbCircle
 10
1573.484866506235
 20
1409.976893768653
 30
0.0
 40
1.499999999999984
100
AcDbArc
 50
0.0
 51
180.0
  0
ARC
  5
33A4
330
1F
100
AcDbEntity
  8
10
  6
Continuous
100
AcDbCircle
 10
1573.484866506235
 20
1417.976893768653
 30
0.0
 40
1.499999999999984
100
AcDbArc
 50
180.0
 51
0.0
  0
ARC
  5
33A5
330
1F
100
AcDbEntity
  8
10
  6
Continuous
100
AcDbCircle
 10
1573.484866506235
 20
1387.976893768652
 30
0.0
 40
1.499999999999984
100
AcDbArc
 50
180.0
 51
0.0
  0
ARC
  5
33A6
330
1F
100
AcDbEntity
  8
10
  6
Continuous
100
AcDbCircle
 10
1573.484866506235
 20
1357.976893768652
 30
0.0
 40
1.499999999999984
100
AcDbArc
 50
180.0
 51
0.0
  0
ARC
  5
33A7
330
1F
100
AcDbEntity
  8
10
  6
Continuous
100
AcDbCircle
 10
1573.484866506235
 20
1379.976893768652
 30
0.0
 40
1.499999999999984
100
AcDbArc
 50
0.0
 51
180.0
  0
ARC
  5
33A8
330
1F
100
AcDbEntity
  8
10
  6
Continuous
100
AcDbCircle
 10
1555.484866506235
 20
1357.976893768652
 30
0.0
 40
1.499999999999984
100
AcDbArc
 50
180.0
 51
0.0
  0
ARC
  5
33A9
330
1F
100
AcDbEntity
  8
10
  6
Continuous
100
AcDbCircle
 10
1555.484866506235
 20
1379.976893768652
 30
0.0
 40
1.500000000000019
100
AcDbArc
 50
0.0
 51
180.0
  0
LINE
  5
33AA
330
1F
100
AcDbEntity
  8
10
  6
Continuous
100
AcDbLine
 10
1538.984866506235
 20
1379.976893768652
 30
0.0
 11
1538.984866506235
 21
1357.976893768652
 31
0.0
  0
LINE
  5
33AB
330
1F
100
AcDbEntity
  8
10
  6
Continuous
100
AcDbLine
 10
1544.984866506235
 20
1379.976893768652
 30
0.0
 11
1544.984866506235
 21
1357.976893768652
 31
0.0
  0
LINE
  5
33AC
330
1F
100
AcDbEntity
  8
10
  6
Continuous
100
AcDbLine
 10
1550.984866506235
 20
1379.976893768652
 30
0.0
 11
1550.984866506235
 21
1357.976893768652
 31
0.0
  0
LINE
  5
33AD
330
1F
100
AcDbEntity
  8
10
  6
Continuous
100
AcDbLine
 10
1541.984866506235
 20
1357.976893768652
 30
0.0
 11
1541.984866506235
 21
1379.976893768652
 31
0.0
  0
LINE
  5
33AE
330
1F
100
AcDbEntity
  8
10
  6
Continuous
100
AcDbLine
 10
1547.984866506235
 20
1357.976893768652
 30
0.0
 11
1547.984866506235
 21
1379.976893768652
 31
0.0
  0
LINE
  5
33AF
330
1F
100
AcDbEntity
  8
10
  6
Continuous
100
AcDbLine
 10
1553.984866506235
 20
1357.976893768652
 30
0.0
 11
1553.984866506235
 21
1379.976893768652
 31
0.0
  0
ARC
  5
33B0
330
1F
100
AcDbEntity
  8
10
  6
Continuous
100
AcDbCircle
 10
1543.484866506235
 20
1357.976893768652
 30
0.0
 40
1.499999999999984
100
AcDbArc
 50
180.0
 51
0.0
  0
ARC
  5
33B1
330
1F
100
AcDbEntity
  8
10
  6
Continuous
100
AcDbCircle
 10
1549.484866506235
 20
1357.976893768652
 30
0.0
 40
1.500000000000019
100
AcDbArc
 50
180.0
 51
0.0
  0
ARC
  5
33B2
330
1F
100
AcDbEntity
  8
10
  6
Continuous
100
AcDbCircle
 10
1543.484866506235
 20
1379.976893768652
 30
0.0
 40
1.499999999999984
100
AcDbArc
 50
0.0
 51
180.0
  0
ARC
  5
33B3
330
1F
100
AcDbEntity
  8
10
  6
Continuous
100
AcDbCircle
 10
1549.484866506235
 20
1379.976893768652
 30
0.0
 40
1.499999999999984
100
AcDbArc
 50
0.0
 51
180.0
  0
LINE
  5
33B4
330
1F
100
AcDbEntity
  8
10
  6
Continuous
100
AcDbLine
 10
1556.984866506235
 20
1379.976893768652
 30
0.0
 11
1556.984866506235
 21
1357.976893768652
 31
0.0
  0
LINE
  5
33B5
330
1F
100
AcDbEntity
  8
10
  6
Continuous
100
AcDbLine
 10
1562.984866506235
 20
1379.976893768652
 30
0.0
 11
1562.984866506235
 21
1357.976893768652
 31
0.0
  0
LINE
  5
33B6
330
1F
100
AcDbEntity
  8
10
  6
Continuous
100
AcDbLine
 10
1568.984866506235
 20
1379.976893768652
 30
0.0
 11
1568.984866506235
 21
1357.976893768652
 31
0.0
  0
LINE
  5
33B7
330
1F
100
AcDbEntity
  8
10
  6
Continuous
100
AcDbLine
 10
1559.984866506234
 20
1357.976893768652
 30
0.0
 11
1559.984866506234
 21
1379.976893768652
 31
0.0
  0
LINE
  5
33B8
330
1F
100
AcDbEntity
  8
10
  6
Continuous
100
AcDbLine
 10
1565.984866506235
 20
1357.976893768652
 30
0.0
 11
1565.984866506235
 21
1379.976893768652
 31
0.0
  0
LINE
  5
33B9
330
1F
100
AcDbEntity
  8
10
  6
Continuous
100
AcDbLine
 10
1571.984866506235
 20
1357.976893768652
 30
0.0
 11
1571.984866506235
 21
1379.976893768652
 31
0.0
  0
ARC
  5
33BA
330
1F
100
AcDbEntity
  8
10
  6
Continuous
100
AcDbCircle
 10
1561.484866506235
 20
1357.976893768652
 30
0.0
 40
1.500000000000019
100
AcDbArc
 50
180.0
 51
0.0
  0
ARC
  5
33BB
330
1F
100
AcDbEntity
  8
10
  6
Continuous
100
AcDbCircle
 10
1567.484866506235
 20
1357.976893768652
 30
0.0
 40
1.499999999999984
100
AcDbArc
 50
180.0
 51
0.0
  0
ARC
  5
33BC
330
1F
100
AcDbEntity
  8
10
  6
Continuous
100
AcDbCircle
 10
1561.484866506235
 20
1379.976893768652
 30
0.0
 40
1.499999999999984
100
AcDbArc
 50
0.0
 51
180.0
  0
ARC
  5
33BD
330
1F
100
AcDbEntity
  8
10
  6
Continuous
100
AcDbCircle
 10
1567.484866506235
 20
1379.976893768652
 30
0.0
 40
1.500000000000019
100
AcDbArc
 50
0.0
 51
180.0
  0
ARC
  5
33BE
330
1F
100
AcDbEntity
  8
10
  6
Continuous
100
AcDbCircle
 10
1555.484866506235
 20
1409.976893768653
 30
0.0
 40
1.500000000000019
100
AcDbArc
 50
0.0
 51
180.0
  0
ARC
  5
33BF
330
1F
100
AcDbEntity
  8
10
  6
Continuous
100
AcDbCircle
 10
1555.484866506235
 20
1417.976893768653
 30
0.0
 40
1.499999999999984
100
AcDbArc
 50
180.0
 51
0.0
  0
ARC
  5
33C0
330
1F
100
AcDbEntity
  8
10
  6
Continuous
100
AcDbCircle
 10
1555.484866506235
 20
1387.976893768652
 30
0.0
 40
1.499999999999984
100
AcDbArc
 50
180.0
 51
0.0
  0
ARC
  5
33C1
330
1F
100
AcDbEntity
  8
10
  6
Continuous
100
AcDbCircle
 10
1549.484866506235
 20
1409.976893768653
 30
0.0
 40
1.499999999999984
100
AcDbArc
 50
0.0
 51
180.0
  0
ARC
  5
33C2
330
1F
100
AcDbEntity
  8
10
  6
Continuous
100
AcDbCircle
 10
1543.484866506235
 20
1409.976893768653
 30
0.0
 40
1.499999999999984
100
AcDbArc
 50
0.0
 51
180.0
  0
ARC
  5
33C3
330
1F
100
AcDbEntity
  8
10
  6
Continuous
100
AcDbCircle
 10
1549.484866506235
 20
1417.976893768653
 30
0.0
 40
1.500000000000019
100
AcDbArc
 50
180.0
 51
0.0
  0
ARC
  5
33C4
330
1F
100
AcDbEntity
  8
10
  6
Continuous
100
AcDbCircle
 10
1543.484866506235
 20
1417.976893768653
 30
0.0
 40
1.499999999999984
100
AcDbArc
 50
180.0
 51
0.0
  0
ARC
  5
33C5
330
1F
100
AcDbEntity
  8
10
  6
Continuous
100
AcDbCircle
 10
1549.484866506235
 20
1387.976893768652
 30
0.0
 40
1.500000000000019
100
AcDbArc
 50
180.0
 51
0.0
  0
ARC
  5
33C6
330
1F
100
AcDbEntity
  8
10
  6
Continuous
100
AcDbCircle
 10
1543.484866506235
 20
1387.976893768652
 30
0.0
 40
1.499999999999984
100
AcDbArc
 50
180.0
 51
0.0
  0
LINE
  5
33C7
330
1F
100
AcDbEntity
  8
10
  6
Continuous
100
AcDbLine
 10
1553.984866506235
 20
1387.976893768652
 30
0.0
 11
1553.984866506235
 21
1409.976893768653
 31
0.0
  0
LINE
  5
33C8
330
1F
100
AcDbEntity
  8
10
  6
Continuous
100
AcDbLine
 10
1547.984866506235
 20
1387.976893768652
 30
0.0
 11
1547.984866506235
 21
1409.976893768653
 31
0.0
  0
LINE
  5
33C9
330
1F
100
AcDbEntity
  8
10
  6
Continuous
100
AcDbLine
 10
1541.984866506235
 20
1387.976893768652
 30
0.0
 11
1541.984866506235
 21
1409.976893768653
 31
0.0
  0
LINE
  5
33CA
330
1F
100
AcDbEntity
  8
10
  6
Continuous
100
AcDbLine
 10
1550.984866506235
 20
1409.976893768653
 30
0.0
 11
1550.984866506235
 21
1387.976893768652
 31
0.0
  0
LINE
  5
33CB
330
1F
100
AcDbEntity
  8
10
  6
Continuous
100
AcDbLine
 10
1544.984866506235
 20
1409.976893768653
 30
0.0
 11
1544.984866506235
 21
1387.976893768652
 31
0.0
  0
LINE
  5
33CC
330
1F
100
AcDbEntity
  8
10
  6
Continuous
100
AcDbLine
 10
1538.984866506235
 20
1409.976893768653
 30
0.0
 11
1538.984866506235
 21
1387.976893768652
 31
0.0
  0
ARC
  5
33CD
330
1F
100
AcDbEntity
  8
10
  6
Continuous
100
AcDbCircle
 10
1567.484866506235
 20
1409.976893768653
 30
0.0
 40
1.500000000000019
100
AcDbArc
 50
0.0
 51
180.0
  0
ARC
  5
33CE
330
1F
100
AcDbEntity
  8
10
  6
Continuous
100
AcDbCircle
 10
1561.484866506235
 20
1409.976893768653
 30
0.0
 40
1.499999999999984
100
AcDbArc
 50
0.0
 51
180.0
  0
ARC
  5
33CF
330
1F
100
AcDbEntity
  8
10
  6
Continuous
100
AcDbCircle
 10
1567.484866506235
 20
1417.976893768653
 30
0.0
 40
1.499999999999984
100
AcDbArc
 50
180.0
 51
0.0
  0
ARC
  5
33D0
330
1F
100
AcDbEntity
  8
10
  6
Continuous
100
AcDbCircle
 10
1561.484866506235
 20
1417.976893768653
 30
0.0
 40
1.500000000000019
100
AcDbArc
 50
180.0
 51
0.0
  0
ARC
  5
33D1
330
1F
100
AcDbEntity
  8
10
  6
Continuous
100
AcDbCircle
 10
1567.484866506235
 20
1387.976893768652
 30
0.0
 40
1.499999999999984
100
AcDbArc
 50
180.0
 51
0.0
  0
ARC
  5
33D2
330
1F
100
AcDbEntity
  8
10
  6
Continuous
100
AcDbCircle
 10
1561.484866506235
 20
1387.976893768652
 30
0.0
 40
1.500000000000019
100
AcDbArc
 50
180.0
 51
0.0
  0
LINE
  5
33D3
330
1F
100
AcDbEntity
  8
10
  6
Continuous
100
AcDbLine
 10
1571.984866506235
 20
1387.976893768652
 30
0.0
 11
1571.984866506235
 21
1409.976893768653
 31
0.0
  0
LINE
  5
33D4
330
1F
100
AcDbEntity
  8
10
  6
Continuous
100
AcDbLine
 10
1565.984866506235
 20
1387.976893768652
 30
0.0
 11
1565.984866506235
 21
1409.976893768653
 31
0.0
  0
LINE
  5
33D5
330
1F
100
AcDbEntity
  8
10
  6
Continuous
100
AcDbLine
 10
1559.984866506234
 20
1387.976893768652
 30
0.0
 11
1559.984866506234
 21
1409.976893768653
 31
0.0
  0
LINE
  5
33D6
330
1F
100
AcDbEntity
  8
10
  6
Continuous
100
AcDbLine
 10
1568.984866506235
 20
1409.976893768653
 30
0.0
 11
1568.984866506235
 21
1387.976893768652
 31
0.0
  0
LINE
  5
33D7
330
1F
100
AcDbEntity
  8
10
  6
Continuous
100
AcDbLine
 10
1562.984866506235
 20
1409.976893768653
 30
0.0
 11
1562.984866506235
 21
1387.976893768652
 31
0.0
  0
LINE
  5
33D8
330
1F
100
AcDbEntity
  8
10
  6
Continuous
100
AcDbLine
 10
1556.984866506235
 20
1409.976893768653
 30
0.0
 11
1556.984866506235
 21
1387.976893768652
 31
0.0
  0
LINE
  5
33D9
330
1F
100
AcDbEntity
  8
10
  6
Continuous
100
AcDbLine
 10
1574.984866506235
 20
1379.976893768652
 30
0.0
 11
1574.984866506235
 21
1357.976893768652
 31
0.0
  0
LINE
  5
33DA
330
1F
100
AcDbEntity
  8
10
  6
Continuous
100
AcDbLine
 10
1574.984866506235
 20
1409.976893768653
 30
0.0
 11
1574.984866506235
 21
1387.976893768652
 31
0.0
  0
ARC
  5
33DB
330
1F
100
AcDbEntity
  8
10
  6
Continuous
100
AcDbCircle
 10
1573.484866506235
 20
1499.976893768653
 30
0.0
 40
1.500000000000019
100
AcDbArc
 50
0.0
 51
180.0
  0
ARC
  5
33DC
330
1F
100
AcDbEntity
  8
10
  6
Continuous
100
AcDbCircle
 10
1573.484866506235
 20
1477.976893768652
 30
0.0
 40
1.499999999999984
100
AcDbArc
 50
180.0
 51
0.0
  0
ARC
  5
33DD
330
1F
100
AcDbEntity
  8
10
  6
Continuous
100
AcDbCircle
 10
1573.484866506235
 20
1507.976893768653
 30
0.0
 40
1.499999999999984
100
AcDbArc
 50
180.0
 51
0.0
  0
ARC
  5
33DE
330
1F
100
AcDbEntity
  8
10
  6
Continuous
100
AcDbCircle
 10
1573.484866506235
 20
1439.976893768653
 30
0.0
 40
1.499999999999984
100
AcDbArc
 50
0.0
 51
180.0
  0
ARC
  5
33DF
330
1F
100
AcDbEntity
  8
10
  6
Continuous
100
AcDbCircle
 10
1573.484866506235
 20
1447.976893768653
 30
0.0
 40
1.499999999999984
100
AcDbArc
 50
180.0
 51
0.0
  0
ARC
  5
33E0
330
1F
100
AcDbEntity
  8
10
  6
Continuous
100
AcDbCircle
 10
1573.484866506235
 20
1469.976893768652
 30
0.0
 40
1.499999999999984
100
AcDbArc
 50
0.0
 51
180.0
  0
ARC
  5
33E1
330
1F
100
AcDbEntity
  8
10
  6
Continuous
100
AcDbCircle
 10
1555.484866506235
 20
1439.976893768653
 30
0.0
 40
1.500000000000019
100
AcDbArc
 50
0.0
 51
180.0
  0
ARC
  5
33E2
330
1F
100
AcDbEntity
  8
10
  6
Continuous
100
AcDbCircle
 10
1555.484866506235
 20
1447.976893768653
 30
0.0
 40
1.499999999999984
100
AcDbArc
 50
180.0
 51
0.0
  0
ARC
  5
33E3
330
1F
100
AcDbEntity
  8
10
  6
Continuous
100
AcDbCircle
 10
1555.484866506235
 20
1469.976893768652
 30
0.0
 40
1.500000000000019
100
AcDbArc
 50
0.0
 51
180.0
  0
ARC
  5
33E4
330
1F
100
AcDbEntity
  8
10
  6
Continuous
100
AcDbCircle
 10
1549.484866506235
 20
1439.976893768653
 30
0.0
 40
1.499999999999984
100
AcDbArc
 50
0.0
 51
180.0
  0
ARC
  5
33E5
330
1F
100
AcDbEntity
  8
10
  6
Continuous
100
AcDbCircle
 10
1543.484866506235
 20
1439.976893768653
 30
0.0
 40
1.499999999999984
100
AcDbArc
 50
0.0
 51
180.0
  0
LINE
  5
33E6
330
1F
100
AcDbEntity
  8
10
  6
Continuous
100
AcDbLine
 10
1553.984866506235
 20
1447.976893768653
 30
0.0
 11
1553.984866506235
 21
1469.976893768652
 31
0.0
  0
LINE
  5
33E7
330
1F
100
AcDbEntity
  8
10
  6
Continuous
100
AcDbLine
 10
1547.984866506235
 20
1447.976893768653
 30
0.0
 11
1547.984866506235
 21
1469.976893768652
 31
0.0
  0
LINE
  5
33E8
330
1F
100
AcDbEntity
  8
10
  6
Continuous
100
AcDbLine
 10
1550.984866506235
 20
1469.976893768652
 30
0.0
 11
1550.984866506235
 21
1447.976893768653
 31
0.0
  0
ARC
  5
33E9
330
1F
100
AcDbEntity
  8
10
  6
Continuous
100
AcDbCircle
 10
1549.484866506235
 20
1447.976893768653
 30
0.0
 40
1.500000000000019
100
AcDbArc
 50
180.0
 51
0.0
  0
LINE
  5
33EA
330
1F
100
AcDbEntity
  8
10
  6
Continuous
100
AcDbLine
 10
1541.984866506235
 20
1447.976893768653
 30
0.0
 11
1541.984866506235
 21
1469.976893768652
 31
0.0
  0
LINE
  5
33EB
330
1F
100
AcDbEntity
  8
10
  6
Continuous
100
AcDbLine
 10
1544.984866506235
 20
1469.976893768652
 30
0.0
 11
1544.984866506235
 21
1447.976893768653
 31
0.0
  0
ARC
  5
33EC
330
1F
100
AcDbEntity
  8
10
  6
Continuous
100
AcDbCircle
 10
1543.484866506235
 20
1447.976893768653
 30
0.0
 40
1.499999999999984
100
AcDbArc
 50
180.0
 51
0.0
  0
LINE
  5
33ED
330
1F
100
AcDbEntity
  8
10
  6
Continuous
100
AcDbLine
 10
1538.984866506235
 20
1469.976893768652
 30
0.0
 11
1538.984866506235
 21
1447.976893768653
 31
0.0
  0
ARC
  5
33EE
330
1F
100
AcDbEntity
  8
10
  6
Continuous
100
AcDbCircle
 10
1549.484866506235
 20
1469.976893768652
 30
0.0
 40
1.499999999999984
100
AcDbArc
 50
0.0
 51
180.0
  0
ARC
  5
33EF
330
1F
100
AcDbEntity
  8
10
  6
Continuous
100
AcDbCircle
 10
1543.484866506235
 20
1469.976893768652
 30
0.0
 40
1.499999999999984
100
AcDbArc
 50
0.0
 51
180.0
  0
ARC
  5
33F0
330
1F
100
AcDbEntity
  8
10
  6
Continuous
100
AcDbCircle
 10
1567.484866506235
 20
1439.976893768653
 30
0.0
 40
1.500000000000019
100
AcDbArc
 50
0.0
 51
180.0
  0
ARC
  5
33F1
330
1F
100
AcDbEntity
  8
10
  6
Continuous
100
AcDbCircle
 10
1561.484866506235
 20
1439.976893768653
 30
0.0
 40
1.499999999999984
100
AcDbArc
 50
0.0
 51
180.0
  0
LINE
  5
33F2
330
1F
100
AcDbEntity
  8
10
  6
Continuous
100
AcDbLine
 10
1559.984866506234
 20
1447.976893768653
 30
0.0
 11
1559.984866506234
 21
1469.976893768652
 31
0.0
  0
LINE
  5
33F3
330
1F
100
AcDbEntity
  8
10
  6
Continuous
100
AcDbLine
 10
1562.984866506235
 20
1469.976893768652
 30
0.0
 11
1562.984866506235
 21
1447.976893768653
 31
0.0
  0
ARC
  5
33F4
330
1F
100
AcDbEntity
  8
10
  6
Continuous
100
AcDbCircle
 10
1561.484866506235
 20
1447.976893768653
 30
0.0
 40
1.500000000000019
100
AcDbArc
 50
180.0
 51
0.0
  0
LINE
  5
33F5
330
1F
100
AcDbEntity
  8
10
  6
Continuous
100
AcDbLine
 10
1556.984866506235
 20
1469.976893768652
 30
0.0
 11
1556.984866506235
 21
1447.976893768653
 31
0.0
  0
ARC
  5
33F6
330
1F
100
AcDbEntity
  8
10
  6
Continuous
100
AcDbCircle
 10
1567.484866506235
 20
1447.976893768653
 30
0.0
 40
1.499999999999984
100
AcDbArc
 50
180.0
 51
0.0
  0
LINE
  5
33F7
330
1F
100
AcDbEntity
  8
10
  6
Continuous
100
AcDbLine
 10
1565.984866506235
 20
1447.976893768653
 30
0.0
 11
1565.984866506235
 21
1469.976893768652
 31
0.0
  0
LINE
  5
33F8
330
1F
100
AcDbEntity
  8
10
  6
Continuous
100
AcDbLine
 10
1568.984866506235
 20
1469.976893768652
 30
0.0
 11
1568.984866506235
 21
1447.976893768653
 31
0.0
  0
LINE
  5
33F9
330
1F
100
AcDbEntity
  8
10
  6
Continuous
100
AcDbLine
 10
1571.984866506235
 20
1447.976893768653
 30
0.0
 11
1571.984866506235
 21
1469.976893768652
 31
0.0
  0
ARC
  5
33FA
330
1F
100
AcDbEntity
  8
10
  6
Continuous
100
AcDbCircle
 10
1561.484866506235
 20
1469.976893768652
 30
0.0
 40
1.499999999999984
100
AcDbArc
 50
0.0
 51
180.0
  0
ARC
  5
33FB
330
1F
100
AcDbEntity
  8
10
  6
Continuous
100
AcDbCircle
 10
1567.484866506235
 20
1469.976893768652
 30
0.0
 40
1.500000000000019
100
AcDbArc
 50
0.0
 51
180.0
  0
ARC
  5
33FC
330
1F
100
AcDbEntity
  8
10
  6
Continuous
100
AcDbCircle
 10
1555.484866506235
 20
1477.976893768652
 30
0.0
 40
1.499999999999984
100
AcDbArc
 50
180.0
 51
0.0
  0
ARC
  5
33FD
330
1F
100
AcDbEntity
  8
10
  6
Continuous
100
AcDbCircle
 10
1555.484866506234
 20
1507.976893768653
 30
0.0
 40
1.499999999999984
100
AcDbArc
 50
180.0
 51
0.0
  0
ARC
  5
33FE
330
1F
100
AcDbEntity
  8
10
  6
Continuous
100
AcDbCircle
 10
1555.484866506234
 20
1499.976893768653
 30
0.0
 40
1.500000000000019
100
AcDbArc
 50
0.0
 51
180.0
  0
LINE
  5
33FF
330
1F
100
AcDbEntity
  8
10
  6
Continuous
100
AcDbLine
 10
1538.984866506235
 20
1499.976893768653
 30
0.0
 11
1538.984866506235
 21
1477.976893768652
 31
0.0
  0
ARC
  5
3400
330
1F
100
AcDbEntity
  8
10
  6
Continuous
100
AcDbCircle
 10
1543.484866506235
 20
1477.976893768652
 30
0.0
 40
1.499999999999984
100
AcDbArc
 50
180.0
 51
0.0
  0
ARC
  5
3401
330
1F
100
AcDbEntity
  8
10
  6
Continuous
100
AcDbCircle
 10
1543.484866506235
 20
1507.976893768653
 30
0.0
 40
1.499999999999984
100
AcDbArc
 50
180.0
 51
0.0
  0
LINE
  5
3402
330
1F
100
AcDbEntity
  8
10
  6
Continuous
100
AcDbLine
 10
1544.984866506235
 20
1499.976893768653
 30
0.0
 11
1544.984866506235
 21
1477.976893768652
 31
0.0
  0
LINE
  5
3403
330
1F
100
AcDbEntity
  8
10
  6
Continuous
100
AcDbLine
 10
1541.984866506235
 20
1477.976893768652
 30
0.0
 11
1541.984866506235
 21
1499.976893768653
 31
0.0
  0
ARC
  5
3404
330
1F
100
AcDbEntity
  8
10
  6
Continuous
100
AcDbCircle
 10
1543.484866506235
 20
1499.976893768653
 30
0.0
 40
1.500000000000019
100
AcDbArc
 50
0.0
 51
180.0
  0
ARC
  5
3405
330
1F
100
AcDbEntity
  8
10
  6
Continuous
100
AcDbCircle
 10
1549.484866506235
 20
1477.976893768652
 30
0.0
 40
1.500000000000019
100
AcDbArc
 50
180.0
 51
0.0
  0
ARC
  5
3406
330
1F
100
AcDbEntity
  8
10
  6
Continuous
100
AcDbCircle
 10
1549.484866506234
 20
1507.976893768653
 30
0.0
 40
1.500000000000019
100
AcDbArc
 50
180.0
 51
0.0
  0
LINE
  5
3407
330
1F
100
AcDbEntity
  8
10
  6
Continuous
100
AcDbLine
 10
1550.984866506235
 20
1499.976893768653
 30
0.0
 11
1550.984866506235
 21
1477.976893768652
 31
0.0
  0
LINE
  5
3408
330
1F
100
AcDbEntity
  8
10
  6
Continuous
100
AcDbLine
 10
1547.984866506235
 20
1477.976893768652
 30
0.0
 11
1547.984866506235
 21
1499.976893768653
 31
0.0
  0
ARC
  5
3409
330
1F
100
AcDbEntity
  8
10
  6
Continuous
100
AcDbCircle
 10
1549.484866506234
 20
1499.976893768653
 30
0.0
 40
1.499999999999984
100
AcDbArc
 50
0.0
 51
180.0
  0
LINE
  5
340A
330
1F
100
AcDbEntity
  8
10
  6
Continuous
100
AcDbLine
 10
1553.984866506235
 20
1477.976893768652
 30
0.0
 11
1553.984866506235
 21
1499.976893768653
 31
0.0
  0
LINE
  5
340B
330
1F
100
AcDbEntity
  8
10
  6
Continuous
100
AcDbLine
 10
1571.984866506235
 20
1477.976893768652
 30
0.0
 11
1571.984866506234
 21
1499.976893768653
 31
0.0
  0
ARC
  5
340C
330
1F
100
AcDbEntity
  8
10
  6
Continuous
100
AcDbCircle
 10
1567.484866506235
 20
1499.976893768653
 30
0.0
 40
1.499999999999984
100
AcDbArc
 50
0.0
 51
180.0
  0
LINE
  5
340D
330
1F
100
AcDbEntity
  8
10
  6
Continuous
100
AcDbLine
 10
1568.984866506235
 20
1499.976893768653
 30
0.0
 11
1568.984866506235
 21
1477.976893768652
 31
0.0
  0
LINE
  5
340E
330
1F
100
AcDbEntity
  8
10
  6
Continuous
100
AcDbLine
 10
1565.984866506235
 20
1477.976893768652
 30
0.0
 11
1565.984866506235
 21
1499.976893768653
 31
0.0
  0
ARC
  5
340F
330
1F
100
AcDbEntity
  8
10
  6
Continuous
100
AcDbCircle
 10
1567.484866506235
 20
1477.976893768652
 30
0.0
 40
1.499999999999984
100
AcDbArc
 50
180.0
 51
0.0
  0
ARC
  5
3410
330
1F
100
AcDbEntity
  8
10
  6
Continuous
100
AcDbCircle
 10
1567.484866506235
 20
1507.976893768653
 30
0.0
 40
1.500000000000019
100
AcDbArc
 50
180.0
 51
0.0
  0
LINE
  5
3411
330
1F
100
AcDbEntity
  8
10
  6
Continuous
100
AcDbLine
 10
1556.984866506234
 20
1499.976893768653
 30
0.0
 11
1556.984866506235
 21
1477.976893768652
 31
0.0
  0
ARC
  5
3412
330
1F
100
AcDbEntity
  8
10
  6
Continuous
100
AcDbCircle
 10
1561.484866506235
 20
1477.976893768652
 30
0.0
 40
1.500000000000019
100
AcDbArc
 50
180.0
 51
0.0
  0
ARC
  5
3413
330
1F
100
AcDbEntity
  8
10
  6
Continuous
100
AcDbCircle
 10
1561.484866506235
 20
1507.976893768653
 30
0.0
 40
1.499999999999984
100
AcDbArc
 50
180.0
 51
0.0
  0
LINE
  5
3414
330
1F
100
AcDbEntity
  8
10
  6
Continuous
100
AcDbLine
 10
1562.984866506234
 20
1499.976893768653
 30
0.0
 11
1562.984866506235
 21
1477.976893768652
 31
0.0
  0
LINE
  5
3415
330
1F
100
AcDbEntity
  8
10
  6
Continuous
100
AcDbLine
 10
1559.984866506234
 20
1477.976893768652
 30
0.0
 11
1559.984866506234
 21
1499.976893768653
 31
0.0
  0
ARC
  5
3416
330
1F
100
AcDbEntity
  8
10
  6
Continuous
100
AcDbCircle
 10
1561.484866506235
 20
1499.976893768653
 30
0.0
 40
1.499999999999984
100
AcDbArc
 50
0.0
 51
180.0
  0
LINE
  5
3417
330
1F
100
AcDbEntity
  8
10
  6
Continuous
100
AcDbLine
 10
1574.984866506235
 20
1469.976893768652
 30
0.0
 11
1574.984866506235
 21
1447.976893768653
 31
0.0
  0
LINE
  5
3418
330
1F
100
AcDbEntity
  8
10
  6
Continuous
100
AcDbLine
 10
1574.984866506235
 20
1499.976893768653
 30
0.0
 11
1574.984866506235
 21
1477.976893768652
 31
0.0
  0
LINE
  5
3419
330
1F
100
AcDbEntity
  8
10
  6
Continuous
100
AcDbLine
 10
1665.484866506234
 20
1248.976893768652
 30
0.0
 11
1665.484866506234
 21
1183.976893768653
 31
0.0
  0
LINE
  5
341A
330
1F
100
AcDbEntity
  8
10
  6
Continuous
100
AcDbLine
 10
1655.484866506235
 20
1248.976893768652
 30
0.0
 11
1655.484866506235
 21
1183.976893768653
 31
0.0
  0
LINE
  5
341B
330
1F
100
AcDbEntity
  8
10
  6
Continuous
100
AcDbLine
 10
1679.484866506235
 20
1248.976893768652
 30
0.0
 11
1679.484866506235
 21
1183.976893768653
 31
0.0
  0
LINE
  5
341C
330
1F
100
AcDbEntity
  8
10
  6
Continuous
100
AcDbLine
 10
1669.484866506234
 20
1248.976893768652
 30
0.0
 11
1669.484866506234
 21
1183.976893768653
 31
0.0
  0
LINE
  5
341D
330
1F
100
AcDbEntity
  8
10
  6
Continuous
100
AcDbLine
 10
1665.484866506234
 20
1183.976893768653
 30
0.0
 11
1655.484866506235
 21
1183.976893768653
 31
0.0
  0
LINE
  5
341E
330
1F
100
AcDbEntity
  8
10
  6
Continuous
100
AcDbLine
 10
1679.484866506235
 20
1183.976893768653
 30
0.0
 11
1669.484866506234
 21
1183.976893768653
 31
0.0
  0
LINE
  5
341F
330
1F
100
AcDbEntity
  8
10
  6
Continuous
100
AcDbLine
 10
1665.484866506234
 20
1248.976893768652
 30
0.0
 11
1655.484866506235
 21
1248.976893768652
 31
0.0
  0
LINE
  5
3420
330
1F
100
AcDbEntity
  8
10
  6
Continuous
100
AcDbLine
 10
1679.484866506235
 20
1248.976893768652
 30
0.0
 11
1669.484866506234
 21
1248.976893768652
 31
0.0
  0
LINE
  5
3421
330
1F
100
AcDbEntity
  8
10
  6
Continuous
100
AcDbLine
 10
1683.484866506234
 20
1248.976893768652
 30
0.0
 11
1683.484866506234
 21
1183.976893768653
 31
0.0
  0
LINE
  5
3422
330
1F
100
AcDbEntity
  8
10
  6
Continuous
100
AcDbLine
 10
1693.484866506235
 20
1248.976893768652
 30
0.0
 11
1693.484866506235
 21
1183.976893768653
 31
0.0
  0
LINE
  5
3423
330
1F
100
AcDbEntity
  8
10
  6
Continuous
100
AcDbLine
 10
1697.484866506234
 20
1248.976893768652
 30
0.0
 11
1697.484866506234
 21
1183.976893768653
 31
0.0
  0
LINE
  5
3424
330
1F
100
AcDbEntity
  8
10
  6
Continuous
100
AcDbLine
 10
1707.484866506235
 20
1248.976893768652
 30
0.0
 11
1707.484866506235
 21
1183.976893768653
 31
0.0
  0
LINE
  5
3425
330
1F
100
AcDbEntity
  8
10
  6
Continuous
100
AcDbLine
 10
1707.484866506235
 20
1183.976893768653
 30
0.0
 11
1697.484866506234
 21
1183.976893768653
 31
0.0
  0
LINE
  5
3426
330
1F
100
AcDbEntity
  8
10
  6
Continuous
100
AcDbLine
 10
1693.484866506235
 20
1183.976893768653
 30
0.0
 11
1683.484866506234
 21
1183.976893768653
 31
0.0
  0
LINE
  5
3427
330
1F
100
AcDbEntity
  8
10
  6
Continuous
100
AcDbLine
 10
1707.484866506235
 20
1248.976893768652
 30
0.0
 11
1697.484866506234
 21
1248.976893768652
 31
0.0
  0
LINE
  5
3428
330
1F
100
AcDbEntity
  8
10
  6
Continuous
100
AcDbLine
 10
1693.484866506235
 20
1248.976893768652
 30
0.0
 11
1683.484866506234
 21
1248.976893768652
 31
0.0
  0
LINE
  5
342A
330
1F
100
AcDbEntity
  8
10
  6
Continuous
100
AcDbLine
 10
1479.484866506235
 20
1598.976893768653
 30
0.0
 11
1722.484866506235
 21
1598.976893768653
 31
0.0
  0
ARC
  5
342B
330
1F
100
AcDbEntity
  8
10
  6
Continuous
100
AcDbCircle
 10
1537.484866506235
 20
1529.976893768653
 30
0.0
 40
1.499999999999984
100
AcDbArc
 50
0.0
 51
180.0
  0
LINE
  5
342C
330
1F
100
AcDbEntity
  8
10
  6
Continuous
100
AcDbLine
 10
1478.284866506235
 20
1600.976893768653
 30
0.0
 11
1486.284866506235
 21
1600.976893768653
 31
0.0
  0
LINE
  5
342D
330
1F
100
AcDbEntity
  8
10
  6
Continuous
100
AcDbLine
 10
1479.484866506235
 20
1599.776893768653
 30
0.0
 11
1486.284866506235
 21
1599.776893768653
 31
0.0
  0
LINE
  5
342E
330
1F
100
AcDbEntity
  8
10
  6
Continuous
100
AcDbLine
 10
1475.684866506234
 20
1585.306564459804
 30
0.0
 11
1475.684866506234
 21
1588.647223077502
 31
0.0
  0
ARC
  5
342F
330
1F
100
AcDbEntity
  8
10
  6
Continuous
100
AcDbCircle
 10
1477.184866506235
 20
1585.306564459804
 30
0.0
 40
1.499999999999984
100
AcDbArc
 50
180.0
 51
236.63298703077
  0
ARC
  5
3430
330
1F
100
AcDbEntity
  8
10
  6
Continuous
100
AcDbCircle
 10
1477.184866506235
 20
1588.647223077502
 30
0.0
 40
1.500000000000043
100
AcDbArc
 50
123.3670129692354
 51
180.0
  0
ARC
  5
3431
330
1F
100
AcDbEntity
  8
10
  6
Continuous
100
AcDbCircle
 10
1477.184866506235
 20
1586.976893768652
 30
0.0
 40
1.499999999999984
100
AcDbArc
 50
180.0
 51
270.0
  0
LINE
  5
3432
330
1F
100
AcDbEntity
  8
10
  6
Continuous
100
AcDbLine
 10
1475.684866506234
 20
1586.976893768652
 30
0.0
 11
1475.684866506234
 21
1586.976893768652
 31
0.0
  0
ARC
  5
3433
330
1F
100
AcDbEntity
  8
10
  6
Continuous
100
AcDbCircle
 10
1477.184866506235
 20
1586.976893768652
 30
0.0
 40
1.500000000000054
100
AcDbArc
 50
90.0
 51
180.0
  0
LINE
  5
3434
330
1F
100
AcDbEntity
  8
10
  6
Continuous
100
AcDbLine
 10
1478.284866506235
 20
1590.476893768652
 30
0.0
 11
1478.284866506235
 21
1583.476893768652
 31
0.0
  0
ARC
  5
3435
330
1F
100
AcDbEntity
  8
10
  6
Continuous
100
AcDbCircle
 10
1478.284866506235
 20
1586.976893768652
 30
0.0
 40
3.500000000000085
100
AcDbArc
 50
90.0
 51
123.3670129692291
  0
ARC
  5
3436
330
1F
100
AcDbEntity
  8
10
  6
Continuous
100
AcDbCircle
 10
1478.284866506235
 20
1586.976893768652
 30
0.0
 40
3.500000000000003
100
AcDbArc
 50
236.6329870307708
 51
270.0
  0
LINE
  5
3437
330
1F
100
AcDbEntity
  8
10
  6
Continuous
100
AcDbLine
 10
1486.284866506235
 20
1600.976893768653
 30
0.0
 11
1486.284866506235
 21
1599.776893768653
 31
0.0
  0
LINE
  5
3438
330
1F
100
AcDbEntity
  8
10
  6
Continuous
100
AcDbLine
 10
1484.284866506235
 20
1600.976893768653
 30
0.0
 11
1484.284866506235
 21
1599.776893768653
 31
0.0
  0
ARC
  5
3439
330
1F
100
AcDbEntity
  8
10
  6
Continuous
100
AcDbCircle
 10
1519.484866506235
 20
1529.976893768653
 30
0.0
 40
1.499999999999984
100
AcDbArc
 50
0.0
 51
180.0
  0
ARC
  5
343A
330
1F
100
AcDbEntity
  8
10
  6
Continuous
100
AcDbCircle
 10
1531.484866506235
 20
1529.976893768653
 30
0.0
 40
1.499999999999984
100
AcDbArc
 50
0.0
 51
180.0
  0
ARC
  5
343B
330
1F
100
AcDbEntity
  8
10
  6
Continuous
100
AcDbCircle
 10
1525.484866506234
 20
1529.976893768653
 30
0.0
 40
1.500000000000019
100
AcDbArc
 50
0.0
 51
180.0
  0
LINE
  5
343C
330
1F
100
AcDbEntity
  8
10
  6
Continuous
100
AcDbLine
 10
1577.159383106641
 20
1602.176893768653
 30
0.0
 11
1585.284866506235
 21
1610.302377168245
 31
0.0
  0
LINE
  5
343D
330
1F
100
AcDbEntity
  8
10
  6
Continuous
100
AcDbLine
 10
1567.237643255968
 20
1611.276893768653
 30
0.0
 11
1567.237643255968
 21
1605.776893768653
 31
0.0
  0
LINE
  5
343E
330
1F
100
AcDbEntity
  8
10
  6
Continuous
100
AcDbLine
 10
1559.732089756503
 20
1611.276893768653
 30
0.0
 11
1559.732089756503
 21
1605.776893768653
 31
0.0
  0
LINE
  5
343F
330
1F
100
AcDbEntity
  8
10
  6
Continuous
100
AcDbLine
 10
1570.9904200057
 20
1611.276893768653
 30
0.0
 11
1570.9904200057
 21
1605.776893768653
 31
0.0
  0
LINE
  5
3440
330
1F
100
AcDbEntity
  8
10
  6
Continuous
100
AcDbLine
 10
1555.97931300677
 20
1611.276893768653
 30
0.0
 11
1555.97931300677
 21
1605.776893768653
 31
0.0
  0
LINE
  5
3441
330
1F
100
AcDbEntity
  8
10
  6
Continuous
100
AcDbLine
 10
1585.284866506235
 20
1638.976893768653
 30
0.0
 11
1585.284866506235
 21
1602.176893768653
 31
0.0
  0
LINE
  5
3442
330
1F
100
AcDbEntity
  8
10
  6
Continuous
100
AcDbLine
 10
1588.484866506234
 20
1638.976893768653
 30
0.0
 11
1588.484866506234
 21
1598.976893768653
 31
0.0
  0
ARC
  5
3443
330
1F
100
AcDbEntity
  8
10
  6
Continuous
100
AcDbCircle
 10
1573.484866506235
 20
1529.976893768653
 30
0.0
 40
1.500000000000019
100
AcDbArc
 50
0.0
 51
180.0
  0
LINE
  5
3444
330
1F
100
AcDbEntity
  8
10
  6
Continuous
100
AcDbLine
 10
1551.484866506235
 20
1602.176893768653
 30
0.0
 11
1585.284866506235
 21
1602.176893768653
 31
0.0
  0
LINE
  5
3445
330
1F
100
AcDbEntity
  8
10
  6
Continuous
100
AcDbLine
 10
1588.484866506234
 20
1598.976893768653
 30
0.0
 11
1551.484866506235
 21
1598.976893768653
 31
0.0
  0
ARC
  5
3446
330
1F
100
AcDbEntity
  8
10
  6
Continuous
100
AcDbCircle
 10
1555.484866506234
 20
1529.976893768653
 30
0.0
 40
1.500000000000019
100
AcDbArc
 50
0.0
 51
180.0
  0
ARC
  5
3447
330
1F
100
AcDbEntity
  8
10
  6
Continuous
100
AcDbCircle
 10
1543.484866506235
 20
1529.976893768653
 30
0.0
 40
1.500000000000019
100
AcDbArc
 50
0.0
 51
180.0
  0
ARC
  5
3448
330
1F
100
AcDbEntity
  8
10
  6
Continuous
100
AcDbCircle
 10
1549.484866506234
 20
1529.976893768653
 30
0.0
 40
1.499999999999984
100
AcDbArc
 50
0.0
 51
180.0
  0
ARC
  5
3449
330
1F
100
AcDbEntity
  8
10
  6
Continuous
100
AcDbCircle
 10
1567.484866506235
 20
1529.976893768653
 30
0.0
 40
1.499999999999984
100
AcDbArc
 50
0.0
 51
180.0
  0
ARC
  5
344A
330
1F
100
AcDbEntity
  8
10
  6
Continuous
100
AcDbCircle
 10
1561.484866506235
 20
1529.976893768653
 30
0.0
 40
1.499999999999984
100
AcDbArc
 50
0.0
 51
180.0
  0
LINE
  5
344B
330
1F
100
AcDbEntity
  8
10
  6
Continuous
100
AcDbLine
 10
1571.184866506235
 20
1605.776893768653
 30
0.0
 11
1555.784866506234
 21
1605.776893768653
 31
0.0
  0
LINE
  5
344C
330
1F
100
AcDbEntity
  8
10
  6
Continuous
100
AcDbLine
 10
1572.484866506234
 20
1603.776893768652
 30
0.0
 11
1554.484866506235
 21
1603.776893768652
 31
0.0
  0
LINE
  5
344D
330
1F
100
AcDbEntity
  8
10
  6
Continuous
100
AcDbLine
 10
1554.484866506235
 20
1602.176893768653
 30
0.0
 11
1572.484866506234
 21
1602.176893768653
 31
0.0
  0
LINE
  5
344E
330
1F
100
AcDbEntity
  8
10
  6
Continuous
100
AcDbLine
 10
1554.484866506235
 20
1602.176893768653
 30
0.0
 11
1554.484866506235
 21
1598.976893768653
 31
0.0
  0
LINE
  5
344F
330
1F
100
AcDbEntity
  8
10
  6
Continuous
100
AcDbLine
 10
1555.784866506234
 20
1603.776893768652
 30
0.0
 11
1555.784866506234
 21
1605.776893768653
 31
0.0
  0
LINE
  5
3450
330
1F
100
AcDbEntity
  8
10
  6
Continuous
100
AcDbLine
 10
1554.484866506235
 20
1603.776893768652
 30
0.0
 11
1554.484866506235
 21
1602.176893768653
 31
0.0
  0
LINE
  5
3451
330
1F
100
AcDbEntity
  8
10
  6
Continuous
100
AcDbLine
 10
1551.484866506235
 20
1602.176893768653
 30
0.0
 11
1551.484866506235
 21
1598.976893768653
 31
0.0
  0
LINE
  5
3452
330
1F
100
AcDbEntity
  8
10
  6
Continuous
100
AcDbLine
 10
1571.184866506235
 20
1603.776893768652
 30
0.0
 11
1571.184866506235
 21
1605.776893768653
 31
0.0
  0
LINE
  5
3453
330
1F
100
AcDbEntity
  8
10
  6
Continuous
100
AcDbLine
 10
1572.484866506234
 20
1603.776893768652
 30
0.0
 11
1572.484866506234
 21
1602.176893768653
 31
0.0
  0
LINE
  5
3454
330
1F
100
AcDbEntity
  8
10
  6
Continuous
100
AcDbLine
 10
1570.9904200057
 20
1611.276893768653
 30
0.0
 11
1555.97931300677
 21
1611.276893768653
 31
0.0
  0
LINE
  5
3455
330
1F
100
AcDbEntity
  8
12
  6
ByBlock
 48
3.0
100
AcDbLine
 10
1575.284866506235
 20
1623.976893768652
 30
0.0
 11
1598.484866506234
 21
1623.976893768652
 31
0.0
  0
LINE
  5
3456
330
1F
100
AcDbEntity
  8
10
  6
Continuous
100
AcDbLine
 10
1585.284866506235
 20
1638.976893768653
 30
0.0
 11
1588.484866506234
 21
1638.976893768653
 31
0.0
  0
LINE
  5
3457
330
1F
100
AcDbEntity
  8
10
  6
CENTER
 48
3.0
100
AcDbLine
 10
1712.159383106641
 20
1602.176893768653
 30
0.0
 11
1720.284866506236
 21
1610.302377168245
 31
0.0
  0
LINE
  5
3458
330
1F
100
AcDbEntity
  8
10
  6
CENTER
 48
3.0
100
AcDbLine
 10
1723.484866506235
 20
1638.976893768653
 30
0.0
 11
1723.484866506235
 21
1598.976893768653
 31
0.0
  0
LINE
  5
3459
330
1F
100
AcDbEntity
  8
10
  6
CENTER
 48
3.0
100
AcDbLine
 10
1720.284866506236
 20
1638.976893768653
 30
0.0
 11
1720.284866506236
 21
1602.176893768653
 31
0.0
  0
LINE
  5
345A
330
1F
100
AcDbEntity
  8
10
  6
CENTER
 48
3.0
100
AcDbLine
 10
1690.97931300677
 20
1611.276893768653
 30
0.0
 11
1690.97931300677
 21
1605.776893768653
 31
0.0
  0
LINE
  5
345B
330
1F
100
AcDbEntity
  8
10
  6
CENTER
 48
3.0
100
AcDbLine
 10
1705.9904200057
 20
1611.276893768653
 30
0.0
 11
1705.9904200057
 21
1605.776893768653
 31
0.0
  0
LINE
  5
345C
330
1F
100
AcDbEntity
  8
10
  6
CENTER
 48
3.0
100
AcDbLine
 10
1694.732089756502
 20
1611.276893768653
 30
0.0
 11
1694.732089756502
 21
1605.776893768653
 31
0.0
  0
LINE
  5
345D
330
1F
100
AcDbEntity
  8
10
  6
CENTER
 48
3.0
100
AcDbLine
 10
1702.237643255968
 20
1611.276893768653
 30
0.0
 11
1702.237643255968
 21
1605.776893768653
 31
0.0
  0
LINE
  5
345E
330
1F
100
AcDbEntity
  8
10
  6
CENTER
 48
3.0
100
AcDbLine
 10
1686.484866506235
 20
1602.176893768653
 30
0.0
 11
1720.284866506236
 21
1602.176893768653
 31
0.0
  0
LINE
  5
345F
330
1F
100
AcDbEntity
  8
10
  6
CENTER
 48
3.0
100
AcDbLine
 10
1723.484866506235
 20
1598.976893768653
 30
0.0
 11
1686.484866506235
 21
1598.976893768653
 31
0.0
  0
LINE
  5
3460
330
1F
100
AcDbEntity
  8
10
  6
CENTER
 48
3.0
100
AcDbLine
 10
1707.484866506235
 20
1603.776893768652
 30
0.0
 11
1689.484866506235
 21
1603.776893768652
 31
0.0
  0
LINE
  5
3461
330
1F
100
AcDbEntity
  8
10
  6
CENTER
 48
3.0
100
AcDbLine
 10
1706.184866506235
 20
1605.776893768653
 30
0.0
 11
1690.784866506235
 21
1605.776893768653
 31
0.0
  0
LINE
  5
3462
330
1F
100
AcDbEntity
  8
10
  6
CENTER
 48
3.0
100
AcDbLine
 10
1686.484866506235
 20
1602.176893768653
 30
0.0
 11
1686.484866506235
 21
1598.976893768653
 31
0.0
  0
LINE
  5
3463
330
1F
100
AcDbEntity
  8
10
  6
CENTER
 48
3.0
100
AcDbLine
 10
1689.484866506235
 20
1603.776893768652
 30
0.0
 11
1689.484866506235
 21
1602.176893768653
 31
0.0
  0
LINE
  5
3464
330
1F
100
AcDbEntity
  8
10
  6
CENTER
 48
3.0
100
AcDbLine
 10
1690.784866506235
 20
1603.776893768652
 30
0.0
 11
1690.784866506235
 21
1605.776893768653
 31
0.0
  0
LINE
  5
3465
330
1F
100
AcDbEntity
  8
10
  6
CENTER
 48
3.0
100
AcDbLine
 10
1707.484866506235
 20
1603.776893768652
 30
0.0
 11
1707.484866506235
 21
1602.176893768653
 31
0.0
  0
LINE
  5
3466
330
1F
100
AcDbEntity
  8
10
  6
CENTER
 48
3.0
100
AcDbLine
 10
1706.184866506235
 20
1603.776893768652
 30
0.0
 11
1706.184866506235
 21
1605.776893768653
 31
0.0
  0
LINE
  5
3467
330
1F
100
AcDbEntity
  8
12
  6
ByBlock
 48
3.0
100
AcDbLine
 10
1710.284866506235
 20
1623.976893768652
 30
0.0
 11
1733.484866506235
 21
1623.976893768652
 31
0.0
  0
LINE
  5
3468
330
1F
100
AcDbEntity
  8
10
  6
CENTER
 48
3.0
100
AcDbLine
 10
1705.9904200057
 20
1611.276893768653
 30
0.0
 11
1690.97931300677
 21
1611.276893768653
 31
0.0
  0
LINE
  5
3469
330
1F
100
AcDbEntity
  8
10
  6
CENTER
 48
3.0
100
AcDbLine
 10
1720.284866506236
 20
1638.976893768653
 30
0.0
 11
1723.484866506235
 21
1638.976893768653
 31
0.0
  0
LWPOLYLINE
  5
36E8
330
1F
100
AcDbEntity
  8
18
100
AcDbPolyline
 90
        4
 70
     1
 43
0.0
 10
823.3848665062357
 20
1738.976893768652
 10
1323.384866506235
 20
1738.976893768652
 10
1323.384866506235
 20
918.9768937686531
 10
823.3848665062357
 20
918.9768937686531
  0
LWPOLYLINE
  5
36EC
330
1F
100
AcDbEntity
  8
18
100
AcDbPolyline
 90
        4
 70
     1
 43
0.0
 10
823.3848665062357
 20
818.9768937686531
 10
1323.384866506235
 20
818.9768937686531
 10
1323.384866506235
 20
518.8768937686521
 10
823.3848665062357
 20
518.8768937686521
  0
LWPOLYLINE
  5
3708
330
1F
100
AcDbEntity
  8
18
100
AcDbPolyline
 90
        4
 70
     1
 43
0.0
 10
1423.384866506235
 20
1738.976893768652
 10
1723.484866506235
 20
1738.976893768652
 10
1723.484866506235
 20
918.9768937686531
 10
1423.384866506235
 20
918.9768937686531
  0
LINE
  5
373B
330
1F
100
AcDbEntity
  8
16
100
AcDbLine
 10
1073.384866506235
 20
975.5914127318783
 30
0.0
 11
1073.384866506235
 21
1673.019892641462
 31
0.0
  0
VIEWPORT
  5
1A9E
330
1B
100
AcDbEntity
 67
     1
  8
0
100
AcDbViewport
 10
5.249999639556162
 20
3.999999883606676
 30
0.0
 40
13.61503641713194
 41
8.992999745766947
 68
     1
 69
     1
 12
5.249999639556162
 22
3.999999883606676
 13
0.0
 23
0.0
 14
10.0
 24
10.0
 15
10.0
 25
10.0
 16
0.0
 26
0.0
 36
1.0
 17
0.0
 27
0.0
 37
0.0
 42
50.0
 43
0.0
 44
0.0
 45
8.992999745766947
 50
0.0
 51
0.0
 72
   100
 90
    32800
  1

281
     0
 71
     1
 74
     0
110
0.0
120
0.0
130
0.0
111
1.0
121
0.0
131
0.0
112
0.0
122
1.0
132
0.0
 79
     0
146
0.0
  0
VIEWPORT
  5
1AA0
330
1B
100
AcDbEntity
 67
     1
  8
0
100
AcDbViewport
 10
5.24999976158142
 20
3.999999761581419
 30
0.0
 40
8.399999618530271
 41
6.399999618530272
 68
     2
 69
     2
 12
-1363.137645193887
 22
-311.7485573738788
 13
0.0
 23
0.0
 14
10.0
 24
10.0
 15
10.0
 25
10.0
 16
0.0
 26
0.0
 36
1.0
 17
0.0
 27
0.0
 37
0.0
 42
50.0
 43
0.0
 44
0.0
 45
467.9695885509838
 50
0.0
 51
0.0
 72
   100
 90
    32864
  1

281
     0
 71
     1
 74
     0
110
0.0
120
0.0
130
0.0
111
1.0
121
0.0
131
0.0
112
0.0
122
1.0
132
0.0
 79
     0
146
0.0
  0
ENDSEC
  0
SECTION
  2
OBJECTS
  0
DICTIONARY
  5
C
330
0
100
AcDbDictionary
281
     1
  3
ACAD_GROUP
350
D
  3
ACAD_LAYOUT
350
1A
  3
ACAD_MLINESTYLE
350
17
  3
ACAD_PLOTSETTINGS
350
19
  3
ACAD_PLOTSTYLENAME
350
47
  3
AcDbVariableDictionary
350
191F
  3
DWGPROPS
350
3742
1001
ACAD
1000
TREAT_AS_HARD
1070
     0
  0
DICTIONARY
  5
41
330
1F
100
AcDbDictionary
280
     1
281
     1
  3
ACAD_LAYOUTSELFREF
360
1B2E
  0
DICTIONARY
  5
3F
330
1B
100
AcDbDictionary
280
     1
281
     1
  3
ACAD_LAYOUTSELFREF
360
1B2D
  0
DICTIONARY
  5
D
102
{ACAD_REACTORS
330
C
102
}
330
C
100
AcDbDictionary
281
     1
1001
ACAD
1000
TREAT_AS_HARD
1070
     0
  0
DICTIONARY
  5
1A
102
{ACAD_REACTORS
330
C
102
}
330
C
100
AcDbDictionary
281
     1
  3
Model
350
49
  3
ﾚｲｱｳﾄ1
350
4A
1001
ACAD
1000
TREAT_AS_HARD
1070
     0
  0
DICTIONARY
  5
17
102
{ACAD_REACTORS
330
C
102
}
330
C
100
AcDbDictionary
281
     1
  3
STANDARD
350
18
1001
ACAD
1000
TREAT_AS_HARD
1070
     0
  0
DICTIONARY
  5
19
102
{ACAD_REACTORS
330
C
102
}
330
C
100
AcDbDictionary
281
     1
1001
ACAD
1000
TREAT_AS_HARD
1070
     0
  0
ACDBDICTIONARYWDFLT
  5
47
102
{ACAD_REACTORS
330
C
102
}
330
C
100
AcDbDictionary
281
     1
  3
Normal
350
48
100
AcDbDictionaryWithDefault
340
48
  0
DICTIONARY
  5
191F
102
{ACAD_REACTORS
330
C
102
}
330
C
100
AcDbDictionary
281
     1
  3
DIMASSOC
350
1920
  0
XRECORD
  5
3742
102
{ACAD_REACTORS
330
C
102
}
330
C
100
AcDbXrecord
280
     1
  1
DWGPROPS COOKIE
  2

  3

  4

  6

  7

  8

  9

300
=
301
=
302
=
303
=
304
=
305
=
306
=
307
=
308
=
309
=
 40
0.1228007407407407
 41
2453312.371317361
 42
2453971.432818981
  1

 90
        0
  0
XRECORD
  5
1B2E
102
{ACAD_REACTORS
330
41
102
}
330
41
100
AcDbXrecord
280
     1
340
1F
  0
XRECORD
  5
1B2D
102
{ACAD_REACTORS
330
3F
102
}
330
3F
100
AcDbXrecord
280
     1
340
1B
  0
LAYOUT
  5
49
102
{ACAD_REACTORS
330
1A
102
}
330
1A
100
AcDbPlotSettings
  1

  2
EPSON LP-9200PS2
  4

  6

 40
0.0
 41
0.0
 42
0.0
 43
0.0
 44
0.0
 45
0.0
 46
0.0
 47
0.0
 48
0.0
 49
0.0
140
0.0
141
0.0
142
1.0
143
1.0
 70
  1712
 72
     0
 73
     0
 74
     0
  7

 75
     0
147
1.0
148
0.0
149
0.0
100
AcDbLayout
  1
Model
 70
     1
 71
     0
 10
0.0
 20
0.0
 11
12.0
 21
9.0
 12
0.0
 22
0.0
 32
0.0
 14
0.0
 24
0.0
 34
0.0
 15
0.0
 25
0.0
 35
0.0
146
0.0
 13
0.0
 23
0.0
 33
0.0
 16
1.0
 26
0.0
 36
0.0
 17
0.0
 27
1.0
 37
0.0
 76
     0
330
1F
  0
LAYOUT
  5
4A
102
{ACAD_REACTORS
330
1A
102
}
330
1A
100
AcDbPlotSettings
  1

  2
none_device
  4
Letter_(8.50_x_11.00_Inches)
  6

 40
6.349999904632567
 41
6.349999904632567
 42
6.350006103515625
 43
6.350006103515625
 44
215.8999938964842
 45
279.3999938964843
 46
0.0
 47
0.0
 48
0.0
 49
0.0
140
0.0
141
0.0
142
1.0
143
1.0
 70
   688
 72
     0
 73
     1
 74
     5
  7

 75
    16
147
1.0
148
0.0
149
0.0
100
AcDbLayout
  1
ﾚｲｱｳﾄ1
 70
     1
 71
     1
 10
-0.2500002402958907
 20
-0.2499999962453767
 11
10.74999951940821
 21
8.249999763458731
 12
0.0
 22
0.0
 32
0.0
 14
1.049999952316283
 24
0.7999999523162842
 34
0.0
 15
9.449999570846555
 25
7.199999570846556
 35
0.0
146
0.0
 13
0.0
 23
0.0
 33
0.0
 16
1.0
 26
0.0
 36
0.0
 17
0.0
 27
1.0
 37
0.0
 76
     0
330
1B
331
1A9E
  0
MLINESTYLE
  5
18
102
{ACAD_REACTORS
330
17
102
}
330
17
100
AcDbMlineStyle
  2
STANDARD
 70
     0
  3

 62
   256
 51
90.0
 52
90.0
 71
     2
 49
0.5
 62
   256
  6
BYLAYER
 49
-0.5
 62
   256
  6
BYLAYER
  0
ACDBPLACEHOLDER
  5
48
102
{ACAD_REACTORS
330
47
102
}
330
47
  0
DICTIONARYVAR
  5
1920
102
{ACAD_REACTORS
330
191F
102
}
330
191F
100
DictionaryVariables
280
     0
  1
1
  0
ENDSEC
  0
EOF
