  0
SECTION
  2
HEADER
  9
$ACADVER
  1
AC1015
  9
$ACADMAINTVER
 70
    10
  9
$DWGCODEPAGE
  3
ANSI_932
  9
$INSBASE
 10
0.0
 20
0.0
 30
0.0
  9
$EXTMIN
 10
578.7729116425544
 20
454.3534593034956
 30
0.0
  9
$EXTMAX
 10
1486.670009320246
 20
984.9952510956587
 30
0.0
  9
$LIMMIN
 10
0.0
 20
0.0
  9
$LIMMAX
 10
420.0
 20
297.0
  9
$ORTHOMODE
 70
     1
  9
$REGENMODE
 70
     1
  9
$FILLMODE
 70
     1
  9
$QTEXTMODE
 70
     0
  9
$MIRRTEXT
 70
     1
  9
$LTSCALE
 40
1.0
  9
$ATTMODE
 70
     1
  9
$TEXTSIZE
 40
2.5
  9
$TRACEWID
 40
1.0
  9
$TEXTSTYLE
  7
STANDARD
  9
$CLAYER
  8
0
  9
$CELTYPE
  6
BYLAYER
  9
$CECOLOR
 62
   256
  9
$CELTSCALE
 40
1.0
  9
$DISPSILH
 70
     0
  9
$DIMSCALE
 40
1.0
  9
$DIMASZ
 40
2.5
  9
$DIMEXO
 40
0.625
  9
$DIMDLI
 40
3.75
  9
$DIMRND
 40
0.0
  9
$DIMDLE
 40
0.0
  9
$DIMEXE
 40
1.25
  9
$DIMTP
 40
0.0
  9
$DIMTM
 40
0.0
  9
$DIMTXT
 40
2.5
  9
$DIMCEN
 40
2.5
  9
$DIMTSZ
 40
0.0
  9
$DIMTOL
 70
     0
  9
$DIMLIM
 70
     0
  9
$DIMTIH
 70
     0
  9
$DIMTOH
 70
     0
  9
$DIMSE1
 70
     0
  9
$DIMSE2
 70
     0
  9
$DIMTAD
 70
     1
  9
$DIMZIN
 70
     8
  9
$DIMBLK
  1

  9
$DIMASO
 70
     1
  9
$DIMSHO
 70
     1
  9
$DIMPOST
  1

  9
$DIMAPOST
  1

  9
$DIMALT
 70
     0
  9
$DIMALTD
 70
     3
  9
$DIMALTF
 40
0.03937007874016
  9
$DIMLFAC
 40
1.0
  9
$DIMTOFL
 70
     1
  9
$DIMTVP
 40
0.0
  9
$DIMTIX
 70
     0
  9
$DIMSOXD
 70
     0
  9
$DIMSAH
 70
     0
  9
$DIMBLK1
  1

  9
$DIMBLK2
  1

  9
$DIMSTYLE
  2
ISO-25
  9
$DIMCLRD
 70
     0
  9
$DIMCLRE
 70
     0
  9
$DIMCLRT
 70
     0
  9
$DIMTFAC
 40
1.0
  9
$DIMGAP
 40
0.625
  9
$DIMJUST
 70
     0
  9
$DIMSD1
 70
     0
  9
$DIMSD2
 70
     0
  9
$DIMTOLJ
 70
     0
  9
$DIMTZIN
 70
     8
  9
$DIMALTZ
 70
     0
  9
$DIMALTTZ
 70
     0
  9
$DIMUPT
 70
     0
  9
$DIMDEC
 70
     0
  9
$DIMTDEC
 70
     0
  9
$DIMALTU
 70
     2
  9
$DIMALTTD
 70
     3
  9
$DIMTXSTY
  7
STANDARD
  9
$DIMAUNIT
 70
     0
  9
$DIMADEC
 70
     0
  9
$DIMALTRND
 40
0.0
  9
$DIMAZIN
 70
     0
  9
$DIMDSEP
 70
    46
  9
$DIMATFIT
 70
     3
  9
$DIMFRAC
 70
     0
  9
$DIMLDRBLK
  1

  9
$DIMLUNIT
 70
     2
  9
$DIMLWD
 70
    -2
  9
$DIMLWE
 70
    -2
  9
$DIMTMOVE
 70
     0
  9
$LUNITS
 70
     2
  9
$LUPREC
 70
     4
  9
$SKETCHINC
 40
1.0
  9
$FILLETRAD
 40
10.0
  9
$AUNITS
 70
     0
  9
$AUPREC
 70
     0
  9
$MENU
  1
.
  9
$ELEVATION
 40
0.0
  9
$PELEVATION
 40
0.0
  9
$THICKNESS
 40
0.0
  9
$LIMCHECK
 70
     0
  9
$CHAMFERA
 40
10.0
  9
$CHAMFERB
 40
10.0
  9
$CHAMFERC
 40
20.0
  9
$CHAMFERD
 40
0.0
  9
$SKPOLY
 70
     0
  9
$TDCREATE
 40
2453312.371317361
  9
$TDUCREATE
 40
2453311.996317361
  9
$TDUPDATE
 40
2454637.666173032
  9
$TDUUPDATE
 40
2454637.291173032
  9
$TDINDWG
 40
0.0408523958
  9
$TDUSRTIMER
 40
0.0408519097
  9
$USRTIMER
 70
     1
  9
$ANGBASE
 50
0.0
  9
$ANGDIR
 70
     0
  9
$PDMODE
 70
    34
  9
$PDSIZE
 40
0.0
  9
$PLINEWID
 40
0.0
  9
$SPLFRAME
 70
     0
  9
$SPLINETYPE
 70
     6
  9
$SPLINESEGS
 70
     8
  9
$HANDSEED
  5
2E89
  9
$SURFTAB1
 70
     6
  9
$SURFTAB2
 70
     6
  9
$SURFTYPE
 70
     6
  9
$SURFU
 70
     6
  9
$SURFV
 70
     6
  9
$UCSBASE
  2

  9
$UCSNAME
  2

  9
$UCSORG
 10
0.0
 20
0.0
 30
0.0
  9
$UCSXDIR
 10
1.0
 20
0.0
 30
0.0
  9
$UCSYDIR
 10
0.0
 20
1.0
 30
0.0
  9
$UCSORTHOREF
  2

  9
$UCSORTHOVIEW
 70
     0
  9
$UCSORGTOP
 10
0.0
 20
0.0
 30
0.0
  9
$UCSORGBOTTOM
 10
0.0
 20
0.0
 30
0.0
  9
$UCSORGLEFT
 10
0.0
 20
0.0
 30
0.0
  9
$UCSORGRIGHT
 10
0.0
 20
0.0
 30
0.0
  9
$UCSORGFRONT
 10
0.0
 20
0.0
 30
0.0
  9
$UCSORGBACK
 10
0.0
 20
0.0
 30
0.0
  9
$PUCSBASE
  2

  9
$PUCSNAME
  2

  9
$PUCSORG
 10
0.0
 20
0.0
 30
0.0
  9
$PUCSXDIR
 10
1.0
 20
0.0
 30
0.0
  9
$PUCSYDIR
 10
0.0
 20
1.0
 30
0.0
  9
$PUCSORTHOREF
  2

  9
$PUCSORTHOVIEW
 70
     0
  9
$PUCSORGTOP
 10
0.0
 20
0.0
 30
0.0
  9
$PUCSORGBOTTOM
 10
0.0
 20
0.0
 30
0.0
  9
$PUCSORGLEFT
 10
0.0
 20
0.0
 30
0.0
  9
$PUCSORGRIGHT
 10
0.0
 20
0.0
 30
0.0
  9
$PUCSORGFRONT
 10
0.0
 20
0.0
 30
0.0
  9
$PUCSORGBACK
 10
0.0
 20
0.0
 30
0.0
  9
$USERI1
 70
     0
  9
$USERI2
 70
     0
  9
$USERI3
 70
     0
  9
$USERI4
 70
     0
  9
$USERI5
 70
     0
  9
$USERR1
 40
0.0
  9
$USERR2
 40
0.0
  9
$USERR3
 40
0.0
  9
$USERR4
 40
0.0
  9
$USERR5
 40
0.0
  9
$WORLDVIEW
 70
     1
  9
$SHADEDGE
 70
     3
  9
$SHADEDIF
 70
    70
  9
$TILEMODE
 70
     1
  9
$MAXACTVP
 70
    48
  9
$PINSBASE
 10
0.0
 20
0.0
 30
0.0
  9
$PLIMCHECK
 70
     0
  9
$PEXTMIN
 10
1.049999952316283
 20
0.7999999523162842
 30
0.0
  9
$PEXTMAX
 10
9.449999570846555
 20
7.199999570846556
 30
0.0
  9
$PLIMMIN
 10
-0.2500002402958907
 20
-0.2499999962453767
  9
$PLIMMAX
 10
10.74999951940821
 20
8.249999763458731
  9
$UNITMODE
 70
     0
  9
$VISRETAIN
 70
     1
  9
$PLINEGEN
 70
     0
  9
$PSLTSCALE
 70
     1
  9
$TREEDEPTH
 70
  3020
  9
$CMLSTYLE
  2
STANDARD
  9
$CMLJUST
 70
     0
  9
$CMLSCALE
 40
20.0
  9
$PROXYGRAPHICS
 70
     1
  9
$MEASUREMENT
 70
     0
  9
$CELWEIGHT
370
    -1
  9
$ENDCAPS
280
     0
  9
$JOINSTYLE
280
     0
  9
$LWDISPLAY
290
     0
  9
$INSUNITS
 70
     0
  9
$HYPERLINKBASE
  1

  9
$STYLESHEET
  1

  9
$XEDIT
290
     1
  9
$CEPSNTYPE
380
     0
  9
$PSTYLEMODE
290
     1
  9
$FINGERPRINTGUID
  2
{C8342AD0-ADE8-45AD-AC00-933185DE4E38}
  9
$VERSIONGUID
  2
{3E5FDEEC-FEEC-4B5B-8622-50F186C6CB1E}
  9
$EXTNAMES
290
     1
  9
$PSVPSCALE
 40
0.0
  9
$OLESTARTUP
290
     0
  0
ENDSEC
  0
SECTION
  2
CLASSES
  0
CLASS
  1
ACDBDICTIONARYWDFLT
  2
AcDbDictionaryWithDefault
  3
AutoCAD 2000
 90
        0
280
     0
281
     0
  0
CLASS
  1
ACDBPLACEHOLDER
  2
AcDbPlaceHolder
  3
AutoCAD 2000
 90
        0
280
     0
281
     0
  0
CLASS
  1
LAYOUT
  2
AcDbLayout
  3
AutoCAD 2000
 90
        0
280
     0
281
     0
  0
CLASS
  1
LONG_TRANSACTION
  2
AcDbLongTransaction
  3
AutoCAD 2000
 90
    32768
280
     0
281
     0
  0
CLASS
  1
LWPOLYLINE
  2
AcDbPolyline
  3
AutoCAD 2000
 90
    32768
280
     0
281
     1
  0
CLASS
  1
HATCH
  2
AcDbHatch
  3
AutoCAD 2000
 90
    32768
280
     0
281
     1
  0
CLASS
  1
XRECORD
  2
AcDbXrecord
  3
AutoCAD 2000
 90
    32768
280
     0
281
     0
  0
CLASS
  1
DICTIONARYVAR
  2
AcDbDictionaryVar
  3
AutoCAD 2000
 90
        0
280
     0
281
     0
  0
CLASS
  1
LONG_TRANSACTION
  2
AcDbLongTransaction
  3
AutoCAD 2000
 90
    32768
280
     0
281
     0
  0
CLASS
  1
LWPOLYLINE
  2
AcDbPolyline
  3
AutoCAD 2000
 90
    32768
280
     0
281
     1
  0
CLASS
  1
HATCH
  2
AcDbHatch
  3
AutoCAD 2000
 90
    32768
280
     0
281
     1
  0
CLASS
  1
XRECORD
  2
AcDbXrecord
  3
AutoCAD 2000
 90
    32768
280
     0
281
     0
  0
CLASS
  1
LONG_TRANSACTION
  2
AcDbLongTransaction
  3
AutoCAD 2000
 90
    32768
280
     0
281
     0
  0
CLASS
  1
LWPOLYLINE
  2
AcDbPolyline
  3
AutoCAD 2000
 90
    32768
280
     0
281
     1
  0
CLASS
  1
HATCH
  2
AcDbHatch
  3
AutoCAD 2000
 90
    32768
280
     0
281
     1
  0
CLASS
  1
XRECORD
  2
AcDbXrecord
  3
AutoCAD 2000
 90
    32768
280
     0
281
     0
  0
CLASS
  1
LONG_TRANSACTION
  2
AcDbLongTransaction
  3
AutoCAD 2000
 90
    32768
280
     0
281
     0
  0
CLASS
  1
LWPOLYLINE
  2
AcDbPolyline
  3
AutoCAD 2000
 90
    32768
280
     0
281
     1
  0
CLASS
  1
HATCH
  2
AcDbHatch
  3
AutoCAD 2000
 90
    32768
280
     0
281
     1
  0
CLASS
  1
XRECORD
  2
AcDbXrecord
  3
AutoCAD 2000
 90
    32768
280
     0
281
     0
  0
CLASS
  1
LONG_TRANSACTION
  2
AcDbLongTransaction
  3
AutoCAD 2000
 90
    32768
280
     0
281
     0
  0
CLASS
  1
LWPOLYLINE
  2
AcDbPolyline
  3
AutoCAD 2000
 90
    32768
280
     0
281
     1
  0
CLASS
  1
HATCH
  2
AcDbHatch
  3
AutoCAD 2000
 90
    32768
280
     0
281
     1
  0
CLASS
  1
XRECORD
  2
AcDbXrecord
  3
AutoCAD 2000
 90
    32768
280
     0
281
     0
  0
CLASS
  1
LONG_TRANSACTION
  2
AcDbLongTransaction
  3
AutoCAD 2000
 90
    32768
280
     0
281
     0
  0
CLASS
  1
LWPOLYLINE
  2
AcDbPolyline
  3
AutoCAD 2000
 90
    32768
280
     0
281
     1
  0
CLASS
  1
HATCH
  2
AcDbHatch
  3
AutoCAD 2000
 90
    32768
280
     0
281
     1
  0
CLASS
  1
XRECORD
  2
AcDbXrecord
  3
AutoCAD 2000
 90
    32768
280
     0
281
     0
  0
CLASS
  1
LONG_TRANSACTION
  2
AcDbLongTransaction
  3
AutoCAD 2000
 90
    32768
280
     0
281
     0
  0
CLASS
  1
LWPOLYLINE
  2
AcDbPolyline
  3
AutoCAD 2000
 90
    32768
280
     0
281
     1
  0
CLASS
  1
HATCH
  2
AcDbHatch
  3
AutoCAD 2000
 90
    32768
280
     0
281
     1
  0
CLASS
  1
XRECORD
  2
AcDbXrecord
  3
AutoCAD 2000
 90
    32768
280
     0
281
     0
  0
CLASS
  1
LONG_TRANSACTION
  2
AcDbLongTransaction
  3
AutoCAD 2000
 90
    32768
280
     0
281
     0
  0
CLASS
  1
LWPOLYLINE
  2
AcDbPolyline
  3
AutoCAD 2000
 90
    32768
280
     0
281
     1
  0
CLASS
  1
HATCH
  2
AcDbHatch
  3
AutoCAD 2000
 90
    32768
280
     0
281
     1
  0
CLASS
  1
XRECORD
  2
AcDbXrecord
  3
AutoCAD 2000
 90
    32768
280
     0
281
     0
  0
CLASS
  1
LONG_TRANSACTION
  2
AcDbLongTransaction
  3
AutoCAD 2000
 90
    32768
280
     0
281
     0
  0
CLASS
  1
LWPOLYLINE
  2
AcDbPolyline
  3
AutoCAD 2000
 90
    32768
280
     0
281
     1
  0
CLASS
  1
HATCH
  2
AcDbHatch
  3
AutoCAD 2000
 90
    32768
280
     0
281
     1
  0
CLASS
  1
XRECORD
  2
AcDbXrecord
  3
AutoCAD 2000
 90
    32768
280
     0
281
     0
  0
CLASS
  1
LONG_TRANSACTION
  2
AcDbLongTransaction
  3
AutoCAD 2000
 90
    32768
280
     0
281
     0
  0
CLASS
  1
LWPOLYLINE
  2
AcDbPolyline
  3
AutoCAD 2000
 90
    32768
280
     0
281
     1
  0
CLASS
  1
HATCH
  2
AcDbHatch
  3
AutoCAD 2000
 90
    32768
280
     0
281
     1
  0
CLASS
  1
XRECORD
  2
AcDbXrecord
  3
AutoCAD 2000
 90
    32768
280
     0
281
     0
  0
ENDSEC
  0
SECTION
  2
TABLES
  0
TABLE
  2
VPORT
  5
8
330
0
100
AcDbSymbolTable
 70
     3
  0
VPORT
  5
2E88
330
8
100
AcDbSymbolTableRecord
100
AcDbViewportTableRecord
  2
*Active
 70
     0
 10
0.0
 20
0.0
 11
1.0
 21
1.0
 12
1090.393797136581
 22
734.2457035845
 13
0.0
 23
0.0
 14
10.0
 24
10.0
 15
10.0
 25
10.0
 16
0.0
 26
0.0
 36
1.0
 17
0.0
 27
0.0
 37
0.0
 40
924.1241553429162
 41
1.527918781725888
 42
50.0
 43
0.0
 44
0.0
 50
0.0
 51
0.0
 71
     0
 72
   100
 73
     1
 74
     3
 75
     0
 76
     0
 77
     0
 78
     0
281
     0
 65
     1
110
0.0
120
0.0
130
0.0
111
1.0
121
0.0
131
0.0
112
0.0
122
1.0
132
0.0
 79
     0
146
0.0
  0
ENDTAB
  0
TABLE
  2
LTYPE
  5
5
330
0
100
AcDbSymbolTable
 70
     5
  0
LTYPE
  5
14
330
5
100
AcDbSymbolTableRecord
100
AcDbLinetypeTableRecord
  2
BYBLOCK
 70
     0
  3

 72
    65
 73
     0
 40
0.0
  0
LTYPE
  5
15
330
5
100
AcDbSymbolTableRecord
100
AcDbLinetypeTableRecord
  2
BYLAYER
 70
     0
  3

 72
    65
 73
     0
 40
0.0
  0
LTYPE
  5
16
330
5
100
AcDbSymbolTableRecord
100
AcDbLinetypeTableRecord
  2
CONTINUOUS
 70
     0
  3
Solid line
 72
    65
 73
     0
 40
0.0
  0
LTYPE
  5
35
330
5
100
AcDbSymbolTableRecord
100
AcDbLinetypeTableRecord
  2
PHANTOMX2
 70
     0
  3
Phantom (2x) ____________    ____    ____   _
 72
    65
 73
     6
 40
127.0
 49
63.5
 74
     0
 49
-12.7
 74
     0
 49
12.7
 74
     0
 49
-12.7
 74
     0
 49
12.7
 74
     0
 49
-12.7
 74
     0
  0
LTYPE
  5
36
330
5
100
AcDbSymbolTableRecord
100
AcDbLinetypeTableRecord
  2
CENTERX2
 70
     0
  3
Center (2x) ________  __  ________  __  _____
 72
    65
 73
     4
 40
101.6
 49
63.5
 74
     0
 49
-12.7
 74
     0
 49
12.7
 74
     0
 49
-12.7
 74
     0
  0
LTYPE
  5
54
330
5
100
AcDbSymbolTableRecord
100
AcDbLinetypeTableRecord
  2
HIDDEN
 70
     0
  3
Hidden __ __ __ __ __ __ __ __ __ __ __ __ __ _
 72
    65
 73
     2
 40
0.375
 49
0.25
 74
     0
 49
-0.125
 74
     0
  0
LTYPE
  5
55
330
5
100
AcDbSymbolTableRecord
100
AcDbLinetypeTableRecord
  2
DASHDOT
 70
     0
  3
__ . __ . __ . __ . __ . __ . __ . __ . __ . __
 72
    65
 73
     4
 40
1.0
 49
0.5
 74
     0
 49
-0.25
 74
     0
 49
0.0
 74
     0
 49
-0.25
 74
     0
  0
ENDTAB
  0
TABLE
  2
LAYER
  5
2
330
0
100
AcDbSymbolTable
 70
     8
  0
LAYER
  5
10
330
2
100
AcDbSymbolTableRecord
100
AcDbLayerTableRecord
  2
0
 70
     0
 62
     7
  6
CONTINUOUS
370
    -3
390
48
  0
LAYER
  5
2D
330
2
100
AcDbSymbolTableRecord
100
AcDbLayerTableRecord
  2
10
 70
     0
 62
     4
  6
CONTINUOUS
370
    -3
390
48
  0
LAYER
  5
2E
330
2
100
AcDbSymbolTableRecord
100
AcDbLayerTableRecord
  2
11
 70
     0
 62
     7
  6
CONTINUOUS
370
    -3
390
48
  0
LAYER
  5
2F
330
2
100
AcDbSymbolTableRecord
100
AcDbLayerTableRecord
  2
12
 70
     0
 62
     3
  6
CONTINUOUS
370
    -3
390
48
  0
LAYER
  5
31
330
2
100
AcDbSymbolTableRecord
100
AcDbLayerTableRecord
  2
16
 70
     0
 62
     4
  6
CENTERX2
370
    -3
390
48
  0
LAYER
  5
33
330
2
100
AcDbSymbolTableRecord
100
AcDbLayerTableRecord
  2
18
 70
     0
 62
     1
  6
PHANTOMX2
370
    -3
390
48
  0
LAYER
  5
34
330
2
100
AcDbSymbolTableRecord
100
AcDbLayerTableRecord
  2
19
 70
     0
 62
     7
  6
CONTINUOUS
370
    -3
390
48
  0
LAYER
  5
1C0B
330
2
100
AcDbSymbolTableRecord
100
AcDbLayerTableRecord
  2
DEFPOINTS
 70
     0
 62
     7
  6
CONTINUOUS
290
     0
370
    -3
390
48
  0
ENDTAB
  0
TABLE
  2
STYLE
  5
3
330
0
100
AcDbSymbolTable
 70
     2
  0
STYLE
  5
11
330
3
100
AcDbSymbolTableRecord
100
AcDbTextStyleTableRecord
  2
STANDARD
 70
     0
 40
0.0
 41
1.0
 50
0.0
 71
     0
 42
2.5
  3
txt
  4

  0
STYLE
  5
56
330
3
100
AcDbSymbolTableRecord
100
AcDbTextStyleTableRecord
  2
STANDARD1
 70
     0
 40
0.0
 41
0.7
 50
0.0
 71
     0
 42
4.0
  3
romans.shx
  4
extfont.shx
  0
ENDTAB
  0
TABLE
  2
VIEW
  5
6
330
0
100
AcDbSymbolTable
 70
     0
  0
ENDTAB
  0
TABLE
  2
UCS
  5
7
330
0
100
AcDbSymbolTable
 70
     0
  0
ENDTAB
  0
TABLE
  2
APPID
  5
9
330
0
100
AcDbSymbolTable
 70
     1
  0
APPID
  5
12
330
9
100
AcDbSymbolTableRecord
100
AcDbRegAppTableRecord
  2
ACAD
 70
     0
  0
ENDTAB
  0
TABLE
  2
DIMSTYLE
  5
A
330
0
100
AcDbSymbolTable
 70
     2
100
AcDbDimStyleTable
 71
     1
340
27
  0
DIMSTYLE
105
27
330
A
100
AcDbSymbolTableRecord
100
AcDbDimStyleTableRecord
  2
ISO-25
 70
     0
 41
2.5
 42
0.625
 43
3.75
 44
1.25
 73
     0
 74
     0
 77
     1
 78
     8
140
2.5
141
2.5
143
0.03937007874016
147
0.625
171
     3
172
     1
271
     0
272
     0
274
     3
283
     0
284
     8
340
11
  0
DIMSTYLE
105
1C0C
330
A
100
AcDbSymbolTableRecord
100
AcDbDimStyleTableRecord
  2
STANDARD
 70
     0
340
11
  0
ENDTAB
  0
TABLE
  2
BLOCK_RECORD
  5
1
330
0
100
AcDbSymbolTable
 70
     0
  0
BLOCK_RECORD
  5
1F
102
{ACAD_XDICTIONARY
360
41
102
}
330
1
100
AcDbSymbolTableRecord
100
AcDbBlockTableRecord
  2
*MODEL_SPACE
340
49
  0
BLOCK_RECORD
  5
1B
102
{ACAD_XDICTIONARY
360
3F
102
}
330
1
100
AcDbSymbolTableRecord
100
AcDbBlockTableRecord
  2
*PAPER_SPACE
340
4A
  0
ENDTAB
  0
ENDSEC
  0
SECTION
  2
BLOCKS
  0
BLOCK
  5
20
330
1F
100
AcDbEntity
  8
0
100
AcDbBlockBegin
  2
*MODEL_SPACE
 70
     0
 10
0.0
 20
0.0
 30
0.0
  3
*MODEL_SPACE
  1

  0
ENDBLK
  5
21
330
1F
100
AcDbEntity
  8
0
100
AcDbBlockEnd
  0
BLOCK
  5
1C
330
1B
100
AcDbEntity
 67
     1
  8
0
100
AcDbBlockBegin
  2
*PAPER_SPACE
 70
     0
 10
0.0
 20
0.0
 30
0.0
  3
*PAPER_SPACE
  1

  0
ENDBLK
  5
1D
330
1B
100
AcDbEntity
 67
     1
  8
0
100
AcDbBlockEnd
  0
ENDSEC
  0
SECTION
  2
ENTITIES
  0
ARC
  5
28AD
330
1F
100
AcDbEntity
  8
10
100
AcDbCircle
 10
959.4729116425543
 20
694.4952510956584
 30
0.0
 40
5.250000000000001
100
AcDbArc
 50
90.0
 51
120.6032946082065
  0
ARC
  5
28AE
330
1F
100
AcDbEntity
  8
10
100
AcDbCircle
 10
959.4729116425543
 20
694.4952510956584
 30
0.0
 40
5.249999999999853
100
AcDbArc
 50
239.3967053917898
 51
270.0
  0
ARC
  5
28AF
330
1F
100
AcDbEntity
  8
10
100
AcDbCircle
 10
959.4729116425543
 20
718.4952510956584
 30
0.0
 40
5.250000000000001
100
AcDbArc
 50
90.0
 51
120.6032946082065
  0
ARC
  5
28B0
330
1F
100
AcDbEntity
  8
10
100
AcDbCircle
 10
959.4729116425543
 20
718.4952510956584
 30
0.0
 40
5.249999999999841
100
AcDbArc
 50
239.3967053917898
 51
270.0
  0
LINE
  5
28B1
330
1F
100
AcDbEntity
  8
10
100
AcDbLine
 10
952.2729116425546
 20
655.4952510956588
 30
0.0
 11
969.7729116425547
 21
655.4952510956588
 31
0.0
  0
LINE
  5
28B2
330
1F
100
AcDbEntity
  8
10
100
AcDbLine
 10
952.2729116425546
 20
657.4952510956583
 30
0.0
 11
969.7729116425547
 21
657.4952510956583
 31
0.0
  0
LINE
  5
28B3
330
1F
100
AcDbEntity
  8
10
100
AcDbLine
 10
952.2729116425546
 20
680.1452510956585
 30
0.0
 11
969.7729116425547
 21
680.1452510956585
 31
0.0
  0
LINE
  5
28B4
330
1F
100
AcDbEntity
  8
10
100
AcDbLine
 10
952.2729116425546
 20
643.8452510956587
 30
0.0
 11
969.7729116425547
 21
643.8452510956587
 31
0.0
  0
LINE
  5
28B5
330
1F
100
AcDbEntity
  8
10
100
AcDbLine
 10
952.2729116425546
 20
677.4952510956583
 30
0.0
 11
969.7729116425547
 21
677.4952510956583
 31
0.0
  0
LINE
  5
28B6
330
1F
100
AcDbEntity
  8
10
100
AcDbLine
 10
952.2729116425546
 20
668.4952510956585
 30
0.0
 11
969.7729116425547
 21
668.4952510956585
 31
0.0
  0
LINE
  5
28B7
330
1F
100
AcDbEntity
  8
10
100
AcDbLine
 10
952.2729116425546
 20
646.4952510956586
 30
0.0
 11
969.7729116425547
 21
646.4952510956586
 31
0.0
  0
LINE
  5
28B8
330
1F
100
AcDbEntity
  8
10
100
AcDbLine
 10
952.2729116425546
 20
666.4952510956585
 30
0.0
 11
969.7729116425547
 21
666.4952510956585
 31
0.0
  0
LINE
  5
28B9
330
1F
100
AcDbEntity
  8
10
100
AcDbLine
 10
954.8611417426316
 20
731.4952510956584
 30
0.0
 11
969.7729116425547
 21
731.4952510956584
 31
0.0
  0
LINE
  5
28BA
330
1F
100
AcDbEntity
  8
10
100
AcDbLine
 10
947.7729116425543
 20
681.4952510956583
 30
0.0
 11
969.7729116425547
 21
681.4952510956583
 31
0.0
  0
LINE
  5
28BB
330
1F
100
AcDbEntity
  8
10
100
AcDbLine
 10
947.7729116425543
 20
726.9952510956584
 30
0.0
 11
969.7729116425547
 21
726.9952510956584
 31
0.0
  0
LINE
  5
28BC
330
1F
100
AcDbEntity
  8
10
100
AcDbLine
 10
947.7729116425543
 20
709.9952510956585
 30
0.0
 11
969.7729116425547
 21
709.9952510956585
 31
0.0
  0
LINE
  5
28BD
330
1F
100
AcDbEntity
  8
10
100
AcDbLine
 10
947.7729116425543
 20
702.9952510956584
 30
0.0
 11
969.7729116425547
 21
702.9952510956584
 31
0.0
  0
LINE
  5
28BE
330
1F
100
AcDbEntity
  8
10
100
AcDbLine
 10
947.7729116425543
 20
685.9952510956583
 30
0.0
 11
969.7729116425547
 21
685.9952510956583
 31
0.0
  0
ARC
  5
28BF
330
1F
100
AcDbEntity
  8
10
100
AcDbCircle
 10
960.8506222363978
 20
851.0518666702202
 30
0.0
 40
2.999999999999944
100
AcDbArc
 50
93.00000000000236
 51
160.3162775136968
  0
LINE
  5
28C0
330
1F
100
AcDbEntity
  8
10
100
AcDbLine
 10
958.6871252049272
 20
827.4952510956582
 30
0.0
 11
959.772911642554
 21
827.4952510956582
 31
0.0
  0
LINE
  5
28C1
330
1F
100
AcDbEntity
  8
10
100
AcDbLine
 10
955.2729116425542
 20
805.7828752865303
 30
0.0
 11
959.3252834856906
 21
805.9952510956582
 31
0.0
  0
LINE
  5
28C2
330
1F
100
AcDbEntity
  8
10
100
AcDbLine
 10
955.2729116425542
 20
748.2076269047864
 30
0.0
 11
959.325283485696
 21
747.9952510956584
 31
0.0
  0
LINE
  5
28C3
330
1F
100
AcDbEntity
  8
10
100
AcDbLine
 10
954.220575686311
 20
807.7304693879996
 30
0.0
 11
959.2729116425562
 21
807.9952510956584
 31
0.0
  0
LINE
  5
28C4
330
1F
100
AcDbEntity
  8
10
100
AcDbLine
 10
954.220575686311
 20
746.2600328033167
 30
0.0
 11
959.2729116425562
 21
745.9952510956585
 31
0.0
  0
LINE
  5
28C5
330
1F
100
AcDbEntity
  8
10
100
AcDbLine
 10
956.172911642554
 20
749.4952510956583
 30
0.0
 11
964.7729116425541
 21
749.4952510956585
 31
0.0
  0
LINE
  5
28C6
330
1F
100
AcDbEntity
  8
10
100
AcDbLine
 10
956.172911642554
 20
804.4952510956584
 30
0.0
 11
966.2729116425539
 21
804.4952510956584
 31
0.0
  0
ARC
  5
28C7
330
1F
100
AcDbEntity
  8
10
100
AcDbCircle
 10
989.272911642554
 20
842.114740039565
 30
0.0
 40
30.00000000000016
100
AcDbArc
 50
160.3162775136998
 51
180.0
  0
ARC
  5
28C8
330
1F
100
AcDbEntity
  8
10
100
AcDbCircle
 10
959.2729116425543
 20
631.5214549853
 30
0.0
 40
0.4999999999999981
100
AcDbArc
 50
90.0
 51
180.0
  0
ARC
  5
28C9
330
1F
100
AcDbEntity
  8
10
100
AcDbCircle
 10
959.7729116425542
 20
586.9923712480341
 30
0.0
 40
1.0
100
AcDbArc
 50
180.0
 51
266.9999999999943
  0
LINE
  5
28CA
330
1F
100
AcDbEntity
  8
10
100
AcDbLine
 10
978.7729116425543
 20
740.0434066813194
 30
0.0
 11
958.7729116425546
 21
739.8688693255043
 31
0.0
  0
ARC
  5
28CB
330
1F
100
AcDbEntity
  8
10
100
AcDbCircle
 10
959.2729116425543
 20
733.0214549853
 30
0.0
 40
0.5000000000000001
100
AcDbArc
 50
180.0
 51
270.0
  0
LINE
  5
28DA
330
1F
100
AcDbEntity
  8
10
100
AcDbLine
 10
633.0729116425542
 20
884.9952510956587
 30
0.0
 11
734.4729116425543
 21
884.9952510956587
 31
0.0
  0
LINE
  5
28DB
330
1F
100
AcDbEntity
  8
10
100
AcDbLine
 10
631.0729116425542
 20
869.9952510956588
 30
0.0
 11
736.4729116425543
 21
869.9952510956588
 31
0.0
  0
LINE
  5
28DC
330
1F
100
AcDbEntity
  8
10
100
AcDbLine
 10
736.4729116425543
 20
569.9952510956587
 30
0.0
 11
631.0729116425542
 21
569.9952510956587
 31
0.0
  0
LINE
  5
28DD
330
1F
100
AcDbEntity
  8
10
100
AcDbLine
 10
650.7729116425544
 20
554.9952510956587
 30
0.0
 11
633.0729116425548
 21
554.9952510956587
 31
0.0
  0
LINE
  5
28E0
330
1F
100
AcDbEntity
  8
10
100
AcDbLine
 10
640.7729116425546
 20
569.9952510956587
 30
0.0
 11
680.7729116425547
 21
569.9952510956587
 31
0.0
  0
LINE
  5
28E1
330
1F
100
AcDbEntity
  8
10
100
AcDbLine
 10
640.7729116425546
 20
869.9952510956588
 30
0.0
 11
726.7729116425546
 21
869.9952510956588
 31
0.0
  0
LINE
  5
28E2
330
1F
100
AcDbEntity
  8
10
100
AcDbLine
 10
728.7729116425546
 20
854.9952510956584
 30
0.0
 11
638.7729116425548
 21
854.9952510956584
 31
0.0
  0
LINE
  5
28E3
330
1F
100
AcDbEntity
  8
10
100
AcDbLine
 10
728.7729116425546
 20
584.9952510956589
 30
0.0
 11
638.7729116425548
 21
584.9952510956589
 31
0.0
  0
LINE
  5
28E4
330
1F
100
AcDbEntity
  8
10
100
AcDbLine
 10
638.7729116425548
 20
574.9952510956587
 30
0.0
 11
651.7729116425551
 21
574.9952510956587
 31
0.0
  0
LINE
  5
28E5
330
1F
100
AcDbEntity
  8
10
100
AcDbLine
 10
638.7729116425548
 20
864.9952510956589
 30
0.0
 11
651.7729116425546
 21
864.9952510956589
 31
0.0
  0
LINE
  5
28E6
330
1F
100
AcDbEntity
  8
10
100
AcDbLine
 10
726.7729116425546
 20
584.9952510956589
 30
0.0
 11
640.7729116425546
 21
584.9952510956589
 31
0.0
  0
LINE
  5
28E7
330
1F
100
AcDbEntity
  8
10
100
AcDbLine
 10
640.7729116425546
 20
738.9952510956588
 30
0.0
 11
726.7729116425546
 21
738.9952510956588
 31
0.0
  0
LINE
  5
28E8
330
1F
100
AcDbEntity
  8
10
100
AcDbLine
 10
638.7729116425547
 20
823.4952510956587
 30
0.0
 11
668.7729116425546
 21
823.4952510956587
 31
0.0
  0
LINE
  5
28E9
330
1F
100
AcDbEntity
  8
10
100
AcDbLine
 10
638.7729116425547
 20
830.4952510956589
 30
0.0
 11
668.7729116425546
 21
830.4952510956589
 31
0.0
  0
LINE
  5
28EA
330
1F
100
AcDbEntity
  8
10
100
AcDbLine
 10
631.0729116425542
 20
569.9952510956587
 30
0.0
 11
631.0729116425542
 21
882.9952510956585
 31
0.0
  0
LINE
  5
28EB
330
1F
100
AcDbEntity
  8
10
100
AcDbLine
 10
628.7729116425544
 20
556.9952510956587
 30
0.0
 11
628.7729116425544
 21
882.9952510956585
 31
0.0
  0
LINE
  5
28EC
330
1F
100
AcDbEntity
  8
10
100
AcDbLine
 10
638.7729116425547
 20
571.9952510956589
 30
0.0
 11
638.7729116425547
 21
867.9952510956587
 31
0.0
  0
LINE
  5
28ED
330
1F
100
AcDbEntity
  8
10
100
AcDbLine
 10
638.7729116425548
 20
574.9952510956587
 30
0.0
 11
638.7729116425548
 21
864.9952510956589
 31
0.0
  0
LINE
  5
28EE
330
1F
100
AcDbEntity
  8
10
100
AcDbLine
 10
639.7729116425546
 20
585.9952510956587
 30
0.0
 11
639.7729116425546
 21
737.9952510956587
 31
0.0
  0
LINE
  5
28EF
330
1F
100
AcDbEntity
  8
10
100
AcDbLine
 10
640.5029116425549
 20
584.9952510956589
 30
0.0
 11
641.7729116425547
 21
574.9952510956587
 31
0.0
  0
LINE
  5
28F0
330
1F
100
AcDbEntity
  8
10
100
AcDbLine
 10
641.7729116425547
 20
584.9952510956589
 30
0.0
 11
641.7729116425547
 21
574.9952510956587
 31
0.0
  0
LINE
  5
28F1
330
1F
100
AcDbEntity
  8
10
100
AcDbLine
 10
631.0729116425545
 20
556.9952510956587
 30
0.0
 11
628.7729116425544
 21
556.9952510956587
 31
0.0
  0
LINE
  5
28F2
330
1F
100
AcDbEntity
  8
10
100
AcDbLine
 10
631.0729116425542
 20
572.2952510956587
 30
0.0
 11
628.7729116425544
 21
572.2952510956587
 31
0.0
  0
LINE
  5
28F3
330
1F
100
AcDbEntity
  8
10
100
AcDbLine
 10
631.0729116425545
 20
556.9952510956587
 30
0.0
 11
631.0729116425542
 21
572.2952510956587
 31
0.0
  0
LINE
  5
28F4
330
1F
100
AcDbEntity
  8
10
100
AcDbLine
 10
633.0729116425548
 20
554.9952510956587
 30
0.0
 11
631.0729116425545
 21
556.9952510956587
 31
0.0
  0
LINE
  5
28F5
330
1F
100
AcDbEntity
  8
10
100
AcDbLine
 10
640.7729116425546
 20
569.9952510956587
 30
0.0
 11
638.7729116425547
 21
571.9952510956589
 31
0.0
  0
LINE
  5
28F6
330
1F
100
AcDbEntity
  8
10
100
AcDbLine
 10
640.7729116425546
 20
569.9952510956587
 30
0.0
 11
640.7729116425546
 21
574.9952510956587
 31
0.0
  0
ARC
  5
28F7
330
1F
100
AcDbEntity
  8
10
100
AcDbCircle
 10
640.7729116425546
 20
585.9952510956587
 30
0.0
 40
0.9999999999999978
100
AcDbArc
 50
180.0
 51
270.0
  0
ARC
  5
28F8
330
1F
100
AcDbEntity
  8
10
100
AcDbCircle
 10
640.7729116425546
 20
737.9952510956587
 30
0.0
 40
0.9999999999999978
100
AcDbArc
 50
90.0
 51
180.0
  0
LINE
  5
28F9
330
1F
100
AcDbEntity
  8
10
100
AcDbLine
 10
631.0729116425542
 20
882.9952510956585
 30
0.0
 11
628.7729116425544
 21
882.9952510956585
 31
0.0
  0
LINE
  5
28FA
330
1F
100
AcDbEntity
  8
10
100
AcDbLine
 10
628.7729116425544
 20
867.6952510956587
 30
0.0
 11
631.0729116425542
 21
867.6952510956587
 31
0.0
  0
LINE
  5
28FB
330
1F
100
AcDbEntity
  8
10
100
AcDbLine
 10
640.7729116425546
 20
864.9952510956589
 30
0.0
 11
640.7729116425546
 21
869.9952510956588
 31
0.0
  0
LINE
  5
28FC
330
1F
100
AcDbEntity
  8
10
100
AcDbLine
 10
640.5029116425546
 20
854.9952510956584
 30
0.0
 11
641.7729116425546
 21
864.9952510956589
 31
0.0
  0
LINE
  5
28FD
330
1F
100
AcDbEntity
  8
10
100
AcDbLine
 10
641.7729116425546
 20
864.9952510956589
 30
0.0
 11
641.7729116425546
 21
854.9952510956584
 31
0.0
  0
LINE
  5
28FE
330
1F
100
AcDbEntity
  8
10
100
AcDbLine
 10
631.0729116425542
 20
882.9952510956585
 30
0.0
 11
633.0729116425542
 21
884.9952510956587
 31
0.0
  0
LINE
  5
28FF
330
1F
100
AcDbEntity
  8
10
100
AcDbLine
 10
638.7729116425547
 20
867.9952510956587
 30
0.0
 11
640.7729116425546
 21
869.9952510956588
 31
0.0
  0
LINE
  5
2902
330
1F
100
AcDbEntity
  8
10
100
AcDbLine
 10
736.4729116425543
 20
569.9952510956587
 30
0.0
 11
736.4729116425543
 21
882.9952510956585
 31
0.0
  0
LINE
  5
2903
330
1F
100
AcDbEntity
  8
10
100
AcDbLine
 10
738.7729116425543
 20
556.9952510956587
 30
0.0
 11
738.7729116425543
 21
882.9952510956585
 31
0.0
  0
LINE
  5
2904
330
1F
100
AcDbEntity
  8
10
100
AcDbLine
 10
673.8729116425547
 20
853.8401538546208
 30
0.0
 11
673.8729116425547
 21
826.9952510956589
 31
0.0
  0
LINE
  5
2905
330
1F
100
AcDbEntity
  8
10
100
AcDbLine
 10
692.4729116425549
 20
853.8401538546208
 30
0.0
 11
692.4729116425549
 21
826.9952510956589
 31
0.0
  0
ARC
  5
2906
330
1F
100
AcDbEntity
  8
10
100
AcDbCircle
 10
986.2729116425541
 20
841.9575167017157
 30
0.0
 40
30.00000000000003
100
AcDbArc
 50
160.3162775136998
 51
180.0
  0
LINE
  5
2907
330
1F
100
AcDbEntity
  8
10
100
AcDbLine
 10
728.7729116425546
 20
571.9952510956589
 30
0.0
 11
728.7729116425546
 21
867.9952510956587
 31
0.0
  0
LINE
  5
2908
330
1F
100
AcDbEntity
  8
10
100
AcDbLine
 10
728.7729116425546
 20
574.9952510956587
 30
0.0
 11
728.7729116425546
 21
864.9952510956589
 31
0.0
  0
LINE
  5
2909
330
1F
100
AcDbEntity
  8
10
100
AcDbLine
 10
668.7729116425546
 20
853.4952510956589
 30
0.0
 11
668.7729116425546
 21
739.9952510956588
 31
0.0
  0
LINE
  5
290A
330
1F
100
AcDbEntity
  8
10
100
AcDbLine
 10
728.7729116425546
 20
853.4952510956589
 30
0.0
 11
728.7729116425546
 21
739.9952510956588
 31
0.0
  0
LINE
  5
290B
330
1F
100
AcDbEntity
  8
10
100
AcDbLine
 10
692.5729116425546
 20
853.8925616339039
 30
0.0
 11
692.5729116425546
 21
824.9952510956592
 31
0.0
  0
LINE
  5
290C
330
1F
100
AcDbEntity
  8
10
100
AcDbLine
 10
673.7729116425547
 20
853.8925616339039
 30
0.0
 11
673.7729116425547
 21
824.9952510956592
 31
0.0
  0
LINE
  5
290D
330
1F
100
AcDbEntity
  8
10
100
AcDbLine
 10
692.5729116425546
 20
853.8925616339039
 30
0.0
 11
692.5729116425546
 21
837.9712883252526
 31
0.0
  0
LINE
  5
290E
330
1F
100
AcDbEntity
  8
10
100
AcDbLine
 10
673.7729116425547
 20
853.8401538546208
 30
0.0
 11
673.7729116425547
 21
843.0839494290349
 31
0.0
  0
LINE
  5
2910
330
1F
100
AcDbEntity
  8
10
 48
3.0
100
AcDbLine
 10
690.7729116425542
 20
731.4952510956588
 30
0.0
 11
690.7729116425542
 21
681.4952510956588
 31
0.0
  0
LINE
  5
2911
330
1F
100
AcDbEntity
  8
10
 48
3.0
100
AcDbLine
 10
722.7729116425543
 20
731.4952510956588
 30
0.0
 11
722.7729116425543
 21
681.4952510956588
 31
0.0
  0
LINE
  5
2912
330
1F
100
AcDbEntity
  8
10
100
AcDbLine
 10
727.7729116425547
 20
737.9952510956587
 30
0.0
 11
727.7729116425547
 21
585.9952510956587
 31
0.0
  0
LINE
  5
2913
330
1F
100
AcDbEntity
  8
12
 48
3.0
100
AcDbLine
 10
648.7729116425542
 20
562.9952510956589
 30
0.0
 11
718.7729116425543
 21
562.9952510956589
 31
0.0
  0
TEXT
  5
2914
330
1F
100
AcDbEntity
  8
10
 48
3.0
100
AcDbText
 10
684.6877938947145
 20
603.4952519012631
 30
0.0
 40
6.808510739752588
  1
ＴＢ１
 50
0.0000025044784726
 41
0.7031250019402551
  7
STANDARD1
100
AcDbText
  0
LINE
  5
2915
330
1F
100
AcDbEntity
  8
10
100
AcDbLine
 10
710.7729116425542
 20
554.9952510956587
 30
0.0
 11
656.7729116425542
 21
554.9952510956587
 31
0.0
  0
LINE
  5
2917
330
1F
100
AcDbEntity
  8
10
 48
3.0
100
AcDbLine
 10
722.7729116425543
 20
681.4952510956588
 30
0.0
 11
690.7729116425542
 21
681.4952510956588
 31
0.0
  0
LINE
  5
2918
330
1F
100
AcDbEntity
  8
10
 48
3.0
100
AcDbLine
 10
658.5729116425546
 20
623.4952510956587
 30
0.0
 11
708.9729116425543
 21
623.4952510956587
 31
0.0
  0
LINE
  5
2919
330
1F
100
AcDbEntity
  8
10
 48
3.0
100
AcDbLine
 10
658.5729116425546
 20
601.4952510956589
 30
0.0
 11
708.9729116425543
 21
601.4952510956589
 31
0.0
  0
LINE
  5
291A
330
1F
100
AcDbEntity
  8
10
100
AcDbLine
 10
686.7729116425547
 20
569.9952510956587
 30
0.0
 11
726.7729116425546
 21
569.9952510956587
 31
0.0
  0
LINE
  5
291B
330
1F
100
AcDbEntity
  8
10
 48
3.0
100
AcDbLine
 10
658.5729116425546
 20
623.4952510956587
 30
0.0
 11
658.5729116425546
 21
601.4952510956589
 31
0.0
  0
CIRCLE
  5
291E
330
1F
100
AcDbEntity
  8
10
100
AcDbCircle
 10
671.7729116425547
 20
574.9952510956587
 30
0.0
 40
3.999999999999991
  0
CIRCLE
  5
291F
330
1F
100
AcDbEntity
  8
10
100
AcDbCircle
 10
671.7729116425547
 20
574.9952510956587
 30
0.0
 40
3.499999999999991
  0
CIRCLE
  5
2920
330
1F
100
AcDbEntity
  8
10
100
AcDbCircle
 10
658.7729116425546
 20
574.9952510956587
 30
0.0
 40
3.999999999999991
  0
LINE
  5
2922
330
1F
100
AcDbEntity
  8
10
100
AcDbLine
 10
651.7729116425551
 20
584.9952510956589
 30
0.0
 11
651.7729116425551
 21
574.9952510956587
 31
0.0
  0
ARC
  5
2925
330
1F
100
AcDbEntity
  8
12
100
AcDbCircle
 10
653.7729116425544
 20
562.9952510956589
 30
0.0
 40
2.999999999999781
100
AcDbArc
 50
0.0
 51
180.0
  0
LINE
  5
2926
330
1F
100
AcDbEntity
  8
12
 48
3.0
100
AcDbLine
 10
653.7729116425544
 20
567.9952510956589
 30
0.0
 11
653.7729116425546
 21
557.9952510956587
 31
0.0
  0
LINE
  5
2927
330
1F
100
AcDbEntity
  8
12
100
AcDbLine
 10
650.7729116425544
 20
562.9952510956589
 30
0.0
 11
650.7729116425544
 21
554.9952510956587
 31
0.0
  0
LINE
  5
2928
330
1F
100
AcDbEntity
  8
12
100
AcDbLine
 10
656.7729116425542
 20
562.9952510956589
 30
0.0
 11
656.7729116425542
 21
554.9952510956587
 31
0.0
  0
LINE
  5
2929
330
1F
100
AcDbEntity
  8
10
100
AcDbLine
 10
665.8865990516914
 20
580.3012510956589
 30
0.0
 11
664.6592242334179
 21
580.3012510956589
 31
0.0
  0
LINE
  5
292A
330
1F
100
AcDbEntity
  8
10
100
AcDbLine
 10
666.4872553471228
 20
581.1482510956587
 30
0.0
 11
664.0585679379864
 21
581.1482510956587
 31
0.0
  0
LINE
  5
292B
330
1F
100
AcDbEntity
  8
10
100
AcDbLine
 10
665.2729116425546
 20
581.9952510956587
 30
0.0
 11
665.2729116425546
 21
583.8102510956588
 31
0.0
  0
LINE
  5
292C
330
1F
100
AcDbEntity
  8
10
100
AcDbLine
 10
667.0879116425546
 20
581.9952510956587
 30
0.0
 11
663.4579116425547
 21
581.9952510956587
 31
0.0
  0
CIRCLE
  5
292D
330
1F
100
AcDbEntity
  8
10
100
AcDbCircle
 10
665.2729116425546
 20
581.9952510956587
 30
0.0
 40
2.500000000000023
  0
LINE
  5
292F
330
1F
100
AcDbEntity
  8
10
100
AcDbLine
 10
670.3586980801816
 20
576.409464658032
 30
0.0
 11
673.1871252049277
 21
573.5810375332857
 31
0.0
  0
LINE
  5
2930
330
1F
100
AcDbEntity
  8
10
100
AcDbLine
 10
673.1871252049277
 20
576.409464658032
 30
0.0
 11
670.3586980801816
 21
573.5810375332857
 31
0.0
  0
LINE
  5
2931
330
1F
100
AcDbEntity
  8
10
100
AcDbLine
 10
680.7729116425547
 20
575.9952510956587
 30
0.0
 11
680.7729116425547
 21
569.9952510956587
 31
0.0
  0
LINE
  5
2932
330
1F
100
AcDbEntity
  8
10
100
AcDbLine
 10
686.7729116425547
 20
575.9952510956587
 30
0.0
 11
686.7729116425547
 21
569.9952510956587
 31
0.0
  0
LINE
  5
2933
330
1F
100
AcDbEntity
  8
10
 48
3.0
100
AcDbLine
 10
708.9729116425543
 20
623.4952510956587
 30
0.0
 11
708.9729116425543
 21
601.4952510956589
 31
0.0
  0
LINE
  5
2934
330
1F
100
AcDbEntity
  8
10
100
AcDbLine
 10
734.4729116425546
 20
554.9952510956587
 30
0.0
 11
716.7729116425542
 21
554.9952510956587
 31
0.0
  0
LINE
  5
2936
330
1F
100
AcDbEntity
  8
10
100
AcDbLine
 10
715.7729116425546
 20
574.9952510956587
 30
0.0
 11
728.7729116425546
 21
574.9952510956587
 31
0.0
  0
CIRCLE
  5
2937
330
1F
100
AcDbEntity
  8
10
100
AcDbCircle
 10
708.7729116425547
 20
574.9952510956587
 30
0.0
 40
4.499999999999991
  0
CIRCLE
  5
2938
330
1F
100
AcDbEntity
  8
10
100
AcDbCircle
 10
708.7729116425547
 20
574.9952510956587
 30
0.0
 40
5.000000000000001
  0
LINE
  5
2939
330
1F
100
AcDbEntity
  8
10
100
AcDbLine
 10
715.7729116425546
 20
584.9952510956589
 30
0.0
 11
715.7729116425546
 21
574.9952510956587
 31
0.0
  0
LINE
  5
293C
330
1F
100
AcDbEntity
  8
12
 48
3.0
100
AcDbLine
 10
713.7729116425543
 20
567.9952510956589
 30
0.0
 11
713.7729116425543
 21
557.9952510956587
 31
0.0
  0
LINE
  5
293D
330
1F
100
AcDbEntity
  8
12
100
AcDbLine
 10
716.7729116425541
 20
562.9952510956589
 30
0.0
 11
716.7729116425542
 21
554.9952510956587
 31
0.0
  0
LINE
  5
293E
330
1F
100
AcDbEntity
  8
12
100
AcDbLine
 10
710.7729116425542
 20
562.9952510956589
 30
0.0
 11
710.7729116425542
 21
554.9952510956587
 31
0.0
  0
ARC
  5
2941
330
1F
100
AcDbEntity
  8
12
100
AcDbCircle
 10
713.7729116425543
 20
562.9952510956589
 30
0.0
 40
3.000000000000008
100
AcDbArc
 50
0.0
 51
180.0
  0
LINE
  5
2942
330
1F
100
AcDbEntity
  8
10
100
AcDbLine
 10
707.0051446895883
 20
576.7630180486251
 30
0.0
 11
710.5406785955209
 21
573.2274841426923
 31
0.0
  0
LINE
  5
2943
330
1F
100
AcDbEntity
  8
10
100
AcDbLine
 10
710.5406785955209
 20
576.7630180486251
 30
0.0
 11
707.0051446895883
 21
573.2274841426923
 31
0.0
  0
LINE
  5
2944
330
1F
100
AcDbEntity
  8
10
100
AcDbLine
 10
701.6592242334178
 20
580.3012510956589
 30
0.0
 11
702.8865990516914
 21
580.3012510956589
 31
0.0
  0
LINE
  5
2945
330
1F
100
AcDbEntity
  8
10
100
AcDbLine
 10
701.0585679379862
 20
581.1482510956587
 30
0.0
 11
703.4872553471227
 21
581.1482510956587
 31
0.0
  0
LINE
  5
2946
330
1F
100
AcDbEntity
  8
10
100
AcDbLine
 10
702.2729116425546
 20
581.9952510956587
 30
0.0
 11
702.2729116425546
 21
583.8102510956588
 31
0.0
  0
LINE
  5
2947
330
1F
100
AcDbEntity
  8
10
100
AcDbLine
 10
700.4579116425547
 20
581.9952510956587
 30
0.0
 11
704.0879116425543
 21
581.9952510956587
 31
0.0
  0
CIRCLE
  5
2948
330
1F
100
AcDbEntity
  8
10
100
AcDbCircle
 10
702.2729116425546
 20
581.9952510956587
 30
0.0
 40
2.500000000000023
  0
LINE
  5
2949
330
1F
100
AcDbEntity
  8
10
100
AcDbLine
 10
727.0429116425548
 20
584.9952510956589
 30
0.0
 11
725.7729116425547
 21
574.9952510956587
 31
0.0
  0
LINE
  5
294A
330
1F
100
AcDbEntity
  8
10
100
AcDbLine
 10
725.7729116425547
 20
584.9952510956589
 30
0.0
 11
725.7729116425547
 21
574.9952510956587
 31
0.0
  0
LINE
  5
294B
330
1F
100
AcDbEntity
  8
10
100
AcDbLine
 10
728.7729116425546
 20
571.9952510956589
 30
0.0
 11
726.7729116425546
 21
569.9952510956587
 31
0.0
  0
LINE
  5
294C
330
1F
100
AcDbEntity
  8
10
100
AcDbLine
 10
726.7729116425546
 20
569.9952510956587
 30
0.0
 11
726.7729116425546
 21
574.9952510956587
 31
0.0
  0
LINE
  5
294D
330
1F
100
AcDbEntity
  8
10
100
AcDbLine
 10
736.4729116425547
 20
556.9952510956587
 30
0.0
 11
736.4729116425543
 21
572.2952510956588
 31
0.0
  0
LINE
  5
294E
330
1F
100
AcDbEntity
  8
10
100
AcDbLine
 10
738.7729116425543
 20
556.9952510956587
 30
0.0
 11
736.4729116425547
 21
556.9952510956587
 31
0.0
  0
LINE
  5
294F
330
1F
100
AcDbEntity
  8
10
100
AcDbLine
 10
736.4729116425547
 20
556.9952510956587
 30
0.0
 11
734.4729116425546
 21
554.9952510956587
 31
0.0
  0
LINE
  5
2950
330
1F
100
AcDbEntity
  8
10
100
AcDbLine
 10
736.4729116425543
 20
572.2952510956588
 30
0.0
 11
738.7729116425543
 21
572.2952510956588
 31
0.0
  0
ARC
  5
2951
330
1F
100
AcDbEntity
  8
10
100
AcDbCircle
 10
726.7729116425546
 20
585.9952510956587
 30
0.0
 40
1.0
100
AcDbArc
 50
270.0
 51
0.0
  0
TEXT
  5
2952
330
1F
100
AcDbEntity
  8
10
 48
3.0
100
AcDbText
 10
704.1877938947145
 20
645.8452408386408
 30
0.0
 40
6.808510739752588
  1
ＴＢ２
 50
0.0000025044784726
 41
0.7031250019402551
  7
STANDARD1
100
AcDbText
  0
LINE
  5
2953
330
1F
100
AcDbEntity
  8
10
 48
3.0
100
AcDbLine
 10
701.7729116425543
 20
643.8452510956587
 30
0.0
 11
722.7729116425546
 21
643.8452510956587
 31
0.0
  0
LINE
  5
2954
330
1F
100
AcDbEntity
  8
10
 48
3.0
100
AcDbLine
 10
701.7729116425543
 20
680.1452510956587
 30
0.0
 11
722.7729116425546
 21
680.1452510956587
 31
0.0
  0
LINE
  5
2955
330
1F
100
AcDbEntity
  8
10
 48
3.0
100
AcDbLine
 10
701.7729116425543
 20
643.8452510956587
 30
0.0
 11
701.7729116425543
 21
680.1452510956587
 31
0.0
  0
TEXT
  5
2956
330
1F
100
AcDbEntity
  8
10
 48
3.0
100
AcDbText
 10
698.6877938947143
 20
683.4952347351253
 30
0.0
 40
6.808510739752588
  1
ＴＢ３
 50
0.0000025044784726
 41
0.7031250019402551
  7
STANDARD1
100
AcDbText
  0
LINE
  5
2957
330
1F
100
AcDbEntity
  8
10
 48
3.0
100
AcDbLine
 10
722.7729116425546
 20
643.8452510956587
 30
0.0
 11
722.7729116425546
 21
680.1452510956587
 31
0.0
  0
LINE
  5
2958
330
1F
100
AcDbEntity
  8
10
100
AcDbLine
 10
679.7729116425547
 20
818.4952510956588
 30
0.0
 11
717.7729116425547
 21
818.4952510956588
 31
0.0
  0
LINE
  5
2959
330
1F
100
AcDbEntity
  8
10
100
AcDbLine
 10
679.7729116425547
 20
811.9952510956588
 30
0.0
 11
717.7729116425547
 21
811.9952510956588
 31
0.0
  0
LINE
  5
295A
330
1F
100
AcDbEntity
  8
10
 48
3.0
100
AcDbLine
 10
722.7729116425543
 20
731.4952510956588
 30
0.0
 11
690.7729116425542
 21
731.4952510956588
 31
0.0
  0
LINE
  5
295B
330
1F
100
AcDbEntity
  8
10
100
AcDbLine
 10
670.6377014047522
 20
807.4952510956588
 30
0.0
 11
700.6377014047522
 21
807.4952510956588
 31
0.0
  0
LINE
  5
295C
330
1F
100
AcDbEntity
  8
10
100
AcDbLine
 10
670.6377014047522
 20
745.4952510956587
 30
0.0
 11
700.6377014047522
 21
745.4952510956587
 31
0.0
  0
TEXT
  5
295D
330
1F
100
AcDbEntity
  8
10
100
AcDbText
 10
687.8728830060428
 20
756.4952576233088
 30
0.0
 40
5.957446707055924
  1
ＴＢ４
 50
0.0000025044784726
 41
0.5555555673818741
  7
STANDARD1
100
AcDbText
  0
LINE
  5
295E
330
1F
100
AcDbEntity
  8
10
100
AcDbLine
 10
668.7729116425546
 20
739.9952510956588
 30
0.0
 11
728.7729116425546
 21
739.9952510956588
 31
0.0
  0
LINE
  5
295F
330
1F
100
AcDbEntity
  8
10
100
AcDbLine
 10
669.2729116425546
 20
823.4952510956587
 30
0.0
 11
728.2729116425546
 21
823.4952510956587
 31
0.0
  0
LINE
  5
2960
330
1F
100
AcDbEntity
  8
10
100
AcDbLine
 10
669.6638438903662
 20
745.4952510956587
 30
0.0
 11
712.2729116425546
 21
745.4952510956587
 31
0.0
  0
LINE
  5
2961
330
1F
100
AcDbEntity
  8
10
100
AcDbLine
 10
669.6638438903662
 20
807.4952510956588
 30
0.0
 11
728.2729116425546
 21
807.4952510956588
 31
0.0
  0
LINE
  5
2962
330
1F
100
AcDbEntity
  8
10
100
AcDbLine
 10
672.9729116425548
 20
826.9952510956589
 30
0.0
 11
693.3729116425545
 21
826.9952510956589
 31
0.0
  0
ARC
  5
2963
330
1F
100
AcDbEntity
  8
10
100
AcDbCircle
 10
694.2729116425547
 20
834.4952510956588
 30
0.0
 40
0.9999999999999978
100
AcDbArc
 50
180.0
 51
270.0
  0
ARC
  5
2964
330
1F
100
AcDbEntity
  8
10
100
AcDbCircle
 10
694.2729116425547
 20
843.6952510956587
 30
0.0
 40
0.9999999999999978
100
AcDbArc
 50
90.0
 51
180.0
  0
LINE
  5
2965
330
1F
100
AcDbEntity
  8
10
 48
3.0
100
AcDbLine
 10
687.3729116425545
 20
749.4952510956587
 30
0.0
 11
687.3729116425545
 21
804.4952510956587
 31
0.0
  0
LINE
  5
2966
330
1F
100
AcDbEntity
  8
10
 48
3.0
100
AcDbLine
 10
679.3729116425545
 20
804.4952510956587
 30
0.0
 11
679.3729116425545
 21
749.4952510956587
 31
0.0
  0
LINE
  5
2967
330
1F
100
AcDbEntity
  8
10
100
AcDbLine
 10
678.2357776161059
 20
745.4952510956587
 30
0.0
 11
678.2357776161059
 21
807.4952510956588
 31
0.0
  0
LINE
  5
2968
330
1F
100
AcDbEntity
  8
10
100
AcDbLine
 10
675.6377014047521
 20
745.4952510956587
 30
0.0
 11
675.6377014047521
 21
807.4952510956588
 31
0.0
  0
LINE
  5
2969
330
1F
100
AcDbEntity
  8
10
 48
3.0
100
AcDbLine
 10
679.3729116425545
 20
749.4952510956587
 30
0.0
 11
687.3729116425545
 21
749.4952510956587
 31
0.0
  0
LINE
  5
296A
330
1F
100
AcDbEntity
  8
10
100
AcDbLine
 10
675.6377014047521
 20
747.4952510956589
 30
0.0
 11
670.6377014047522
 21
747.4952510956589
 31
0.0
  0
LINE
  5
296B
330
1F
100
AcDbEntity
  8
10
100
AcDbLine
 10
669.6638438903662
 20
747.9952510956588
 30
0.0
 11
675.6377014047521
 21
747.9952510956588
 31
0.0
  0
LINE
  5
296C
330
1F
100
AcDbEntity
  8
10
100
AcDbLine
 10
670.6377014047522
 20
745.4952510956587
 30
0.0
 11
670.6377014047522
 21
747.4952510956589
 31
0.0
  0
LINE
  5
296D
330
1F
100
AcDbEntity
  8
10
100
AcDbLine
 10
669.6638438903662
 20
745.4952510956587
 30
0.0
 11
669.6638438903662
 21
747.9952510956588
 31
0.0
  0
LINE
  5
296E
330
1F
100
AcDbEntity
  8
10
100
AcDbLine
 10
674.3729116425547
 20
747.4952510956589
 30
0.0
 11
674.3729116425547
 21
747.9952510956588
 31
0.0
  0
LINE
  5
296F
330
1F
100
AcDbEntity
  8
10
100
AcDbLine
 10
671.9729116425546
 20
747.4952510956589
 30
0.0
 11
671.9729116425546
 21
747.9952510956588
 31
0.0
  0
LINE
  5
2970
330
1F
100
AcDbEntity
  8
10
100
AcDbLine
 10
673.1729116425547
 20
747.4952510956589
 30
0.0
 11
673.1729116425547
 21
747.9952510956588
 31
0.0
  0
LINE
  5
2971
330
1F
100
AcDbEntity
  8
10
100
AcDbLine
 10
670.9729116425547
 20
747.4952510956589
 30
0.0
 11
670.9729116425547
 21
747.9952510956588
 31
0.0
  0
LINE
  5
2972
330
1F
100
AcDbEntity
  8
10
 48
3.0
100
AcDbLine
 10
679.3729116425545
 20
804.4952510956587
 30
0.0
 11
687.3729116425545
 21
804.4952510956587
 31
0.0
  0
LINE
  5
2973
330
1F
100
AcDbEntity
  8
10
100
AcDbLine
 10
675.6377014047521
 20
805.4952510956589
 30
0.0
 11
670.6377014047522
 21
805.4952510956589
 31
0.0
  0
LINE
  5
2974
330
1F
100
AcDbEntity
  8
10
100
AcDbLine
 10
669.6638438903662
 20
804.9952510956588
 30
0.0
 11
675.6377014047521
 21
804.9952510956588
 31
0.0
  0
LINE
  5
2975
330
1F
100
AcDbEntity
  8
10
100
AcDbLine
 10
670.6377014047522
 20
805.4952510956589
 30
0.0
 11
670.6377014047522
 21
807.4952510956588
 31
0.0
  0
LINE
  5
2976
330
1F
100
AcDbEntity
  8
10
100
AcDbLine
 10
669.6638438903662
 20
804.9952510956588
 30
0.0
 11
669.6638438903662
 21
807.4952510956588
 31
0.0
  0
LINE
  5
2977
330
1F
100
AcDbEntity
  8
10
100
AcDbLine
 10
674.3729116425547
 20
804.9952510956588
 30
0.0
 11
674.3729116425547
 21
805.4952510956589
 31
0.0
  0
LINE
  5
2978
330
1F
100
AcDbEntity
  8
10
100
AcDbLine
 10
673.1729116425547
 20
804.9952510956588
 30
0.0
 11
673.1729116425547
 21
805.4952510956589
 31
0.0
  0
LINE
  5
2979
330
1F
100
AcDbEntity
  8
10
100
AcDbLine
 10
671.9729116425546
 20
804.9952510956588
 30
0.0
 11
671.9729116425546
 21
805.4952510956589
 31
0.0
  0
LINE
  5
297A
330
1F
100
AcDbEntity
  8
10
100
AcDbLine
 10
670.9729116425547
 20
804.9952510956588
 30
0.0
 11
670.9729116425547
 21
805.4952510956589
 31
0.0
  0
LINE
  5
297B
330
1F
100
AcDbEntity
  8
10
100
AcDbLine
 10
673.8729116425547
 20
828.9952510956588
 30
0.0
 11
692.4729116425549
 21
828.9952510956588
 31
0.0
  0
LINE
  5
297C
330
1F
100
AcDbEntity
  8
10
100
AcDbLine
 10
673.8729116425547
 20
826.9952510956589
 30
0.0
 11
692.4729116425549
 21
826.9952510956589
 31
0.0
  0
LINE
  5
297D
330
1F
100
AcDbEntity
  8
10
 48
3.0
100
AcDbLine
 10
690.7929116425541
 20
847.0352510956585
 30
0.0
 11
675.5529116425542
 21
847.0352510956585
 31
0.0
  0
LINE
  5
297E
330
1F
100
AcDbEntity
  8
10
 48
3.0
100
AcDbLine
 10
690.7929116425541
 20
831.9552510956587
 30
0.0
 11
675.5529116425542
 21
831.9552510956587
 31
0.0
  0
LINE
  5
297F
330
1F
100
AcDbEntity
  8
10
100
AcDbLine
 10
673.7729116425547
 20
824.9952510956592
 30
0.0
 11
692.5729116425546
 21
824.9952510956592
 31
0.0
  0
LINE
  5
2980
330
1F
100
AcDbEntity
  8
10
100
AcDbLine
 10
672.4729116425546
 20
829.9952510956588
 30
0.0
 11
672.4729116425546
 21
827.4952510956589
 31
0.0
  0
ARC
  5
2981
330
1F
100
AcDbEntity
  8
10
100
AcDbCircle
 10
669.2729116425546
 20
822.9952510956588
 30
0.0
 40
0.4999999999999981
100
AcDbArc
 50
90.0
 51
180.0
  0
ARC
  5
2982
330
1F
100
AcDbEntity
  8
10
100
AcDbCircle
 10
672.9729116425548
 20
827.4952510956589
 30
0.0
 40
0.4999999999999981
100
AcDbArc
 50
180.0
 51
270.0
  0
LINE
  5
2983
330
1F
100
AcDbEntity
  8
10
100
AcDbLine
 10
678.7729116425547
 20
812.9952510956588
 30
0.0
 11
678.7729116425547
 21
817.4952510956588
 31
0.0
  0
ARC
  5
2984
330
1F
100
AcDbEntity
  8
10
100
AcDbCircle
 10
679.7729116425547
 20
817.4952510956588
 30
0.0
 40
0.9999999999999978
100
AcDbArc
 50
90.0
 51
180.0
  0
ARC
  5
2985
330
1F
100
AcDbEntity
  8
10
100
AcDbCircle
 10
679.7729116425547
 20
812.9952510956588
 30
0.0
 40
0.9999999999999978
100
AcDbArc
 50
180.0
 51
270.0
  0
LINE
  5
2986
330
1F
100
AcDbEntity
  8
10
100
AcDbLine
 10
669.2729116425546
 20
830.4952510956589
 30
0.0
 11
671.9729116425546
 21
830.4952510956589
 31
0.0
  0
LINE
  5
2987
330
1F
100
AcDbEntity
  8
10
100
AcDbLine
 10
673.7729116425547
 20
831.4952510956587
 30
0.0
 11
673.8729116425547
 21
831.4952510956587
 31
0.0
  0
LINE
  5
2988
330
1F
100
AcDbEntity
  8
10
100
AcDbLine
 10
673.7729116425547
 20
831.9952510956589
 30
0.0
 11
673.8729116425547
 21
831.9952510956589
 31
0.0
  0
LINE
  5
2989
330
1F
100
AcDbEntity
  8
10
100
AcDbLine
 10
673.7729116425547
 20
828.3952510956588
 30
0.0
 11
673.8729116425547
 21
828.3952510956588
 31
0.0
  0
LINE
  5
298A
330
1F
100
AcDbEntity
  8
10
100
AcDbLine
 10
673.7729116425547
 20
829.5952510956587
 30
0.0
 11
673.8729116425547
 21
829.5952510956587
 31
0.0
  0
ARC
  5
298B
330
1F
100
AcDbEntity
  8
10
100
AcDbCircle
 10
669.2729116425546
 20
830.9952510956588
 30
0.0
 40
0.4999999999999981
100
AcDbArc
 50
180.0
 51
270.0
  0
ARC
  5
298C
330
1F
100
AcDbEntity
  8
10
100
AcDbCircle
 10
671.9729116425546
 20
829.9952510956588
 30
0.0
 40
0.4999999999999981
100
AcDbArc
 50
0.0
 51
90.0
  0
LINE
  5
298D
330
1F
100
AcDbEntity
  8
10
 48
3.0
100
AcDbLine
 10
675.5529116425542
 20
847.0352510956585
 30
0.0
 11
675.5529116425542
 21
831.9552510956587
 31
0.0
  0
LINE
  5
298E
330
1F
100
AcDbEntity
  8
10
 48
3.0
100
AcDbLine
 10
690.7929116425541
 20
847.0352510956585
 30
0.0
 11
690.7929116425541
 21
831.9552510956587
 31
0.0
  0
LINE
  5
298F
330
1F
100
AcDbEntity
  8
10
100
AcDbLine
 10
693.2729116425547
 20
843.6952510956587
 30
0.0
 11
693.2729116425547
 21
834.4952510956588
 31
0.0
  0
LINE
  5
2990
330
1F
100
AcDbEntity
  8
10
100
AcDbLine
 10
692.4729116425549
 20
831.4952510956587
 30
0.0
 11
692.5729116425546
 21
831.4952510956587
 31
0.0
  0
LINE
  5
2991
330
1F
100
AcDbEntity
  8
10
100
AcDbLine
 10
692.4729116425549
 20
831.9952510956589
 30
0.0
 11
692.5729116425546
 21
831.9952510956589
 31
0.0
  0
LINE
  5
2992
330
1F
100
AcDbEntity
  8
10
100
AcDbLine
 10
692.4729116425549
 20
829.5952510956587
 30
0.0
 11
692.5729116425546
 21
829.5952510956587
 31
0.0
  0
LINE
  5
2993
330
1F
100
AcDbEntity
  8
10
100
AcDbLine
 10
692.4729116425549
 20
828.3952510956588
 30
0.0
 11
692.5729116425546
 21
828.3952510956588
 31
0.0
  0
LINE
  5
2994
330
1F
100
AcDbEntity
  8
10
100
AcDbLine
 10
699.8365166856208
 20
747.4952510956589
 30
0.0
 11
699.8365166856208
 21
805.4952510956589
 31
0.0
  0
LINE
  5
2995
330
1F
100
AcDbEntity
  8
10
100
AcDbLine
 10
699.5797395205011
 20
745.4952510956587
 30
0.0
 11
699.5797395205011
 21
807.4952510956588
 31
0.0
  0
CIRCLE
  5
2996
330
1F
100
AcDbEntity
  8
10
100
AcDbCircle
 10
715.7729116425546
 20
745.4952510956587
 30
0.0
 40
2.999999999999993
  0
ARC
  5
2997
330
1F
100
AcDbEntity
  8
10
100
AcDbCircle
 10
715.7729116425546
 20
745.4952510956587
 30
0.0
 40
4.000000000000006
100
AcDbArc
 50
180.0
 51
0.0
  0
ARC
  5
2998
330
1F
100
AcDbEntity
  8
10
100
AcDbCircle
 10
715.7729116425546
 20
745.4952510956587
 30
0.0
 40
3.499999999999991
100
AcDbArc
 50
0.0
 51
180.0
  0
ARC
  5
2999
330
1F
100
AcDbEntity
  8
10
100
AcDbCircle
 10
715.7729116425546
 20
745.4952510956587
 30
0.0
 40
5.000000000000001
100
AcDbArc
 50
0.0
 51
180.0
  0
ARC
  5
299A
330
1F
100
AcDbEntity
  8
10
100
AcDbCircle
 10
715.7729116425546
 20
745.4952510956587
 30
0.0
 40
6.5
100
AcDbArc
 50
0.0
 51
180.0
  0
LINE
  5
299B
330
1F
100
AcDbEntity
  8
10
100
AcDbLine
 10
699.5797395205011
 20
747.4952510956589
 30
0.0
 11
700.6377014047522
 21
747.4952510956589
 31
0.0
  0
LINE
  5
299C
330
1F
100
AcDbEntity
  8
10
100
AcDbLine
 10
700.6377014047522
 20
745.4952510956587
 30
0.0
 11
700.6377014047522
 21
747.4952510956589
 31
0.0
  0
LINE
  5
299D
330
1F
100
AcDbEntity
  8
10
100
AcDbLine
 10
701.6377014047521
 20
745.4952510956587
 30
0.0
 11
701.6377014047521
 21
746.4952510956587
 31
0.0
  0
LINE
  5
299E
330
1F
100
AcDbEntity
  8
10
100
AcDbLine
 10
700.6377014047522
 20
746.9952510956589
 30
0.0
 11
701.1377014047523
 21
746.9952510956589
 31
0.0
  0
ARC
  5
299F
330
1F
100
AcDbEntity
  8
10
100
AcDbCircle
 10
701.1377014047523
 20
746.4952510956587
 30
0.0
 40
0.4999999999999981
100
AcDbArc
 50
0.0
 51
90.0
  0
LINE
  5
29A0
330
1F
100
AcDbEntity
  8
10
100
AcDbLine
 10
719.2729116425547
 20
745.4952510956587
 30
0.0
 11
728.2729116425546
 21
745.4952510956587
 31
0.0
  0
ARC
  5
29A1
330
1F
100
AcDbEntity
  8
10
100
AcDbCircle
 10
726.7729116425546
 20
737.9952510956587
 30
0.0
 40
0.9999999999999978
100
AcDbArc
 50
0.0
 51
90.0
  0
ARC
  5
29A2
330
1F
100
AcDbEntity
  8
10
100
AcDbCircle
 10
728.2729116425546
 20
744.9952510956587
 30
0.0
 40
0.4999999999999981
100
AcDbArc
 50
0.0
 51
90.0
  0
ARC
  5
29A3
330
1F
100
AcDbEntity
  8
10
100
AcDbCircle
 10
717.7729116425547
 20
817.4952510956588
 30
0.0
 40
0.9999999999999978
100
AcDbArc
 50
0.0
 51
90.0
  0
ARC
  5
29A4
330
1F
100
AcDbEntity
  8
10
100
AcDbCircle
 10
717.7729116425547
 20
812.9952510956588
 30
0.0
 40
0.9999999999999978
100
AcDbArc
 50
270.0
 51
0.0
  0
LINE
  5
29A5
330
1F
100
AcDbEntity
  8
10
100
AcDbLine
 10
694.3729116425547
 20
830.4952510956589
 30
0.0
 11
728.2729116425546
 21
830.4952510956589
 31
0.0
  0
LINE
  5
29A6
330
1F
100
AcDbEntity
  8
10
100
AcDbLine
 10
699.5797395205011
 20
805.4952510956589
 30
0.0
 11
700.6377014047522
 21
805.4952510956589
 31
0.0
  0
LINE
  5
29A7
330
1F
100
AcDbEntity
  8
10
100
AcDbLine
 10
700.6377014047522
 20
805.4952510956589
 30
0.0
 11
700.6377014047522
 21
807.4952510956588
 31
0.0
  0
LINE
  5
29A8
330
1F
100
AcDbEntity
  8
10
100
AcDbLine
 10
700.6377014047522
 20
805.9952510956588
 30
0.0
 11
701.1377014047523
 21
805.9952510956588
 31
0.0
  0
LINE
  5
29A9
330
1F
100
AcDbEntity
  8
10
100
AcDbLine
 10
701.6377014047521
 20
806.4952510956587
 30
0.0
 11
701.6377014047521
 21
807.4952510956588
 31
0.0
  0
ARC
  5
29AA
330
1F
100
AcDbEntity
  8
10
100
AcDbCircle
 10
701.1377014047523
 20
806.4952510956587
 30
0.0
 40
0.4999999999999981
100
AcDbArc
 50
270.0
 51
0.0
  0
LINE
  5
29AB
330
1F
100
AcDbEntity
  8
10
100
AcDbLine
 10
694.2729116425547
 20
844.6952510956586
 30
0.0
 11
710.4729116425548
 21
844.6952510956586
 31
0.0
  0
LINE
  5
29AC
330
1F
100
AcDbEntity
  8
10
100
AcDbLine
 10
694.2729116425547
 20
833.4952510956588
 30
0.0
 11
710.4729116425548
 21
833.4952510956588
 31
0.0
  0
LINE
  5
29AD
330
1F
100
AcDbEntity
  8
10
100
AcDbLine
 10
693.8729116425547
 20
829.9952510956588
 30
0.0
 11
693.8729116425545
 21
827.4952510956589
 31
0.0
  0
ARC
  5
29AE
330
1F
100
AcDbEntity
  8
10
100
AcDbCircle
 10
693.3729116425545
 20
827.4952510956589
 30
0.0
 40
0.4999999999999981
100
AcDbArc
 50
270.0
 51
0.0
  0
ARC
  5
29AF
330
1F
100
AcDbEntity
  8
10
100
AcDbCircle
 10
694.3729116425547
 20
829.9952510956588
 30
0.0
 40
0.4999999999999981
100
AcDbArc
 50
90.0
 51
180.0
  0
LINE
  5
29B0
330
1F
100
AcDbEntity
  8
10
100
AcDbLine
 10
711.4729116425547
 20
843.6952510956585
 30
0.0
 11
711.4729116425547
 21
834.4952510956588
 31
0.0
  0
ARC
  5
29B1
330
1F
100
AcDbEntity
  8
10
100
AcDbCircle
 10
710.4729116425548
 20
843.6952510956585
 30
0.0
 40
0.9999999999999978
100
AcDbArc
 50
0.0
 51
90.0
  0
ARC
  5
29B2
330
1F
100
AcDbEntity
  8
10
100
AcDbCircle
 10
710.4729116425548
 20
834.4952510956588
 30
0.0
 40
1.000000000000026
100
AcDbArc
 50
270.0
 51
0.0
  0
ARC
  5
29B3
330
1F
100
AcDbEntity
  8
10
100
AcDbCircle
 10
728.2729116425546
 20
807.9952510956589
 30
0.0
 40
0.4999999999999981
100
AcDbArc
 50
270.0
 51
0.0
  0
LINE
  5
29B4
330
1F
100
AcDbEntity
  8
10
100
AcDbLine
 10
718.7729116425546
 20
812.9952510956588
 30
0.0
 11
718.7729116425546
 21
817.4952510956588
 31
0.0
  0
ARC
  5
29B5
330
1F
100
AcDbEntity
  8
10
100
AcDbCircle
 10
728.2729116425546
 20
822.9952510956588
 30
0.0
 40
0.4999999999999981
100
AcDbArc
 50
0.0
 51
90.0
  0
ARC
  5
29B6
330
1F
100
AcDbEntity
  8
10
100
AcDbCircle
 10
728.2729116425546
 20
830.9952510956588
 30
0.0
 40
0.4999999999999981
100
AcDbArc
 50
270.0
 51
0.0
  0
ARC
  5
29B7
330
1F
100
AcDbEntity
  8
10
100
AcDbCircle
 10
957.5729116425543
 20
694.4952510956584
 30
0.0
 40
2.0
100
AcDbArc
 50
180.0
 51
270.0
  0
LINE
  5
29B8
330
1F
100
AcDbEntity
  8
10
100
AcDbLine
 10
955.5729116425546
 20
696.8622111713671
 30
0.0
 11
955.5729116425546
 21
692.1282910199496
 31
0.0
  0
LINE
  5
29B9
330
1F
100
AcDbEntity
  8
10
100
AcDbLine
 10
947.7729116425543
 20
633.2181096586452
 30
0.0
 11
947.7729116425543
 21
728.8286385765977
 31
0.0
  0
LINE
  5
29BA
330
1F
100
AcDbEntity
  8
10
100
AcDbLine
 10
938.7729116425543
 20
599.0329854896009
 30
0.0
 11
938.7729116425543
 21
732.3824418687599
 31
0.0
  0
LINE
  5
29BB
330
1F
100
AcDbEntity
  8
10
100
AcDbLine
 10
958.7729116425546
 20
586.0434066813192
 30
0.0
 11
958.7729116425546
 21
632.0434066813192
 31
0.0
  0
LINE
  5
29BC
330
1F
100
AcDbEntity
  8
10
100
AcDbLine
 10
958.7729116425546
 20
631.5214549853
 30
0.0
 11
958.7729116425546
 21
586.9923712480341
 31
0.0
  0
LINE
  5
29BD
330
1F
100
AcDbEntity
  8
10
100
AcDbLine
 10
958.7729116425546
 20
586.0434066813192
 30
0.0
 11
943.3133854715967
 21
587.0434066813193
 31
0.0
  0
ARC
  5
29BE
330
1F
100
AcDbEntity
  8
10
100
AcDbCircle
 10
968.7729116425542
 20
599.0329854896009
 30
0.0
 40
30.0
100
AcDbArc
 50
180.0
 51
199.4477664087378
  0
ARC
  5
29BF
330
1F
100
AcDbEntity
  8
10
100
AcDbCircle
 10
943.3133854715967
 20
590.0434066813192
 30
0.0
 40
3.000000000000156
100
AcDbArc
 50
199.4477664087378
 51
270.0
  0
LINE
  5
29C2
330
1F
100
AcDbEntity
  8
10
100
AcDbLine
 10
958.7729116425546
 20
589.0434066813193
 30
0.0
 11
958.7729116425546
 21
589.0607094182033
 31
0.0
  0
LINE
  5
29C4
330
1F
100
AcDbEntity
  8
10
100
AcDbLine
 10
958.7729116425546
 20
632.0434066813192
 30
0.0
 11
948.7554592361172
 21
632.2182619634888
 31
0.0
  0
ARC
  5
29C5
330
1F
100
AcDbEntity
  8
10
100
AcDbCircle
 10
948.7729116425546
 20
633.2181096586452
 30
0.0
 40
1.0
100
AcDbArc
 50
180.0
 51
268.9999999999981
  0
LINE
  5
29C6
330
1F
100
AcDbEntity
  8
10
100
AcDbLine
 10
952.2729116425546
 20
643.8452510956587
 30
0.0
 11
952.2729116425546
 21
646.4952510956586
 31
0.0
  0
LINE
  5
29C7
330
1F
100
AcDbEntity
  8
10
100
AcDbLine
 10
952.2729116425546
 20
655.4952510956588
 30
0.0
 11
952.2729116425546
 21
657.4952510956586
 31
0.0
  0
LINE
  5
29C8
330
1F
100
AcDbEntity
  8
10
100
AcDbLine
 10
952.2729116425546
 20
666.4952510956585
 30
0.0
 11
952.2729116425546
 21
668.4952510956585
 31
0.0
  0
LINE
  5
29C9
330
1F
100
AcDbEntity
  8
10
100
AcDbLine
 10
952.2729116425546
 20
677.4952510956583
 30
0.0
 11
952.2729116425546
 21
680.1452510956585
 31
0.0
  0
ARC
  5
29CA
330
1F
100
AcDbEntity
  8
10
100
AcDbCircle
 10
958.0729116425546
 20
692.1282910199496
 30
0.0
 40
2.5
100
AcDbArc
 50
180.0
 51
239.3967053917898
  0
LINE
  5
29CB
330
1F
100
AcDbEntity
  8
10
100
AcDbLine
 10
955.2729116425542
 20
805.7828752865303
 30
0.0
 11
955.2729116425542
 21
748.2076269047864
 31
0.0
  0
LINE
  5
29CC
330
1F
100
AcDbEntity
  8
10
100
AcDbLine
 10
953.272911642554
 20
806.7318398532451
 30
0.0
 11
953.272911642554
 21
747.2586623380713
 31
0.0
  0
LINE
  5
29CD
330
1F
100
AcDbEntity
  8
10
100
AcDbLine
 10
956.172911642554
 20
804.4952510956584
 30
0.0
 11
956.172911642554
 21
749.4952510956583
 31
0.0
  0
LINE
  5
29CE
330
1F
100
AcDbEntity
  8
10
100
AcDbLine
 10
958.7729116425546
 20
732.5434066813193
 30
0.0
 11
948.5140925974519
 21
729.7945644028868
 31
0.0
  0
ARC
  5
29CF
330
1F
100
AcDbEntity
  8
10
100
AcDbCircle
 10
957.5729116425543
 20
694.4952510956584
 30
0.0
 40
1.999999999999995
100
AcDbArc
 50
90.0
 51
180.0
  0
ARC
  5
29D0
330
1F
100
AcDbEntity
  8
10
100
AcDbCircle
 10
958.0729116425546
 20
696.8622111713671
 30
0.0
 40
2.500000000000019
100
AcDbArc
 50
120.6032946082065
 51
180.0
  0
ARC
  5
29D1
330
1F
100
AcDbEntity
  8
10
100
AcDbCircle
 10
948.7729116425546
 20
728.8286385765977
 30
0.0
 40
0.9999999999999744
100
AcDbArc
 50
104.9999999999944
 51
180.0
  0
ARC
  5
29D2
330
1F
100
AcDbEntity
  8
10
100
AcDbCircle
 10
957.5729116425543
 20
718.4952510956584
 30
0.0
 40
2.000000000000025
100
AcDbArc
 50
90.0
 51
180.0
  0
ARC
  5
29D3
330
1F
100
AcDbEntity
  8
10
100
AcDbCircle
 10
957.5729116425543
 20
718.4952510956584
 30
0.0
 40
2.0
100
AcDbArc
 50
180.0
 51
270.0
  0
ARC
  5
29D4
330
1F
100
AcDbEntity
  8
10
100
AcDbCircle
 10
958.0729116425546
 20
720.8622111713672
 30
0.0
 40
2.500000000000031
100
AcDbArc
 50
120.6032946082065
 51
180.0
  0
LINE
  5
29D5
330
1F
100
AcDbEntity
  8
10
100
AcDbLine
 10
955.5729116425546
 20
720.8622111713672
 30
0.0
 11
955.5729116425546
 21
716.1282910199495
 31
0.0
  0
ARC
  5
29D6
330
1F
100
AcDbEntity
  8
10
100
AcDbCircle
 10
958.0729116425546
 20
716.1282910199495
 30
0.0
 40
2.5
100
AcDbArc
 50
180.0
 51
239.3967053917898
  0
LINE
  5
29D7
330
1F
100
AcDbEntity
  8
10
100
AcDbLine
 10
940.9964545072467
 20
735.2802193476271
 30
0.0
 11
958.7729116425546
 21
740.0434066813194
 31
0.0
  0
ARC
  5
29D8
330
1F
100
AcDbEntity
  8
10
100
AcDbCircle
 10
941.7729116425546
 20
732.3824418687599
 30
0.0
 40
3.000000000000069
100
AcDbArc
 50
104.999999999998
 51
180.0
  0
LINE
  5
29D9
330
1F
100
AcDbEntity
  8
10
100
AcDbLine
 10
958.772911642554
 20
748.024199677296
 30
0.0
 11
958.772911642554
 21
749.4952510956583
 31
0.0
  0
LINE
  5
29DA
330
1F
100
AcDbEntity
  8
10
100
AcDbLine
 10
957.1748354312013
 20
748.1079513026579
 30
0.0
 11
957.1748354312013
 21
749.4952510956583
 31
0.0
  0
ARC
  5
29DB
330
1F
100
AcDbEntity
  8
10
100
AcDbCircle
 10
954.272911642554
 20
747.2586623380713
 30
0.0
 40
1.0
100
AcDbArc
 50
180.0
 51
266.9999999999943
  0
LINE
  5
29DC
330
1F
100
AcDbEntity
  8
10
100
AcDbLine
 10
958.7729116425546
 20
740.0434066813194
 30
0.0
 11
958.7729116425546
 21
732.5434066813193
 31
0.0
  0
LINE
  5
29DD
330
1F
100
AcDbEntity
  8
10
100
AcDbLine
 10
958.7729116425546
 20
739.8688693255043
 30
0.0
 11
958.7729116425546
 21
733.0214549853
 31
0.0
  0
ARC
  5
29DE
330
1F
100
AcDbEntity
  8
10
100
AcDbCircle
 10
954.272911642554
 20
806.7318398532451
 30
0.0
 40
1.000000000000065
100
AcDbArc
 50
93.00000000000556
 51
180.0
  0
LINE
  5
29DF
330
1F
100
AcDbEntity
  8
10
100
AcDbLine
 10
957.1748354312013
 20
804.4952510956584
 30
0.0
 11
957.1748354312013
 21
805.8825508886588
 31
0.0
  0
LINE
  5
29E0
330
1F
100
AcDbEntity
  8
10
100
AcDbLine
 10
958.772911642554
 20
804.4952510956584
 30
0.0
 11
958.772911642554
 21
805.966302514021
 31
0.0
  0
LINE
  5
29E1
330
1F
100
AcDbEntity
  8
10
100
AcDbLine
 10
957.9800184237408
 20
827.7881443144718
 30
0.0
 11
956.5658048613675
 21
829.202357876845
 31
0.0
  0
ARC
  5
29E2
330
1F
100
AcDbEntity
  8
10
100
AcDbCircle
 10
958.6871252049272
 20
828.4952510956582
 30
0.0
 40
1.000000000000007
100
AcDbArc
 50
224.9999999999908
 51
270.0
  0
LINE
  5
29E3
330
1F
100
AcDbEntity
  8
10
100
AcDbLine
 10
956.272911642554
 20
841.9575167017157
 30
0.0
 11
956.272911642554
 21
829.9094646580313
 31
0.0
  0
ARC
  5
29E4
330
1F
100
AcDbEntity
  8
10
100
AcDbCircle
 10
957.272911642554
 20
829.9094646580313
 30
0.0
 40
1.0
100
AcDbArc
 50
180.0
 51
225.0
  0
LINE
  5
29E7
330
1F
100
AcDbEntity
  8
12
 48
3.0
100
AcDbLine
 10
648.7729116425547
 20
876.9952510956589
 30
0.0
 11
718.7729116425543
 21
876.9952510956589
 31
0.0
  0
LINE
  5
29E8
330
1F
100
AcDbEntity
  8
10
100
AcDbLine
 10
669.7729116425547
 20
854.4952510956587
 30
0.0
 11
727.7729116425547
 21
854.4952510956587
 31
0.0
  0
CIRCLE
  5
29E9
330
1F
100
AcDbEntity
  8
12
100
AcDbCircle
 10
653.7729116425544
 20
876.9952510956589
 30
0.0
 40
2.999999999999993
  0
LINE
  5
29EA
330
1F
100
AcDbEntity
  8
10
100
AcDbLine
 10
651.7729116425546
 20
864.9952510956589
 30
0.0
 11
651.7729116425546
 21
854.9952510956584
 31
0.0
  0
LINE
  5
29EB
330
1F
100
AcDbEntity
  8
12
 48
3.0
100
AcDbLine
 10
653.7729116425547
 20
881.9952510956589
 30
0.0
 11
653.7729116425547
 21
871.9952510956588
 31
0.0
  0
LINE
  5
29ED
330
1F
100
AcDbEntity
  8
10
100
AcDbLine
 10
678.1729116425548
 20
853.5781508697255
 30
0.0
 11
688.1729116425548
 21
853.5781508697255
 31
0.0
  0
LINE
  5
29EE
330
1F
100
AcDbEntity
  8
10
100
AcDbLine
 10
678.6729116425548
 20
854.1043188478472
 30
0.0
 11
687.6729116425549
 21
854.1043188478472
 31
0.0
  0
LINE
  5
29EF
330
1F
100
AcDbEntity
  8
10
100
AcDbLine
 10
678.6729116425548
 20
854.2091344064127
 30
0.0
 11
687.6729116425549
 21
854.2091344064127
 31
0.0
  0
LINE
  5
29F0
330
1F
100
AcDbEntity
  8
10
100
AcDbLine
 10
678.6729116425548
 20
854.3139499649791
 30
0.0
 11
687.6729116425549
 21
854.3139499649791
 31
0.0
  0
LINE
  5
29F1
330
1F
100
AcDbEntity
  8
10
100
AcDbLine
 10
673.8729116425547
 20
853.8401538546208
 30
0.0
 11
678.1735987585152
 21
853.8401538546208
 31
0.0
  0
LINE
  5
29F2
330
1F
100
AcDbEntity
  8
10
100
AcDbLine
 10
673.7729116425547
 20
853.8925616339039
 30
0.0
 11
678.1791301063377
 21
853.8925616339039
 31
0.0
  0
LINE
  5
29F3
330
1F
100
AcDbEntity
  8
10
100
AcDbLine
 10
673.7729116425547
 20
851.6922871647038
 30
0.0
 11
673.8729116425547
 21
851.6922871647038
 31
0.0
  0
ARC
  5
29F4
330
1F
100
AcDbEntity
  8
10
100
AcDbCircle
 10
669.7729116425547
 20
853.4952510956589
 30
0.0
 40
0.9999999999999978
100
AcDbArc
 50
90.0
 51
180.0
  0
ARC
  5
29F5
330
1F
100
AcDbEntity
  8
10
100
AcDbCircle
 10
678.6729116425548
 20
853.8139499649792
 30
0.0
 40
0.4999999999999682
100
AcDbArc
 50
90.0
 51
180.0
  0
ARC
  5
29F6
330
1F
100
AcDbEntity
  8
10
100
AcDbCircle
 10
678.6729116425548
 20
853.709134406413
 30
0.0
 40
0.4999999999999682
100
AcDbArc
 50
90.0
 51
180.0
  0
ARC
  5
29F7
330
1F
100
AcDbEntity
  8
10
100
AcDbCircle
 10
678.6729116425548
 20
853.6043188478471
 30
0.0
 40
0.5000000000000299
100
AcDbArc
 50
90.0
 51
180.0
  0
LINE
  5
29F8
330
1F
100
AcDbEntity
  8
10
100
AcDbLine
 10
678.1729116425548
 20
853.5781508697255
 30
0.0
 11
678.1729116425548
 21
853.8139499649792
 31
0.0
  0
LINE
  5
29F9
330
1F
100
AcDbEntity
  8
10
100
AcDbLine
 10
688.1722245265939
 20
853.8401538546208
 30
0.0
 11
692.4729116425549
 21
853.8401538546208
 31
0.0
  0
ARC
  5
29FA
330
1F
100
AcDbEntity
  8
10
100
AcDbCircle
 10
687.6729116425549
 20
853.8139499649792
 30
0.0
 40
0.4999999999999981
100
AcDbArc
 50
0.0
 51
90.0
  0
ARC
  5
29FB
330
1F
100
AcDbEntity
  8
10
100
AcDbCircle
 10
687.6729116425549
 20
853.709134406413
 30
0.0
 40
0.4999999999999981
100
AcDbArc
 50
0.0
 51
90.0
  0
ARC
  5
29FC
330
1F
100
AcDbEntity
  8
10
100
AcDbCircle
 10
687.6729116425549
 20
853.6043188478471
 30
0.0
 40
0.4999999999999981
100
AcDbArc
 50
0.0
 51
90.0
  0
LINE
  5
29FD
330
1F
100
AcDbEntity
  8
10
100
AcDbLine
 10
688.1729116425548
 20
853.5781508697255
 30
0.0
 11
688.1729116425548
 21
853.8139499649792
 31
0.0
  0
LINE
  5
29FE
330
1F
100
AcDbEntity
  8
10
100
AcDbLine
 10
692.4729116425549
 20
851.6922871647038
 30
0.0
 11
692.5729116425546
 21
851.6922871647038
 31
0.0
  0
LINE
  5
29FF
330
1F
100
AcDbEntity
  8
10
100
AcDbLine
 10
688.1666931787718
 20
853.8925616339039
 30
0.0
 11
692.5729116425546
 21
853.8925616339039
 31
0.0
  0
LINE
  5
2A03
330
1F
100
AcDbEntity
  8
10
100
AcDbLine
 10
715.7729116425546
 20
864.9952510956589
 30
0.0
 11
728.7729116425546
 21
864.9952510956589
 31
0.0
  0
LINE
  5
2A04
330
1F
100
AcDbEntity
  8
10
100
AcDbLine
 10
715.7729116425546
 20
864.9952510956589
 30
0.0
 11
715.7729116425546
 21
854.9952510956584
 31
0.0
  0
CIRCLE
  5
2A05
330
1F
100
AcDbEntity
  8
12
100
AcDbCircle
 10
713.7729116425543
 20
876.9952510956589
 30
0.0
 40
2.999999999999993
  0
LINE
  5
2A06
330
1F
100
AcDbEntity
  8
12
 48
3.0
100
AcDbLine
 10
713.7729116425543
 20
881.9952510956589
 30
0.0
 11
713.7729116425543
 21
871.9952510956588
 31
0.0
  0
LINE
  5
2A08
330
1F
100
AcDbEntity
  8
10
100
AcDbLine
 10
726.7729116425546
 20
864.9952510956589
 30
0.0
 11
726.7729116425546
 21
869.9952510956588
 31
0.0
  0
LINE
  5
2A09
330
1F
100
AcDbEntity
  8
10
100
AcDbLine
 10
725.7729116425547
 20
864.9952510956589
 30
0.0
 11
725.7729116425547
 21
854.9952510956584
 31
0.0
  0
LINE
  5
2A0A
330
1F
100
AcDbEntity
  8
10
100
AcDbLine
 10
727.0429116425548
 20
854.9952510956584
 30
0.0
 11
725.7729116425547
 21
864.9952510956589
 31
0.0
  0
ARC
  5
2A0B
330
1F
100
AcDbEntity
  8
10
100
AcDbCircle
 10
727.7729116425547
 20
853.4952510956589
 30
0.0
 40
0.9999999999999978
100
AcDbArc
 50
0.0
 51
90.0
  0
LINE
  5
2A0C
330
1F
100
AcDbEntity
  8
10
100
AcDbLine
 10
726.7729116425546
 20
869.9952510956588
 30
0.0
 11
728.7729116425546
 21
867.9952510956587
 31
0.0
  0
LINE
  5
2A0D
330
1F
100
AcDbEntity
  8
10
100
AcDbLine
 10
736.7729116425545
 20
882.9952510956585
 30
0.0
 11
738.7729116425543
 21
882.9952510956585
 31
0.0
  0
LINE
  5
2A0E
330
1F
100
AcDbEntity
  8
10
100
AcDbLine
 10
736.4729116425543
 20
867.6952510956587
 30
0.0
 11
738.7729116425543
 21
867.6952510956587
 31
0.0
  0
LINE
  5
2A0F
330
1F
100
AcDbEntity
  8
10
100
AcDbLine
 10
736.4729116425543
 20
882.9952510956585
 30
0.0
 11
734.4729116425543
 21
884.9952510956587
 31
0.0
  0
LINE
  5
2A13
330
1F
100
AcDbEntity
  8
10
100
AcDbLine
 10
1148.772911642554
 20
572.2952510956583
 30
0.0
 11
1212.772911642554
 21
556.9952510956583
 31
0.0
  0
LINE
  5
2A14
330
1F
100
AcDbEntity
  8
10
100
AcDbLine
 10
1148.772911642554
 20
867.6952510956585
 30
0.0
 11
1212.772911642554
 21
882.9952510956585
 31
0.0
  0
LINE
  5
2A15
330
1F
100
AcDbEntity
  8
10
 48
3.0
100
AcDbLine
 10
1154.222911642553
 20
594.1952510956585
 30
0.0
 11
1234.222911642554
 21
594.1952510956585
 31
0.0
  0
LINE
  5
2A16
330
1F
100
AcDbEntity
  8
10
 48
3.0
100
AcDbLine
 10
1154.222911642553
 20
632.1952510956585
 30
0.0
 11
1234.222911642554
 21
632.1952510956585
 31
0.0
  0
LINE
  5
2A17
330
1F
100
AcDbEntity
  8
10
100
AcDbLine
 10
1138.772911642554
 20
569.9952510956583
 30
0.0
 11
1138.772911642554
 21
869.9952510956585
 31
0.0
  0
LINE
  5
2A18
330
1F
100
AcDbEntity
  8
10
100
AcDbLine
 10
1138.772911642554
 20
569.9952510956583
 30
0.0
 11
1138.772911642554
 21
869.9952510956585
 31
0.0
  0
LINE
  5
2A19
330
1F
100
AcDbEntity
  8
10
100
AcDbLine
 10
1134.772911642554
 20
569.9952510956583
 30
0.0
 11
1134.772911642554
 21
869.9952510956585
 31
0.0
  0
LINE
  5
2A1A
330
1F
100
AcDbEntity
  8
10
100
AcDbLine
 10
978.7729116425539
 20
854.9952510956584
 30
0.0
 11
978.7729116425539
 21
740.4952510956584
 31
0.0
  0
LINE
  5
2A1B
330
1F
100
AcDbEntity
  8
10
100
AcDbLine
 10
1134.272911642554
 20
864.9952510956584
 30
0.0
 11
1134.272911642554
 21
752.4952510956584
 31
0.0
  0
LINE
  5
2A1C
330
1F
100
AcDbEntity
  8
10
100
AcDbLine
 10
978.7729116425539
 20
854.9952510956584
 30
0.0
 11
978.7729116425539
 21
644.9952510956583
 31
0.0
  0
LINE
  5
2A1D
330
1F
100
AcDbEntity
  8
10
100
AcDbLine
 10
1129.772911642554
 20
574.9952510956585
 30
0.0
 11
986.7662490754334
 21
584.9952510956582
 31
0.0
  0
ARC
  5
2A1E
330
1F
100
AcDbEntity
  8
10
100
AcDbCircle
 10
1059.772911642553
 20
833.7452510956534
 30
0.0
 40
1.250000000000011
100
AcDbArc
 50
0.0
 51
180.0
  0
ARC
  5
2A1F
330
1F
100
AcDbEntity
  8
10
100
AcDbCircle
 10
1059.772911642553
 20
606.2452510956585
 30
0.0
 40
1.249999999999998
100
AcDbArc
 50
180.0
 51
0.0
  0
LINE
  5
2A20
330
1F
100
AcDbEntity
  8
10
100
AcDbLine
 10
1061.022911642554
 20
802.4952510956561
 30
0.0
 11
1058.522911642554
 21
802.4952510956561
 31
0.0
  0
LINE
  5
2A21
330
1F
100
AcDbEntity
  8
10
100
AcDbLine
 10
1061.022911642554
 20
787.4952510956561
 30
0.0
 11
1058.522911642554
 21
787.4952510956561
 31
0.0
  0
LINE
  5
2A22
330
1F
100
AcDbEntity
  8
10
100
AcDbLine
 10
1061.022911642554
 20
752.4952510956561
 30
0.0
 11
1058.522911642554
 21
752.4952510956561
 31
0.0
  0
LINE
  5
2A23
330
1F
100
AcDbEntity
  8
10
100
AcDbLine
 10
1061.022911642554
 20
737.4952510956562
 30
0.0
 11
1058.522911642554
 21
737.4952510956562
 31
0.0
  0
LINE
  5
2A24
330
1F
100
AcDbEntity
  8
10
100
AcDbLine
 10
1061.022911642554
 20
702.4952510956563
 30
0.0
 11
1058.522911642554
 21
702.4952510956563
 31
0.0
  0
LINE
  5
2A25
330
1F
100
AcDbEntity
  8
10
100
AcDbLine
 10
1061.022911642554
 20
687.4952510956562
 30
0.0
 11
1058.522911642554
 21
687.4952510956562
 31
0.0
  0
LINE
  5
2A26
330
1F
100
AcDbEntity
  8
10
100
AcDbLine
 10
1061.022911642554
 20
637.4952510956562
 30
0.0
 11
1058.522911642554
 21
637.4952510956562
 31
0.0
  0
LINE
  5
2A27
330
1F
100
AcDbEntity
  8
10
100
AcDbLine
 10
1061.022911642554
 20
652.4952510956563
 30
0.0
 11
1058.522911642554
 21
652.4952510956563
 31
0.0
  0
LINE
  5
2A28
330
1F
100
AcDbEntity
  8
10
100
AcDbLine
 10
959.4729116425543
 20
686.2952510956586
 30
0.0
 11
959.4729116425543
 21
702.6952510956586
 31
0.0
  0
LINE
  5
2A29
330
1F
100
AcDbEntity
  8
10
100
AcDbLine
 10
961.7729116425543
 20
685.9952510956583
 30
0.0
 11
961.7729116425543
 21
702.9952510956584
 31
0.0
  0
LINE
  5
2A2A
330
1F
100
AcDbEntity
  8
10
100
AcDbLine
 10
1033.522911642553
 20
606.2452510956585
 30
0.0
 11
1033.522911642553
 21
833.7452510956534
 31
0.0
  0
LINE
  5
2A2B
330
1F
100
AcDbEntity
  8
10
100
AcDbLine
 10
1021.022911642554
 20
606.2452510956585
 30
0.0
 11
1021.022911642554
 21
833.7452510956534
 31
0.0
  0
LINE
  5
2A2C
330
1F
100
AcDbEntity
  8
10
100
AcDbLine
 10
1011.022911642554
 20
606.2452510956585
 30
0.0
 11
1011.022911642554
 21
833.7452510956534
 31
0.0
  0
LINE
  5
2A2D
330
1F
100
AcDbEntity
  8
10
100
AcDbLine
 10
1008.522911642554
 20
606.2452510956585
 30
0.0
 11
1008.522911642554
 21
833.7452510956534
 31
0.0
  0
LINE
  5
2A2E
330
1F
100
AcDbEntity
  8
10
100
AcDbLine
 10
1018.522911642554
 20
606.2452510956585
 30
0.0
 11
1018.522911642554
 21
833.7452510956534
 31
0.0
  0
LINE
  5
2A2F
330
1F
100
AcDbEntity
  8
10
100
AcDbLine
 10
1006.022911642554
 20
606.2452510956585
 30
0.0
 11
1006.022911642554
 21
833.7452510956534
 31
0.0
  0
LINE
  5
2A30
330
1F
100
AcDbEntity
  8
10
100
AcDbLine
 10
996.0229116425546
 20
644.9952510956583
 30
0.0
 11
996.0229116425546
 21
833.7452510956534
 31
0.0
  0
LINE
  5
2A31
330
1F
100
AcDbEntity
  8
10
100
AcDbLine
 10
1031.022911642553
 20
606.2452510956585
 30
0.0
 11
1031.022911642553
 21
833.7452510956534
 31
0.0
  0
LINE
  5
2A32
330
1F
100
AcDbEntity
  8
10
100
AcDbLine
 10
998.5229116425546
 20
644.9952510956583
 30
0.0
 11
998.5229116425546
 21
833.7452510956534
 31
0.0
  0
LINE
  5
2A33
330
1F
100
AcDbEntity
  8
10
100
AcDbLine
 10
1003.522911642554
 20
606.2452510956585
 30
0.0
 11
1003.522911642554
 21
833.7452510956534
 31
0.0
  0
LINE
  5
2A34
330
1F
100
AcDbEntity
  8
10
100
AcDbLine
 10
1016.022911642554
 20
606.2452510956585
 30
0.0
 11
1016.022911642554
 21
833.7452510956534
 31
0.0
  0
LINE
  5
2A35
330
1F
100
AcDbEntity
  8
10
100
AcDbLine
 10
993.5229116425542
 20
644.9952510956583
 30
0.0
 11
993.5229116425542
 21
833.7452510956534
 31
0.0
  0
LINE
  5
2A36
330
1F
100
AcDbEntity
  8
10
100
AcDbLine
 10
1001.022911642553
 20
644.9952510956583
 30
0.0
 11
1001.022911642553
 21
833.7452510956534
 31
0.0
  0
LINE
  5
2A37
330
1F
100
AcDbEntity
  8
10
100
AcDbLine
 10
991.0229116425542
 20
644.9952510956583
 30
0.0
 11
991.0229116425542
 21
833.7452510956534
 31
0.0
  0
LINE
  5
2A38
330
1F
100
AcDbEntity
  8
10
100
AcDbLine
 10
988.5229116425547
 20
644.9952510956583
 30
0.0
 11
988.5229116425547
 21
833.7452510956534
 31
0.0
  0
LINE
  5
2A39
330
1F
100
AcDbEntity
  8
10
100
AcDbLine
 10
1013.522911642554
 20
606.2452510956585
 30
0.0
 11
1013.522911642554
 21
833.7452510956534
 31
0.0
  0
LINE
  5
2A3A
330
1F
100
AcDbEntity
  8
10
100
AcDbLine
 10
1028.522911642553
 20
606.2452510956585
 30
0.0
 11
1028.522911642553
 21
833.7452510956534
 31
0.0
  0
LINE
  5
2A3B
330
1F
100
AcDbEntity
  8
10
100
AcDbLine
 10
1036.022911642554
 20
606.2452510956585
 30
0.0
 11
1036.022911642554
 21
833.7452510956534
 31
0.0
  0
LINE
  5
2A3C
330
1F
100
AcDbEntity
  8
10
100
AcDbLine
 10
1026.022911642554
 20
606.2452510956585
 30
0.0
 11
1026.022911642554
 21
833.7452510956534
 31
0.0
  0
LINE
  5
2A3D
330
1F
100
AcDbEntity
  8
10
100
AcDbLine
 10
1023.522911642554
 20
606.2452510956585
 30
0.0
 11
1023.522911642554
 21
833.7452510956534
 31
0.0
  0
LINE
  5
2A3E
330
1F
100
AcDbEntity
  8
10
100
AcDbLine
 10
983.5229116425546
 20
644.9952510956583
 30
0.0
 11
983.5229116425546
 21
833.7452510956534
 31
0.0
  0
LINE
  5
2A3F
330
1F
100
AcDbEntity
  8
10
100
AcDbLine
 10
986.0229116425546
 20
644.9952510956583
 30
0.0
 11
986.0229116425546
 21
833.7452510956534
 31
0.0
  0
LINE
  5
2A40
330
1F
100
AcDbEntity
  8
10
100
AcDbLine
 10
1038.522911642554
 20
606.2452510956585
 30
0.0
 11
1038.522911642554
 21
833.7452510956534
 31
0.0
  0
LINE
  5
2A41
330
1F
100
AcDbEntity
  8
10
100
AcDbLine
 10
1041.022911642554
 20
606.2452510956585
 30
0.0
 11
1041.022911642554
 21
833.7452510956534
 31
0.0
  0
LINE
  5
2A42
330
1F
100
AcDbEntity
  8
10
100
AcDbLine
 10
978.2729116425528
 20
740.0390432474238
 30
0.0
 11
978.2729116425535
 21
644.9952510956583
 31
0.0
  0
LINE
  5
2A43
330
1F
100
AcDbEntity
  8
10
100
AcDbLine
 10
1043.522911642553
 20
606.2452510956585
 30
0.0
 11
1043.522911642553
 21
833.7452510956534
 31
0.0
  0
LINE
  5
2A44
330
1F
100
AcDbEntity
  8
10
100
AcDbLine
 10
1046.022911642553
 20
606.2452510956585
 30
0.0
 11
1046.022911642553
 21
833.7452510956534
 31
0.0
  0
LINE
  5
2A45
330
1F
100
AcDbEntity
  8
10
100
AcDbLine
 10
1048.522911642554
 20
606.2452510956585
 30
0.0
 11
1048.522911642554
 21
833.7452510956534
 31
0.0
  0
LINE
  5
2A46
330
1F
100
AcDbEntity
  8
10
100
AcDbLine
 10
1051.022911642554
 20
606.2452510956585
 30
0.0
 11
1051.022911642554
 21
833.7452510956534
 31
0.0
  0
LINE
  5
2A47
330
1F
100
AcDbEntity
  8
10
100
AcDbLine
 10
1053.522911642553
 20
606.2452510956585
 30
0.0
 11
1053.522911642553
 21
833.7452510956534
 31
0.0
  0
LINE
  5
2A48
330
1F
100
AcDbEntity
  8
10
100
AcDbLine
 10
1056.022911642553
 20
606.2452510956585
 30
0.0
 11
1056.022911642553
 21
833.7452510956534
 31
0.0
  0
LINE
  5
2A49
330
1F
100
AcDbEntity
  8
10
100
AcDbLine
 10
1058.522911642554
 20
606.2452510956585
 30
0.0
 11
1058.522911642554
 21
833.7452510956534
 31
0.0
  0
LINE
  5
2A4A
330
1F
100
AcDbEntity
  8
10
100
AcDbLine
 10
969.7729116425547
 20
732.5214549852997
 30
0.0
 11
969.7729116425547
 21
632.5214549852999
 31
0.0
  0
ARC
  5
2A4B
330
1F
100
AcDbEntity
  8
10
100
AcDbCircle
 10
1009.772911642554
 20
606.2452510956585
 30
0.0
 40
1.249999999999998
100
AcDbArc
 50
180.0
 51
0.0
  0
LINE
  5
2A4C
330
1F
100
AcDbEntity
  8
10
100
AcDbLine
 10
1011.022911642554
 20
687.4952510956562
 30
0.0
 11
1008.522911642554
 21
687.4952510956562
 31
0.0
  0
LINE
  5
2A4D
330
1F
100
AcDbEntity
  8
10
100
AcDbLine
 10
1011.022911642554
 20
637.4952510956562
 30
0.0
 11
1008.522911642554
 21
637.4952510956562
 31
0.0
  0
LINE
  5
2A4E
330
1F
100
AcDbEntity
  8
10
100
AcDbLine
 10
1011.022911642554
 20
652.4952510956563
 30
0.0
 11
1008.522911642554
 21
652.4952510956563
 31
0.0
  0
TEXT
  5
2A4F
330
1F
100
AcDbEntity
  8
10
100
AcDbText
 10
974.2729005536496
 20
625.2080147339043
 30
0.0
 40
6.808510739752588
  1
ＮＰ
 50
269.999994991043
 41
0.7031250019402551
  7
STANDARD1
100
AcDbText
  0
LINE
  5
2A50
330
1F
100
AcDbEntity
  8
10
100
AcDbLine
 10
1002.772911642554
 20
595.4952510956583
 30
0.0
 11
1002.772911642554
 21
644.4952510956583
 31
0.0
  0
LINE
  5
2A51
330
1F
100
AcDbEntity
  8
10
100
AcDbLine
 10
972.7729116425543
 20
595.4952510956583
 30
0.0
 11
972.7729116425543
 21
644.4952510956583
 31
0.0
  0
LINE
  5
2A52
330
1F
100
AcDbEntity
  8
10
100
AcDbLine
 10
973.2729116425543
 20
594.9952510956583
 30
0.0
 11
1002.272911642554
 21
594.9952510956583
 31
0.0
  0
LINE
  5
2A53
330
1F
100
AcDbEntity
  8
10
100
AcDbLine
 10
978.7729116425543
 20
584.9952510956582
 30
0.0
 11
986.7662490754334
 21
584.9952510956582
 31
0.0
  0
LINE
  5
2A54
330
1F
100
AcDbEntity
  8
10
100
AcDbLine
 10
959.7205756863116
 20
585.9937417132796
 30
0.0
 11
978.272911642554
 21
585.0214549852998
 31
0.0
  0
ARC
  5
2A56
330
1F
100
AcDbEntity
  8
10
100
AcDbCircle
 10
973.2729116425543
 20
595.4952510956583
 30
0.0
 40
0.4999999999999981
100
AcDbArc
 50
180.0
 51
270.0
  0
LINE
  5
2A57
330
1F
100
AcDbEntity
  8
10
100
AcDbLine
 10
978.7729116425539
 20
594.9952510956583
 30
0.0
 11
978.7729116425539
 21
584.9952510956582
 31
0.0
  0
LINE
  5
2A58
330
1F
100
AcDbEntity
  8
10
100
AcDbLine
 10
978.272911642554
 20
594.9952510956583
 30
0.0
 11
978.272911642554
 21
585.0214549852998
 31
0.0
  0
LINE
  5
2A59
330
1F
100
AcDbEntity
  8
10
100
AcDbLine
 10
978.272911642554
 20
585.4952510956583
 30
0.0
 11
978.7729116425539
 21
585.4952510956583
 31
0.0
  0
ARC
  5
2A5A
330
1F
100
AcDbEntity
  8
10
100
AcDbCircle
 10
1002.272911642554
 20
595.4952510956583
 30
0.0
 40
0.5000000000000001
100
AcDbArc
 50
270.0
 51
0.0
  0
ARC
  5
2A5B
330
1F
100
AcDbEntity
  8
10
100
AcDbCircle
 10
1004.772911642554
 20
606.2452510956585
 30
0.0
 40
1.250000000000004
100
AcDbArc
 50
180.0
 51
0.0
  0
LINE
  5
2A5C
330
1F
100
AcDbEntity
  8
10
100
AcDbLine
 10
973.2729116425543
 20
644.9952510956583
 30
0.0
 11
1002.272911642554
 21
644.9952510956583
 31
0.0
  0
LINE
  5
2A5D
330
1F
100
AcDbEntity
  8
10
100
AcDbLine
 10
986.0229116425546
 20
687.4952510956562
 30
0.0
 11
983.5229116425546
 21
687.4952510956562
 31
0.0
  0
LINE
  5
2A5E
330
1F
100
AcDbEntity
  8
10
100
AcDbLine
 10
986.0229116425546
 20
652.4952510956563
 30
0.0
 11
983.5229116425546
 21
652.4952510956563
 31
0.0
  0
LINE
  5
2A5F
330
1F
100
AcDbEntity
  8
10
100
AcDbLine
 10
964.2729116425542
 20
646.4952510956586
 30
0.0
 11
964.2729116425542
 21
655.4952510956588
 31
0.0
  0
LINE
  5
2A60
330
1F
100
AcDbEntity
  8
10
100
AcDbLine
 10
969.2729116425546
 20
632.0214549852997
 30
0.0
 11
959.2729116425543
 21
632.0214549852997
 31
0.0
  0
ARC
  5
2A61
330
1F
100
AcDbEntity
  8
10
100
AcDbCircle
 10
969.2729116425546
 20
632.5214549852999
 30
0.0
 40
0.4999999999999981
100
AcDbArc
 50
270.0
 51
0.0
  0
LINE
  5
2A62
330
1F
100
AcDbEntity
  8
10
100
AcDbLine
 10
963.2729116425542
 20
655.2952510956586
 30
0.0
 11
964.2729116425542
 21
655.2952510956586
 31
0.0
  0
LINE
  5
2A63
330
1F
100
AcDbEntity
  8
10
100
AcDbLine
 10
964.2729116425542
 20
646.6952510956587
 30
0.0
 11
963.2729116425542
 21
646.6952510956587
 31
0.0
  0
LINE
  5
2A64
330
1F
100
AcDbEntity
  8
10
100
AcDbLine
 10
963.2729116425542
 20
646.6952510956587
 30
0.0
 11
963.2729116425542
 21
655.2952510956586
 31
0.0
  0
LINE
  5
2A65
330
1F
100
AcDbEntity
  8
10
100
AcDbLine
 10
963.2729116425542
 20
647.4952510956586
 30
0.0
 11
963.2729116425542
 21
654.4952510956586
 31
0.0
  0
LINE
  5
2A66
330
1F
100
AcDbEntity
  8
10
100
AcDbLine
 10
963.2729116425542
 20
654.4952510956586
 30
0.0
 11
963.2729116425542
 21
654.7952510956587
 31
0.0
  0
ARC
  5
2A67
330
1F
100
AcDbEntity
  8
10
100
AcDbCircle
 10
963.2729116425542
 20
650.9952510956586
 30
0.0
 40
3.500000000000147
100
AcDbArc
 50
236.6329870307671
 51
270.0
  0
ARC
  5
2A68
330
1F
100
AcDbEntity
  8
10
100
AcDbCircle
 10
963.2729116425542
 20
650.9952510956586
 30
0.0
 40
3.500000000000006
100
AcDbArc
 50
90.0
 51
123.3670129692327
  0
LINE
  5
2A69
330
1F
100
AcDbEntity
  8
10
100
AcDbLine
 10
960.6729116425546
 20
652.6655804045077
 30
0.0
 11
960.6729116425546
 21
649.3249217868098
 31
0.0
  0
ARC
  5
2A6A
330
1F
100
AcDbEntity
  8
10
100
AcDbCircle
 10
962.1729116425546
 20
652.6655804045077
 30
0.0
 40
1.50000000000022
100
AcDbArc
 50
123.3670129692399
 51
180.0
  0
ARC
  5
2A6B
330
1F
100
AcDbEntity
  8
10
100
AcDbCircle
 10
962.1729116425546
 20
649.3249217868098
 30
0.0
 40
1.5
100
AcDbArc
 50
180.0
 51
236.63298703076
  0
ARC
  5
2A6C
330
1F
100
AcDbEntity
  8
10
100
AcDbCircle
 10
962.1729116425546
 20
650.9952510956586
 30
0.0
 40
1.500000000000011
100
AcDbArc
 50
90.0
 51
180.0
  0
LINE
  5
2A6D
330
1F
100
AcDbEntity
  8
10
100
AcDbLine
 10
960.6729116425546
 20
650.9952510956586
 30
0.0
 11
960.6729116425546
 21
650.9952510956586
 31
0.0
  0
ARC
  5
2A6E
330
1F
100
AcDbEntity
  8
10
100
AcDbCircle
 10
962.1729116425546
 20
650.9952510956586
 30
0.0
 40
1.5
100
AcDbArc
 50
180.0
 51
270.0
  0
ARC
  5
2A6F
330
1F
100
AcDbEntity
  8
10
100
AcDbCircle
 10
973.2729116425543
 20
644.4952510956583
 30
0.0
 40
0.4999999999999981
100
AcDbArc
 50
90.0
 51
180.0
  0
LINE
  5
2A70
330
1F
100
AcDbEntity
  8
10
100
AcDbLine
 10
963.2729116425542
 20
669.4952510956583
 30
0.0
 11
963.2729116425542
 21
676.4952510956582
 31
0.0
  0
LINE
  5
2A71
330
1F
100
AcDbEntity
  8
10
100
AcDbLine
 10
960.6729116425546
 20
674.6655804045074
 30
0.0
 11
960.6729116425546
 21
671.3249217868093
 31
0.0
  0
ARC
  5
2A72
330
1F
100
AcDbEntity
  8
10
100
AcDbCircle
 10
962.1729116425546
 20
672.9952510956583
 30
0.0
 40
1.499999999999995
100
AcDbArc
 50
90.0
 51
180.0
  0
LINE
  5
2A73
330
1F
100
AcDbEntity
  8
10
100
AcDbLine
 10
963.2729116425542
 20
668.6952510956582
 30
0.0
 11
963.2729116425542
 21
677.2952510956582
 31
0.0
  0
LINE
  5
2A74
330
1F
100
AcDbEntity
  8
10
100
AcDbLine
 10
964.2729116425542
 20
668.4952510956585
 30
0.0
 11
964.2729116425542
 21
677.4952510956583
 31
0.0
  0
LINE
  5
2A75
330
1F
100
AcDbEntity
  8
10
100
AcDbLine
 10
963.2729116425542
 20
665.4952510956583
 30
0.0
 11
963.2729116425542
 21
665.7952510956582
 31
0.0
  0
ARC
  5
2A76
330
1F
100
AcDbEntity
  8
10
100
AcDbCircle
 10
963.2729116425542
 20
661.9952510956585
 30
0.0
 40
3.500000000000147
100
AcDbArc
 50
236.6329870307671
 51
270.0
  0
ARC
  5
2A77
330
1F
100
AcDbEntity
  8
10
100
AcDbCircle
 10
963.2729116425542
 20
661.9952510956585
 30
0.0
 40
3.500000000000006
100
AcDbArc
 50
90.0
 51
123.3670129692327
  0
LINE
  5
2A78
330
1F
100
AcDbEntity
  8
10
100
AcDbLine
 10
960.6729116425546
 20
663.6655804045074
 30
0.0
 11
960.6729116425546
 21
660.3249217868095
 31
0.0
  0
ARC
  5
2A79
330
1F
100
AcDbEntity
  8
10
100
AcDbCircle
 10
962.1729116425546
 20
663.6655804045074
 30
0.0
 40
1.500000000000234
100
AcDbArc
 50
123.3670129692399
 51
180.0
  0
ARC
  5
2A7A
330
1F
100
AcDbEntity
  8
10
100
AcDbCircle
 10
962.1729116425546
 20
660.3249217868095
 30
0.0
 40
1.5
100
AcDbArc
 50
180.0
 51
236.63298703076
  0
ARC
  5
2A7B
330
1F
100
AcDbEntity
  8
10
100
AcDbCircle
 10
962.1729116425546
 20
661.9952510956585
 30
0.0
 40
1.499999999999995
100
AcDbArc
 50
90.0
 51
180.0
  0
LINE
  5
2A7C
330
1F
100
AcDbEntity
  8
10
100
AcDbLine
 10
960.6729116425546
 20
661.9952510956585
 30
0.0
 11
960.6729116425546
 21
661.9952510956585
 31
0.0
  0
ARC
  5
2A7D
330
1F
100
AcDbEntity
  8
10
100
AcDbCircle
 10
962.1729116425546
 20
661.9952510956585
 30
0.0
 40
1.5
100
AcDbArc
 50
180.0
 51
270.0
  0
LINE
  5
2A7E
330
1F
100
AcDbEntity
  8
10
100
AcDbLine
 10
964.2729116425542
 20
657.6952510956584
 30
0.0
 11
963.2729116425542
 21
657.6952510956584
 31
0.0
  0
LINE
  5
2A7F
330
1F
100
AcDbEntity
  8
10
100
AcDbLine
 10
963.2729116425542
 20
657.6952510956584
 30
0.0
 11
963.2729116425542
 21
666.2952510956586
 31
0.0
  0
LINE
  5
2A80
330
1F
100
AcDbEntity
  8
10
100
AcDbLine
 10
963.2729116425542
 20
666.2952510956586
 30
0.0
 11
964.2729116425542
 21
666.2952510956586
 31
0.0
  0
ARC
  5
2A81
330
1F
100
AcDbEntity
  8
10
100
AcDbCircle
 10
963.2729116425542
 20
672.9952510956583
 30
0.0
 40
3.500000000000158
100
AcDbArc
 50
236.6329870307671
 51
270.0
  0
ARC
  5
2A82
330
1F
100
AcDbEntity
  8
10
100
AcDbCircle
 10
962.1729116425546
 20
671.3249217868093
 30
0.0
 40
1.5
100
AcDbArc
 50
180.0
 51
236.63298703076
  0
LINE
  5
2A83
330
1F
100
AcDbEntity
  8
10
100
AcDbLine
 10
960.6729116425546
 20
672.9952510956583
 30
0.0
 11
960.6729116425546
 21
672.9952510956583
 31
0.0
  0
ARC
  5
2A84
330
1F
100
AcDbEntity
  8
10
100
AcDbCircle
 10
962.1729116425546
 20
672.9952510956583
 30
0.0
 40
1.5
100
AcDbArc
 50
180.0
 51
270.0
  0
LINE
  5
2A85
330
1F
100
AcDbEntity
  8
10
100
AcDbLine
 10
964.2729116425542
 20
668.6952510956582
 30
0.0
 11
963.2729116425542
 21
668.6952510956582
 31
0.0
  0
LINE
  5
2A86
330
1F
100
AcDbEntity
  8
10
100
AcDbLine
 10
963.2729116425542
 20
658.4952510956585
 30
0.0
 11
963.2729116425542
 21
665.4952510956583
 31
0.0
  0
LINE
  5
2A87
330
1F
100
AcDbEntity
  8
10
100
AcDbLine
 10
964.2729116425542
 20
657.4952510956583
 30
0.0
 11
964.2729116425542
 21
666.4952510956585
 31
0.0
  0
LINE
  5
2A88
330
1F
100
AcDbEntity
  8
10
100
AcDbLine
 10
959.4729116425543
 20
686.2952510956586
 30
0.0
 11
961.7729116425543
 21
686.2952510956586
 31
0.0
  0
LINE
  5
2A89
330
1F
100
AcDbEntity
  8
10
100
AcDbLine
 10
963.2729116425542
 20
676.4952510956582
 30
0.0
 11
963.2729116425542
 21
676.7952510956583
 31
0.0
  0
ARC
  5
2A8A
330
1F
100
AcDbEntity
  8
10
100
AcDbCircle
 10
963.2729116425542
 20
672.9952510956583
 30
0.0
 40
3.499999999999991
100
AcDbArc
 50
90.0
 51
123.3670129692327
  0
ARC
  5
2A8B
330
1F
100
AcDbEntity
  8
10
100
AcDbCircle
 10
962.1729116425546
 20
674.6655804045074
 30
0.0
 40
1.50000000000022
100
AcDbArc
 50
123.3670129692399
 51
180.0
  0
LINE
  5
2A8C
330
1F
100
AcDbEntity
  8
10
100
AcDbLine
 10
963.2729116425542
 20
677.2952510956582
 30
0.0
 11
964.2729116425542
 21
677.2952510956582
 31
0.0
  0
LINE
  5
2A8D
330
1F
100
AcDbEntity
  8
10
100
AcDbLine
 10
991.0229116425542
 20
652.4952510956563
 30
0.0
 11
988.5229116425547
 21
652.4952510956563
 31
0.0
  0
LINE
  5
2A8E
330
1F
100
AcDbEntity
  8
10
100
AcDbLine
 10
996.0229116425546
 20
652.4952510956563
 30
0.0
 11
993.5229116425542
 21
652.4952510956563
 31
0.0
  0
ARC
  5
2A8F
330
1F
100
AcDbEntity
  8
10
100
AcDbCircle
 10
1002.272911642554
 20
644.4952510956583
 30
0.0
 40
0.4999999999999981
100
AcDbArc
 50
0.0
 51
90.0
  0
LINE
  5
2A90
330
1F
100
AcDbEntity
  8
10
100
AcDbLine
 10
1001.022911642553
 20
652.4952510956563
 30
0.0
 11
998.5229116425546
 21
652.4952510956563
 31
0.0
  0
LINE
  5
2A91
330
1F
100
AcDbEntity
  8
10
100
AcDbLine
 10
1006.022911642554
 20
637.4952510956562
 30
0.0
 11
1003.522911642554
 21
637.4952510956562
 31
0.0
  0
LINE
  5
2A92
330
1F
100
AcDbEntity
  8
10
100
AcDbLine
 10
1006.022911642554
 20
652.4952510956563
 30
0.0
 11
1003.522911642554
 21
652.4952510956563
 31
0.0
  0
LINE
  5
2A93
330
1F
100
AcDbEntity
  8
10
100
AcDbLine
 10
991.0229116425542
 20
687.4952510956562
 30
0.0
 11
988.5229116425547
 21
687.4952510956562
 31
0.0
  0
LINE
  5
2A94
330
1F
100
AcDbEntity
  8
10
100
AcDbLine
 10
996.0229116425546
 20
687.4952510956562
 30
0.0
 11
993.5229116425542
 21
687.4952510956562
 31
0.0
  0
LINE
  5
2A95
330
1F
100
AcDbEntity
  8
10
100
AcDbLine
 10
1001.022911642553
 20
687.4952510956562
 30
0.0
 11
998.5229116425546
 21
687.4952510956562
 31
0.0
  0
LINE
  5
2A96
330
1F
100
AcDbEntity
  8
10
100
AcDbLine
 10
1006.022911642554
 20
687.4952510956562
 30
0.0
 11
1003.522911642554
 21
687.4952510956562
 31
0.0
  0
ARC
  5
2A97
330
1F
100
AcDbEntity
  8
10
100
AcDbCircle
 10
1034.772911642553
 20
606.2452510956585
 30
0.0
 40
1.250000000000011
100
AcDbArc
 50
180.0
 51
0.0
  0
ARC
  5
2A98
330
1F
100
AcDbEntity
  8
10
100
AcDbCircle
 10
1014.772911642554
 20
606.2452510956585
 30
0.0
 40
1.250000000000004
100
AcDbArc
 50
180.0
 51
0.0
  0
ARC
  5
2A99
330
1F
100
AcDbEntity
  8
10
100
AcDbCircle
 10
1019.772911642554
 20
606.2452510956585
 30
0.0
 40
1.249999999999998
100
AcDbArc
 50
180.0
 51
0.0
  0
ARC
  5
2A9A
330
1F
100
AcDbEntity
  8
10
100
AcDbCircle
 10
1024.772911642553
 20
606.2452510956585
 30
0.0
 40
1.249999999999998
100
AcDbArc
 50
180.0
 51
0.0
  0
ARC
  5
2A9B
330
1F
100
AcDbEntity
  8
10
100
AcDbCircle
 10
1029.772911642554
 20
606.2452510956585
 30
0.0
 40
1.249999999999998
100
AcDbArc
 50
180.0
 51
0.0
  0
ARC
  5
2A9C
330
1F
100
AcDbEntity
  8
10
100
AcDbCircle
 10
1039.772911642554
 20
606.2452510956585
 30
0.0
 40
1.249999999999998
100
AcDbArc
 50
180.0
 51
0.0
  0
ARC
  5
2A9D
330
1F
100
AcDbEntity
  8
10
100
AcDbCircle
 10
1044.772911642554
 20
606.2452510956585
 30
0.0
 40
1.249999999999998
100
AcDbArc
 50
180.0
 51
0.0
  0
ARC
  5
2A9E
330
1F
100
AcDbEntity
  8
10
100
AcDbCircle
 10
1049.772911642554
 20
606.2452510956585
 30
0.0
 40
1.249999999999998
100
AcDbArc
 50
180.0
 51
0.0
  0
ARC
  5
2A9F
330
1F
100
AcDbEntity
  8
10
100
AcDbCircle
 10
1054.772911642553
 20
606.2452510956585
 30
0.0
 40
1.250000000000011
100
AcDbArc
 50
180.0
 51
0.0
  0
LINE
  5
2AA0
330
1F
100
AcDbEntity
  8
10
100
AcDbLine
 10
1036.022911642554
 20
687.4952510956562
 30
0.0
 11
1033.522911642553
 21
687.4952510956562
 31
0.0
  0
LINE
  5
2AA1
330
1F
100
AcDbEntity
  8
10
100
AcDbLine
 10
1036.022911642554
 20
637.4952510956562
 30
0.0
 11
1033.522911642553
 21
637.4952510956562
 31
0.0
  0
LINE
  5
2AA2
330
1F
100
AcDbEntity
  8
10
100
AcDbLine
 10
1036.022911642554
 20
652.4952510956563
 30
0.0
 11
1033.522911642553
 21
652.4952510956563
 31
0.0
  0
LINE
  5
2AA3
330
1F
100
AcDbEntity
  8
10
100
AcDbLine
 10
1016.022911642554
 20
637.4952510956562
 30
0.0
 11
1013.522911642554
 21
637.4952510956562
 31
0.0
  0
LINE
  5
2AA4
330
1F
100
AcDbEntity
  8
10
100
AcDbLine
 10
1016.022911642554
 20
652.4952510956563
 30
0.0
 11
1013.522911642554
 21
652.4952510956563
 31
0.0
  0
LINE
  5
2AA5
330
1F
100
AcDbEntity
  8
10
100
AcDbLine
 10
1021.022911642554
 20
637.4952510956562
 30
0.0
 11
1018.522911642554
 21
637.4952510956562
 31
0.0
  0
LINE
  5
2AA6
330
1F
100
AcDbEntity
  8
10
100
AcDbLine
 10
1021.022911642554
 20
652.4952510956563
 30
0.0
 11
1018.522911642554
 21
652.4952510956563
 31
0.0
  0
LINE
  5
2AA7
330
1F
100
AcDbEntity
  8
10
100
AcDbLine
 10
1026.022911642554
 20
637.4952510956562
 30
0.0
 11
1023.522911642554
 21
637.4952510956562
 31
0.0
  0
LINE
  5
2AA8
330
1F
100
AcDbEntity
  8
10
100
AcDbLine
 10
1026.022911642554
 20
652.4952510956563
 30
0.0
 11
1023.522911642554
 21
652.4952510956563
 31
0.0
  0
LINE
  5
2AA9
330
1F
100
AcDbEntity
  8
10
100
AcDbLine
 10
1031.022911642553
 20
637.4952510956562
 30
0.0
 11
1028.522911642553
 21
637.4952510956562
 31
0.0
  0
LINE
  5
2AAA
330
1F
100
AcDbEntity
  8
10
100
AcDbLine
 10
1031.022911642553
 20
652.4952510956563
 30
0.0
 11
1028.522911642553
 21
652.4952510956563
 31
0.0
  0
LINE
  5
2AAB
330
1F
100
AcDbEntity
  8
10
100
AcDbLine
 10
1016.022911642554
 20
687.4952510956562
 30
0.0
 11
1013.522911642554
 21
687.4952510956562
 31
0.0
  0
LINE
  5
2AAC
330
1F
100
AcDbEntity
  8
10
100
AcDbLine
 10
1021.022911642554
 20
687.4952510956562
 30
0.0
 11
1018.522911642554
 21
687.4952510956562
 31
0.0
  0
LINE
  5
2AAD
330
1F
100
AcDbEntity
  8
10
100
AcDbLine
 10
1026.022911642554
 20
687.4952510956562
 30
0.0
 11
1023.522911642554
 21
687.4952510956562
 31
0.0
  0
LINE
  5
2AAE
330
1F
100
AcDbEntity
  8
10
100
AcDbLine
 10
1031.022911642553
 20
687.4952510956562
 30
0.0
 11
1028.522911642553
 21
687.4952510956562
 31
0.0
  0
LINE
  5
2AAF
330
1F
100
AcDbEntity
  8
10
100
AcDbLine
 10
1041.022911642554
 20
637.4952510956562
 30
0.0
 11
1038.522911642554
 21
637.4952510956562
 31
0.0
  0
LINE
  5
2AB0
330
1F
100
AcDbEntity
  8
10
100
AcDbLine
 10
1041.022911642554
 20
652.4952510956563
 30
0.0
 11
1038.522911642554
 21
652.4952510956563
 31
0.0
  0
LINE
  5
2AB1
330
1F
100
AcDbEntity
  8
10
100
AcDbLine
 10
1046.022911642553
 20
637.4952510956562
 30
0.0
 11
1043.522911642553
 21
637.4952510956562
 31
0.0
  0
LINE
  5
2AB2
330
1F
100
AcDbEntity
  8
10
100
AcDbLine
 10
1046.022911642553
 20
652.4952510956563
 30
0.0
 11
1043.522911642553
 21
652.4952510956563
 31
0.0
  0
LINE
  5
2AB3
330
1F
100
AcDbEntity
  8
10
100
AcDbLine
 10
1051.022911642554
 20
637.4952510956562
 30
0.0
 11
1048.522911642554
 21
637.4952510956562
 31
0.0
  0
LINE
  5
2AB4
330
1F
100
AcDbEntity
  8
10
100
AcDbLine
 10
1051.022911642554
 20
652.4952510956563
 30
0.0
 11
1048.522911642554
 21
652.4952510956563
 31
0.0
  0
LINE
  5
2AB5
330
1F
100
AcDbEntity
  8
10
100
AcDbLine
 10
1056.022911642553
 20
637.4952510956562
 30
0.0
 11
1053.522911642553
 21
637.4952510956562
 31
0.0
  0
LINE
  5
2AB6
330
1F
100
AcDbEntity
  8
10
100
AcDbLine
 10
1056.022911642553
 20
652.4952510956563
 30
0.0
 11
1053.522911642553
 21
652.4952510956563
 31
0.0
  0
LINE
  5
2AB7
330
1F
100
AcDbEntity
  8
10
100
AcDbLine
 10
1041.022911642554
 20
687.4952510956562
 30
0.0
 11
1038.522911642554
 21
687.4952510956562
 31
0.0
  0
LINE
  5
2AB8
330
1F
100
AcDbEntity
  8
10
100
AcDbLine
 10
1046.022911642553
 20
687.4952510956562
 30
0.0
 11
1043.522911642553
 21
687.4952510956562
 31
0.0
  0
LINE
  5
2AB9
330
1F
100
AcDbEntity
  8
10
100
AcDbLine
 10
1051.022911642554
 20
687.4952510956562
 30
0.0
 11
1048.522911642554
 21
687.4952510956562
 31
0.0
  0
LINE
  5
2ABA
330
1F
100
AcDbEntity
  8
10
100
AcDbLine
 10
1056.022911642553
 20
687.4952510956562
 30
0.0
 11
1053.522911642553
 21
687.4952510956562
 31
0.0
  0
ARC
  5
2ABB
330
1F
100
AcDbEntity
  8
10
100
AcDbCircle
 10
1009.772911642554
 20
833.7452510956534
 30
0.0
 40
1.250000000000004
100
AcDbArc
 50
0.0
 51
180.0
  0
LINE
  5
2ABC
330
1F
100
AcDbEntity
  8
10
100
AcDbLine
 10
1011.022911642554
 20
802.4952510956561
 30
0.0
 11
1008.522911642554
 21
802.4952510956561
 31
0.0
  0
LINE
  5
2ABD
330
1F
100
AcDbEntity
  8
10
100
AcDbLine
 10
1011.022911642554
 20
787.4952510956561
 30
0.0
 11
1008.522911642554
 21
787.4952510956561
 31
0.0
  0
LINE
  5
2ABE
330
1F
100
AcDbEntity
  8
10
100
AcDbLine
 10
1011.022911642554
 20
752.4952510956561
 30
0.0
 11
1008.522911642554
 21
752.4952510956561
 31
0.0
  0
LINE
  5
2ABF
330
1F
100
AcDbEntity
  8
10
100
AcDbLine
 10
1011.022911642554
 20
737.4952510956562
 30
0.0
 11
1008.522911642554
 21
737.4952510956562
 31
0.0
  0
LINE
  5
2AC0
330
1F
100
AcDbEntity
  8
10
100
AcDbLine
 10
1011.022911642554
 20
702.4952510956563
 30
0.0
 11
1008.522911642554
 21
702.4952510956563
 31
0.0
  0
LINE
  5
2AC1
330
1F
100
AcDbEntity
  8
10
100
AcDbLine
 10
966.2729116425539
 20
807.3817170096035
 30
0.0
 11
966.2729116425539
 21
746.6087851817137
 31
0.0
  0
LINE
  5
2AC2
330
1F
100
AcDbEntity
  8
10
100
AcDbLine
 10
986.0229116425546
 20
752.4952510956561
 30
0.0
 11
983.5229116425546
 21
752.4952510956561
 31
0.0
  0
LINE
  5
2AC3
330
1F
100
AcDbEntity
  8
10
100
AcDbLine
 10
986.0229116425546
 20
737.4952510956562
 30
0.0
 11
983.5229116425546
 21
737.4952510956562
 31
0.0
  0
LINE
  5
2AC4
330
1F
100
AcDbEntity
  8
10
100
AcDbLine
 10
986.0229116425546
 20
702.4952510956563
 30
0.0
 11
983.5229116425546
 21
702.4952510956563
 31
0.0
  0
LINE
  5
2AC5
330
1F
100
AcDbEntity
  8
10
100
AcDbLine
 10
959.4729116425543
 20
710.2952510956586
 30
0.0
 11
959.4729116425543
 21
726.6952510956586
 31
0.0
  0
LINE
  5
2AC6
330
1F
100
AcDbEntity
  8
10
100
AcDbLine
 10
961.7729116425543
 20
709.9952510956585
 30
0.0
 11
961.7729116425543
 21
726.9952510956584
 31
0.0
  0
LINE
  5
2AC7
330
1F
100
AcDbEntity
  8
10
100
AcDbLine
 10
959.4729116425543
 20
702.6952510956586
 30
0.0
 11
961.7729116425543
 21
702.6952510956586
 31
0.0
  0
LINE
  5
2AC8
330
1F
100
AcDbEntity
  8
10
100
AcDbLine
 10
959.4729116425543
 20
710.2952510956586
 30
0.0
 11
961.7729116425543
 21
710.2952510956586
 31
0.0
  0
LINE
  5
2AC9
330
1F
100
AcDbEntity
  8
10
100
AcDbLine
 10
959.4729116425543
 20
726.6952510956586
 30
0.0
 11
961.7729116425543
 21
726.6952510956586
 31
0.0
  0
LINE
  5
2ACA
330
1F
100
AcDbEntity
  8
10
100
AcDbLine
 10
978.7729116425539
 20
740.4952510956584
 30
0.0
 11
959.2729116425541
 21
740.4952510956584
 31
0.0
  0
LINE
  5
2ACB
330
1F
100
AcDbEntity
  8
10
100
AcDbLine
 10
964.7729116425541
 20
750.9952510956583
 30
0.0
 11
966.2729116425539
 21
752.4952510956584
 31
0.0
  0
LINE
  5
2ACC
330
1F
100
AcDbEntity
  8
10
100
AcDbLine
 10
965.7816378457727
 20
746.1088613341354
 30
0.0
 11
959.7641854393351
 21
746.0038263116786
 31
0.0
  0
LINE
  5
2ACD
330
1F
100
AcDbEntity
  8
10
100
AcDbLine
 10
969.7729116425547
 20
732.5214549852997
 30
0.0
 11
959.2729116425543
 21
732.5214549852997
 31
0.0
  0
LINE
  5
2ACE
330
1F
100
AcDbEntity
  8
10
100
AcDbLine
 10
959.2729116425562
 20
745.9952510956585
 30
0.0
 11
959.6803021275666
 21
745.9952510956585
 31
0.0
  0
LINE
  5
2ACF
330
1F
100
AcDbEntity
  8
10
100
AcDbLine
 10
959.325283485696
 20
747.9952510956584
 30
0.0
 11
961.2729116425541
 21
747.9952510956584
 31
0.0
  0
LINE
  5
2AD0
330
1F
100
AcDbEntity
  8
10
100
AcDbLine
 10
961.2729116425541
 20
747.9952510956584
 30
0.0
 11
961.2729116425541
 21
746.0301612255147
 31
0.0
  0
LINE
  5
2AD1
330
1F
100
AcDbEntity
  8
10
100
AcDbLine
 10
959.2729116425541
 20
748.4952510956584
 30
0.0
 11
961.772911642554
 21
748.495251095658
 31
0.0
  0
LINE
  5
2AD2
330
1F
100
AcDbEntity
  8
10
100
AcDbLine
 10
959.2729116425541
 20
745.5039024641003
 30
0.0
 11
959.2729116425541
 21
740.4952510956584
 31
0.0
  0
LINE
  5
2AD3
330
1F
100
AcDbEntity
  8
10
100
AcDbLine
 10
961.772911642554
 20
748.495251095658
 30
0.0
 11
961.772911642554
 21
747.4952510956585
 31
0.0
  0
LINE
  5
2AD4
330
1F
100
AcDbEntity
  8
10
100
AcDbLine
 10
961.4729116425539
 20
747.4952510956585
 30
0.0
 11
964.7729116425541
 21
747.4952510956585
 31
0.0
  0
LINE
  5
2AD5
330
1F
100
AcDbEntity
  8
10
100
AcDbLine
 10
961.4729116425539
 20
747.4952510956585
 30
0.0
 11
961.4729116425539
 21
746.0336522385006
 31
0.0
  0
LINE
  5
2AD6
330
1F
100
AcDbEntity
  8
10
100
AcDbLine
 10
964.7729116425541
 20
750.9952510956583
 30
0.0
 11
964.7729116425541
 21
746.0912539527636
 31
0.0
  0
ARC
  5
2AD7
330
1F
100
AcDbEntity
  8
10
100
AcDbCircle
 10
959.772911642554
 20
745.5039024641003
 30
0.0
 40
0.5000000000000171
100
AcDbArc
 50
91.00000000000177
 51
180.0
  0
LINE
  5
2AD8
330
1F
100
AcDbEntity
  8
10
100
AcDbLine
 10
959.2729116425541
 20
749.4952510956583
 30
0.0
 11
959.2729116425541
 21
748.4952510956584
 31
0.0
  0
ARC
  5
2AD9
330
1F
100
AcDbEntity
  8
10
100
AcDbCircle
 10
965.772911642554
 20
746.6087851817137
 30
0.0
 40
0.4999999999999873
100
AcDbArc
 50
271.0000000000017
 51
0.0
  0
LINE
  5
2ADA
330
1F
100
AcDbEntity
  8
10
100
AcDbLine
 10
978.7729116425543
 20
740.0434066813194
 30
0.0
 11
978.7729116425543
 21
744.0434066813194
 31
0.0
  0
LINE
  5
2ADB
330
1F
100
AcDbEntity
  8
10
100
AcDbLine
 10
991.0229116425542
 20
702.4952510956563
 30
0.0
 11
988.5229116425547
 21
702.4952510956563
 31
0.0
  0
LINE
  5
2ADC
330
1F
100
AcDbEntity
  8
10
100
AcDbLine
 10
996.0229116425546
 20
702.4952510956563
 30
0.0
 11
993.5229116425542
 21
702.4952510956563
 31
0.0
  0
LINE
  5
2ADD
330
1F
100
AcDbEntity
  8
10
100
AcDbLine
 10
1001.022911642553
 20
702.4952510956563
 30
0.0
 11
998.5229116425546
 21
702.4952510956563
 31
0.0
  0
LINE
  5
2ADE
330
1F
100
AcDbEntity
  8
10
100
AcDbLine
 10
1006.022911642554
 20
702.4952510956563
 30
0.0
 11
1003.522911642554
 21
702.4952510956563
 31
0.0
  0
LINE
  5
2ADF
330
1F
100
AcDbEntity
  8
10
100
AcDbLine
 10
991.0229116425542
 20
737.4952510956562
 30
0.0
 11
988.5229116425547
 21
737.4952510956562
 31
0.0
  0
LINE
  5
2AE0
330
1F
100
AcDbEntity
  8
10
100
AcDbLine
 10
996.0229116425546
 20
737.4952510956562
 30
0.0
 11
993.5229116425542
 21
737.4952510956562
 31
0.0
  0
LINE
  5
2AE1
330
1F
100
AcDbEntity
  8
10
100
AcDbLine
 10
991.0229116425542
 20
752.4952510956561
 30
0.0
 11
988.5229116425547
 21
752.4952510956561
 31
0.0
  0
LINE
  5
2AE2
330
1F
100
AcDbEntity
  8
10
100
AcDbLine
 10
996.0229116425546
 20
752.4952510956561
 30
0.0
 11
993.5229116425542
 21
752.4952510956561
 31
0.0
  0
LINE
  5
2AE3
330
1F
100
AcDbEntity
  8
10
100
AcDbLine
 10
1001.022911642553
 20
737.4952510956562
 30
0.0
 11
998.5229116425546
 21
737.4952510956562
 31
0.0
  0
LINE
  5
2AE4
330
1F
100
AcDbEntity
  8
10
100
AcDbLine
 10
1006.022911642554
 20
737.4952510956562
 30
0.0
 11
1003.522911642554
 21
737.4952510956562
 31
0.0
  0
LINE
  5
2AE5
330
1F
100
AcDbEntity
  8
10
100
AcDbLine
 10
1001.022911642553
 20
752.4952510956561
 30
0.0
 11
998.5229116425546
 21
752.4952510956561
 31
0.0
  0
LINE
  5
2AE6
330
1F
100
AcDbEntity
  8
10
100
AcDbLine
 10
1006.022911642554
 20
752.4952510956561
 30
0.0
 11
1003.522911642554
 21
752.4952510956561
 31
0.0
  0
ARC
  5
2AE7
330
1F
100
AcDbEntity
  8
10
100
AcDbCircle
 10
984.7729116425542
 20
833.7452510956534
 30
0.0
 40
1.25
100
AcDbArc
 50
0.0
 51
180.0
  0
LINE
  5
2AE8
330
1F
100
AcDbEntity
  8
10
100
AcDbLine
 10
986.0229116425546
 20
802.4952510956561
 30
0.0
 11
983.5229116425546
 21
802.4952510956561
 31
0.0
  0
LINE
  5
2AE9
330
1F
100
AcDbEntity
  8
10
100
AcDbLine
 10
986.0229116425546
 20
787.4952510956561
 30
0.0
 11
983.5229116425546
 21
787.4952510956561
 31
0.0
  0
LINE
  5
2AEA
330
1F
100
AcDbEntity
  8
10
100
AcDbLine
 10
959.2729116425541
 20
823.4515372693159
 30
0.0
 11
959.2729116425541
 21
808.4865997272164
 31
0.0
  0
LINE
  5
2AEB
330
1F
100
AcDbEntity
  8
10
100
AcDbLine
 10
961.4729116425539
 20
806.4952510956583
 30
0.0
 11
966.2729116425539
 21
806.4952510956583
 31
0.0
  0
LINE
  5
2AEC
330
1F
100
AcDbEntity
  8
10
100
AcDbLine
 10
959.7641854393351
 20
807.9866758796383
 30
0.0
 11
965.7816378457727
 21
807.8816408571816
 31
0.0
  0
LINE
  5
2AED
330
1F
100
AcDbEntity
  8
10
100
AcDbLine
 10
959.2729116425562
 20
807.9952510956584
 30
0.0
 11
959.6803021275682
 21
807.9952510956584
 31
0.0
  0
LINE
  5
2AEE
330
1F
100
AcDbEntity
  8
10
100
AcDbLine
 10
961.2729116425541
 20
807.9603409658023
 30
0.0
 11
961.2729116425541
 21
805.9952510956582
 31
0.0
  0
LINE
  5
2AEF
330
1F
100
AcDbEntity
  8
10
100
AcDbLine
 10
959.3252834856906
 20
805.9952510956582
 30
0.0
 11
961.2729116425541
 21
805.9952510956582
 31
0.0
  0
LINE
  5
2AF0
330
1F
100
AcDbEntity
  8
10
100
AcDbLine
 10
959.2729116425541
 20
805.4952510956585
 30
0.0
 11
961.772911642554
 21
805.4952510956585
 31
0.0
  0
LINE
  5
2AF1
330
1F
100
AcDbEntity
  8
10
100
AcDbLine
 10
959.2729116425541
 20
805.4952510956585
 30
0.0
 11
959.2729116425541
 21
804.4952510956584
 31
0.0
  0
LINE
  5
2AF2
330
1F
100
AcDbEntity
  8
10
100
AcDbLine
 10
961.772911642554
 20
806.4952510956583
 30
0.0
 11
961.772911642554
 21
805.4952510956585
 31
0.0
  0
LINE
  5
2AF3
330
1F
100
AcDbEntity
  8
10
100
AcDbLine
 10
961.4729116425539
 20
807.9568499528166
 30
0.0
 11
961.4729116425539
 21
806.4952510956583
 31
0.0
  0
ARC
  5
2AF4
330
1F
100
AcDbEntity
  8
10
100
AcDbCircle
 10
959.772911642554
 20
808.4865997272164
 30
0.0
 40
0.5000000000000001
100
AcDbArc
 50
180.0
 51
268.9999999999981
  0
ARC
  5
2AF5
330
1F
100
AcDbEntity
  8
10
100
AcDbCircle
 10
965.772911642554
 20
807.3817170096035
 30
0.0
 40
0.5000000000000001
100
AcDbArc
 50
0.0
 51
88.99999999999822
  0
LINE
  5
2AF6
330
1F
100
AcDbEntity
  8
10
100
AcDbLine
 10
962.272911642554
 20
830.5039024641002
 30
0.0
 11
962.272911642554
 21
824.4865997272162
 31
0.0
  0
LINE
  5
2AF7
330
1F
100
AcDbEntity
  8
10
100
AcDbLine
 10
959.2729116425541
 20
842.114740039565
 30
0.0
 11
959.2729116425541
 21
827.9952510956585
 31
0.0
  0
LINE
  5
2AF8
330
1F
100
AcDbEntity
  8
10
100
AcDbLine
 10
959.772911642554
 20
827.4952510956584
 30
0.0
 11
961.772911642554
 21
827.4952510956584
 31
0.0
  0
LINE
  5
2AF9
330
1F
100
AcDbEntity
  8
10
100
AcDbLine
 10
959.7641854393351
 20
823.9514611168941
 30
0.0
 11
961.7816378457726
 21
823.9866758796383
 31
0.0
  0
ARC
  5
2AFA
330
1F
100
AcDbEntity
  8
10
100
AcDbCircle
 10
959.772911642554
 20
827.9952510956585
 30
0.0
 40
0.5000000000000001
100
AcDbArc
 50
180.0
 51
270.0
  0
ARC
  5
2AFB
330
1F
100
AcDbEntity
  8
10
100
AcDbCircle
 10
961.772911642554
 20
826.9952510956583
 30
0.0
 40
0.5000000000000001
100
AcDbArc
 50
0.0
 51
90.0
  0
ARC
  5
2AFC
330
1F
100
AcDbEntity
  8
10
100
AcDbCircle
 10
959.772911642554
 20
823.4515372693159
 30
0.0
 40
0.4999999999999873
100
AcDbArc
 50
91.00000000000177
 51
180.0
  0
ARC
  5
2AFD
330
1F
100
AcDbEntity
  8
10
100
AcDbCircle
 10
961.772911642554
 20
824.4865997272162
 30
0.0
 40
0.4999999999997745
100
AcDbArc
 50
271.0000000000017
 51
0.0
  0
LINE
  5
2AFE
330
1F
100
AcDbEntity
  8
10
100
AcDbLine
 10
959.7641854393351
 20
831.0390410744226
 30
0.0
 11
961.7816378457726
 21
831.0038263116787
 31
0.0
  0
ARC
  5
2AFF
330
1F
100
AcDbEntity
  8
10
100
AcDbCircle
 10
959.772911642554
 20
831.5389649220007
 30
0.0
 40
0.5000000000000001
100
AcDbArc
 50
180.0
 51
268.9999999999981
  0
ARC
  5
2B00
330
1F
100
AcDbEntity
  8
10
100
AcDbCircle
 10
961.772911642554
 20
830.5039024641002
 30
0.0
 40
0.5000000000000001
100
AcDbArc
 50
0.0
 51
88.99999999999822
  0
LINE
  5
2B01
330
1F
100
AcDbEntity
  8
10
100
AcDbLine
 10
991.0229116425542
 20
787.4952510956561
 30
0.0
 11
988.5229116425547
 21
787.4952510956561
 31
0.0
  0
LINE
  5
2B02
330
1F
100
AcDbEntity
  8
10
100
AcDbLine
 10
996.0229116425546
 20
787.4952510956561
 30
0.0
 11
993.5229116425542
 21
787.4952510956561
 31
0.0
  0
LINE
  5
2B03
330
1F
100
AcDbEntity
  8
10
100
AcDbLine
 10
991.0229116425542
 20
802.4952510956561
 30
0.0
 11
988.5229116425547
 21
802.4952510956561
 31
0.0
  0
LINE
  5
2B04
330
1F
100
AcDbEntity
  8
10
100
AcDbLine
 10
996.0229116425546
 20
802.4952510956561
 30
0.0
 11
993.5229116425542
 21
802.4952510956561
 31
0.0
  0
LINE
  5
2B05
330
1F
100
AcDbEntity
  8
10
100
AcDbLine
 10
1001.022911642553
 20
787.4952510956561
 30
0.0
 11
998.5229116425546
 21
787.4952510956561
 31
0.0
  0
LINE
  5
2B06
330
1F
100
AcDbEntity
  8
10
100
AcDbLine
 10
1006.022911642554
 20
787.4952510956561
 30
0.0
 11
1003.522911642554
 21
787.4952510956561
 31
0.0
  0
LINE
  5
2B07
330
1F
100
AcDbEntity
  8
10
100
AcDbLine
 10
1001.022911642553
 20
802.4952510956561
 30
0.0
 11
998.5229116425546
 21
802.4952510956561
 31
0.0
  0
LINE
  5
2B08
330
1F
100
AcDbEntity
  8
10
100
AcDbLine
 10
1006.022911642554
 20
802.4952510956561
 30
0.0
 11
1003.522911642554
 21
802.4952510956561
 31
0.0
  0
ARC
  5
2B09
330
1F
100
AcDbEntity
  8
10
100
AcDbCircle
 10
989.7729116425546
 20
833.7452510956534
 30
0.0
 40
1.25
100
AcDbArc
 50
0.0
 51
180.0
  0
ARC
  5
2B0A
330
1F
100
AcDbEntity
  8
10
100
AcDbCircle
 10
994.7729116425547
 20
833.7452510956534
 30
0.0
 40
1.249999999999998
100
AcDbArc
 50
0.0
 51
180.0
  0
ARC
  5
2B0B
330
1F
100
AcDbEntity
  8
10
100
AcDbCircle
 10
999.7729116425542
 20
833.7452510956534
 30
0.0
 40
1.250000000000004
100
AcDbArc
 50
0.0
 51
180.0
  0
ARC
  5
2B0C
330
1F
100
AcDbEntity
  8
10
100
AcDbCircle
 10
1004.772911642554
 20
833.7452510956534
 30
0.0
 40
1.249999999999998
100
AcDbArc
 50
0.0
 51
180.0
  0
LINE
  5
2B0D
330
1F
100
AcDbEntity
  8
10
100
AcDbLine
 10
1036.022911642554
 20
752.4952510956561
 30
0.0
 11
1033.522911642553
 21
752.4952510956561
 31
0.0
  0
LINE
  5
2B0E
330
1F
100
AcDbEntity
  8
10
100
AcDbLine
 10
1036.022911642554
 20
737.4952510956562
 30
0.0
 11
1033.522911642553
 21
737.4952510956562
 31
0.0
  0
LINE
  5
2B0F
330
1F
100
AcDbEntity
  8
10
100
AcDbLine
 10
1036.022911642554
 20
702.4952510956563
 30
0.0
 11
1033.522911642553
 21
702.4952510956563
 31
0.0
  0
LINE
  5
2B10
330
1F
100
AcDbEntity
  8
10
100
AcDbLine
 10
1016.022911642554
 20
702.4952510956563
 30
0.0
 11
1013.522911642554
 21
702.4952510956563
 31
0.0
  0
LINE
  5
2B11
330
1F
100
AcDbEntity
  8
10
100
AcDbLine
 10
1021.022911642554
 20
702.4952510956563
 30
0.0
 11
1018.522911642554
 21
702.4952510956563
 31
0.0
  0
LINE
  5
2B12
330
1F
100
AcDbEntity
  8
10
100
AcDbLine
 10
1026.022911642554
 20
702.4952510956563
 30
0.0
 11
1023.522911642554
 21
702.4952510956563
 31
0.0
  0
LINE
  5
2B13
330
1F
100
AcDbEntity
  8
10
100
AcDbLine
 10
1031.022911642553
 20
702.4952510956563
 30
0.0
 11
1028.522911642553
 21
702.4952510956563
 31
0.0
  0
LINE
  5
2B14
330
1F
100
AcDbEntity
  8
10
100
AcDbLine
 10
1016.022911642554
 20
737.4952510956562
 30
0.0
 11
1013.522911642554
 21
737.4952510956562
 31
0.0
  0
LINE
  5
2B15
330
1F
100
AcDbEntity
  8
10
100
AcDbLine
 10
1021.022911642554
 20
737.4952510956562
 30
0.0
 11
1018.522911642554
 21
737.4952510956562
 31
0.0
  0
LINE
  5
2B16
330
1F
100
AcDbEntity
  8
10
100
AcDbLine
 10
1016.022911642554
 20
752.4952510956561
 30
0.0
 11
1013.522911642554
 21
752.4952510956561
 31
0.0
  0
LINE
  5
2B17
330
1F
100
AcDbEntity
  8
10
100
AcDbLine
 10
1021.022911642554
 20
752.4952510956561
 30
0.0
 11
1018.522911642554
 21
752.4952510956561
 31
0.0
  0
LINE
  5
2B18
330
1F
100
AcDbEntity
  8
10
100
AcDbLine
 10
1026.022911642554
 20
737.4952510956562
 30
0.0
 11
1023.522911642554
 21
737.4952510956562
 31
0.0
  0
LINE
  5
2B19
330
1F
100
AcDbEntity
  8
10
100
AcDbLine
 10
1031.022911642553
 20
737.4952510956562
 30
0.0
 11
1028.522911642553
 21
737.4952510956562
 31
0.0
  0
LINE
  5
2B1A
330
1F
100
AcDbEntity
  8
10
100
AcDbLine
 10
1026.022911642554
 20
752.4952510956561
 30
0.0
 11
1023.522911642554
 21
752.4952510956561
 31
0.0
  0
LINE
  5
2B1B
330
1F
100
AcDbEntity
  8
10
100
AcDbLine
 10
1031.022911642553
 20
752.4952510956561
 30
0.0
 11
1028.522911642553
 21
752.4952510956561
 31
0.0
  0
LINE
  5
2B1C
330
1F
100
AcDbEntity
  8
10
100
AcDbLine
 10
1041.022911642554
 20
702.4952510956563
 30
0.0
 11
1038.522911642554
 21
702.4952510956563
 31
0.0
  0
LINE
  5
2B1D
330
1F
100
AcDbEntity
  8
10
100
AcDbLine
 10
1046.022911642553
 20
702.4952510956563
 30
0.0
 11
1043.522911642553
 21
702.4952510956563
 31
0.0
  0
LINE
  5
2B1E
330
1F
100
AcDbEntity
  8
10
100
AcDbLine
 10
1051.022911642554
 20
702.4952510956563
 30
0.0
 11
1048.522911642554
 21
702.4952510956563
 31
0.0
  0
LINE
  5
2B1F
330
1F
100
AcDbEntity
  8
10
100
AcDbLine
 10
1056.022911642553
 20
702.4952510956563
 30
0.0
 11
1053.522911642553
 21
702.4952510956563
 31
0.0
  0
LINE
  5
2B20
330
1F
100
AcDbEntity
  8
10
100
AcDbLine
 10
1041.022911642554
 20
737.4952510956562
 30
0.0
 11
1038.522911642554
 21
737.4952510956562
 31
0.0
  0
LINE
  5
2B21
330
1F
100
AcDbEntity
  8
10
100
AcDbLine
 10
1046.022911642553
 20
737.4952510956562
 30
0.0
 11
1043.522911642553
 21
737.4952510956562
 31
0.0
  0
LINE
  5
2B22
330
1F
100
AcDbEntity
  8
10
100
AcDbLine
 10
1041.022911642554
 20
752.4952510956561
 30
0.0
 11
1038.522911642554
 21
752.4952510956561
 31
0.0
  0
LINE
  5
2B23
330
1F
100
AcDbEntity
  8
10
100
AcDbLine
 10
1046.022911642553
 20
752.4952510956561
 30
0.0
 11
1043.522911642553
 21
752.4952510956561
 31
0.0
  0
LINE
  5
2B24
330
1F
100
AcDbEntity
  8
10
100
AcDbLine
 10
1051.022911642554
 20
737.4952510956562
 30
0.0
 11
1048.522911642554
 21
737.4952510956562
 31
0.0
  0
LINE
  5
2B25
330
1F
100
AcDbEntity
  8
10
100
AcDbLine
 10
1056.022911642553
 20
737.4952510956562
 30
0.0
 11
1053.522911642553
 21
737.4952510956562
 31
0.0
  0
LINE
  5
2B26
330
1F
100
AcDbEntity
  8
10
100
AcDbLine
 10
1051.022911642554
 20
752.4952510956561
 30
0.0
 11
1048.522911642554
 21
752.4952510956561
 31
0.0
  0
LINE
  5
2B27
330
1F
100
AcDbEntity
  8
10
100
AcDbLine
 10
1056.022911642553
 20
752.4952510956561
 30
0.0
 11
1053.522911642553
 21
752.4952510956561
 31
0.0
  0
ARC
  5
2B28
330
1F
100
AcDbEntity
  8
10
100
AcDbCircle
 10
1034.772911642553
 20
833.7452510956534
 30
0.0
 40
1.249999999999998
100
AcDbArc
 50
0.0
 51
180.0
  0
LINE
  5
2B29
330
1F
100
AcDbEntity
  8
10
100
AcDbLine
 10
1036.022911642554
 20
802.4952510956561
 30
0.0
 11
1033.522911642553
 21
802.4952510956561
 31
0.0
  0
LINE
  5
2B2A
330
1F
100
AcDbEntity
  8
10
100
AcDbLine
 10
1036.022911642554
 20
787.4952510956561
 30
0.0
 11
1033.522911642553
 21
787.4952510956561
 31
0.0
  0
LINE
  5
2B2B
330
1F
100
AcDbEntity
  8
10
100
AcDbLine
 10
1016.022911642554
 20
787.4952510956561
 30
0.0
 11
1013.522911642554
 21
787.4952510956561
 31
0.0
  0
LINE
  5
2B2C
330
1F
100
AcDbEntity
  8
10
100
AcDbLine
 10
1021.022911642554
 20
787.4952510956561
 30
0.0
 11
1018.522911642554
 21
787.4952510956561
 31
0.0
  0
LINE
  5
2B2D
330
1F
100
AcDbEntity
  8
10
100
AcDbLine
 10
1016.022911642554
 20
802.4952510956561
 30
0.0
 11
1013.522911642554
 21
802.4952510956561
 31
0.0
  0
LINE
  5
2B2E
330
1F
100
AcDbEntity
  8
10
100
AcDbLine
 10
1021.022911642554
 20
802.4952510956561
 30
0.0
 11
1018.522911642554
 21
802.4952510956561
 31
0.0
  0
LINE
  5
2B2F
330
1F
100
AcDbEntity
  8
10
100
AcDbLine
 10
1026.022911642554
 20
787.4952510956561
 30
0.0
 11
1023.522911642554
 21
787.4952510956561
 31
0.0
  0
LINE
  5
2B30
330
1F
100
AcDbEntity
  8
10
100
AcDbLine
 10
1031.022911642553
 20
787.4952510956561
 30
0.0
 11
1028.522911642553
 21
787.4952510956561
 31
0.0
  0
LINE
  5
2B31
330
1F
100
AcDbEntity
  8
10
100
AcDbLine
 10
1026.022911642554
 20
802.4952510956561
 30
0.0
 11
1023.522911642554
 21
802.4952510956561
 31
0.0
  0
LINE
  5
2B32
330
1F
100
AcDbEntity
  8
10
100
AcDbLine
 10
1031.022911642553
 20
802.4952510956561
 30
0.0
 11
1028.522911642553
 21
802.4952510956561
 31
0.0
  0
ARC
  5
2B33
330
1F
100
AcDbEntity
  8
10
100
AcDbCircle
 10
1014.772911642554
 20
833.7452510956534
 30
0.0
 40
1.249999999999998
100
AcDbArc
 50
0.0
 51
180.0
  0
ARC
  5
2B34
330
1F
100
AcDbEntity
  8
10
100
AcDbCircle
 10
1019.772911642554
 20
833.7452510956534
 30
0.0
 40
1.250000000000004
100
AcDbArc
 50
0.0
 51
180.0
  0
ARC
  5
2B35
330
1F
100
AcDbEntity
  8
10
100
AcDbCircle
 10
1024.772911642553
 20
833.7452510956534
 30
0.0
 40
1.249999999999998
100
AcDbArc
 50
0.0
 51
180.0
  0
ARC
  5
2B36
330
1F
100
AcDbEntity
  8
10
100
AcDbCircle
 10
1029.772911642554
 20
833.7452510956534
 30
0.0
 40
1.249999999999998
100
AcDbArc
 50
0.0
 51
180.0
  0
LINE
  5
2B37
330
1F
100
AcDbEntity
  8
10
100
AcDbLine
 10
1041.022911642554
 20
787.4952510956561
 30
0.0
 11
1038.522911642554
 21
787.4952510956561
 31
0.0
  0
LINE
  5
2B38
330
1F
100
AcDbEntity
  8
10
100
AcDbLine
 10
1046.022911642553
 20
787.4952510956561
 30
0.0
 11
1043.522911642553
 21
787.4952510956561
 31
0.0
  0
LINE
  5
2B39
330
1F
100
AcDbEntity
  8
10
100
AcDbLine
 10
1041.022911642554
 20
802.4952510956561
 30
0.0
 11
1038.522911642554
 21
802.4952510956561
 31
0.0
  0
LINE
  5
2B3A
330
1F
100
AcDbEntity
  8
10
100
AcDbLine
 10
1046.022911642553
 20
802.4952510956561
 30
0.0
 11
1043.522911642553
 21
802.4952510956561
 31
0.0
  0
LINE
  5
2B3B
330
1F
100
AcDbEntity
  8
10
100
AcDbLine
 10
1051.022911642554
 20
787.4952510956561
 30
0.0
 11
1048.522911642554
 21
787.4952510956561
 31
0.0
  0
LINE
  5
2B3C
330
1F
100
AcDbEntity
  8
10
100
AcDbLine
 10
1056.022911642553
 20
787.4952510956561
 30
0.0
 11
1053.522911642553
 21
787.4952510956561
 31
0.0
  0
LINE
  5
2B3D
330
1F
100
AcDbEntity
  8
10
100
AcDbLine
 10
1051.022911642554
 20
802.4952510956561
 30
0.0
 11
1048.522911642554
 21
802.4952510956561
 31
0.0
  0
LINE
  5
2B3E
330
1F
100
AcDbEntity
  8
10
100
AcDbLine
 10
1056.022911642553
 20
802.4952510956561
 30
0.0
 11
1053.522911642553
 21
802.4952510956561
 31
0.0
  0
ARC
  5
2B3F
330
1F
100
AcDbEntity
  8
10
100
AcDbCircle
 10
1039.772911642554
 20
833.7452510956534
 30
0.0
 40
1.249999999999998
100
AcDbArc
 50
0.0
 51
180.0
  0
ARC
  5
2B40
330
1F
100
AcDbEntity
  8
10
100
AcDbCircle
 10
1044.772911642554
 20
833.7452510956534
 30
0.0
 40
1.249999999999998
100
AcDbArc
 50
0.0
 51
180.0
  0
ARC
  5
2B41
330
1F
100
AcDbEntity
  8
10
100
AcDbCircle
 10
1049.772911642554
 20
833.7452510956534
 30
0.0
 40
1.249999999999998
100
AcDbArc
 50
0.0
 51
180.0
  0
ARC
  5
2B42
330
1F
100
AcDbEntity
  8
10
100
AcDbCircle
 10
1054.772911642553
 20
833.7452510956534
 30
0.0
 40
1.249999999999998
100
AcDbArc
 50
0.0
 51
180.0
  0
LINE
  5
2B43
330
1F
100
AcDbEntity
  8
10
100
AcDbLine
 10
1132.772911642554
 20
642.4952510956583
 30
0.0
 11
1132.772911642554
 21
751.4952510956584
 31
0.0
  0
LINE
  5
2B44
330
1F
100
AcDbEntity
  8
10
100
AcDbLine
 10
1116.022911642553
 20
606.2452510956585
 30
0.0
 11
1116.022911642553
 21
833.7452510956534
 31
0.0
  0
LINE
  5
2B45
330
1F
100
AcDbEntity
  8
10
100
AcDbLine
 10
1124.772911642553
 20
642.4952510956583
 30
0.0
 11
1124.772911642553
 21
752.4952510956584
 31
0.0
  0
LINE
  5
2B46
330
1F
100
AcDbEntity
  8
10
100
AcDbLine
 10
1118.522911642553
 20
606.2452510956585
 30
0.0
 11
1118.522911642553
 21
833.7452510956534
 31
0.0
  0
LINE
  5
2B47
330
1F
100
AcDbEntity
  8
10
100
AcDbLine
 10
1121.022911642554
 20
606.2452510956585
 30
0.0
 11
1121.022911642554
 21
833.7452510956534
 31
0.0
  0
LINE
  5
2B48
330
1F
100
AcDbEntity
  8
10
100
AcDbLine
 10
1061.022911642554
 20
606.2452510956585
 30
0.0
 11
1061.022911642554
 21
833.7452510956534
 31
0.0
  0
LINE
  5
2B49
330
1F
100
AcDbEntity
  8
10
100
AcDbLine
 10
1063.522911642553
 20
606.2452510956585
 30
0.0
 11
1063.522911642553
 21
833.7452510956534
 31
0.0
  0
LINE
  5
2B4A
330
1F
100
AcDbEntity
  8
10
100
AcDbLine
 10
1066.022911642553
 20
606.2452510956585
 30
0.0
 11
1066.022911642553
 21
833.7452510956534
 31
0.0
  0
LINE
  5
2B4B
330
1F
100
AcDbEntity
  8
10
100
AcDbLine
 10
1068.522911642553
 20
606.2452510956585
 30
0.0
 11
1068.522911642553
 21
833.7452510956534
 31
0.0
  0
LINE
  5
2B4C
330
1F
100
AcDbEntity
  8
10
100
AcDbLine
 10
1071.022911642554
 20
606.2452510956585
 30
0.0
 11
1071.022911642554
 21
833.7452510956534
 31
0.0
  0
LINE
  5
2B4D
330
1F
100
AcDbEntity
  8
10
100
AcDbLine
 10
1073.522911642553
 20
606.2452510956585
 30
0.0
 11
1073.522911642553
 21
833.7452510956534
 31
0.0
  0
LINE
  5
2B4E
330
1F
100
AcDbEntity
  8
10
100
AcDbLine
 10
1076.022911642554
 20
606.2452510956585
 30
0.0
 11
1076.022911642554
 21
833.7452510956534
 31
0.0
  0
LINE
  5
2B4F
330
1F
100
AcDbEntity
  8
10
100
AcDbLine
 10
1078.522911642553
 20
606.2452510956585
 30
0.0
 11
1078.522911642553
 21
833.7452510956534
 31
0.0
  0
LINE
  5
2B50
330
1F
100
AcDbEntity
  8
10
100
AcDbLine
 10
1081.022911642554
 20
606.2452510956585
 30
0.0
 11
1081.022911642554
 21
833.7452510956534
 31
0.0
  0
LINE
  5
2B51
330
1F
100
AcDbEntity
  8
10
100
AcDbLine
 10
1083.522911642553
 20
606.2452510956585
 30
0.0
 11
1083.522911642553
 21
833.7452510956534
 31
0.0
  0
LINE
  5
2B52
330
1F
100
AcDbEntity
  8
10
100
AcDbLine
 10
1086.022911642553
 20
606.2452510956585
 30
0.0
 11
1086.022911642553
 21
833.7452510956534
 31
0.0
  0
LINE
  5
2B53
330
1F
100
AcDbEntity
  8
10
100
AcDbLine
 10
1088.522911642554
 20
606.2452510956585
 30
0.0
 11
1088.522911642554
 21
833.7452510956534
 31
0.0
  0
LINE
  5
2B54
330
1F
100
AcDbEntity
  8
10
100
AcDbLine
 10
1091.022911642553
 20
606.2452510956585
 30
0.0
 11
1091.022911642553
 21
833.7452510956534
 31
0.0
  0
LINE
  5
2B55
330
1F
100
AcDbEntity
  8
10
100
AcDbLine
 10
1093.522911642553
 20
606.2452510956585
 30
0.0
 11
1093.522911642553
 21
833.7452510956534
 31
0.0
  0
LINE
  5
2B56
330
1F
100
AcDbEntity
  8
10
100
AcDbLine
 10
1096.022911642553
 20
606.2452510956585
 30
0.0
 11
1096.022911642553
 21
833.7452510956534
 31
0.0
  0
LINE
  5
2B57
330
1F
100
AcDbEntity
  8
10
100
AcDbLine
 10
1098.522911642554
 20
606.2452510956585
 30
0.0
 11
1098.522911642554
 21
833.7452510956534
 31
0.0
  0
LINE
  5
2B58
330
1F
100
AcDbEntity
  8
10
100
AcDbLine
 10
1101.022911642554
 20
606.2452510956585
 30
0.0
 11
1101.022911642554
 21
833.7452510956534
 31
0.0
  0
LINE
  5
2B59
330
1F
100
AcDbEntity
  8
10
100
AcDbLine
 10
1103.522911642554
 20
606.2452510956585
 30
0.0
 11
1103.522911642554
 21
833.7452510956534
 31
0.0
  0
LINE
  5
2B5A
330
1F
100
AcDbEntity
  8
10
100
AcDbLine
 10
1106.022911642553
 20
606.2452510956585
 30
0.0
 11
1106.022911642553
 21
833.7452510956534
 31
0.0
  0
LINE
  5
2B5B
330
1F
100
AcDbEntity
  8
10
100
AcDbLine
 10
1108.522911642553
 20
606.2452510956585
 30
0.0
 11
1108.522911642553
 21
833.7452510956534
 31
0.0
  0
LINE
  5
2B5C
330
1F
100
AcDbEntity
  8
10
100
AcDbLine
 10
1111.022911642554
 20
606.2452510956585
 30
0.0
 11
1111.022911642554
 21
833.7452510956534
 31
0.0
  0
LINE
  5
2B5D
330
1F
100
AcDbEntity
  8
10
100
AcDbLine
 10
1113.522911642554
 20
606.2452510956585
 30
0.0
 11
1113.522911642554
 21
833.7452510956534
 31
0.0
  0
ARC
  5
2B5E
330
1F
100
AcDbEntity
  8
10
100
AcDbCircle
 10
1109.772911642553
 20
606.2452510956585
 30
0.0
 40
1.24999999999998
100
AcDbArc
 50
180.0
 51
0.0
  0
LINE
  5
2B5F
330
1F
100
AcDbEntity
  8
10
100
AcDbLine
 10
1111.022911642554
 20
687.4952510956562
 30
0.0
 11
1108.522911642553
 21
687.4952510956562
 31
0.0
  0
LINE
  5
2B60
330
1F
100
AcDbEntity
  8
10
100
AcDbLine
 10
1111.022911642554
 20
637.4952510956562
 30
0.0
 11
1108.522911642553
 21
637.4952510956562
 31
0.0
  0
LINE
  5
2B61
330
1F
100
AcDbEntity
  8
10
100
AcDbLine
 10
1111.022911642554
 20
652.4952510956563
 30
0.0
 11
1108.522911642553
 21
652.4952510956563
 31
0.0
  0
ARC
  5
2B62
330
1F
100
AcDbEntity
  8
10
100
AcDbCircle
 10
1084.772911642553
 20
606.2452510956585
 30
0.0
 40
1.249999999999998
100
AcDbArc
 50
180.0
 51
0.0
  0
ARC
  5
2B63
330
1F
100
AcDbEntity
  8
10
100
AcDbCircle
 10
1064.772911642553
 20
606.2452510956585
 30
0.0
 40
1.249999999999998
100
AcDbArc
 50
180.0
 51
0.0
  0
ARC
  5
2B64
330
1F
100
AcDbEntity
  8
10
100
AcDbCircle
 10
1069.772911642554
 20
606.2452510956585
 30
0.0
 40
1.249999999999998
100
AcDbArc
 50
180.0
 51
0.0
  0
ARC
  5
2B65
330
1F
100
AcDbEntity
  8
10
100
AcDbCircle
 10
1074.772911642553
 20
606.2452510956585
 30
0.0
 40
1.249999999999998
100
AcDbArc
 50
180.0
 51
0.0
  0
ARC
  5
2B66
330
1F
100
AcDbEntity
  8
10
100
AcDbCircle
 10
1079.772911642554
 20
606.2452510956585
 30
0.0
 40
1.250000000000011
100
AcDbArc
 50
180.0
 51
0.0
  0
ARC
  5
2B67
330
1F
100
AcDbEntity
  8
10
100
AcDbCircle
 10
1089.772911642554
 20
606.2452510956585
 30
0.0
 40
1.249999999999998
100
AcDbArc
 50
180.0
 51
0.0
  0
ARC
  5
2B68
330
1F
100
AcDbEntity
  8
10
100
AcDbCircle
 10
1094.772911642553
 20
606.2452510956585
 30
0.0
 40
1.249999999999998
100
AcDbArc
 50
180.0
 51
0.0
  0
ARC
  5
2B69
330
1F
100
AcDbEntity
  8
10
100
AcDbCircle
 10
1099.772911642553
 20
606.2452510956585
 30
0.0
 40
1.24999999999998
100
AcDbArc
 50
180.0
 51
0.0
  0
ARC
  5
2B6A
330
1F
100
AcDbEntity
  8
10
100
AcDbCircle
 10
1104.772911642553
 20
606.2452510956585
 30
0.0
 40
1.250000000000011
100
AcDbArc
 50
180.0
 51
0.0
  0
LINE
  5
2B6B
330
1F
100
AcDbEntity
  8
10
100
AcDbLine
 10
1086.022911642553
 20
687.4952510956562
 30
0.0
 11
1083.522911642553
 21
687.4952510956562
 31
0.0
  0
LINE
  5
2B6C
330
1F
100
AcDbEntity
  8
10
100
AcDbLine
 10
1086.022911642553
 20
637.4952510956562
 30
0.0
 11
1083.522911642553
 21
637.4952510956562
 31
0.0
  0
LINE
  5
2B6D
330
1F
100
AcDbEntity
  8
10
100
AcDbLine
 10
1086.022911642553
 20
652.4952510956563
 30
0.0
 11
1083.522911642553
 21
652.4952510956563
 31
0.0
  0
LINE
  5
2B6E
330
1F
100
AcDbEntity
  8
10
100
AcDbLine
 10
1066.022911642553
 20
637.4952510956562
 30
0.0
 11
1063.522911642553
 21
637.4952510956562
 31
0.0
  0
LINE
  5
2B6F
330
1F
100
AcDbEntity
  8
10
100
AcDbLine
 10
1066.022911642553
 20
652.4952510956563
 30
0.0
 11
1063.522911642553
 21
652.4952510956563
 31
0.0
  0
LINE
  5
2B70
330
1F
100
AcDbEntity
  8
10
100
AcDbLine
 10
1071.022911642554
 20
637.4952510956562
 30
0.0
 11
1068.522911642553
 21
637.4952510956562
 31
0.0
  0
LINE
  5
2B71
330
1F
100
AcDbEntity
  8
10
100
AcDbLine
 10
1071.022911642554
 20
652.4952510956563
 30
0.0
 11
1068.522911642553
 21
652.4952510956563
 31
0.0
  0
LINE
  5
2B72
330
1F
100
AcDbEntity
  8
10
100
AcDbLine
 10
1076.022911642554
 20
637.4952510956562
 30
0.0
 11
1073.522911642553
 21
637.4952510956562
 31
0.0
  0
LINE
  5
2B73
330
1F
100
AcDbEntity
  8
10
100
AcDbLine
 10
1076.022911642554
 20
652.4952510956563
 30
0.0
 11
1073.522911642553
 21
652.4952510956563
 31
0.0
  0
LINE
  5
2B74
330
1F
100
AcDbEntity
  8
10
100
AcDbLine
 10
1081.022911642554
 20
637.4952510956562
 30
0.0
 11
1078.522911642553
 21
637.4952510956562
 31
0.0
  0
LINE
  5
2B75
330
1F
100
AcDbEntity
  8
10
100
AcDbLine
 10
1081.022911642554
 20
652.4952510956563
 30
0.0
 11
1078.522911642553
 21
652.4952510956563
 31
0.0
  0
LINE
  5
2B76
330
1F
100
AcDbEntity
  8
10
100
AcDbLine
 10
1066.022911642553
 20
687.4952510956562
 30
0.0
 11
1063.522911642553
 21
687.4952510956562
 31
0.0
  0
LINE
  5
2B77
330
1F
100
AcDbEntity
  8
10
100
AcDbLine
 10
1071.022911642554
 20
687.4952510956562
 30
0.0
 11
1068.522911642553
 21
687.4952510956562
 31
0.0
  0
LINE
  5
2B78
330
1F
100
AcDbEntity
  8
10
100
AcDbLine
 10
1076.022911642554
 20
687.4952510956562
 30
0.0
 11
1073.522911642553
 21
687.4952510956562
 31
0.0
  0
LINE
  5
2B79
330
1F
100
AcDbEntity
  8
10
100
AcDbLine
 10
1081.022911642554
 20
687.4952510956562
 30
0.0
 11
1078.522911642553
 21
687.4952510956562
 31
0.0
  0
LINE
  5
2B7A
330
1F
100
AcDbEntity
  8
10
100
AcDbLine
 10
1091.022911642553
 20
637.4952510956562
 30
0.0
 11
1088.522911642554
 21
637.4952510956562
 31
0.0
  0
LINE
  5
2B7B
330
1F
100
AcDbEntity
  8
10
100
AcDbLine
 10
1091.022911642553
 20
652.4952510956563
 30
0.0
 11
1088.522911642554
 21
652.4952510956563
 31
0.0
  0
LINE
  5
2B7C
330
1F
100
AcDbEntity
  8
10
100
AcDbLine
 10
1096.022911642553
 20
637.4952510956562
 30
0.0
 11
1093.522911642553
 21
637.4952510956562
 31
0.0
  0
LINE
  5
2B7D
330
1F
100
AcDbEntity
  8
10
100
AcDbLine
 10
1096.022911642553
 20
652.4952510956563
 30
0.0
 11
1093.522911642553
 21
652.4952510956563
 31
0.0
  0
LINE
  5
2B7E
330
1F
100
AcDbEntity
  8
10
100
AcDbLine
 10
1101.022911642554
 20
637.4952510956562
 30
0.0
 11
1098.522911642554
 21
637.4952510956562
 31
0.0
  0
LINE
  5
2B7F
330
1F
100
AcDbEntity
  8
10
100
AcDbLine
 10
1101.022911642554
 20
652.4952510956563
 30
0.0
 11
1098.522911642554
 21
652.4952510956563
 31
0.0
  0
LINE
  5
2B80
330
1F
100
AcDbEntity
  8
10
100
AcDbLine
 10
1106.022911642553
 20
637.4952510956562
 30
0.0
 11
1103.522911642554
 21
637.4952510956562
 31
0.0
  0
LINE
  5
2B81
330
1F
100
AcDbEntity
  8
10
100
AcDbLine
 10
1106.022911642553
 20
652.4952510956563
 30
0.0
 11
1103.522911642554
 21
652.4952510956563
 31
0.0
  0
LINE
  5
2B82
330
1F
100
AcDbEntity
  8
10
100
AcDbLine
 10
1091.022911642553
 20
687.4952510956562
 30
0.0
 11
1088.522911642554
 21
687.4952510956562
 31
0.0
  0
LINE
  5
2B83
330
1F
100
AcDbEntity
  8
10
100
AcDbLine
 10
1096.022911642553
 20
687.4952510956562
 30
0.0
 11
1093.522911642553
 21
687.4952510956562
 31
0.0
  0
LINE
  5
2B84
330
1F
100
AcDbEntity
  8
10
100
AcDbLine
 10
1101.022911642554
 20
687.4952510956562
 30
0.0
 11
1098.522911642554
 21
687.4952510956562
 31
0.0
  0
LINE
  5
2B85
330
1F
100
AcDbEntity
  8
10
100
AcDbLine
 10
1106.022911642553
 20
687.4952510956562
 30
0.0
 11
1103.522911642554
 21
687.4952510956562
 31
0.0
  0
LINE
  5
2B86
330
1F
100
AcDbEntity
  8
10
 48
3.0
100
AcDbLine
 10
1154.222911642553
 20
632.1952510956585
 30
0.0
 11
1154.222911642553
 21
594.1952510956585
 31
0.0
  0
LINE
  5
2B87
330
1F
100
AcDbEntity
  8
10
100
AcDbLine
 10
1134.272911642554
 20
642.4952510956583
 30
0.0
 11
1134.272911642554
 21
574.9952510956585
 31
0.0
  0
LINE
  5
2B88
330
1F
100
AcDbEntity
  8
10
100
AcDbLine
 10
1132.772911642554
 20
569.9952510956583
 30
0.0
 11
1138.772911642554
 21
569.9952510956583
 31
0.0
  0
LINE
  5
2B89
330
1F
100
AcDbEntity
  8
10
100
AcDbLine
 10
1129.772911642554
 20
574.9952510956585
 30
0.0
 11
1134.272911642554
 21
574.9952510956585
 31
0.0
  0
LINE
  5
2B8A
330
1F
100
AcDbEntity
  8
10
100
AcDbLine
 10
1132.772911642554
 20
569.9952510956583
 30
0.0
 11
1132.772911642554
 21
574.9952510956585
 31
0.0
  0
ARC
  5
2B8B
330
1F
100
AcDbEntity
  8
10
100
AcDbCircle
 10
1114.772911642553
 20
606.2452510956585
 30
0.0
 40
1.250000000000011
100
AcDbArc
 50
180.0
 51
0.0
  0
ARC
  5
2B8C
330
1F
100
AcDbEntity
  8
10
100
AcDbCircle
 10
1119.772911642554
 20
606.2452510956585
 30
0.0
 40
1.250000000000011
100
AcDbArc
 50
180.0
 51
0.0
  0
LINE
  5
2B8D
330
1F
100
AcDbEntity
  8
10
100
AcDbLine
 10
1148.772911642554
 20
572.2952510956583
 30
0.0
 11
1138.772911642554
 21
572.2952510956583
 31
0.0
  0
LINE
  5
2B8E
330
1F
100
AcDbEntity
  8
10
100
AcDbLine
 10
1138.772911642554
 20
569.9952510956583
 30
0.0
 11
1157.995133864776
 21
569.9952510956583
 31
0.0
  0
LINE
  5
2B8F
330
1F
100
AcDbEntity
  8
10
100
AcDbLine
 10
1124.772911642553
 20
642.4952510956583
 30
0.0
 11
1134.272911642554
 21
642.4952510956583
 31
0.0
  0
LINE
  5
2B90
330
1F
100
AcDbEntity
  8
10
100
AcDbLine
 10
1116.022911642553
 20
637.4952510956562
 30
0.0
 11
1113.522911642554
 21
637.4952510956562
 31
0.0
  0
LINE
  5
2B91
330
1F
100
AcDbEntity
  8
10
100
AcDbLine
 10
1116.022911642553
 20
652.4952510956563
 30
0.0
 11
1113.522911642554
 21
652.4952510956563
 31
0.0
  0
LINE
  5
2B92
330
1F
100
AcDbEntity
  8
10
100
AcDbLine
 10
1121.022911642554
 20
637.4952510956562
 30
0.0
 11
1118.522911642553
 21
637.4952510956562
 31
0.0
  0
LINE
  5
2B93
330
1F
100
AcDbEntity
  8
10
100
AcDbLine
 10
1121.022911642554
 20
652.4952510956563
 30
0.0
 11
1118.522911642553
 21
652.4952510956563
 31
0.0
  0
LINE
  5
2B94
330
1F
100
AcDbEntity
  8
10
100
AcDbLine
 10
1116.022911642553
 20
687.4952510956562
 30
0.0
 11
1113.522911642554
 21
687.4952510956562
 31
0.0
  0
LINE
  5
2B95
330
1F
100
AcDbEntity
  8
10
100
AcDbLine
 10
1121.022911642554
 20
687.4952510956562
 30
0.0
 11
1118.522911642553
 21
687.4952510956562
 31
0.0
  0
ARC
  5
2B96
330
1F
100
AcDbEntity
  8
10
100
AcDbCircle
 10
1109.772911642553
 20
833.7452510956534
 30
0.0
 40
1.250000000000011
100
AcDbArc
 50
0.0
 51
180.0
  0
LINE
  5
2B97
330
1F
100
AcDbEntity
  8
10
100
AcDbLine
 10
1111.022911642554
 20
802.4952510956561
 30
0.0
 11
1108.522911642553
 21
802.4952510956561
 31
0.0
  0
LINE
  5
2B98
330
1F
100
AcDbEntity
  8
10
100
AcDbLine
 10
1111.022911642554
 20
787.4952510956561
 30
0.0
 11
1108.522911642553
 21
787.4952510956561
 31
0.0
  0
LINE
  5
2B99
330
1F
100
AcDbEntity
  8
10
100
AcDbLine
 10
1111.022911642554
 20
752.4952510956561
 30
0.0
 11
1108.522911642553
 21
752.4952510956561
 31
0.0
  0
LINE
  5
2B9A
330
1F
100
AcDbEntity
  8
10
100
AcDbLine
 10
1111.022911642554
 20
737.4952510956562
 30
0.0
 11
1108.522911642553
 21
737.4952510956562
 31
0.0
  0
LINE
  5
2B9B
330
1F
100
AcDbEntity
  8
10
100
AcDbLine
 10
1111.022911642554
 20
702.4952510956563
 30
0.0
 11
1108.522911642553
 21
702.4952510956563
 31
0.0
  0
LINE
  5
2B9C
330
1F
100
AcDbEntity
  8
10
100
AcDbLine
 10
1086.022911642553
 20
752.4952510956561
 30
0.0
 11
1083.522911642553
 21
752.4952510956561
 31
0.0
  0
LINE
  5
2B9D
330
1F
100
AcDbEntity
  8
10
100
AcDbLine
 10
1086.022911642553
 20
737.4952510956562
 30
0.0
 11
1083.522911642553
 21
737.4952510956562
 31
0.0
  0
LINE
  5
2B9E
330
1F
100
AcDbEntity
  8
10
100
AcDbLine
 10
1086.022911642553
 20
702.4952510956563
 30
0.0
 11
1083.522911642553
 21
702.4952510956563
 31
0.0
  0
LINE
  5
2B9F
330
1F
100
AcDbEntity
  8
10
100
AcDbLine
 10
1066.022911642553
 20
702.4952510956563
 30
0.0
 11
1063.522911642553
 21
702.4952510956563
 31
0.0
  0
LINE
  5
2BA0
330
1F
100
AcDbEntity
  8
10
100
AcDbLine
 10
1071.022911642554
 20
702.4952510956563
 30
0.0
 11
1068.522911642553
 21
702.4952510956563
 31
0.0
  0
LINE
  5
2BA1
330
1F
100
AcDbEntity
  8
10
100
AcDbLine
 10
1076.022911642554
 20
702.4952510956563
 30
0.0
 11
1073.522911642553
 21
702.4952510956563
 31
0.0
  0
LINE
  5
2BA2
330
1F
100
AcDbEntity
  8
10
100
AcDbLine
 10
1081.022911642554
 20
702.4952510956563
 30
0.0
 11
1078.522911642553
 21
702.4952510956563
 31
0.0
  0
LINE
  5
2BA3
330
1F
100
AcDbEntity
  8
10
100
AcDbLine
 10
1066.022911642553
 20
737.4952510956562
 30
0.0
 11
1063.522911642553
 21
737.4952510956562
 31
0.0
  0
LINE
  5
2BA4
330
1F
100
AcDbEntity
  8
10
100
AcDbLine
 10
1071.022911642554
 20
737.4952510956562
 30
0.0
 11
1068.522911642553
 21
737.4952510956562
 31
0.0
  0
LINE
  5
2BA5
330
1F
100
AcDbEntity
  8
10
100
AcDbLine
 10
1066.022911642553
 20
752.4952510956561
 30
0.0
 11
1063.522911642553
 21
752.4952510956561
 31
0.0
  0
LINE
  5
2BA6
330
1F
100
AcDbEntity
  8
10
100
AcDbLine
 10
1071.022911642554
 20
752.4952510956561
 30
0.0
 11
1068.522911642553
 21
752.4952510956561
 31
0.0
  0
LINE
  5
2BA7
330
1F
100
AcDbEntity
  8
10
100
AcDbLine
 10
1076.022911642554
 20
737.4952510956562
 30
0.0
 11
1073.522911642553
 21
737.4952510956562
 31
0.0
  0
LINE
  5
2BA8
330
1F
100
AcDbEntity
  8
10
100
AcDbLine
 10
1081.022911642554
 20
737.4952510956562
 30
0.0
 11
1078.522911642553
 21
737.4952510956562
 31
0.0
  0
LINE
  5
2BA9
330
1F
100
AcDbEntity
  8
10
100
AcDbLine
 10
1076.022911642554
 20
752.4952510956561
 30
0.0
 11
1073.522911642553
 21
752.4952510956561
 31
0.0
  0
LINE
  5
2BAA
330
1F
100
AcDbEntity
  8
10
100
AcDbLine
 10
1081.022911642554
 20
752.4952510956561
 30
0.0
 11
1078.522911642553
 21
752.4952510956561
 31
0.0
  0
LINE
  5
2BAB
330
1F
100
AcDbEntity
  8
10
100
AcDbLine
 10
1091.022911642553
 20
702.4952510956563
 30
0.0
 11
1088.522911642554
 21
702.4952510956563
 31
0.0
  0
LINE
  5
2BAC
330
1F
100
AcDbEntity
  8
10
100
AcDbLine
 10
1096.022911642553
 20
702.4952510956563
 30
0.0
 11
1093.522911642553
 21
702.4952510956563
 31
0.0
  0
LINE
  5
2BAD
330
1F
100
AcDbEntity
  8
10
100
AcDbLine
 10
1101.022911642554
 20
702.4952510956563
 30
0.0
 11
1098.522911642554
 21
702.4952510956563
 31
0.0
  0
LINE
  5
2BAE
330
1F
100
AcDbEntity
  8
10
100
AcDbLine
 10
1106.022911642553
 20
702.4952510956563
 30
0.0
 11
1103.522911642554
 21
702.4952510956563
 31
0.0
  0
LINE
  5
2BAF
330
1F
100
AcDbEntity
  8
10
100
AcDbLine
 10
1091.022911642553
 20
737.4952510956562
 30
0.0
 11
1088.522911642554
 21
737.4952510956562
 31
0.0
  0
LINE
  5
2BB0
330
1F
100
AcDbEntity
  8
10
100
AcDbLine
 10
1096.022911642553
 20
737.4952510956562
 30
0.0
 11
1093.522911642553
 21
737.4952510956562
 31
0.0
  0
LINE
  5
2BB1
330
1F
100
AcDbEntity
  8
10
100
AcDbLine
 10
1091.022911642553
 20
752.4952510956561
 30
0.0
 11
1088.522911642554
 21
752.4952510956561
 31
0.0
  0
LINE
  5
2BB2
330
1F
100
AcDbEntity
  8
10
100
AcDbLine
 10
1096.022911642553
 20
752.4952510956561
 30
0.0
 11
1093.522911642553
 21
752.4952510956561
 31
0.0
  0
LINE
  5
2BB3
330
1F
100
AcDbEntity
  8
10
100
AcDbLine
 10
1101.022911642554
 20
737.4952510956562
 30
0.0
 11
1098.522911642554
 21
737.4952510956562
 31
0.0
  0
LINE
  5
2BB4
330
1F
100
AcDbEntity
  8
10
100
AcDbLine
 10
1106.022911642553
 20
737.4952510956562
 30
0.0
 11
1103.522911642554
 21
737.4952510956562
 31
0.0
  0
LINE
  5
2BB5
330
1F
100
AcDbEntity
  8
10
100
AcDbLine
 10
1101.022911642554
 20
752.4952510956561
 30
0.0
 11
1098.522911642554
 21
752.4952510956561
 31
0.0
  0
LINE
  5
2BB6
330
1F
100
AcDbEntity
  8
10
100
AcDbLine
 10
1106.022911642553
 20
752.4952510956561
 30
0.0
 11
1103.522911642554
 21
752.4952510956561
 31
0.0
  0
ARC
  5
2BB7
330
1F
100
AcDbEntity
  8
10
100
AcDbCircle
 10
1084.772911642553
 20
833.7452510956534
 30
0.0
 40
1.250000000000011
100
AcDbArc
 50
0.0
 51
180.0
  0
LINE
  5
2BB8
330
1F
100
AcDbEntity
  8
10
100
AcDbLine
 10
1086.022911642553
 20
802.4952510956561
 30
0.0
 11
1083.522911642553
 21
802.4952510956561
 31
0.0
  0
LINE
  5
2BB9
330
1F
100
AcDbEntity
  8
10
100
AcDbLine
 10
1086.022911642553
 20
787.4952510956561
 30
0.0
 11
1083.522911642553
 21
787.4952510956561
 31
0.0
  0
LINE
  5
2BBA
330
1F
100
AcDbEntity
  8
10
100
AcDbLine
 10
1066.022911642553
 20
787.4952510956561
 30
0.0
 11
1063.522911642553
 21
787.4952510956561
 31
0.0
  0
LINE
  5
2BBB
330
1F
100
AcDbEntity
  8
10
100
AcDbLine
 10
1071.022911642554
 20
787.4952510956561
 30
0.0
 11
1068.522911642553
 21
787.4952510956561
 31
0.0
  0
LINE
  5
2BBC
330
1F
100
AcDbEntity
  8
10
100
AcDbLine
 10
1066.022911642553
 20
802.4952510956561
 30
0.0
 11
1063.522911642553
 21
802.4952510956561
 31
0.0
  0
LINE
  5
2BBD
330
1F
100
AcDbEntity
  8
10
100
AcDbLine
 10
1071.022911642554
 20
802.4952510956561
 30
0.0
 11
1068.522911642553
 21
802.4952510956561
 31
0.0
  0
LINE
  5
2BBE
330
1F
100
AcDbEntity
  8
10
100
AcDbLine
 10
1076.022911642554
 20
787.4952510956561
 30
0.0
 11
1073.522911642553
 21
787.4952510956561
 31
0.0
  0
LINE
  5
2BBF
330
1F
100
AcDbEntity
  8
10
100
AcDbLine
 10
1081.022911642554
 20
787.4952510956561
 30
0.0
 11
1078.522911642553
 21
787.4952510956561
 31
0.0
  0
LINE
  5
2BC0
330
1F
100
AcDbEntity
  8
10
100
AcDbLine
 10
1076.022911642554
 20
802.4952510956561
 30
0.0
 11
1073.522911642553
 21
802.4952510956561
 31
0.0
  0
LINE
  5
2BC1
330
1F
100
AcDbEntity
  8
10
100
AcDbLine
 10
1081.022911642554
 20
802.4952510956561
 30
0.0
 11
1078.522911642553
 21
802.4952510956561
 31
0.0
  0
ARC
  5
2BC2
330
1F
100
AcDbEntity
  8
10
100
AcDbCircle
 10
1064.772911642553
 20
833.7452510956534
 30
0.0
 40
1.249999999999998
100
AcDbArc
 50
0.0
 51
180.0
  0
ARC
  5
2BC3
330
1F
100
AcDbEntity
  8
10
100
AcDbCircle
 10
1069.772911642554
 20
833.7452510956534
 30
0.0
 40
1.249999999999998
100
AcDbArc
 50
0.0
 51
180.0
  0
ARC
  5
2BC4
330
1F
100
AcDbEntity
  8
10
100
AcDbCircle
 10
1074.772911642553
 20
833.7452510956534
 30
0.0
 40
1.249999999999998
100
AcDbArc
 50
0.0
 51
180.0
  0
ARC
  5
2BC5
330
1F
100
AcDbEntity
  8
10
100
AcDbCircle
 10
1079.772911642554
 20
833.7452510956534
 30
0.0
 40
1.249999999999998
100
AcDbArc
 50
0.0
 51
180.0
  0
LINE
  5
2BC6
330
1F
100
AcDbEntity
  8
10
100
AcDbLine
 10
1091.022911642553
 20
787.4952510956561
 30
0.0
 11
1088.522911642554
 21
787.4952510956561
 31
0.0
  0
LINE
  5
2BC7
330
1F
100
AcDbEntity
  8
10
100
AcDbLine
 10
1096.022911642553
 20
787.4952510956561
 30
0.0
 11
1093.522911642553
 21
787.4952510956561
 31
0.0
  0
LINE
  5
2BC8
330
1F
100
AcDbEntity
  8
10
100
AcDbLine
 10
1091.022911642553
 20
802.4952510956561
 30
0.0
 11
1088.522911642554
 21
802.4952510956561
 31
0.0
  0
LINE
  5
2BC9
330
1F
100
AcDbEntity
  8
10
100
AcDbLine
 10
1096.022911642553
 20
802.4952510956561
 30
0.0
 11
1093.522911642553
 21
802.4952510956561
 31
0.0
  0
LINE
  5
2BCA
330
1F
100
AcDbEntity
  8
10
100
AcDbLine
 10
1101.022911642554
 20
787.4952510956561
 30
0.0
 11
1098.522911642554
 21
787.4952510956561
 31
0.0
  0
LINE
  5
2BCB
330
1F
100
AcDbEntity
  8
10
100
AcDbLine
 10
1106.022911642553
 20
787.4952510956561
 30
0.0
 11
1103.522911642554
 21
787.4952510956561
 31
0.0
  0
LINE
  5
2BCC
330
1F
100
AcDbEntity
  8
10
100
AcDbLine
 10
1101.022911642554
 20
802.4952510956561
 30
0.0
 11
1098.522911642554
 21
802.4952510956561
 31
0.0
  0
LINE
  5
2BCD
330
1F
100
AcDbEntity
  8
10
100
AcDbLine
 10
1106.022911642553
 20
802.4952510956561
 30
0.0
 11
1103.522911642554
 21
802.4952510956561
 31
0.0
  0
ARC
  5
2BCE
330
1F
100
AcDbEntity
  8
10
100
AcDbCircle
 10
1089.772911642554
 20
833.7452510956534
 30
0.0
 40
1.249999999999998
100
AcDbArc
 50
0.0
 51
180.0
  0
ARC
  5
2BCF
330
1F
100
AcDbEntity
  8
10
100
AcDbCircle
 10
1094.772911642553
 20
833.7452510956534
 30
0.0
 40
1.250000000000011
100
AcDbArc
 50
0.0
 51
180.0
  0
ARC
  5
2BD0
330
1F
100
AcDbEntity
  8
10
100
AcDbCircle
 10
1099.772911642553
 20
833.7452510956534
 30
0.0
 40
1.250000000000011
100
AcDbArc
 50
0.0
 51
180.0
  0
ARC
  5
2BD1
330
1F
100
AcDbEntity
  8
10
100
AcDbCircle
 10
1104.772911642553
 20
833.7452510956534
 30
0.0
 40
1.24999999999998
100
AcDbArc
 50
0.0
 51
180.0
  0
LINE
  5
2BD2
330
1F
100
AcDbEntity
  8
10
100
AcDbLine
 10
1124.772911642553
 20
752.4952510956584
 30
0.0
 11
1134.272911642554
 21
752.4952510956584
 31
0.0
  0
LINE
  5
2BD3
330
1F
100
AcDbEntity
  8
10
100
AcDbLine
 10
1116.022911642553
 20
702.4952510956563
 30
0.0
 11
1113.522911642554
 21
702.4952510956563
 31
0.0
  0
LINE
  5
2BD4
330
1F
100
AcDbEntity
  8
10
100
AcDbLine
 10
1121.022911642554
 20
702.4952510956563
 30
0.0
 11
1118.522911642553
 21
702.4952510956563
 31
0.0
  0
LINE
  5
2BD5
330
1F
100
AcDbEntity
  8
10
100
AcDbLine
 10
1116.022911642553
 20
737.4952510956562
 30
0.0
 11
1113.522911642554
 21
737.4952510956562
 31
0.0
  0
LINE
  5
2BD6
330
1F
100
AcDbEntity
  8
10
100
AcDbLine
 10
1121.022911642554
 20
737.4952510956562
 30
0.0
 11
1118.522911642553
 21
737.4952510956562
 31
0.0
  0
LINE
  5
2BD7
330
1F
100
AcDbEntity
  8
10
100
AcDbLine
 10
1116.022911642553
 20
752.4952510956561
 30
0.0
 11
1113.522911642554
 21
752.4952510956561
 31
0.0
  0
LINE
  5
2BD8
330
1F
100
AcDbEntity
  8
10
100
AcDbLine
 10
1121.022911642554
 20
752.4952510956561
 30
0.0
 11
1118.522911642553
 21
752.4952510956561
 31
0.0
  0
LINE
  5
2BD9
330
1F
100
AcDbEntity
  8
10
100
AcDbLine
 10
1133.272911642553
 20
751.4952510956584
 30
0.0
 11
1133.272911642553
 21
752.4952510956584
 31
0.0
  0
LINE
  5
2BDA
330
1F
100
AcDbEntity
  8
10
100
AcDbLine
 10
1132.772911642554
 20
751.4952510956584
 30
0.0
 11
1133.272911642553
 21
751.4952510956584
 31
0.0
  0
LINE
  5
2BDB
330
1F
100
AcDbEntity
  8
10
100
AcDbLine
 10
1116.022911642553
 20
787.4952510956561
 30
0.0
 11
1113.522911642554
 21
787.4952510956561
 31
0.0
  0
LINE
  5
2BDC
330
1F
100
AcDbEntity
  8
10
100
AcDbLine
 10
1121.022911642554
 20
787.4952510956561
 30
0.0
 11
1118.522911642553
 21
787.4952510956561
 31
0.0
  0
LINE
  5
2BDD
330
1F
100
AcDbEntity
  8
10
100
AcDbLine
 10
1116.022911642553
 20
802.4952510956561
 30
0.0
 11
1113.522911642554
 21
802.4952510956561
 31
0.0
  0
LINE
  5
2BDE
330
1F
100
AcDbEntity
  8
10
100
AcDbLine
 10
1121.022911642554
 20
802.4952510956561
 30
0.0
 11
1118.522911642553
 21
802.4952510956561
 31
0.0
  0
ARC
  5
2BDF
330
1F
100
AcDbEntity
  8
10
100
AcDbCircle
 10
1114.772911642553
 20
833.7452510956534
 30
0.0
 40
1.24999999999998
100
AcDbArc
 50
0.0
 51
180.0
  0
ARC
  5
2BE0
330
1F
100
AcDbEntity
  8
10
100
AcDbCircle
 10
1119.772911642554
 20
833.7452510956534
 30
0.0
 40
1.24999999999998
100
AcDbArc
 50
0.0
 51
180.0
  0
LINE
  5
2BE1
330
1F
100
AcDbEntity
  8
10
100
AcDbLine
 10
978.7729116425543
 20
854.9952510956584
 30
0.0
 11
1104.772911642553
 21
854.9952510956584
 31
0.0
  0
LINE
  5
2BE2
330
1F
100
AcDbEntity
  8
10
100
AcDbLine
 10
978.7729116425539
 20
854.9952510956584
 30
0.0
 11
963.6936143676686
 21
854.2049786123326
 31
0.0
  0
LINE
  5
2BE3
330
1F
100
AcDbEntity
  8
10
100
AcDbLine
 10
963.9832630051117
 20
854.2201584541938
 30
0.0
 11
960.6936143676687
 21
854.0477552744839
 31
0.0
  0
ARC
  5
2BE4
330
1F
100
AcDbEntity
  8
10
100
AcDbCircle
 10
963.8506222363975
 20
851.2090900080691
 30
0.0
 40
2.999999999999944
100
AcDbArc
 50
93.00000000000236
 51
160.3162775136983
  0
LINE
  5
2BE5
330
1F
100
AcDbEntity
  8
10
100
AcDbLine
 10
1129.772911642554
 20
864.9952510956584
 30
0.0
 11
1104.772911642553
 21
854.9952510956584
 31
0.0
  0
LINE
  5
2BE6
330
1F
100
AcDbEntity
  8
10
100
AcDbLine
 10
1132.772911642554
 20
869.9952510956585
 30
0.0
 11
1138.772911642554
 21
869.9952510956585
 31
0.0
  0
LINE
  5
2BE7
330
1F
100
AcDbEntity
  8
10
100
AcDbLine
 10
1129.772911642554
 20
864.9952510956584
 30
0.0
 11
1134.272911642554
 21
864.9952510956584
 31
0.0
  0
LINE
  5
2BE8
330
1F
100
AcDbEntity
  8
10
100
AcDbLine
 10
1132.772911642554
 20
864.9952510956584
 30
0.0
 11
1132.772911642554
 21
869.9952510956585
 31
0.0
  0
LINE
  5
2BE9
330
1F
100
AcDbEntity
  8
10
100
AcDbLine
 10
1148.772911642554
 20
867.6952510956585
 30
0.0
 11
1138.772911642554
 21
867.6952510956585
 31
0.0
  0
LINE
  5
2BEA
330
1F
100
AcDbEntity
  8
10
100
AcDbLine
 10
1138.772911642554
 20
869.9952510956585
 30
0.0
 11
1157.995133864776
 21
869.9952510956585
 31
0.0
  0
LINE
  5
2BEB
330
1F
100
AcDbEntity
  8
10
100
AcDbLine
 10
1252.772911642554
 20
556.9952510956583
 30
0.0
 11
1252.772911642554
 21
882.9952510956585
 31
0.0
  0
ARC
  5
2BEC
330
1F
100
AcDbEntity
  8
10
100
AcDbCircle
 10
1202.772911642554
 20
676.9952510956586
 30
0.0
 40
20.00000000000001
100
AcDbArc
 50
0.0
 51
90.0
  0
ARC
  5
2BED
330
1F
100
AcDbEntity
  8
10
100
AcDbCircle
 10
1183.772911642553
 20
676.9952510956586
 30
0.0
 40
20.0
100
AcDbArc
 50
90.0
 51
180.0
  0
ARC
  5
2BEE
330
1F
100
AcDbEntity
  8
10
100
AcDbCircle
 10
1202.772911642554
 20
626.9952510956588
 30
0.0
 40
20.0
100
AcDbArc
 50
270.0
 51
0.0
  0
ARC
  5
2BEF
330
1F
100
AcDbEntity
  8
10
100
AcDbCircle
 10
1183.772911642553
 20
626.9952510956588
 30
0.0
 40
19.99999999999995
100
AcDbArc
 50
180.0
 51
270.0
  0
LINE
  5
2BF0
330
1F
100
AcDbEntity
  8
10
100
AcDbLine
 10
1183.772911642553
 20
606.9952510956587
 30
0.0
 11
1202.772911642554
 21
606.9952510956587
 31
0.0
  0
LINE
  5
2BF1
330
1F
100
AcDbEntity
  8
10
100
AcDbLine
 10
1163.772911642553
 20
626.9952510956588
 30
0.0
 11
1163.772911642553
 21
676.9952510956586
 31
0.0
  0
LINE
  5
2BF2
330
1F
100
AcDbEntity
  8
10
 48
3.0
100
AcDbLine
 10
1234.222911642554
 20
632.1952510956585
 30
0.0
 11
1234.222911642554
 21
594.1952510956585
 31
0.0
  0
LINE
  5
2BF3
330
1F
100
AcDbEntity
  8
10
100
AcDbLine
 10
1212.772911642554
 20
556.9952510956583
 30
0.0
 11
1253.772911642553
 21
556.9952510956583
 31
0.0
  0
LINE
  5
2BF4
330
1F
100
AcDbEntity
  8
10
100
AcDbLine
 10
1253.772911642553
 20
554.9952510956585
 30
0.0
 11
1253.772911642553
 21
572.2952510956583
 31
0.0
  0
LINE
  5
2BF5
330
1F
100
AcDbEntity
  8
10
100
AcDbLine
 10
1251.472911642554
 20
554.9952510956585
 30
0.0
 11
1253.772911642553
 21
554.9952510956585
 31
0.0
  0
LINE
  5
2BF6
330
1F
100
AcDbEntity
  8
10
100
AcDbLine
 10
1251.472911642554
 20
554.9952510956585
 30
0.0
 11
1251.472911642554
 21
556.9952510956583
 31
0.0
  0
LINE
  5
2BF7
330
1F
100
AcDbEntity
  8
10
100
AcDbLine
 10
1252.772911642554
 20
572.2952510956583
 30
0.0
 11
1253.772911642553
 21
572.2952510956583
 31
0.0
  0
LINE
  5
2BF8
330
1F
100
AcDbEntity
  8
10
100
AcDbLine
 10
1222.772911642554
 20
626.9952510956588
 30
0.0
 11
1222.772911642554
 21
676.9952510956586
 31
0.0
  0
ARC
  5
2BF9
330
1F
100
AcDbEntity
  8
10
100
AcDbCircle
 10
1202.772911642554
 20
762.9952510956585
 30
0.0
 40
19.99999999999998
100
AcDbArc
 50
270.0
 51
0.0
  0
ARC
  5
2BFA
330
1F
100
AcDbEntity
  8
10
100
AcDbCircle
 10
1202.772911642554
 20
812.9952510956588
 30
0.0
 40
20.00000000000001
100
AcDbArc
 50
0.0
 51
90.0
  0
LINE
  5
2BFB
330
1F
100
AcDbEntity
  8
10
100
AcDbLine
 10
1163.772911642553
 20
762.9952510956585
 30
0.0
 11
1163.772911642553
 21
812.9952510956588
 31
0.0
  0
LINE
  5
2BFC
330
1F
100
AcDbEntity
  8
10
100
AcDbLine
 10
1183.772911642553
 20
696.9952510956588
 30
0.0
 11
1202.772911642554
 21
696.9952510956588
 31
0.0
  0
LINE
  5
2BFD
330
1F
100
AcDbEntity
  8
10
100
AcDbLine
 10
1183.772911642553
 20
742.9952510956588
 30
0.0
 11
1202.772911642554
 21
742.9952510956588
 31
0.0
  0
ARC
  5
2BFE
330
1F
100
AcDbEntity
  8
10
100
AcDbCircle
 10
1183.772911642553
 20
762.9952510956585
 30
0.0
 40
19.99999999999995
100
AcDbArc
 50
180.0
 51
270.0
  0
LINE
  5
2BFF
330
1F
100
AcDbEntity
  8
10
100
AcDbLine
 10
1183.772911642553
 20
832.9952510956587
 30
0.0
 11
1202.772911642554
 21
832.9952510956587
 31
0.0
  0
ARC
  5
2C00
330
1F
100
AcDbEntity
  8
10
100
AcDbCircle
 10
1183.772911642553
 20
812.9952510956588
 30
0.0
 40
20.00000000000001
100
AcDbArc
 50
90.0
 51
180.0
  0
LINE
  5
2C01
330
1F
100
AcDbEntity
  8
10
100
AcDbLine
 10
1222.772911642554
 20
762.9952510956585
 30
0.0
 11
1222.772911642554
 21
812.9952510956588
 31
0.0
  0
LINE
  5
2C02
330
1F
100
AcDbEntity
  8
10
100
AcDbLine
 10
1212.772911642554
 20
882.9952510956585
 30
0.0
 11
1253.772911642553
 21
882.9952510956585
 31
0.0
  0
LINE
  5
2C03
330
1F
100
AcDbEntity
  8
10
100
AcDbLine
 10
1251.472911642554
 20
884.9952510956583
 30
0.0
 11
1253.772911642553
 21
884.9952510956583
 31
0.0
  0
LINE
  5
2C04
330
1F
100
AcDbEntity
  8
10
100
AcDbLine
 10
1251.472911642554
 20
884.9952510956583
 30
0.0
 11
1251.472911642554
 21
882.9952510956585
 31
0.0
  0
LINE
  5
2C05
330
1F
100
AcDbEntity
  8
10
100
AcDbLine
 10
1253.772911642553
 20
884.9952510956583
 30
0.0
 11
1253.772911642553
 21
867.6952510956585
 31
0.0
  0
LINE
  5
2C06
330
1F
100
AcDbEntity
  8
10
100
AcDbLine
 10
1252.772911642554
 20
867.6952510956585
 30
0.0
 11
1253.772911642553
 21
867.6952510956585
 31
0.0
  0
CIRCLE
  5
2E18
330
1F
100
AcDbEntity
  8
10
  6
Continuous
100
AcDbCircle
 10
646.7729116425547
 20
859.9952510956587
 30
0.0
 40
3.500000000000203
  0
CIRCLE
  5
2E19
330
1F
100
AcDbEntity
  8
10
  6
Continuous
100
AcDbCircle
 10
646.7729116425547
 20
859.9952510956587
 30
0.0
 40
4.000000000000231
  0
LINE
  5
2E1A
330
1F
100
AcDbEntity
  8
10
  6
Continuous
100
AcDbLine
 10
645.3586980801815
 20
858.5810375332853
 30
0.0
 11
648.187125204928
 21
861.4094646580317
 31
0.0
  0
LINE
  5
2E1B
330
1F
100
AcDbEntity
  8
10
  6
Continuous
100
AcDbLine
 10
648.187125204928
 20
858.5810375332853
 30
0.0
 11
645.3586980801815
 21
861.4094646580317
 31
0.0
  0
CIRCLE
  5
2E1C
330
1F
100
AcDbEntity
  8
10
  6
Continuous
100
AcDbCircle
 10
683.7729116425546
 20
859.9952510956587
 30
0.0
 40
3.500000000000096
  0
CIRCLE
  5
2E1D
330
1F
100
AcDbEntity
  8
10
  6
Continuous
100
AcDbCircle
 10
683.7729116425546
 20
859.9952510956587
 30
0.0
 40
4.000000000000111
  0
LINE
  5
2E1E
330
1F
100
AcDbEntity
  8
10
  6
Continuous
100
AcDbLine
 10
682.3586980801815
 20
861.4094646580317
 30
0.0
 11
685.1871252049277
 21
858.5810375332853
 31
0.0
  0
LINE
  5
2E1F
330
1F
100
AcDbEntity
  8
10
  6
Continuous
100
AcDbLine
 10
685.1871252049277
 20
861.4094646580317
 30
0.0
 11
682.3586980801815
 21
858.5810375332853
 31
0.0
  0
CIRCLE
  5
2E20
330
1F
100
AcDbEntity
  8
10
  6
Continuous
100
AcDbCircle
 10
720.7729116425546
 20
859.9952510956587
 30
0.0
 40
3.500000000000203
  0
CIRCLE
  5
2E21
330
1F
100
AcDbEntity
  8
10
  6
Continuous
100
AcDbCircle
 10
720.7729116425546
 20
859.9952510956587
 30
0.0
 40
4.000000000000231
  0
LINE
  5
2E22
330
1F
100
AcDbEntity
  8
10
  6
Continuous
100
AcDbLine
 10
719.3586980801813
 20
858.5810375332853
 30
0.0
 11
722.1871252049278
 21
861.4094646580317
 31
0.0
  0
LINE
  5
2E23
330
1F
100
AcDbEntity
  8
10
  6
Continuous
100
AcDbLine
 10
722.1871252049278
 20
858.5810375332853
 30
0.0
 11
719.3586980801813
 21
861.4094646580317
 31
0.0
  0
CIRCLE
  5
2E24
330
1F
100
AcDbEntity
  8
10
  6
Continuous
100
AcDbCircle
 10
646.7729116425547
 20
579.9952510956587
 30
0.0
 40
3.500000000000096
  0
CIRCLE
  5
2E25
330
1F
100
AcDbEntity
  8
10
  6
Continuous
100
AcDbCircle
 10
646.7729116425547
 20
579.9952510956587
 30
0.0
 40
4.000000000000111
  0
LINE
  5
2E26
330
1F
100
AcDbEntity
  8
10
  6
Continuous
100
AcDbLine
 10
645.3586980801816
 20
581.4094646580318
 30
0.0
 11
648.1871252049277
 21
578.5810375332856
 31
0.0
  0
LINE
  5
2E27
330
1F
100
AcDbEntity
  8
10
  6
Continuous
100
AcDbLine
 10
648.1871252049277
 20
581.4094646580318
 30
0.0
 11
645.3586980801816
 21
578.5810375332856
 31
0.0
  0
CIRCLE
  5
2E28
330
1F
100
AcDbEntity
  8
10
100
AcDbCircle
 10
658.7729116425546
 20
574.9952510956587
 30
0.0
 40
4.500000000000126
  0
CIRCLE
  5
2E29
330
1F
100
AcDbEntity
  8
10
100
AcDbCircle
 10
658.7729116425546
 20
574.9952510956587
 30
0.0
 40
5.000000000000139
  0
LINE
  5
2E2A
330
1F
100
AcDbEntity
  8
10
100
AcDbLine
 10
657.005144689588
 20
576.7630180486252
 30
0.0
 11
660.540678595521
 21
573.2274841426923
 31
0.0
  0
LINE
  5
2E2B
330
1F
100
AcDbEntity
  8
10
100
AcDbLine
 10
660.540678595521
 20
576.7630180486252
 30
0.0
 11
657.005144689588
 21
573.2274841426923
 31
0.0
  0
CIRCLE
  5
2E2C
330
1F
100
AcDbEntity
  8
10
  6
Continuous
100
AcDbCircle
 10
683.7729116425546
 20
579.9952510956587
 30
0.0
 40
4.500000000000126
  0
CIRCLE
  5
2E2D
330
1F
100
AcDbEntity
  8
10
  6
Continuous
100
AcDbCircle
 10
683.7729116425546
 20
579.9952510956587
 30
0.0
 40
5.000000000000139
  0
LINE
  5
2E2E
330
1F
100
AcDbEntity
  8
10
  6
Continuous
100
AcDbLine
 10
682.005144689588
 20
581.7630180486252
 30
0.0
 11
685.540678595521
 21
578.2274841426922
 31
0.0
  0
LINE
  5
2E2F
330
1F
100
AcDbEntity
  8
10
  6
Continuous
100
AcDbLine
 10
685.540678595521
 20
581.7630180486252
 30
0.0
 11
682.005144689588
 21
578.2274841426922
 31
0.0
  0
CIRCLE
  5
2E30
330
1F
100
AcDbEntity
  8
10
  6
Continuous
100
AcDbCircle
 10
695.7729116425546
 20
574.9952510956587
 30
0.0
 40
4.500000000000126
  0
CIRCLE
  5
2E31
330
1F
100
AcDbEntity
  8
10
  6
Continuous
100
AcDbCircle
 10
695.7729116425546
 20
574.9952510956587
 30
0.0
 40
5.000000000000139
  0
LINE
  5
2E32
330
1F
100
AcDbEntity
  8
10
  6
Continuous
100
AcDbLine
 10
694.0051446895881
 20
576.7630180486252
 30
0.0
 11
697.5406785955209
 21
573.2274841426923
 31
0.0
  0
LINE
  5
2E33
330
1F
100
AcDbEntity
  8
10
  6
Continuous
100
AcDbLine
 10
697.5406785955209
 20
576.7630180486252
 30
0.0
 11
694.0051446895881
 21
573.2274841426923
 31
0.0
  0
LINE
  5
2E34
330
1F
100
AcDbEntity
  8
10
  6
Continuous
100
AcDbLine
 10
722.1871252049274
 20
581.4094646580318
 30
0.0
 11
719.3586980801812
 21
578.5810375332856
 31
0.0
  0
LINE
  5
2E35
330
1F
100
AcDbEntity
  8
10
  6
Continuous
100
AcDbLine
 10
719.3586980801812
 20
581.4094646580318
 30
0.0
 11
722.1871252049274
 21
578.5810375332856
 31
0.0
  0
CIRCLE
  5
2E36
330
1F
100
AcDbEntity
  8
10
  6
Continuous
100
AcDbCircle
 10
720.7729116425542
 20
579.9952510956587
 30
0.0
 40
4.000000000000111
  0
CIRCLE
  5
2E37
330
1F
100
AcDbEntity
  8
10
  6
Continuous
100
AcDbCircle
 10
720.7729116425542
 20
579.9952510956587
 30
0.0
 40
3.500000000000096
  0
LINE
  5
2E38
330
1F
100
AcDbEntity
  8
16
100
AcDbLine
 10
683.7729116425544
 20
902.6598960897763
 30
0.0
 11
683.7729116425544
 21
532.9936300101492
 31
0.0
  0
LWPOLYLINE
  5
2E41
330
1F
100
AcDbEntity
  8
18
100
AcDbPolyline
 90
        4
 70
     1
 43
0.0
 10
788.7729116425543
 20
454.9952510956586
 10
578.7729116425544
 20
454.9952510956586
 10
578.7729116425544
 20
984.9952510956587
 10
788.7729116425543
 20
984.9952510956587
  0
LWPOLYLINE
  5
2E49
330
1F
100
AcDbEntity
  8
18
100
AcDbPolyline
 90
        4
 70
     1
 43
0.0
 10
1253.772911642554
 20
984.9952510956583
 10
888.7729116425543
 20
984.9952510956583
 10
888.7729116425543
 20
454.9952510956586
 10
1253.772911642554
 20
454.9952510956586
  0
VIEWPORT
  5
1A9E
330
1B
100
AcDbEntity
 67
     1
  8
0
100
AcDbViewport
 10
5.249999639556162
 20
3.999999883606676
 30
0.0
 40
13.61503641713194
 41
8.992999745766947
 68
     1
 69
     1
 12
5.249999639556162
 22
3.999999883606676
 13
0.0
 23
0.0
 14
10.0
 24
10.0
 15
10.0
 25
10.0
 16
0.0
 26
0.0
 36
1.0
 17
0.0
 27
0.0
 37
0.0
 42
50.0
 43
0.0
 44
0.0
 45
8.992999745766947
 50
0.0
 51
0.0
 72
   100
 90
    32800
  1

281
     0
 71
     1
 74
     0
110
0.0
120
0.0
130
0.0
111
1.0
121
0.0
131
0.0
112
0.0
122
1.0
132
0.0
 79
     0
146
0.0
  0
VIEWPORT
  5
1AA0
330
1B
100
AcDbEntity
 67
     1
  8
0
100
AcDbViewport
 10
5.24999976158142
 20
3.999999761581419
 30
0.0
 40
8.399999618530271
 41
6.399999618530272
 68
     2
 69
     2
 12
-1363.137645193887
 22
-311.7485573738788
 13
0.0
 23
0.0
 14
10.0
 24
10.0
 15
10.0
 25
10.0
 16
0.0
 26
0.0
 36
1.0
 17
0.0
 27
0.0
 37
0.0
 42
50.0
 43
0.0
 44
0.0
 45
467.9695885509838
 50
0.0
 51
0.0
 72
   100
 90
    32864
  1

281
     0
 71
     1
 74
     0
110
0.0
120
0.0
130
0.0
111
1.0
121
0.0
131
0.0
112
0.0
122
1.0
132
0.0
 79
     0
146
0.0
  0
ENDSEC
  0
SECTION
  2
OBJECTS
  0
DICTIONARY
  5
C
330
0
100
AcDbDictionary
281
     1
  3
ACAD_GROUP
350
D
  3
ACAD_LAYOUT
350
1A
  3
ACAD_MLINESTYLE
350
17
  3
ACAD_PLOTSETTINGS
350
19
  3
ACAD_PLOTSTYLENAME
350
47
  3
AcDbVariableDictionary
350
191F
1001
ACAD
1000
TREAT_AS_HARD
1070
     0
  0
DICTIONARY
  5
41
330
1F
100
AcDbDictionary
280
     1
281
     1
  3
ACAD_LAYOUTSELFREF
360
1B2E
  0
DICTIONARY
  5
3F
330
1B
100
AcDbDictionary
280
     1
281
     1
  3
ACAD_LAYOUTSELFREF
360
1B2D
  0
DICTIONARY
  5
D
102
{ACAD_REACTORS
330
C
102
}
330
C
100
AcDbDictionary
281
     1
1001
ACAD
1000
TREAT_AS_HARD
1070
     0
  0
DICTIONARY
  5
1A
102
{ACAD_REACTORS
330
C
102
}
330
C
100
AcDbDictionary
281
     1
  3
Model
350
49
  3
ﾚｲｱｳﾄ1
350
4A
1001
ACAD
1000
TREAT_AS_HARD
1070
     0
  0
DICTIONARY
  5
17
102
{ACAD_REACTORS
330
C
102
}
330
C
100
AcDbDictionary
281
     1
  3
STANDARD
350
18
1001
ACAD
1000
TREAT_AS_HARD
1070
     0
  0
DICTIONARY
  5
19
102
{ACAD_REACTORS
330
C
102
}
330
C
100
AcDbDictionary
281
     1
1001
ACAD
1000
TREAT_AS_HARD
1070
     0
  0
ACDBDICTIONARYWDFLT
  5
47
102
{ACAD_REACTORS
330
C
102
}
330
C
100
AcDbDictionary
281
     1
  3
Normal
350
48
100
AcDbDictionaryWithDefault
340
48
  0
DICTIONARY
  5
191F
102
{ACAD_REACTORS
330
C
102
}
330
C
100
AcDbDictionary
281
     1
  3
DIMASSOC
350
1920
  0
XRECORD
  5
1B2E
102
{ACAD_REACTORS
330
41
102
}
330
41
100
AcDbXrecord
280
     1
340
1F
  0
XRECORD
  5
1B2D
102
{ACAD_REACTORS
330
3F
102
}
330
3F
100
AcDbXrecord
280
     1
340
1B
  0
LAYOUT
  5
49
102
{ACAD_REACTORS
330
1A
102
}
330
1A
100
AcDbPlotSettings
  1

  2
EPSON LP-9200PS2
  4

  6

 40
0.0
 41
0.0
 42
0.0
 43
0.0
 44
0.0
 45
0.0
 46
0.0
 47
0.0
 48
0.0
 49
0.0
140
0.0
141
0.0
142
1.0
143
1.0
 70
  1712
 72
     0
 73
     0
 74
     0
  7

 75
     0
147
1.0
148
0.0
149
0.0
100
AcDbLayout
  1
Model
 70
     1
 71
     0
 10
0.0
 20
0.0
 11
12.0
 21
9.0
 12
0.0
 22
0.0
 32
0.0
 14
0.0
 24
0.0
 34
0.0
 15
0.0
 25
0.0
 35
0.0
146
0.0
 13
0.0
 23
0.0
 33
0.0
 16
1.0
 26
0.0
 36
0.0
 17
0.0
 27
1.0
 37
0.0
 76
     0
330
1F
  0
LAYOUT
  5
4A
102
{ACAD_REACTORS
330
1A
102
}
330
1A
100
AcDbPlotSettings
  1

  2
none_device
  4
Letter_(8.50_x_11.00_Inches)
  6

 40
6.349999904632567
 41
6.349999904632567
 42
6.350006103515625
 43
6.350006103515625
 44
215.8999938964842
 45
279.3999938964843
 46
0.0
 47
0.0
 48
0.0
 49
0.0
140
0.0
141
0.0
142
1.0
143
1.0
 70
   688
 72
     0
 73
     1
 74
     5
  7

 75
    16
147
1.0
148
0.0
149
0.0
100
AcDbLayout
  1
ﾚｲｱｳﾄ1
 70
     1
 71
     1
 10
-0.2500002402958907
 20
-0.2499999962453767
 11
10.74999951940821
 21
8.249999763458731
 12
0.0
 22
0.0
 32
0.0
 14
1.049999952316283
 24
0.7999999523162842
 34
0.0
 15
9.449999570846555
 25
7.199999570846556
 35
0.0
146
0.0
 13
0.0
 23
0.0
 33
0.0
 16
1.0
 26
0.0
 36
0.0
 17
0.0
 27
1.0
 37
0.0
 76
     0
330
1B
331
1A9E
  0
MLINESTYLE
  5
18
102
{ACAD_REACTORS
330
17
102
}
330
17
100
AcDbMlineStyle
  2
STANDARD
 70
     0
  3

 62
   256
 51
90.0
 52
90.0
 71
     2
 49
0.5
 62
   256
  6
BYLAYER
 49
-0.5
 62
   256
  6
BYLAYER
  0
ACDBPLACEHOLDER
  5
48
102
{ACAD_REACTORS
330
47
102
}
330
47
  0
DICTIONARYVAR
  5
1920
102
{ACAD_REACTORS
330
191F
102
}
330
191F
100
DictionaryVariables
280
     0
  1
1
  0
ENDSEC
  0
EOF
