  0
SECTION
  2
HEADER
  9
$ACADVER
  1
AC1015
  9
$ACADMAINTVER
 70
    10
  9
$DWGCODEPAGE
  3
ANSI_932
  9
$INSBASE
 10
0.0
 20
0.0
 30
0.0
  9
$EXTMIN
 10
599.0844294074068
 20
419.8676096692265
 30
0.0
  9
$EXTMAX
 10
1491.164574303554
 20
949.8676096692262
 30
0.0
  9
$LIMMIN
 10
0.0
 20
0.0
  9
$LIMMAX
 10
420.0
 20
297.0
  9
$ORTHOMODE
 70
     1
  9
$REGENMODE
 70
     1
  9
$FILLMODE
 70
     1
  9
$QTEXTMODE
 70
     0
  9
$MIRRTEXT
 70
     1
  9
$LTSCALE
 40
1.0
  9
$ATTMODE
 70
     1
  9
$TEXTSIZE
 40
2.5
  9
$TRACEWID
 40
1.0
  9
$TEXTSTYLE
  7
STANDARD
  9
$CLAYER
  8
0
  9
$CELTYPE
  6
BYLAYER
  9
$CECOLOR
 62
   256
  9
$CELTSCALE
 40
1.0
  9
$DISPSILH
 70
     0
  9
$DIMSCALE
 40
1.0
  9
$DIMASZ
 40
2.5
  9
$DIMEXO
 40
0.625
  9
$DIMDLI
 40
3.75
  9
$DIMRND
 40
0.0
  9
$DIMDLE
 40
0.0
  9
$DIMEXE
 40
1.25
  9
$DIMTP
 40
0.0
  9
$DIMTM
 40
0.0
  9
$DIMTXT
 40
2.5
  9
$DIMCEN
 40
2.5
  9
$DIMTSZ
 40
0.0
  9
$DIMTOL
 70
     0
  9
$DIMLIM
 70
     0
  9
$DIMTIH
 70
     0
  9
$DIMTOH
 70
     0
  9
$DIMSE1
 70
     0
  9
$DIMSE2
 70
     0
  9
$DIMTAD
 70
     1
  9
$DIMZIN
 70
     8
  9
$DIMBLK
  1

  9
$DIMASO
 70
     1
  9
$DIMSHO
 70
     1
  9
$DIMPOST
  1

  9
$DIMAPOST
  1

  9
$DIMALT
 70
     0
  9
$DIMALTD
 70
     3
  9
$DIMALTF
 40
0.03937007874016
  9
$DIMLFAC
 40
1.0
  9
$DIMTOFL
 70
     1
  9
$DIMTVP
 40
0.0
  9
$DIMTIX
 70
     0
  9
$DIMSOXD
 70
     0
  9
$DIMSAH
 70
     0
  9
$DIMBLK1
  1

  9
$DIMBLK2
  1

  9
$DIMSTYLE
  2
ISO-25
  9
$DIMCLRD
 70
     0
  9
$DIMCLRE
 70
     0
  9
$DIMCLRT
 70
     0
  9
$DIMTFAC
 40
1.0
  9
$DIMGAP
 40
0.625
  9
$DIMJUST
 70
     0
  9
$DIMSD1
 70
     0
  9
$DIMSD2
 70
     0
  9
$DIMTOLJ
 70
     0
  9
$DIMTZIN
 70
     8
  9
$DIMALTZ
 70
     0
  9
$DIMALTTZ
 70
     0
  9
$DIMUPT
 70
     0
  9
$DIMDEC
 70
     0
  9
$DIMTDEC
 70
     0
  9
$DIMALTU
 70
     2
  9
$DIMALTTD
 70
     3
  9
$DIMTXSTY
  7
STANDARD
  9
$DIMAUNIT
 70
     0
  9
$DIMADEC
 70
     0
  9
$DIMALTRND
 40
0.0
  9
$DIMAZIN
 70
     0
  9
$DIMDSEP
 70
    46
  9
$DIMATFIT
 70
     3
  9
$DIMFRAC
 70
     0
  9
$DIMLDRBLK
  1

  9
$DIMLUNIT
 70
     2
  9
$DIMLWD
 70
    -2
  9
$DIMLWE
 70
    -2
  9
$DIMTMOVE
 70
     0
  9
$LUNITS
 70
     2
  9
$LUPREC
 70
     4
  9
$SKETCHINC
 40
1.0
  9
$FILLETRAD
 40
10.0
  9
$AUNITS
 70
     0
  9
$AUPREC
 70
     0
  9
$MENU
  1
.
  9
$ELEVATION
 40
0.0
  9
$PELEVATION
 40
0.0
  9
$THICKNESS
 40
0.0
  9
$LIMCHECK
 70
     0
  9
$CHAMFERA
 40
10.0
  9
$CHAMFERB
 40
10.0
  9
$CHAMFERC
 40
20.0
  9
$CHAMFERD
 40
0.0
  9
$SKPOLY
 70
     0
  9
$TDCREATE
 40
2453312.371317361
  9
$TDUCREATE
 40
2453311.996317361
  9
$TDUPDATE
 40
2454637.666893704
  9
$TDUUPDATE
 40
2454637.291893704
  9
$TDINDWG
 40
0.0373435880
  9
$TDUSRTIMER
 40
0.0373431019
  9
$USRTIMER
 70
     1
  9
$ANGBASE
 50
0.0
  9
$ANGDIR
 70
     0
  9
$PDMODE
 70
    34
  9
$PDSIZE
 40
0.0
  9
$PLINEWID
 40
0.0
  9
$SPLFRAME
 70
     0
  9
$SPLINETYPE
 70
     6
  9
$SPLINESEGS
 70
     8
  9
$HANDSEED
  5
2E61
  9
$SURFTAB1
 70
     6
  9
$SURFTAB2
 70
     6
  9
$SURFTYPE
 70
     6
  9
$SURFU
 70
     6
  9
$SURFV
 70
     6
  9
$UCSBASE
  2

  9
$UCSNAME
  2

  9
$UCSORG
 10
0.0
 20
0.0
 30
0.0
  9
$UCSXDIR
 10
1.0
 20
0.0
 30
0.0
  9
$UCSYDIR
 10
0.0
 20
1.0
 30
0.0
  9
$UCSORTHOREF
  2

  9
$UCSORTHOVIEW
 70
     0
  9
$UCSORGTOP
 10
0.0
 20
0.0
 30
0.0
  9
$UCSORGBOTTOM
 10
0.0
 20
0.0
 30
0.0
  9
$UCSORGLEFT
 10
0.0
 20
0.0
 30
0.0
  9
$UCSORGRIGHT
 10
0.0
 20
0.0
 30
0.0
  9
$UCSORGFRONT
 10
0.0
 20
0.0
 30
0.0
  9
$UCSORGBACK
 10
0.0
 20
0.0
 30
0.0
  9
$PUCSBASE
  2

  9
$PUCSNAME
  2

  9
$PUCSORG
 10
0.0
 20
0.0
 30
0.0
  9
$PUCSXDIR
 10
1.0
 20
0.0
 30
0.0
  9
$PUCSYDIR
 10
0.0
 20
1.0
 30
0.0
  9
$PUCSORTHOREF
  2

  9
$PUCSORTHOVIEW
 70
     0
  9
$PUCSORGTOP
 10
0.0
 20
0.0
 30
0.0
  9
$PUCSORGBOTTOM
 10
0.0
 20
0.0
 30
0.0
  9
$PUCSORGLEFT
 10
0.0
 20
0.0
 30
0.0
  9
$PUCSORGRIGHT
 10
0.0
 20
0.0
 30
0.0
  9
$PUCSORGFRONT
 10
0.0
 20
0.0
 30
0.0
  9
$PUCSORGBACK
 10
0.0
 20
0.0
 30
0.0
  9
$USERI1
 70
     0
  9
$USERI2
 70
     0
  9
$USERI3
 70
     0
  9
$USERI4
 70
     0
  9
$USERI5
 70
     0
  9
$USERR1
 40
0.0
  9
$USERR2
 40
0.0
  9
$USERR3
 40
0.0
  9
$USERR4
 40
0.0
  9
$USERR5
 40
0.0
  9
$WORLDVIEW
 70
     1
  9
$SHADEDGE
 70
     3
  9
$SHADEDIF
 70
    70
  9
$TILEMODE
 70
     1
  9
$MAXACTVP
 70
    48
  9
$PINSBASE
 10
0.0
 20
0.0
 30
0.0
  9
$PLIMCHECK
 70
     0
  9
$PEXTMIN
 10
1.049999952316283
 20
0.7999999523162842
 30
0.0
  9
$PEXTMAX
 10
9.449999570846555
 20
7.199999570846556
 30
0.0
  9
$PLIMMIN
 10
-0.2500002402958907
 20
-0.2499999962453767
  9
$PLIMMAX
 10
10.74999951940821
 20
8.249999763458731
  9
$UNITMODE
 70
     0
  9
$VISRETAIN
 70
     1
  9
$PLINEGEN
 70
     0
  9
$PSLTSCALE
 70
     1
  9
$TREEDEPTH
 70
  3020
  9
$CMLSTYLE
  2
STANDARD
  9
$CMLJUST
 70
     0
  9
$CMLSCALE
 40
20.0
  9
$PROXYGRAPHICS
 70
     1
  9
$MEASUREMENT
 70
     0
  9
$CELWEIGHT
370
    -1
  9
$ENDCAPS
280
     0
  9
$JOINSTYLE
280
     0
  9
$LWDISPLAY
290
     0
  9
$INSUNITS
 70
     0
  9
$HYPERLINKBASE
  1

  9
$STYLESHEET
  1

  9
$XEDIT
290
     1
  9
$CEPSNTYPE
380
     0
  9
$PSTYLEMODE
290
     1
  9
$FINGERPRINTGUID
  2
{C8342AD0-ADE8-45AD-AC00-933185DE4E38}
  9
$VERSIONGUID
  2
{9EE8BC39-5059-4033-BE44-9960B4C33241}
  9
$EXTNAMES
290
     1
  9
$PSVPSCALE
 40
0.0
  9
$OLESTARTUP
290
     0
  0
ENDSEC
  0
SECTION
  2
CLASSES
  0
CLASS
  1
ACDBDICTIONARYWDFLT
  2
AcDbDictionaryWithDefault
  3
AutoCAD 2000
 90
        0
280
     0
281
     0
  0
CLASS
  1
ACDBPLACEHOLDER
  2
AcDbPlaceHolder
  3
AutoCAD 2000
 90
        0
280
     0
281
     0
  0
CLASS
  1
LAYOUT
  2
AcDbLayout
  3
AutoCAD 2000
 90
        0
280
     0
281
     0
  0
CLASS
  1
LONG_TRANSACTION
  2
AcDbLongTransaction
  3
AutoCAD 2000
 90
    32768
280
     0
281
     0
  0
CLASS
  1
LWPOLYLINE
  2
AcDbPolyline
  3
AutoCAD 2000
 90
    32768
280
     0
281
     1
  0
CLASS
  1
HATCH
  2
AcDbHatch
  3
AutoCAD 2000
 90
    32768
280
     0
281
     1
  0
CLASS
  1
XRECORD
  2
AcDbXrecord
  3
AutoCAD 2000
 90
    32768
280
     0
281
     0
  0
CLASS
  1
DICTIONARYVAR
  2
AcDbDictionaryVar
  3
AutoCAD 2000
 90
        0
280
     0
281
     0
  0
CLASS
  1
LONG_TRANSACTION
  2
AcDbLongTransaction
  3
AutoCAD 2000
 90
    32768
280
     0
281
     0
  0
CLASS
  1
LWPOLYLINE
  2
AcDbPolyline
  3
AutoCAD 2000
 90
    32768
280
     0
281
     1
  0
CLASS
  1
HATCH
  2
AcDbHatch
  3
AutoCAD 2000
 90
    32768
280
     0
281
     1
  0
CLASS
  1
XRECORD
  2
AcDbXrecord
  3
AutoCAD 2000
 90
    32768
280
     0
281
     0
  0
CLASS
  1
LONG_TRANSACTION
  2
AcDbLongTransaction
  3
AutoCAD 2000
 90
    32768
280
     0
281
     0
  0
CLASS
  1
LWPOLYLINE
  2
AcDbPolyline
  3
AutoCAD 2000
 90
    32768
280
     0
281
     1
  0
CLASS
  1
HATCH
  2
AcDbHatch
  3
AutoCAD 2000
 90
    32768
280
     0
281
     1
  0
CLASS
  1
XRECORD
  2
AcDbXrecord
  3
AutoCAD 2000
 90
    32768
280
     0
281
     0
  0
CLASS
  1
LONG_TRANSACTION
  2
AcDbLongTransaction
  3
AutoCAD 2000
 90
    32768
280
     0
281
     0
  0
CLASS
  1
LWPOLYLINE
  2
AcDbPolyline
  3
AutoCAD 2000
 90
    32768
280
     0
281
     1
  0
CLASS
  1
HATCH
  2
AcDbHatch
  3
AutoCAD 2000
 90
    32768
280
     0
281
     1
  0
CLASS
  1
XRECORD
  2
AcDbXrecord
  3
AutoCAD 2000
 90
    32768
280
     0
281
     0
  0
CLASS
  1
LONG_TRANSACTION
  2
AcDbLongTransaction
  3
AutoCAD 2000
 90
    32768
280
     0
281
     0
  0
CLASS
  1
LWPOLYLINE
  2
AcDbPolyline
  3
AutoCAD 2000
 90
    32768
280
     0
281
     1
  0
CLASS
  1
HATCH
  2
AcDbHatch
  3
AutoCAD 2000
 90
    32768
280
     0
281
     1
  0
CLASS
  1
XRECORD
  2
AcDbXrecord
  3
AutoCAD 2000
 90
    32768
280
     0
281
     0
  0
CLASS
  1
LONG_TRANSACTION
  2
AcDbLongTransaction
  3
AutoCAD 2000
 90
    32768
280
     0
281
     0
  0
CLASS
  1
LWPOLYLINE
  2
AcDbPolyline
  3
AutoCAD 2000
 90
    32768
280
     0
281
     1
  0
CLASS
  1
HATCH
  2
AcDbHatch
  3
AutoCAD 2000
 90
    32768
280
     0
281
     1
  0
CLASS
  1
XRECORD
  2
AcDbXrecord
  3
AutoCAD 2000
 90
    32768
280
     0
281
     0
  0
CLASS
  1
LONG_TRANSACTION
  2
AcDbLongTransaction
  3
AutoCAD 2000
 90
    32768
280
     0
281
     0
  0
CLASS
  1
LWPOLYLINE
  2
AcDbPolyline
  3
AutoCAD 2000
 90
    32768
280
     0
281
     1
  0
CLASS
  1
HATCH
  2
AcDbHatch
  3
AutoCAD 2000
 90
    32768
280
     0
281
     1
  0
CLASS
  1
XRECORD
  2
AcDbXrecord
  3
AutoCAD 2000
 90
    32768
280
     0
281
     0
  0
CLASS
  1
LONG_TRANSACTION
  2
AcDbLongTransaction
  3
AutoCAD 2000
 90
    32768
280
     0
281
     0
  0
CLASS
  1
LWPOLYLINE
  2
AcDbPolyline
  3
AutoCAD 2000
 90
    32768
280
     0
281
     1
  0
CLASS
  1
HATCH
  2
AcDbHatch
  3
AutoCAD 2000
 90
    32768
280
     0
281
     1
  0
CLASS
  1
XRECORD
  2
AcDbXrecord
  3
AutoCAD 2000
 90
    32768
280
     0
281
     0
  0
CLASS
  1
LONG_TRANSACTION
  2
AcDbLongTransaction
  3
AutoCAD 2000
 90
    32768
280
     0
281
     0
  0
CLASS
  1
LWPOLYLINE
  2
AcDbPolyline
  3
AutoCAD 2000
 90
    32768
280
     0
281
     1
  0
CLASS
  1
HATCH
  2
AcDbHatch
  3
AutoCAD 2000
 90
    32768
280
     0
281
     1
  0
CLASS
  1
XRECORD
  2
AcDbXrecord
  3
AutoCAD 2000
 90
    32768
280
     0
281
     0
  0
CLASS
  1
LONG_TRANSACTION
  2
AcDbLongTransaction
  3
AutoCAD 2000
 90
    32768
280
     0
281
     0
  0
CLASS
  1
LWPOLYLINE
  2
AcDbPolyline
  3
AutoCAD 2000
 90
    32768
280
     0
281
     1
  0
CLASS
  1
HATCH
  2
AcDbHatch
  3
AutoCAD 2000
 90
    32768
280
     0
281
     1
  0
CLASS
  1
XRECORD
  2
AcDbXrecord
  3
AutoCAD 2000
 90
    32768
280
     0
281
     0
  0
ENDSEC
  0
SECTION
  2
TABLES
  0
TABLE
  2
VPORT
  5
8
330
0
100
AcDbSymbolTable
 70
     3
  0
VPORT
  5
2E60
330
8
100
AcDbSymbolTableRecord
100
AcDbViewportTableRecord
  2
*Active
 70
     0
 10
0.0
 20
0.0
 11
1.0
 21
1.0
 12
1372.385693442097
 22
771.418404431232
 13
0.0
 23
0.0
 14
10.0
 24
10.0
 15
10.0
 25
10.0
 16
0.0
 26
0.0
 36
1.0
 17
0.0
 27
0.0
 37
0.0
 40
1594.761292704999
 41
1.527918781725888
 42
50.0
 43
0.0
 44
0.0
 50
0.0
 51
0.0
 71
     0
 72
   100
 73
     1
 74
     3
 75
     0
 76
     0
 77
     0
 78
     0
281
     0
 65
     1
110
0.0
120
0.0
130
0.0
111
1.0
121
0.0
131
0.0
112
0.0
122
1.0
132
0.0
 79
     0
146
0.0
  0
ENDTAB
  0
TABLE
  2
LTYPE
  5
5
330
0
100
AcDbSymbolTable
 70
     3
  0
LTYPE
  5
14
330
5
100
AcDbSymbolTableRecord
100
AcDbLinetypeTableRecord
  2
BYBLOCK
 70
     0
  3

 72
    65
 73
     0
 40
0.0
  0
LTYPE
  5
15
330
5
100
AcDbSymbolTableRecord
100
AcDbLinetypeTableRecord
  2
BYLAYER
 70
     0
  3

 72
    65
 73
     0
 40
0.0
  0
LTYPE
  5
16
330
5
100
AcDbSymbolTableRecord
100
AcDbLinetypeTableRecord
  2
CONTINUOUS
 70
     0
  3
Solid line
 72
    65
 73
     0
 40
0.0
  0
LTYPE
  5
35
330
5
100
AcDbSymbolTableRecord
100
AcDbLinetypeTableRecord
  2
PHANTOMX2
 70
     0
  3
Phantom (2x) ____________    ____    ____   _
 72
    65
 73
     6
 40
127.0
 49
63.5
 74
     0
 49
-12.7
 74
     0
 49
12.7
 74
     0
 49
-12.7
 74
     0
 49
12.7
 74
     0
 49
-12.7
 74
     0
  0
LTYPE
  5
36
330
5
100
AcDbSymbolTableRecord
100
AcDbLinetypeTableRecord
  2
CENTERX2
 70
     0
  3
Center (2x) ________  __  ________  __  _____
 72
    65
 73
     4
 40
101.6
 49
63.5
 74
     0
 49
-12.7
 74
     0
 49
12.7
 74
     0
 49
-12.7
 74
     0
  0
ENDTAB
  0
TABLE
  2
LAYER
  5
2
330
0
100
AcDbSymbolTable
 70
     7
  0
LAYER
  5
10
330
2
100
AcDbSymbolTableRecord
100
AcDbLayerTableRecord
  2
0
 70
     0
 62
     7
  6
CONTINUOUS
370
    -3
390
48
  0
LAYER
  5
2D
330
2
100
AcDbSymbolTableRecord
100
AcDbLayerTableRecord
  2
10
 70
     0
 62
     4
  6
CONTINUOUS
370
    -3
390
48
  0
LAYER
  5
2F
330
2
100
AcDbSymbolTableRecord
100
AcDbLayerTableRecord
  2
12
 70
     0
 62
     3
  6
CONTINUOUS
370
    -3
390
48
  0
LAYER
  5
31
330
2
100
AcDbSymbolTableRecord
100
AcDbLayerTableRecord
  2
16
 70
     0
 62
     4
  6
CENTERX2
370
    -3
390
48
  0
LAYER
  5
33
330
2
100
AcDbSymbolTableRecord
100
AcDbLayerTableRecord
  2
18
 70
     0
 62
     1
  6
PHANTOMX2
370
    -3
390
48
  0
LAYER
  5
34
330
2
100
AcDbSymbolTableRecord
100
AcDbLayerTableRecord
  2
19
 70
     0
 62
     7
  6
CONTINUOUS
370
    -3
390
48
  0
LAYER
  5
1C0B
330
2
100
AcDbSymbolTableRecord
100
AcDbLayerTableRecord
  2
DEFPOINTS
 70
     0
 62
     7
  6
CONTINUOUS
290
     0
370
    -3
390
48
  0
ENDTAB
  0
TABLE
  2
STYLE
  5
3
330
0
100
AcDbSymbolTable
 70
     2
  0
STYLE
  5
11
330
3
100
AcDbSymbolTableRecord
100
AcDbTextStyleTableRecord
  2
STANDARD
 70
     0
 40
0.0
 41
1.0
 50
0.0
 71
     0
 42
2.5
  3
txt
  4

  0
STYLE
  5
56
330
3
100
AcDbSymbolTableRecord
100
AcDbTextStyleTableRecord
  2
STANDARD1
 70
     0
 40
0.0
 41
0.7
 50
0.0
 71
     0
 42
4.0
  3
romans.shx
  4
extfont.shx
  0
ENDTAB
  0
TABLE
  2
VIEW
  5
6
330
0
100
AcDbSymbolTable
 70
     0
  0
ENDTAB
  0
TABLE
  2
UCS
  5
7
330
0
100
AcDbSymbolTable
 70
     0
  0
ENDTAB
  0
TABLE
  2
APPID
  5
9
330
0
100
AcDbSymbolTable
 70
     1
  0
APPID
  5
12
330
9
100
AcDbSymbolTableRecord
100
AcDbRegAppTableRecord
  2
ACAD
 70
     0
  0
ENDTAB
  0
TABLE
  2
DIMSTYLE
  5
A
330
0
100
AcDbSymbolTable
 70
     2
100
AcDbDimStyleTable
 71
     1
340
27
  0
DIMSTYLE
105
27
330
A
100
AcDbSymbolTableRecord
100
AcDbDimStyleTableRecord
  2
ISO-25
 70
     0
 41
2.5
 42
0.625
 43
3.75
 44
1.25
 73
     0
 74
     0
 77
     1
 78
     8
140
2.5
141
2.5
143
0.03937007874016
147
0.625
171
     3
172
     1
271
     0
272
     0
274
     3
283
     0
284
     8
340
11
  0
DIMSTYLE
105
1C0C
330
A
100
AcDbSymbolTableRecord
100
AcDbDimStyleTableRecord
  2
STANDARD
 70
     0
340
11
  0
ENDTAB
  0
TABLE
  2
BLOCK_RECORD
  5
1
330
0
100
AcDbSymbolTable
 70
     0
  0
BLOCK_RECORD
  5
1F
102
{ACAD_XDICTIONARY
360
41
102
}
330
1
100
AcDbSymbolTableRecord
100
AcDbBlockTableRecord
  2
*MODEL_SPACE
340
49
  0
BLOCK_RECORD
  5
1B
102
{ACAD_XDICTIONARY
360
3F
102
}
330
1
100
AcDbSymbolTableRecord
100
AcDbBlockTableRecord
  2
*PAPER_SPACE
340
4A
  0
ENDTAB
  0
ENDSEC
  0
SECTION
  2
BLOCKS
  0
BLOCK
  5
20
330
1F
100
AcDbEntity
  8
0
100
AcDbBlockBegin
  2
*MODEL_SPACE
 70
     0
 10
0.0
 20
0.0
 30
0.0
  3
*MODEL_SPACE
  1

  0
ENDBLK
  5
21
330
1F
100
AcDbEntity
  8
0
100
AcDbBlockEnd
  0
BLOCK
  5
1C
330
1B
100
AcDbEntity
 67
     1
  8
0
100
AcDbBlockBegin
  2
*PAPER_SPACE
 70
     0
 10
0.0
 20
0.0
 30
0.0
  3
*PAPER_SPACE
  1

  0
ENDBLK
  5
1D
330
1B
100
AcDbEntity
 67
     1
  8
0
100
AcDbBlockEnd
  0
ENDSEC
  0
SECTION
  2
ENTITIES
  0
LINE
  5
28A6
330
1F
100
AcDbEntity
  8
10
100
AcDbLine
 10
992.5844294074066
 20
620.3676096692262
 30
0.0
 11
1010.084429407406
 21
620.3676096692262
 31
0.0
  0
LINE
  5
28A7
330
1F
100
AcDbEntity
  8
10
100
AcDbLine
 10
992.5844294074066
 20
622.3676096692261
 30
0.0
 11
1010.084429407406
 21
622.3676096692261
 31
0.0
  0
LINE
  5
28A8
330
1F
100
AcDbEntity
  8
10
100
AcDbLine
 10
992.5844294074066
 20
645.0176096692262
 30
0.0
 11
1010.084429407406
 21
645.0176096692262
 31
0.0
  0
LINE
  5
28A9
330
1F
100
AcDbEntity
  8
10
100
AcDbLine
 10
992.5844294074066
 20
608.7176096692262
 30
0.0
 11
1010.084429407406
 21
608.7176096692262
 31
0.0
  0
LINE
  5
28AA
330
1F
100
AcDbEntity
  8
10
100
AcDbLine
 10
992.5844294074066
 20
642.3676096692261
 30
0.0
 11
1010.084429407406
 21
642.3676096692261
 31
0.0
  0
LINE
  5
28AB
330
1F
100
AcDbEntity
  8
10
100
AcDbLine
 10
992.5844294074066
 20
633.367609669226
 30
0.0
 11
1010.084429407406
 21
633.367609669226
 31
0.0
  0
LINE
  5
28AC
330
1F
100
AcDbEntity
  8
10
100
AcDbLine
 10
992.5844294074066
 20
611.3676096692262
 30
0.0
 11
1010.084429407406
 21
611.3676096692262
 31
0.0
  0
LINE
  5
28AD
330
1F
100
AcDbEntity
  8
10
100
AcDbLine
 10
992.5844294074066
 20
631.3676096692262
 30
0.0
 11
1010.084429407406
 21
631.3676096692262
 31
0.0
  0
LINE
  5
28AE
330
1F
100
AcDbEntity
  8
10
100
AcDbLine
 10
995.1726595074836
 20
696.367609669226
 30
0.0
 11
1010.084429407406
 21
696.367609669226
 31
0.0
  0
LINE
  5
28AF
330
1F
100
AcDbEntity
  8
10
100
AcDbLine
 10
988.0844294074066
 20
646.3676096692259
 30
0.0
 11
1010.084429407406
 21
646.3676096692259
 31
0.0
  0
LINE
  5
28B0
330
1F
100
AcDbEntity
  8
10
100
AcDbLine
 10
988.0844294074066
 20
691.867609669226
 30
0.0
 11
1010.084429407406
 21
691.867609669226
 31
0.0
  0
LINE
  5
28B1
330
1F
100
AcDbEntity
  8
10
100
AcDbLine
 10
988.0844294074066
 20
674.867609669226
 30
0.0
 11
1010.084429407406
 21
674.867609669226
 31
0.0
  0
LINE
  5
28B2
330
1F
100
AcDbEntity
  8
10
100
AcDbLine
 10
988.0844294074066
 20
667.8676096692261
 30
0.0
 11
1010.084429407406
 21
667.8676096692261
 31
0.0
  0
LINE
  5
28B3
330
1F
100
AcDbEntity
  8
10
100
AcDbLine
 10
988.0844294074066
 20
650.8676096692261
 30
0.0
 11
1010.084429407406
 21
650.8676096692261
 31
0.0
  0
LINE
  5
28B4
330
1F
100
AcDbEntity
  8
10
100
AcDbLine
 10
1019.084429407405
 20
819.8676096692262
 30
0.0
 11
1004.00513213252
 21
819.0773371859004
 31
0.0
  0
LINE
  5
28B5
330
1F
100
AcDbEntity
  8
10
100
AcDbLine
 10
1019.084429407405
 20
705.3676096692262
 30
0.0
 11
999.5844294074062
 21
705.3676096692262
 31
0.0
  0
ARC
  5
28B6
330
1F
100
AcDbEntity
  8
10
100
AcDbCircle
 10
1009.584429407406
 20
597.3938135588676
 30
0.0
 40
0.5
100
AcDbArc
 50
270.0
 51
0.0
  0
LINE
  5
28B7
330
1F
100
AcDbEntity
  8
10
100
AcDbLine
 10
1000.032093451163
 20
550.8661002868474
 30
0.0
 11
1018.584429407406
 21
549.8938135588677
 31
0.0
  0
LINE
  5
28B8
330
1F
100
AcDbEntity
  8
10
100
AcDbLine
 10
1010.084429407406
 20
697.3938135588674
 30
0.0
 11
999.5844294074066
 21
697.3938135588674
 31
0.0
  0
LINE
  5
28B9
330
1F
100
AcDbEntity
  8
10
100
AcDbLine
 10
1019.084429407405
 20
704.9157652548869
 30
0.0
 11
999.0844294074067
 21
704.7412278990718
 31
0.0
  0
LINE
  5
28C0
330
1F
100
AcDbEntity
  8
12
 48
3.0
100
AcDbLine
 10
664.0844294074067
 20
841.8676096692262
 30
0.0
 11
764.0844294074065
 21
841.8676096692262
 31
0.0
  0
LINE
  5
28C1
330
1F
100
AcDbEntity
  8
12
 48
3.0
100
AcDbLine
 10
664.0844294074067
 20
527.8676096692265
 30
0.0
 11
764.0844294074065
 21
527.8676096692265
 31
0.0
  0
LINE
  5
28C2
330
1F
100
AcDbEntity
  8
10
100
AcDbLine
 10
653.3844294074063
 20
849.8676096692262
 30
0.0
 11
774.7844294074067
 21
849.8676096692262
 31
0.0
  0
LINE
  5
28C3
330
1F
100
AcDbEntity
  8
10
100
AcDbLine
 10
756.0844294074067
 20
519.8676096692265
 30
0.0
 11
672.0844294074069
 21
519.8676096692265
 31
0.0
  0
LINE
  5
28C4
330
1F
100
AcDbEntity
  8
10
100
AcDbLine
 10
776.7844294074069
 20
534.8676096692265
 30
0.0
 11
651.3844294074067
 21
534.8676096692265
 31
0.0
  0
LINE
  5
28C5
330
1F
100
AcDbEntity
  8
10
100
AcDbLine
 10
651.3844294074067
 20
834.8676096692264
 30
0.0
 11
776.7844294074069
 21
834.8676096692264
 31
0.0
  0
LINE
  5
28C6
330
1F
100
AcDbEntity
  8
10
100
AcDbLine
 10
772.0844294074067
 20
834.8676096692264
 30
0.0
 11
656.0844294074069
 21
834.8676096692264
 31
0.0
  0
LINE
  5
28C7
330
1F
100
AcDbEntity
  8
10
100
AcDbLine
 10
711.0844294074068
 20
534.8676096692265
 30
0.0
 11
656.0844294074069
 21
534.8676096692265
 31
0.0
  0
LINE
  5
28C8
330
1F
100
AcDbEntity
  8
10
100
AcDbLine
 10
774.0844294074068
 20
549.8676096692265
 30
0.0
 11
654.0844294074068
 21
549.8676096692265
 31
0.0
  0
LINE
  5
28C9
330
1F
100
AcDbEntity
  8
10
100
AcDbLine
 10
774.0844294074068
 20
819.8676096692262
 30
0.0
 11
654.0844294074068
 21
819.8676096692262
 31
0.0
  0
LINE
  5
28CA
330
1F
100
AcDbEntity
  8
10
100
AcDbLine
 10
774.0844294074068
 20
704.9157652548871
 30
0.0
 11
654.0844294074068
 21
704.9157652548871
 31
0.0
  0
LINE
  5
28CB
330
1F
100
AcDbEntity
  8
10
100
AcDbLine
 10
714.0844294074071
 20
795.8676096692262
 30
0.0
 11
654.0844294074068
 21
795.8676096692262
 31
0.0
  0
LINE
  5
28CC
330
1F
100
AcDbEntity
  8
10
100
AcDbLine
 10
714.0844294074071
 20
788.8676096692262
 30
0.0
 11
654.0844294074068
 21
788.8676096692262
 31
0.0
  0
LINE
  5
28CD
330
1F
100
AcDbEntity
  8
10
100
AcDbLine
 10
649.0844294074068
 20
847.8676096692263
 30
0.0
 11
649.0844294074068
 21
521.8676096692266
 31
0.0
  0
LINE
  5
28CE
330
1F
100
AcDbEntity
  8
10
100
AcDbLine
 10
654.0844294074068
 20
536.8676096692265
 30
0.0
 11
654.0844294074068
 21
832.8676096692262
 31
0.0
  0
LINE
  5
28CF
330
1F
100
AcDbEntity
  8
10
100
AcDbLine
 10
654.0844294074068
 20
539.8676096692265
 30
0.0
 11
654.0844294074068
 21
829.8676096692261
 31
0.0
  0
LINE
  5
28D0
330
1F
100
AcDbEntity
  8
10
100
AcDbLine
 10
666.0844294074069
 20
519.8676096692265
 30
0.0
 11
653.384429407407
 21
519.8676096692265
 31
0.0
  0
LINE
  5
28D2
330
1F
100
AcDbEntity
  8
10
100
AcDbLine
 10
654.0844294074068
 20
539.8676096692265
 30
0.0
 11
667.0844294074067
 21
539.8676096692265
 31
0.0
  0
LINE
  5
28D3
330
1F
100
AcDbEntity
  8
10
100
AcDbLine
 10
657.0844294074069
 20
549.8676096692265
 30
0.0
 11
657.0844294074069
 21
539.8676096692265
 31
0.0
  0
LINE
  5
28D4
330
1F
100
AcDbEntity
  8
10
100
AcDbLine
 10
655.8144294074068
 20
549.8676096692265
 30
0.0
 11
657.0844294074069
 21
539.8676096692265
 31
0.0
  0
LINE
  5
28D5
330
1F
100
AcDbEntity
  8
10
100
AcDbLine
 10
653.384429407407
 20
519.8676096692265
 30
0.0
 11
651.3844294074067
 21
521.8676096692266
 31
0.0
  0
LINE
  5
28D6
330
1F
100
AcDbEntity
  8
10
100
AcDbLine
 10
651.3844294074067
 20
521.8676096692266
 30
0.0
 11
651.3844294074067
 21
537.1676096692266
 31
0.0
  0
LINE
  5
28D7
330
1F
100
AcDbEntity
  8
10
100
AcDbLine
 10
651.3844294074067
 20
521.8676096692266
 30
0.0
 11
649.0844294074068
 21
521.8676096692266
 31
0.0
  0
LINE
  5
28D8
330
1F
100
AcDbEntity
  8
10
100
AcDbLine
 10
651.3844294074067
 20
537.1676096692266
 30
0.0
 11
649.0844294074068
 21
537.1676096692266
 31
0.0
  0
LINE
  5
28D9
330
1F
100
AcDbEntity
  8
10
100
AcDbLine
 10
654.0844294074068
 20
536.8676096692265
 30
0.0
 11
656.0844294074069
 21
534.8676096692265
 31
0.0
  0
LINE
  5
28DA
330
1F
100
AcDbEntity
  8
10
100
AcDbLine
 10
655.5844294074067
 20
535.3676096692265
 30
0.0
 11
655.5844294074067
 21
539.8676096692265
 31
0.0
  0
LINE
  5
28DB
330
1F
100
AcDbEntity
  8
10
100
AcDbLine
 10
662.5844294074068
 20
550.3676096692266
 30
0.0
 11
663.0844294074067
 21
549.8676096692265
 31
0.0
  0
LINE
  5
28DC
330
1F
100
AcDbEntity
  8
10
100
AcDbLine
 10
667.0844294074067
 20
549.8676096692265
 30
0.0
 11
667.0844294074067
 21
539.8676096692265
 31
0.0
  0
LINE
  5
28DD
330
1F
100
AcDbEntity
  8
12
 48
3.0
100
AcDbLine
 10
669.0844294074069
 20
522.8676096692265
 30
0.0
 11
669.0844294074069
 21
532.8676096692263
 31
0.0
  0
ARC
  5
28DE
330
1F
100
AcDbEntity
  8
12
100
AcDbCircle
 10
669.0844294074069
 20
527.8676096692265
 30
0.0
 40
3.000000000000021
100
AcDbArc
 50
0.0
 51
180.0
  0
LINE
  5
28DF
330
1F
100
AcDbEntity
  8
12
100
AcDbLine
 10
666.0844294074069
 20
527.8676096692265
 30
0.0
 11
666.0844294074069
 21
519.8676096692265
 31
0.0
  0
LINE
  5
28E0
330
1F
100
AcDbEntity
  8
12
100
AcDbLine
 10
672.0844294074069
 20
527.8676096692265
 30
0.0
 11
672.0844294074069
 21
519.8676096692265
 31
0.0
  0
LINE
  5
28E2
330
1F
100
AcDbEntity
  8
10
100
AcDbLine
 10
654.0844294074068
 20
829.8676096692261
 30
0.0
 11
667.0844294074067
 21
829.8676096692261
 31
0.0
  0
LINE
  5
28E3
330
1F
100
AcDbEntity
  8
10
100
AcDbLine
 10
651.3844294074067
 20
847.8676096692263
 30
0.0
 11
653.3844294074063
 21
849.8676096692262
 31
0.0
  0
LINE
  5
28E4
330
1F
100
AcDbEntity
  8
10
100
AcDbLine
 10
651.3844294074067
 20
847.8676096692263
 30
0.0
 11
651.3844294074067
 21
832.5676096692264
 31
0.0
  0
LINE
  5
28E5
330
1F
100
AcDbEntity
  8
10
100
AcDbLine
 10
649.0844294074068
 20
832.5676096692264
 30
0.0
 11
651.3844294074067
 21
832.5676096692264
 31
0.0
  0
LINE
  5
28E6
330
1F
100
AcDbEntity
  8
10
100
AcDbLine
 10
651.3844294074067
 20
847.8676096692263
 30
0.0
 11
649.0844294074068
 21
847.8676096692263
 31
0.0
  0
LINE
  5
28E7
330
1F
100
AcDbEntity
  8
10
100
AcDbLine
 10
655.5844294074067
 20
829.8676096692261
 30
0.0
 11
655.5844294074067
 21
834.3676096692261
 31
0.0
  0
LINE
  5
28E8
330
1F
100
AcDbEntity
  8
10
100
AcDbLine
 10
654.0844294074068
 20
832.8676096692262
 30
0.0
 11
656.0844294074069
 21
834.8676096692264
 31
0.0
  0
LINE
  5
28E9
330
1F
100
AcDbEntity
  8
10
100
AcDbLine
 10
657.0844294074069
 20
829.8676096692261
 30
0.0
 11
657.0844294074069
 21
819.8676096692262
 31
0.0
  0
LINE
  5
28EA
330
1F
100
AcDbEntity
  8
10
100
AcDbLine
 10
655.8144294074068
 20
819.8676096692262
 30
0.0
 11
657.0844294074069
 21
829.8676096692261
 31
0.0
  0
LINE
  5
28EB
330
1F
100
AcDbEntity
  8
10
100
AcDbLine
 10
667.0844294074067
 20
829.8676096692261
 30
0.0
 11
667.0844294074067
 21
819.8676096692262
 31
0.0
  0
CIRCLE
  5
28EC
330
1F
100
AcDbEntity
  8
12
100
AcDbCircle
 10
669.0844294074069
 20
841.8676096692262
 30
0.0
 40
3.000000000000021
  0
LINE
  5
28ED
330
1F
100
AcDbEntity
  8
12
 48
3.0
100
AcDbLine
 10
669.0844294074069
 20
836.8676096692261
 30
0.0
 11
669.0844294074069
 21
846.8676096692261
 31
0.0
  0
LINE
  5
28F0
330
1F
100
AcDbEntity
  8
10
100
AcDbLine
 10
779.0844294074068
 20
847.8676096692263
 30
0.0
 11
779.0844294074068
 21
521.8676096692266
 31
0.0
  0
LINE
  5
28F1
330
1F
100
AcDbEntity
  8
10
100
AcDbLine
 10
719.1844294074067
 20
819.0676096692261
 30
0.0
 11
719.1844294074067
 21
792.6676096692261
 31
0.0
  0
LINE
  5
28F2
330
1F
100
AcDbEntity
  8
10
100
AcDbLine
 10
737.7844294074066
 20
819.0676096692261
 30
0.0
 11
737.7844294074066
 21
792.6676096692261
 31
0.0
  0
ARC
  5
28F3
330
1F
100
AcDbEntity
  8
10
100
AcDbCircle
 10
1001.16214000125
 20
815.9242252437879
 30
0.0
 40
2.999999999999946
100
AcDbArc
 50
92.9999999999991
 51
160.3162775136968
  0
LINE
  5
28F4
330
1F
100
AcDbEntity
  8
10
100
AcDbLine
 10
774.0844294074068
 20
536.8676096692265
 30
0.0
 11
774.0844294074068
 21
832.8676096692262
 31
0.0
  0
LINE
  5
28F5
330
1F
100
AcDbEntity
  8
10
100
AcDbLine
 10
774.0844294074068
 20
539.8676096692265
 30
0.0
 11
774.0844294074068
 21
829.8676096692261
 31
0.0
  0
LINE
  5
28F6
330
1F
100
AcDbEntity
  8
10
100
AcDbLine
 10
719.0844294074069
 20
819.2125124281885
 30
0.0
 11
719.0844294074069
 21
808.4563080026024
 31
0.0
  0
LINE
  5
28F7
330
1F
100
AcDbEntity
  8
10
100
AcDbLine
 10
737.8844294074066
 20
819.2649202074713
 30
0.0
 11
737.8844294074066
 21
803.3436468988202
 31
0.0
  0
LINE
  5
28F8
330
1F
100
AcDbEntity
  8
10
100
AcDbLine
 10
719.0844294074069
 20
819.2649202074713
 30
0.0
 11
719.0844294074069
 21
790.3676096692266
 31
0.0
  0
LINE
  5
28F9
330
1F
100
AcDbEntity
  8
10
100
AcDbLine
 10
737.8844294074066
 20
819.2649202074713
 30
0.0
 11
737.8844294074066
 21
790.3676096692266
 31
0.0
  0
LINE
  5
28FA
330
1F
100
AcDbEntity
  8
10
100
AcDbLine
 10
774.0844294074068
 20
818.8676096692264
 30
0.0
 11
774.0844294074068
 21
705.3676096692262
 31
0.0
  0
LINE
  5
28FB
330
1F
100
AcDbEntity
  8
10
100
AcDbLine
 10
714.0844294074065
 20
818.8676096692264
 30
0.0
 11
714.0844294074065
 21
705.3676096692262
 31
0.0
  0
ARC
  5
28FC
330
1F
100
AcDbEntity
  8
10
100
AcDbCircle
 10
1004.162140001249
 20
816.0814485816368
 30
0.0
 40
2.999999999999913
100
AcDbArc
 50
92.9999999999991
 51
160.3162775136983
  0
LINE
  5
28FE
330
1F
100
AcDbEntity
  8
10
 48
3.0
100
AcDbLine
 10
736.0844294074068
 20
696.3676096692262
 30
0.0
 11
736.0844294074068
 21
646.3676096692266
 31
0.0
  0
LINE
  5
28FF
330
1F
100
AcDbEntity
  8
10
 48
3.0
100
AcDbLine
 10
768.0844294074067
 20
696.3676096692262
 30
0.0
 11
768.0844294074067
 21
646.3676096692266
 31
0.0
  0
LINE
  5
2901
330
1F
100
AcDbEntity
  8
10
 48
3.0
100
AcDbLine
 10
768.0844294074067
 20
646.3676096692266
 30
0.0
 11
736.0844294074068
 21
646.3676096692266
 31
0.0
  0
LINE
  5
2902
330
1F
100
AcDbEntity
  8
10
 48
3.0
100
AcDbLine
 10
691.3844294074067
 20
588.3676096692262
 30
0.0
 11
741.7844294074066
 21
588.3676096692262
 31
0.0
  0
LINE
  5
2903
330
1F
100
AcDbEntity
  8
10
 48
3.0
100
AcDbLine
 10
691.3844294074067
 20
566.3676096692262
 30
0.0
 11
741.7844294074066
 21
566.3676096692262
 31
0.0
  0
LINE
  5
2904
330
1F
100
AcDbEntity
  8
10
100
AcDbLine
 10
772.0844294074067
 20
534.8676096692265
 30
0.0
 11
717.0844294074067
 21
534.8676096692265
 31
0.0
  0
LINE
  5
2905
330
1F
100
AcDbEntity
  8
10
 48
3.0
100
AcDbLine
 10
691.3844294074067
 20
588.3676096692262
 30
0.0
 11
691.3844294074067
 21
566.3676096692262
 31
0.0
  0
TEXT
  5
2906
330
1F
100
AcDbEntity
  8
10
 48
3.0
100
AcDbText
 10
715.3235897685765
 20
568.3676069727662
 30
0.0
 40
6.956521842790684
  1
ＴＢ１
 50
0.0000025044784726
 41
0.7031250019402551
  7
STANDARD1
100
AcDbText
  0
LINE
  5
2908
330
1F
100
AcDbEntity
  8
10
100
AcDbLine
 10
711.0844294074068
 20
534.8676096692265
 30
0.0
 11
711.0844294074068
 21
540.8676096692265
 31
0.0
  0
LINE
  5
2909
330
1F
100
AcDbEntity
  8
10
100
AcDbLine
 10
727.4707419982701
 20
540.1736096692266
 30
0.0
 11
728.6981168165434
 21
540.1736096692266
 31
0.0
  0
LINE
  5
290A
330
1F
100
AcDbEntity
  8
10
100
AcDbLine
 10
726.8700857028384
 20
541.0206096692262
 30
0.0
 11
729.2987731119751
 21
541.0206096692262
 31
0.0
  0
LINE
  5
290B
330
1F
100
AcDbEntity
  8
10
100
AcDbLine
 10
726.2694294074067
 20
541.8676096692263
 30
0.0
 11
729.8994294074067
 21
541.8676096692263
 31
0.0
  0
CIRCLE
  5
290C
330
1F
100
AcDbEntity
  8
10
100
AcDbCircle
 10
728.0844294074068
 20
541.8676096692263
 30
0.0
 40
2.49999999999998
  0
LINE
  5
290D
330
1F
100
AcDbEntity
  8
10
100
AcDbLine
 10
717.0844294074067
 20
534.8676096692265
 30
0.0
 11
717.0844294074067
 21
540.8676096692265
 31
0.0
  0
LINE
  5
290E
330
1F
100
AcDbEntity
  8
10
100
AcDbLine
 10
728.0844294074068
 20
541.8676096692263
 30
0.0
 11
728.0844294074068
 21
543.682609669226
 31
0.0
  0
LINE
  5
290F
330
1F
100
AcDbEntity
  8
10
 48
3.0
100
AcDbLine
 10
741.7844294074066
 20
588.3676096692262
 30
0.0
 11
741.7844294074066
 21
566.3676096692262
 31
0.0
  0
LINE
  5
2910
330
1F
100
AcDbEntity
  8
10
100
AcDbLine
 10
774.784429407407
 20
519.8676096692265
 30
0.0
 11
762.0844294074068
 21
519.8676096692265
 31
0.0
  0
LINE
  5
2912
330
1F
100
AcDbEntity
  8
10
100
AcDbLine
 10
761.0844294074068
 20
539.8676096692265
 30
0.0
 11
774.0844294074068
 21
539.8676096692265
 31
0.0
  0
LINE
  5
2913
330
1F
100
AcDbEntity
  8
10
100
AcDbLine
 10
761.0844294074068
 20
549.8676096692265
 30
0.0
 11
761.0844294074068
 21
539.8676096692265
 31
0.0
  0
LINE
  5
2915
330
1F
100
AcDbEntity
  8
12
 48
3.0
100
AcDbLine
 10
759.0844294074066
 20
522.8676096692263
 30
0.0
 11
759.0844294074067
 21
532.8676096692263
 31
0.0
  0
ARC
  5
2916
330
1F
100
AcDbEntity
  8
12
100
AcDbCircle
 10
759.0844294074067
 20
527.8676096692265
 30
0.0
 40
3.000000000000004
100
AcDbArc
 50
0.0
 51
180.0
  0
LINE
  5
2917
330
1F
100
AcDbEntity
  8
12
100
AcDbLine
 10
756.0844294074067
 20
527.8676096692265
 30
0.0
 11
756.0844294074067
 21
519.8676096692265
 31
0.0
  0
LINE
  5
2918
330
1F
100
AcDbEntity
  8
12
100
AcDbLine
 10
762.0844294074068
 20
527.8676096692265
 30
0.0
 11
762.0844294074068
 21
519.8676096692265
 31
0.0
  0
LINE
  5
2919
330
1F
100
AcDbEntity
  8
10
100
AcDbLine
 10
765.0844294074068
 20
549.8676096692265
 30
0.0
 11
765.5844294074068
 21
550.3676096692266
 31
0.0
  0
LINE
  5
291A
330
1F
100
AcDbEntity
  8
10
100
AcDbLine
 10
771.0844294074068
 20
549.8676096692265
 30
0.0
 11
771.0844294074068
 21
539.8676096692265
 31
0.0
  0
LINE
  5
291B
330
1F
100
AcDbEntity
  8
10
100
AcDbLine
 10
772.3544294074067
 20
549.8676096692265
 30
0.0
 11
771.0844294074068
 21
539.8676096692265
 31
0.0
  0
LINE
  5
291C
330
1F
100
AcDbEntity
  8
10
100
AcDbLine
 10
776.7844294074069
 20
521.8676096692266
 30
0.0
 11
776.7844294074069
 21
537.1676096692265
 31
0.0
  0
LINE
  5
291D
330
1F
100
AcDbEntity
  8
10
100
AcDbLine
 10
776.7844294074069
 20
521.8676096692266
 30
0.0
 11
774.784429407407
 21
519.8676096692265
 31
0.0
  0
LINE
  5
291E
330
1F
100
AcDbEntity
  8
10
100
AcDbLine
 10
776.7844294074069
 20
521.8676096692266
 30
0.0
 11
779.0844294074068
 21
521.8676096692266
 31
0.0
  0
LINE
  5
291F
330
1F
100
AcDbEntity
  8
10
100
AcDbLine
 10
772.0844294074067
 20
534.8676096692265
 30
0.0
 11
774.0844294074068
 21
536.8676096692265
 31
0.0
  0
LINE
  5
2920
330
1F
100
AcDbEntity
  8
10
100
AcDbLine
 10
772.5844294074065
 20
535.3676096692265
 30
0.0
 11
772.5844294074065
 21
539.8676096692265
 31
0.0
  0
LINE
  5
2921
330
1F
100
AcDbEntity
  8
10
100
AcDbLine
 10
779.0844294074068
 20
537.1676096692265
 30
0.0
 11
776.7844294074069
 21
537.1676096692265
 31
0.0
  0
LINE
  5
2922
330
1F
100
AcDbEntity
  8
10
 48
3.0
100
AcDbLine
 10
747.0844294074067
 20
645.0176096692264
 30
0.0
 11
768.0844294074067
 21
645.0176096692264
 31
0.0
  0
LINE
  5
2923
330
1F
100
AcDbEntity
  8
10
 48
3.0
100
AcDbLine
 10
747.0844294074067
 20
608.7176096692262
 30
0.0
 11
768.0844294074067
 21
608.7176096692262
 31
0.0
  0
LINE
  5
2924
330
1F
100
AcDbEntity
  8
10
 48
3.0
100
AcDbLine
 10
747.0844294074067
 20
608.7176096692262
 30
0.0
 11
747.0844294074067
 21
645.0176096692264
 31
0.0
  0
TEXT
  5
2925
330
1F
100
AcDbEntity
  8
10
 48
3.0
100
AcDbText
 10
749.3235287334202
 20
610.7176092615844
 30
0.0
 40
6.956521842790684
  1
ＴＢ２
 50
0.0000025044784726
 41
0.7031250019402551
  7
STANDARD1
100
AcDbText
  0
TEXT
  5
2926
330
1F
100
AcDbEntity
  8
10
 48
3.0
100
AcDbText
 10
743.823467698264
 20
648.3676107874635
 30
0.0
 40
6.956521842790684
  1
ＴＢ３
 50
0.0000025044784726
 41
0.7031250019402551
  7
STANDARD1
100
AcDbText
  0
LINE
  5
2927
330
1F
100
AcDbEntity
  8
10
 48
3.0
100
AcDbLine
 10
768.0844294074067
 20
608.7176096692262
 30
0.0
 11
768.0844294074067
 21
645.0176096692264
 31
0.0
  0
LINE
  5
2928
330
1F
100
AcDbEntity
  8
10
100
AcDbLine
 10
725.0844294074068
 20
783.8676096692262
 30
0.0
 11
763.0844294074067
 21
783.8676096692262
 31
0.0
  0
LINE
  5
2929
330
1F
100
AcDbEntity
  8
10
100
AcDbLine
 10
725.0844294074068
 20
777.3676096692264
 30
0.0
 11
763.0844294074067
 21
777.3676096692264
 31
0.0
  0
TEXT
  5
292A
330
1F
100
AcDbEntity
  8
10
100
AcDbText
 10
734.1844296123268
 20
721.8676336756471
 30
0.0
 40
6.956521842790684
  1
ＴＢ４
 50
0.0000025044784726
 41
0.7031250019402551
  7
STANDARD1
100
AcDbText
  0
LINE
  5
292B
330
1F
100
AcDbEntity
  8
10
 48
3.0
100
AcDbLine
 10
768.0844294074067
 20
696.3676096692262
 30
0.0
 11
736.0844294074068
 21
696.3676096692262
 31
0.0
  0
LINE
  5
292C
330
1F
100
AcDbEntity
  8
10
100
AcDbLine
 10
715.8844294074066
 20
710.9676096692262
 30
0.0
 11
745.8844294074065
 21
710.9676096692262
 31
0.0
  0
LINE
  5
292D
330
1F
100
AcDbEntity
  8
10
100
AcDbLine
 10
715.8844294074066
 20
772.7676096692261
 30
0.0
 11
745.8844294074065
 21
772.7676096692261
 31
0.0
  0
LINE
  5
292E
330
1F
100
AcDbEntity
  8
10
100
AcDbLine
 10
739.6844294074069
 20
795.8676096692262
 30
0.0
 11
773.5844294074068
 21
795.8676096692262
 31
0.0
  0
LINE
  5
292F
330
1F
100
AcDbEntity
  8
10
100
AcDbLine
 10
739.5844294074067
 20
798.8676096692262
 30
0.0
 11
755.7844294074067
 21
798.8676096692262
 31
0.0
  0
LINE
  5
2930
330
1F
100
AcDbEntity
  8
10
100
AcDbLine
 10
739.5844294074067
 20
810.0676096692263
 30
0.0
 11
755.7844294074067
 21
810.0676096692263
 31
0.0
  0
LINE
  5
2931
330
1F
100
AcDbEntity
  8
10
100
AcDbLine
 10
714.9753616552182
 20
772.8676096692262
 30
0.0
 11
773.5844294074068
 21
772.8676096692262
 31
0.0
  0
LINE
  5
2932
330
1F
100
AcDbEntity
  8
10
100
AcDbLine
 10
714.9753616552182
 20
710.8676096692263
 30
0.0
 11
757.5844294074065
 21
710.8676096692263
 31
0.0
  0
LINE
  5
2933
330
1F
100
AcDbEntity
  8
10
100
AcDbLine
 10
714.5844294074067
 20
788.8676096692262
 30
0.0
 11
773.5844294074068
 21
788.8676096692262
 31
0.0
  0
LINE
  5
2934
330
1F
100
AcDbEntity
  8
10
100
AcDbLine
 10
714.0844294074065
 20
705.3676096692262
 30
0.0
 11
774.0844294074068
 21
705.3676096692262
 31
0.0
  0
LINE
  5
2935
330
1F
100
AcDbEntity
  8
10
 48
3.0
100
AcDbLine
 10
731.6844294074067
 20
714.3676096692262
 30
0.0
 11
731.6844294074067
 21
769.3676096692262
 31
0.0
  0
LINE
  5
2936
330
1F
100
AcDbEntity
  8
10
 48
3.0
100
AcDbLine
 10
723.6844294074067
 20
769.3676096692262
 30
0.0
 11
723.6844294074067
 21
714.3676096692262
 31
0.0
  0
LINE
  5
2937
330
1F
100
AcDbEntity
  8
10
100
AcDbLine
 10
723.4825056187602
 20
710.9676096692262
 30
0.0
 11
723.4825056187602
 21
772.7676096692261
 31
0.0
  0
LINE
  5
2938
330
1F
100
AcDbEntity
  8
10
100
AcDbLine
 10
720.8844294074065
 20
710.9676096692262
 30
0.0
 11
720.8844294074065
 21
772.7676096692261
 31
0.0
  0
LINE
  5
2939
330
1F
100
AcDbEntity
  8
10
100
AcDbLine
 10
714.9753616552182
 20
713.3676096692263
 30
0.0
 11
720.8844294074065
 21
713.3676096692263
 31
0.0
  0
LINE
  5
293A
330
1F
100
AcDbEntity
  8
10
100
AcDbLine
 10
714.9753616552182
 20
710.8676096692263
 30
0.0
 11
714.9753616552182
 21
713.3676096692263
 31
0.0
  0
LINE
  5
293B
330
1F
100
AcDbEntity
  8
10
 48
3.0
100
AcDbLine
 10
723.6844294074067
 20
714.3676096692262
 30
0.0
 11
731.6844294074067
 21
714.3676096692262
 31
0.0
  0
LINE
  5
293C
330
1F
100
AcDbEntity
  8
10
100
AcDbLine
 10
715.8844294074066
 20
710.9676096692262
 30
0.0
 11
715.8844294074066
 21
712.9676096692262
 31
0.0
  0
LINE
  5
293D
330
1F
100
AcDbEntity
  8
10
100
AcDbLine
 10
720.8844294074065
 20
712.9676096692262
 30
0.0
 11
715.8844294074066
 21
712.9676096692262
 31
0.0
  0
LINE
  5
293E
330
1F
100
AcDbEntity
  8
10
100
AcDbLine
 10
716.2844294074067
 20
712.9676096692262
 30
0.0
 11
716.2844294074067
 21
713.3676096692263
 31
0.0
  0
LINE
  5
293F
330
1F
100
AcDbEntity
  8
10
100
AcDbLine
 10
717.2844294074067
 20
712.9676096692262
 30
0.0
 11
717.2844294074067
 21
713.3676096692263
 31
0.0
  0
LINE
  5
2940
330
1F
100
AcDbEntity
  8
10
100
AcDbLine
 10
718.4844294074068
 20
712.9676096692262
 30
0.0
 11
718.4844294074068
 21
713.3676096692263
 31
0.0
  0
LINE
  5
2941
330
1F
100
AcDbEntity
  8
10
100
AcDbLine
 10
719.6844294074068
 20
712.9676096692262
 30
0.0
 11
719.6844294074068
 21
713.3676096692263
 31
0.0
  0
LINE
  5
2942
330
1F
100
AcDbEntity
  8
10
100
AcDbLine
 10
721.5844294074067
 20
710.9676096692262
 30
0.0
 11
721.5844294074067
 21
710.8676096692263
 31
0.0
  0
LINE
  5
2943
330
1F
100
AcDbEntity
  8
10
100
AcDbLine
 10
716.2844294074067
 20
710.8676096692263
 30
0.0
 11
716.2844294074067
 21
710.9676096692262
 31
0.0
  0
LINE
  5
2944
330
1F
100
AcDbEntity
  8
10
100
AcDbLine
 10
718.4844294074068
 20
710.8676096692263
 30
0.0
 11
718.4844294074068
 21
710.9676096692262
 31
0.0
  0
LINE
  5
2945
330
1F
100
AcDbEntity
  8
10
100
AcDbLine
 10
717.2844294074067
 20
710.8676096692263
 30
0.0
 11
717.2844294074067
 21
710.9676096692262
 31
0.0
  0
LINE
  5
2946
330
1F
100
AcDbEntity
  8
10
100
AcDbLine
 10
719.6844294074068
 20
710.8676096692263
 30
0.0
 11
719.6844294074068
 21
710.9676096692262
 31
0.0
  0
LINE
  5
2947
330
1F
100
AcDbEntity
  8
10
100
AcDbLine
 10
740.9492191696045
 20
710.8676096692263
 30
0.0
 11
740.9492191696045
 21
710.9676096692262
 31
0.0
  0
LINE
  5
2948
330
1F
100
AcDbEntity
  8
10
100
AcDbLine
 10
714.9753616552182
 20
770.3676096692262
 30
0.0
 11
720.8844294074065
 21
770.3676096692262
 31
0.0
  0
LINE
  5
2949
330
1F
100
AcDbEntity
  8
10
100
AcDbLine
 10
714.5844294074067
 20
795.8676096692262
 30
0.0
 11
717.2844294074069
 21
795.8676096692262
 31
0.0
  0
LINE
  5
294A
330
1F
100
AcDbEntity
  8
10
100
AcDbLine
 10
714.9753616552182
 20
770.3676096692262
 30
0.0
 11
714.9753616552182
 21
772.8676096692262
 31
0.0
  0
ARC
  5
294B
330
1F
100
AcDbEntity
  8
10
100
AcDbCircle
 10
714.5844294074067
 20
796.3676096692262
 30
0.0
 40
0.5000000000000086
100
AcDbArc
 50
180.0
 51
270.0
  0
ARC
  5
294C
330
1F
100
AcDbEntity
  8
10
100
AcDbCircle
 10
714.5844294074067
 20
788.3676096692262
 30
0.0
 40
0.5000000000000086
100
AcDbArc
 50
90.0
 51
180.0
  0
LINE
  5
294D
330
1F
100
AcDbEntity
  8
10
100
AcDbLine
 10
724.0844294074068
 20
778.3676096692262
 30
0.0
 11
724.0844294074068
 21
782.8676096692262
 31
0.0
  0
LINE
  5
294E
330
1F
100
AcDbEntity
  8
10
100
AcDbLine
 10
723.6844294074067
 20
769.3676096692262
 30
0.0
 11
731.6844294074067
 21
769.3676096692262
 31
0.0
  0
LINE
  5
294F
330
1F
100
AcDbEntity
  8
10
100
AcDbLine
 10
720.8844294074065
 20
770.7676096692262
 30
0.0
 11
715.8844294074066
 21
770.7676096692262
 31
0.0
  0
LINE
  5
2950
330
1F
100
AcDbEntity
  8
10
100
AcDbLine
 10
715.8844294074066
 20
770.7676096692262
 30
0.0
 11
715.8844294074066
 21
772.7676096692261
 31
0.0
  0
LINE
  5
2951
330
1F
100
AcDbEntity
  8
10
100
AcDbLine
 10
716.2844294074067
 20
772.7676096692261
 30
0.0
 11
716.2844294074067
 21
772.8676096692262
 31
0.0
  0
LINE
  5
2952
330
1F
100
AcDbEntity
  8
10
100
AcDbLine
 10
717.2844294074067
 20
772.7676096692261
 30
0.0
 11
717.2844294074067
 21
772.8676096692262
 31
0.0
  0
LINE
  5
2953
330
1F
100
AcDbEntity
  8
10
100
AcDbLine
 10
718.4844294074068
 20
772.7676096692261
 30
0.0
 11
718.4844294074068
 21
772.8676096692262
 31
0.0
  0
LINE
  5
2954
330
1F
100
AcDbEntity
  8
10
100
AcDbLine
 10
719.6844294074068
 20
772.7676096692261
 30
0.0
 11
719.6844294074068
 21
772.8676096692262
 31
0.0
  0
LINE
  5
2955
330
1F
100
AcDbEntity
  8
10
100
AcDbLine
 10
716.2844294074067
 20
770.3676096692262
 30
0.0
 11
716.2844294074067
 21
770.7676096692262
 31
0.0
  0
LINE
  5
2956
330
1F
100
AcDbEntity
  8
10
100
AcDbLine
 10
717.2844294074067
 20
770.3676096692262
 30
0.0
 11
717.2844294074067
 21
770.7676096692262
 31
0.0
  0
LINE
  5
2957
330
1F
100
AcDbEntity
  8
10
100
AcDbLine
 10
718.4844294074068
 20
770.3676096692262
 30
0.0
 11
718.4844294074068
 21
770.7676096692262
 31
0.0
  0
LINE
  5
2958
330
1F
100
AcDbEntity
  8
10
100
AcDbLine
 10
719.6844294074068
 20
770.3676096692262
 30
0.0
 11
719.6844294074068
 21
770.7676096692262
 31
0.0
  0
LINE
  5
2959
330
1F
100
AcDbEntity
  8
10
100
AcDbLine
 10
721.5844294074067
 20
772.8676096692262
 30
0.0
 11
721.5844294074067
 21
772.7676096692261
 31
0.0
  0
ARC
  5
295A
330
1F
100
AcDbEntity
  8
10
100
AcDbCircle
 10
725.0844294074068
 20
778.3676096692262
 30
0.0
 40
0.9999999999999864
100
AcDbArc
 50
180.0
 51
270.0
  0
LINE
  5
295B
330
1F
100
AcDbEntity
  8
10
100
AcDbLine
 10
740.9492191696045
 20
772.7676096692261
 30
0.0
 11
740.9492191696045
 21
772.8676096692262
 31
0.0
  0
LINE
  5
295C
330
1F
100
AcDbEntity
  8
10
100
AcDbLine
 10
719.4844294074068
 20
792.3676096692261
 30
0.0
 11
737.4844294074067
 21
792.3676096692261
 31
0.0
  0
LINE
  5
295D
330
1F
100
AcDbEntity
  8
10
100
AcDbLine
 10
719.1844294074067
 20
806.9325647370384
 30
0.0
 11
737.7844294074066
 21
806.9325647370384
 31
0.0
  0
LINE
  5
295E
330
1F
100
AcDbEntity
  8
10
100
AcDbLine
 10
719.1844294074067
 20
794.3676096692262
 30
0.0
 11
737.7844294074066
 21
794.3676096692262
 31
0.0
  0
LINE
  5
295F
330
1F
100
AcDbEntity
  8
10
 48
3.0
100
AcDbLine
 10
736.1044294074067
 20
811.9076096692262
 30
0.0
 11
720.8644294074067
 21
811.9076096692262
 31
0.0
  0
LINE
  5
2960
330
1F
100
AcDbEntity
  8
10
 48
3.0
100
AcDbLine
 10
736.1044294074067
 20
796.8276096692264
 30
0.0
 11
720.8644294074067
 21
796.8276096692264
 31
0.0
  0
LINE
  5
2961
330
1F
100
AcDbEntity
  8
10
100
AcDbLine
 10
719.0844294074069
 20
790.3676096692266
 30
0.0
 11
737.8844294074066
 21
790.3676096692266
 31
0.0
  0
LINE
  5
2962
330
1F
100
AcDbEntity
  8
10
100
AcDbLine
 10
718.2844294074067
 20
792.3676096692262
 30
0.0
 11
738.6844294074068
 21
792.3676096692262
 31
0.0
  0
LINE
  5
2963
330
1F
100
AcDbEntity
  8
10
 48
3.0
100
AcDbLine
 10
720.8644294074067
 20
811.9076096692262
 30
0.0
 11
720.8644294074067
 21
796.8276096692264
 31
0.0
  0
ARC
  5
2964
330
1F
100
AcDbEntity
  8
10
100
AcDbCircle
 10
719.4844294074068
 20
792.6676096692261
 30
0.0
 40
0.3000000000000738
100
AcDbArc
 50
180.0
 51
270.0
  0
ARC
  5
2965
330
1F
100
AcDbEntity
  8
10
100
AcDbCircle
 10
718.2844294074067
 20
792.8676096692262
 30
0.0
 40
0.5000000000000086
100
AcDbArc
 50
180.0
 51
270.0
  0
ARC
  5
2966
330
1F
100
AcDbEntity
  8
10
100
AcDbCircle
 10
717.2844294074069
 20
795.3676096692262
 30
0.0
 40
0.5000000000000086
100
AcDbArc
 50
0.0
 51
90.0
  0
LINE
  5
2967
330
1F
100
AcDbEntity
  8
10
100
AcDbLine
 10
719.0844294074069
 20
794.9676096692265
 30
0.0
 11
719.1844294074067
 21
794.9676096692265
 31
0.0
  0
LINE
  5
2968
330
1F
100
AcDbEntity
  8
10
100
AcDbLine
 10
719.0844294074069
 20
793.7676096692264
 30
0.0
 11
719.1844294074067
 21
793.7676096692264
 31
0.0
  0
LINE
  5
2969
330
1F
100
AcDbEntity
  8
10
100
AcDbLine
 10
719.0844294074069
 20
797.3676096692262
 30
0.0
 11
719.1844294074067
 21
797.3676096692262
 31
0.0
  0
LINE
  5
296A
330
1F
100
AcDbEntity
  8
10
100
AcDbLine
 10
719.0844294074069
 20
796.8676096692263
 30
0.0
 11
719.1844294074067
 21
796.8676096692263
 31
0.0
  0
LINE
  5
296B
330
1F
100
AcDbEntity
  8
10
100
AcDbLine
 10
717.7844294074069
 20
795.3676096692262
 30
0.0
 11
717.7844294074069
 21
792.8676096692262
 31
0.0
  0
ARC
  5
296C
330
1F
100
AcDbEntity
  8
10
100
AcDbCircle
 10
725.0844294074068
 20
782.8676096692262
 30
0.0
 40
0.9999999999999864
100
AcDbArc
 50
90.0
 51
180.0
  0
LINE
  5
296D
330
1F
100
AcDbEntity
  8
10
100
AcDbLine
 10
719.0844294074069
 20
817.0646457382717
 30
0.0
 11
719.1844294074067
 21
817.0646457382717
 31
0.0
  0
LINE
  5
296E
330
1F
100
AcDbEntity
  8
10
 48
3.0
100
AcDbLine
 10
736.1044294074067
 20
811.9076096692262
 30
0.0
 11
736.1044294074067
 21
796.8276096692264
 31
0.0
  0
ARC
  5
296F
330
1F
100
AcDbEntity
  8
10
100
AcDbCircle
 10
737.4844294074067
 20
792.6676096692261
 30
0.0
 40
0.3000000000000738
100
AcDbArc
 50
270.0
 51
0.0
  0
ARC
  5
2970
330
1F
100
AcDbEntity
  8
10
100
AcDbCircle
 10
738.6844294074068
 20
792.8676096692262
 30
0.0
 40
0.4999999999999782
100
AcDbArc
 50
270.0
 51
0.0
  0
ARC
  5
2971
330
1F
100
AcDbEntity
  8
10
100
AcDbCircle
 10
739.6844294074069
 20
795.3676096692262
 30
0.0
 40
0.5000000000000086
100
AcDbArc
 50
90.0
 51
180.0
  0
LINE
  5
2972
330
1F
100
AcDbEntity
  8
10
100
AcDbLine
 10
737.7844294074066
 20
793.7676096692264
 30
0.0
 11
737.8844294074066
 21
793.7676096692264
 31
0.0
  0
LINE
  5
2973
330
1F
100
AcDbEntity
  8
10
100
AcDbLine
 10
737.7844294074066
 20
794.9676096692265
 30
0.0
 11
737.8844294074066
 21
794.9676096692265
 31
0.0
  0
LINE
  5
2974
330
1F
100
AcDbEntity
  8
10
100
AcDbLine
 10
737.7844294074066
 20
797.3676096692262
 30
0.0
 11
737.8844294074066
 21
797.3676096692262
 31
0.0
  0
LINE
  5
2975
330
1F
100
AcDbEntity
  8
10
100
AcDbLine
 10
737.7844294074066
 20
796.8676096692262
 30
0.0
 11
737.8844294074066
 21
796.8676096692262
 31
0.0
  0
LINE
  5
2976
330
1F
100
AcDbEntity
  8
10
100
AcDbLine
 10
739.1844294074068
 20
795.3676096692262
 30
0.0
 11
739.1844294074066
 21
792.8676096692262
 31
0.0
  0
ARC
  5
2977
330
1F
100
AcDbEntity
  8
10
100
AcDbCircle
 10
739.5844294074067
 20
809.0676096692263
 30
0.0
 40
0.9999999999999864
100
AcDbArc
 50
90.0
 51
180.0
  0
ARC
  5
2978
330
1F
100
AcDbEntity
  8
10
100
AcDbCircle
 10
739.5844294074067
 20
799.8676096692262
 30
0.0
 40
0.9999999999999864
100
AcDbArc
 50
180.0
 51
270.0
  0
LINE
  5
2979
330
1F
100
AcDbEntity
  8
10
100
AcDbLine
 10
737.7844294074066
 20
817.0646457382717
 30
0.0
 11
737.8844294074066
 21
817.0646457382717
 31
0.0
  0
LINE
  5
297A
330
1F
100
AcDbEntity
  8
10
100
AcDbLine
 10
738.5844294074067
 20
809.0676096692263
 30
0.0
 11
738.5844294074067
 21
799.8676096692262
 31
0.0
  0
LINE
  5
297B
330
1F
100
AcDbEntity
  8
10
100
AcDbLine
 10
744.6625601895853
 20
729.978728753556
 30
0.0
 11
744.6625601895853
 21
772.7676096692261
 31
0.0
  0
LINE
  5
297C
330
1F
100
AcDbEntity
  8
10
100
AcDbLine
 10
745.0832446882753
 20
729.9787280153192
 30
0.0
 11
745.0832446882753
 21
770.7676096692262
 31
0.0
  0
ARC
  5
297D
330
1F
100
AcDbEntity
  8
10
100
AcDbCircle
 10
761.0844294074068
 20
710.8676096692263
 30
0.0
 40
6.500000000000002
100
AcDbArc
 50
0.0
 51
180.0
  0
LINE
  5
297E
330
1F
100
AcDbEntity
  8
10
100
AcDbLine
 10
764.5844294074067
 20
710.8676096692263
 30
0.0
 11
773.5844294074068
 21
710.8676096692263
 31
0.0
  0
LINE
  5
297F
330
1F
100
AcDbEntity
  8
10
100
AcDbLine
 10
744.8844294074067
 20
710.8676096692262
 30
0.0
 11
744.8844294074067
 21
710.9676096692262
 31
0.0
  0
LINE
  5
2980
330
1F
100
AcDbEntity
  8
10
100
AcDbLine
 10
742.8844294074067
 20
710.8676096692262
 30
0.0
 11
742.8844294074067
 21
710.9676096692262
 31
0.0
  0
LINE
  5
2981
330
1F
100
AcDbEntity
  8
10
100
AcDbLine
 10
745.8844294074065
 20
710.9676096692262
 30
0.0
 11
745.8844294074065
 21
712.9676096692262
 31
0.0
  0
LINE
  5
2982
330
1F
100
AcDbEntity
  8
10
100
AcDbLine
 10
744.8264675231552
 20
712.9676096692262
 30
0.0
 11
745.8844294074065
 21
712.9676096692262
 31
0.0
  0
LINE
  5
2983
330
1F
100
AcDbEntity
  8
10
100
AcDbLine
 10
745.0832446882753
 20
712.9676096692262
 30
0.0
 11
745.0832446882753
 21
720.8676175894631
 31
0.0
  0
LINE
  5
2984
330
1F
100
AcDbEntity
  8
10
100
AcDbLine
 10
744.6625601895853
 20
710.9676096692262
 30
0.0
 11
744.6625601895853
 21
720.8676175894631
 31
0.0
  0
ARC
  5
2985
330
1F
100
AcDbEntity
  8
10
100
AcDbCircle
 10
746.4492191696041
 20
711.8676096692263
 30
0.0
 40
0.5000000000000086
100
AcDbArc
 50
0.0
 51
90.0
  0
LINE
  5
2986
330
1F
100
AcDbEntity
  8
10
100
AcDbLine
 10
745.8844294074065
 20
712.3676096692262
 30
0.0
 11
746.4492191696041
 21
712.3676096692262
 31
0.0
  0
LINE
  5
2987
330
1F
100
AcDbEntity
  8
10
100
AcDbLine
 10
746.9492191696043
 20
710.8676096692263
 30
0.0
 11
746.9492191696043
 21
711.8676096692263
 31
0.0
  0
ARC
  5
2988
330
1F
100
AcDbEntity
  8
10
100
AcDbCircle
 10
761.0844294074068
 20
710.8676096692263
 30
0.0
 40
4.999999999999881
100
AcDbArc
 50
0.0
 51
180.0
  0
ARC
  5
2989
330
1F
100
AcDbEntity
  8
10
100
AcDbCircle
 10
761.0844294074068
 20
710.8676096692263
 30
0.0
 40
3.499999999999996
100
AcDbArc
 50
0.0
 51
180.0
  0
ARC
  5
298A
330
1F
100
AcDbEntity
  8
10
100
AcDbCircle
 10
761.0844294074068
 20
710.8676096692263
 30
0.0
 40
3.999999999999988
100
AcDbArc
 50
180.0
 51
0.0
  0
CIRCLE
  5
298B
330
1F
100
AcDbEntity
  8
10
100
AcDbCircle
 10
761.0844294074068
 20
710.8676096692263
 30
0.0
 40
3.000000000000004
  0
CIRCLE
  5
298C
330
1F
100
AcDbEntity
  8
10
100
AcDbCircle
 10
761.0844294074068
 20
710.8676096692263
 30
0.0
 40
3.000000000000004
  0
ARC
  5
298D
330
1F
100
AcDbEntity
  8
10
100
AcDbCircle
 10
773.5844294074068
 20
710.3676096692262
 30
0.0
 40
0.5000000000000086
100
AcDbArc
 50
0.0
 51
90.0
  0
LINE
  5
298E
330
1F
100
AcDbEntity
  8
10
100
AcDbLine
 10
764.0844294074065
 20
778.3676096692262
 30
0.0
 11
764.0844294074065
 21
782.8676096692262
 31
0.0
  0
LINE
  5
298F
330
1F
100
AcDbEntity
  8
10
100
AcDbLine
 10
744.8844294074067
 20
772.8676096692261
 30
0.0
 11
744.8844294074067
 21
772.7676096692261
 31
0.0
  0
LINE
  5
2990
330
1F
100
AcDbEntity
  8
10
100
AcDbLine
 10
742.8844294074067
 20
772.8676096692261
 30
0.0
 11
742.8844294074067
 21
772.7676096692261
 31
0.0
  0
LINE
  5
2991
330
1F
100
AcDbEntity
  8
10
100
AcDbLine
 10
744.8264675231552
 20
770.7676096692262
 30
0.0
 11
745.8844294074065
 21
770.7676096692262
 31
0.0
  0
LINE
  5
2992
330
1F
100
AcDbEntity
  8
10
100
AcDbLine
 10
745.8844294074065
 20
770.7676096692262
 30
0.0
 11
745.8844294074065
 21
772.7676096692261
 31
0.0
  0
ARC
  5
2993
330
1F
100
AcDbEntity
  8
10
100
AcDbCircle
 10
746.4492191696041
 20
771.8676096692262
 30
0.0
 40
0.5000000000000086
100
AcDbArc
 50
270.0
 51
0.0
  0
LINE
  5
2994
330
1F
100
AcDbEntity
  8
10
100
AcDbLine
 10
746.9492191696043
 20
771.8676096692262
 30
0.0
 11
746.9492191696043
 21
772.8676096692262
 31
0.0
  0
LINE
  5
2995
330
1F
100
AcDbEntity
  8
10
100
AcDbLine
 10
745.8844294074065
 20
771.3676096692262
 30
0.0
 11
746.4492191696041
 21
771.3676096692262
 31
0.0
  0
ARC
  5
2996
330
1F
100
AcDbEntity
  8
10
100
AcDbCircle
 10
763.0844294074067
 20
778.3676096692262
 30
0.0
 40
0.9999999999999864
100
AcDbArc
 50
270.0
 51
0.0
  0
ARC
  5
2997
330
1F
100
AcDbEntity
  8
10
100
AcDbCircle
 10
763.0844294074067
 20
782.8676096692262
 30
0.0
 40
1.000000000000001
100
AcDbArc
 50
0.0
 51
90.0
  0
ARC
  5
2998
330
1F
100
AcDbEntity
  8
10
100
AcDbCircle
 10
755.7844294074067
 20
799.8676096692262
 30
0.0
 40
0.9999999999999864
100
AcDbArc
 50
270.0
 51
0.0
  0
ARC
  5
2999
330
1F
100
AcDbEntity
  8
10
100
AcDbCircle
 10
755.7844294074067
 20
809.0676096692263
 30
0.0
 40
1.000000000000001
100
AcDbArc
 50
0.0
 51
90.0
  0
LINE
  5
299A
330
1F
100
AcDbEntity
  8
10
100
AcDbLine
 10
756.7844294074067
 20
809.0676096692263
 30
0.0
 11
756.7844294074067
 21
799.8676096692262
 31
0.0
  0
ARC
  5
299B
330
1F
100
AcDbEntity
  8
10
100
AcDbCircle
 10
773.5844294074068
 20
773.3676096692262
 30
0.0
 40
0.5000000000000086
100
AcDbArc
 50
270.0
 51
0.0
  0
ARC
  5
299C
330
1F
100
AcDbEntity
  8
10
100
AcDbCircle
 10
773.5844294074068
 20
788.3676096692262
 30
0.0
 40
0.5000000000000086
100
AcDbArc
 50
0.0
 51
90.0
  0
ARC
  5
299D
330
1F
100
AcDbEntity
  8
10
100
AcDbCircle
 10
773.5844294074068
 20
796.3676096692262
 30
0.0
 40
0.4999999999999782
100
AcDbArc
 50
270.0
 51
0.0
  0
LINE
  5
299E
330
1F
100
AcDbEntity
  8
10
100
AcDbLine
 10
999.7844294074063
 20
651.1676096692261
 30
0.0
 11
999.7844294074067
 21
667.5676096692261
 31
0.0
  0
ARC
  5
299F
330
1F
100
AcDbEntity
  8
10
100
AcDbCircle
 10
998.3844294074062
 20
661.734569744935
 30
0.0
 40
2.500000000000032
100
AcDbArc
 50
120.6032946082065
 51
180.0
  0
LINE
  5
29A0
330
1F
100
AcDbEntity
  8
10
100
AcDbLine
 10
1002.084429407406
 20
650.8676096692261
 30
0.0
 11
1002.084429407406
 21
667.8676096692261
 31
0.0
  0
LINE
  5
29A1
330
1F
100
AcDbEntity
  8
10
100
AcDbLine
 10
988.0844294074066
 20
598.0904682322131
 30
0.0
 11
988.0844294074066
 21
693.7009971501654
 31
0.0
  0
LINE
  5
29A2
330
1F
100
AcDbEntity
  8
10
100
AcDbLine
 10
979.0844294074066
 20
563.9053440631687
 30
0.0
 11
979.0844294074066
 21
697.2548004423274
 31
0.0
  0
LINE
  5
29A3
330
1F
100
AcDbEntity
  8
10
100
AcDbLine
 10
999.0844294074067
 20
550.915765254887
 30
0.0
 11
999.0844294074067
 21
596.915765254887
 31
0.0
  0
LINE
  5
29A4
330
1F
100
AcDbEntity
  8
10
100
AcDbLine
 10
999.0844294074067
 20
596.3938135588676
 30
0.0
 11
999.0844294074067
 21
551.8647298216018
 31
0.0
  0
LINE
  5
29A5
330
1F
100
AcDbEntity
  8
10
100
AcDbLine
 10
999.0844294074067
 20
550.915765254887
 30
0.0
 11
983.6249032364488
 21
551.915765254887
 31
0.0
  0
ARC
  5
29A6
330
1F
100
AcDbEntity
  8
10
100
AcDbCircle
 10
1009.084429407405
 20
563.9053440631687
 30
0.0
 40
29.99999999999999
100
AcDbArc
 50
180.0
 51
199.4477664087378
  0
ARC
  5
29A7
330
1F
100
AcDbEntity
  8
10
100
AcDbCircle
 10
983.6249032364488
 20
554.9157652548871
 30
0.0
 40
3.000000000000153
100
AcDbArc
 50
199.4477664087378
 51
270.0
  0
LINE
  5
29AA
330
1F
100
AcDbEntity
  8
10
100
AcDbLine
 10
999.0844294074067
 20
553.915765254887
 30
0.0
 11
999.0844294074067
 21
553.933067991771
 31
0.0
  0
ARC
  5
29AB
330
1F
100
AcDbEntity
  8
10
100
AcDbCircle
 10
1000.084429407406
 20
551.8647298216018
 30
0.0
 40
0.9999999999999998
100
AcDbArc
 50
180.0
 51
266.9999999999943
  0
ARC
  5
29AD
330
1F
100
AcDbEntity
  8
10
100
AcDbCircle
 10
1002.484429407406
 20
625.1972803603772
 30
0.0
 40
1.499999999999999
100
AcDbArc
 50
180.0
 51
236.6329870307627
  0
LINE
  5
29AE
330
1F
100
AcDbEntity
  8
10
100
AcDbLine
 10
1003.584429407406
 20
622.5676096692263
 30
0.0
 11
1003.584429407406
 21
631.1676096692264
 31
0.0
  0
LINE
  5
29AF
330
1F
100
AcDbEntity
  8
10
100
AcDbLine
 10
1003.584429407406
 20
623.3676096692261
 30
0.0
 11
1003.584429407406
 21
630.3676096692261
 31
0.0
  0
LINE
  5
29B0
330
1F
100
AcDbEntity
  8
10
100
AcDbLine
 10
1004.584429407405
 20
622.3676096692261
 30
0.0
 11
1004.584429407405
 21
631.3676096692262
 31
0.0
  0
LINE
  5
29B1
330
1F
100
AcDbEntity
  8
10
100
AcDbLine
 10
999.0844294074067
 20
596.915765254887
 30
0.0
 11
989.0669770009694
 21
597.0906205370567
 31
0.0
  0
ARC
  5
29B2
330
1F
100
AcDbEntity
  8
10
100
AcDbCircle
 10
989.0844294074067
 20
598.0904682322131
 30
0.0
 40
1.000000000000001
100
AcDbArc
 50
180.0
 51
268.9999999999981
  0
LINE
  5
29B3
330
1F
100
AcDbEntity
  8
10
100
AcDbLine
 10
992.5844294074066
 20
620.3676096692262
 30
0.0
 11
992.5844294074066
 21
622.3676096692262
 31
0.0
  0
LINE
  5
29B4
330
1F
100
AcDbEntity
  8
10
100
AcDbLine
 10
992.5844294074066
 20
608.7176096692262
 30
0.0
 11
992.5844294074066
 21
611.3676096692262
 31
0.0
  0
LINE
  5
29B5
330
1F
100
AcDbEntity
  8
10
100
AcDbLine
 10
1009.584429407406
 20
596.8938135588675
 30
0.0
 11
999.5844294074066
 21
596.8938135588675
 31
0.0
  0
ARC
  5
29B6
330
1F
100
AcDbEntity
  8
10
100
AcDbCircle
 10
999.5844294074066
 20
596.3938135588676
 30
0.0
 40
0.5
100
AcDbArc
 50
90.0
 51
180.0
  0
ARC
  5
29B7
330
1F
100
AcDbEntity
  8
10
100
AcDbCircle
 10
1003.584429407406
 20
626.8676096692261
 30
0.0
 40
3.500000000000154
100
AcDbArc
 50
236.6329870307644
 51
270.0
  0
ARC
  5
29B8
330
1F
100
AcDbEntity
  8
10
100
AcDbCircle
 10
1003.584429407406
 20
615.8676096692262
 30
0.0
 40
3.500000000000154
100
AcDbArc
 50
236.6329870307644
 51
270.0
  0
ARC
  5
29B9
330
1F
100
AcDbEntity
  8
10
100
AcDbCircle
 10
1003.584429407406
 20
615.8676096692262
 30
0.0
 40
3.499999999999996
100
AcDbArc
 50
90.0
 51
123.3670129692354
  0
LINE
  5
29BA
330
1F
100
AcDbEntity
  8
10
100
AcDbLine
 10
1000.984429407406
 20
617.5379389780754
 30
0.0
 11
1000.984429407406
 21
614.1972803603773
 31
0.0
  0
ARC
  5
29BB
330
1F
100
AcDbEntity
  8
10
100
AcDbCircle
 10
1002.484429407406
 20
617.5379389780754
 30
0.0
 40
1.500000000000234
100
AcDbArc
 50
123.3670129692371
 51
180.0
  0
ARC
  5
29BC
330
1F
100
AcDbEntity
  8
10
100
AcDbCircle
 10
1002.484429407406
 20
614.1972803603773
 30
0.0
 40
1.499999999999999
100
AcDbArc
 50
180.0
 51
236.6329870307627
  0
ARC
  5
29BD
330
1F
100
AcDbEntity
  8
10
100
AcDbCircle
 10
1002.484429407406
 20
615.8676096692262
 30
0.0
 40
1.499999999999995
100
AcDbArc
 50
90.0
 51
180.0
  0
LINE
  5
29BE
330
1F
100
AcDbEntity
  8
10
100
AcDbLine
 10
1000.984429407406
 20
615.8676096692262
 30
0.0
 11
1000.984429407406
 21
615.8676096692262
 31
0.0
  0
ARC
  5
29BF
330
1F
100
AcDbEntity
  8
10
100
AcDbCircle
 10
1002.484429407406
 20
615.8676096692262
 30
0.0
 40
1.499999999999999
100
AcDbArc
 50
180.0
 51
270.0
  0
LINE
  5
29C0
330
1F
100
AcDbEntity
  8
10
100
AcDbLine
 10
1003.584429407406
 20
620.1676096692262
 30
0.0
 11
1004.584429407405
 21
620.1676096692262
 31
0.0
  0
LINE
  5
29C1
330
1F
100
AcDbEntity
  8
10
100
AcDbLine
 10
1004.584429407405
 20
611.5676096692265
 30
0.0
 11
1003.584429407406
 21
611.5676096692265
 31
0.0
  0
LINE
  5
29C2
330
1F
100
AcDbEntity
  8
10
100
AcDbLine
 10
1003.584429407406
 20
611.5676096692265
 30
0.0
 11
1003.584429407406
 21
620.1676096692262
 31
0.0
  0
LINE
  5
29C3
330
1F
100
AcDbEntity
  8
10
100
AcDbLine
 10
1004.584429407405
 20
622.5676096692263
 30
0.0
 11
1003.584429407406
 21
622.5676096692263
 31
0.0
  0
LINE
  5
29C4
330
1F
100
AcDbEntity
  8
10
100
AcDbLine
 10
1003.584429407406
 20
612.3676096692263
 30
0.0
 11
1003.584429407406
 21
619.3676096692262
 31
0.0
  0
LINE
  5
29C5
330
1F
100
AcDbEntity
  8
10
100
AcDbLine
 10
1003.584429407406
 20
619.3676096692262
 30
0.0
 11
1003.584429407406
 21
619.6676096692262
 31
0.0
  0
LINE
  5
29C6
330
1F
100
AcDbEntity
  8
10
100
AcDbLine
 10
1004.584429407405
 20
611.3676096692262
 30
0.0
 11
1004.584429407405
 21
620.3676096692262
 31
0.0
  0
ARC
  5
29C7
330
1F
100
AcDbEntity
  8
10
100
AcDbCircle
 10
997.8844294074066
 20
659.3676096692262
 30
0.0
 40
1.999999999999987
100
AcDbArc
 50
90.0
 51
180.0
  0
ARC
  5
29C8
330
1F
100
AcDbEntity
  8
10
100
AcDbCircle
 10
997.8844294074066
 20
659.3676096692262
 30
0.0
 40
1.999999999999999
100
AcDbArc
 50
180.0
 51
270.0
  0
ARC
  5
29C9
330
1F
100
AcDbEntity
  8
10
100
AcDbCircle
 10
999.7844294074067
 20
659.3676096692262
 30
0.0
 40
5.249999999999864
100
AcDbArc
 50
239.3967053917924
 51
270.0
  0
LINE
  5
29CA
330
1F
100
AcDbEntity
  8
10
100
AcDbLine
 10
992.5844294074066
 20
642.3676096692261
 30
0.0
 11
992.5844294074066
 21
645.0176096692262
 31
0.0
  0
LINE
  5
29CB
330
1F
100
AcDbEntity
  8
10
100
AcDbLine
 10
992.5844294074066
 20
631.3676096692262
 30
0.0
 11
992.5844294074066
 21
633.367609669226
 31
0.0
  0
LINE
  5
29CC
330
1F
100
AcDbEntity
  8
10
100
AcDbLine
 10
995.8844294074067
 20
661.734569744935
 30
0.0
 11
995.8844294074067
 21
657.0006495935172
 31
0.0
  0
ARC
  5
29CD
330
1F
100
AcDbEntity
  8
10
100
AcDbCircle
 10
998.3844294074062
 20
657.0006495935172
 30
0.0
 40
2.499999999999999
100
AcDbArc
 50
180.0
 51
239.3967053917934
  0
ARC
  5
29CE
330
1F
100
AcDbEntity
  8
10
100
AcDbCircle
 10
1003.584429407406
 20
626.8676096692261
 30
0.0
 40
3.499999999999996
100
AcDbArc
 50
90.0
 51
123.3670129692354
  0
ARC
  5
29CF
330
1F
100
AcDbEntity
  8
10
100
AcDbCircle
 10
1003.584429407406
 20
637.8676096692262
 30
0.0
 40
3.500000000000154
100
AcDbArc
 50
236.6329870307644
 51
270.0
  0
ARC
  5
29D0
330
1F
100
AcDbEntity
  8
10
100
AcDbCircle
 10
1003.584429407406
 20
637.8676096692262
 30
0.0
 40
3.499999999999996
100
AcDbArc
 50
90.0
 51
123.3670129692354
  0
LINE
  5
29D1
330
1F
100
AcDbEntity
  8
10
100
AcDbLine
 10
1000.984429407406
 20
628.5379389780752
 30
0.0
 11
1000.984429407406
 21
625.1972803603772
 31
0.0
  0
ARC
  5
29D2
330
1F
100
AcDbEntity
  8
10
100
AcDbCircle
 10
1002.484429407406
 20
628.5379389780752
 30
0.0
 40
1.500000000000234
100
AcDbArc
 50
123.3670129692371
 51
180.0
  0
ARC
  5
29D3
330
1F
100
AcDbEntity
  8
10
100
AcDbCircle
 10
1002.484429407406
 20
626.8676096692261
 30
0.0
 40
1.499999999999995
100
AcDbArc
 50
90.0
 51
180.0
  0
LINE
  5
29D4
330
1F
100
AcDbEntity
  8
10
100
AcDbLine
 10
1000.984429407406
 20
626.8676096692261
 30
0.0
 11
1000.984429407406
 21
626.8676096692261
 31
0.0
  0
ARC
  5
29D5
330
1F
100
AcDbEntity
  8
10
100
AcDbCircle
 10
1002.484429407406
 20
626.8676096692261
 30
0.0
 40
1.499999999999999
100
AcDbArc
 50
180.0
 51
270.0
  0
LINE
  5
29D6
330
1F
100
AcDbEntity
  8
10
100
AcDbLine
 10
1000.984429407406
 20
639.537938978075
 30
0.0
 11
1000.984429407406
 21
636.1972803603772
 31
0.0
  0
ARC
  5
29D7
330
1F
100
AcDbEntity
  8
10
100
AcDbCircle
 10
1002.484429407406
 20
639.537938978075
 30
0.0
 40
1.50000000000022
100
AcDbArc
 50
123.3670129692371
 51
180.0
  0
ARC
  5
29D8
330
1F
100
AcDbEntity
  8
10
100
AcDbCircle
 10
1002.484429407406
 20
636.1972803603772
 30
0.0
 40
1.499999999999999
100
AcDbArc
 50
180.0
 51
236.6329870307627
  0
ARC
  5
29D9
330
1F
100
AcDbEntity
  8
10
100
AcDbCircle
 10
1002.484429407406
 20
637.8676096692262
 30
0.0
 40
1.499999999999995
100
AcDbArc
 50
90.0
 51
180.0
  0
LINE
  5
29DA
330
1F
100
AcDbEntity
  8
10
100
AcDbLine
 10
1000.984429407406
 20
637.8676096692262
 30
0.0
 11
1000.984429407406
 21
637.8676096692262
 31
0.0
  0
ARC
  5
29DB
330
1F
100
AcDbEntity
  8
10
100
AcDbCircle
 10
1002.484429407406
 20
637.8676096692262
 30
0.0
 40
1.499999999999999
100
AcDbArc
 50
180.0
 51
270.0
  0
LINE
  5
29DC
330
1F
100
AcDbEntity
  8
10
100
AcDbLine
 10
1003.584429407406
 20
630.3676096692261
 30
0.0
 11
1003.584429407406
 21
630.6676096692259
 31
0.0
  0
LINE
  5
29DD
330
1F
100
AcDbEntity
  8
10
100
AcDbLine
 10
1003.584429407406
 20
631.1676096692264
 30
0.0
 11
1004.584429407405
 21
631.1676096692264
 31
0.0
  0
LINE
  5
29DE
330
1F
100
AcDbEntity
  8
10
100
AcDbLine
 10
1003.584429407406
 20
634.3676096692262
 30
0.0
 11
1003.584429407406
 21
641.3676096692261
 31
0.0
  0
LINE
  5
29DF
330
1F
100
AcDbEntity
  8
10
100
AcDbLine
 10
1003.584429407406
 20
641.3676096692261
 30
0.0
 11
1003.584429407406
 21
641.6676096692262
 31
0.0
  0
LINE
  5
29E0
330
1F
100
AcDbEntity
  8
10
100
AcDbLine
 10
1004.584429407405
 20
633.5676096692258
 30
0.0
 11
1003.584429407406
 21
633.5676096692258
 31
0.0
  0
LINE
  5
29E1
330
1F
100
AcDbEntity
  8
10
100
AcDbLine
 10
1003.584429407406
 20
633.5676096692258
 30
0.0
 11
1003.584429407406
 21
642.1676096692261
 31
0.0
  0
LINE
  5
29E2
330
1F
100
AcDbEntity
  8
10
100
AcDbLine
 10
1003.584429407406
 20
642.1676096692261
 30
0.0
 11
1004.584429407405
 21
642.1676096692261
 31
0.0
  0
LINE
  5
29E3
330
1F
100
AcDbEntity
  8
10
100
AcDbLine
 10
1004.584429407405
 20
633.367609669226
 30
0.0
 11
1004.584429407405
 21
642.3676096692261
 31
0.0
  0
LINE
  5
29E4
330
1F
100
AcDbEntity
  8
10
100
AcDbLine
 10
999.7844294074063
 20
651.1676096692261
 30
0.0
 11
1002.084429407406
 21
651.1676096692261
 31
0.0
  0
LINE
  5
29E5
330
1F
100
AcDbEntity
  8
10
100
AcDbLine
 10
995.584429407406
 20
770.6552338600983
 30
0.0
 11
995.584429407406
 21
713.079985478354
 31
0.0
  0
LINE
  5
29E6
330
1F
100
AcDbEntity
  8
10
100
AcDbLine
 10
993.5844294074064
 20
771.604198426813
 30
0.0
 11
993.5844294074064
 21
712.1310209116391
 31
0.0
  0
LINE
  5
29E7
330
1F
100
AcDbEntity
  8
10
100
AcDbLine
 10
996.484429407406
 20
769.3676096692261
 30
0.0
 11
996.484429407406
 21
714.3676096692257
 31
0.0
  0
LINE
  5
29E8
330
1F
100
AcDbEntity
  8
10
100
AcDbLine
 10
1006.584429407406
 20
772.2540755831711
 30
0.0
 11
1006.584429407406
 21
711.4811437552813
 31
0.0
  0
LINE
  5
29E9
330
1F
100
AcDbEntity
  8
10
100
AcDbLine
 10
981.3079722720992
 20
700.1525779211947
 30
0.0
 11
999.0844294074067
 21
704.9157652548869
 31
0.0
  0
ARC
  5
29EA
330
1F
100
AcDbEntity
  8
10
100
AcDbCircle
 10
982.0844294074063
 20
697.2548004423274
 30
0.0
 40
3.000000000000039
100
AcDbArc
 50
105.0000000000011
 51
180.0
  0
LINE
  5
29EB
330
1F
100
AcDbEntity
  8
10
100
AcDbLine
 10
999.0844294074067
 20
704.9157652548869
 30
0.0
 11
999.0844294074067
 21
697.4157652548869
 31
0.0
  0
LINE
  5
29EC
330
1F
100
AcDbEntity
  8
10
100
AcDbLine
 10
999.0844294074067
 20
704.7412278990718
 30
0.0
 11
999.0844294074067
 21
697.8938135588674
 31
0.0
  0
ARC
  5
29ED
330
1F
100
AcDbEntity
  8
10
100
AcDbCircle
 10
999.7844294074067
 20
659.3676096692262
 30
0.0
 40
5.249999999999995
100
AcDbArc
 50
90.0
 51
120.6032946082065
  0
ARC
  5
29EE
330
1F
100
AcDbEntity
  8
10
100
AcDbCircle
 10
997.8844294074066
 20
683.367609669226
 30
0.0
 40
2.000000000000003
100
AcDbArc
 50
90.0
 51
180.0
  0
ARC
  5
29EF
330
1F
100
AcDbEntity
  8
10
100
AcDbCircle
 10
997.8844294074066
 20
683.367609669226
 30
0.0
 40
1.999999999999999
100
AcDbArc
 50
180.0
 51
270.0
  0
ARC
  5
29F0
330
1F
100
AcDbEntity
  8
10
100
AcDbCircle
 10
999.7844294074067
 20
683.367609669226
 30
0.0
 40
5.250000000000011
100
AcDbArc
 50
90.0
 51
120.6032946082065
  0
ARC
  5
29F1
330
1F
100
AcDbEntity
  8
10
100
AcDbCircle
 10
999.7844294074067
 20
683.367609669226
 30
0.0
 40
5.249999999999853
100
AcDbArc
 50
239.3967053917924
 51
270.0
  0
LINE
  5
29F2
330
1F
100
AcDbEntity
  8
10
100
AcDbLine
 10
999.0844294074067
 20
697.4157652548869
 30
0.0
 11
988.8256103623042
 21
694.6669229764544
 31
0.0
  0
LINE
  5
29F3
330
1F
100
AcDbEntity
  8
10
100
AcDbLine
 10
995.8844294074067
 20
685.734569744935
 30
0.0
 11
995.8844294074067
 21
681.0006495935172
 31
0.0
  0
ARC
  5
29F4
330
1F
100
AcDbEntity
  8
10
100
AcDbCircle
 10
998.3844294074062
 20
681.0006495935172
 30
0.0
 40
2.499999999999999
100
AcDbArc
 50
180.0
 51
239.3967053917924
  0
ARC
  5
29F5
330
1F
100
AcDbEntity
  8
10
100
AcDbCircle
 10
989.0844294074067
 20
693.7009971501654
 30
0.0
 40
1.000000000000015
100
AcDbArc
 50
104.9999999999944
 51
180.0
  0
ARC
  5
29F6
330
1F
100
AcDbEntity
  8
10
100
AcDbCircle
 10
998.3844294074062
 20
685.734569744935
 30
0.0
 40
2.500000000000008
100
AcDbArc
 50
120.6032946082065
 51
180.0
  0
LINE
  5
29F7
330
1F
100
AcDbEntity
  8
10
100
AcDbLine
 10
999.7844294074063
 20
675.1676096692261
 30
0.0
 11
999.7844294074067
 21
691.5676096692262
 31
0.0
  0
LINE
  5
29F8
330
1F
100
AcDbEntity
  8
10
100
AcDbLine
 10
1002.084429407406
 20
674.867609669226
 30
0.0
 11
1002.084429407406
 21
691.867609669226
 31
0.0
  0
LINE
  5
29F9
330
1F
100
AcDbEntity
  8
10
100
AcDbLine
 10
999.7844294074067
 20
667.5676096692261
 30
0.0
 11
1002.084429407406
 21
667.5676096692261
 31
0.0
  0
LINE
  5
29FA
330
1F
100
AcDbEntity
  8
10
100
AcDbLine
 10
999.7844294074063
 20
675.1676096692261
 30
0.0
 11
1002.084429407406
 21
675.1676096692261
 31
0.0
  0
LINE
  5
29FB
330
1F
100
AcDbEntity
  8
10
100
AcDbLine
 10
999.7844294074067
 20
691.5676096692262
 30
0.0
 11
1002.084429407406
 21
691.5676096692262
 31
0.0
  0
ARC
  5
29FC
330
1F
100
AcDbEntity
  8
10
100
AcDbCircle
 10
999.5844294074066
 20
697.8938135588674
 30
0.0
 40
0.5
100
AcDbArc
 50
180.0
 51
270.0
  0
LINE
  5
29FD
330
1F
100
AcDbEntity
  8
10
100
AcDbLine
 10
995.584429407406
 20
713.079985478354
 30
0.0
 11
999.6368012505483
 21
712.867609669226
 31
0.0
  0
LINE
  5
29FE
330
1F
100
AcDbEntity
  8
10
100
AcDbLine
 10
994.5320934511631
 20
711.1323913768845
 30
0.0
 11
999.5844294074085
 21
710.8676096692262
 31
0.0
  0
LINE
  5
29FF
330
1F
100
AcDbEntity
  8
10
100
AcDbLine
 10
996.484429407406
 20
714.3676096692257
 30
0.0
 11
1005.084429407406
 21
714.3676096692262
 31
0.0
  0
ARC
  5
2A00
330
1F
100
AcDbEntity
  8
10
100
AcDbCircle
 10
994.5844294074063
 20
712.1310209116391
 30
0.0
 40
0.9999999999999998
100
AcDbArc
 50
180.0
 51
266.9999999999943
  0
LINE
  5
2A01
330
1F
100
AcDbEntity
  8
10
100
AcDbLine
 10
1001.784429407406
 20
712.367609669226
 30
0.0
 11
1005.084429407406
 21
712.367609669226
 31
0.0
  0
LINE
  5
2A02
330
1F
100
AcDbEntity
  8
10
100
AcDbLine
 10
1006.093155610624
 20
710.9812199077032
 30
0.0
 11
1000.075703204186
 21
710.8761848852464
 31
0.0
  0
LINE
  5
2A03
330
1F
100
AcDbEntity
  8
10
100
AcDbLine
 10
999.0844294074063
 20
712.8965582508634
 30
0.0
 11
999.0844294074063
 21
714.3676096692257
 31
0.0
  0
LINE
  5
2A04
330
1F
100
AcDbEntity
  8
10
100
AcDbLine
 10
997.4863531960536
 20
712.9803098762255
 30
0.0
 11
997.4863531960536
 21
714.3676096692257
 31
0.0
  0
LINE
  5
2A05
330
1F
100
AcDbEntity
  8
10
100
AcDbLine
 10
999.5844294074085
 20
710.8676096692262
 30
0.0
 11
999.991819892419
 21
710.8676096692262
 31
0.0
  0
LINE
  5
2A06
330
1F
100
AcDbEntity
  8
10
100
AcDbLine
 10
999.6368012505483
 20
712.867609669226
 30
0.0
 11
1001.584429407406
 21
712.867609669226
 31
0.0
  0
LINE
  5
2A07
330
1F
100
AcDbEntity
  8
10
100
AcDbLine
 10
1001.584429407406
 20
712.867609669226
 30
0.0
 11
1001.584429407406
 21
710.9025197990823
 31
0.0
  0
LINE
  5
2A08
330
1F
100
AcDbEntity
  8
10
100
AcDbLine
 10
999.5844294074062
 20
713.3676096692261
 30
0.0
 11
1002.084429407406
 21
713.3676096692258
 31
0.0
  0
LINE
  5
2A09
330
1F
100
AcDbEntity
  8
10
100
AcDbLine
 10
999.5844294074062
 20
710.3762610376683
 30
0.0
 11
999.5844294074062
 21
705.3676096692262
 31
0.0
  0
LINE
  5
2A0A
330
1F
100
AcDbEntity
  8
10
100
AcDbLine
 10
1002.084429407406
 20
713.3676096692258
 30
0.0
 11
1002.084429407406
 21
712.367609669226
 31
0.0
  0
LINE
  5
2A0B
330
1F
100
AcDbEntity
  8
10
100
AcDbLine
 10
1001.784429407406
 20
712.367609669226
 30
0.0
 11
1001.784429407406
 21
710.9060108120681
 31
0.0
  0
ARC
  5
2A0C
330
1F
100
AcDbEntity
  8
10
100
AcDbCircle
 10
1000.084429407406
 20
710.3762610376683
 30
0.0
 40
0.5000000000000302
100
AcDbArc
 50
91.00000000000177
 51
180.0
  0
LINE
  5
2A0D
330
1F
100
AcDbEntity
  8
10
100
AcDbLine
 10
999.5844294074062
 20
714.3676096692257
 30
0.0
 11
999.5844294074062
 21
713.3676096692261
 31
0.0
  0
LINE
  5
2A0E
330
1F
100
AcDbEntity
  8
10
100
AcDbLine
 10
1005.084429407406
 20
715.8676096692259
 30
0.0
 11
1006.584429407406
 21
717.3676096692261
 31
0.0
  0
LINE
  5
2A0F
330
1F
100
AcDbEntity
  8
10
100
AcDbLine
 10
1005.084429407406
 20
715.8676096692259
 30
0.0
 11
1005.084429407406
 21
710.9636125263311
 31
0.0
  0
ARC
  5
2A10
330
1F
100
AcDbEntity
  8
10
100
AcDbCircle
 10
1006.084429407406
 20
711.4811437552813
 30
0.0
 40
0.5
100
AcDbArc
 50
271.0000000000017
 51
0.0
  0
LINE
  5
2A11
330
1F
100
AcDbEntity
  8
10
100
AcDbLine
 10
999.5844294074062
 20
788.3238958428834
 30
0.0
 11
999.5844294074062
 21
773.3589583007842
 31
0.0
  0
LINE
  5
2A12
330
1F
100
AcDbEntity
  8
10
100
AcDbLine
 10
995.584429407406
 20
770.6552338600983
 30
0.0
 11
999.6368012505426
 21
770.867609669226
 31
0.0
  0
LINE
  5
2A13
330
1F
100
AcDbEntity
  8
10
100
AcDbLine
 10
994.5320934511631
 20
772.6028279615676
 30
0.0
 11
999.5844294074082
 21
772.8676096692261
 31
0.0
  0
LINE
  5
2A14
330
1F
100
AcDbEntity
  8
10
100
AcDbLine
 10
996.484429407406
 20
769.3676096692261
 30
0.0
 11
1006.584429407406
 21
769.3676096692261
 31
0.0
  0
ARC
  5
2A15
330
1F
100
AcDbEntity
  8
10
100
AcDbCircle
 10
994.5844294074063
 20
771.604198426813
 30
0.0
 40
1.000000000000069
100
AcDbArc
 50
93.00000000000556
 51
180.0
  0
LINE
  5
2A16
330
1F
100
AcDbEntity
  8
10
100
AcDbLine
 10
1001.784429407406
 20
771.3676096692261
 30
0.0
 11
1006.584429407406
 21
771.3676096692261
 31
0.0
  0
LINE
  5
2A17
330
1F
100
AcDbEntity
  8
10
100
AcDbLine
 10
1000.075703204186
 20
772.859034453206
 30
0.0
 11
1006.093155610624
 21
772.7539994307492
 31
0.0
  0
LINE
  5
2A18
330
1F
100
AcDbEntity
  8
10
100
AcDbLine
 10
999.5844294074082
 20
772.8676096692261
 30
0.0
 11
999.9918198924204
 21
772.8676096692261
 31
0.0
  0
LINE
  5
2A19
330
1F
100
AcDbEntity
  8
10
100
AcDbLine
 10
1001.584429407406
 20
772.8326995393699
 30
0.0
 11
1001.584429407406
 21
770.867609669226
 31
0.0
  0
LINE
  5
2A1A
330
1F
100
AcDbEntity
  8
10
100
AcDbLine
 10
999.6368012505426
 20
770.867609669226
 30
0.0
 11
1001.584429407406
 21
770.867609669226
 31
0.0
  0
LINE
  5
2A1B
330
1F
100
AcDbEntity
  8
10
100
AcDbLine
 10
997.4863531960536
 20
769.3676096692261
 30
0.0
 11
997.4863531960536
 21
770.7549094622265
 31
0.0
  0
LINE
  5
2A1C
330
1F
100
AcDbEntity
  8
10
100
AcDbLine
 10
999.0844294074063
 20
769.3676096692261
 30
0.0
 11
999.0844294074063
 21
770.8386610875886
 31
0.0
  0
LINE
  5
2A1D
330
1F
100
AcDbEntity
  8
10
100
AcDbLine
 10
999.5844294074062
 20
770.3676096692262
 30
0.0
 11
1002.084429407406
 21
770.3676096692262
 31
0.0
  0
LINE
  5
2A1E
330
1F
100
AcDbEntity
  8
10
100
AcDbLine
 10
999.5844294074062
 20
770.3676096692262
 30
0.0
 11
999.5844294074062
 21
769.3676096692261
 31
0.0
  0
LINE
  5
2A1F
330
1F
100
AcDbEntity
  8
10
100
AcDbLine
 10
1002.084429407406
 20
771.3676096692261
 30
0.0
 11
1002.084429407406
 21
770.3676096692262
 31
0.0
  0
LINE
  5
2A20
330
1F
100
AcDbEntity
  8
10
100
AcDbLine
 10
1001.784429407406
 20
772.8292085263842
 30
0.0
 11
1001.784429407406
 21
771.3676096692261
 31
0.0
  0
ARC
  5
2A21
330
1F
100
AcDbEntity
  8
10
100
AcDbCircle
 10
1000.084429407406
 20
773.3589583007842
 30
0.0
 40
0.5
100
AcDbArc
 50
180.0
 51
268.9999999999981
  0
ARC
  5
2A22
330
1F
100
AcDbEntity
  8
10
100
AcDbCircle
 10
1006.084429407406
 20
772.2540755831711
 30
0.0
 40
0.5
100
AcDbArc
 50
0.0
 51
88.99999999999822
  0
ARC
  5
2A23
330
1F
100
AcDbEntity
  8
10
100
AcDbCircle
 10
1026.584429407406
 20
806.8298752752834
 30
0.0
 40
30.00000000000003
100
AcDbArc
 50
160.3162775136998
 51
180.0
  0
LINE
  5
2A24
330
1F
100
AcDbEntity
  8
10
100
AcDbLine
 10
998.2915361885927
 20
792.6605028880396
 30
0.0
 11
996.8773226262198
 21
794.0747164504124
 31
0.0
  0
LINE
  5
2A25
330
1F
100
AcDbEntity
  8
10
100
AcDbLine
 10
996.5844294074059
 20
806.8298752752834
 30
0.0
 11
996.5844294074059
 21
794.781823231599
 31
0.0
  0
ARC
  5
2A26
330
1F
100
AcDbEntity
  8
10
100
AcDbCircle
 10
997.5844294074063
 20
794.781823231599
 30
0.0
 40
0.9999999999999998
100
AcDbArc
 50
180.0
 51
225.0
  0
LINE
  5
2A27
330
1F
100
AcDbEntity
  8
10
100
AcDbLine
 10
999.5844294074062
 20
806.9870986131325
 30
0.0
 11
999.5844294074062
 21
792.8676096692261
 31
0.0
  0
LINE
  5
2A28
330
1F
100
AcDbEntity
  8
10
100
AcDbLine
 10
998.9986429697792
 20
792.3676096692259
 30
0.0
 11
1000.084429407406
 21
792.3676096692259
 31
0.0
  0
ARC
  5
2A29
330
1F
100
AcDbEntity
  8
10
100
AcDbCircle
 10
998.9986429697792
 20
793.3676096692261
 30
0.0
 40
1.000000000000007
100
AcDbArc
 50
224.9999999999908
 51
270.0
  0
LINE
  5
2A2A
330
1F
100
AcDbEntity
  8
10
100
AcDbLine
 10
1002.584429407405
 20
795.3762610376681
 30
0.0
 11
1002.584429407405
 21
789.3589583007837
 31
0.0
  0
LINE
  5
2A2B
330
1F
100
AcDbEntity
  8
10
100
AcDbLine
 10
1000.084429407406
 20
792.3676096692262
 30
0.0
 11
1002.084429407406
 21
792.3676096692262
 31
0.0
  0
LINE
  5
2A2C
330
1F
100
AcDbEntity
  8
10
100
AcDbLine
 10
1000.075703204186
 20
788.8238196904617
 30
0.0
 11
1002.093155610624
 21
788.8590344532056
 31
0.0
  0
LINE
  5
2A2D
330
1F
100
AcDbEntity
  8
10
100
AcDbLine
 10
1000.075703204186
 20
795.9113996479902
 30
0.0
 11
1002.093155610624
 21
795.8761848852462
 31
0.0
  0
ARC
  5
2A2E
330
1F
100
AcDbEntity
  8
10
100
AcDbCircle
 10
1000.084429407406
 20
792.8676096692261
 30
0.0
 40
0.5
100
AcDbArc
 50
180.0
 51
270.0
  0
ARC
  5
2A2F
330
1F
100
AcDbEntity
  8
10
100
AcDbCircle
 10
1002.084429407406
 20
791.867609669226
 30
0.0
 40
0.5
100
AcDbArc
 50
0.0
 51
90.0
  0
ARC
  5
2A30
330
1F
100
AcDbEntity
  8
10
100
AcDbCircle
 10
1000.084429407406
 20
796.4113234955683
 30
0.0
 40
0.5
100
AcDbArc
 50
180.0
 51
268.9999999999981
  0
ARC
  5
2A31
330
1F
100
AcDbEntity
  8
10
100
AcDbCircle
 10
1000.084429407406
 20
788.3238958428834
 30
0.0
 40
0.5000000000000302
100
AcDbArc
 50
91.00000000000177
 51
180.0
  0
ARC
  5
2A32
330
1F
100
AcDbEntity
  8
10
100
AcDbCircle
 10
1002.084429407406
 20
795.3762610376681
 30
0.0
 40
0.5
100
AcDbArc
 50
0.0
 51
88.99999999999822
  0
ARC
  5
2A33
330
1F
100
AcDbEntity
  8
10
100
AcDbCircle
 10
1002.084429407406
 20
789.3589583007837
 30
0.0
 40
0.4999999999997825
100
AcDbArc
 50
271.0000000000017
 51
0.0
  0
ARC
  5
2A34
330
1F
100
AcDbEntity
  8
10
100
AcDbCircle
 10
1029.584429407406
 20
806.9870986131325
 30
0.0
 40
30.00000000000015
100
AcDbArc
 50
160.3162775136998
 51
180.0
  0
LINE
  5
2A37
330
1F
100
AcDbEntity
  8
10
100
AcDbLine
 10
715.0844294074068
 20
819.8676096692262
 30
0.0
 11
773.0844294074065
 21
819.8676096692262
 31
0.0
  0
ARC
  5
2A39
330
1F
100
AcDbEntity
  8
10
100
AcDbCircle
 10
715.0844294074068
 20
818.8676096692264
 30
0.0
 40
1.000000000000017
100
AcDbArc
 50
90.0
 51
180.0
  0
LINE
  5
2A3A
330
1F
100
AcDbEntity
  8
10
100
AcDbLine
 10
723.4844294074068
 20
819.0531989050478
 30
0.0
 11
733.4844294074066
 21
819.0531989050478
 31
0.0
  0
LINE
  5
2A3B
330
1F
100
AcDbEntity
  8
10
100
AcDbLine
 10
723.9844294074067
 20
819.5793668831694
 30
0.0
 11
732.9844294074067
 21
819.5793668831694
 31
0.0
  0
LINE
  5
2A3C
330
1F
100
AcDbEntity
  8
10
100
AcDbLine
 10
723.9844294074067
 20
819.6841824417358
 30
0.0
 11
732.9844294074067
 21
819.6841824417358
 31
0.0
  0
LINE
  5
2A3D
330
1F
100
AcDbEntity
  8
10
100
AcDbLine
 10
723.9844294074067
 20
819.7889980003015
 30
0.0
 11
732.9844294074067
 21
819.7889980003015
 31
0.0
  0
LINE
  5
2A3E
330
1F
100
AcDbEntity
  8
10
100
AcDbLine
 10
719.4844294074068
 20
819.3676096692263
 30
0.0
 11
723.4906478711897
 21
819.3676096692263
 31
0.0
  0
ARC
  5
2A3F
330
1F
100
AcDbEntity
  8
10
100
AcDbCircle
 10
719.4844294074068
 20
819.0676096692261
 30
0.0
 40
0.3000000000000738
100
AcDbArc
 50
90.0
 51
180.0
  0
LINE
  5
2A40
330
1F
100
AcDbEntity
  8
10
100
AcDbLine
 10
719.0844294074069
 20
819.2649202074713
 30
0.0
 11
719.2584458869959
 21
819.2649202074713
 31
0.0
  0
ARC
  5
2A41
330
1F
100
AcDbEntity
  8
10
100
AcDbCircle
 10
723.9844294074067
 20
819.0793668831695
 30
0.0
 40
0.5000000000000086
100
AcDbArc
 50
90.0
 51
180.0
  0
ARC
  5
2A42
330
1F
100
AcDbEntity
  8
10
100
AcDbCircle
 10
723.9844294074067
 20
819.1841824417355
 30
0.0
 40
0.5000000000000086
100
AcDbArc
 50
90.0
 51
180.0
  0
LINE
  5
2A43
330
1F
100
AcDbEntity
  8
10
100
AcDbLine
 10
723.4844294074068
 20
819.0531989050478
 30
0.0
 11
723.4844294074068
 21
819.2889980003016
 31
0.0
  0
ARC
  5
2A44
330
1F
100
AcDbEntity
  8
10
100
AcDbCircle
 10
723.9844294074067
 20
819.2889980003016
 30
0.0
 40
0.4999999999999782
100
AcDbArc
 50
90.0
 51
180.0
  0
LINE
  5
2A45
330
1F
100
AcDbEntity
  8
10
100
AcDbLine
 10
733.4782109436238
 20
819.3676096692263
 30
0.0
 11
737.4844294074067
 21
819.3676096692263
 31
0.0
  0
ARC
  5
2A46
330
1F
100
AcDbEntity
  8
10
100
AcDbCircle
 10
732.9844294074067
 20
819.0793668831695
 30
0.0
 40
0.5000000000000086
100
AcDbArc
 50
0.0
 51
90.0
  0
ARC
  5
2A47
330
1F
100
AcDbEntity
  8
10
100
AcDbCircle
 10
732.9844294074067
 20
819.1841824417355
 30
0.0
 40
0.5000000000000086
100
AcDbArc
 50
0.0
 51
90.0
  0
LINE
  5
2A48
330
1F
100
AcDbEntity
  8
10
100
AcDbLine
 10
733.4844294074066
 20
819.0531989050478
 30
0.0
 11
733.4844294074066
 21
819.2889980003016
 31
0.0
  0
ARC
  5
2A49
330
1F
100
AcDbEntity
  8
10
100
AcDbCircle
 10
732.9844294074067
 20
819.2889980003016
 30
0.0
 40
0.5000000000000086
100
AcDbArc
 50
0.0
 51
90.0
  0
ARC
  5
2A4A
330
1F
100
AcDbEntity
  8
10
100
AcDbCircle
 10
737.4844294074067
 20
819.0676096692261
 30
0.0
 40
0.2999999999999499
100
AcDbArc
 50
0.0
 51
90.0
  0
LINE
  5
2A4B
330
1F
100
AcDbEntity
  8
10
100
AcDbLine
 10
737.7104129278177
 20
819.2649202074713
 30
0.0
 11
737.8844294074066
 21
819.2649202074713
 31
0.0
  0
LINE
  5
2A4E
330
1F
100
AcDbEntity
  8
10
100
AcDbLine
 10
761.0844294074068
 20
829.8676096692261
 30
0.0
 11
774.0844294074068
 21
829.8676096692261
 31
0.0
  0
LINE
  5
2A4F
330
1F
100
AcDbEntity
  8
10
100
AcDbLine
 10
761.0844294074068
 20
829.8676096692261
 30
0.0
 11
761.0844294074068
 21
819.8676096692262
 31
0.0
  0
CIRCLE
  5
2A50
330
1F
100
AcDbEntity
  8
12
100
AcDbCircle
 10
759.0844294074067
 20
841.8676096692262
 30
0.0
 40
3.000000000000004
  0
LINE
  5
2A51
330
1F
100
AcDbEntity
  8
12
 48
3.0
100
AcDbLine
 10
759.0844294074066
 20
836.8676096692261
 30
0.0
 11
759.0844294074067
 21
846.8676096692261
 31
0.0
  0
LINE
  5
2A54
330
1F
100
AcDbEntity
  8
10
100
AcDbLine
 10
776.7844294074069
 20
847.8676096692263
 30
0.0
 11
776.7844294074069
 21
832.567609669226
 31
0.0
  0
LINE
  5
2A55
330
1F
100
AcDbEntity
  8
10
100
AcDbLine
 10
772.0844294074067
 20
834.8676096692264
 30
0.0
 11
774.0844294074068
 21
832.8676096692262
 31
0.0
  0
ARC
  5
2A56
330
1F
100
AcDbEntity
  8
10
100
AcDbCircle
 10
773.0844294074065
 20
818.8676096692264
 30
0.0
 40
1.000000000000001
100
AcDbArc
 50
0.0
 51
90.0
  0
LINE
  5
2A57
330
1F
100
AcDbEntity
  8
10
100
AcDbLine
 10
772.5844294074065
 20
829.8676096692261
 30
0.0
 11
772.5844294074065
 21
834.3676096692261
 31
0.0
  0
LINE
  5
2A58
330
1F
100
AcDbEntity
  8
10
100
AcDbLine
 10
772.3544294074067
 20
819.8676096692262
 30
0.0
 11
771.0844294074068
 21
829.8676096692261
 31
0.0
  0
LINE
  5
2A59
330
1F
100
AcDbEntity
  8
10
100
AcDbLine
 10
771.0844294074068
 20
829.8676096692261
 30
0.0
 11
771.0844294074068
 21
819.8676096692262
 31
0.0
  0
LINE
  5
2A5A
330
1F
100
AcDbEntity
  8
10
100
AcDbLine
 10
776.7844294074069
 20
832.567609669226
 30
0.0
 11
779.0844294074068
 21
832.567609669226
 31
0.0
  0
LINE
  5
2A5B
330
1F
100
AcDbEntity
  8
10
100
AcDbLine
 10
774.7844294074067
 20
849.8676096692262
 30
0.0
 11
776.7844294074069
 21
847.8676096692263
 31
0.0
  0
LINE
  5
2A5C
330
1F
100
AcDbEntity
  8
10
100
AcDbLine
 10
776.7844294074069
 20
847.8676096692263
 30
0.0
 11
779.0844294074068
 21
847.8676096692263
 31
0.0
  0
LINE
  5
2A5E
330
1F
100
AcDbEntity
  8
10
100
AcDbLine
 10
1004.294780769963
 20
819.0925170277614
 30
0.0
 11
1001.005132132519
 21
818.9201138480513
 31
0.0
  0
ARC
  5
2A61
330
1F
100
AcDbEntity
  8
10
100
AcDbCircle
 10
1224.084429407406
 20
777.8676096692266
 30
0.0
 40
20.0
100
AcDbArc
 50
90.0
 51
180.0
  0
ARC
  5
2A62
330
1F
100
AcDbEntity
  8
10
100
AcDbCircle
 10
1224.084429407406
 20
727.8676096692265
 30
0.0
 40
20.0
100
AcDbArc
 50
180.0
 51
270.0
  0
ARC
  5
2A63
330
1F
100
AcDbEntity
  8
10
100
AcDbCircle
 10
1224.084429407406
 20
641.8676096692268
 30
0.0
 40
19.99999999999998
100
AcDbArc
 50
90.0
 51
180.0
  0
ARC
  5
2A64
330
1F
100
AcDbEntity
  8
10
100
AcDbCircle
 10
1224.084429407406
 20
591.8676096692268
 30
0.0
 40
20.0
100
AcDbArc
 50
180.0
 51
270.0
  0
LINE
  5
2A65
330
1F
100
AcDbEntity
  8
10
100
AcDbLine
 10
1188.084429407404
 20
537.1676096692262
 30
0.0
 11
1254.918840282291
 21
522.5595170065728
 31
0.0
  0
LINE
  5
2A66
330
1F
100
AcDbEntity
  8
10
100
AcDbLine
 10
1188.084429407405
 20
832.5676096692268
 30
0.0
 11
1254.918840282291
 21
847.1757023318797
 31
0.0
  0
LINE
  5
2A67
330
1F
100
AcDbEntity
  8
10
 48
3.0
100
AcDbLine
 10
1192.034429407405
 20
586.0676096692261
 30
0.0
 11
1284.034429407405
 21
586.0676096692261
 31
0.0
  0
LINE
  5
2A68
330
1F
100
AcDbEntity
  8
10
 48
3.0
100
AcDbLine
 10
1192.034429407405
 20
561.0676096692261
 30
0.0
 11
1284.034429407405
 21
561.0676096692261
 31
0.0
  0
LINE
  5
2A69
330
1F
100
AcDbEntity
  8
10
100
AcDbLine
 10
1179.084429407406
 20
534.8676096692263
 30
0.0
 11
1179.084429407404
 21
834.8676096692265
 31
0.0
  0
LINE
  5
2A6A
330
1F
100
AcDbEntity
  8
10
100
AcDbLine
 10
1179.084429407406
 20
534.8676096692261
 30
0.0
 11
1179.084429407406
 21
834.867609669226
 31
0.0
  0
LINE
  5
2A6B
330
1F
100
AcDbEntity
  8
10
100
AcDbLine
 10
1175.084429407406
 20
534.8676096692261
 30
0.0
 11
1175.084429407406
 21
834.867609669226
 31
0.0
  0
LINE
  5
2A6C
330
1F
100
AcDbEntity
  8
10
100
AcDbLine
 10
1019.084429407405
 20
819.8676096692262
 30
0.0
 11
1019.084429407405
 21
705.3676096692262
 31
0.0
  0
LINE
  5
2A6D
330
1F
100
AcDbEntity
  8
10
100
AcDbLine
 10
1019.084429407405
 20
819.8676096692262
 30
0.0
 11
1019.084429407405
 21
609.8676096692261
 31
0.0
  0
LINE
  5
2A6E
330
1F
100
AcDbEntity
  8
10
100
AcDbLine
 10
1174.584429407406
 20
829.8676096692261
 30
0.0
 11
1174.584429407406
 21
717.3676096692261
 31
0.0
  0
LINE
  5
2A6F
330
1F
100
AcDbEntity
  8
10
100
AcDbLine
 10
1170.084429407406
 20
539.8676096692261
 30
0.0
 11
1027.077766840285
 21
549.867609669226
 31
0.0
  0
LINE
  5
2A70
330
1F
100
AcDbEntity
  8
10
100
AcDbLine
 10
1088.834429407406
 20
571.1176096692261
 30
0.0
 11
1088.834429407406
 21
798.6176096692212
 31
0.0
  0
LINE
  5
2A71
330
1F
100
AcDbEntity
  8
10
100
AcDbLine
 10
1041.334429407406
 20
609.8676096692261
 30
0.0
 11
1041.334429407406
 21
798.6176096692212
 31
0.0
  0
LINE
  5
2A72
330
1F
100
AcDbEntity
  8
10
100
AcDbLine
 10
1031.334429407406
 20
609.8676096692261
 30
0.0
 11
1031.334429407406
 21
798.6176096692212
 31
0.0
  0
LINE
  5
2A73
330
1F
100
AcDbEntity
  8
10
100
AcDbLine
 10
1091.334429407406
 20
571.1176096692261
 30
0.0
 11
1091.334429407406
 21
798.6176096692212
 31
0.0
  0
LINE
  5
2A74
330
1F
100
AcDbEntity
  8
10
100
AcDbLine
 10
1093.834429407406
 20
571.1176096692261
 30
0.0
 11
1093.834429407406
 21
798.6176096692212
 31
0.0
  0
LINE
  5
2A75
330
1F
100
AcDbEntity
  8
10
100
AcDbLine
 10
1096.334429407406
 20
571.1176096692261
 30
0.0
 11
1096.334429407406
 21
798.6176096692212
 31
0.0
  0
LINE
  5
2A76
330
1F
100
AcDbEntity
  8
10
100
AcDbLine
 10
1098.834429407406
 20
571.1176096692261
 30
0.0
 11
1098.834429407406
 21
798.6176096692212
 31
0.0
  0
LINE
  5
2A77
330
1F
100
AcDbEntity
  8
10
100
AcDbLine
 10
1101.334429407406
 20
571.1176096692261
 30
0.0
 11
1101.334429407406
 21
798.6176096692212
 31
0.0
  0
LINE
  5
2A78
330
1F
100
AcDbEntity
  8
10
100
AcDbLine
 10
1103.834429407406
 20
571.1176096692261
 30
0.0
 11
1103.834429407406
 21
798.6176096692212
 31
0.0
  0
LINE
  5
2A79
330
1F
100
AcDbEntity
  8
10
100
AcDbLine
 10
1073.834429407406
 20
571.1176096692261
 30
0.0
 11
1073.834429407406
 21
798.6176096692212
 31
0.0
  0
LINE
  5
2A7A
330
1F
100
AcDbEntity
  8
10
100
AcDbLine
 10
1061.334429407406
 20
571.1176096692261
 30
0.0
 11
1061.334429407406
 21
798.6176096692212
 31
0.0
  0
LINE
  5
2A7B
330
1F
100
AcDbEntity
  8
10
100
AcDbLine
 10
1051.334429407406
 20
571.1176096692261
 30
0.0
 11
1051.334429407406
 21
798.6176096692212
 31
0.0
  0
LINE
  5
2A7C
330
1F
100
AcDbEntity
  8
10
100
AcDbLine
 10
1078.834429407406
 20
571.1176096692261
 30
0.0
 11
1078.834429407406
 21
798.6176096692212
 31
0.0
  0
LINE
  5
2A7D
330
1F
100
AcDbEntity
  8
10
100
AcDbLine
 10
1048.834429407406
 20
571.1176096692261
 30
0.0
 11
1048.834429407406
 21
798.6176096692212
 31
0.0
  0
LINE
  5
2A7E
330
1F
100
AcDbEntity
  8
10
100
AcDbLine
 10
1081.334429407406
 20
571.1176096692261
 30
0.0
 11
1081.334429407406
 21
798.6176096692212
 31
0.0
  0
LINE
  5
2A7F
330
1F
100
AcDbEntity
  8
10
100
AcDbLine
 10
1018.584429407405
 20
704.9114018209916
 30
0.0
 11
1018.584429407405
 21
609.8676096692261
 31
0.0
  0
LINE
  5
2A80
330
1F
100
AcDbEntity
  8
10
100
AcDbLine
 10
1083.834429407406
 20
571.1176096692261
 30
0.0
 11
1083.834429407406
 21
798.6176096692212
 31
0.0
  0
LINE
  5
2A81
330
1F
100
AcDbEntity
  8
10
100
AcDbLine
 10
1058.834429407406
 20
571.1176096692261
 30
0.0
 11
1058.834429407406
 21
798.6176096692212
 31
0.0
  0
LINE
  5
2A82
330
1F
100
AcDbEntity
  8
10
100
AcDbLine
 10
1046.334429407406
 20
571.1176096692261
 30
0.0
 11
1046.334429407406
 21
798.6176096692212
 31
0.0
  0
LINE
  5
2A83
330
1F
100
AcDbEntity
  8
10
100
AcDbLine
 10
1036.334429407406
 20
609.8676096692261
 30
0.0
 11
1036.334429407406
 21
798.6176096692212
 31
0.0
  0
LINE
  5
2A84
330
1F
100
AcDbEntity
  8
10
100
AcDbLine
 10
1071.334429407406
 20
571.1176096692261
 30
0.0
 11
1071.334429407406
 21
798.6176096692212
 31
0.0
  0
LINE
  5
2A85
330
1F
100
AcDbEntity
  8
10
100
AcDbLine
 10
1086.334429407406
 20
571.1176096692261
 30
0.0
 11
1086.334429407406
 21
798.6176096692212
 31
0.0
  0
LINE
  5
2A86
330
1F
100
AcDbEntity
  8
10
100
AcDbLine
 10
1038.834429407406
 20
609.8676096692261
 30
0.0
 11
1038.834429407406
 21
798.6176096692212
 31
0.0
  0
LINE
  5
2A87
330
1F
100
AcDbEntity
  8
10
100
AcDbLine
 10
1043.834429407406
 20
571.1176096692261
 30
0.0
 11
1043.834429407406
 21
798.6176096692212
 31
0.0
  0
LINE
  5
2A88
330
1F
100
AcDbEntity
  8
10
100
AcDbLine
 10
1056.334429407406
 20
571.1176096692261
 30
0.0
 11
1056.334429407406
 21
798.6176096692212
 31
0.0
  0
LINE
  5
2A89
330
1F
100
AcDbEntity
  8
10
100
AcDbLine
 10
1033.834429407405
 20
609.8676096692261
 30
0.0
 11
1033.834429407405
 21
798.6176096692212
 31
0.0
  0
LINE
  5
2A8A
330
1F
100
AcDbEntity
  8
10
100
AcDbLine
 10
1106.334429407406
 20
571.1176096692261
 30
0.0
 11
1106.334429407406
 21
798.6176096692212
 31
0.0
  0
LINE
  5
2A8B
330
1F
100
AcDbEntity
  8
10
100
AcDbLine
 10
1108.834429407406
 20
571.1176096692261
 30
0.0
 11
1108.834429407406
 21
798.6176096692212
 31
0.0
  0
LINE
  5
2A8C
330
1F
100
AcDbEntity
  8
10
100
AcDbLine
 10
1111.334429407406
 20
571.1176096692261
 30
0.0
 11
1111.334429407406
 21
798.6176096692212
 31
0.0
  0
LINE
  5
2A8D
330
1F
100
AcDbEntity
  8
10
100
AcDbLine
 10
1010.084429407406
 20
697.3938135588674
 30
0.0
 11
1010.084429407406
 21
597.3938135588676
 31
0.0
  0
LINE
  5
2A8E
330
1F
100
AcDbEntity
  8
10
100
AcDbLine
 10
1028.834429407406
 20
609.8676096692261
 30
0.0
 11
1028.834429407406
 21
798.6176096692212
 31
0.0
  0
LINE
  5
2A8F
330
1F
100
AcDbEntity
  8
10
100
AcDbLine
 10
1053.834429407406
 20
571.1176096692261
 30
0.0
 11
1053.834429407406
 21
798.6176096692212
 31
0.0
  0
LINE
  5
2A90
330
1F
100
AcDbEntity
  8
10
100
AcDbLine
 10
1068.834429407406
 20
571.1176096692261
 30
0.0
 11
1068.834429407406
 21
798.6176096692212
 31
0.0
  0
LINE
  5
2A91
330
1F
100
AcDbEntity
  8
10
100
AcDbLine
 10
1076.334429407406
 20
571.1176096692261
 30
0.0
 11
1076.334429407406
 21
798.6176096692212
 31
0.0
  0
LINE
  5
2A92
330
1F
100
AcDbEntity
  8
10
100
AcDbLine
 10
1066.334429407406
 20
571.1176096692261
 30
0.0
 11
1066.334429407406
 21
798.6176096692212
 31
0.0
  0
LINE
  5
2A93
330
1F
100
AcDbEntity
  8
10
100
AcDbLine
 10
1063.834429407406
 20
571.1176096692261
 30
0.0
 11
1063.834429407406
 21
798.6176096692212
 31
0.0
  0
LINE
  5
2A94
330
1F
100
AcDbEntity
  8
10
100
AcDbLine
 10
1023.834429407406
 20
609.8676096692261
 30
0.0
 11
1023.834429407406
 21
798.6176096692212
 31
0.0
  0
LINE
  5
2A95
330
1F
100
AcDbEntity
  8
10
100
AcDbLine
 10
1026.334429407406
 20
609.8676096692261
 30
0.0
 11
1026.334429407406
 21
798.6176096692212
 31
0.0
  0
ARC
  5
2A96
330
1F
100
AcDbEntity
  8
10
100
AcDbCircle
 10
1060.084429407406
 20
571.1176096692261
 30
0.0
 40
1.249999999999997
100
AcDbArc
 50
180.0
 51
0.0
  0
LINE
  5
2A97
330
1F
100
AcDbEntity
  8
10
100
AcDbLine
 10
1061.334429407406
 20
652.367609669224
 30
0.0
 11
1058.834429407406
 21
652.367609669224
 31
0.0
  0
LINE
  5
2A98
330
1F
100
AcDbEntity
  8
10
100
AcDbLine
 10
1061.334429407406
 20
602.367609669224
 30
0.0
 11
1058.834429407406
 21
602.367609669224
 31
0.0
  0
LINE
  5
2A99
330
1F
100
AcDbEntity
  8
10
100
AcDbLine
 10
1061.334429407406
 20
617.3676096692238
 30
0.0
 11
1058.834429407406
 21
617.3676096692238
 31
0.0
  0
TEXT
  5
2A9A
330
1F
100
AcDbEntity
  8
10
100
AcDbText
 10
1014.584400906729
 20
590.1936911097286
 30
0.0
 40
6.956521842790684
  1
ＮＰ
 50
269.999994991043
 41
0.7031250019402551
  7
STANDARD1
100
AcDbText
  0
LINE
  5
2A9B
330
1F
100
AcDbEntity
  8
10
100
AcDbLine
 10
1043.084429407406
 20
560.3676096692261
 30
0.0
 11
1043.084429407406
 21
609.3676096692262
 31
0.0
  0
LINE
  5
2A9C
330
1F
100
AcDbEntity
  8
10
100
AcDbLine
 10
1013.084429407406
 20
560.3676096692261
 30
0.0
 11
1013.084429407406
 21
609.3676096692262
 31
0.0
  0
LINE
  5
2A9D
330
1F
100
AcDbEntity
  8
10
100
AcDbLine
 10
1013.584429407406
 20
559.8676096692261
 30
0.0
 11
1042.584429407406
 21
559.8676096692261
 31
0.0
  0
LINE
  5
2A9E
330
1F
100
AcDbEntity
  8
10
100
AcDbLine
 10
1019.084429407405
 20
549.867609669226
 30
0.0
 11
1027.077766840285
 21
549.867609669226
 31
0.0
  0
ARC
  5
2A9F
330
1F
100
AcDbEntity
  8
10
100
AcDbCircle
 10
1013.584429407406
 20
560.3676096692261
 30
0.0
 40
0.5
100
AcDbArc
 50
180.0
 51
270.0
  0
LINE
  5
2AA1
330
1F
100
AcDbEntity
  8
10
100
AcDbLine
 10
1019.084429407405
 20
559.8676096692261
 30
0.0
 11
1019.084429407405
 21
549.867609669226
 31
0.0
  0
LINE
  5
2AA2
330
1F
100
AcDbEntity
  8
10
100
AcDbLine
 10
1018.584429407406
 20
559.8676096692261
 30
0.0
 11
1018.584429407406
 21
549.8938135588677
 31
0.0
  0
LINE
  5
2AA3
330
1F
100
AcDbEntity
  8
10
100
AcDbLine
 10
1018.584429407406
 20
550.3676096692263
 30
0.0
 11
1019.084429407405
 21
550.3676096692263
 31
0.0
  0
ARC
  5
2AA4
330
1F
100
AcDbEntity
  8
10
100
AcDbCircle
 10
1042.584429407406
 20
560.3676096692261
 30
0.0
 40
0.4999999999999977
100
AcDbArc
 50
270.0
 51
0.0
  0
ARC
  5
2AA5
330
1F
100
AcDbEntity
  8
10
100
AcDbCircle
 10
1045.084429407406
 20
571.1176096692261
 30
0.0
 40
1.249999999999997
100
AcDbArc
 50
180.0
 51
0.0
  0
ARC
  5
2AA6
330
1F
100
AcDbEntity
  8
10
100
AcDbCircle
 10
1055.084429407406
 20
571.1176096692261
 30
0.0
 40
1.249999999999997
100
AcDbArc
 50
180.0
 51
0.0
  0
ARC
  5
2AA7
330
1F
100
AcDbEntity
  8
10
100
AcDbCircle
 10
1050.084429407406
 20
571.1176096692261
 30
0.0
 40
1.249999999999997
100
AcDbArc
 50
180.0
 51
0.0
  0
LINE
  5
2AA8
330
1F
100
AcDbEntity
  8
10
100
AcDbLine
 10
1013.584429407406
 20
609.8676096692261
 30
0.0
 11
1042.584429407406
 21
609.8676096692261
 31
0.0
  0
LINE
  5
2AA9
330
1F
100
AcDbEntity
  8
10
100
AcDbLine
 10
1036.334429407406
 20
652.367609669224
 30
0.0
 11
1033.834429407405
 21
652.367609669224
 31
0.0
  0
LINE
  5
2AAA
330
1F
100
AcDbEntity
  8
10
100
AcDbLine
 10
1036.334429407406
 20
617.3676096692238
 30
0.0
 11
1033.834429407405
 21
617.3676096692238
 31
0.0
  0
ARC
  5
2AAB
330
1F
100
AcDbEntity
  8
10
100
AcDbCircle
 10
1013.584429407406
 20
609.3676096692262
 30
0.0
 40
0.5
100
AcDbArc
 50
90.0
 51
180.0
  0
LINE
  5
2AAC
330
1F
100
AcDbEntity
  8
10
100
AcDbLine
 10
1031.334429407406
 20
617.3676096692238
 30
0.0
 11
1028.834429407406
 21
617.3676096692238
 31
0.0
  0
LINE
  5
2AAD
330
1F
100
AcDbEntity
  8
10
100
AcDbLine
 10
1026.334429407406
 20
617.3676096692238
 30
0.0
 11
1023.834429407406
 21
617.3676096692238
 31
0.0
  0
LINE
  5
2AAE
330
1F
100
AcDbEntity
  8
10
100
AcDbLine
 10
1031.334429407406
 20
652.367609669224
 30
0.0
 11
1028.834429407406
 21
652.367609669224
 31
0.0
  0
LINE
  5
2AAF
330
1F
100
AcDbEntity
  8
10
100
AcDbLine
 10
1026.334429407406
 20
652.367609669224
 30
0.0
 11
1023.834429407406
 21
652.367609669224
 31
0.0
  0
LINE
  5
2AB0
330
1F
100
AcDbEntity
  8
10
100
AcDbLine
 10
1046.334429407406
 20
602.367609669224
 30
0.0
 11
1043.834429407406
 21
602.367609669224
 31
0.0
  0
LINE
  5
2AB1
330
1F
100
AcDbEntity
  8
10
100
AcDbLine
 10
1041.334429407406
 20
617.3676096692238
 30
0.0
 11
1038.834429407406
 21
617.3676096692238
 31
0.0
  0
ARC
  5
2AB2
330
1F
100
AcDbEntity
  8
10
100
AcDbCircle
 10
1042.584429407406
 20
609.3676096692262
 30
0.0
 40
0.4999999999999977
100
AcDbArc
 50
0.0
 51
90.0
  0
LINE
  5
2AB3
330
1F
100
AcDbEntity
  8
10
100
AcDbLine
 10
1046.334429407406
 20
617.3676096692238
 30
0.0
 11
1043.834429407406
 21
617.3676096692238
 31
0.0
  0
LINE
  5
2AB4
330
1F
100
AcDbEntity
  8
10
100
AcDbLine
 10
1056.334429407406
 20
602.367609669224
 30
0.0
 11
1053.834429407406
 21
602.367609669224
 31
0.0
  0
LINE
  5
2AB5
330
1F
100
AcDbEntity
  8
10
100
AcDbLine
 10
1051.334429407406
 20
602.367609669224
 30
0.0
 11
1048.834429407406
 21
602.367609669224
 31
0.0
  0
LINE
  5
2AB6
330
1F
100
AcDbEntity
  8
10
100
AcDbLine
 10
1056.334429407406
 20
617.3676096692238
 30
0.0
 11
1053.834429407406
 21
617.3676096692238
 31
0.0
  0
LINE
  5
2AB7
330
1F
100
AcDbEntity
  8
10
100
AcDbLine
 10
1051.334429407406
 20
617.3676096692238
 30
0.0
 11
1048.834429407406
 21
617.3676096692238
 31
0.0
  0
LINE
  5
2AB8
330
1F
100
AcDbEntity
  8
10
100
AcDbLine
 10
1041.334429407406
 20
652.367609669224
 30
0.0
 11
1038.834429407406
 21
652.367609669224
 31
0.0
  0
LINE
  5
2AB9
330
1F
100
AcDbEntity
  8
10
100
AcDbLine
 10
1046.334429407406
 20
652.367609669224
 30
0.0
 11
1043.834429407406
 21
652.367609669224
 31
0.0
  0
LINE
  5
2ABA
330
1F
100
AcDbEntity
  8
10
100
AcDbLine
 10
1056.334429407406
 20
652.367609669224
 30
0.0
 11
1053.834429407406
 21
652.367609669224
 31
0.0
  0
LINE
  5
2ABB
330
1F
100
AcDbEntity
  8
10
100
AcDbLine
 10
1051.334429407406
 20
652.367609669224
 30
0.0
 11
1048.834429407406
 21
652.367609669224
 31
0.0
  0
ARC
  5
2ABC
330
1F
100
AcDbEntity
  8
10
100
AcDbCircle
 10
1065.084429407405
 20
571.1176096692261
 30
0.0
 40
1.249999999999997
100
AcDbArc
 50
180.0
 51
0.0
  0
ARC
  5
2ABD
330
1F
100
AcDbEntity
  8
10
100
AcDbCircle
 10
1070.084429407406
 20
571.1176096692261
 30
0.0
 40
1.250000000000004
100
AcDbArc
 50
180.0
 51
0.0
  0
ARC
  5
2ABE
330
1F
100
AcDbEntity
  8
10
100
AcDbCircle
 10
1080.084429407406
 20
571.1176096692261
 30
0.0
 40
1.250000000000004
100
AcDbArc
 50
180.0
 51
0.0
  0
ARC
  5
2ABF
330
1F
100
AcDbEntity
  8
10
100
AcDbCircle
 10
1075.084429407406
 20
571.1176096692261
 30
0.0
 40
1.250000000000004
100
AcDbArc
 50
180.0
 51
0.0
  0
ARC
  5
2AC0
330
1F
100
AcDbEntity
  8
10
100
AcDbCircle
 10
1085.084429407406
 20
571.1176096692261
 30
0.0
 40
1.250000000000004
100
AcDbArc
 50
180.0
 51
0.0
  0
ARC
  5
2AC1
330
1F
100
AcDbEntity
  8
10
100
AcDbCircle
 10
1100.084429407406
 20
571.1176096692261
 30
0.0
 40
1.24999999999999
100
AcDbArc
 50
180.0
 51
0.0
  0
ARC
  5
2AC2
330
1F
100
AcDbEntity
  8
10
100
AcDbCircle
 10
1090.084429407406
 20
571.1176096692261
 30
0.0
 40
1.250000000000004
100
AcDbArc
 50
180.0
 51
0.0
  0
ARC
  5
2AC3
330
1F
100
AcDbEntity
  8
10
100
AcDbCircle
 10
1095.084429407406
 20
571.1176096692261
 30
0.0
 40
1.250000000000004
100
AcDbArc
 50
180.0
 51
0.0
  0
ARC
  5
2AC4
330
1F
100
AcDbEntity
  8
10
100
AcDbCircle
 10
1105.084429407406
 20
571.1176096692261
 30
0.0
 40
1.250000000000004
100
AcDbArc
 50
180.0
 51
0.0
  0
ARC
  5
2AC5
330
1F
100
AcDbEntity
  8
10
100
AcDbCircle
 10
1110.084429407406
 20
571.1176096692261
 30
0.0
 40
1.24999999999999
100
AcDbArc
 50
180.0
 51
0.0
  0
LINE
  5
2AC6
330
1F
100
AcDbEntity
  8
10
100
AcDbLine
 10
1066.334429407406
 20
602.367609669224
 30
0.0
 11
1063.834429407406
 21
602.367609669224
 31
0.0
  0
LINE
  5
2AC7
330
1F
100
AcDbEntity
  8
10
100
AcDbLine
 10
1071.334429407406
 20
602.367609669224
 30
0.0
 11
1068.834429407406
 21
602.367609669224
 31
0.0
  0
LINE
  5
2AC8
330
1F
100
AcDbEntity
  8
10
100
AcDbLine
 10
1066.334429407406
 20
617.3676096692238
 30
0.0
 11
1063.834429407406
 21
617.3676096692238
 31
0.0
  0
LINE
  5
2AC9
330
1F
100
AcDbEntity
  8
10
100
AcDbLine
 10
1071.334429407406
 20
617.3676096692238
 30
0.0
 11
1068.834429407406
 21
617.3676096692238
 31
0.0
  0
LINE
  5
2ACA
330
1F
100
AcDbEntity
  8
10
100
AcDbLine
 10
1081.334429407406
 20
602.367609669224
 30
0.0
 11
1078.834429407406
 21
602.367609669224
 31
0.0
  0
LINE
  5
2ACB
330
1F
100
AcDbEntity
  8
10
100
AcDbLine
 10
1076.334429407406
 20
602.367609669224
 30
0.0
 11
1073.834429407406
 21
602.367609669224
 31
0.0
  0
LINE
  5
2ACC
330
1F
100
AcDbEntity
  8
10
100
AcDbLine
 10
1086.334429407406
 20
602.367609669224
 30
0.0
 11
1083.834429407406
 21
602.367609669224
 31
0.0
  0
LINE
  5
2ACD
330
1F
100
AcDbEntity
  8
10
100
AcDbLine
 10
1081.334429407406
 20
617.3676096692238
 30
0.0
 11
1078.834429407406
 21
617.3676096692238
 31
0.0
  0
LINE
  5
2ACE
330
1F
100
AcDbEntity
  8
10
100
AcDbLine
 10
1076.334429407406
 20
617.3676096692238
 30
0.0
 11
1073.834429407406
 21
617.3676096692238
 31
0.0
  0
LINE
  5
2ACF
330
1F
100
AcDbEntity
  8
10
100
AcDbLine
 10
1086.334429407406
 20
617.3676096692238
 30
0.0
 11
1083.834429407406
 21
617.3676096692238
 31
0.0
  0
LINE
  5
2AD0
330
1F
100
AcDbEntity
  8
10
100
AcDbLine
 10
1066.334429407406
 20
652.367609669224
 30
0.0
 11
1063.834429407406
 21
652.367609669224
 31
0.0
  0
LINE
  5
2AD1
330
1F
100
AcDbEntity
  8
10
100
AcDbLine
 10
1071.334429407406
 20
652.367609669224
 30
0.0
 11
1068.834429407406
 21
652.367609669224
 31
0.0
  0
LINE
  5
2AD2
330
1F
100
AcDbEntity
  8
10
100
AcDbLine
 10
1081.334429407406
 20
652.367609669224
 30
0.0
 11
1078.834429407406
 21
652.367609669224
 31
0.0
  0
LINE
  5
2AD3
330
1F
100
AcDbEntity
  8
10
100
AcDbLine
 10
1076.334429407406
 20
652.367609669224
 30
0.0
 11
1073.834429407406
 21
652.367609669224
 31
0.0
  0
LINE
  5
2AD4
330
1F
100
AcDbEntity
  8
10
100
AcDbLine
 10
1086.334429407406
 20
652.367609669224
 30
0.0
 11
1083.834429407406
 21
652.367609669224
 31
0.0
  0
LINE
  5
2AD5
330
1F
100
AcDbEntity
  8
10
100
AcDbLine
 10
1101.334429407406
 20
602.367609669224
 30
0.0
 11
1098.834429407406
 21
602.367609669224
 31
0.0
  0
LINE
  5
2AD6
330
1F
100
AcDbEntity
  8
10
100
AcDbLine
 10
1101.334429407406
 20
617.3676096692238
 30
0.0
 11
1098.834429407406
 21
617.3676096692238
 31
0.0
  0
LINE
  5
2AD7
330
1F
100
AcDbEntity
  8
10
100
AcDbLine
 10
1091.334429407406
 20
602.367609669224
 30
0.0
 11
1088.834429407406
 21
602.367609669224
 31
0.0
  0
LINE
  5
2AD8
330
1F
100
AcDbEntity
  8
10
100
AcDbLine
 10
1096.334429407406
 20
602.367609669224
 30
0.0
 11
1093.834429407406
 21
602.367609669224
 31
0.0
  0
LINE
  5
2AD9
330
1F
100
AcDbEntity
  8
10
100
AcDbLine
 10
1091.334429407406
 20
617.3676096692238
 30
0.0
 11
1088.834429407406
 21
617.3676096692238
 31
0.0
  0
LINE
  5
2ADA
330
1F
100
AcDbEntity
  8
10
100
AcDbLine
 10
1096.334429407406
 20
617.3676096692238
 30
0.0
 11
1093.834429407406
 21
617.3676096692238
 31
0.0
  0
LINE
  5
2ADB
330
1F
100
AcDbEntity
  8
10
100
AcDbLine
 10
1106.334429407406
 20
602.367609669224
 30
0.0
 11
1103.834429407406
 21
602.367609669224
 31
0.0
  0
LINE
  5
2ADC
330
1F
100
AcDbEntity
  8
10
100
AcDbLine
 10
1111.334429407406
 20
602.367609669224
 30
0.0
 11
1108.834429407406
 21
602.367609669224
 31
0.0
  0
LINE
  5
2ADD
330
1F
100
AcDbEntity
  8
10
100
AcDbLine
 10
1106.334429407406
 20
617.3676096692238
 30
0.0
 11
1103.834429407406
 21
617.3676096692238
 31
0.0
  0
LINE
  5
2ADE
330
1F
100
AcDbEntity
  8
10
100
AcDbLine
 10
1111.334429407406
 20
617.3676096692238
 30
0.0
 11
1108.834429407406
 21
617.3676096692238
 31
0.0
  0
LINE
  5
2ADF
330
1F
100
AcDbEntity
  8
10
100
AcDbLine
 10
1101.334429407406
 20
652.367609669224
 30
0.0
 11
1098.834429407406
 21
652.367609669224
 31
0.0
  0
LINE
  5
2AE0
330
1F
100
AcDbEntity
  8
10
100
AcDbLine
 10
1091.334429407406
 20
652.367609669224
 30
0.0
 11
1088.834429407406
 21
652.367609669224
 31
0.0
  0
LINE
  5
2AE1
330
1F
100
AcDbEntity
  8
10
100
AcDbLine
 10
1096.334429407406
 20
652.367609669224
 30
0.0
 11
1093.834429407406
 21
652.367609669224
 31
0.0
  0
LINE
  5
2AE2
330
1F
100
AcDbEntity
  8
10
100
AcDbLine
 10
1106.334429407406
 20
652.367609669224
 30
0.0
 11
1103.834429407406
 21
652.367609669224
 31
0.0
  0
LINE
  5
2AE3
330
1F
100
AcDbEntity
  8
10
100
AcDbLine
 10
1111.334429407406
 20
652.367609669224
 30
0.0
 11
1108.834429407406
 21
652.367609669224
 31
0.0
  0
ARC
  5
2AE4
330
1F
100
AcDbEntity
  8
10
100
AcDbCircle
 10
1060.084429407406
 20
798.6176096692212
 30
0.0
 40
1.249999999999997
100
AcDbArc
 50
0.0
 51
180.0
  0
LINE
  5
2AE5
330
1F
100
AcDbEntity
  8
10
100
AcDbLine
 10
1061.334429407406
 20
767.3676096692238
 30
0.0
 11
1058.834429407406
 21
767.3676096692238
 31
0.0
  0
LINE
  5
2AE6
330
1F
100
AcDbEntity
  8
10
100
AcDbLine
 10
1061.334429407406
 20
752.3676096692238
 30
0.0
 11
1058.834429407406
 21
752.3676096692238
 31
0.0
  0
LINE
  5
2AE7
330
1F
100
AcDbEntity
  8
10
100
AcDbLine
 10
1061.334429407406
 20
717.3676096692238
 30
0.0
 11
1058.834429407406
 21
717.3676096692238
 31
0.0
  0
LINE
  5
2AE8
330
1F
100
AcDbEntity
  8
10
100
AcDbLine
 10
1061.334429407406
 20
702.3676096692238
 30
0.0
 11
1058.834429407406
 21
702.3676096692238
 31
0.0
  0
LINE
  5
2AE9
330
1F
100
AcDbEntity
  8
10
100
AcDbLine
 10
1061.334429407406
 20
667.3676096692238
 30
0.0
 11
1058.834429407406
 21
667.3676096692238
 31
0.0
  0
LINE
  5
2AEA
330
1F
100
AcDbEntity
  8
10
100
AcDbLine
 10
1036.334429407406
 20
717.3676096692238
 30
0.0
 11
1033.834429407405
 21
717.3676096692238
 31
0.0
  0
LINE
  5
2AEB
330
1F
100
AcDbEntity
  8
10
100
AcDbLine
 10
1036.334429407406
 20
702.3676096692238
 30
0.0
 11
1033.834429407405
 21
702.3676096692238
 31
0.0
  0
LINE
  5
2AEC
330
1F
100
AcDbEntity
  8
10
100
AcDbLine
 10
1036.334429407406
 20
667.3676096692238
 30
0.0
 11
1033.834429407405
 21
667.3676096692238
 31
0.0
  0
LINE
  5
2AED
330
1F
100
AcDbEntity
  8
10
100
AcDbLine
 10
1031.334429407406
 20
667.3676096692238
 30
0.0
 11
1028.834429407406
 21
667.3676096692238
 31
0.0
  0
LINE
  5
2AEE
330
1F
100
AcDbEntity
  8
10
100
AcDbLine
 10
1026.334429407406
 20
667.3676096692238
 30
0.0
 11
1023.834429407406
 21
667.3676096692238
 31
0.0
  0
LINE
  5
2AEF
330
1F
100
AcDbEntity
  8
10
100
AcDbLine
 10
1019.084429407405
 20
704.9157652548869
 30
0.0
 11
1019.084429407405
 21
708.9157652548869
 31
0.0
  0
LINE
  5
2AF0
330
1F
100
AcDbEntity
  8
10
100
AcDbLine
 10
1031.334429407406
 20
717.3676096692238
 30
0.0
 11
1028.834429407406
 21
717.3676096692238
 31
0.0
  0
LINE
  5
2AF1
330
1F
100
AcDbEntity
  8
10
100
AcDbLine
 10
1031.334429407406
 20
702.3676096692238
 30
0.0
 11
1028.834429407406
 21
702.3676096692238
 31
0.0
  0
LINE
  5
2AF2
330
1F
100
AcDbEntity
  8
10
100
AcDbLine
 10
1026.334429407406
 20
717.3676096692238
 30
0.0
 11
1023.834429407406
 21
717.3676096692238
 31
0.0
  0
LINE
  5
2AF3
330
1F
100
AcDbEntity
  8
10
100
AcDbLine
 10
1026.334429407406
 20
702.3676096692238
 30
0.0
 11
1023.834429407406
 21
702.3676096692238
 31
0.0
  0
LINE
  5
2AF4
330
1F
100
AcDbEntity
  8
10
100
AcDbLine
 10
1041.334429407406
 20
667.3676096692238
 30
0.0
 11
1038.834429407406
 21
667.3676096692238
 31
0.0
  0
LINE
  5
2AF5
330
1F
100
AcDbEntity
  8
10
100
AcDbLine
 10
1046.334429407406
 20
667.3676096692238
 30
0.0
 11
1043.834429407406
 21
667.3676096692238
 31
0.0
  0
LINE
  5
2AF6
330
1F
100
AcDbEntity
  8
10
100
AcDbLine
 10
1056.334429407406
 20
667.3676096692238
 30
0.0
 11
1053.834429407406
 21
667.3676096692238
 31
0.0
  0
LINE
  5
2AF7
330
1F
100
AcDbEntity
  8
10
100
AcDbLine
 10
1051.334429407406
 20
667.3676096692238
 30
0.0
 11
1048.834429407406
 21
667.3676096692238
 31
0.0
  0
LINE
  5
2AF8
330
1F
100
AcDbEntity
  8
10
100
AcDbLine
 10
1041.334429407406
 20
717.3676096692238
 30
0.0
 11
1038.834429407406
 21
717.3676096692238
 31
0.0
  0
LINE
  5
2AF9
330
1F
100
AcDbEntity
  8
10
100
AcDbLine
 10
1041.334429407406
 20
702.3676096692238
 30
0.0
 11
1038.834429407406
 21
702.3676096692238
 31
0.0
  0
LINE
  5
2AFA
330
1F
100
AcDbEntity
  8
10
100
AcDbLine
 10
1046.334429407406
 20
717.3676096692238
 30
0.0
 11
1043.834429407406
 21
717.3676096692238
 31
0.0
  0
LINE
  5
2AFB
330
1F
100
AcDbEntity
  8
10
100
AcDbLine
 10
1046.334429407406
 20
702.3676096692238
 30
0.0
 11
1043.834429407406
 21
702.3676096692238
 31
0.0
  0
LINE
  5
2AFC
330
1F
100
AcDbEntity
  8
10
100
AcDbLine
 10
1056.334429407406
 20
717.3676096692238
 30
0.0
 11
1053.834429407406
 21
717.3676096692238
 31
0.0
  0
LINE
  5
2AFD
330
1F
100
AcDbEntity
  8
10
100
AcDbLine
 10
1056.334429407406
 20
702.3676096692238
 30
0.0
 11
1053.834429407406
 21
702.3676096692238
 31
0.0
  0
LINE
  5
2AFE
330
1F
100
AcDbEntity
  8
10
100
AcDbLine
 10
1051.334429407406
 20
717.3676096692238
 30
0.0
 11
1048.834429407406
 21
717.3676096692238
 31
0.0
  0
LINE
  5
2AFF
330
1F
100
AcDbEntity
  8
10
100
AcDbLine
 10
1051.334429407406
 20
702.3676096692238
 30
0.0
 11
1048.834429407406
 21
702.3676096692238
 31
0.0
  0
ARC
  5
2B00
330
1F
100
AcDbEntity
  8
10
100
AcDbCircle
 10
1035.084429407406
 20
798.6176096692212
 30
0.0
 40
1.250000000000001
100
AcDbArc
 50
0.0
 51
180.0
  0
LINE
  5
2B01
330
1F
100
AcDbEntity
  8
10
100
AcDbLine
 10
1036.334429407406
 20
767.3676096692238
 30
0.0
 11
1033.834429407405
 21
767.3676096692238
 31
0.0
  0
LINE
  5
2B02
330
1F
100
AcDbEntity
  8
10
100
AcDbLine
 10
1036.334429407406
 20
752.3676096692238
 30
0.0
 11
1033.834429407405
 21
752.3676096692238
 31
0.0
  0
LINE
  5
2B03
330
1F
100
AcDbEntity
  8
10
100
AcDbLine
 10
1031.334429407406
 20
752.3676096692238
 30
0.0
 11
1028.834429407406
 21
752.3676096692238
 31
0.0
  0
LINE
  5
2B04
330
1F
100
AcDbEntity
  8
10
100
AcDbLine
 10
1026.334429407406
 20
752.3676096692238
 30
0.0
 11
1023.834429407406
 21
752.3676096692238
 31
0.0
  0
LINE
  5
2B05
330
1F
100
AcDbEntity
  8
10
100
AcDbLine
 10
1031.334429407406
 20
767.3676096692238
 30
0.0
 11
1028.834429407406
 21
767.3676096692238
 31
0.0
  0
LINE
  5
2B06
330
1F
100
AcDbEntity
  8
10
100
AcDbLine
 10
1026.334429407406
 20
767.3676096692238
 30
0.0
 11
1023.834429407406
 21
767.3676096692238
 31
0.0
  0
ARC
  5
2B07
330
1F
100
AcDbEntity
  8
10
100
AcDbCircle
 10
1030.084429407406
 20
798.6176096692212
 30
0.0
 40
1.249999999999997
100
AcDbArc
 50
0.0
 51
180.0
  0
ARC
  5
2B08
330
1F
100
AcDbEntity
  8
10
100
AcDbCircle
 10
1025.084429407406
 20
798.6176096692212
 30
0.0
 40
1.249999999999998
100
AcDbArc
 50
0.0
 51
180.0
  0
LINE
  5
2B09
330
1F
100
AcDbEntity
  8
10
100
AcDbLine
 10
1041.334429407406
 20
752.3676096692238
 30
0.0
 11
1038.834429407406
 21
752.3676096692238
 31
0.0
  0
LINE
  5
2B0A
330
1F
100
AcDbEntity
  8
10
100
AcDbLine
 10
1046.334429407406
 20
752.3676096692238
 30
0.0
 11
1043.834429407406
 21
752.3676096692238
 31
0.0
  0
LINE
  5
2B0B
330
1F
100
AcDbEntity
  8
10
100
AcDbLine
 10
1041.334429407406
 20
767.3676096692238
 30
0.0
 11
1038.834429407406
 21
767.3676096692238
 31
0.0
  0
LINE
  5
2B0C
330
1F
100
AcDbEntity
  8
10
100
AcDbLine
 10
1046.334429407406
 20
767.3676096692238
 30
0.0
 11
1043.834429407406
 21
767.3676096692238
 31
0.0
  0
LINE
  5
2B0D
330
1F
100
AcDbEntity
  8
10
100
AcDbLine
 10
1056.334429407406
 20
752.3676096692238
 30
0.0
 11
1053.834429407406
 21
752.3676096692238
 31
0.0
  0
LINE
  5
2B0E
330
1F
100
AcDbEntity
  8
10
100
AcDbLine
 10
1051.334429407406
 20
752.3676096692238
 30
0.0
 11
1048.834429407406
 21
752.3676096692238
 31
0.0
  0
LINE
  5
2B0F
330
1F
100
AcDbEntity
  8
10
100
AcDbLine
 10
1056.334429407406
 20
767.3676096692238
 30
0.0
 11
1053.834429407406
 21
767.3676096692238
 31
0.0
  0
LINE
  5
2B10
330
1F
100
AcDbEntity
  8
10
100
AcDbLine
 10
1051.334429407406
 20
767.3676096692238
 30
0.0
 11
1048.834429407406
 21
767.3676096692238
 31
0.0
  0
ARC
  5
2B11
330
1F
100
AcDbEntity
  8
10
100
AcDbCircle
 10
1040.084429407406
 20
798.6176096692212
 30
0.0
 40
1.249999999999997
100
AcDbArc
 50
0.0
 51
180.0
  0
ARC
  5
2B12
330
1F
100
AcDbEntity
  8
10
100
AcDbCircle
 10
1045.084429407406
 20
798.6176096692212
 30
0.0
 40
1.249999999999997
100
AcDbArc
 50
0.0
 51
180.0
  0
ARC
  5
2B13
330
1F
100
AcDbEntity
  8
10
100
AcDbCircle
 10
1055.084429407406
 20
798.6176096692212
 30
0.0
 40
1.249999999999997
100
AcDbArc
 50
0.0
 51
180.0
  0
ARC
  5
2B14
330
1F
100
AcDbEntity
  8
10
100
AcDbCircle
 10
1050.084429407406
 20
798.6176096692212
 30
0.0
 40
1.249999999999997
100
AcDbArc
 50
0.0
 51
180.0
  0
LINE
  5
2B15
330
1F
100
AcDbEntity
  8
10
100
AcDbLine
 10
1066.334429407406
 20
667.3676096692238
 30
0.0
 11
1063.834429407406
 21
667.3676096692238
 31
0.0
  0
LINE
  5
2B16
330
1F
100
AcDbEntity
  8
10
100
AcDbLine
 10
1071.334429407406
 20
667.3676096692238
 30
0.0
 11
1068.834429407406
 21
667.3676096692238
 31
0.0
  0
LINE
  5
2B17
330
1F
100
AcDbEntity
  8
10
100
AcDbLine
 10
1081.334429407406
 20
667.3676096692238
 30
0.0
 11
1078.834429407406
 21
667.3676096692238
 31
0.0
  0
LINE
  5
2B18
330
1F
100
AcDbEntity
  8
10
100
AcDbLine
 10
1076.334429407406
 20
667.3676096692238
 30
0.0
 11
1073.834429407406
 21
667.3676096692238
 31
0.0
  0
LINE
  5
2B19
330
1F
100
AcDbEntity
  8
10
100
AcDbLine
 10
1086.334429407406
 20
667.3676096692238
 30
0.0
 11
1083.834429407406
 21
667.3676096692238
 31
0.0
  0
LINE
  5
2B1A
330
1F
100
AcDbEntity
  8
10
100
AcDbLine
 10
1066.334429407406
 20
717.3676096692238
 30
0.0
 11
1063.834429407406
 21
717.3676096692238
 31
0.0
  0
LINE
  5
2B1B
330
1F
100
AcDbEntity
  8
10
100
AcDbLine
 10
1066.334429407406
 20
702.3676096692238
 30
0.0
 11
1063.834429407406
 21
702.3676096692238
 31
0.0
  0
LINE
  5
2B1C
330
1F
100
AcDbEntity
  8
10
100
AcDbLine
 10
1071.334429407406
 20
717.3676096692238
 30
0.0
 11
1068.834429407406
 21
717.3676096692238
 31
0.0
  0
LINE
  5
2B1D
330
1F
100
AcDbEntity
  8
10
100
AcDbLine
 10
1071.334429407406
 20
702.3676096692238
 30
0.0
 11
1068.834429407406
 21
702.3676096692238
 31
0.0
  0
LINE
  5
2B1E
330
1F
100
AcDbEntity
  8
10
100
AcDbLine
 10
1081.334429407406
 20
717.3676096692238
 30
0.0
 11
1078.834429407406
 21
717.3676096692238
 31
0.0
  0
LINE
  5
2B1F
330
1F
100
AcDbEntity
  8
10
100
AcDbLine
 10
1081.334429407406
 20
702.3676096692238
 30
0.0
 11
1078.834429407406
 21
702.3676096692238
 31
0.0
  0
LINE
  5
2B20
330
1F
100
AcDbEntity
  8
10
100
AcDbLine
 10
1076.334429407406
 20
717.3676096692238
 30
0.0
 11
1073.834429407406
 21
717.3676096692238
 31
0.0
  0
LINE
  5
2B21
330
1F
100
AcDbEntity
  8
10
100
AcDbLine
 10
1076.334429407406
 20
702.3676096692238
 30
0.0
 11
1073.834429407406
 21
702.3676096692238
 31
0.0
  0
LINE
  5
2B22
330
1F
100
AcDbEntity
  8
10
100
AcDbLine
 10
1086.334429407406
 20
717.3676096692238
 30
0.0
 11
1083.834429407406
 21
717.3676096692238
 31
0.0
  0
LINE
  5
2B23
330
1F
100
AcDbEntity
  8
10
100
AcDbLine
 10
1086.334429407406
 20
702.3676096692238
 30
0.0
 11
1083.834429407406
 21
702.3676096692238
 31
0.0
  0
LINE
  5
2B24
330
1F
100
AcDbEntity
  8
10
100
AcDbLine
 10
1101.334429407406
 20
667.3676096692238
 30
0.0
 11
1098.834429407406
 21
667.3676096692238
 31
0.0
  0
LINE
  5
2B25
330
1F
100
AcDbEntity
  8
10
100
AcDbLine
 10
1091.334429407406
 20
667.3676096692238
 30
0.0
 11
1088.834429407406
 21
667.3676096692238
 31
0.0
  0
LINE
  5
2B26
330
1F
100
AcDbEntity
  8
10
100
AcDbLine
 10
1096.334429407406
 20
667.3676096692238
 30
0.0
 11
1093.834429407406
 21
667.3676096692238
 31
0.0
  0
LINE
  5
2B27
330
1F
100
AcDbEntity
  8
10
100
AcDbLine
 10
1106.334429407406
 20
667.3676096692238
 30
0.0
 11
1103.834429407406
 21
667.3676096692238
 31
0.0
  0
LINE
  5
2B28
330
1F
100
AcDbEntity
  8
10
100
AcDbLine
 10
1111.334429407406
 20
667.3676096692238
 30
0.0
 11
1108.834429407406
 21
667.3676096692238
 31
0.0
  0
LINE
  5
2B29
330
1F
100
AcDbEntity
  8
10
100
AcDbLine
 10
1101.334429407406
 20
717.3676096692238
 30
0.0
 11
1098.834429407406
 21
717.3676096692238
 31
0.0
  0
LINE
  5
2B2A
330
1F
100
AcDbEntity
  8
10
100
AcDbLine
 10
1101.334429407406
 20
702.3676096692238
 30
0.0
 11
1098.834429407406
 21
702.3676096692238
 31
0.0
  0
LINE
  5
2B2B
330
1F
100
AcDbEntity
  8
10
100
AcDbLine
 10
1091.334429407406
 20
717.3676096692238
 30
0.0
 11
1088.834429407406
 21
717.3676096692238
 31
0.0
  0
LINE
  5
2B2C
330
1F
100
AcDbEntity
  8
10
100
AcDbLine
 10
1091.334429407406
 20
702.3676096692238
 30
0.0
 11
1088.834429407406
 21
702.3676096692238
 31
0.0
  0
LINE
  5
2B2D
330
1F
100
AcDbEntity
  8
10
100
AcDbLine
 10
1096.334429407406
 20
717.3676096692238
 30
0.0
 11
1093.834429407406
 21
717.3676096692238
 31
0.0
  0
LINE
  5
2B2E
330
1F
100
AcDbEntity
  8
10
100
AcDbLine
 10
1096.334429407406
 20
702.3676096692238
 30
0.0
 11
1093.834429407406
 21
702.3676096692238
 31
0.0
  0
LINE
  5
2B2F
330
1F
100
AcDbEntity
  8
10
100
AcDbLine
 10
1106.334429407406
 20
717.3676096692238
 30
0.0
 11
1103.834429407406
 21
717.3676096692238
 31
0.0
  0
LINE
  5
2B30
330
1F
100
AcDbEntity
  8
10
100
AcDbLine
 10
1106.334429407406
 20
702.3676096692238
 30
0.0
 11
1103.834429407406
 21
702.3676096692238
 31
0.0
  0
LINE
  5
2B31
330
1F
100
AcDbEntity
  8
10
100
AcDbLine
 10
1111.334429407406
 20
717.3676096692238
 30
0.0
 11
1108.834429407406
 21
717.3676096692238
 31
0.0
  0
LINE
  5
2B32
330
1F
100
AcDbEntity
  8
10
100
AcDbLine
 10
1111.334429407406
 20
702.3676096692238
 30
0.0
 11
1108.834429407406
 21
702.3676096692238
 31
0.0
  0
LINE
  5
2B33
330
1F
100
AcDbEntity
  8
10
100
AcDbLine
 10
1066.334429407406
 20
752.3676096692238
 30
0.0
 11
1063.834429407406
 21
752.3676096692238
 31
0.0
  0
LINE
  5
2B34
330
1F
100
AcDbEntity
  8
10
100
AcDbLine
 10
1071.334429407406
 20
752.3676096692238
 30
0.0
 11
1068.834429407406
 21
752.3676096692238
 31
0.0
  0
LINE
  5
2B35
330
1F
100
AcDbEntity
  8
10
100
AcDbLine
 10
1066.334429407406
 20
767.3676096692238
 30
0.0
 11
1063.834429407406
 21
767.3676096692238
 31
0.0
  0
LINE
  5
2B36
330
1F
100
AcDbEntity
  8
10
100
AcDbLine
 10
1071.334429407406
 20
767.3676096692238
 30
0.0
 11
1068.834429407406
 21
767.3676096692238
 31
0.0
  0
LINE
  5
2B37
330
1F
100
AcDbEntity
  8
10
100
AcDbLine
 10
1081.334429407406
 20
752.3676096692238
 30
0.0
 11
1078.834429407406
 21
752.3676096692238
 31
0.0
  0
LINE
  5
2B38
330
1F
100
AcDbEntity
  8
10
100
AcDbLine
 10
1076.334429407406
 20
752.3676096692238
 30
0.0
 11
1073.834429407406
 21
752.3676096692238
 31
0.0
  0
LINE
  5
2B39
330
1F
100
AcDbEntity
  8
10
100
AcDbLine
 10
1086.334429407406
 20
752.3676096692238
 30
0.0
 11
1083.834429407406
 21
752.3676096692238
 31
0.0
  0
LINE
  5
2B3A
330
1F
100
AcDbEntity
  8
10
100
AcDbLine
 10
1081.334429407406
 20
767.3676096692238
 30
0.0
 11
1078.834429407406
 21
767.3676096692238
 31
0.0
  0
LINE
  5
2B3B
330
1F
100
AcDbEntity
  8
10
100
AcDbLine
 10
1076.334429407406
 20
767.3676096692238
 30
0.0
 11
1073.834429407406
 21
767.3676096692238
 31
0.0
  0
LINE
  5
2B3C
330
1F
100
AcDbEntity
  8
10
100
AcDbLine
 10
1086.334429407406
 20
767.3676096692238
 30
0.0
 11
1083.834429407406
 21
767.3676096692238
 31
0.0
  0
ARC
  5
2B3D
330
1F
100
AcDbEntity
  8
10
100
AcDbCircle
 10
1065.084429407405
 20
798.6176096692212
 30
0.0
 40
1.249999999999997
100
AcDbArc
 50
0.0
 51
180.0
  0
ARC
  5
2B3E
330
1F
100
AcDbEntity
  8
10
100
AcDbCircle
 10
1070.084429407406
 20
798.6176096692212
 30
0.0
 40
1.249999999999997
100
AcDbArc
 50
0.0
 51
180.0
  0
ARC
  5
2B3F
330
1F
100
AcDbEntity
  8
10
100
AcDbCircle
 10
1080.084429407406
 20
798.6176096692212
 30
0.0
 40
1.24999999999999
100
AcDbArc
 50
0.0
 51
180.0
  0
ARC
  5
2B40
330
1F
100
AcDbEntity
  8
10
100
AcDbCircle
 10
1075.084429407406
 20
798.6176096692212
 30
0.0
 40
1.249999999999997
100
AcDbArc
 50
0.0
 51
180.0
  0
ARC
  5
2B41
330
1F
100
AcDbEntity
  8
10
100
AcDbCircle
 10
1085.084429407406
 20
798.6176096692212
 30
0.0
 40
1.250000000000004
100
AcDbArc
 50
0.0
 51
180.0
  0
LINE
  5
2B42
330
1F
100
AcDbEntity
  8
10
100
AcDbLine
 10
1101.334429407406
 20
767.3676096692238
 30
0.0
 11
1098.834429407406
 21
767.3676096692238
 31
0.0
  0
LINE
  5
2B43
330
1F
100
AcDbEntity
  8
10
100
AcDbLine
 10
1101.334429407406
 20
752.3676096692238
 30
0.0
 11
1098.834429407406
 21
752.3676096692238
 31
0.0
  0
LINE
  5
2B44
330
1F
100
AcDbEntity
  8
10
100
AcDbLine
 10
1091.334429407406
 20
752.3676096692238
 30
0.0
 11
1088.834429407406
 21
752.3676096692238
 31
0.0
  0
LINE
  5
2B45
330
1F
100
AcDbEntity
  8
10
100
AcDbLine
 10
1096.334429407406
 20
752.3676096692238
 30
0.0
 11
1093.834429407406
 21
752.3676096692238
 31
0.0
  0
LINE
  5
2B46
330
1F
100
AcDbEntity
  8
10
100
AcDbLine
 10
1091.334429407406
 20
767.3676096692238
 30
0.0
 11
1088.834429407406
 21
767.3676096692238
 31
0.0
  0
LINE
  5
2B47
330
1F
100
AcDbEntity
  8
10
100
AcDbLine
 10
1096.334429407406
 20
767.3676096692238
 30
0.0
 11
1093.834429407406
 21
767.3676096692238
 31
0.0
  0
LINE
  5
2B48
330
1F
100
AcDbEntity
  8
10
100
AcDbLine
 10
1106.334429407406
 20
752.3676096692238
 30
0.0
 11
1103.834429407406
 21
752.3676096692238
 31
0.0
  0
LINE
  5
2B49
330
1F
100
AcDbEntity
  8
10
100
AcDbLine
 10
1111.334429407406
 20
752.3676096692238
 30
0.0
 11
1108.834429407406
 21
752.3676096692238
 31
0.0
  0
LINE
  5
2B4A
330
1F
100
AcDbEntity
  8
10
100
AcDbLine
 10
1106.334429407406
 20
767.3676096692238
 30
0.0
 11
1103.834429407406
 21
767.3676096692238
 31
0.0
  0
LINE
  5
2B4B
330
1F
100
AcDbEntity
  8
10
100
AcDbLine
 10
1111.334429407406
 20
767.3676096692238
 30
0.0
 11
1108.834429407406
 21
767.3676096692238
 31
0.0
  0
ARC
  5
2B4C
330
1F
100
AcDbEntity
  8
10
100
AcDbCircle
 10
1100.084429407406
 20
798.6176096692212
 30
0.0
 40
1.250000000000004
100
AcDbArc
 50
0.0
 51
180.0
  0
ARC
  5
2B4D
330
1F
100
AcDbEntity
  8
10
100
AcDbCircle
 10
1090.084429407406
 20
798.6176096692212
 30
0.0
 40
1.24999999999999
100
AcDbArc
 50
0.0
 51
180.0
  0
ARC
  5
2B4E
330
1F
100
AcDbEntity
  8
10
100
AcDbCircle
 10
1095.084429407406
 20
798.6176096692212
 30
0.0
 40
1.250000000000004
100
AcDbArc
 50
0.0
 51
180.0
  0
ARC
  5
2B4F
330
1F
100
AcDbEntity
  8
10
100
AcDbCircle
 10
1105.084429407406
 20
798.6176096692212
 30
0.0
 40
1.24999999999999
100
AcDbArc
 50
0.0
 51
180.0
  0
ARC
  5
2B50
330
1F
100
AcDbEntity
  8
10
100
AcDbCircle
 10
1110.084429407406
 20
798.6176096692212
 30
0.0
 40
1.250000000000004
100
AcDbArc
 50
0.0
 51
180.0
  0
LINE
  5
2B51
330
1F
100
AcDbEntity
  8
10
100
AcDbLine
 10
1173.084429407406
 20
607.3676096692262
 30
0.0
 11
1173.084429407406
 21
716.3676096692261
 31
0.0
  0
LINE
  5
2B52
330
1F
100
AcDbEntity
  8
10
100
AcDbLine
 10
1158.834429407405
 20
571.1176096692261
 30
0.0
 11
1158.834429407405
 21
798.6176096692212
 31
0.0
  0
LINE
  5
2B53
330
1F
100
AcDbEntity
  8
10
100
AcDbLine
 10
1161.334429407406
 20
571.1176096692261
 30
0.0
 11
1161.334429407406
 21
798.6176096692212
 31
0.0
  0
LINE
  5
2B54
330
1F
100
AcDbEntity
  8
10
100
AcDbLine
 10
1165.084429407406
 20
607.3676096692262
 30
0.0
 11
1165.084429407406
 21
717.3676096692261
 31
0.0
  0
LINE
  5
2B55
330
1F
100
AcDbEntity
  8
10
100
AcDbLine
 10
1113.834429407406
 20
571.1176096692261
 30
0.0
 11
1113.834429407406
 21
798.6176096692212
 31
0.0
  0
LINE
  5
2B56
330
1F
100
AcDbEntity
  8
10
100
AcDbLine
 10
1116.334429407406
 20
571.1176096692261
 30
0.0
 11
1116.334429407406
 21
798.6176096692212
 31
0.0
  0
LINE
  5
2B57
330
1F
100
AcDbEntity
  8
10
100
AcDbLine
 10
1118.834429407406
 20
571.1176096692261
 30
0.0
 11
1118.834429407406
 21
798.6176096692212
 31
0.0
  0
LINE
  5
2B58
330
1F
100
AcDbEntity
  8
10
100
AcDbLine
 10
1121.334429407406
 20
571.1176096692261
 30
0.0
 11
1121.334429407406
 21
798.6176096692212
 31
0.0
  0
LINE
  5
2B59
330
1F
100
AcDbEntity
  8
10
100
AcDbLine
 10
1156.334429407406
 20
571.1176096692261
 30
0.0
 11
1156.334429407406
 21
798.6176096692212
 31
0.0
  0
LINE
  5
2B5A
330
1F
100
AcDbEntity
  8
10
100
AcDbLine
 10
1123.834429407406
 20
571.1176096692261
 30
0.0
 11
1123.834429407406
 21
798.6176096692212
 31
0.0
  0
LINE
  5
2B5B
330
1F
100
AcDbEntity
  8
10
100
AcDbLine
 10
1126.334429407406
 20
571.1176096692261
 30
0.0
 11
1126.334429407406
 21
798.6176096692212
 31
0.0
  0
LINE
  5
2B5C
330
1F
100
AcDbEntity
  8
10
100
AcDbLine
 10
1128.834429407406
 20
571.1176096692261
 30
0.0
 11
1128.834429407406
 21
798.6176096692212
 31
0.0
  0
LINE
  5
2B5D
330
1F
100
AcDbEntity
  8
10
100
AcDbLine
 10
1131.334429407406
 20
571.1176096692261
 30
0.0
 11
1131.334429407406
 21
798.6176096692212
 31
0.0
  0
LINE
  5
2B5E
330
1F
100
AcDbEntity
  8
10
100
AcDbLine
 10
1133.834429407406
 20
571.1176096692261
 30
0.0
 11
1133.834429407406
 21
798.6176096692212
 31
0.0
  0
LINE
  5
2B5F
330
1F
100
AcDbEntity
  8
10
100
AcDbLine
 10
1136.334429407406
 20
571.1176096692261
 30
0.0
 11
1136.334429407406
 21
798.6176096692212
 31
0.0
  0
LINE
  5
2B60
330
1F
100
AcDbEntity
  8
10
100
AcDbLine
 10
1138.834429407406
 20
571.1176096692261
 30
0.0
 11
1138.834429407406
 21
798.6176096692212
 31
0.0
  0
LINE
  5
2B61
330
1F
100
AcDbEntity
  8
10
100
AcDbLine
 10
1141.334429407406
 20
571.1176096692261
 30
0.0
 11
1141.334429407406
 21
798.6176096692212
 31
0.0
  0
LINE
  5
2B62
330
1F
100
AcDbEntity
  8
10
100
AcDbLine
 10
1143.834429407406
 20
571.1176096692261
 30
0.0
 11
1143.834429407406
 21
798.6176096692212
 31
0.0
  0
LINE
  5
2B63
330
1F
100
AcDbEntity
  8
10
100
AcDbLine
 10
1146.334429407406
 20
571.1176096692261
 30
0.0
 11
1146.334429407406
 21
798.6176096692212
 31
0.0
  0
LINE
  5
2B64
330
1F
100
AcDbEntity
  8
10
100
AcDbLine
 10
1148.834429407406
 20
571.1176096692261
 30
0.0
 11
1148.834429407406
 21
798.6176096692212
 31
0.0
  0
LINE
  5
2B65
330
1F
100
AcDbEntity
  8
10
100
AcDbLine
 10
1151.334429407406
 20
571.1176096692261
 30
0.0
 11
1151.334429407406
 21
798.6176096692212
 31
0.0
  0
LINE
  5
2B66
330
1F
100
AcDbEntity
  8
10
100
AcDbLine
 10
1153.834429407406
 20
571.1176096692261
 30
0.0
 11
1153.834429407406
 21
798.6176096692212
 31
0.0
  0
ARC
  5
2B67
330
1F
100
AcDbEntity
  8
10
100
AcDbCircle
 10
1125.084429407406
 20
571.1176096692261
 30
0.0
 40
1.24999999999999
100
AcDbArc
 50
180.0
 51
0.0
  0
ARC
  5
2B68
330
1F
100
AcDbEntity
  8
10
100
AcDbCircle
 10
1115.084429407406
 20
571.1176096692261
 30
0.0
 40
1.250000000000004
100
AcDbArc
 50
180.0
 51
0.0
  0
ARC
  5
2B69
330
1F
100
AcDbEntity
  8
10
100
AcDbCircle
 10
1120.084429407406
 20
571.1176096692261
 30
0.0
 40
1.250000000000004
100
AcDbArc
 50
180.0
 51
0.0
  0
ARC
  5
2B6A
330
1F
100
AcDbEntity
  8
10
100
AcDbCircle
 10
1130.084429407406
 20
571.1176096692261
 30
0.0
 40
1.250000000000004
100
AcDbArc
 50
180.0
 51
0.0
  0
ARC
  5
2B6B
330
1F
100
AcDbEntity
  8
10
100
AcDbCircle
 10
1135.084429407406
 20
571.1176096692261
 30
0.0
 40
1.24999999999999
100
AcDbArc
 50
180.0
 51
0.0
  0
ARC
  5
2B6C
330
1F
100
AcDbEntity
  8
10
100
AcDbCircle
 10
1150.084429407406
 20
571.1176096692261
 30
0.0
 40
1.24999999999999
100
AcDbArc
 50
180.0
 51
0.0
  0
ARC
  5
2B6D
330
1F
100
AcDbEntity
  8
10
100
AcDbCircle
 10
1145.084429407406
 20
571.1176096692261
 30
0.0
 40
1.250000000000004
100
AcDbArc
 50
180.0
 51
0.0
  0
ARC
  5
2B6E
330
1F
100
AcDbEntity
  8
10
100
AcDbCircle
 10
1140.084429407406
 20
571.1176096692261
 30
0.0
 40
1.250000000000004
100
AcDbArc
 50
180.0
 51
0.0
  0
ARC
  5
2B6F
330
1F
100
AcDbEntity
  8
10
100
AcDbCircle
 10
1155.084429407406
 20
571.1176096692261
 30
0.0
 40
1.249999999999975
100
AcDbArc
 50
180.0
 51
0.0
  0
ARC
  5
2B70
330
1F
100
AcDbEntity
  8
10
100
AcDbCircle
 10
1160.084429407406
 20
571.1176096692261
 30
0.0
 40
1.250000000000004
100
AcDbArc
 50
180.0
 51
0.0
  0
LINE
  5
2B71
330
1F
100
AcDbEntity
  8
10
100
AcDbLine
 10
1126.334429407406
 20
602.367609669224
 30
0.0
 11
1123.834429407406
 21
602.367609669224
 31
0.0
  0
LINE
  5
2B72
330
1F
100
AcDbEntity
  8
10
100
AcDbLine
 10
1126.334429407406
 20
617.3676096692238
 30
0.0
 11
1123.834429407406
 21
617.3676096692238
 31
0.0
  0
LINE
  5
2B73
330
1F
100
AcDbEntity
  8
10
100
AcDbLine
 10
1116.334429407406
 20
602.367609669224
 30
0.0
 11
1113.834429407406
 21
602.367609669224
 31
0.0
  0
LINE
  5
2B74
330
1F
100
AcDbEntity
  8
10
100
AcDbLine
 10
1121.334429407406
 20
602.367609669224
 30
0.0
 11
1118.834429407406
 21
602.367609669224
 31
0.0
  0
LINE
  5
2B75
330
1F
100
AcDbEntity
  8
10
100
AcDbLine
 10
1116.334429407406
 20
617.3676096692238
 30
0.0
 11
1113.834429407406
 21
617.3676096692238
 31
0.0
  0
LINE
  5
2B76
330
1F
100
AcDbEntity
  8
10
100
AcDbLine
 10
1121.334429407406
 20
617.3676096692238
 30
0.0
 11
1118.834429407406
 21
617.3676096692238
 31
0.0
  0
LINE
  5
2B77
330
1F
100
AcDbEntity
  8
10
100
AcDbLine
 10
1131.334429407406
 20
602.367609669224
 30
0.0
 11
1128.834429407406
 21
602.367609669224
 31
0.0
  0
LINE
  5
2B78
330
1F
100
AcDbEntity
  8
10
100
AcDbLine
 10
1136.334429407406
 20
602.367609669224
 30
0.0
 11
1133.834429407406
 21
602.367609669224
 31
0.0
  0
LINE
  5
2B79
330
1F
100
AcDbEntity
  8
10
100
AcDbLine
 10
1131.334429407406
 20
617.3676096692238
 30
0.0
 11
1128.834429407406
 21
617.3676096692238
 31
0.0
  0
LINE
  5
2B7A
330
1F
100
AcDbEntity
  8
10
100
AcDbLine
 10
1136.334429407406
 20
617.3676096692238
 30
0.0
 11
1133.834429407406
 21
617.3676096692238
 31
0.0
  0
LINE
  5
2B7B
330
1F
100
AcDbEntity
  8
10
100
AcDbLine
 10
1126.334429407406
 20
652.367609669224
 30
0.0
 11
1123.834429407406
 21
652.367609669224
 31
0.0
  0
LINE
  5
2B7C
330
1F
100
AcDbEntity
  8
10
100
AcDbLine
 10
1116.334429407406
 20
652.367609669224
 30
0.0
 11
1113.834429407406
 21
652.367609669224
 31
0.0
  0
LINE
  5
2B7D
330
1F
100
AcDbEntity
  8
10
100
AcDbLine
 10
1121.334429407406
 20
652.367609669224
 30
0.0
 11
1118.834429407406
 21
652.367609669224
 31
0.0
  0
LINE
  5
2B7E
330
1F
100
AcDbEntity
  8
10
100
AcDbLine
 10
1131.334429407406
 20
652.367609669224
 30
0.0
 11
1128.834429407406
 21
652.367609669224
 31
0.0
  0
LINE
  5
2B7F
330
1F
100
AcDbEntity
  8
10
100
AcDbLine
 10
1136.334429407406
 20
652.367609669224
 30
0.0
 11
1133.834429407406
 21
652.367609669224
 31
0.0
  0
LINE
  5
2B80
330
1F
100
AcDbEntity
  8
10
100
AcDbLine
 10
1151.334429407406
 20
602.367609669224
 30
0.0
 11
1148.834429407406
 21
602.367609669224
 31
0.0
  0
LINE
  5
2B81
330
1F
100
AcDbEntity
  8
10
100
AcDbLine
 10
1151.334429407406
 20
617.3676096692238
 30
0.0
 11
1148.834429407406
 21
617.3676096692238
 31
0.0
  0
LINE
  5
2B82
330
1F
100
AcDbEntity
  8
10
100
AcDbLine
 10
1146.334429407406
 20
602.367609669224
 30
0.0
 11
1143.834429407406
 21
602.367609669224
 31
0.0
  0
LINE
  5
2B83
330
1F
100
AcDbEntity
  8
10
100
AcDbLine
 10
1141.334429407406
 20
602.367609669224
 30
0.0
 11
1138.834429407406
 21
602.367609669224
 31
0.0
  0
LINE
  5
2B84
330
1F
100
AcDbEntity
  8
10
100
AcDbLine
 10
1146.334429407406
 20
617.3676096692238
 30
0.0
 11
1143.834429407406
 21
617.3676096692238
 31
0.0
  0
LINE
  5
2B85
330
1F
100
AcDbEntity
  8
10
100
AcDbLine
 10
1141.334429407406
 20
617.3676096692238
 30
0.0
 11
1138.834429407406
 21
617.3676096692238
 31
0.0
  0
LINE
  5
2B86
330
1F
100
AcDbEntity
  8
10
100
AcDbLine
 10
1156.334429407406
 20
602.367609669224
 30
0.0
 11
1153.834429407406
 21
602.367609669224
 31
0.0
  0
LINE
  5
2B87
330
1F
100
AcDbEntity
  8
10
100
AcDbLine
 10
1161.334429407406
 20
602.367609669224
 30
0.0
 11
1158.834429407405
 21
602.367609669224
 31
0.0
  0
LINE
  5
2B88
330
1F
100
AcDbEntity
  8
10
100
AcDbLine
 10
1156.334429407406
 20
617.3676096692238
 30
0.0
 11
1153.834429407406
 21
617.3676096692238
 31
0.0
  0
LINE
  5
2B89
330
1F
100
AcDbEntity
  8
10
100
AcDbLine
 10
1161.334429407406
 20
617.3676096692238
 30
0.0
 11
1158.834429407405
 21
617.3676096692238
 31
0.0
  0
LINE
  5
2B8A
330
1F
100
AcDbEntity
  8
10
100
AcDbLine
 10
1151.334429407406
 20
652.367609669224
 30
0.0
 11
1148.834429407406
 21
652.367609669224
 31
0.0
  0
LINE
  5
2B8B
330
1F
100
AcDbEntity
  8
10
100
AcDbLine
 10
1146.334429407406
 20
652.367609669224
 30
0.0
 11
1143.834429407406
 21
652.367609669224
 31
0.0
  0
LINE
  5
2B8C
330
1F
100
AcDbEntity
  8
10
100
AcDbLine
 10
1141.334429407406
 20
652.367609669224
 30
0.0
 11
1138.834429407406
 21
652.367609669224
 31
0.0
  0
LINE
  5
2B8D
330
1F
100
AcDbEntity
  8
10
100
AcDbLine
 10
1156.334429407406
 20
652.367609669224
 30
0.0
 11
1153.834429407406
 21
652.367609669224
 31
0.0
  0
LINE
  5
2B8E
330
1F
100
AcDbEntity
  8
10
100
AcDbLine
 10
1161.334429407406
 20
652.367609669224
 30
0.0
 11
1158.834429407405
 21
652.367609669224
 31
0.0
  0
LINE
  5
2B8F
330
1F
100
AcDbEntity
  8
10
 48
3.0
100
AcDbLine
 10
1192.034429407405
 20
586.0676096692261
 30
0.0
 11
1192.034429407405
 21
561.0676096692261
 31
0.0
  0
LINE
  5
2B90
330
1F
100
AcDbEntity
  8
10
100
AcDbLine
 10
1174.584429407406
 20
607.3676096692262
 30
0.0
 11
1174.584429407406
 21
539.8676096692261
 31
0.0
  0
LINE
  5
2B91
330
1F
100
AcDbEntity
  8
10
100
AcDbLine
 10
1179.084429407406
 20
534.8676096692263
 30
0.0
 11
1198.607305224398
 21
534.8676096692263
 31
0.0
  0
LINE
  5
2B92
330
1F
100
AcDbEntity
  8
10
100
AcDbLine
 10
1173.084429407406
 20
534.8676096692261
 30
0.0
 11
1179.084429407406
 21
534.8676096692261
 31
0.0
  0
LINE
  5
2B93
330
1F
100
AcDbEntity
  8
10
100
AcDbLine
 10
1173.084429407406
 20
534.8676096692261
 30
0.0
 11
1173.084429407406
 21
539.8676096692261
 31
0.0
  0
LINE
  5
2B94
330
1F
100
AcDbEntity
  8
10
100
AcDbLine
 10
1170.084429407406
 20
539.8676096692261
 30
0.0
 11
1174.584429407406
 21
539.8676096692261
 31
0.0
  0
LINE
  5
2B95
330
1F
100
AcDbEntity
  8
10
100
AcDbLine
 10
1188.084429407405
 20
537.1676096692262
 30
0.0
 11
1179.084429407406
 21
537.1676096692262
 31
0.0
  0
LINE
  5
2B96
330
1F
100
AcDbEntity
  8
10
100
AcDbLine
 10
1165.084429407406
 20
607.3676096692262
 30
0.0
 11
1174.584429407406
 21
607.3676096692262
 31
0.0
  0
LINE
  5
2B97
330
1F
100
AcDbEntity
  8
10
100
AcDbLine
 10
1204.084429407406
 20
591.8676096692268
 30
0.0
 11
1204.084429407406
 21
641.8676096692268
 31
0.0
  0
LINE
  5
2B98
330
1F
100
AcDbEntity
  8
10
100
AcDbLine
 10
1126.334429407406
 20
667.3676096692238
 30
0.0
 11
1123.834429407406
 21
667.3676096692238
 31
0.0
  0
LINE
  5
2B99
330
1F
100
AcDbEntity
  8
10
100
AcDbLine
 10
1116.334429407406
 20
667.3676096692238
 30
0.0
 11
1113.834429407406
 21
667.3676096692238
 31
0.0
  0
LINE
  5
2B9A
330
1F
100
AcDbEntity
  8
10
100
AcDbLine
 10
1121.334429407406
 20
667.3676096692238
 30
0.0
 11
1118.834429407406
 21
667.3676096692238
 31
0.0
  0
LINE
  5
2B9B
330
1F
100
AcDbEntity
  8
10
100
AcDbLine
 10
1131.334429407406
 20
667.3676096692238
 30
0.0
 11
1128.834429407406
 21
667.3676096692238
 31
0.0
  0
LINE
  5
2B9C
330
1F
100
AcDbEntity
  8
10
100
AcDbLine
 10
1136.334429407406
 20
667.3676096692238
 30
0.0
 11
1133.834429407406
 21
667.3676096692238
 31
0.0
  0
LINE
  5
2B9D
330
1F
100
AcDbEntity
  8
10
100
AcDbLine
 10
1126.334429407406
 20
717.3676096692238
 30
0.0
 11
1123.834429407406
 21
717.3676096692238
 31
0.0
  0
LINE
  5
2B9E
330
1F
100
AcDbEntity
  8
10
100
AcDbLine
 10
1126.334429407406
 20
702.3676096692238
 30
0.0
 11
1123.834429407406
 21
702.3676096692238
 31
0.0
  0
LINE
  5
2B9F
330
1F
100
AcDbEntity
  8
10
100
AcDbLine
 10
1116.334429407406
 20
717.3676096692238
 30
0.0
 11
1113.834429407406
 21
717.3676096692238
 31
0.0
  0
LINE
  5
2BA0
330
1F
100
AcDbEntity
  8
10
100
AcDbLine
 10
1116.334429407406
 20
702.3676096692238
 30
0.0
 11
1113.834429407406
 21
702.3676096692238
 31
0.0
  0
LINE
  5
2BA1
330
1F
100
AcDbEntity
  8
10
100
AcDbLine
 10
1121.334429407406
 20
717.3676096692238
 30
0.0
 11
1118.834429407406
 21
717.3676096692238
 31
0.0
  0
LINE
  5
2BA2
330
1F
100
AcDbEntity
  8
10
100
AcDbLine
 10
1121.334429407406
 20
702.3676096692238
 30
0.0
 11
1118.834429407406
 21
702.3676096692238
 31
0.0
  0
LINE
  5
2BA3
330
1F
100
AcDbEntity
  8
10
100
AcDbLine
 10
1131.334429407406
 20
717.3676096692238
 30
0.0
 11
1128.834429407406
 21
717.3676096692238
 31
0.0
  0
LINE
  5
2BA4
330
1F
100
AcDbEntity
  8
10
100
AcDbLine
 10
1131.334429407406
 20
702.3676096692238
 30
0.0
 11
1128.834429407406
 21
702.3676096692238
 31
0.0
  0
LINE
  5
2BA5
330
1F
100
AcDbEntity
  8
10
100
AcDbLine
 10
1136.334429407406
 20
717.3676096692238
 30
0.0
 11
1133.834429407406
 21
717.3676096692238
 31
0.0
  0
LINE
  5
2BA6
330
1F
100
AcDbEntity
  8
10
100
AcDbLine
 10
1136.334429407406
 20
702.3676096692238
 30
0.0
 11
1133.834429407406
 21
702.3676096692238
 31
0.0
  0
LINE
  5
2BA7
330
1F
100
AcDbEntity
  8
10
100
AcDbLine
 10
1151.334429407406
 20
667.3676096692238
 30
0.0
 11
1148.834429407406
 21
667.3676096692238
 31
0.0
  0
LINE
  5
2BA8
330
1F
100
AcDbEntity
  8
10
100
AcDbLine
 10
1146.334429407406
 20
667.3676096692238
 30
0.0
 11
1143.834429407406
 21
667.3676096692238
 31
0.0
  0
LINE
  5
2BA9
330
1F
100
AcDbEntity
  8
10
100
AcDbLine
 10
1141.334429407406
 20
667.3676096692238
 30
0.0
 11
1138.834429407406
 21
667.3676096692238
 31
0.0
  0
LINE
  5
2BAA
330
1F
100
AcDbEntity
  8
10
100
AcDbLine
 10
1156.334429407406
 20
667.3676096692238
 30
0.0
 11
1153.834429407406
 21
667.3676096692238
 31
0.0
  0
LINE
  5
2BAB
330
1F
100
AcDbEntity
  8
10
100
AcDbLine
 10
1161.334429407406
 20
667.3676096692238
 30
0.0
 11
1158.834429407405
 21
667.3676096692238
 31
0.0
  0
LINE
  5
2BAC
330
1F
100
AcDbEntity
  8
10
100
AcDbLine
 10
1151.334429407406
 20
717.3676096692238
 30
0.0
 11
1148.834429407406
 21
717.3676096692238
 31
0.0
  0
LINE
  5
2BAD
330
1F
100
AcDbEntity
  8
10
100
AcDbLine
 10
1151.334429407406
 20
702.3676096692238
 30
0.0
 11
1148.834429407406
 21
702.3676096692238
 31
0.0
  0
LINE
  5
2BAE
330
1F
100
AcDbEntity
  8
10
100
AcDbLine
 10
1146.334429407406
 20
717.3676096692238
 30
0.0
 11
1143.834429407406
 21
717.3676096692238
 31
0.0
  0
LINE
  5
2BAF
330
1F
100
AcDbEntity
  8
10
100
AcDbLine
 10
1146.334429407406
 20
702.3676096692238
 30
0.0
 11
1143.834429407406
 21
702.3676096692238
 31
0.0
  0
LINE
  5
2BB0
330
1F
100
AcDbEntity
  8
10
100
AcDbLine
 10
1141.334429407406
 20
717.3676096692238
 30
0.0
 11
1138.834429407406
 21
717.3676096692238
 31
0.0
  0
LINE
  5
2BB1
330
1F
100
AcDbEntity
  8
10
100
AcDbLine
 10
1141.334429407406
 20
702.3676096692238
 30
0.0
 11
1138.834429407406
 21
702.3676096692238
 31
0.0
  0
LINE
  5
2BB2
330
1F
100
AcDbEntity
  8
10
100
AcDbLine
 10
1156.334429407406
 20
702.3676096692238
 30
0.0
 11
1153.834429407406
 21
702.3676096692238
 31
0.0
  0
LINE
  5
2BB3
330
1F
100
AcDbEntity
  8
10
100
AcDbLine
 10
1156.334429407406
 20
717.3676096692238
 30
0.0
 11
1153.834429407406
 21
717.3676096692238
 31
0.0
  0
LINE
  5
2BB4
330
1F
100
AcDbEntity
  8
10
100
AcDbLine
 10
1161.334429407406
 20
717.3676096692238
 30
0.0
 11
1158.834429407405
 21
717.3676096692238
 31
0.0
  0
LINE
  5
2BB5
330
1F
100
AcDbEntity
  8
10
100
AcDbLine
 10
1161.334429407406
 20
702.3676096692238
 30
0.0
 11
1158.834429407405
 21
702.3676096692238
 31
0.0
  0
LINE
  5
2BB6
330
1F
100
AcDbEntity
  8
10
100
AcDbLine
 10
1126.334429407406
 20
767.3676096692238
 30
0.0
 11
1123.834429407406
 21
767.3676096692238
 31
0.0
  0
LINE
  5
2BB7
330
1F
100
AcDbEntity
  8
10
100
AcDbLine
 10
1126.334429407406
 20
752.3676096692238
 30
0.0
 11
1123.834429407406
 21
752.3676096692238
 31
0.0
  0
LINE
  5
2BB8
330
1F
100
AcDbEntity
  8
10
100
AcDbLine
 10
1116.334429407406
 20
752.3676096692238
 30
0.0
 11
1113.834429407406
 21
752.3676096692238
 31
0.0
  0
LINE
  5
2BB9
330
1F
100
AcDbEntity
  8
10
100
AcDbLine
 10
1121.334429407406
 20
752.3676096692238
 30
0.0
 11
1118.834429407406
 21
752.3676096692238
 31
0.0
  0
LINE
  5
2BBA
330
1F
100
AcDbEntity
  8
10
100
AcDbLine
 10
1116.334429407406
 20
767.3676096692238
 30
0.0
 11
1113.834429407406
 21
767.3676096692238
 31
0.0
  0
LINE
  5
2BBB
330
1F
100
AcDbEntity
  8
10
100
AcDbLine
 10
1121.334429407406
 20
767.3676096692238
 30
0.0
 11
1118.834429407406
 21
767.3676096692238
 31
0.0
  0
LINE
  5
2BBC
330
1F
100
AcDbEntity
  8
10
100
AcDbLine
 10
1131.334429407406
 20
752.3676096692238
 30
0.0
 11
1128.834429407406
 21
752.3676096692238
 31
0.0
  0
LINE
  5
2BBD
330
1F
100
AcDbEntity
  8
10
100
AcDbLine
 10
1136.334429407406
 20
752.3676096692238
 30
0.0
 11
1133.834429407406
 21
752.3676096692238
 31
0.0
  0
LINE
  5
2BBE
330
1F
100
AcDbEntity
  8
10
100
AcDbLine
 10
1131.334429407406
 20
767.3676096692238
 30
0.0
 11
1128.834429407406
 21
767.3676096692238
 31
0.0
  0
LINE
  5
2BBF
330
1F
100
AcDbEntity
  8
10
100
AcDbLine
 10
1136.334429407406
 20
767.3676096692238
 30
0.0
 11
1133.834429407406
 21
767.3676096692238
 31
0.0
  0
ARC
  5
2BC0
330
1F
100
AcDbEntity
  8
10
100
AcDbCircle
 10
1125.084429407406
 20
798.6176096692212
 30
0.0
 40
1.250000000000004
100
AcDbArc
 50
0.0
 51
180.0
  0
ARC
  5
2BC1
330
1F
100
AcDbEntity
  8
10
100
AcDbCircle
 10
1115.084429407406
 20
798.6176096692212
 30
0.0
 40
1.24999999999999
100
AcDbArc
 50
0.0
 51
180.0
  0
ARC
  5
2BC2
330
1F
100
AcDbEntity
  8
10
100
AcDbCircle
 10
1120.084429407406
 20
798.6176096692212
 30
0.0
 40
1.250000000000004
100
AcDbArc
 50
0.0
 51
180.0
  0
ARC
  5
2BC3
330
1F
100
AcDbEntity
  8
10
100
AcDbCircle
 10
1130.084429407406
 20
798.6176096692212
 30
0.0
 40
1.24999999999999
100
AcDbArc
 50
0.0
 51
180.0
  0
ARC
  5
2BC4
330
1F
100
AcDbEntity
  8
10
100
AcDbCircle
 10
1135.084429407406
 20
798.6176096692212
 30
0.0
 40
1.250000000000004
100
AcDbArc
 50
0.0
 51
180.0
  0
LINE
  5
2BC5
330
1F
100
AcDbEntity
  8
10
100
AcDbLine
 10
1151.334429407406
 20
767.3676096692238
 30
0.0
 11
1148.834429407406
 21
767.3676096692238
 31
0.0
  0
LINE
  5
2BC6
330
1F
100
AcDbEntity
  8
10
100
AcDbLine
 10
1151.334429407406
 20
752.3676096692238
 30
0.0
 11
1148.834429407406
 21
752.3676096692238
 31
0.0
  0
LINE
  5
2BC7
330
1F
100
AcDbEntity
  8
10
100
AcDbLine
 10
1146.334429407406
 20
752.3676096692238
 30
0.0
 11
1143.834429407406
 21
752.3676096692238
 31
0.0
  0
LINE
  5
2BC8
330
1F
100
AcDbEntity
  8
10
100
AcDbLine
 10
1141.334429407406
 20
752.3676096692238
 30
0.0
 11
1138.834429407406
 21
752.3676096692238
 31
0.0
  0
LINE
  5
2BC9
330
1F
100
AcDbEntity
  8
10
100
AcDbLine
 10
1146.334429407406
 20
767.3676096692238
 30
0.0
 11
1143.834429407406
 21
767.3676096692238
 31
0.0
  0
LINE
  5
2BCA
330
1F
100
AcDbEntity
  8
10
100
AcDbLine
 10
1141.334429407406
 20
767.3676096692238
 30
0.0
 11
1138.834429407406
 21
767.3676096692238
 31
0.0
  0
LINE
  5
2BCB
330
1F
100
AcDbEntity
  8
10
100
AcDbLine
 10
1156.334429407406
 20
752.3676096692238
 30
0.0
 11
1153.834429407406
 21
752.3676096692238
 31
0.0
  0
LINE
  5
2BCC
330
1F
100
AcDbEntity
  8
10
100
AcDbLine
 10
1161.334429407406
 20
752.3676096692238
 30
0.0
 11
1158.834429407405
 21
752.3676096692238
 31
0.0
  0
LINE
  5
2BCD
330
1F
100
AcDbEntity
  8
10
100
AcDbLine
 10
1156.334429407406
 20
767.3676096692238
 30
0.0
 11
1153.834429407406
 21
767.3676096692238
 31
0.0
  0
LINE
  5
2BCE
330
1F
100
AcDbEntity
  8
10
100
AcDbLine
 10
1161.334429407406
 20
767.3676096692238
 30
0.0
 11
1158.834429407405
 21
767.3676096692238
 31
0.0
  0
ARC
  5
2BCF
330
1F
100
AcDbEntity
  8
10
100
AcDbCircle
 10
1150.084429407406
 20
798.6176096692212
 30
0.0
 40
1.250000000000004
100
AcDbArc
 50
0.0
 51
180.0
  0
ARC
  5
2BD0
330
1F
100
AcDbEntity
  8
10
100
AcDbCircle
 10
1145.084429407406
 20
798.6176096692212
 30
0.0
 40
1.250000000000004
100
AcDbArc
 50
0.0
 51
180.0
  0
ARC
  5
2BD1
330
1F
100
AcDbEntity
  8
10
100
AcDbCircle
 10
1140.084429407406
 20
798.6176096692212
 30
0.0
 40
1.24999999999999
100
AcDbArc
 50
0.0
 51
180.0
  0
ARC
  5
2BD2
330
1F
100
AcDbEntity
  8
10
100
AcDbCircle
 10
1155.084429407406
 20
798.6176096692212
 30
0.0
 40
1.250000000000004
100
AcDbArc
 50
0.0
 51
180.0
  0
ARC
  5
2BD3
330
1F
100
AcDbEntity
  8
10
100
AcDbCircle
 10
1160.084429407406
 20
798.6176096692212
 30
0.0
 40
1.249999999999975
100
AcDbArc
 50
0.0
 51
180.0
  0
LINE
  5
2BD4
330
1F
100
AcDbEntity
  8
10
100
AcDbLine
 10
1204.084429407406
 20
727.8676096692265
 30
0.0
 11
1204.084429407406
 21
777.8676096692266
 31
0.0
  0
LINE
  5
2BD5
330
1F
100
AcDbEntity
  8
10
100
AcDbLine
 10
1165.084429407406
 20
717.3676096692261
 30
0.0
 11
1174.584429407406
 21
717.3676096692261
 31
0.0
  0
LINE
  5
2BD6
330
1F
100
AcDbEntity
  8
10
100
AcDbLine
 10
1173.584429407406
 20
716.3676096692261
 30
0.0
 11
1173.584429407406
 21
717.3676096692261
 31
0.0
  0
LINE
  5
2BD7
330
1F
100
AcDbEntity
  8
10
100
AcDbLine
 10
1173.084429407406
 20
716.3676096692261
 30
0.0
 11
1173.584429407406
 21
716.3676096692261
 31
0.0
  0
LINE
  5
2BD8
330
1F
100
AcDbEntity
  8
10
100
AcDbLine
 10
1019.084429407405
 20
819.8676096692262
 30
0.0
 11
1145.084429407406
 21
819.8676096692262
 31
0.0
  0
LINE
  5
2BD9
330
1F
100
AcDbEntity
  8
10
100
AcDbLine
 10
1170.084429407406
 20
829.8676096692261
 30
0.0
 11
1145.084429407406
 21
819.8676096692262
 31
0.0
  0
LINE
  5
2BDA
330
1F
100
AcDbEntity
  8
10
100
AcDbLine
 10
1179.084429407406
 20
834.8676096692265
 30
0.0
 11
1198.607305224399
 21
834.8676096692265
 31
0.0
  0
LINE
  5
2BDB
330
1F
100
AcDbEntity
  8
10
100
AcDbLine
 10
1173.084429407406
 20
834.867609669226
 30
0.0
 11
1179.084429407406
 21
834.867609669226
 31
0.0
  0
LINE
  5
2BDC
330
1F
100
AcDbEntity
  8
10
100
AcDbLine
 10
1173.084429407406
 20
829.8676096692261
 30
0.0
 11
1173.084429407406
 21
834.867609669226
 31
0.0
  0
LINE
  5
2BDD
330
1F
100
AcDbEntity
  8
10
100
AcDbLine
 10
1170.084429407406
 20
829.8676096692261
 30
0.0
 11
1174.584429407406
 21
829.8676096692261
 31
0.0
  0
LINE
  5
2BDE
330
1F
100
AcDbEntity
  8
10
100
AcDbLine
 10
1188.084429407405
 20
832.5676096692268
 30
0.0
 11
1179.084429407406
 21
832.5676096692268
 31
0.0
  0
LINE
  5
2BDF
330
1F
100
AcDbEntity
  8
10
100
AcDbLine
 10
1298.084429407406
 20
521.8676096692266
 30
0.0
 11
1298.084429407404
 21
847.8676096692263
 31
0.0
  0
ARC
  5
2BE0
330
1F
100
AcDbEntity
  8
10
100
AcDbCircle
 10
1248.084429407406
 20
641.8676096692268
 30
0.0
 40
20.0
100
AcDbArc
 50
0.0
 51
90.0
  0
ARC
  5
2BE1
330
1F
100
AcDbEntity
  8
10
100
AcDbCircle
 10
1248.084429407406
 20
591.8676096692268
 30
0.0
 40
19.99999999999999
100
AcDbArc
 50
270.0
 51
0.0
  0
LINE
  5
2BE2
330
1F
100
AcDbEntity
  8
10
100
AcDbLine
 10
1261.324751964271
 20
521.8676096692261
 30
0.0
 11
1299.084429407406
 21
521.8676096692266
 31
0.0
  0
LINE
  5
2BE3
330
1F
100
AcDbEntity
  8
10
100
AcDbLine
 10
1224.084429407406
 20
571.8676096692267
 30
0.0
 11
1248.084429407406
 21
571.8676096692267
 31
0.0
  0
ARC
  5
2BE4
330
1F
100
AcDbEntity
  8
10
100
AcDbCircle
 10
1261.324751964269
 20
551.8676096692261
 30
0.0
 40
29.99999999999989
100
AcDbArc
 50
257.6706772445235
 51
270.0
  0
LINE
  5
2BE6
330
1F
100
AcDbEntity
  8
10
100
AcDbLine
 10
1224.084429407406
 20
661.8676096692268
 30
0.0
 11
1248.084429407406
 21
661.8676096692268
 31
0.0
  0
LINE
  5
2BE7
330
1F
100
AcDbEntity
  8
10
 48
3.0
100
AcDbLine
 10
1284.034429407405
 20
586.0676096692261
 30
0.0
 11
1284.034429407405
 21
561.0676096692261
 31
0.0
  0
LINE
  5
2BE8
330
1F
100
AcDbEntity
  8
10
100
AcDbLine
 10
1299.084429407406
 20
537.1676096692262
 30
0.0
 11
1299.084429407406
 21
519.8676096692265
 31
0.0
  0
LINE
  5
2BE9
330
1F
100
AcDbEntity
  8
10
100
AcDbLine
 10
1296.784429407407
 20
519.8676096692265
 30
0.0
 11
1299.084429407406
 21
519.8676096692265
 31
0.0
  0
LINE
  5
2BEA
330
1F
100
AcDbEntity
  8
10
100
AcDbLine
 10
1296.784429407407
 20
521.8676096692266
 30
0.0
 11
1296.784429407407
 21
519.8676096692265
 31
0.0
  0
LINE
  5
2BEB
330
1F
100
AcDbEntity
  8
10
100
AcDbLine
 10
1298.084429407406
 20
537.1676096692262
 30
0.0
 11
1299.084429407406
 21
537.1676096692262
 31
0.0
  0
LINE
  5
2BEC
330
1F
100
AcDbEntity
  8
10
100
AcDbLine
 10
1268.084429407406
 20
591.8676096692268
 30
0.0
 11
1268.084429407406
 21
641.8676096692268
 31
0.0
  0
ARC
  5
2BED
330
1F
100
AcDbEntity
  8
10
100
AcDbCircle
 10
1248.084429407406
 20
727.8676096692265
 30
0.0
 40
20.0
100
AcDbArc
 50
270.0
 51
0.0
  0
ARC
  5
2BEE
330
1F
100
AcDbEntity
  8
10
100
AcDbCircle
 10
1248.084429407406
 20
777.8676096692266
 30
0.0
 40
20.0
100
AcDbArc
 50
0.0
 51
90.0
  0
LINE
  5
2BEF
330
1F
100
AcDbEntity
  8
10
100
AcDbLine
 10
1224.084429407406
 20
707.8676096692265
 30
0.0
 11
1248.084429407406
 21
707.8676096692265
 31
0.0
  0
LINE
  5
2BF0
330
1F
100
AcDbEntity
  8
10
100
AcDbLine
 10
1224.084429407406
 20
797.8676096692265
 30
0.0
 11
1248.084429407406
 21
797.8676096692265
 31
0.0
  0
LINE
  5
2BF1
330
1F
100
AcDbEntity
  8
10
100
AcDbLine
 10
1268.084429407406
 20
727.8676096692265
 30
0.0
 11
1268.084429407406
 21
777.8676096692266
 31
0.0
  0
LINE
  5
2BF2
330
1F
100
AcDbEntity
  8
10
100
AcDbLine
 10
1261.324751964271
 20
847.8676096692263
 30
0.0
 11
1299.084429407406
 21
847.8676096692263
 31
0.0
  0
ARC
  5
2BF3
330
1F
100
AcDbEntity
  8
10
100
AcDbCircle
 10
1261.324751964271
 20
817.8676096692267
 30
0.0
 40
30.00000000000001
100
AcDbArc
 50
90.0
 51
102.3293227554763
  0
LINE
  5
2BF5
330
1F
100
AcDbEntity
  8
10
100
AcDbLine
 10
1299.084429407406
 20
832.5676096692268
 30
0.0
 11
1299.084429407406
 21
849.8676096692262
 31
0.0
  0
LINE
  5
2BF6
330
1F
100
AcDbEntity
  8
10
100
AcDbLine
 10
1298.084429407406
 20
832.5676096692268
 30
0.0
 11
1299.084429407406
 21
832.5676096692268
 31
0.0
  0
LINE
  5
2BF7
330
1F
100
AcDbEntity
  8
10
100
AcDbLine
 10
1296.784429407407
 20
849.8676096692262
 30
0.0
 11
1299.084429407406
 21
849.8676096692262
 31
0.0
  0
LINE
  5
2BF8
330
1F
100
AcDbEntity
  8
10
100
AcDbLine
 10
1296.784429407407
 20
847.8676096692263
 30
0.0
 11
1296.784429407407
 21
849.8676096692262
 31
0.0
  0
CIRCLE
  5
2DF0
330
1F
100
AcDbEntity
  8
10
  6
Continuous
100
AcDbCircle
 10
662.0844294074068
 20
824.8676096692262
 30
0.0
 40
3.500000000000166
  0
CIRCLE
  5
2DF1
330
1F
100
AcDbEntity
  8
10
  6
Continuous
100
AcDbCircle
 10
662.0844294074068
 20
824.8676096692262
 30
0.0
 40
4.00000000000019
  0
LINE
  5
2DF2
330
1F
100
AcDbEntity
  8
10
  6
Continuous
100
AcDbLine
 10
660.6702158450336
 20
826.2818232315995
 30
0.0
 11
663.4986429697797
 21
823.4533961068532
 31
0.0
  0
LINE
  5
2DF3
330
1F
100
AcDbEntity
  8
10
  6
Continuous
100
AcDbLine
 10
663.4986429697797
 20
826.2818232315995
 30
0.0
 11
660.6702158450336
 21
823.4533961068532
 31
0.0
  0
CIRCLE
  5
2DF4
330
1F
100
AcDbEntity
  8
10
  6
Continuous
100
AcDbCircle
 10
714.0844294074065
 20
824.8676096692262
 30
0.0
 40
4.500000000000214
  0
CIRCLE
  5
2DF5
330
1F
100
AcDbEntity
  8
10
  6
Continuous
100
AcDbCircle
 10
714.0844294074065
 20
824.8676096692262
 30
0.0
 40
5.000000000000238
  0
LINE
  5
2DF6
330
1F
100
AcDbEntity
  8
10
  6
Continuous
100
AcDbLine
 10
712.3166624544403
 20
826.6353766221927
 30
0.0
 11
715.8521963603731
 21
823.0998427162599
 31
0.0
  0
LINE
  5
2DF7
330
1F
100
AcDbEntity
  8
10
  6
Continuous
100
AcDbLine
 10
715.8521963603731
 20
826.6353766221927
 30
0.0
 11
712.3166624544403
 21
823.0998427162599
 31
0.0
  0
CIRCLE
  5
2DF8
330
1F
100
AcDbEntity
  8
10
  6
Continuous
100
AcDbCircle
 10
766.0844294074069
 20
824.8676096692262
 30
0.0
 40
3.500000000000166
  0
CIRCLE
  5
2DF9
330
1F
100
AcDbEntity
  8
10
  6
Continuous
100
AcDbCircle
 10
766.0844294074069
 20
824.8676096692262
 30
0.0
 40
4.00000000000019
  0
LINE
  5
2DFA
330
1F
100
AcDbEntity
  8
10
  6
Continuous
100
AcDbLine
 10
764.6702158450335
 20
826.2818232315995
 30
0.0
 11
767.4986429697801
 21
823.4533961068532
 31
0.0
  0
LINE
  5
2DFB
330
1F
100
AcDbEntity
  8
10
  6
Continuous
100
AcDbLine
 10
767.4986429697801
 20
826.2818232315995
 30
0.0
 11
764.6702158450335
 21
823.4533961068532
 31
0.0
  0
CIRCLE
  5
2DFC
330
1F
100
AcDbEntity
  8
10
  6
Continuous
100
AcDbCircle
 10
662.0844294074068
 20
544.8676096692265
 30
0.0
 40
3.500000000000166
  0
CIRCLE
  5
2DFD
330
1F
100
AcDbEntity
  8
10
  6
Continuous
100
AcDbCircle
 10
662.0844294074068
 20
544.8676096692265
 30
0.0
 40
4.00000000000019
  0
LINE
  5
2DFE
330
1F
100
AcDbEntity
  8
10
  6
Continuous
100
AcDbLine
 10
660.6702158450336
 20
546.2818232315997
 30
0.0
 11
663.4986429697797
 21
543.4533961068535
 31
0.0
  0
LINE
  5
2DFF
330
1F
100
AcDbEntity
  8
10
  6
Continuous
100
AcDbLine
 10
663.4986429697797
 20
546.2818232315997
 30
0.0
 11
660.6702158450336
 21
543.4533961068535
 31
0.0
  0
CIRCLE
  5
2E00
330
1F
100
AcDbEntity
  8
10
  6
Continuous
100
AcDbCircle
 10
714.0844294074065
 20
544.8676096692265
 30
0.0
 40
4.500000000000214
  0
CIRCLE
  5
2E01
330
1F
100
AcDbEntity
  8
10
  6
Continuous
100
AcDbCircle
 10
714.0844294074065
 20
544.8676096692265
 30
0.0
 40
5.000000000000238
  0
LINE
  5
2E02
330
1F
100
AcDbEntity
  8
10
  6
Continuous
100
AcDbLine
 10
712.3166624544403
 20
546.635376622193
 30
0.0
 11
715.8521963603731
 21
543.0998427162601
 31
0.0
  0
LINE
  5
2E03
330
1F
100
AcDbEntity
  8
10
  6
Continuous
100
AcDbLine
 10
715.8521963603731
 20
546.635376622193
 30
0.0
 11
712.3166624544403
 21
543.0998427162601
 31
0.0
  0
CIRCLE
  5
2E04
330
1F
100
AcDbEntity
  8
10
  6
Continuous
100
AcDbCircle
 10
741.0844294074069
 20
541.8676096692263
 30
0.0
 40
4.500000000000214
  0
CIRCLE
  5
2E05
330
1F
100
AcDbEntity
  8
10
  6
Continuous
100
AcDbCircle
 10
741.0844294074069
 20
541.8676096692263
 30
0.0
 40
5.000000000000238
  0
LINE
  5
2E06
330
1F
100
AcDbEntity
  8
10
  6
Continuous
100
AcDbLine
 10
739.3166624544403
 20
543.6353766221929
 30
0.0
 11
742.8521963603732
 21
540.0998427162598
 31
0.0
  0
LINE
  5
2E07
330
1F
100
AcDbEntity
  8
10
  6
Continuous
100
AcDbLine
 10
742.8521963603732
 20
543.6353766221929
 30
0.0
 11
739.3166624544403
 21
540.0998427162598
 31
0.0
  0
CIRCLE
  5
2E08
330
1F
100
AcDbEntity
  8
10
  6
Continuous
100
AcDbCircle
 10
754.0844294074068
 20
541.8676096692263
 30
0.0
 40
4.500000000000214
  0
CIRCLE
  5
2E09
330
1F
100
AcDbEntity
  8
10
  6
Continuous
100
AcDbCircle
 10
754.0844294074068
 20
541.8676096692263
 30
0.0
 40
5.000000000000238
  0
LINE
  5
2E0A
330
1F
100
AcDbEntity
  8
10
  6
Continuous
100
AcDbLine
 10
752.3166624544403
 20
543.6353766221929
 30
0.0
 11
755.8521963603729
 21
540.0998427162598
 31
0.0
  0
LINE
  5
2E0B
330
1F
100
AcDbEntity
  8
10
  6
Continuous
100
AcDbLine
 10
755.8521963603729
 20
543.6353766221929
 30
0.0
 11
752.3166624544403
 21
540.0998427162598
 31
0.0
  0
CIRCLE
  5
2E0C
330
1F
100
AcDbEntity
  8
10
  6
Continuous
100
AcDbCircle
 10
766.0844294074069
 20
544.8676096692265
 30
0.0
 40
3.500000000000166
  0
CIRCLE
  5
2E0D
330
1F
100
AcDbEntity
  8
10
  6
Continuous
100
AcDbCircle
 10
766.0844294074069
 20
544.8676096692265
 30
0.0
 40
4.00000000000019
  0
LINE
  5
2E0E
330
1F
100
AcDbEntity
  8
10
  6
Continuous
100
AcDbLine
 10
764.6702158450335
 20
546.2818232315997
 30
0.0
 11
767.4986429697801
 21
543.4533961068535
 31
0.0
  0
LINE
  5
2E0F
330
1F
100
AcDbEntity
  8
10
  6
Continuous
100
AcDbLine
 10
767.4986429697801
 20
546.2818232315997
 30
0.0
 11
764.6702158450335
 21
543.4533961068535
 31
0.0
  0
LWPOLYLINE
  5
2E1C
330
1F
100
AcDbEntity
  8
18
100
AcDbPolyline
 90
        4
 70
     1
 43
0.0
 10
599.0844294074068
 20
949.8676096692262
 10
829.0844294074066
 20
949.8676096692262
 10
829.0844294074066
 20
419.8676096692265
 10
599.0844294074068
 20
419.8676096692265
  0
LINE
  5
2E1D
330
1F
100
AcDbEntity
  8
16
100
AcDbLine
 10
714.0844294074064
 20
878.5553894023994
 30
0.0
 11
714.0844294074064
 21
491.6436577584124
 31
0.0
  0
LWPOLYLINE
  5
2E28
330
1F
100
AcDbEntity
  8
18
100
AcDbPolyline
 90
        4
 70
     1
 43
0.0
 10
1299.084429407406
 20
949.8676096692262
 10
929.0844294074066
 20
949.8676096692262
 10
929.0844294074066
 20
419.8676096692265
 10
1299.084429407406
 20
419.8676096692265
  0
VIEWPORT
  5
1A9E
330
1B
100
AcDbEntity
 67
     1
  8
0
100
AcDbViewport
 10
5.249999639556162
 20
3.999999883606676
 30
0.0
 40
13.61503641713194
 41
8.992999745766947
 68
     1
 69
     1
 12
5.249999639556162
 22
3.999999883606676
 13
0.0
 23
0.0
 14
10.0
 24
10.0
 15
10.0
 25
10.0
 16
0.0
 26
0.0
 36
1.0
 17
0.0
 27
0.0
 37
0.0
 42
50.0
 43
0.0
 44
0.0
 45
8.992999745766947
 50
0.0
 51
0.0
 72
   100
 90
    32800
  1

281
     0
 71
     1
 74
     0
110
0.0
120
0.0
130
0.0
111
1.0
121
0.0
131
0.0
112
0.0
122
1.0
132
0.0
 79
     0
146
0.0
  0
VIEWPORT
  5
1AA0
330
1B
100
AcDbEntity
 67
     1
  8
0
100
AcDbViewport
 10
5.24999976158142
 20
3.999999761581419
 30
0.0
 40
8.399999618530271
 41
6.399999618530272
 68
     2
 69
     2
 12
-1363.137645193887
 22
-311.7485573738788
 13
0.0
 23
0.0
 14
10.0
 24
10.0
 15
10.0
 25
10.0
 16
0.0
 26
0.0
 36
1.0
 17
0.0
 27
0.0
 37
0.0
 42
50.0
 43
0.0
 44
0.0
 45
467.9695885509838
 50
0.0
 51
0.0
 72
   100
 90
    32864
  1

281
     0
 71
     1
 74
     0
110
0.0
120
0.0
130
0.0
111
1.0
121
0.0
131
0.0
112
0.0
122
1.0
132
0.0
 79
     0
146
0.0
  0
ENDSEC
  0
SECTION
  2
OBJECTS
  0
DICTIONARY
  5
C
330
0
100
AcDbDictionary
281
     1
  3
ACAD_GROUP
350
D
  3
ACAD_LAYOUT
350
1A
  3
ACAD_MLINESTYLE
350
17
  3
ACAD_PLOTSETTINGS
350
19
  3
ACAD_PLOTSTYLENAME
350
47
  3
AcDbVariableDictionary
350
191F
1001
ACAD
1000
TREAT_AS_HARD
1070
     0
  0
DICTIONARY
  5
41
330
1F
100
AcDbDictionary
280
     1
281
     1
  3
ACAD_LAYOUTSELFREF
360
1B2E
  0
DICTIONARY
  5
3F
330
1B
100
AcDbDictionary
280
     1
281
     1
  3
ACAD_LAYOUTSELFREF
360
1B2D
  0
DICTIONARY
  5
D
102
{ACAD_REACTORS
330
C
102
}
330
C
100
AcDbDictionary
281
     1
1001
ACAD
1000
TREAT_AS_HARD
1070
     0
  0
DICTIONARY
  5
1A
102
{ACAD_REACTORS
330
C
102
}
330
C
100
AcDbDictionary
281
     1
  3
Model
350
49
  3
ﾚｲｱｳﾄ1
350
4A
1001
ACAD
1000
TREAT_AS_HARD
1070
     0
  0
DICTIONARY
  5
17
102
{ACAD_REACTORS
330
C
102
}
330
C
100
AcDbDictionary
281
     1
  3
STANDARD
350
18
1001
ACAD
1000
TREAT_AS_HARD
1070
     0
  0
DICTIONARY
  5
19
102
{ACAD_REACTORS
330
C
102
}
330
C
100
AcDbDictionary
281
     1
1001
ACAD
1000
TREAT_AS_HARD
1070
     0
  0
ACDBDICTIONARYWDFLT
  5
47
102
{ACAD_REACTORS
330
C
102
}
330
C
100
AcDbDictionary
281
     1
  3
Normal
350
48
100
AcDbDictionaryWithDefault
340
48
  0
DICTIONARY
  5
191F
102
{ACAD_REACTORS
330
C
102
}
330
C
100
AcDbDictionary
281
     1
  3
DIMASSOC
350
1920
  0
XRECORD
  5
1B2E
102
{ACAD_REACTORS
330
41
102
}
330
41
100
AcDbXrecord
280
     1
340
1F
  0
XRECORD
  5
1B2D
102
{ACAD_REACTORS
330
3F
102
}
330
3F
100
AcDbXrecord
280
     1
340
1B
  0
LAYOUT
  5
49
102
{ACAD_REACTORS
330
1A
102
}
330
1A
100
AcDbPlotSettings
  1

  2
EPSON LP-9200PS2
  4

  6

 40
0.0
 41
0.0
 42
0.0
 43
0.0
 44
0.0
 45
0.0
 46
0.0
 47
0.0
 48
0.0
 49
0.0
140
0.0
141
0.0
142
1.0
143
1.0
 70
  1712
 72
     0
 73
     0
 74
     0
  7

 75
     0
147
1.0
148
0.0
149
0.0
100
AcDbLayout
  1
Model
 70
     1
 71
     0
 10
0.0
 20
0.0
 11
12.0
 21
9.0
 12
0.0
 22
0.0
 32
0.0
 14
0.0
 24
0.0
 34
0.0
 15
0.0
 25
0.0
 35
0.0
146
0.0
 13
0.0
 23
0.0
 33
0.0
 16
1.0
 26
0.0
 36
0.0
 17
0.0
 27
1.0
 37
0.0
 76
     0
330
1F
  0
LAYOUT
  5
4A
102
{ACAD_REACTORS
330
1A
102
}
330
1A
100
AcDbPlotSettings
  1

  2
none_device
  4
Letter_(8.50_x_11.00_Inches)
  6

 40
6.349999904632567
 41
6.349999904632567
 42
6.350006103515625
 43
6.350006103515625
 44
215.8999938964842
 45
279.3999938964843
 46
0.0
 47
0.0
 48
0.0
 49
0.0
140
0.0
141
0.0
142
1.0
143
1.0
 70
   688
 72
     0
 73
     1
 74
     5
  7

 75
    16
147
1.0
148
0.0
149
0.0
100
AcDbLayout
  1
ﾚｲｱｳﾄ1
 70
     1
 71
     1
 10
-0.2500002402958907
 20
-0.2499999962453767
 11
10.74999951940821
 21
8.249999763458731
 12
0.0
 22
0.0
 32
0.0
 14
1.049999952316283
 24
0.7999999523162842
 34
0.0
 15
9.449999570846555
 25
7.199999570846556
 35
0.0
146
0.0
 13
0.0
 23
0.0
 33
0.0
 16
1.0
 26
0.0
 36
0.0
 17
0.0
 27
1.0
 37
0.0
 76
     0
330
1B
331
1A9E
  0
MLINESTYLE
  5
18
102
{ACAD_REACTORS
330
17
102
}
330
17
100
AcDbMlineStyle
  2
STANDARD
 70
     0
  3

 62
   256
 51
90.0
 52
90.0
 71
     2
 49
0.5
 62
   256
  6
BYLAYER
 49
-0.5
 62
   256
  6
BYLAYER
  0
ACDBPLACEHOLDER
  5
48
102
{ACAD_REACTORS
330
47
102
}
330
47
  0
DICTIONARYVAR
  5
1920
102
{ACAD_REACTORS
330
191F
102
}
330
191F
100
DictionaryVariables
280
     0
  1
1
  0
ENDSEC
  0
EOF
