  0
SECTION
  2
HEADER
  9
$ACADVER
  1
AC1015
  9
$ACADMAINTVER
 70
    10
  9
$DWGCODEPAGE
  3
ANSI_932
  9
$INSBASE
 10
0.0
 20
0.0
 30
0.0
  9
$EXTMIN
 10
1090.683150630572
 20
520.45230950269
 30
0.0
  9
$EXTMAX
 10
1943.915518907699
 20
1020.452309502689
 30
0.0
  9
$LIMMIN
 10
0.0
 20
0.0
  9
$LIMMAX
 10
420.0
 20
297.0
  9
$ORTHOMODE
 70
     1
  9
$REGENMODE
 70
     1
  9
$FILLMODE
 70
     1
  9
$QTEXTMODE
 70
     0
  9
$MIRRTEXT
 70
     1
  9
$LTSCALE
 40
1.0
  9
$ATTMODE
 70
     1
  9
$TEXTSIZE
 40
2.5
  9
$TRACEWID
 40
1.0
  9
$TEXTSTYLE
  7
STANDARD
  9
$CLAYER
  8
0
  9
$CELTYPE
  6
BYLAYER
  9
$CECOLOR
 62
   256
  9
$CELTSCALE
 40
1.0
  9
$DISPSILH
 70
     0
  9
$DIMSCALE
 40
1.0
  9
$DIMASZ
 40
2.5
  9
$DIMEXO
 40
0.625
  9
$DIMDLI
 40
3.75
  9
$DIMRND
 40
0.0
  9
$DIMDLE
 40
0.0
  9
$DIMEXE
 40
1.25
  9
$DIMTP
 40
0.0
  9
$DIMTM
 40
0.0
  9
$DIMTXT
 40
2.5
  9
$DIMCEN
 40
2.5
  9
$DIMTSZ
 40
0.0
  9
$DIMTOL
 70
     0
  9
$DIMLIM
 70
     0
  9
$DIMTIH
 70
     0
  9
$DIMTOH
 70
     0
  9
$DIMSE1
 70
     0
  9
$DIMSE2
 70
     0
  9
$DIMTAD
 70
     1
  9
$DIMZIN
 70
     8
  9
$DIMBLK
  1

  9
$DIMASO
 70
     1
  9
$DIMSHO
 70
     1
  9
$DIMPOST
  1

  9
$DIMAPOST
  1

  9
$DIMALT
 70
     0
  9
$DIMALTD
 70
     3
  9
$DIMALTF
 40
0.03937007874016
  9
$DIMLFAC
 40
1.0
  9
$DIMTOFL
 70
     1
  9
$DIMTVP
 40
0.0
  9
$DIMTIX
 70
     0
  9
$DIMSOXD
 70
     0
  9
$DIMSAH
 70
     0
  9
$DIMBLK1
  1

  9
$DIMBLK2
  1

  9
$DIMSTYLE
  2
ISO-25
  9
$DIMCLRD
 70
     0
  9
$DIMCLRE
 70
     0
  9
$DIMCLRT
 70
     0
  9
$DIMTFAC
 40
1.0
  9
$DIMGAP
 40
0.625
  9
$DIMJUST
 70
     0
  9
$DIMSD1
 70
     0
  9
$DIMSD2
 70
     0
  9
$DIMTOLJ
 70
     0
  9
$DIMTZIN
 70
     8
  9
$DIMALTZ
 70
     0
  9
$DIMALTTZ
 70
     0
  9
$DIMUPT
 70
     0
  9
$DIMDEC
 70
     2
  9
$DIMTDEC
 70
     2
  9
$DIMALTU
 70
     2
  9
$DIMALTTD
 70
     3
  9
$DIMTXSTY
  7
STANDARD
  9
$DIMAUNIT
 70
     0
  9
$DIMADEC
 70
     0
  9
$DIMALTRND
 40
0.0
  9
$DIMAZIN
 70
     0
  9
$DIMDSEP
 70
    46
  9
$DIMATFIT
 70
     3
  9
$DIMFRAC
 70
     0
  9
$DIMLDRBLK
  1

  9
$DIMLUNIT
 70
     2
  9
$DIMLWD
 70
    -2
  9
$DIMLWE
 70
    -2
  9
$DIMTMOVE
 70
     0
  9
$LUNITS
 70
     2
  9
$LUPREC
 70
     4
  9
$SKETCHINC
 40
1.0
  9
$FILLETRAD
 40
10.0
  9
$AUNITS
 70
     0
  9
$AUPREC
 70
     0
  9
$MENU
  1
.
  9
$ELEVATION
 40
0.0
  9
$PELEVATION
 40
0.0
  9
$THICKNESS
 40
0.0
  9
$LIMCHECK
 70
     0
  9
$CHAMFERA
 40
10.0
  9
$CHAMFERB
 40
10.0
  9
$CHAMFERC
 40
20.0
  9
$CHAMFERD
 40
0.0
  9
$SKPOLY
 70
     0
  9
$TDCREATE
 40
2453312.371317361
  9
$TDUCREATE
 40
2453311.996317361
  9
$TDUPDATE
 40
2454637.668260729
  9
$TDUUPDATE
 40
2454637.293260728
  9
$TDINDWG
 40
0.0598093866
  9
$TDUSRTIMER
 40
0.0598090856
  9
$USRTIMER
 70
     1
  9
$ANGBASE
 50
0.0
  9
$ANGDIR
 70
     0
  9
$PDMODE
 70
    34
  9
$PDSIZE
 40
0.0
  9
$PLINEWID
 40
0.0
  9
$SPLFRAME
 70
     0
  9
$SPLINETYPE
 70
     6
  9
$SPLINESEGS
 70
     8
  9
$HANDSEED
  5
257D
  9
$SURFTAB1
 70
     6
  9
$SURFTAB2
 70
     6
  9
$SURFTYPE
 70
     6
  9
$SURFU
 70
     6
  9
$SURFV
 70
     6
  9
$UCSBASE
  2

  9
$UCSNAME
  2

  9
$UCSORG
 10
0.0
 20
0.0
 30
0.0
  9
$UCSXDIR
 10
1.0
 20
0.0
 30
0.0
  9
$UCSYDIR
 10
0.0
 20
1.0
 30
0.0
  9
$UCSORTHOREF
  2

  9
$UCSORTHOVIEW
 70
     0
  9
$UCSORGTOP
 10
0.0
 20
0.0
 30
0.0
  9
$UCSORGBOTTOM
 10
0.0
 20
0.0
 30
0.0
  9
$UCSORGLEFT
 10
0.0
 20
0.0
 30
0.0
  9
$UCSORGRIGHT
 10
0.0
 20
0.0
 30
0.0
  9
$UCSORGFRONT
 10
0.0
 20
0.0
 30
0.0
  9
$UCSORGBACK
 10
0.0
 20
0.0
 30
0.0
  9
$PUCSBASE
  2

  9
$PUCSNAME
  2

  9
$PUCSORG
 10
0.0
 20
0.0
 30
0.0
  9
$PUCSXDIR
 10
1.0
 20
0.0
 30
0.0
  9
$PUCSYDIR
 10
0.0
 20
1.0
 30
0.0
  9
$PUCSORTHOREF
  2

  9
$PUCSORTHOVIEW
 70
     0
  9
$PUCSORGTOP
 10
0.0
 20
0.0
 30
0.0
  9
$PUCSORGBOTTOM
 10
0.0
 20
0.0
 30
0.0
  9
$PUCSORGLEFT
 10
0.0
 20
0.0
 30
0.0
  9
$PUCSORGRIGHT
 10
0.0
 20
0.0
 30
0.0
  9
$PUCSORGFRONT
 10
0.0
 20
0.0
 30
0.0
  9
$PUCSORGBACK
 10
0.0
 20
0.0
 30
0.0
  9
$USERI1
 70
     0
  9
$USERI2
 70
     0
  9
$USERI3
 70
     0
  9
$USERI4
 70
     0
  9
$USERI5
 70
     0
  9
$USERR1
 40
0.0
  9
$USERR2
 40
0.0
  9
$USERR3
 40
0.0
  9
$USERR4
 40
0.0
  9
$USERR5
 40
0.0
  9
$WORLDVIEW
 70
     1
  9
$SHADEDGE
 70
     3
  9
$SHADEDIF
 70
    70
  9
$TILEMODE
 70
     1
  9
$MAXACTVP
 70
    48
  9
$PINSBASE
 10
0.0
 20
0.0
 30
0.0
  9
$PLIMCHECK
 70
     0
  9
$PEXTMIN
 10
1.049999952316283
 20
0.7999999523162842
 30
0.0
  9
$PEXTMAX
 10
9.449999570846555
 20
7.199999570846556
 30
0.0
  9
$PLIMMIN
 10
-0.2500002402958907
 20
-0.2499999962453767
  9
$PLIMMAX
 10
10.74999951940821
 20
8.249999763458731
  9
$UNITMODE
 70
     0
  9
$VISRETAIN
 70
     1
  9
$PLINEGEN
 70
     0
  9
$PSLTSCALE
 70
     1
  9
$TREEDEPTH
 70
  3020
  9
$CMLSTYLE
  2
STANDARD
  9
$CMLJUST
 70
     0
  9
$CMLSCALE
 40
20.0
  9
$PROXYGRAPHICS
 70
     1
  9
$MEASUREMENT
 70
     0
  9
$CELWEIGHT
370
    -1
  9
$ENDCAPS
280
     0
  9
$JOINSTYLE
280
     0
  9
$LWDISPLAY
290
     0
  9
$INSUNITS
 70
     0
  9
$HYPERLINKBASE
  1

  9
$STYLESHEET
  1

  9
$XEDIT
290
     1
  9
$CEPSNTYPE
380
     0
  9
$PSTYLEMODE
290
     1
  9
$FINGERPRINTGUID
  2
{C8342AD0-ADE8-45AD-AC00-933185DE4E38}
  9
$VERSIONGUID
  2
{3EB3245B-CB23-412C-964D-7189F8C234CB}
  9
$EXTNAMES
290
     1
  9
$PSVPSCALE
 40
0.0
  9
$OLESTARTUP
290
     0
  0
ENDSEC
  0
SECTION
  2
CLASSES
  0
CLASS
  1
ACDBDICTIONARYWDFLT
  2
AcDbDictionaryWithDefault
  3
AutoCAD 2000
 90
        0
280
     0
281
     0
  0
CLASS
  1
ACDBPLACEHOLDER
  2
AcDbPlaceHolder
  3
AutoCAD 2000
 90
        0
280
     0
281
     0
  0
CLASS
  1
LAYOUT
  2
AcDbLayout
  3
AutoCAD 2000
 90
        0
280
     0
281
     0
  0
CLASS
  1
LONG_TRANSACTION
  2
AcDbLongTransaction
  3
AutoCAD 2000
 90
    32768
280
     0
281
     0
  0
CLASS
  1
LWPOLYLINE
  2
AcDbPolyline
  3
AutoCAD 2000
 90
    32768
280
     0
281
     1
  0
CLASS
  1
HATCH
  2
AcDbHatch
  3
AutoCAD 2000
 90
    32768
280
     0
281
     1
  0
CLASS
  1
XRECORD
  2
AcDbXrecord
  3
AutoCAD 2000
 90
    32768
280
     0
281
     0
  0
CLASS
  1
DICTIONARYVAR
  2
AcDbDictionaryVar
  3
AutoCAD 2000
 90
        0
280
     0
281
     0
  0
CLASS
  1
LONG_TRANSACTION
  2
AcDbLongTransaction
  3
AutoCAD 2000
 90
    32768
280
     0
281
     0
  0
CLASS
  1
LWPOLYLINE
  2
AcDbPolyline
  3
AutoCAD 2000
 90
    32768
280
     0
281
     1
  0
CLASS
  1
HATCH
  2
AcDbHatch
  3
AutoCAD 2000
 90
    32768
280
     0
281
     1
  0
CLASS
  1
XRECORD
  2
AcDbXrecord
  3
AutoCAD 2000
 90
    32768
280
     0
281
     0
  0
CLASS
  1
LONG_TRANSACTION
  2
AcDbLongTransaction
  3
AutoCAD 2000
 90
    32768
280
     0
281
     0
  0
CLASS
  1
LWPOLYLINE
  2
AcDbPolyline
  3
AutoCAD 2000
 90
    32768
280
     0
281
     1
  0
CLASS
  1
HATCH
  2
AcDbHatch
  3
AutoCAD 2000
 90
    32768
280
     0
281
     1
  0
CLASS
  1
XRECORD
  2
AcDbXrecord
  3
AutoCAD 2000
 90
    32768
280
     0
281
     0
  0
CLASS
  1
LONG_TRANSACTION
  2
AcDbLongTransaction
  3
AutoCAD 2000
 90
    32768
280
     0
281
     0
  0
CLASS
  1
LWPOLYLINE
  2
AcDbPolyline
  3
AutoCAD 2000
 90
    32768
280
     0
281
     1
  0
CLASS
  1
HATCH
  2
AcDbHatch
  3
AutoCAD 2000
 90
    32768
280
     0
281
     1
  0
CLASS
  1
XRECORD
  2
AcDbXrecord
  3
AutoCAD 2000
 90
    32768
280
     0
281
     0
  0
CLASS
  1
LONG_TRANSACTION
  2
AcDbLongTransaction
  3
AutoCAD 2000
 90
    32768
280
     0
281
     0
  0
CLASS
  1
LWPOLYLINE
  2
AcDbPolyline
  3
AutoCAD 2000
 90
    32768
280
     0
281
     1
  0
CLASS
  1
HATCH
  2
AcDbHatch
  3
AutoCAD 2000
 90
    32768
280
     0
281
     1
  0
CLASS
  1
XRECORD
  2
AcDbXrecord
  3
AutoCAD 2000
 90
    32768
280
     0
281
     0
  0
CLASS
  1
LONG_TRANSACTION
  2
AcDbLongTransaction
  3
AutoCAD 2000
 90
    32768
280
     0
281
     0
  0
CLASS
  1
LWPOLYLINE
  2
AcDbPolyline
  3
AutoCAD 2000
 90
    32768
280
     0
281
     1
  0
CLASS
  1
HATCH
  2
AcDbHatch
  3
AutoCAD 2000
 90
    32768
280
     0
281
     1
  0
CLASS
  1
XRECORD
  2
AcDbXrecord
  3
AutoCAD 2000
 90
    32768
280
     0
281
     0
  0
CLASS
  1
LONG_TRANSACTION
  2
AcDbLongTransaction
  3
AutoCAD 2000
 90
    32768
280
     0
281
     0
  0
CLASS
  1
LWPOLYLINE
  2
AcDbPolyline
  3
AutoCAD 2000
 90
    32768
280
     0
281
     1
  0
CLASS
  1
HATCH
  2
AcDbHatch
  3
AutoCAD 2000
 90
    32768
280
     0
281
     1
  0
CLASS
  1
XRECORD
  2
AcDbXrecord
  3
AutoCAD 2000
 90
    32768
280
     0
281
     0
  0
CLASS
  1
LONG_TRANSACTION
  2
AcDbLongTransaction
  3
AutoCAD 2000
 90
    32768
280
     0
281
     0
  0
CLASS
  1
LWPOLYLINE
  2
AcDbPolyline
  3
AutoCAD 2000
 90
    32768
280
     0
281
     1
  0
CLASS
  1
HATCH
  2
AcDbHatch
  3
AutoCAD 2000
 90
    32768
280
     0
281
     1
  0
CLASS
  1
XRECORD
  2
AcDbXrecord
  3
AutoCAD 2000
 90
    32768
280
     0
281
     0
  0
CLASS
  1
LONG_TRANSACTION
  2
AcDbLongTransaction
  3
AutoCAD 2000
 90
    32768
280
     0
281
     0
  0
CLASS
  1
LWPOLYLINE
  2
AcDbPolyline
  3
AutoCAD 2000
 90
    32768
280
     0
281
     1
  0
CLASS
  1
HATCH
  2
AcDbHatch
  3
AutoCAD 2000
 90
    32768
280
     0
281
     1
  0
CLASS
  1
XRECORD
  2
AcDbXrecord
  3
AutoCAD 2000
 90
    32768
280
     0
281
     0
  0
CLASS
  1
LONG_TRANSACTION
  2
AcDbLongTransaction
  3
AutoCAD 2000
 90
    32768
280
     0
281
     0
  0
CLASS
  1
LWPOLYLINE
  2
AcDbPolyline
  3
AutoCAD 2000
 90
    32768
280
     0
281
     1
  0
CLASS
  1
HATCH
  2
AcDbHatch
  3
AutoCAD 2000
 90
    32768
280
     0
281
     1
  0
CLASS
  1
XRECORD
  2
AcDbXrecord
  3
AutoCAD 2000
 90
    32768
280
     0
281
     0
  0
ENDSEC
  0
SECTION
  2
TABLES
  0
TABLE
  2
VPORT
  5
8
330
0
100
AcDbSymbolTable
 70
     3
  0
VPORT
  5
257C
330
8
100
AcDbSymbolTableRecord
100
AcDbViewportTableRecord
  2
*Active
 70
     0
 10
0.0
 20
0.0
 11
1.0
 21
1.0
 12
1722.231781020783
 22
694.7278627544615
 13
0.0
 23
0.0
 14
10.0
 24
10.0
 15
10.0
 25
10.0
 16
0.0
 26
0.0
 36
1.0
 17
0.0
 27
0.0
 37
0.0
 40
1042.745217157097
 41
1.527918781725888
 42
50.0
 43
0.0
 44
0.0
 50
0.0
 51
0.0
 71
     0
 72
   100
 73
     1
 74
     3
 75
     0
 76
     0
 77
     0
 78
     0
281
     0
 65
     1
110
0.0
120
0.0
130
0.0
111
1.0
121
0.0
131
0.0
112
0.0
122
1.0
132
0.0
 79
     0
146
0.0
  0
ENDTAB
  0
TABLE
  2
LTYPE
  5
5
330
0
100
AcDbSymbolTable
 70
     3
  0
LTYPE
  5
14
330
5
100
AcDbSymbolTableRecord
100
AcDbLinetypeTableRecord
  2
BYBLOCK
 70
     0
  3

 72
    65
 73
     0
 40
0.0
  0
LTYPE
  5
15
330
5
100
AcDbSymbolTableRecord
100
AcDbLinetypeTableRecord
  2
BYLAYER
 70
     0
  3

 72
    65
 73
     0
 40
0.0
  0
LTYPE
  5
16
330
5
100
AcDbSymbolTableRecord
100
AcDbLinetypeTableRecord
  2
CONTINUOUS
 70
     0
  3
Solid line
 72
    65
 73
     0
 40
0.0
  0
LTYPE
  5
35
330
5
100
AcDbSymbolTableRecord
100
AcDbLinetypeTableRecord
  2
PHANTOMX2
 70
     0
  3
Phantom (2x) ____________    ____    ____   _
 72
    65
 73
     6
 40
127.0
 49
63.5
 74
     0
 49
-12.7
 74
     0
 49
12.7
 74
     0
 49
-12.7
 74
     0
 49
12.7
 74
     0
 49
-12.7
 74
     0
  0
LTYPE
  5
36
330
5
100
AcDbSymbolTableRecord
100
AcDbLinetypeTableRecord
  2
CENTERX2
 70
     0
  3
Center (2x) ________  __  ________  __  _____
 72
    65
 73
     4
 40
101.6
 49
63.5
 74
     0
 49
-12.7
 74
     0
 49
12.7
 74
     0
 49
-12.7
 74
     0
  0
ENDTAB
  0
TABLE
  2
LAYER
  5
2
330
0
100
AcDbSymbolTable
 70
     7
  0
LAYER
  5
10
330
2
100
AcDbSymbolTableRecord
100
AcDbLayerTableRecord
  2
0
 70
     0
 62
     7
  6
CONTINUOUS
370
    -3
390
48
  0
LAYER
  5
2D
330
2
100
AcDbSymbolTableRecord
100
AcDbLayerTableRecord
  2
10
 70
     0
 62
     4
  6
CONTINUOUS
370
    -3
390
48
  0
LAYER
  5
2F
330
2
100
AcDbSymbolTableRecord
100
AcDbLayerTableRecord
  2
12
 70
     0
 62
     3
  6
CONTINUOUS
370
    -3
390
48
  0
LAYER
  5
31
330
2
100
AcDbSymbolTableRecord
100
AcDbLayerTableRecord
  2
16
 70
     0
 62
     4
  6
CENTERX2
370
    -3
390
48
  0
LAYER
  5
33
330
2
100
AcDbSymbolTableRecord
100
AcDbLayerTableRecord
  2
18
 70
     0
 62
     1
  6
PHANTOMX2
370
    -3
390
48
  0
LAYER
  5
34
330
2
100
AcDbSymbolTableRecord
100
AcDbLayerTableRecord
  2
19
 70
     0
 62
     7
  6
CONTINUOUS
370
    -3
390
48
  0
LAYER
  5
1C0B
330
2
100
AcDbSymbolTableRecord
100
AcDbLayerTableRecord
  2
DEFPOINTS
 70
     0
 62
     7
  6
CONTINUOUS
290
     0
370
    -3
390
48
  0
ENDTAB
  0
TABLE
  2
STYLE
  5
3
330
0
100
AcDbSymbolTable
 70
     2
  0
STYLE
  5
11
330
3
100
AcDbSymbolTableRecord
100
AcDbTextStyleTableRecord
  2
STANDARD
 70
     0
 40
0.0
 41
1.0
 50
0.0
 71
     0
 42
2.5
  3
txt
  4

  0
STYLE
  5
56
330
3
100
AcDbSymbolTableRecord
100
AcDbTextStyleTableRecord
  2
STANDARD1
 70
     0
 40
0.0
 41
0.7
 50
0.0
 71
     0
 42
4.0
  3
romans.shx
  4
extfont.shx
  0
ENDTAB
  0
TABLE
  2
VIEW
  5
6
330
0
100
AcDbSymbolTable
 70
     0
  0
ENDTAB
  0
TABLE
  2
UCS
  5
7
330
0
100
AcDbSymbolTable
 70
     0
  0
ENDTAB
  0
TABLE
  2
APPID
  5
9
330
0
100
AcDbSymbolTable
 70
     1
  0
APPID
  5
12
330
9
100
AcDbSymbolTableRecord
100
AcDbRegAppTableRecord
  2
ACAD
 70
     0
  0
ENDTAB
  0
TABLE
  2
DIMSTYLE
  5
A
330
0
100
AcDbSymbolTable
 70
     2
100
AcDbDimStyleTable
 71
     1
340
27
  0
DIMSTYLE
105
27
330
A
100
AcDbSymbolTableRecord
100
AcDbDimStyleTableRecord
  2
ISO-25
 70
     0
 41
2.5
 42
0.625
 43
3.75
 44
1.25
 73
     0
 74
     0
 77
     1
 78
     8
140
2.5
141
2.5
143
0.03937007874016
147
0.625
171
     3
172
     1
271
     2
272
     2
274
     3
283
     0
284
     8
340
11
  0
DIMSTYLE
105
1C0C
330
A
100
AcDbSymbolTableRecord
100
AcDbDimStyleTableRecord
  2
STANDARD
 70
     0
340
11
  0
ENDTAB
  0
TABLE
  2
BLOCK_RECORD
  5
1
330
0
100
AcDbSymbolTable
 70
     0
  0
BLOCK_RECORD
  5
1F
102
{ACAD_XDICTIONARY
360
41
102
}
330
1
100
AcDbSymbolTableRecord
100
AcDbBlockTableRecord
  2
*MODEL_SPACE
340
49
  0
BLOCK_RECORD
  5
1B
102
{ACAD_XDICTIONARY
360
3F
102
}
330
1
100
AcDbSymbolTableRecord
100
AcDbBlockTableRecord
  2
*PAPER_SPACE
340
4A
  0
ENDTAB
  0
ENDSEC
  0
SECTION
  2
BLOCKS
  0
BLOCK
  5
20
330
1F
100
AcDbEntity
  8
0
100
AcDbBlockBegin
  2
*MODEL_SPACE
 70
     0
 10
0.0
 20
0.0
 30
0.0
  3
*MODEL_SPACE
  1

  0
ENDBLK
  5
21
330
1F
100
AcDbEntity
  8
0
100
AcDbBlockEnd
  0
BLOCK
  5
1C
330
1B
100
AcDbEntity
 67
     1
  8
0
100
AcDbBlockBegin
  2
*PAPER_SPACE
 70
     0
 10
0.0
 20
0.0
 30
0.0
  3
*PAPER_SPACE
  1

  0
ENDBLK
  5
1D
330
1B
100
AcDbEntity
 67
     1
  8
0
100
AcDbBlockEnd
  0
ENDSEC
  0
SECTION
  2
ENTITIES
  0
LINE
  5
1FBA
330
1F
100
AcDbEntity
  8
10
100
AcDbLine
 10
1430.683150630571
 20
636.500465088351
 30
0.0
 11
1415.223624459614
 21
637.5004650883509
 31
0.0
  0
LINE
  5
1FBB
330
1F
100
AcDbEntity
  8
10
100
AcDbLine
 10
1412.906693495265
 20
785.7372777546586
 30
0.0
 11
1430.683150630571
 21
790.5004650883507
 31
0.0
  0
LINE
  5
1FBE
330
1F
100
AcDbEntity
  8
16
100
AcDbLine
 10
1200.683150630572
 20
612.4523095026901
 30
0.0
 11
1200.683150630572
 21
928.4523095026898
 31
0.0
  0
LINE
  5
1FBF
330
1F
100
AcDbEntity
  8
10
100
AcDbLine
 10
1205.783150630572
 20
904.6523095026897
 30
0.0
 11
1205.783150630572
 21
878.2523095026899
 31
0.0
  0
LINE
  5
1FC0
330
1F
100
AcDbEntity
  8
10
100
AcDbLine
 10
1224.383150630572
 20
904.6523095026897
 30
0.0
 11
1224.383150630572
 21
878.2523095026899
 31
0.0
  0
LINE
  5
1FC1
330
1F
100
AcDbEntity
  8
10
 48
3.0
100
AcDbLine
 10
1207.463150630572
 20
897.4923095026898
 30
0.0
 11
1207.463150630572
 21
882.41230950269
 31
0.0
  0
LINE
  5
1FC2
330
1F
100
AcDbEntity
  8
10
 48
3.0
100
AcDbLine
 10
1222.703150630572
 20
897.4923095026898
 30
0.0
 11
1222.703150630572
 21
882.41230950269
 31
0.0
  0
LINE
  5
1FC3
330
1F
100
AcDbEntity
  8
10
100
AcDbLine
 10
1140.683150630572
 20
622.45230950269
 30
0.0
 11
1140.683150630572
 21
918.4523095026898
 31
0.0
  0
LINE
  5
1FC4
330
1F
100
AcDbEntity
  8
10
100
AcDbLine
 10
1260.683150630572
 20
622.45230950269
 30
0.0
 11
1260.683150630572
 21
918.4523095026898
 31
0.0
  0
LINE
  5
1FC5
330
1F
100
AcDbEntity
  8
10
100
AcDbLine
 10
1140.683150630572
 20
625.4523095026899
 30
0.0
 11
1140.683150630572
 21
915.4523095026897
 31
0.0
  0
LINE
  5
1FC6
330
1F
100
AcDbEntity
  8
10
100
AcDbLine
 10
1260.683150630572
 20
625.4523095026899
 30
0.0
 11
1260.683150630572
 21
915.4523095026897
 31
0.0
  0
LINE
  5
1FC7
330
1F
100
AcDbEntity
  8
10
100
AcDbLine
 10
1205.683150630572
 20
904.7972122616521
 30
0.0
 11
1205.683150630572
 21
894.041007836066
 31
0.0
  0
LINE
  5
1FC8
330
1F
100
AcDbEntity
  8
10
100
AcDbLine
 10
1224.483150630572
 20
904.8496200409347
 30
0.0
 11
1224.483150630572
 21
888.9283467322838
 31
0.0
  0
LINE
  5
1FC9
330
1F
100
AcDbEntity
  8
10
100
AcDbLine
 10
1205.683150630572
 20
904.8496200409347
 30
0.0
 11
1205.683150630572
 21
875.9523095026903
 31
0.0
  0
LINE
  5
1FCA
330
1F
100
AcDbEntity
  8
10
100
AcDbLine
 10
1224.483150630572
 20
904.8496200409347
 30
0.0
 11
1224.483150630572
 21
875.9523095026903
 31
0.0
  0
LINE
  5
1FCB
330
1F
100
AcDbEntity
  8
10
100
AcDbLine
 10
1243.383150630572
 20
894.6523095026899
 30
0.0
 11
1243.383150630572
 21
885.4523095026898
 31
0.0
  0
LINE
  5
1FCC
330
1F
100
AcDbEntity
  8
10
100
AcDbLine
 10
1225.183150630572
 20
894.6523095026899
 30
0.0
 11
1225.183150630572
 21
885.4523095026898
 31
0.0
  0
LINE
  5
1FCD
330
1F
100
AcDbEntity
  8
10
100
AcDbLine
 10
1260.683150630572
 20
904.4523095026898
 30
0.0
 11
1260.683150630572
 21
790.9523095026898
 31
0.0
  0
LINE
  5
1FCE
330
1F
100
AcDbEntity
  8
10
100
AcDbLine
 10
1200.683150630572
 20
904.4523095026898
 30
0.0
 11
1200.683150630572
 21
790.9523095026898
 31
0.0
  0
LINE
  5
1FD0
330
1F
100
AcDbEntity
  8
10
 48
3.0
100
AcDbLine
 10
1177.983150630572
 20
651.9523095026897
 30
0.0
 11
1228.383150630572
 21
651.9523095026897
 31
0.0
  0
LINE
  5
1FD1
330
1F
100
AcDbEntity
  8
10
 48
3.0
100
AcDbLine
 10
1177.983150630572
 20
673.9523095026899
 30
0.0
 11
1228.383150630572
 21
673.9523095026899
 31
0.0
  0
LINE
  5
1FD2
330
1F
100
AcDbEntity
  8
10
100
AcDbLine
 10
1197.683150630572
 20
620.45230950269
 30
0.0
 11
1142.683150630572
 21
620.45230950269
 31
0.0
  0
LINE
  5
1FD3
330
1F
100
AcDbEntity
  8
10
100
AcDbLine
 10
1260.683150630572
 20
635.45230950269
 30
0.0
 11
1140.683150630572
 21
635.45230950269
 31
0.0
  0
LINE
  5
1FD4
330
1F
100
AcDbEntity
  8
10
100
AcDbLine
 10
1260.683150630572
 20
790.5004650883507
 30
0.0
 11
1140.683150630572
 21
790.5004650883507
 31
0.0
  0
LINE
  5
1FD5
330
1F
100
AcDbEntity
  8
10
100
AcDbLine
 10
1200.683150630572
 20
881.4523095026897
 30
0.0
 11
1140.683150630572
 21
881.4523095026897
 31
0.0
  0
LINE
  5
1FD6
330
1F
100
AcDbEntity
  8
10
100
AcDbLine
 10
1200.683150630572
 20
874.4523095026897
 30
0.0
 11
1140.683150630572
 21
874.4523095026897
 31
0.0
  0
LINE
  5
1FD7
330
1F
100
AcDbEntity
  8
10
 48
3.0
100
AcDbLine
 10
1177.983150630572
 20
673.9523095026899
 30
0.0
 11
1177.983150630572
 21
651.9523095026897
 31
0.0
  0
LINE
  5
1FD9
330
1F
100
AcDbEntity
  8
10
100
AcDbLine
 10
1140.683150630572
 20
625.4523095026899
 30
0.0
 11
1153.683150630572
 21
625.4523095026899
 31
0.0
  0
LINE
  5
1FDA
330
1F
100
AcDbEntity
  8
10
100
AcDbLine
 10
1140.683150630572
 20
622.45230950269
 30
0.0
 11
1142.683150630572
 21
620.45230950269
 31
0.0
  0
LINE
  5
1FDB
330
1F
100
AcDbEntity
  8
10
100
AcDbLine
 10
1142.183150630571
 20
620.9523095026899
 30
0.0
 11
1142.183150630571
 21
625.4523095026899
 31
0.0
  0
LINE
  5
1FDC
330
1F
100
AcDbEntity
  8
10
100
AcDbLine
 10
1143.683150630572
 20
635.45230950269
 30
0.0
 11
1143.683150630572
 21
625.4523095026899
 31
0.0
  0
LINE
  5
1FDD
330
1F
100
AcDbEntity
  8
10
100
AcDbLine
 10
1142.413150630572
 20
635.45230950269
 30
0.0
 11
1143.683150630572
 21
625.4523095026899
 31
0.0
  0
LINE
  5
1FDE
330
1F
100
AcDbEntity
  8
10
100
AcDbLine
 10
1149.183150630572
 20
635.95230950269
 30
0.0
 11
1149.683150630572
 21
635.45230950269
 31
0.0
  0
LINE
  5
1FDF
330
1F
100
AcDbEntity
  8
10
100
AcDbLine
 10
1153.683150630572
 20
635.45230950269
 30
0.0
 11
1153.683150630572
 21
625.4523095026899
 31
0.0
  0
LINE
  5
1FE0
330
1F
100
AcDbEntity
  8
10
 48
3.0
100
AcDbLine
 10
1254.683150630572
 20
781.9523095026897
 30
0.0
 11
1254.683150630572
 21
731.9523095026897
 31
0.0
  0
LINE
  5
1FE1
330
1F
100
AcDbEntity
  8
10
 48
3.0
100
AcDbLine
 10
1222.683150630572
 20
781.9523095026897
 30
0.0
 11
1222.683150630572
 21
731.9523095026897
 31
0.0
  0
LINE
  5
1FE2
330
1F
100
AcDbEntity
  8
10
100
AcDbLine
 10
1410.683150630571
 20
649.4900438966327
 30
0.0
 11
1410.683150630571
 21
782.8395002757913
 31
0.0
  0
LINE
  5
1FE3
330
1F
100
AcDbEntity
  8
10
100
AcDbLine
 10
1258.683150630572
 20
620.45230950269
 30
0.0
 11
1203.683150630572
 21
620.45230950269
 31
0.0
  0
LINE
  5
1FE4
330
1F
100
AcDbEntity
  8
10
100
AcDbLine
 10
1247.683150630572
 20
625.4523095026899
 30
0.0
 11
1260.683150630572
 21
625.4523095026899
 31
0.0
  0
LINE
  5
1FE5
330
1F
100
AcDbEntity
  8
10
 48
3.0
100
AcDbLine
 10
1228.383150630572
 20
673.9523095026899
 30
0.0
 11
1228.383150630572
 21
651.9523095026897
 31
0.0
  0
LINE
  5
1FE7
330
1F
100
AcDbEntity
  8
12
 48
3.0
100
AcDbLine
 10
1208.683150630572
 20
630.4523095026901
 30
0.0
 11
1192.683150630572
 21
630.4523095026901
 31
0.0
  0
ARC
  5
1FE8
330
1F
100
AcDbEntity
  8
12
100
AcDbCircle
 10
1200.683150630572
 20
630.4523095026901
 30
0.0
 40
2.999999999999993
100
AcDbArc
 50
0.0
 51
180.0
  0
LINE
  5
1FE9
330
1F
100
AcDbEntity
  8
12
100
AcDbLine
 10
1197.683150630572
 20
620.45230950269
 30
0.0
 11
1197.683150630572
 21
630.4523095026901
 31
0.0
  0
LINE
  5
1FEA
330
1F
100
AcDbEntity
  8
12
100
AcDbLine
 10
1203.683150630572
 20
620.45230950269
 30
0.0
 11
1203.683150630572
 21
630.4523095026901
 31
0.0
  0
LINE
  5
1FEB
330
1F
100
AcDbEntity
  8
10
100
AcDbLine
 10
1214.069463221435
 20
625.7583095026903
 30
0.0
 11
1215.296838039709
 21
625.7583095026903
 31
0.0
  0
LINE
  5
1FEC
330
1F
100
AcDbEntity
  8
10
100
AcDbLine
 10
1213.468806926004
 20
626.6053095026896
 30
0.0
 11
1215.897494335141
 21
626.6053095026896
 31
0.0
  0
LINE
  5
1FED
330
1F
100
AcDbEntity
  8
10
100
AcDbLine
 10
1214.683150630572
 20
627.45230950269
 30
0.0
 11
1214.683150630572
 21
629.2673095026896
 31
0.0
  0
LINE
  5
1FEE
330
1F
100
AcDbEntity
  8
10
100
AcDbLine
 10
1212.868150630572
 20
627.45230950269
 30
0.0
 11
1216.498150630572
 21
627.45230950269
 31
0.0
  0
CIRCLE
  5
1FEF
330
1F
100
AcDbEntity
  8
10
100
AcDbCircle
 10
1214.683150630572
 20
627.45230950269
 30
0.0
 40
2.500000000000004
  0
TEXT
  5
1FF0
330
1F
100
AcDbEntity
  8
10
 48
3.0
100
AcDbText
 10
1202.266499378585
 20
653.9523066316578
 30
0.0
 40
6.66666676600774
  1
ＴＢ１
 50
0.0000025044784726
 41
0.7031250019402551
  7
STANDARD1
100
AcDbText
  0
LINE
  5
1FF1
330
1F
100
AcDbEntity
  8
10
100
AcDbLine
 10
1251.683150630572
 20
635.45230950269
 30
0.0
 11
1252.183150630572
 21
635.95230950269
 31
0.0
  0
LINE
  5
1FF4
330
1F
100
AcDbEntity
  8
10
100
AcDbLine
 10
1247.683150630572
 20
635.45230950269
 30
0.0
 11
1247.683150630572
 21
625.4523095026899
 31
0.0
  0
LINE
  5
1FF6
330
1F
100
AcDbEntity
  8
10
 48
3.0
100
AcDbLine
 10
1254.683150630572
 20
694.3023095026898
 30
0.0
 11
1254.683150630572
 21
730.6023095026898
 31
0.0
  0
LINE
  5
1FF7
330
1F
100
AcDbEntity
  8
10
 48
3.0
100
AcDbLine
 10
1233.683150630572
 20
694.3023095026898
 30
0.0
 11
1233.683150630572
 21
730.6023095026898
 31
0.0
  0
TEXT
  5
1FF8
330
1F
100
AcDbEntity
  8
10
 48
3.0
100
AcDbText
 10
1236.266453602218
 20
696.3023127351736
 30
0.0
 40
6.66666676600774
  1
ＴＢ２
 50
0.0000025044784726
 41
0.7031250019402551
  7
STANDARD1
100
AcDbText
  0
LINE
  5
1FF9
330
1F
100
AcDbEntity
  8
10
 48
3.0
100
AcDbLine
 10
1233.683150630572
 20
694.3023095026898
 30
0.0
 11
1254.683150630572
 21
694.3023095026898
 31
0.0
  0
TEXT
  5
1FFA
330
1F
100
AcDbEntity
  8
10
 48
3.0
100
AcDbText
 10
1230.766453602218
 20
733.9523066316578
 30
0.0
 40
6.66666676600774
  1
ＴＢ３
 50
0.0000025044784726
 41
0.7031250019402551
  7
STANDARD1
100
AcDbText
  0
LINE
  5
1FFB
330
1F
100
AcDbEntity
  8
10
 48
3.0
100
AcDbLine
 10
1233.683150630572
 20
730.6023095026898
 30
0.0
 11
1254.683150630572
 21
730.6023095026898
 31
0.0
  0
LINE
  5
1FFC
330
1F
100
AcDbEntity
  8
10
 48
3.0
100
AcDbLine
 10
1254.683150630572
 20
731.9523095026897
 30
0.0
 11
1222.683150630572
 21
731.9523095026897
 31
0.0
  0
LINE
  5
1FFD
330
1F
100
AcDbEntity
  8
10
100
AcDbLine
 10
1258.683150630572
 20
620.45230950269
 30
0.0
 11
1260.683150630572
 21
622.45230950269
 31
0.0
  0
LINE
  5
1FFE
330
1F
100
AcDbEntity
  8
10
100
AcDbLine
 10
1259.183150630572
 20
620.9523095026899
 30
0.0
 11
1259.183150630572
 21
625.4523095026899
 31
0.0
  0
LINE
  5
1FFF
330
1F
100
AcDbEntity
  8
10
100
AcDbLine
 10
1257.683150630572
 20
635.45230950269
 30
0.0
 11
1257.683150630572
 21
625.4523095026899
 31
0.0
  0
LINE
  5
2000
330
1F
100
AcDbEntity
  8
10
100
AcDbLine
 10
1258.953150630572
 20
635.45230950269
 30
0.0
 11
1257.683150630572
 21
625.4523095026899
 31
0.0
  0
ARC
  5
2001
330
1F
100
AcDbEntity
  8
10
100
AcDbCircle
 10
1440.683150630571
 20
649.4900438966327
 30
0.0
 40
29.99999999999999
100
AcDbArc
 50
180.0
 51
199.4477664087378
  0
ARC
  5
2002
330
1F
100
AcDbEntity
  8
10
100
AcDbCircle
 10
1415.223624459614
 20
640.5004650883507
 30
0.0
 40
3.000000000000008
100
AcDbArc
 50
199.4477664087362
 51
270.0
  0
LINE
  5
2003
330
1F
100
AcDbEntity
  8
10
100
AcDbLine
 10
1251.183150630572
 20
796.4523095026898
 30
0.0
 11
1260.183150630572
 21
796.4523095026898
 31
0.0
  0
LINE
  5
2004
330
1F
100
AcDbEntity
  8
10
100
AcDbLine
 10
1226.283150630572
 20
881.4523095026897
 30
0.0
 11
1260.183150630572
 21
881.4523095026897
 31
0.0
  0
LINE
  5
2005
330
1F
100
AcDbEntity
  8
10
100
AcDbLine
 10
1201.574082878384
 20
858.4523095026897
 30
0.0
 11
1260.183150630572
 21
858.4523095026897
 31
0.0
  0
LINE
  5
2006
330
1F
100
AcDbEntity
  8
10
100
AcDbLine
 10
1201.183150630572
 20
874.4523095026897
 30
0.0
 11
1260.183150630572
 21
874.4523095026897
 31
0.0
  0
LINE
  5
2007
330
1F
100
AcDbEntity
  8
10
100
AcDbLine
 10
1200.683150630572
 20
790.9523095026898
 30
0.0
 11
1260.683150630572
 21
790.9523095026898
 31
0.0
  0
LINE
  5
2008
330
1F
100
AcDbEntity
  8
10
 48
3.0
100
AcDbLine
 10
1218.283150630572
 20
799.9523095026898
 30
0.0
 11
1218.283150630572
 21
854.9523095026897
 31
0.0
  0
LINE
  5
2009
330
1F
100
AcDbEntity
  8
10
 48
3.0
100
AcDbLine
 10
1210.283150630572
 20
854.9523095026897
 30
0.0
 11
1210.283150630572
 21
799.9523095026898
 31
0.0
  0
LINE
  5
200A
330
1F
100
AcDbEntity
  8
10
100
AcDbLine
 10
1207.483150630572
 20
796.5523095026896
 30
0.0
 11
1207.483150630572
 21
858.3523095026897
 31
0.0
  0
LINE
  5
200B
330
1F
100
AcDbEntity
  8
10
100
AcDbLine
 10
1210.081226841926
 20
796.5523095026896
 30
0.0
 11
1210.081226841926
 21
858.3523095026897
 31
0.0
  0
LINE
  5
200C
330
1F
100
AcDbEntity
  8
10
100
AcDbLine
 10
1231.681965911439
 20
815.5634278487831
 30
0.0
 11
1231.681965911439
 21
856.3523095026898
 31
0.0
  0
LINE
  5
200D
330
1F
100
AcDbEntity
  8
10
100
AcDbLine
 10
1231.261281412751
 20
815.5634285870196
 30
0.0
 11
1231.261281412751
 21
858.3523095026897
 31
0.0
  0
LINE
  5
200E
330
1F
100
AcDbEntity
  8
10
100
AcDbLine
 10
1202.483150630571
 20
796.5523095026896
 30
0.0
 11
1232.483150630572
 21
796.5523095026896
 31
0.0
  0
LINE
  5
200F
330
1F
100
AcDbEntity
  8
10
100
AcDbLine
 10
1201.574082878384
 20
796.4523095026898
 30
0.0
 11
1244.183150630572
 21
796.4523095026898
 31
0.0
  0
LINE
  5
2010
330
1F
100
AcDbEntity
  8
10
100
AcDbLine
 10
1201.574082878384
 20
798.9523095026897
 30
0.0
 11
1207.483150630572
 21
798.9523095026897
 31
0.0
  0
LINE
  5
2011
330
1F
100
AcDbEntity
  8
10
100
AcDbLine
 10
1201.574082878384
 20
796.4523095026898
 30
0.0
 11
1201.574082878384
 21
798.9523095026897
 31
0.0
  0
LINE
  5
2012
330
1F
100
AcDbEntity
  8
10
 48
3.0
100
AcDbLine
 10
1210.283150630572
 20
799.9523095026898
 30
0.0
 11
1218.283150630572
 21
799.9523095026898
 31
0.0
  0
LINE
  5
2013
330
1F
100
AcDbEntity
  8
10
100
AcDbLine
 10
1202.483150630571
 20
796.5523095026896
 30
0.0
 11
1202.483150630571
 21
798.5523095026898
 31
0.0
  0
LINE
  5
2014
330
1F
100
AcDbEntity
  8
10
100
AcDbLine
 10
1207.483150630572
 20
798.5523095026898
 30
0.0
 11
1202.483150630571
 21
798.5523095026898
 31
0.0
  0
LINE
  5
2015
330
1F
100
AcDbEntity
  8
10
100
AcDbLine
 10
1202.883150630572
 20
798.5523095026898
 30
0.0
 11
1202.883150630572
 21
798.9523095026897
 31
0.0
  0
LINE
  5
2016
330
1F
100
AcDbEntity
  8
10
100
AcDbLine
 10
1203.883150630572
 20
798.5523095026898
 30
0.0
 11
1203.883150630572
 21
798.9523095026897
 31
0.0
  0
LINE
  5
2017
330
1F
100
AcDbEntity
  8
10
100
AcDbLine
 10
1205.083150630572
 20
798.5523095026898
 30
0.0
 11
1205.083150630572
 21
798.9523095026897
 31
0.0
  0
LINE
  5
2018
330
1F
100
AcDbEntity
  8
10
100
AcDbLine
 10
1206.283150630572
 20
798.5523095026898
 30
0.0
 11
1206.283150630572
 21
798.9523095026897
 31
0.0
  0
LINE
  5
2019
330
1F
100
AcDbEntity
  8
10
100
AcDbLine
 10
1208.183150630572
 20
796.5523095026896
 30
0.0
 11
1208.183150630572
 21
796.4523095026898
 31
0.0
  0
LINE
  5
201A
330
1F
100
AcDbEntity
  8
10
100
AcDbLine
 10
1202.883150630572
 20
796.4523095026898
 30
0.0
 11
1202.883150630572
 21
796.5523095026896
 31
0.0
  0
LINE
  5
201B
330
1F
100
AcDbEntity
  8
10
100
AcDbLine
 10
1205.083150630572
 20
796.4523095026898
 30
0.0
 11
1205.083150630572
 21
796.5523095026896
 31
0.0
  0
LINE
  5
201C
330
1F
100
AcDbEntity
  8
10
100
AcDbLine
 10
1203.883150630572
 20
796.4523095026898
 30
0.0
 11
1203.883150630572
 21
796.5523095026896
 31
0.0
  0
LINE
  5
201D
330
1F
100
AcDbEntity
  8
10
100
AcDbLine
 10
1206.283150630572
 20
796.4523095026898
 30
0.0
 11
1206.283150630572
 21
796.5523095026896
 31
0.0
  0
LINE
  5
201E
330
1F
100
AcDbEntity
  8
10
 48
3.0
100
AcDbLine
 10
1254.683150630572
 20
781.9523095026897
 30
0.0
 11
1222.683150630572
 21
781.9523095026897
 31
0.0
  0
LINE
  5
201F
330
1F
100
AcDbEntity
  8
10
100
AcDbLine
 10
1231.261281412751
 20
796.5523095026896
 30
0.0
 11
1231.261281412751
 21
806.4523174229266
 31
0.0
  0
LINE
  5
2020
330
1F
100
AcDbEntity
  8
10
100
AcDbLine
 10
1231.681965911439
 20
798.5523095026898
 30
0.0
 11
1231.681965911439
 21
806.4523174229266
 31
0.0
  0
LINE
  5
2021
330
1F
100
AcDbEntity
  8
10
100
AcDbLine
 10
1229.483150630572
 20
796.4523095026898
 30
0.0
 11
1229.483150630572
 21
796.5523095026896
 31
0.0
  0
LINE
  5
2022
330
1F
100
AcDbEntity
  8
10
100
AcDbLine
 10
1227.54794039277
 20
796.4523095026898
 30
0.0
 11
1227.54794039277
 21
796.5523095026896
 31
0.0
  0
LINE
  5
2023
330
1F
100
AcDbEntity
  8
10
100
AcDbLine
 10
1231.483150630572
 20
796.4523095026898
 30
0.0
 11
1231.483150630572
 21
796.5523095026896
 31
0.0
  0
LINE
  5
2024
330
1F
100
AcDbEntity
  8
10
100
AcDbLine
 10
1232.483150630572
 20
796.5523095026896
 30
0.0
 11
1232.483150630572
 21
798.5523095026898
 31
0.0
  0
LINE
  5
2025
330
1F
100
AcDbEntity
  8
10
100
AcDbLine
 10
1231.425188746321
 20
798.5523095026898
 30
0.0
 11
1232.483150630572
 21
798.5523095026898
 31
0.0
  0
ARC
  5
2026
330
1F
100
AcDbEntity
  8
10
100
AcDbCircle
 10
1233.04794039277
 20
797.45230950269
 30
0.0
 40
0.5000000000000039
100
AcDbArc
 50
0.0
 51
90.0
  0
LINE
  5
2027
330
1F
100
AcDbEntity
  8
10
100
AcDbLine
 10
1232.483150630572
 20
797.95230950269
 30
0.0
 11
1233.04794039277
 21
797.95230950269
 31
0.0
  0
LINE
  5
2028
330
1F
100
AcDbEntity
  8
10
100
AcDbLine
 10
1233.54794039277
 20
796.4523095026898
 30
0.0
 11
1233.54794039277
 21
797.45230950269
 31
0.0
  0
TEXT
  5
2029
330
1F
100
AcDbEntity
  8
10
100
AcDbText
 10
1220.783146717453
 20
807.4523218904468
 30
0.0
 40
6.66666676600774
  1
ＴＢ４
 50
0.0000025044784726
 41
0.7031250019402551
  7
STANDARD1
100
AcDbText
  0
ARC
  5
202A
330
1F
100
AcDbEntity
  8
10
100
AcDbCircle
 10
1247.683150630572
 20
796.4523095026898
 30
0.0
 40
6.499999999999992
100
AcDbArc
 50
0.0
 51
180.0
  0
ARC
  5
202B
330
1F
100
AcDbEntity
  8
10
100
AcDbCircle
 10
1247.683150630572
 20
796.4523095026898
 30
0.0
 40
4.999999999999891
100
AcDbArc
 50
0.0
 51
180.0
  0
ARC
  5
202C
330
1F
100
AcDbEntity
  8
10
100
AcDbCircle
 10
1247.683150630572
 20
796.4523095026898
 30
0.0
 40
3.499999999999998
100
AcDbArc
 50
0.0
 51
180.0
  0
ARC
  5
202D
330
1F
100
AcDbEntity
  8
10
100
AcDbCircle
 10
1247.683150630572
 20
796.4523095026898
 30
0.0
 40
4.000000000000001
100
AcDbArc
 50
180.0
 51
0.0
  0
CIRCLE
  5
202E
330
1F
100
AcDbEntity
  8
10
100
AcDbCircle
 10
1247.683150630572
 20
796.4523095026898
 30
0.0
 40
2.999999999999993
  0
CIRCLE
  5
202F
330
1F
100
AcDbEntity
  8
10
100
AcDbCircle
 10
1247.683150630572
 20
796.4523095026898
 30
0.0
 40
2.999999999999993
  0
LINE
  5
2030
330
1F
100
AcDbEntity
  8
10
100
AcDbLine
 10
1211.683150630572
 20
869.4523095026898
 30
0.0
 11
1249.683150630572
 21
869.4523095026898
 31
0.0
  0
LINE
  5
2031
330
1F
100
AcDbEntity
  8
10
100
AcDbLine
 10
1211.683150630572
 20
862.9523095026897
 30
0.0
 11
1249.683150630572
 21
862.9523095026897
 31
0.0
  0
LINE
  5
2032
330
1F
100
AcDbEntity
  8
10
100
AcDbLine
 10
1206.083150630572
 20
877.9523095026897
 30
0.0
 11
1224.083150630572
 21
877.9523095026897
 31
0.0
  0
LINE
  5
2033
330
1F
100
AcDbEntity
  8
10
100
AcDbLine
 10
1205.783150630572
 20
892.517264570502
 30
0.0
 11
1224.383150630572
 21
892.517264570502
 31
0.0
  0
LINE
  5
2034
330
1F
100
AcDbEntity
  8
10
100
AcDbLine
 10
1205.783150630572
 20
879.9523095026895
 30
0.0
 11
1224.383150630572
 21
879.9523095026895
 31
0.0
  0
LINE
  5
2035
330
1F
100
AcDbEntity
  8
10
100
AcDbLine
 10
1202.483150630571
 20
858.3523095026897
 30
0.0
 11
1232.483150630572
 21
858.3523095026897
 31
0.0
  0
LINE
  5
2036
330
1F
100
AcDbEntity
  8
10
 48
3.0
100
AcDbLine
 10
1222.703150630572
 20
882.41230950269
 30
0.0
 11
1207.463150630572
 21
882.41230950269
 31
0.0
  0
LINE
  5
2037
330
1F
100
AcDbEntity
  8
10
100
AcDbLine
 10
1205.683150630572
 20
875.9523095026903
 30
0.0
 11
1224.483150630572
 21
875.9523095026903
 31
0.0
  0
LINE
  5
2038
330
1F
100
AcDbEntity
  8
10
100
AcDbLine
 10
1204.883150630572
 20
877.9523095026897
 30
0.0
 11
1225.283150630572
 21
877.9523095026897
 31
0.0
  0
LINE
  5
2039
330
1F
100
AcDbEntity
  8
10
100
AcDbLine
 10
1202.483150630571
 20
856.3523095026898
 30
0.0
 11
1202.483150630571
 21
858.3523095026897
 31
0.0
  0
LINE
  5
203A
330
1F
100
AcDbEntity
  8
10
100
AcDbLine
 10
1201.574082878384
 20
855.9523095026898
 30
0.0
 11
1201.574082878384
 21
858.4523095026897
 31
0.0
  0
LINE
  5
203B
330
1F
100
AcDbEntity
  8
10
100
AcDbLine
 10
1201.574082878384
 20
855.9523095026898
 30
0.0
 11
1207.483150630572
 21
855.9523095026898
 31
0.0
  0
LINE
  5
203C
330
1F
100
AcDbEntity
  8
10
100
AcDbLine
 10
1210.283150630572
 20
854.9523095026897
 30
0.0
 11
1218.283150630572
 21
854.9523095026897
 31
0.0
  0
LINE
  5
203D
330
1F
100
AcDbEntity
  8
10
100
AcDbLine
 10
1207.483150630572
 20
856.3523095026898
 30
0.0
 11
1202.483150630571
 21
856.3523095026898
 31
0.0
  0
LINE
  5
203E
330
1F
100
AcDbEntity
  8
10
100
AcDbLine
 10
1202.883150630572
 20
855.9523095026898
 30
0.0
 11
1202.883150630572
 21
856.3523095026898
 31
0.0
  0
LINE
  5
203F
330
1F
100
AcDbEntity
  8
10
100
AcDbLine
 10
1203.883150630572
 20
855.9523095026898
 30
0.0
 11
1203.883150630572
 21
856.3523095026898
 31
0.0
  0
LINE
  5
2040
330
1F
100
AcDbEntity
  8
10
100
AcDbLine
 10
1205.083150630572
 20
855.9523095026898
 30
0.0
 11
1205.083150630572
 21
856.3523095026898
 31
0.0
  0
LINE
  5
2041
330
1F
100
AcDbEntity
  8
10
100
AcDbLine
 10
1206.283150630572
 20
855.9523095026898
 30
0.0
 11
1206.283150630572
 21
856.3523095026898
 31
0.0
  0
LINE
  5
2042
330
1F
100
AcDbEntity
  8
10
100
AcDbLine
 10
1201.183150630572
 20
881.4523095026897
 30
0.0
 11
1203.883150630572
 21
881.4523095026897
 31
0.0
  0
ARC
  5
2043
330
1F
100
AcDbEntity
  8
10
100
AcDbCircle
 10
1201.183150630572
 20
873.9523095026898
 30
0.0
 40
0.4999999999999896
100
AcDbArc
 50
90.0
 51
180.0
  0
ARC
  5
2044
330
1F
100
AcDbEntity
  8
10
100
AcDbCircle
 10
1201.183150630572
 20
881.9523095026898
 30
0.0
 40
0.4999999999999896
100
AcDbArc
 50
180.0
 51
270.0
  0
ARC
  5
2045
330
1F
100
AcDbEntity
  8
10
100
AcDbCircle
 10
1211.683150630572
 20
868.4523095026898
 30
0.0
 40
1.000000000000007
100
AcDbArc
 50
90.0
 51
180.0
  0
ARC
  5
2046
330
1F
100
AcDbEntity
  8
10
100
AcDbCircle
 10
1211.683150630572
 20
863.9523095026898
 30
0.0
 40
1.000000000000007
100
AcDbArc
 50
180.0
 51
270.0
  0
LINE
  5
2047
330
1F
100
AcDbEntity
  8
10
100
AcDbLine
 10
1210.683150630572
 20
863.9523095026898
 30
0.0
 11
1210.683150630572
 21
868.4523095026898
 31
0.0
  0
LINE
  5
2048
330
1F
100
AcDbEntity
  8
10
100
AcDbLine
 10
1202.883150630572
 20
858.3523095026897
 30
0.0
 11
1202.883150630572
 21
858.4523095026897
 31
0.0
  0
LINE
  5
2049
330
1F
100
AcDbEntity
  8
10
100
AcDbLine
 10
1203.883150630572
 20
858.3523095026897
 30
0.0
 11
1203.883150630572
 21
858.4523095026897
 31
0.0
  0
LINE
  5
204A
330
1F
100
AcDbEntity
  8
10
100
AcDbLine
 10
1205.083150630572
 20
858.3523095026897
 30
0.0
 11
1205.083150630572
 21
858.4523095026897
 31
0.0
  0
LINE
  5
204B
330
1F
100
AcDbEntity
  8
10
100
AcDbLine
 10
1206.283150630572
 20
858.3523095026897
 30
0.0
 11
1206.283150630572
 21
858.4523095026897
 31
0.0
  0
LINE
  5
204C
330
1F
100
AcDbEntity
  8
10
100
AcDbLine
 10
1208.183150630572
 20
858.4523095026897
 30
0.0
 11
1208.183150630572
 21
858.3523095026897
 31
0.0
  0
ARC
  5
204D
330
1F
100
AcDbEntity
  8
10
100
AcDbCircle
 10
1206.083150630572
 20
878.2523095026899
 30
0.0
 40
0.3000000000000707
100
AcDbArc
 50
180.0
 51
270.0
  0
ARC
  5
204E
330
1F
100
AcDbEntity
  8
10
100
AcDbCircle
 10
1204.883150630572
 20
878.4523095026898
 30
0.0
 40
0.4999999999999896
100
AcDbArc
 50
180.0
 51
270.0
  0
ARC
  5
204F
330
1F
100
AcDbEntity
  8
10
100
AcDbCircle
 10
1203.883150630572
 20
880.9523095026898
 30
0.0
 40
0.5000000000000187
100
AcDbArc
 50
0.0
 51
90.0
  0
LINE
  5
2050
330
1F
100
AcDbEntity
  8
10
100
AcDbLine
 10
1205.683150630572
 20
880.5523095026897
 30
0.0
 11
1205.783150630572
 21
880.5523095026897
 31
0.0
  0
LINE
  5
2051
330
1F
100
AcDbEntity
  8
10
100
AcDbLine
 10
1205.683150630572
 20
879.3523095026896
 30
0.0
 11
1205.783150630572
 21
879.3523095026896
 31
0.0
  0
LINE
  5
2052
330
1F
100
AcDbEntity
  8
10
100
AcDbLine
 10
1205.683150630572
 20
882.9523095026898
 30
0.0
 11
1205.783150630572
 21
882.9523095026898
 31
0.0
  0
LINE
  5
2053
330
1F
100
AcDbEntity
  8
10
100
AcDbLine
 10
1205.683150630572
 20
882.4523095026901
 30
0.0
 11
1205.783150630572
 21
882.4523095026901
 31
0.0
  0
LINE
  5
2054
330
1F
100
AcDbEntity
  8
10
100
AcDbLine
 10
1204.383150630572
 20
880.9523095026898
 30
0.0
 11
1204.383150630572
 21
878.4523095026898
 31
0.0
  0
LINE
  5
2055
330
1F
100
AcDbEntity
  8
10
100
AcDbLine
 10
1232.483150630572
 20
856.3523095026898
 30
0.0
 11
1232.483150630572
 21
858.3523095026897
 31
0.0
  0
LINE
  5
2056
330
1F
100
AcDbEntity
  8
10
100
AcDbLine
 10
1233.54794039277
 20
857.4523095026897
 30
0.0
 11
1233.54794039277
 21
858.4523095026897
 31
0.0
  0
LINE
  5
2057
330
1F
100
AcDbEntity
  8
10
100
AcDbLine
 10
1231.425188746321
 20
856.3523095026898
 30
0.0
 11
1232.483150630572
 21
856.3523095026898
 31
0.0
  0
ARC
  5
2058
330
1F
100
AcDbEntity
  8
10
100
AcDbCircle
 10
1233.04794039277
 20
857.4523095026897
 30
0.0
 40
0.4999999999999896
100
AcDbArc
 50
270.0
 51
0.0
  0
LINE
  5
2059
330
1F
100
AcDbEntity
  8
10
100
AcDbLine
 10
1232.483150630572
 20
856.9523095026898
 30
0.0
 11
1233.04794039277
 21
856.9523095026898
 31
0.0
  0
LINE
  5
205A
330
1F
100
AcDbEntity
  8
10
100
AcDbLine
 10
1226.183150630572
 20
884.4523095026898
 30
0.0
 11
1242.383150630572
 21
884.4523095026898
 31
0.0
  0
LINE
  5
205B
330
1F
100
AcDbEntity
  8
10
100
AcDbLine
 10
1229.483150630572
 20
858.4523095026897
 30
0.0
 11
1229.483150630572
 21
858.3523095026897
 31
0.0
  0
LINE
  5
205C
330
1F
100
AcDbEntity
  8
10
100
AcDbLine
 10
1227.54794039277
 20
858.3523095026897
 30
0.0
 11
1227.54794039277
 21
858.4523095026897
 31
0.0
  0
LINE
  5
205D
330
1F
100
AcDbEntity
  8
10
100
AcDbLine
 10
1231.483150630572
 20
858.4523095026897
 30
0.0
 11
1231.483150630572
 21
858.3523095026897
 31
0.0
  0
ARC
  5
205E
330
1F
100
AcDbEntity
  8
10
100
AcDbCircle
 10
1224.083150630572
 20
878.2523095026899
 30
0.0
 40
0.3000000000000707
100
AcDbArc
 50
270.0
 51
0.0
  0
ARC
  5
205F
330
1F
100
AcDbEntity
  8
10
100
AcDbCircle
 10
1226.183150630572
 20
885.4523095026898
 30
0.0
 40
0.9999999999999934
100
AcDbArc
 50
180.0
 51
270.0
  0
ARC
  5
2060
330
1F
100
AcDbEntity
  8
10
100
AcDbCircle
 10
1225.283150630572
 20
878.4523095026898
 30
0.0
 40
0.4999999999999896
100
AcDbArc
 50
270.0
 51
0.0
  0
ARC
  5
2061
330
1F
100
AcDbEntity
  8
10
100
AcDbCircle
 10
1226.283150630572
 20
880.9523095026898
 30
0.0
 40
0.4999999999999896
100
AcDbArc
 50
90.0
 51
180.0
  0
LINE
  5
2062
330
1F
100
AcDbEntity
  8
10
100
AcDbLine
 10
1224.383150630572
 20
879.3523095026896
 30
0.0
 11
1224.483150630572
 21
879.3523095026896
 31
0.0
  0
LINE
  5
2063
330
1F
100
AcDbEntity
  8
10
100
AcDbLine
 10
1224.383150630572
 20
880.5523095026897
 30
0.0
 11
1224.483150630572
 21
880.5523095026897
 31
0.0
  0
LINE
  5
2064
330
1F
100
AcDbEntity
  8
10
100
AcDbLine
 10
1224.383150630572
 20
882.9523095026898
 30
0.0
 11
1224.483150630572
 21
882.9523095026898
 31
0.0
  0
LINE
  5
2065
330
1F
100
AcDbEntity
  8
10
100
AcDbLine
 10
1224.383150630572
 20
882.4523095026897
 30
0.0
 11
1224.483150630572
 21
882.4523095026897
 31
0.0
  0
LINE
  5
2066
330
1F
100
AcDbEntity
  8
10
100
AcDbLine
 10
1225.783150630572
 20
880.9523095026898
 30
0.0
 11
1225.783150630572
 21
878.4523095026898
 31
0.0
  0
ARC
  5
2067
330
1F
100
AcDbEntity
  8
10
100
AcDbCircle
 10
1249.683150630572
 20
868.4523095026898
 30
0.0
 40
0.9999999999999934
100
AcDbArc
 50
0.0
 51
90.0
  0
LINE
  5
2068
330
1F
100
AcDbEntity
  8
10
100
AcDbLine
 10
1250.683150630572
 20
863.9523095026898
 30
0.0
 11
1250.683150630572
 21
868.4523095026898
 31
0.0
  0
ARC
  5
2069
330
1F
100
AcDbEntity
  8
10
100
AcDbCircle
 10
1249.683150630572
 20
863.9523095026898
 30
0.0
 40
1.000000000000007
100
AcDbArc
 50
270.0
 51
0.0
  0
ARC
  5
206A
330
1F
100
AcDbEntity
  8
10
100
AcDbCircle
 10
1242.383150630572
 20
885.4523095026898
 30
0.0
 40
1.000000000000007
100
AcDbArc
 50
270.0
 51
0.0
  0
ARC
  5
206B
330
1F
100
AcDbEntity
  8
10
100
AcDbCircle
 10
1260.183150630572
 20
795.9523095026898
 30
0.0
 40
0.5000000000000039
100
AcDbArc
 50
0.0
 51
90.0
  0
ARC
  5
206C
330
1F
100
AcDbEntity
  8
10
100
AcDbCircle
 10
1413.683150630571
 20
782.8395002757913
 30
0.0
 40
3.000000000000038
100
AcDbArc
 50
105.0000000000011
 51
180.0
  0
ARC
  5
206D
330
1F
100
AcDbEntity
  8
10
100
AcDbCircle
 10
1260.183150630572
 20
858.9523095026898
 30
0.0
 40
0.4999999999999896
100
AcDbArc
 50
270.0
 51
0.0
  0
ARC
  5
206E
330
1F
100
AcDbEntity
  8
10
100
AcDbCircle
 10
1260.183150630572
 20
873.9523095026898
 30
0.0
 40
0.5000000000000039
100
AcDbArc
 50
0.0
 51
90.0
  0
ARC
  5
206F
330
1F
100
AcDbEntity
  8
10
100
AcDbCircle
 10
1260.183150630572
 20
881.9523095026898
 30
0.0
 40
0.5000000000000187
100
AcDbArc
 50
270.0
 51
0.0
  0
LINE
  5
2071
330
1F
100
AcDbEntity
  8
10
100
AcDbLine
 10
1258.683150630572
 20
920.4523095026898
 30
0.0
 11
1142.683150630572
 21
920.4523095026898
 31
0.0
  0
LINE
  5
2072
330
1F
100
AcDbEntity
  8
10
100
AcDbLine
 10
1260.683150630572
 20
905.4523095026899
 30
0.0
 11
1140.683150630572
 21
905.4523095026899
 31
0.0
  0
LINE
  5
2074
330
1F
100
AcDbEntity
  8
10
100
AcDbLine
 10
1140.683150630572
 20
915.4523095026897
 30
0.0
 11
1153.683150630572
 21
915.4523095026897
 31
0.0
  0
LINE
  5
2075
330
1F
100
AcDbEntity
  8
10
100
AcDbLine
 10
1143.683150630572
 20
915.4523095026897
 30
0.0
 11
1143.683150630572
 21
905.4523095026899
 31
0.0
  0
LINE
  5
2076
330
1F
100
AcDbEntity
  8
10
100
AcDbLine
 10
1142.413150630572
 20
905.4523095026899
 30
0.0
 11
1143.683150630572
 21
915.4523095026897
 31
0.0
  0
LINE
  5
2077
330
1F
100
AcDbEntity
  8
10
100
AcDbLine
 10
1142.183150630571
 20
915.4523095026897
 30
0.0
 11
1142.183150630571
 21
919.9523095026897
 31
0.0
  0
LINE
  5
2078
330
1F
100
AcDbEntity
  8
10
100
AcDbLine
 10
1140.683150630572
 20
918.4523095026898
 30
0.0
 11
1142.683150630572
 21
920.4523095026898
 31
0.0
  0
LINE
  5
2079
330
1F
100
AcDbEntity
  8
10
100
AcDbLine
 10
1153.683150630572
 20
915.4523095026897
 30
0.0
 11
1153.683150630572
 21
905.4523095026899
 31
0.0
  0
LINE
  5
207A
330
1F
100
AcDbEntity
  8
10
100
AcDbLine
 10
1247.683150630572
 20
915.4523095026897
 30
0.0
 11
1260.683150630572
 21
915.4523095026897
 31
0.0
  0
LINE
  5
207B
330
1F
100
AcDbEntity
  8
10
100
AcDbLine
 10
1201.683150630572
 20
905.4523095026899
 30
0.0
 11
1259.683150630572
 21
905.4523095026899
 31
0.0
  0
LINE
  5
207D
330
1F
100
AcDbEntity
  8
10
100
AcDbLine
 10
1220.076932166789
 20
904.9523095026897
 30
0.0
 11
1224.083150630572
 21
904.9523095026897
 31
0.0
  0
LINE
  5
207E
330
1F
100
AcDbEntity
  8
10
 48
3.0
100
AcDbLine
 10
1222.703150630572
 20
897.4923095026898
 30
0.0
 11
1207.463150630572
 21
897.4923095026898
 31
0.0
  0
LINE
  5
207F
330
1F
100
AcDbEntity
  8
12
 48
3.0
100
AcDbLine
 10
1208.683150630572
 20
910.4523095026898
 30
0.0
 11
1192.683150630572
 21
910.4523095026898
 31
0.0
  0
CIRCLE
  5
2080
330
1F
100
AcDbEntity
  8
12
100
AcDbCircle
 10
1200.683150630572
 20
910.4523095026898
 30
0.0
 40
2.999999999999993
  0
ARC
  5
2081
330
1F
100
AcDbEntity
  8
10
100
AcDbCircle
 10
1201.683150630572
 20
904.4523095026898
 30
0.0
 40
1.000000000000036
100
AcDbArc
 50
90.0
 51
180.0
  0
LINE
  5
2084
330
1F
100
AcDbEntity
  8
10
100
AcDbLine
 10
1210.083150630572
 20
904.6378987385113
 30
0.0
 11
1220.083150630572
 21
904.6378987385113
 31
0.0
  0
LINE
  5
2085
330
1F
100
AcDbEntity
  8
10
100
AcDbLine
 10
1210.583150630572
 20
905.164066716633
 30
0.0
 11
1219.583150630572
 21
905.164066716633
 31
0.0
  0
LINE
  5
2086
330
1F
100
AcDbEntity
  8
10
100
AcDbLine
 10
1210.583150630572
 20
905.2688822751989
 30
0.0
 11
1219.583150630572
 21
905.2688822751989
 31
0.0
  0
LINE
  5
2087
330
1F
100
AcDbEntity
  8
10
100
AcDbLine
 10
1210.583150630572
 20
905.3736978337653
 30
0.0
 11
1219.583150630572
 21
905.3736978337653
 31
0.0
  0
ARC
  5
2088
330
1F
100
AcDbEntity
  8
10
100
AcDbCircle
 10
1206.083150630572
 20
904.6523095026897
 30
0.0
 40
0.3000000000000707
100
AcDbArc
 50
90.0
 51
180.0
  0
ARC
  5
2089
330
1F
100
AcDbEntity
  8
10
100
AcDbCircle
 10
1210.583150630572
 20
904.6640667166327
 30
0.0
 40
0.5000000000000187
100
AcDbArc
 50
90.0
 51
180.0
  0
ARC
  5
208A
330
1F
100
AcDbEntity
  8
10
100
AcDbCircle
 10
1210.583150630572
 20
904.7688822751993
 30
0.0
 40
0.5000000000000187
100
AcDbArc
 50
90.0
 51
180.0
  0
LINE
  5
208B
330
1F
100
AcDbEntity
  8
10
100
AcDbLine
 10
1210.083150630572
 20
904.6378987385113
 30
0.0
 11
1210.083150630572
 21
904.8736978337652
 31
0.0
  0
ARC
  5
208C
330
1F
100
AcDbEntity
  8
10
100
AcDbCircle
 10
1210.583150630572
 20
904.8736978337652
 30
0.0
 40
0.5000000000000187
100
AcDbArc
 50
90.0
 51
180.0
  0
LINE
  5
208D
330
1F
100
AcDbEntity
  8
10
100
AcDbLine
 10
1206.083150630572
 20
904.9523095026897
 30
0.0
 11
1210.089369094355
 21
904.9523095026897
 31
0.0
  0
LINE
  5
208E
330
1F
100
AcDbEntity
  8
10
100
AcDbLine
 10
1205.683150630572
 20
904.8496200409347
 30
0.0
 11
1205.857167110161
 21
904.8496200409347
 31
0.0
  0
LINE
  5
208F
330
1F
100
AcDbEntity
  8
10
100
AcDbLine
 10
1205.683150630572
 20
902.6493455717352
 30
0.0
 11
1205.783150630572
 21
902.6493455717352
 31
0.0
  0
ARC
  5
2090
330
1F
100
AcDbEntity
  8
10
100
AcDbCircle
 10
1219.583150630572
 20
904.6640667166327
 30
0.0
 40
0.4999999999999896
100
AcDbArc
 50
0.0
 51
90.0
  0
ARC
  5
2091
330
1F
100
AcDbEntity
  8
10
100
AcDbCircle
 10
1219.583150630572
 20
904.7688822751993
 30
0.0
 40
0.4999999999999896
100
AcDbArc
 50
0.0
 51
90.0
  0
LINE
  5
2092
330
1F
100
AcDbEntity
  8
10
100
AcDbLine
 10
1220.083150630572
 20
904.6378987385113
 30
0.0
 11
1220.083150630572
 21
904.8736978337652
 31
0.0
  0
ARC
  5
2093
330
1F
100
AcDbEntity
  8
10
100
AcDbCircle
 10
1219.583150630572
 20
904.8736978337652
 30
0.0
 40
0.4999999999999896
100
AcDbArc
 50
0.0
 51
90.0
  0
LINE
  5
2094
330
1F
100
AcDbEntity
  8
10
100
AcDbLine
 10
1226.183150630572
 20
895.6523095026899
 30
0.0
 11
1242.383150630572
 21
895.6523095026899
 31
0.0
  0
ARC
  5
2095
330
1F
100
AcDbEntity
  8
10
100
AcDbCircle
 10
1224.083150630572
 20
904.6523095026897
 30
0.0
 40
0.299999999999952
100
AcDbArc
 50
0.0
 51
90.0
  0
LINE
  5
2096
330
1F
100
AcDbEntity
  8
10
100
AcDbLine
 10
1224.309134150983
 20
904.8496200409347
 30
0.0
 11
1224.483150630572
 21
904.8496200409347
 31
0.0
  0
ARC
  5
2097
330
1F
100
AcDbEntity
  8
10
100
AcDbCircle
 10
1226.183150630572
 20
894.6523095026899
 30
0.0
 40
1.000000000000007
100
AcDbArc
 50
90.0
 51
180.0
  0
LINE
  5
2098
330
1F
100
AcDbEntity
  8
10
100
AcDbLine
 10
1224.383150630572
 20
902.6493455717352
 30
0.0
 11
1224.483150630572
 21
902.6493455717352
 31
0.0
  0
LINE
  5
209A
330
1F
100
AcDbEntity
  8
10
100
AcDbLine
 10
1247.683150630572
 20
915.4523095026897
 30
0.0
 11
1247.683150630572
 21
905.4523095026899
 31
0.0
  0
ARC
  5
209B
330
1F
100
AcDbEntity
  8
10
100
AcDbCircle
 10
1242.383150630572
 20
894.6523095026899
 30
0.0
 40
0.9999999999999934
100
AcDbArc
 50
0.0
 51
90.0
  0
LINE
  5
209E
330
1F
100
AcDbEntity
  8
10
100
AcDbLine
 10
1258.953150630572
 20
905.4523095026899
 30
0.0
 11
1257.683150630572
 21
915.4523095026897
 31
0.0
  0
LINE
  5
209F
330
1F
100
AcDbEntity
  8
10
100
AcDbLine
 10
1257.683150630572
 20
915.4523095026897
 30
0.0
 11
1257.683150630572
 21
905.4523095026899
 31
0.0
  0
ARC
  5
20A0
330
1F
100
AcDbEntity
  8
10
100
AcDbCircle
 10
1259.683150630572
 20
904.4523095026898
 30
0.0
 40
1.000000000000007
100
AcDbArc
 50
0.0
 51
90.0
  0
LINE
  5
20A1
330
1F
100
AcDbEntity
  8
10
100
AcDbLine
 10
1259.183150630572
 20
915.4523095026897
 30
0.0
 11
1259.183150630572
 21
919.9523095026897
 31
0.0
  0
LINE
  5
20A2
330
1F
100
AcDbEntity
  8
10
100
AcDbLine
 10
1258.683150630572
 20
920.4523095026898
 30
0.0
 11
1260.683150630572
 21
918.4523095026898
 31
0.0
  0
LINE
  5
20A4
330
1F
100
AcDbEntity
  8
10
100
AcDbLine
 10
1615.683150630571
 20
684.45230950269
 30
0.0
 11
1715.683150630571
 21
684.45230950269
 31
0.0
  0
LINE
  5
20A5
330
1F
100
AcDbEntity
  8
10
100
AcDbLine
 10
1615.683150630571
 20
899.4523095026901
 30
0.0
 11
1715.683150630571
 21
899.4523095026901
 31
0.0
  0
ARC
  5
20A6
330
1F
100
AcDbEntity
  8
10
100
AcDbCircle
 10
1458.183150630572
 20
892.4145751087474
 30
0.0
 40
29.99999999999992
100
AcDbArc
 50
160.3162775136998
 51
180.0
  0
LINE
  5
20A7
330
1F
100
AcDbEntity
  8
10
100
AcDbLine
 10
1615.683150630571
 20
639.45230950269
 30
0.0
 11
1615.683150630571
 21
900.45230950269
 31
0.0
  0
LINE
  5
20A8
330
1F
100
AcDbEntity
  8
10
100
AcDbLine
 10
1610.683150630571
 20
620.45230950269
 30
0.0
 11
1610.683150630571
 21
920.45230950269
 31
0.0
  0
LINE
  5
20A9
330
1F
100
AcDbEntity
  8
10
100
AcDbLine
 10
1606.683150630571
 20
620.45230950269
 30
0.0
 11
1606.683150630571
 21
920.45230950269
 31
0.0
  0
LINE
  5
20AA
330
1F
100
AcDbEntity
  8
10
100
AcDbLine
 10
1450.683150630571
 20
905.4523095026899
 30
0.0
 11
1450.683150630571
 21
790.95230950269
 31
0.0
  0
ARC
  5
20AB
330
1F
100
AcDbEntity
  8
10
100
AcDbCircle
 10
1461.183150630572
 20
892.5717984465965
 30
0.0
 40
30.0
100
AcDbArc
 50
160.3162775136998
 51
180.0
  0
LINE
  5
20AC
330
1F
100
AcDbEntity
  8
10
100
AcDbLine
 10
1450.683150630571
 20
905.4523095026899
 30
0.0
 11
1450.683150630571
 21
695.4523095026901
 31
0.0
  0
LINE
  5
20AD
330
1F
100
AcDbEntity
  8
10
100
AcDbLine
 10
1606.183150630571
 20
915.4523095026901
 30
0.0
 11
1606.183150630571
 21
802.9523095026901
 31
0.0
  0
LINE
  5
20AE
330
1F
100
AcDbEntity
  8
10
100
AcDbLine
 10
1601.683150630571
 20
625.4523095026901
 30
0.0
 11
1458.676488063451
 21
635.4523095026901
 31
0.0
  0
LINE
  5
20AF
330
1F
100
AcDbEntity
  8
10
100
AcDbLine
 10
1562.933150630572
 20
702.9523095026876
 30
0.0
 11
1560.433150630571
 21
702.9523095026876
 31
0.0
  0
LINE
  5
20B0
330
1F
100
AcDbEntity
  8
10
100
AcDbLine
 10
1562.933150630572
 20
687.9523095026875
 30
0.0
 11
1560.433150630571
 21
687.9523095026875
 31
0.0
  0
LINE
  5
20B1
330
1F
100
AcDbEntity
  8
10
100
AcDbLine
 10
1562.933150630572
 20
737.9523095026875
 30
0.0
 11
1560.433150630571
 21
737.9523095026875
 31
0.0
  0
LINE
  5
20B2
330
1F
100
AcDbEntity
  8
10
100
AcDbLine
 10
1562.933150630572
 20
752.9523095026876
 30
0.0
 11
1560.433150630571
 21
752.9523095026876
 31
0.0
  0
LINE
  5
20B3
330
1F
100
AcDbEntity
  8
10
100
AcDbLine
 10
1562.933150630572
 20
787.9523095026876
 30
0.0
 11
1560.433150630571
 21
787.9523095026876
 31
0.0
  0
LINE
  5
20B4
330
1F
100
AcDbEntity
  8
10
100
AcDbLine
 10
1562.933150630572
 20
802.9523095026876
 30
0.0
 11
1560.433150630571
 21
802.9523095026876
 31
0.0
  0
LINE
  5
20B5
330
1F
100
AcDbEntity
  8
10
100
AcDbLine
 10
1562.933150630572
 20
837.9523095026875
 30
0.0
 11
1560.433150630571
 21
837.9523095026875
 31
0.0
  0
LINE
  5
20B6
330
1F
100
AcDbEntity
  8
10
100
AcDbLine
 10
1562.933150630572
 20
852.9523095026876
 30
0.0
 11
1560.433150630571
 21
852.9523095026876
 31
0.0
  0
ARC
  5
20B7
330
1F
100
AcDbEntity
  8
10
100
AcDbCircle
 10
1561.683150630571
 20
656.7023095026901
 30
0.0
 40
1.249999999999987
100
AcDbArc
 50
180.0
 51
0.0
  0
ARC
  5
20B8
330
1F
100
AcDbEntity
  8
10
100
AcDbCircle
 10
1561.683150630571
 20
884.2023095026856
 30
0.0
 40
1.250000000000001
100
AcDbArc
 50
0.0
 51
180.0
  0
ARC
  5
20B9
330
1F
100
AcDbEntity
  8
10
100
AcDbCircle
 10
1429.483150630571
 20
744.9523095026901
 30
0.0
 40
2.0
100
AcDbArc
 50
90.0
 51
180.0
  0
LINE
  5
20BA
330
1F
100
AcDbEntity
  8
10
100
AcDbLine
 10
1427.483150630571
 20
747.3192695783991
 30
0.0
 11
1427.483150630571
 21
742.5853494269812
 31
0.0
  0
LINE
  5
20BB
330
1F
100
AcDbEntity
  8
10
100
AcDbLine
 10
1431.383150630572
 20
736.7523095026903
 30
0.0
 11
1431.383150630572
 21
753.1523095026901
 31
0.0
  0
LINE
  5
20BC
330
1F
100
AcDbEntity
  8
10
100
AcDbLine
 10
1433.683150630572
 20
736.4523095026902
 30
0.0
 11
1433.683150630572
 21
753.4523095026902
 31
0.0
  0
LINE
  5
20BD
330
1F
100
AcDbEntity
  8
10
100
AcDbLine
 10
1419.683150630572
 20
683.6751680656771
 30
0.0
 11
1419.683150630572
 21
779.2856969836296
 31
0.0
  0
LINE
  5
20BE
330
1F
100
AcDbEntity
  8
10
100
AcDbLine
 10
1462.933150630571
 20
695.4523095026901
 30
0.0
 11
1462.933150630571
 21
884.2023095026856
 31
0.0
  0
LINE
  5
20BF
330
1F
100
AcDbEntity
  8
10
100
AcDbLine
 10
1472.933150630572
 20
695.4523095026901
 30
0.0
 11
1472.933150630572
 21
884.2023095026856
 31
0.0
  0
LINE
  5
20C0
330
1F
100
AcDbEntity
  8
10
100
AcDbLine
 10
1465.433150630572
 20
695.4523095026901
 30
0.0
 11
1465.433150630572
 21
884.2023095026856
 31
0.0
  0
LINE
  5
20C1
330
1F
100
AcDbEntity
  8
10
100
AcDbLine
 10
1487.933150630571
 20
656.7023095026901
 30
0.0
 11
1487.933150630571
 21
884.2023095026856
 31
0.0
  0
LINE
  5
20C2
330
1F
100
AcDbEntity
  8
10
100
AcDbLine
 10
1475.433150630571
 20
656.7023095026901
 30
0.0
 11
1475.433150630571
 21
884.2023095026856
 31
0.0
  0
LINE
  5
20C3
330
1F
100
AcDbEntity
  8
10
100
AcDbLine
 10
1470.433150630571
 20
695.4523095026901
 30
0.0
 11
1470.433150630571
 21
884.2023095026856
 31
0.0
  0
LINE
  5
20C4
330
1F
100
AcDbEntity
  8
10
100
AcDbLine
 10
1502.933150630571
 20
656.7023095026901
 30
0.0
 11
1502.933150630571
 21
884.2023095026856
 31
0.0
  0
LINE
  5
20C5
330
1F
100
AcDbEntity
  8
10
100
AcDbLine
 10
1467.933150630571
 20
695.4523095026901
 30
0.0
 11
1467.933150630571
 21
884.2023095026856
 31
0.0
  0
LINE
  5
20C6
330
1F
100
AcDbEntity
  8
10
100
AcDbLine
 10
1477.933150630572
 20
656.7023095026901
 30
0.0
 11
1477.933150630572
 21
884.2023095026856
 31
0.0
  0
LINE
  5
20C7
330
1F
100
AcDbEntity
  8
10
100
AcDbLine
 10
1490.433150630571
 20
656.7023095026901
 30
0.0
 11
1490.433150630571
 21
884.2023095026856
 31
0.0
  0
LINE
  5
20C8
330
1F
100
AcDbEntity
  8
10
100
AcDbLine
 10
1480.433150630571
 20
656.7023095026901
 30
0.0
 11
1480.433150630571
 21
884.2023095026856
 31
0.0
  0
LINE
  5
20C9
330
1F
100
AcDbEntity
  8
10
100
AcDbLine
 10
1482.933150630572
 20
656.7023095026901
 30
0.0
 11
1482.933150630572
 21
884.2023095026856
 31
0.0
  0
LINE
  5
20CA
330
1F
100
AcDbEntity
  8
10
100
AcDbLine
 10
1492.933150630571
 20
656.7023095026901
 30
0.0
 11
1492.933150630571
 21
884.2023095026856
 31
0.0
  0
LINE
  5
20CB
330
1F
100
AcDbEntity
  8
10
100
AcDbLine
 10
1505.433150630572
 20
656.7023095026901
 30
0.0
 11
1505.433150630572
 21
884.2023095026856
 31
0.0
  0
LINE
  5
20CC
330
1F
100
AcDbEntity
  8
10
100
AcDbLine
 10
1560.433150630571
 20
656.7023095026901
 30
0.0
 11
1560.433150630571
 21
884.2023095026856
 31
0.0
  0
LINE
  5
20CD
330
1F
100
AcDbEntity
  8
10
100
AcDbLine
 10
1557.933150630572
 20
656.7023095026901
 30
0.0
 11
1557.933150630572
 21
884.2023095026856
 31
0.0
  0
LINE
  5
20CE
330
1F
100
AcDbEntity
  8
10
100
AcDbLine
 10
1555.433150630571
 20
656.7023095026901
 30
0.0
 11
1555.433150630571
 21
884.2023095026856
 31
0.0
  0
LINE
  5
20CF
330
1F
100
AcDbEntity
  8
10
100
AcDbLine
 10
1552.933150630571
 20
656.7023095026901
 30
0.0
 11
1552.933150630571
 21
884.2023095026856
 31
0.0
  0
LINE
  5
20D0
330
1F
100
AcDbEntity
  8
10
100
AcDbLine
 10
1550.433150630571
 20
656.7023095026901
 30
0.0
 11
1550.433150630571
 21
884.2023095026856
 31
0.0
  0
LINE
  5
20D1
330
1F
100
AcDbEntity
  8
10
100
AcDbLine
 10
1547.933150630572
 20
656.7023095026901
 30
0.0
 11
1547.933150630572
 21
884.2023095026856
 31
0.0
  0
LINE
  5
20D2
330
1F
100
AcDbEntity
  8
10
100
AcDbLine
 10
1545.433150630572
 20
656.7023095026901
 30
0.0
 11
1545.433150630572
 21
884.2023095026856
 31
0.0
  0
LINE
  5
20D3
330
1F
100
AcDbEntity
  8
10
100
AcDbLine
 10
1542.933150630571
 20
656.7023095026901
 30
0.0
 11
1542.933150630571
 21
884.2023095026856
 31
0.0
  0
LINE
  5
20D4
330
1F
100
AcDbEntity
  8
10
100
AcDbLine
 10
1540.433150630572
 20
656.7023095026901
 30
0.0
 11
1540.433150630572
 21
884.2023095026856
 31
0.0
  0
LINE
  5
20D5
330
1F
100
AcDbEntity
  8
10
100
AcDbLine
 10
1537.933150630571
 20
656.7023095026901
 30
0.0
 11
1537.933150630571
 21
884.2023095026856
 31
0.0
  0
LINE
  5
20D6
330
1F
100
AcDbEntity
  8
10
100
AcDbLine
 10
1535.433150630572
 20
656.7023095026901
 30
0.0
 11
1535.433150630572
 21
884.2023095026856
 31
0.0
  0
LINE
  5
20D7
330
1F
100
AcDbEntity
  8
10
100
AcDbLine
 10
1532.933150630571
 20
656.7023095026901
 30
0.0
 11
1532.933150630571
 21
884.2023095026856
 31
0.0
  0
LINE
  5
20D8
330
1F
100
AcDbEntity
  8
10
100
AcDbLine
 10
1530.433150630571
 20
656.7023095026901
 30
0.0
 11
1530.433150630571
 21
884.2023095026856
 31
0.0
  0
LINE
  5
20D9
330
1F
100
AcDbEntity
  8
10
100
AcDbLine
 10
1527.933150630572
 20
656.7023095026901
 30
0.0
 11
1527.933150630572
 21
884.2023095026856
 31
0.0
  0
LINE
  5
20DA
330
1F
100
AcDbEntity
  8
10
100
AcDbLine
 10
1525.433150630571
 20
656.7023095026901
 30
0.0
 11
1525.433150630571
 21
884.2023095026856
 31
0.0
  0
LINE
  5
20DB
330
1F
100
AcDbEntity
  8
10
100
AcDbLine
 10
1522.933150630572
 20
656.7023095026901
 30
0.0
 11
1522.933150630572
 21
884.2023095026856
 31
0.0
  0
LINE
  5
20DC
330
1F
100
AcDbEntity
  8
10
100
AcDbLine
 10
1520.433150630571
 20
656.7023095026901
 30
0.0
 11
1520.433150630571
 21
884.2023095026856
 31
0.0
  0
LINE
  5
20DD
330
1F
100
AcDbEntity
  8
10
100
AcDbLine
 10
1517.933150630572
 20
656.7023095026901
 30
0.0
 11
1517.933150630572
 21
884.2023095026856
 31
0.0
  0
LINE
  5
20DE
330
1F
100
AcDbEntity
  8
10
100
AcDbLine
 10
1515.433150630571
 20
656.7023095026901
 30
0.0
 11
1515.433150630571
 21
884.2023095026856
 31
0.0
  0
LINE
  5
20DF
330
1F
100
AcDbEntity
  8
10
100
AcDbLine
 10
1512.933150630571
 20
656.7023095026901
 30
0.0
 11
1512.933150630571
 21
884.2023095026856
 31
0.0
  0
LINE
  5
20E0
330
1F
100
AcDbEntity
  8
10
100
AcDbLine
 10
1510.433150630571
 20
656.7023095026901
 30
0.0
 11
1510.433150630571
 21
884.2023095026856
 31
0.0
  0
LINE
  5
20E1
330
1F
100
AcDbEntity
  8
10
100
AcDbLine
 10
1457.933150630571
 20
695.4523095026901
 30
0.0
 11
1457.933150630571
 21
884.2023095026856
 31
0.0
  0
LINE
  5
20E2
330
1F
100
AcDbEntity
  8
10
100
AcDbLine
 10
1455.433150630572
 20
695.4523095026901
 30
0.0
 11
1455.433150630572
 21
884.2023095026856
 31
0.0
  0
LINE
  5
20E3
330
1F
100
AcDbEntity
  8
10
100
AcDbLine
 10
1495.433150630572
 20
656.7023095026901
 30
0.0
 11
1495.433150630572
 21
884.2023095026856
 31
0.0
  0
LINE
  5
20E4
330
1F
100
AcDbEntity
  8
10
100
AcDbLine
 10
1497.933150630571
 20
656.7023095026901
 30
0.0
 11
1497.933150630571
 21
884.2023095026856
 31
0.0
  0
LINE
  5
20E5
330
1F
100
AcDbEntity
  8
10
100
AcDbLine
 10
1507.933150630571
 20
656.7023095026901
 30
0.0
 11
1507.933150630571
 21
884.2023095026856
 31
0.0
  0
LINE
  5
20E6
330
1F
100
AcDbEntity
  8
10
100
AcDbLine
 10
1500.433150630571
 20
656.7023095026901
 30
0.0
 11
1500.433150630571
 21
884.2023095026856
 31
0.0
  0
LINE
  5
20E7
330
1F
100
AcDbEntity
  8
10
100
AcDbLine
 10
1485.433150630572
 20
656.7023095026901
 30
0.0
 11
1485.433150630572
 21
884.2023095026856
 31
0.0
  0
LINE
  5
20E8
330
1F
100
AcDbEntity
  8
10
100
AcDbLine
 10
1460.433150630572
 20
695.4523095026901
 30
0.0
 11
1460.433150630572
 21
884.2023095026856
 31
0.0
  0
LINE
  5
20E9
330
1F
100
AcDbEntity
  8
10
100
AcDbLine
 10
1450.18315063057
 20
790.4961016544555
 30
0.0
 11
1450.183150630571
 21
695.4523095026901
 31
0.0
  0
LINE
  5
20EA
330
1F
100
AcDbEntity
  8
10
100
AcDbLine
 10
1441.683150630572
 20
782.9785133923317
 30
0.0
 11
1441.683150630572
 21
682.9785133923317
 31
0.0
  0
TEXT
  5
20EB
330
1F
100
AcDbEntity
  8
10
100
AcDbText
 10
1446.183119156263
 20
675.5564707551932
 30
0.0
 40
6.66666676600774
  1
ＮＰ
 50
269.999994991043
 41
0.7031250019402551
  7
STANDARD1
100
AcDbText
  0
LINE
  5
20EC
330
1F
100
AcDbEntity
  8
10
100
AcDbLine
 10
1444.683150630571
 20
645.9523095026901
 30
0.0
 11
1444.683150630571
 21
694.9523095026901
 31
0.0
  0
LINE
  5
20ED
330
1F
100
AcDbEntity
  8
10
100
AcDbLine
 10
1474.683150630571
 20
645.9523095026901
 30
0.0
 11
1474.683150630571
 21
694.9523095026901
 31
0.0
  0
LINE
  5
20EE
330
1F
100
AcDbEntity
  8
10
100
AcDbLine
 10
1430.683150630571
 20
636.500465088351
 30
0.0
 11
1430.683150630571
 21
682.5004650883507
 31
0.0
  0
LINE
  5
20EF
330
1F
100
AcDbEntity
  8
10
100
AcDbLine
 10
1430.683150630571
 20
681.9785133923316
 30
0.0
 11
1430.683150630571
 21
637.4494296550657
 31
0.0
  0
LINE
  5
20F0
330
1F
100
AcDbEntity
  8
10
100
AcDbLine
 10
1445.183150630572
 20
645.4523095026901
 30
0.0
 11
1474.183150630572
 21
645.4523095026901
 31
0.0
  0
LINE
  5
20F1
330
1F
100
AcDbEntity
  8
10
100
AcDbLine
 10
1450.683150630571
 20
635.4523095026901
 30
0.0
 11
1458.676488063451
 21
635.4523095026901
 31
0.0
  0
LINE
  5
20F2
330
1F
100
AcDbEntity
  8
10
100
AcDbLine
 10
1450.683150630571
 20
645.4523095026901
 30
0.0
 11
1450.683150630571
 21
635.4523095026901
 31
0.0
  0
LINE
  5
20F3
330
1F
100
AcDbEntity
  8
10
100
AcDbLine
 10
1450.183150630572
 20
645.4523095026901
 30
0.0
 11
1450.183150630572
 21
635.4785133923318
 31
0.0
  0
LINE
  5
20F4
330
1F
100
AcDbEntity
  8
10
100
AcDbLine
 10
1431.630814674329
 20
636.4508001203112
 30
0.0
 11
1450.183150630572
 21
635.4785133923318
 31
0.0
  0
LINE
  5
20F7
330
1F
100
AcDbEntity
  8
10
100
AcDbLine
 10
1430.683150630571
 20
639.5004650883509
 30
0.0
 11
1430.683150630571
 21
639.5177678252354
 31
0.0
  0
ARC
  5
20F8
330
1F
100
AcDbEntity
  8
10
100
AcDbCircle
 10
1431.683150630571
 20
637.4494296550657
 30
0.0
 40
0.9999999999999996
100
AcDbArc
 50
180.0
 51
267.0000000000009
  0
ARC
  5
20FA
330
1F
100
AcDbEntity
  8
10
100
AcDbCircle
 10
1445.183150630572
 20
645.9523095026901
 30
0.0
 40
0.5
100
AcDbArc
 50
180.0
 51
270.0
  0
LINE
  5
20FC
330
1F
100
AcDbEntity
  8
10
100
AcDbLine
 10
1450.183150630572
 20
635.9523095026901
 30
0.0
 11
1450.683150630571
 21
635.9523095026901
 31
0.0
  0
ARC
  5
20FD
330
1F
100
AcDbEntity
  8
10
100
AcDbCircle
 10
1474.183150630572
 20
645.9523095026901
 30
0.0
 40
0.5
100
AcDbArc
 50
270.0
 51
0.0
  0
ARC
  5
20FE
330
1F
100
AcDbEntity
  8
10
100
AcDbCircle
 10
1481.683150630571
 20
656.7023095026901
 30
0.0
 40
1.249999999999995
100
AcDbArc
 50
180.0
 51
0.0
  0
ARC
  5
20FF
330
1F
100
AcDbEntity
  8
10
100
AcDbCircle
 10
1476.683150630571
 20
656.7023095026901
 30
0.0
 40
1.250000000000001
100
AcDbArc
 50
180.0
 51
0.0
  0
ARC
  5
2100
330
1F
100
AcDbEntity
  8
10
100
AcDbCircle
 10
1486.683150630572
 20
656.7023095026901
 30
0.0
 40
1.250000000000001
100
AcDbArc
 50
180.0
 51
0.0
  0
LINE
  5
2101
330
1F
100
AcDbEntity
  8
10
100
AcDbLine
 10
1445.183150630572
 20
695.4523095026901
 30
0.0
 11
1474.183150630572
 21
695.4523095026901
 31
0.0
  0
ARC
  5
2102
330
1F
100
AcDbEntity
  8
10
100
AcDbCircle
 10
1434.083150630572
 20
710.7819801938411
 30
0.0
 40
1.499999999999999
100
AcDbArc
 50
180.0
 51
236.6329870307708
  0
LINE
  5
2103
330
1F
100
AcDbEntity
  8
10
100
AcDbLine
 10
1435.183150630571
 20
708.9523095026902
 30
0.0
 11
1435.183150630571
 21
715.9523095026902
 31
0.0
  0
LINE
  5
2104
330
1F
100
AcDbEntity
  8
10
100
AcDbLine
 10
1435.183150630571
 20
708.1523095026901
 30
0.0
 11
1435.183150630571
 21
716.7523095026901
 31
0.0
  0
LINE
  5
2105
330
1F
100
AcDbEntity
  8
10
100
AcDbLine
 10
1436.183150630571
 20
707.9523095026902
 30
0.0
 11
1436.183150630571
 21
716.9523095026902
 31
0.0
  0
ARC
  5
2106
330
1F
100
AcDbEntity
  8
10
100
AcDbCircle
 10
1435.183150630571
 20
712.4523095026902
 30
0.0
 40
3.500000000000083
100
AcDbArc
 50
236.6329870307644
 51
270.0
  0
ARC
  5
2107
330
1F
100
AcDbEntity
  8
10
100
AcDbCircle
 10
1435.183150630571
 20
701.4523095026902
 30
0.0
 40
3.500000000000095
100
AcDbArc
 50
236.63298703077
 51
270.0
  0
ARC
  5
2108
330
1F
100
AcDbEntity
  8
10
100
AcDbCircle
 10
1435.183150630571
 20
701.4523095026902
 30
0.0
 40
3.499999999999998
100
AcDbArc
 50
90.0
 51
123.3670129692354
  0
LINE
  5
2109
330
1F
100
AcDbEntity
  8
10
100
AcDbLine
 10
1424.183150630572
 20
705.9523095026902
 30
0.0
 11
1441.683150630572
 21
705.9523095026902
 31
0.0
  0
LINE
  5
210A
330
1F
100
AcDbEntity
  8
10
100
AcDbLine
 10
1424.183150630572
 20
707.9523095026902
 30
0.0
 11
1441.683150630572
 21
707.9523095026902
 31
0.0
  0
LINE
  5
210B
330
1F
100
AcDbEntity
  8
10
100
AcDbLine
 10
1424.183150630572
 20
694.3023095026902
 30
0.0
 11
1441.683150630572
 21
694.3023095026902
 31
0.0
  0
LINE
  5
210C
330
1F
100
AcDbEntity
  8
10
100
AcDbLine
 10
1424.183150630572
 20
696.9523095026902
 30
0.0
 11
1441.683150630572
 21
696.9523095026902
 31
0.0
  0
LINE
  5
210D
330
1F
100
AcDbEntity
  8
10
100
AcDbLine
 10
1441.183150630571
 20
682.4785133923316
 30
0.0
 11
1431.183150630571
 21
682.4785133923316
 31
0.0
  0
LINE
  5
210E
330
1F
100
AcDbEntity
  8
10
100
AcDbLine
 10
1430.683150630571
 20
682.5004650883507
 30
0.0
 11
1420.665698224135
 21
682.6753203705204
 31
0.0
  0
ARC
  5
210F
330
1F
100
AcDbEntity
  8
10
100
AcDbCircle
 10
1420.683150630571
 20
683.6751680656771
 30
0.0
 40
0.9999999999999996
100
AcDbArc
 50
180.0
 51
268.9999999999981
  0
ARC
  5
2110
330
1F
100
AcDbEntity
  8
10
100
AcDbCircle
 10
1431.183150630571
 20
681.9785133923316
 30
0.0
 40
0.4999999999999958
100
AcDbArc
 50
90.0
 51
180.0
  0
LINE
  5
2111
330
1F
100
AcDbEntity
  8
10
100
AcDbLine
 10
1424.183150630572
 20
705.9523095026902
 30
0.0
 11
1424.183150630572
 21
707.9523095026902
 31
0.0
  0
LINE
  5
2112
330
1F
100
AcDbEntity
  8
10
100
AcDbLine
 10
1424.183150630572
 20
694.3023095026902
 30
0.0
 11
1424.183150630572
 21
696.9523095026902
 31
0.0
  0
LINE
  5
2113
330
1F
100
AcDbEntity
  8
10
100
AcDbLine
 10
1432.583150630572
 20
703.1226388115393
 30
0.0
 11
1432.583150630572
 21
699.7819801938414
 31
0.0
  0
ARC
  5
2114
330
1F
100
AcDbEntity
  8
10
100
AcDbCircle
 10
1434.083150630572
 20
703.1226388115393
 30
0.0
 40
1.500000000000096
100
AcDbArc
 50
123.3670129692291
 51
180.0
  0
ARC
  5
2115
330
1F
100
AcDbEntity
  8
10
100
AcDbCircle
 10
1434.083150630572
 20
699.7819801938414
 30
0.0
 40
1.499999999999999
100
AcDbArc
 50
180.0
 51
236.6329870307708
  0
ARC
  5
2116
330
1F
100
AcDbEntity
  8
10
100
AcDbCircle
 10
1434.083150630572
 20
701.4523095026902
 30
0.0
 40
1.499999999999996
100
AcDbArc
 50
90.0
 51
180.0
  0
LINE
  5
2117
330
1F
100
AcDbEntity
  8
10
100
AcDbLine
 10
1432.583150630572
 20
701.4523095026902
 30
0.0
 11
1432.583150630572
 21
701.4523095026902
 31
0.0
  0
ARC
  5
2118
330
1F
100
AcDbEntity
  8
10
100
AcDbCircle
 10
1434.083150630572
 20
701.4523095026902
 30
0.0
 40
1.499999999999999
100
AcDbArc
 50
180.0
 51
270.0
  0
ARC
  5
2119
330
1F
100
AcDbEntity
  8
10
100
AcDbCircle
 10
1441.183150630571
 20
682.9785133923317
 30
0.0
 40
0.5000000000000039
100
AcDbArc
 50
270.0
 51
0.0
  0
LINE
  5
211A
330
1F
100
AcDbEntity
  8
10
100
AcDbLine
 10
1435.183150630571
 20
705.7523095026903
 30
0.0
 11
1436.183150630571
 21
705.7523095026903
 31
0.0
  0
LINE
  5
211B
330
1F
100
AcDbEntity
  8
10
100
AcDbLine
 10
1436.183150630571
 20
697.1523095026903
 30
0.0
 11
1435.183150630571
 21
697.1523095026903
 31
0.0
  0
LINE
  5
211C
330
1F
100
AcDbEntity
  8
10
100
AcDbLine
 10
1435.183150630571
 20
697.1523095026903
 30
0.0
 11
1435.183150630571
 21
705.7523095026903
 31
0.0
  0
LINE
  5
211D
330
1F
100
AcDbEntity
  8
10
100
AcDbLine
 10
1436.183150630571
 20
708.1523095026901
 30
0.0
 11
1435.183150630571
 21
708.1523095026901
 31
0.0
  0
LINE
  5
211E
330
1F
100
AcDbEntity
  8
10
100
AcDbLine
 10
1435.183150630571
 20
697.9523095026904
 30
0.0
 11
1435.183150630571
 21
704.9523095026902
 31
0.0
  0
LINE
  5
211F
330
1F
100
AcDbEntity
  8
10
100
AcDbLine
 10
1435.183150630571
 20
704.9523095026902
 30
0.0
 11
1435.183150630571
 21
705.2523095026903
 31
0.0
  0
LINE
  5
2120
330
1F
100
AcDbEntity
  8
10
100
AcDbLine
 10
1436.183150630571
 20
696.9523095026902
 30
0.0
 11
1436.183150630571
 21
705.9523095026902
 31
0.0
  0
ARC
  5
2121
330
1F
100
AcDbEntity
  8
10
100
AcDbCircle
 10
1445.183150630572
 20
694.9523095026901
 30
0.0
 40
0.4999999999999958
100
AcDbArc
 50
90.0
 51
180.0
  0
ARC
  5
2122
330
1F
100
AcDbEntity
  8
10
100
AcDbCircle
 10
1435.183150630571
 20
723.4523095026901
 30
0.0
 40
3.500000000000095
100
AcDbArc
 50
236.63298703077
 51
270.0
  0
ARC
  5
2123
330
1F
100
AcDbEntity
  8
10
100
AcDbCircle
 10
1435.183150630571
 20
723.4523095026901
 30
0.0
 40
3.500000000000028
100
AcDbArc
 50
90.0
 51
123.36701296923
  0
ARC
  5
2124
330
1F
100
AcDbEntity
  8
10
100
AcDbCircle
 10
1435.183150630571
 20
712.4523095026902
 30
0.0
 40
3.499999999999998
100
AcDbArc
 50
90.0
 51
123.3670129692354
  0
LINE
  5
2125
330
1F
100
AcDbEntity
  8
10
100
AcDbLine
 10
1424.183150630572
 20
730.6023095026903
 30
0.0
 11
1441.683150630572
 21
730.6023095026903
 31
0.0
  0
LINE
  5
2126
330
1F
100
AcDbEntity
  8
10
100
AcDbLine
 10
1424.183150630572
 20
727.9523095026902
 30
0.0
 11
1441.683150630572
 21
727.9523095026902
 31
0.0
  0
LINE
  5
2127
330
1F
100
AcDbEntity
  8
10
100
AcDbLine
 10
1424.183150630572
 20
718.95230950269
 30
0.0
 11
1441.683150630572
 21
718.95230950269
 31
0.0
  0
LINE
  5
2128
330
1F
100
AcDbEntity
  8
10
100
AcDbLine
 10
1424.183150630572
 20
716.9523095026902
 30
0.0
 11
1441.683150630572
 21
716.9523095026902
 31
0.0
  0
LINE
  5
2129
330
1F
100
AcDbEntity
  8
10
100
AcDbLine
 10
1419.683150630572
 20
731.9523095026902
 30
0.0
 11
1441.683150630572
 21
731.9523095026902
 31
0.0
  0
LINE
  5
212A
330
1F
100
AcDbEntity
  8
10
100
AcDbLine
 10
1419.683150630572
 20
736.4523095026902
 30
0.0
 11
1441.683150630572
 21
736.4523095026902
 31
0.0
  0
LINE
  5
212B
330
1F
100
AcDbEntity
  8
10
100
AcDbLine
 10
1424.183150630572
 20
727.9523095026902
 30
0.0
 11
1424.183150630572
 21
730.6023095026903
 31
0.0
  0
LINE
  5
212C
330
1F
100
AcDbEntity
  8
10
100
AcDbLine
 10
1424.183150630572
 20
716.9523095026902
 30
0.0
 11
1424.183150630572
 21
718.9523095026902
 31
0.0
  0
LINE
  5
212D
330
1F
100
AcDbEntity
  8
10
100
AcDbLine
 10
1432.583150630572
 20
725.1226388115391
 30
0.0
 11
1432.583150630572
 21
721.7819801938412
 31
0.0
  0
ARC
  5
212E
330
1F
100
AcDbEntity
  8
10
100
AcDbCircle
 10
1434.083150630572
 20
725.1226388115391
 30
0.0
 40
1.500000000000096
100
AcDbArc
 50
123.3670129692291
 51
180.0
  0
ARC
  5
212F
330
1F
100
AcDbEntity
  8
10
100
AcDbCircle
 10
1434.083150630572
 20
721.7819801938412
 30
0.0
 40
1.499999999999999
100
AcDbArc
 50
180.0
 51
236.6329870307708
  0
ARC
  5
2130
330
1F
100
AcDbEntity
  8
10
100
AcDbCircle
 10
1434.083150630572
 20
723.4523095026901
 30
0.0
 40
1.500000000000025
100
AcDbArc
 50
90.0
 51
180.0
  0
LINE
  5
2131
330
1F
100
AcDbEntity
  8
10
100
AcDbLine
 10
1432.583150630572
 20
723.4523095026901
 30
0.0
 11
1432.583150630572
 21
723.4523095026901
 31
0.0
  0
ARC
  5
2132
330
1F
100
AcDbEntity
  8
10
100
AcDbCircle
 10
1434.083150630572
 20
723.4523095026901
 30
0.0
 40
1.499999999999999
100
AcDbArc
 50
180.0
 51
270.0
  0
LINE
  5
2133
330
1F
100
AcDbEntity
  8
10
100
AcDbLine
 10
1432.583150630572
 20
714.1226388115391
 30
0.0
 11
1432.583150630572
 21
710.7819801938411
 31
0.0
  0
ARC
  5
2134
330
1F
100
AcDbEntity
  8
10
100
AcDbCircle
 10
1434.083150630572
 20
714.1226388115391
 30
0.0
 40
1.500000000000096
100
AcDbArc
 50
123.3670129692291
 51
180.0
  0
ARC
  5
2135
330
1F
100
AcDbEntity
  8
10
100
AcDbCircle
 10
1434.083150630572
 20
712.4523095026902
 30
0.0
 40
1.499999999999996
100
AcDbArc
 50
90.0
 51
180.0
  0
LINE
  5
2136
330
1F
100
AcDbEntity
  8
10
100
AcDbLine
 10
1432.583150630572
 20
712.4523095026902
 30
0.0
 11
1432.583150630572
 21
712.4523095026902
 31
0.0
  0
ARC
  5
2137
330
1F
100
AcDbEntity
  8
10
100
AcDbCircle
 10
1434.083150630572
 20
712.4523095026902
 30
0.0
 40
1.499999999999999
100
AcDbArc
 50
180.0
 51
270.0
  0
ARC
  5
2138
330
1F
100
AcDbEntity
  8
10
100
AcDbCircle
 10
1429.483150630571
 20
744.9523095026901
 30
0.0
 40
1.999999999999999
100
AcDbArc
 50
180.0
 51
270.0
  0
ARC
  5
2139
330
1F
100
AcDbEntity
  8
10
100
AcDbCircle
 10
1429.983150630572
 20
742.5853494269812
 30
0.0
 40
2.499999999999999
100
AcDbArc
 50
180.0
 51
239.3967053917924
  0
ARC
  5
213A
330
1F
100
AcDbEntity
  8
10
100
AcDbCircle
 10
1431.383150630572
 20
744.9523095026901
 30
0.0
 40
5.249999999999953
100
AcDbArc
 50
239.3967053917934
 51
270.0
  0
LINE
  5
213B
330
1F
100
AcDbEntity
  8
10
100
AcDbLine
 10
1431.383150630572
 20
736.7523095026903
 30
0.0
 11
1433.683150630572
 21
736.7523095026903
 31
0.0
  0
LINE
  5
213C
330
1F
100
AcDbEntity
  8
10
100
AcDbLine
 10
1435.183150630571
 20
719.9523095026901
 30
0.0
 11
1435.183150630571
 21
726.9523095026901
 31
0.0
  0
LINE
  5
213D
330
1F
100
AcDbEntity
  8
10
100
AcDbLine
 10
1435.183150630571
 20
726.9523095026901
 30
0.0
 11
1435.183150630571
 21
727.2523095026903
 31
0.0
  0
LINE
  5
213E
330
1F
100
AcDbEntity
  8
10
100
AcDbLine
 10
1436.183150630571
 20
719.1523095026902
 30
0.0
 11
1435.183150630571
 21
719.1523095026902
 31
0.0
  0
LINE
  5
213F
330
1F
100
AcDbEntity
  8
10
100
AcDbLine
 10
1435.183150630571
 20
719.1523095026902
 30
0.0
 11
1435.183150630571
 21
727.7523095026903
 31
0.0
  0
LINE
  5
2140
330
1F
100
AcDbEntity
  8
10
100
AcDbLine
 10
1435.183150630571
 20
727.7523095026903
 30
0.0
 11
1436.183150630571
 21
727.7523095026903
 31
0.0
  0
LINE
  5
2141
330
1F
100
AcDbEntity
  8
10
100
AcDbLine
 10
1435.183150630571
 20
715.9523095026902
 30
0.0
 11
1435.183150630571
 21
716.2523095026902
 31
0.0
  0
LINE
  5
2142
330
1F
100
AcDbEntity
  8
10
100
AcDbLine
 10
1435.183150630571
 20
716.7523095026901
 30
0.0
 11
1436.183150630571
 21
716.7523095026901
 31
0.0
  0
LINE
  5
2143
330
1F
100
AcDbEntity
  8
10
100
AcDbLine
 10
1436.183150630571
 20
718.95230950269
 30
0.0
 11
1436.183150630571
 21
727.9523095026902
 31
0.0
  0
LINE
  5
2144
330
1F
100
AcDbEntity
  8
10
100
AcDbLine
 10
1472.933150630572
 20
702.9523095026876
 30
0.0
 11
1470.433150630571
 21
702.9523095026876
 31
0.0
  0
LINE
  5
2145
330
1F
100
AcDbEntity
  8
10
100
AcDbLine
 10
1462.933150630571
 20
702.9523095026876
 30
0.0
 11
1460.433150630572
 21
702.9523095026876
 31
0.0
  0
LINE
  5
2146
330
1F
100
AcDbEntity
  8
10
100
AcDbLine
 10
1457.933150630571
 20
702.9523095026876
 30
0.0
 11
1455.433150630572
 21
702.9523095026876
 31
0.0
  0
LINE
  5
2147
330
1F
100
AcDbEntity
  8
10
100
AcDbLine
 10
1467.933150630571
 20
702.9523095026876
 30
0.0
 11
1465.433150630572
 21
702.9523095026876
 31
0.0
  0
LINE
  5
2148
330
1F
100
AcDbEntity
  8
10
100
AcDbLine
 10
1482.933150630572
 20
687.9523095026875
 30
0.0
 11
1480.433150630571
 21
687.9523095026875
 31
0.0
  0
LINE
  5
2149
330
1F
100
AcDbEntity
  8
10
100
AcDbLine
 10
1477.933150630572
 20
687.9523095026875
 30
0.0
 11
1475.433150630571
 21
687.9523095026875
 31
0.0
  0
LINE
  5
214A
330
1F
100
AcDbEntity
  8
10
100
AcDbLine
 10
1487.933150630571
 20
687.9523095026875
 30
0.0
 11
1485.433150630572
 21
687.9523095026875
 31
0.0
  0
LINE
  5
214B
330
1F
100
AcDbEntity
  8
10
100
AcDbLine
 10
1482.933150630572
 20
702.9523095026876
 30
0.0
 11
1480.433150630571
 21
702.9523095026876
 31
0.0
  0
ARC
  5
214C
330
1F
100
AcDbEntity
  8
10
100
AcDbCircle
 10
1474.183150630572
 20
694.9523095026901
 30
0.0
 40
0.4999999999999958
100
AcDbArc
 50
0.0
 51
90.0
  0
LINE
  5
214D
330
1F
100
AcDbEntity
  8
10
100
AcDbLine
 10
1477.933150630572
 20
702.9523095026876
 30
0.0
 11
1475.433150630571
 21
702.9523095026876
 31
0.0
  0
LINE
  5
214E
330
1F
100
AcDbEntity
  8
10
100
AcDbLine
 10
1487.933150630571
 20
702.9523095026876
 30
0.0
 11
1485.433150630572
 21
702.9523095026876
 31
0.0
  0
LINE
  5
214F
330
1F
100
AcDbEntity
  8
10
100
AcDbLine
 10
1472.933150630572
 20
737.9523095026875
 30
0.0
 11
1470.433150630571
 21
737.9523095026875
 31
0.0
  0
LINE
  5
2150
330
1F
100
AcDbEntity
  8
10
100
AcDbLine
 10
1462.933150630571
 20
737.9523095026875
 30
0.0
 11
1460.433150630572
 21
737.9523095026875
 31
0.0
  0
LINE
  5
2151
330
1F
100
AcDbEntity
  8
10
100
AcDbLine
 10
1457.933150630571
 20
737.9523095026875
 30
0.0
 11
1455.433150630572
 21
737.9523095026875
 31
0.0
  0
LINE
  5
2152
330
1F
100
AcDbEntity
  8
10
100
AcDbLine
 10
1467.933150630571
 20
737.9523095026875
 30
0.0
 11
1465.433150630572
 21
737.9523095026875
 31
0.0
  0
LINE
  5
2153
330
1F
100
AcDbEntity
  8
10
100
AcDbLine
 10
1482.933150630572
 20
737.9523095026875
 30
0.0
 11
1480.433150630571
 21
737.9523095026875
 31
0.0
  0
LINE
  5
2154
330
1F
100
AcDbEntity
  8
10
100
AcDbLine
 10
1477.933150630572
 20
737.9523095026875
 30
0.0
 11
1475.433150630571
 21
737.9523095026875
 31
0.0
  0
LINE
  5
2155
330
1F
100
AcDbEntity
  8
10
100
AcDbLine
 10
1487.933150630571
 20
737.9523095026875
 30
0.0
 11
1485.433150630572
 21
737.9523095026875
 31
0.0
  0
ARC
  5
2156
330
1F
100
AcDbEntity
  8
10
100
AcDbCircle
 10
1526.683150630572
 20
656.7023095026901
 30
0.0
 40
1.250000000000001
100
AcDbArc
 50
180.0
 51
0.0
  0
ARC
  5
2157
330
1F
100
AcDbEntity
  8
10
100
AcDbCircle
 10
1496.683150630572
 20
656.7023095026901
 30
0.0
 40
1.249999999999995
100
AcDbArc
 50
180.0
 51
0.0
  0
ARC
  5
2158
330
1F
100
AcDbEntity
  8
10
100
AcDbCircle
 10
1491.683150630572
 20
656.7023095026901
 30
0.0
 40
1.249999999999995
100
AcDbArc
 50
180.0
 51
0.0
  0
ARC
  5
2159
330
1F
100
AcDbEntity
  8
10
100
AcDbCircle
 10
1506.683150630571
 20
656.7023095026901
 30
0.0
 40
1.250000000000001
100
AcDbArc
 50
180.0
 51
0.0
  0
ARC
  5
215A
330
1F
100
AcDbEntity
  8
10
100
AcDbCircle
 10
1501.683150630571
 20
656.7023095026901
 30
0.0
 40
1.250000000000001
100
AcDbArc
 50
180.0
 51
0.0
  0
ARC
  5
215B
330
1F
100
AcDbEntity
  8
10
100
AcDbCircle
 10
1516.683150630572
 20
656.7023095026901
 30
0.0
 40
1.249999999999987
100
AcDbArc
 50
180.0
 51
0.0
  0
ARC
  5
215C
330
1F
100
AcDbEntity
  8
10
100
AcDbCircle
 10
1511.683150630571
 20
656.7023095026901
 30
0.0
 40
1.249999999999987
100
AcDbArc
 50
180.0
 51
0.0
  0
ARC
  5
215D
330
1F
100
AcDbEntity
  8
10
100
AcDbCircle
 10
1521.683150630571
 20
656.7023095026901
 30
0.0
 40
1.250000000000001
100
AcDbArc
 50
180.0
 51
0.0
  0
ARC
  5
215E
330
1F
100
AcDbEntity
  8
10
100
AcDbCircle
 10
1531.683150630571
 20
656.7023095026901
 30
0.0
 40
1.250000000000001
100
AcDbArc
 50
180.0
 51
0.0
  0
ARC
  5
215F
330
1F
100
AcDbEntity
  8
10
100
AcDbCircle
 10
1541.683150630571
 20
656.7023095026901
 30
0.0
 40
1.250000000000001
100
AcDbArc
 50
180.0
 51
0.0
  0
ARC
  5
2160
330
1F
100
AcDbEntity
  8
10
100
AcDbCircle
 10
1536.683150630572
 20
656.7023095026901
 30
0.0
 40
1.250000000000001
100
AcDbArc
 50
180.0
 51
0.0
  0
ARC
  5
2161
330
1F
100
AcDbEntity
  8
10
100
AcDbCircle
 10
1551.683150630571
 20
656.7023095026901
 30
0.0
 40
1.250000000000001
100
AcDbArc
 50
180.0
 51
0.0
  0
ARC
  5
2162
330
1F
100
AcDbEntity
  8
10
100
AcDbCircle
 10
1546.683150630571
 20
656.7023095026901
 30
0.0
 40
1.250000000000001
100
AcDbArc
 50
180.0
 51
0.0
  0
ARC
  5
2163
330
1F
100
AcDbEntity
  8
10
100
AcDbCircle
 10
1556.683150630572
 20
656.7023095026901
 30
0.0
 40
1.249999999999987
100
AcDbArc
 50
180.0
 51
0.0
  0
LINE
  5
2164
330
1F
100
AcDbEntity
  8
10
100
AcDbLine
 10
1527.933150630572
 20
702.9523095026876
 30
0.0
 11
1525.433150630571
 21
702.9523095026876
 31
0.0
  0
LINE
  5
2165
330
1F
100
AcDbEntity
  8
10
100
AcDbLine
 10
1527.933150630572
 20
687.9523095026875
 30
0.0
 11
1525.433150630571
 21
687.9523095026875
 31
0.0
  0
LINE
  5
2166
330
1F
100
AcDbEntity
  8
10
100
AcDbLine
 10
1527.933150630572
 20
737.9523095026875
 30
0.0
 11
1525.433150630571
 21
737.9523095026875
 31
0.0
  0
LINE
  5
2167
330
1F
100
AcDbEntity
  8
10
100
AcDbLine
 10
1497.933150630571
 20
687.9523095026875
 30
0.0
 11
1495.433150630572
 21
687.9523095026875
 31
0.0
  0
LINE
  5
2168
330
1F
100
AcDbEntity
  8
10
100
AcDbLine
 10
1492.933150630571
 20
687.9523095026875
 30
0.0
 11
1490.433150630571
 21
687.9523095026875
 31
0.0
  0
LINE
  5
2169
330
1F
100
AcDbEntity
  8
10
100
AcDbLine
 10
1507.933150630571
 20
687.9523095026875
 30
0.0
 11
1505.433150630572
 21
687.9523095026875
 31
0.0
  0
LINE
  5
216A
330
1F
100
AcDbEntity
  8
10
100
AcDbLine
 10
1502.933150630571
 20
687.9523095026875
 30
0.0
 11
1500.433150630571
 21
687.9523095026875
 31
0.0
  0
LINE
  5
216B
330
1F
100
AcDbEntity
  8
10
100
AcDbLine
 10
1497.933150630571
 20
702.9523095026876
 30
0.0
 11
1495.433150630572
 21
702.9523095026876
 31
0.0
  0
LINE
  5
216C
330
1F
100
AcDbEntity
  8
10
100
AcDbLine
 10
1492.933150630571
 20
702.9523095026876
 30
0.0
 11
1490.433150630571
 21
702.9523095026876
 31
0.0
  0
LINE
  5
216D
330
1F
100
AcDbEntity
  8
10
100
AcDbLine
 10
1507.933150630571
 20
702.9523095026876
 30
0.0
 11
1505.433150630572
 21
702.9523095026876
 31
0.0
  0
LINE
  5
216E
330
1F
100
AcDbEntity
  8
10
100
AcDbLine
 10
1502.933150630571
 20
702.9523095026876
 30
0.0
 11
1500.433150630571
 21
702.9523095026876
 31
0.0
  0
LINE
  5
216F
330
1F
100
AcDbEntity
  8
10
100
AcDbLine
 10
1517.933150630572
 20
687.9523095026875
 30
0.0
 11
1515.433150630571
 21
687.9523095026875
 31
0.0
  0
LINE
  5
2170
330
1F
100
AcDbEntity
  8
10
100
AcDbLine
 10
1512.933150630571
 20
687.9523095026875
 30
0.0
 11
1510.433150630571
 21
687.9523095026875
 31
0.0
  0
LINE
  5
2171
330
1F
100
AcDbEntity
  8
10
100
AcDbLine
 10
1522.933150630572
 20
687.9523095026875
 30
0.0
 11
1520.433150630571
 21
687.9523095026875
 31
0.0
  0
LINE
  5
2172
330
1F
100
AcDbEntity
  8
10
100
AcDbLine
 10
1517.933150630572
 20
702.9523095026876
 30
0.0
 11
1515.433150630571
 21
702.9523095026876
 31
0.0
  0
LINE
  5
2173
330
1F
100
AcDbEntity
  8
10
100
AcDbLine
 10
1512.933150630571
 20
702.9523095026876
 30
0.0
 11
1510.433150630571
 21
702.9523095026876
 31
0.0
  0
LINE
  5
2174
330
1F
100
AcDbEntity
  8
10
100
AcDbLine
 10
1522.933150630572
 20
702.9523095026876
 30
0.0
 11
1520.433150630571
 21
702.9523095026876
 31
0.0
  0
LINE
  5
2175
330
1F
100
AcDbEntity
  8
10
100
AcDbLine
 10
1497.933150630571
 20
737.9523095026875
 30
0.0
 11
1495.433150630572
 21
737.9523095026875
 31
0.0
  0
LINE
  5
2176
330
1F
100
AcDbEntity
  8
10
100
AcDbLine
 10
1492.933150630571
 20
737.9523095026875
 30
0.0
 11
1490.433150630571
 21
737.9523095026875
 31
0.0
  0
LINE
  5
2177
330
1F
100
AcDbEntity
  8
10
100
AcDbLine
 10
1507.933150630571
 20
737.9523095026875
 30
0.0
 11
1505.433150630572
 21
737.9523095026875
 31
0.0
  0
LINE
  5
2178
330
1F
100
AcDbEntity
  8
10
100
AcDbLine
 10
1502.933150630571
 20
737.9523095026875
 30
0.0
 11
1500.433150630571
 21
737.9523095026875
 31
0.0
  0
LINE
  5
2179
330
1F
100
AcDbEntity
  8
10
100
AcDbLine
 10
1517.933150630572
 20
737.9523095026875
 30
0.0
 11
1515.433150630571
 21
737.9523095026875
 31
0.0
  0
LINE
  5
217A
330
1F
100
AcDbEntity
  8
10
100
AcDbLine
 10
1512.933150630571
 20
737.9523095026875
 30
0.0
 11
1510.433150630571
 21
737.9523095026875
 31
0.0
  0
LINE
  5
217B
330
1F
100
AcDbEntity
  8
10
100
AcDbLine
 10
1522.933150630572
 20
737.9523095026875
 30
0.0
 11
1520.433150630571
 21
737.9523095026875
 31
0.0
  0
LINE
  5
217C
330
1F
100
AcDbEntity
  8
10
100
AcDbLine
 10
1532.933150630571
 20
687.9523095026875
 30
0.0
 11
1530.433150630571
 21
687.9523095026875
 31
0.0
  0
LINE
  5
217D
330
1F
100
AcDbEntity
  8
10
100
AcDbLine
 10
1542.933150630571
 20
687.9523095026875
 30
0.0
 11
1540.433150630572
 21
687.9523095026875
 31
0.0
  0
LINE
  5
217E
330
1F
100
AcDbEntity
  8
10
100
AcDbLine
 10
1537.933150630571
 20
687.9523095026875
 30
0.0
 11
1535.433150630572
 21
687.9523095026875
 31
0.0
  0
LINE
  5
217F
330
1F
100
AcDbEntity
  8
10
100
AcDbLine
 10
1532.933150630571
 20
702.9523095026876
 30
0.0
 11
1530.433150630571
 21
702.9523095026876
 31
0.0
  0
LINE
  5
2180
330
1F
100
AcDbEntity
  8
10
100
AcDbLine
 10
1542.933150630571
 20
702.9523095026876
 30
0.0
 11
1540.433150630572
 21
702.9523095026876
 31
0.0
  0
LINE
  5
2181
330
1F
100
AcDbEntity
  8
10
100
AcDbLine
 10
1537.933150630571
 20
702.9523095026876
 30
0.0
 11
1535.433150630572
 21
702.9523095026876
 31
0.0
  0
LINE
  5
2182
330
1F
100
AcDbEntity
  8
10
100
AcDbLine
 10
1552.933150630571
 20
687.9523095026875
 30
0.0
 11
1550.433150630571
 21
687.9523095026875
 31
0.0
  0
LINE
  5
2183
330
1F
100
AcDbEntity
  8
10
100
AcDbLine
 10
1547.933150630572
 20
687.9523095026875
 30
0.0
 11
1545.433150630572
 21
687.9523095026875
 31
0.0
  0
LINE
  5
2184
330
1F
100
AcDbEntity
  8
10
100
AcDbLine
 10
1557.933150630572
 20
687.9523095026875
 30
0.0
 11
1555.433150630571
 21
687.9523095026875
 31
0.0
  0
LINE
  5
2185
330
1F
100
AcDbEntity
  8
10
100
AcDbLine
 10
1552.933150630571
 20
702.9523095026876
 30
0.0
 11
1550.433150630571
 21
702.9523095026876
 31
0.0
  0
LINE
  5
2186
330
1F
100
AcDbEntity
  8
10
100
AcDbLine
 10
1547.933150630572
 20
702.9523095026876
 30
0.0
 11
1545.433150630572
 21
702.9523095026876
 31
0.0
  0
LINE
  5
2187
330
1F
100
AcDbEntity
  8
10
100
AcDbLine
 10
1557.933150630572
 20
702.9523095026876
 30
0.0
 11
1555.433150630571
 21
702.9523095026876
 31
0.0
  0
LINE
  5
2188
330
1F
100
AcDbEntity
  8
10
100
AcDbLine
 10
1532.933150630571
 20
737.9523095026875
 30
0.0
 11
1530.433150630571
 21
737.9523095026875
 31
0.0
  0
LINE
  5
2189
330
1F
100
AcDbEntity
  8
10
100
AcDbLine
 10
1542.933150630571
 20
737.9523095026875
 30
0.0
 11
1540.433150630572
 21
737.9523095026875
 31
0.0
  0
LINE
  5
218A
330
1F
100
AcDbEntity
  8
10
100
AcDbLine
 10
1537.933150630571
 20
737.9523095026875
 30
0.0
 11
1535.433150630572
 21
737.9523095026875
 31
0.0
  0
LINE
  5
218B
330
1F
100
AcDbEntity
  8
10
100
AcDbLine
 10
1552.933150630571
 20
737.9523095026875
 30
0.0
 11
1550.433150630571
 21
737.9523095026875
 31
0.0
  0
LINE
  5
218C
330
1F
100
AcDbEntity
  8
10
100
AcDbLine
 10
1547.933150630572
 20
737.9523095026875
 30
0.0
 11
1545.433150630572
 21
737.9523095026875
 31
0.0
  0
LINE
  5
218D
330
1F
100
AcDbEntity
  8
10
100
AcDbLine
 10
1557.933150630572
 20
737.9523095026875
 30
0.0
 11
1555.433150630571
 21
737.9523095026875
 31
0.0
  0
LINE
  5
218E
330
1F
100
AcDbEntity
  8
10
100
AcDbLine
 10
1428.083150630572
 20
854.9523095026897
 30
0.0
 11
1428.083150630572
 21
799.9523095026898
 31
0.0
  0
LINE
  5
218F
330
1F
100
AcDbEntity
  8
10
100
AcDbLine
 10
1425.183150630571
 20
857.1888982602768
 30
0.0
 11
1425.183150630571
 21
797.7157207451027
 31
0.0
  0
LINE
  5
2190
330
1F
100
AcDbEntity
  8
10
100
AcDbLine
 10
1427.18315063057
 20
856.2399336935621
 30
0.0
 11
1427.18315063057
 21
798.664685311818
 31
0.0
  0
LINE
  5
2191
330
1F
100
AcDbEntity
  8
10
100
AcDbLine
 10
1438.183150630572
 20
857.838775416635
 30
0.0
 11
1438.183150630572
 21
797.0658435887454
 31
0.0
  0
LINE
  5
2192
330
1F
100
AcDbEntity
  8
10
100
AcDbLine
 10
1430.683150630571
 20
790.5004650883507
 30
0.0
 11
1430.683150630571
 21
783.0004650883507
 31
0.0
  0
LINE
  5
2193
330
1F
100
AcDbEntity
  8
10
100
AcDbLine
 10
1430.683150630571
 20
790.3259277325359
 30
0.0
 11
1430.683150630571
 21
783.4785133923316
 31
0.0
  0
LINE
  5
2194
330
1F
100
AcDbEntity
  8
10
100
AcDbLine
 10
1426.771380730649
 20
781.9523095026903
 30
0.0
 11
1441.683150630572
 21
781.9523095026903
 31
0.0
  0
LINE
  5
2195
330
1F
100
AcDbEntity
  8
10
100
AcDbLine
 10
1419.683150630572
 20
777.4523095026901
 30
0.0
 11
1441.683150630572
 21
777.4523095026901
 31
0.0
  0
LINE
  5
2196
330
1F
100
AcDbEntity
  8
10
100
AcDbLine
 10
1419.683150630572
 20
760.4523095026901
 30
0.0
 11
1441.683150630572
 21
760.4523095026901
 31
0.0
  0
LINE
  5
2197
330
1F
100
AcDbEntity
  8
10
100
AcDbLine
 10
1419.683150630572
 20
753.4523095026902
 30
0.0
 11
1441.683150630572
 21
753.4523095026902
 31
0.0
  0
LINE
  5
2198
330
1F
100
AcDbEntity
  8
10
100
AcDbLine
 10
1441.683150630572
 20
782.9785133923317
 30
0.0
 11
1431.183150630571
 21
782.9785133923317
 31
0.0
  0
ARC
  5
2199
330
1F
100
AcDbEntity
  8
10
100
AcDbCircle
 10
1429.983150630572
 20
766.5853494269811
 30
0.0
 40
2.499999999999999
100
AcDbArc
 50
180.0
 51
239.3967053917924
  0
LINE
  5
219A
330
1F
100
AcDbEntity
  8
10
100
AcDbLine
 10
1431.383150630572
 20
760.7523095026903
 30
0.0
 11
1431.383150630572
 21
777.1523095026902
 31
0.0
  0
LINE
  5
219B
330
1F
100
AcDbEntity
  8
10
100
AcDbLine
 10
1433.683150630572
 20
760.4523095026901
 30
0.0
 11
1433.683150630572
 21
777.4523095026901
 31
0.0
  0
ARC
  5
219C
330
1F
100
AcDbEntity
  8
10
100
AcDbCircle
 10
1429.983150630572
 20
747.3192695783991
 30
0.0
 40
2.499999999999984
100
AcDbArc
 50
120.6032946082074
 51
180.0
  0
ARC
  5
219D
330
1F
100
AcDbEntity
  8
10
100
AcDbCircle
 10
1431.383150630572
 20
744.9523095026901
 30
0.0
 40
5.24999999999999
100
AcDbArc
 50
90.0
 51
120.6032946082065
  0
ARC
  5
219E
330
1F
100
AcDbEntity
  8
10
100
AcDbCircle
 10
1431.383150630572
 20
768.95230950269
 30
0.0
 40
5.249999999999953
100
AcDbArc
 50
239.3967053917934
 51
270.0
  0
LINE
  5
219F
330
1F
100
AcDbEntity
  8
10
100
AcDbLine
 10
1431.383150630572
 20
760.7523095026903
 30
0.0
 11
1433.683150630572
 21
760.7523095026903
 31
0.0
  0
LINE
  5
21A0
330
1F
100
AcDbEntity
  8
10
100
AcDbLine
 10
1431.383150630572
 20
753.1523095026901
 30
0.0
 11
1433.683150630572
 21
753.1523095026901
 31
0.0
  0
LINE
  5
21A1
330
1F
100
AcDbEntity
  8
10
100
AcDbLine
 10
1430.683150630571
 20
783.0004650883507
 30
0.0
 11
1420.424331585468
 21
780.2516228099188
 31
0.0
  0
ARC
  5
21A2
330
1F
100
AcDbEntity
  8
10
100
AcDbCircle
 10
1420.683150630571
 20
779.2856969836296
 30
0.0
 40
1.000000000000021
100
AcDbArc
 50
105.0000000000011
 51
180.0
  0
ARC
  5
21A3
330
1F
100
AcDbEntity
  8
10
100
AcDbCircle
 10
1429.483150630571
 20
768.95230950269
 30
0.0
 40
2.000000000000015
100
AcDbArc
 50
90.0
 51
180.0
  0
ARC
  5
21A4
330
1F
100
AcDbEntity
  8
10
100
AcDbCircle
 10
1429.483150630571
 20
768.95230950269
 30
0.0
 40
1.999999999999999
100
AcDbArc
 50
180.0
 51
270.0
  0
ARC
  5
21A5
330
1F
100
AcDbEntity
  8
10
100
AcDbCircle
 10
1429.983150630572
 20
771.3192695783991
 30
0.0
 40
2.499999999999984
100
AcDbArc
 50
120.6032946082074
 51
180.0
  0
LINE
  5
21A6
330
1F
100
AcDbEntity
  8
10
100
AcDbLine
 10
1427.483150630571
 20
771.3192695783991
 30
0.0
 11
1427.483150630571
 21
766.5853494269811
 31
0.0
  0
ARC
  5
21A7
330
1F
100
AcDbEntity
  8
10
100
AcDbCircle
 10
1431.383150630572
 20
768.95230950269
 30
0.0
 40
5.24999999999999
100
AcDbArc
 50
90.0
 51
120.6032946082065
  0
LINE
  5
21A8
330
1F
100
AcDbEntity
  8
10
100
AcDbLine
 10
1431.383150630572
 20
777.1523095026902
 30
0.0
 11
1433.683150630572
 21
777.1523095026902
 31
0.0
  0
ARC
  5
21A9
330
1F
100
AcDbEntity
  8
10
100
AcDbCircle
 10
1431.183150630571
 20
783.4785133923316
 30
0.0
 40
0.5
100
AcDbArc
 50
180.0
 51
270.0
  0
LINE
  5
21AA
330
1F
100
AcDbEntity
  8
10
100
AcDbLine
 10
1428.083150630572
 20
799.9523095026898
 30
0.0
 11
1436.683150630571
 21
799.9523095026898
 31
0.0
  0
LINE
  5
21AB
330
1F
100
AcDbEntity
  8
10
100
AcDbLine
 10
1437.69187683379
 20
796.5659197411672
 30
0.0
 11
1431.674424427352
 21
796.4608847187101
 31
0.0
  0
LINE
  5
21AC
330
1F
100
AcDbEntity
  8
10
100
AcDbLine
 10
1433.383150630572
 20
797.95230950269
 30
0.0
 11
1436.683150630571
 21
797.95230950269
 31
0.0
  0
LINE
  5
21AD
330
1F
100
AcDbEntity
  8
10
100
AcDbLine
 10
1450.683150630571
 20
790.95230950269
 30
0.0
 11
1431.183150630571
 21
790.95230950269
 31
0.0
  0
LINE
  5
21AE
330
1F
100
AcDbEntity
  8
10
100
AcDbLine
 10
1450.683150630571
 20
790.500465088351
 30
0.0
 11
1430.683150630571
 21
790.3259277325359
 31
0.0
  0
ARC
  5
21AF
330
1F
100
AcDbEntity
  8
10
100
AcDbCircle
 10
1426.183150630571
 20
797.7157207451027
 30
0.0
 40
0.9999999999999996
100
AcDbArc
 50
180.0
 51
267.0000000000009
  0
LINE
  5
21B0
330
1F
100
AcDbEntity
  8
10
100
AcDbLine
 10
1426.130814674329
 20
796.7170912103482
 30
0.0
 11
1431.183150630574
 21
796.4523095026898
 31
0.0
  0
LINE
  5
21B1
330
1F
100
AcDbEntity
  8
10
100
AcDbLine
 10
1427.18315063057
 20
798.664685311818
 30
0.0
 11
1431.235522473714
 21
798.45230950269
 31
0.0
  0
LINE
  5
21B2
330
1F
100
AcDbEntity
  8
10
100
AcDbLine
 10
1433.183150630571
 20
798.45230950269
 30
0.0
 11
1433.183150630571
 21
796.4872196325464
 31
0.0
  0
LINE
  5
21B3
330
1F
100
AcDbEntity
  8
10
100
AcDbLine
 10
1431.235522473714
 20
798.45230950269
 30
0.0
 11
1433.183150630571
 21
798.45230950269
 31
0.0
  0
LINE
  5
21B4
330
1F
100
AcDbEntity
  8
10
100
AcDbLine
 10
1431.183150630574
 20
796.4523095026898
 30
0.0
 11
1431.590541115584
 21
796.4523095026898
 31
0.0
  0
LINE
  5
21B5
330
1F
100
AcDbEntity
  8
10
100
AcDbLine
 10
1429.085074419219
 20
798.5650097096894
 30
0.0
 11
1429.085074419219
 21
799.9523095026898
 31
0.0
  0
LINE
  5
21B6
330
1F
100
AcDbEntity
  8
10
100
AcDbLine
 10
1430.683150630571
 20
798.4812580843273
 30
0.0
 11
1430.683150630571
 21
799.9523095026898
 31
0.0
  0
LINE
  5
21B7
330
1F
100
AcDbEntity
  8
10
100
AcDbLine
 10
1431.183150630571
 20
799.9523095026898
 30
0.0
 11
1431.183150630571
 21
798.9523095026897
 31
0.0
  0
ARC
  5
21B8
330
1F
100
AcDbEntity
  8
10
100
AcDbCircle
 10
1431.683150630571
 20
795.960960871132
 30
0.0
 40
0.5000000000000039
100
AcDbArc
 50
91.00000000000177
 51
180.0
  0
LINE
  5
21B9
330
1F
100
AcDbEntity
  8
10
100
AcDbLine
 10
1433.383150630572
 20
797.95230950269
 30
0.0
 11
1433.383150630572
 21
796.4907106455321
 31
0.0
  0
LINE
  5
21BA
330
1F
100
AcDbEntity
  8
10
100
AcDbLine
 10
1433.683150630572
 20
798.9523095026897
 30
0.0
 11
1433.683150630572
 21
797.95230950269
 31
0.0
  0
LINE
  5
21BB
330
1F
100
AcDbEntity
  8
10
100
AcDbLine
 10
1431.183150630571
 20
795.960960871132
 30
0.0
 11
1431.183150630571
 21
790.95230950269
 31
0.0
  0
LINE
  5
21BC
330
1F
100
AcDbEntity
  8
10
100
AcDbLine
 10
1431.183150630571
 20
798.9523095026897
 30
0.0
 11
1433.683150630572
 21
798.9523095026897
 31
0.0
  0
LINE
  5
21BD
330
1F
100
AcDbEntity
  8
10
100
AcDbLine
 10
1436.683150630571
 20
801.4523095026898
 30
0.0
 11
1438.183150630572
 21
802.9523095026897
 31
0.0
  0
ARC
  5
21BE
330
1F
100
AcDbEntity
  8
10
100
AcDbCircle
 10
1437.683150630571
 20
797.0658435887454
 30
0.0
 40
0.5000000000000039
100
AcDbArc
 50
271.0000000000017
 51
0.0
  0
LINE
  5
21BF
330
1F
100
AcDbEntity
  8
10
100
AcDbLine
 10
1436.683150630571
 20
801.4523095026898
 30
0.0
 11
1436.683150630571
 21
796.5483123597952
 31
0.0
  0
LINE
  5
21C0
330
1F
100
AcDbEntity
  8
10
100
AcDbLine
 10
1450.683150630571
 20
790.500465088351
 30
0.0
 11
1450.683150630571
 21
794.5004650883507
 31
0.0
  0
LINE
  5
21C1
330
1F
100
AcDbEntity
  8
10
100
AcDbLine
 10
1472.933150630572
 20
752.9523095026876
 30
0.0
 11
1470.433150630571
 21
752.9523095026876
 31
0.0
  0
LINE
  5
21C2
330
1F
100
AcDbEntity
  8
10
100
AcDbLine
 10
1462.933150630571
 20
752.9523095026876
 30
0.0
 11
1460.433150630572
 21
752.9523095026876
 31
0.0
  0
LINE
  5
21C3
330
1F
100
AcDbEntity
  8
10
100
AcDbLine
 10
1457.933150630571
 20
752.9523095026876
 30
0.0
 11
1455.433150630572
 21
752.9523095026876
 31
0.0
  0
LINE
  5
21C4
330
1F
100
AcDbEntity
  8
10
100
AcDbLine
 10
1467.933150630571
 20
752.9523095026876
 30
0.0
 11
1465.433150630572
 21
752.9523095026876
 31
0.0
  0
LINE
  5
21C5
330
1F
100
AcDbEntity
  8
10
100
AcDbLine
 10
1482.933150630572
 20
752.9523095026876
 30
0.0
 11
1480.433150630571
 21
752.9523095026876
 31
0.0
  0
LINE
  5
21C6
330
1F
100
AcDbEntity
  8
10
100
AcDbLine
 10
1477.933150630572
 20
752.9523095026876
 30
0.0
 11
1475.433150630571
 21
752.9523095026876
 31
0.0
  0
LINE
  5
21C7
330
1F
100
AcDbEntity
  8
10
100
AcDbLine
 10
1487.933150630571
 20
752.9523095026876
 30
0.0
 11
1485.433150630572
 21
752.9523095026876
 31
0.0
  0
LINE
  5
21C8
330
1F
100
AcDbEntity
  8
10
100
AcDbLine
 10
1472.933150630572
 20
787.9523095026876
 30
0.0
 11
1470.433150630571
 21
787.9523095026876
 31
0.0
  0
LINE
  5
21C9
330
1F
100
AcDbEntity
  8
10
100
AcDbLine
 10
1472.933150630572
 20
802.9523095026876
 30
0.0
 11
1470.433150630571
 21
802.9523095026876
 31
0.0
  0
LINE
  5
21CA
330
1F
100
AcDbEntity
  8
10
100
AcDbLine
 10
1462.933150630571
 20
787.9523095026876
 30
0.0
 11
1460.433150630572
 21
787.9523095026876
 31
0.0
  0
LINE
  5
21CB
330
1F
100
AcDbEntity
  8
10
100
AcDbLine
 10
1457.933150630571
 20
787.9523095026876
 30
0.0
 11
1455.433150630572
 21
787.9523095026876
 31
0.0
  0
LINE
  5
21CC
330
1F
100
AcDbEntity
  8
10
100
AcDbLine
 10
1467.933150630571
 20
787.9523095026876
 30
0.0
 11
1465.433150630572
 21
787.9523095026876
 31
0.0
  0
LINE
  5
21CD
330
1F
100
AcDbEntity
  8
10
100
AcDbLine
 10
1462.933150630571
 20
802.9523095026876
 30
0.0
 11
1460.433150630572
 21
802.9523095026876
 31
0.0
  0
LINE
  5
21CE
330
1F
100
AcDbEntity
  8
10
100
AcDbLine
 10
1457.933150630571
 20
802.9523095026876
 30
0.0
 11
1455.433150630572
 21
802.9523095026876
 31
0.0
  0
LINE
  5
21CF
330
1F
100
AcDbEntity
  8
10
100
AcDbLine
 10
1467.933150630571
 20
802.9523095026876
 30
0.0
 11
1465.433150630572
 21
802.9523095026876
 31
0.0
  0
LINE
  5
21D0
330
1F
100
AcDbEntity
  8
10
100
AcDbLine
 10
1482.933150630572
 20
787.9523095026876
 30
0.0
 11
1480.433150630571
 21
787.9523095026876
 31
0.0
  0
LINE
  5
21D1
330
1F
100
AcDbEntity
  8
10
100
AcDbLine
 10
1477.933150630572
 20
787.9523095026876
 30
0.0
 11
1475.433150630571
 21
787.9523095026876
 31
0.0
  0
LINE
  5
21D2
330
1F
100
AcDbEntity
  8
10
100
AcDbLine
 10
1487.933150630571
 20
787.9523095026876
 30
0.0
 11
1485.433150630572
 21
787.9523095026876
 31
0.0
  0
LINE
  5
21D3
330
1F
100
AcDbEntity
  8
10
100
AcDbLine
 10
1482.933150630572
 20
802.9523095026876
 30
0.0
 11
1480.433150630571
 21
802.9523095026876
 31
0.0
  0
LINE
  5
21D4
330
1F
100
AcDbEntity
  8
10
100
AcDbLine
 10
1477.933150630572
 20
802.9523095026876
 30
0.0
 11
1475.433150630571
 21
802.9523095026876
 31
0.0
  0
LINE
  5
21D5
330
1F
100
AcDbEntity
  8
10
100
AcDbLine
 10
1487.933150630571
 20
802.9523095026876
 30
0.0
 11
1485.433150630572
 21
802.9523095026876
 31
0.0
  0
ARC
  5
21D6
330
1F
100
AcDbEntity
  8
10
100
AcDbCircle
 10
1426.183150630571
 20
857.1888982602768
 30
0.0
 40
1.000000000000061
100
AcDbArc
 50
93.00000000000556
 51
180.0
  0
LINE
  5
21D7
330
1F
100
AcDbEntity
  8
10
100
AcDbLine
 10
1433.183150630571
 20
858.4173993728338
 30
0.0
 11
1433.183150630571
 21
856.4523095026897
 31
0.0
  0
LINE
  5
21D8
330
1F
100
AcDbEntity
  8
10
100
AcDbLine
 10
1433.383150630572
 20
858.4139083598481
 30
0.0
 11
1433.383150630572
 21
856.9523095026898
 31
0.0
  0
LINE
  5
21D9
330
1F
100
AcDbEntity
  8
10
100
AcDbLine
 10
1428.083150630572
 20
854.9523095026897
 30
0.0
 11
1438.183150630572
 21
854.9523095026897
 31
0.0
  0
LINE
  5
21DA
330
1F
100
AcDbEntity
  8
10
100
AcDbLine
 10
1433.383150630572
 20
856.9523095026898
 30
0.0
 11
1438.183150630572
 21
856.9523095026898
 31
0.0
  0
LINE
  5
21DB
330
1F
100
AcDbEntity
  8
10
100
AcDbLine
 10
1430.683150630571
 20
854.9523095026897
 30
0.0
 11
1430.683150630571
 21
856.4233609210525
 31
0.0
  0
LINE
  5
21DC
330
1F
100
AcDbEntity
  8
10
100
AcDbLine
 10
1429.085074419219
 20
854.9523095026897
 30
0.0
 11
1429.085074419219
 21
856.3396092956905
 31
0.0
  0
LINE
  5
21DD
330
1F
100
AcDbEntity
  8
10
100
AcDbLine
 10
1427.18315063057
 20
856.2399336935621
 30
0.0
 11
1431.235522473708
 21
856.4523095026897
 31
0.0
  0
LINE
  5
21DE
330
1F
100
AcDbEntity
  8
10
100
AcDbLine
 10
1431.235522473708
 20
856.4523095026897
 30
0.0
 11
1433.183150630571
 21
856.4523095026897
 31
0.0
  0
LINE
  5
21DF
330
1F
100
AcDbEntity
  8
10
100
AcDbLine
 10
1433.683150630572
 20
856.9523095026898
 30
0.0
 11
1433.683150630572
 21
855.9523095026898
 31
0.0
  0
LINE
  5
21E0
330
1F
100
AcDbEntity
  8
10
100
AcDbLine
 10
1431.183150630571
 20
855.9523095026898
 30
0.0
 11
1431.183150630571
 21
854.9523095026897
 31
0.0
  0
LINE
  5
21E1
330
1F
100
AcDbEntity
  8
10
100
AcDbLine
 10
1431.183150630571
 20
855.9523095026898
 30
0.0
 11
1433.683150630572
 21
855.9523095026898
 31
0.0
  0
LINE
  5
21E2
330
1F
100
AcDbEntity
  8
10
100
AcDbLine
 10
1431.674424427352
 20
858.4437342866701
 30
0.0
 11
1437.69187683379
 21
858.3386992642131
 31
0.0
  0
LINE
  5
21E3
330
1F
100
AcDbEntity
  8
10
100
AcDbLine
 10
1434.183150630572
 20
880.9609608711321
 30
0.0
 11
1434.183150630572
 21
874.9436581342477
 31
0.0
  0
LINE
  5
21E4
330
1F
100
AcDbEntity
  8
10
100
AcDbLine
 10
1426.130814674329
 20
858.1875277950313
 30
0.0
 11
1431.183150630574
 21
858.4523095026897
 31
0.0
  0
LINE
  5
21E5
330
1F
100
AcDbEntity
  8
10
100
AcDbLine
 10
1431.183150630574
 20
858.4523095026897
 30
0.0
 11
1431.590541115586
 21
858.4523095026897
 31
0.0
  0
ARC
  5
21E6
330
1F
100
AcDbEntity
  8
10
100
AcDbCircle
 10
1431.683150630571
 20
858.943658134248
 30
0.0
 40
0.5
100
AcDbArc
 50
180.0
 51
268.9999999999981
  0
ARC
  5
21E7
330
1F
100
AcDbEntity
  8
10
100
AcDbCircle
 10
1433.683150630572
 20
874.9436581342477
 30
0.0
 40
0.5000000000000039
100
AcDbArc
 50
271.0000000000017
 51
0.0
  0
ARC
  5
21E8
330
1F
100
AcDbEntity
  8
10
100
AcDbCircle
 10
1431.683150630571
 20
873.9085956763473
 30
0.0
 40
0.5000000000000039
100
AcDbArc
 50
91.00000000000177
 51
180.0
  0
LINE
  5
21E9
330
1F
100
AcDbEntity
  8
10
100
AcDbLine
 10
1431.674424427352
 20
874.4085195239255
 30
0.0
 11
1433.69187683379
 21
874.4437342866692
 31
0.0
  0
LINE
  5
21EA
330
1F
100
AcDbEntity
  8
10
100
AcDbLine
 10
1431.183150630571
 20
873.9085956763473
 30
0.0
 11
1431.183150630571
 21
858.943658134248
 31
0.0
  0
ARC
  5
21EB
330
1F
100
AcDbEntity
  8
10
100
AcDbCircle
 10
1430.597364192944
 20
878.9523095026897
 30
0.0
 40
0.9999999999999287
100
AcDbArc
 50
224.9999999999976
 51
270.0
  0
ARC
  5
21EC
330
1F
100
AcDbEntity
  8
10
100
AcDbCircle
 10
1429.183150630572
 20
880.3665230650629
 30
0.0
 40
0.9999999999999996
100
AcDbArc
 50
180.0
 51
225.0000000000069
  0
LINE
  5
21ED
330
1F
100
AcDbEntity
  8
10
100
AcDbLine
 10
1429.890257411758
 20
878.2452027215033
 30
0.0
 11
1428.476043849385
 21
879.6594162838761
 31
0.0
  0
LINE
  5
21EE
330
1F
100
AcDbEntity
  8
10
100
AcDbLine
 10
1430.597364192944
 20
877.9523095026897
 30
0.0
 11
1431.683150630571
 21
877.9523095026897
 31
0.0
  0
LINE
  5
21EF
330
1F
100
AcDbEntity
  8
10
100
AcDbLine
 10
1428.18315063057
 20
892.4145751087474
 30
0.0
 11
1428.18315063057
 21
880.3665230650629
 31
0.0
  0
ARC
  5
21F0
330
1F
100
AcDbEntity
  8
10
100
AcDbCircle
 10
1433.683150630572
 20
880.9609608711321
 30
0.0
 40
0.5
100
AcDbArc
 50
0.0
 51
88.99999999999822
  0
ARC
  5
21F1
330
1F
100
AcDbEntity
  8
10
100
AcDbCircle
 10
1431.683150630571
 20
881.9960233290322
 30
0.0
 40
0.5
100
AcDbArc
 50
180.0
 51
268.9999999999981
  0
ARC
  5
21F2
330
1F
100
AcDbEntity
  8
10
100
AcDbCircle
 10
1433.683150630572
 20
877.4523095026898
 30
0.0
 40
0.5
100
AcDbArc
 50
0.0
 51
90.0
  0
ARC
  5
21F3
330
1F
100
AcDbEntity
  8
10
100
AcDbCircle
 10
1431.683150630571
 20
878.4523095026898
 30
0.0
 40
0.5
100
AcDbArc
 50
180.0
 51
270.0
  0
LINE
  5
21F4
330
1F
100
AcDbEntity
  8
10
100
AcDbLine
 10
1431.183150630571
 20
892.5717984465965
 30
0.0
 11
1431.183150630571
 21
878.4523095026898
 31
0.0
  0
LINE
  5
21F5
330
1F
100
AcDbEntity
  8
10
100
AcDbLine
 10
1431.674424427352
 20
881.4960994814541
 30
0.0
 11
1433.69187683379
 21
881.4608847187102
 31
0.0
  0
LINE
  5
21F6
330
1F
100
AcDbEntity
  8
10
100
AcDbLine
 10
1431.683150630571
 20
877.9523095026897
 30
0.0
 11
1433.683150630572
 21
877.9523095026897
 31
0.0
  0
ARC
  5
21F7
330
1F
100
AcDbEntity
  8
10
100
AcDbCircle
 10
1437.683150630571
 20
857.838775416635
 30
0.0
 40
0.5
100
AcDbArc
 50
0.0
 51
88.99999999999822
  0
LINE
  5
21F8
330
1F
100
AcDbEntity
  8
10
100
AcDbLine
 10
1472.933150630572
 20
837.9523095026875
 30
0.0
 11
1470.433150630571
 21
837.9523095026875
 31
0.0
  0
LINE
  5
21F9
330
1F
100
AcDbEntity
  8
10
100
AcDbLine
 10
1472.933150630572
 20
852.9523095026876
 30
0.0
 11
1470.433150630571
 21
852.9523095026876
 31
0.0
  0
LINE
  5
21FA
330
1F
100
AcDbEntity
  8
10
100
AcDbLine
 10
1462.933150630571
 20
837.9523095026875
 30
0.0
 11
1460.433150630572
 21
837.9523095026875
 31
0.0
  0
LINE
  5
21FB
330
1F
100
AcDbEntity
  8
10
100
AcDbLine
 10
1457.933150630571
 20
837.9523095026875
 30
0.0
 11
1455.433150630572
 21
837.9523095026875
 31
0.0
  0
LINE
  5
21FC
330
1F
100
AcDbEntity
  8
10
100
AcDbLine
 10
1467.933150630571
 20
837.9523095026875
 30
0.0
 11
1465.433150630572
 21
837.9523095026875
 31
0.0
  0
LINE
  5
21FD
330
1F
100
AcDbEntity
  8
10
100
AcDbLine
 10
1462.933150630571
 20
852.9523095026876
 30
0.0
 11
1460.433150630572
 21
852.9523095026876
 31
0.0
  0
LINE
  5
21FE
330
1F
100
AcDbEntity
  8
10
100
AcDbLine
 10
1457.933150630571
 20
852.9523095026876
 30
0.0
 11
1455.433150630572
 21
852.9523095026876
 31
0.0
  0
LINE
  5
21FF
330
1F
100
AcDbEntity
  8
10
100
AcDbLine
 10
1467.933150630571
 20
852.9523095026876
 30
0.0
 11
1465.433150630572
 21
852.9523095026876
 31
0.0
  0
LINE
  5
2200
330
1F
100
AcDbEntity
  8
10
100
AcDbLine
 10
1482.933150630572
 20
837.9523095026875
 30
0.0
 11
1480.433150630571
 21
837.9523095026875
 31
0.0
  0
LINE
  5
2201
330
1F
100
AcDbEntity
  8
10
100
AcDbLine
 10
1477.933150630572
 20
837.9523095026875
 30
0.0
 11
1475.433150630571
 21
837.9523095026875
 31
0.0
  0
LINE
  5
2202
330
1F
100
AcDbEntity
  8
10
100
AcDbLine
 10
1487.933150630571
 20
837.9523095026875
 30
0.0
 11
1485.433150630572
 21
837.9523095026875
 31
0.0
  0
LINE
  5
2203
330
1F
100
AcDbEntity
  8
10
100
AcDbLine
 10
1482.933150630572
 20
852.9523095026876
 30
0.0
 11
1480.433150630571
 21
852.9523095026876
 31
0.0
  0
LINE
  5
2204
330
1F
100
AcDbEntity
  8
10
100
AcDbLine
 10
1477.933150630572
 20
852.9523095026876
 30
0.0
 11
1475.433150630571
 21
852.9523095026876
 31
0.0
  0
LINE
  5
2205
330
1F
100
AcDbEntity
  8
10
100
AcDbLine
 10
1487.933150630571
 20
852.9523095026876
 30
0.0
 11
1485.433150630572
 21
852.9523095026876
 31
0.0
  0
ARC
  5
2206
330
1F
100
AcDbEntity
  8
10
100
AcDbCircle
 10
1471.683150630571
 20
884.2023095026856
 30
0.0
 40
1.249999999999998
100
AcDbArc
 50
0.0
 51
180.0
  0
ARC
  5
2207
330
1F
100
AcDbEntity
  8
10
100
AcDbCircle
 10
1461.683150630571
 20
884.2023095026856
 30
0.0
 40
1.249999999999998
100
AcDbArc
 50
0.0
 51
180.0
  0
ARC
  5
2208
330
1F
100
AcDbEntity
  8
10
100
AcDbCircle
 10
1456.683150630571
 20
884.2023095026856
 30
0.0
 40
1.249999999999998
100
AcDbArc
 50
0.0
 51
180.0
  0
ARC
  5
2209
330
1F
100
AcDbEntity
  8
10
100
AcDbCircle
 10
1466.683150630571
 20
884.2023095026856
 30
0.0
 40
1.249999999999998
100
AcDbArc
 50
0.0
 51
180.0
  0
ARC
  5
220A
330
1F
100
AcDbEntity
  8
10
100
AcDbCircle
 10
1481.683150630571
 20
884.2023095026856
 30
0.0
 40
1.250000000000001
100
AcDbArc
 50
0.0
 51
180.0
  0
ARC
  5
220B
330
1F
100
AcDbEntity
  8
10
100
AcDbCircle
 10
1476.683150630571
 20
884.2023095026856
 30
0.0
 40
1.250000000000001
100
AcDbArc
 50
0.0
 51
180.0
  0
ARC
  5
220C
330
1F
100
AcDbEntity
  8
10
100
AcDbCircle
 10
1486.683150630572
 20
884.2023095026856
 30
0.0
 40
1.249999999999995
100
AcDbArc
 50
0.0
 51
180.0
  0
LINE
  5
220D
330
1F
100
AcDbEntity
  8
10
100
AcDbLine
 10
1527.933150630572
 20
752.9523095026876
 30
0.0
 11
1525.433150630571
 21
752.9523095026876
 31
0.0
  0
LINE
  5
220E
330
1F
100
AcDbEntity
  8
10
100
AcDbLine
 10
1527.933150630572
 20
787.9523095026876
 30
0.0
 11
1525.433150630571
 21
787.9523095026876
 31
0.0
  0
LINE
  5
220F
330
1F
100
AcDbEntity
  8
10
100
AcDbLine
 10
1527.933150630572
 20
802.9523095026876
 30
0.0
 11
1525.433150630571
 21
802.9523095026876
 31
0.0
  0
LINE
  5
2210
330
1F
100
AcDbEntity
  8
10
100
AcDbLine
 10
1497.933150630571
 20
752.9523095026876
 30
0.0
 11
1495.433150630572
 21
752.9523095026876
 31
0.0
  0
LINE
  5
2211
330
1F
100
AcDbEntity
  8
10
100
AcDbLine
 10
1492.933150630571
 20
752.9523095026876
 30
0.0
 11
1490.433150630571
 21
752.9523095026876
 31
0.0
  0
LINE
  5
2212
330
1F
100
AcDbEntity
  8
10
100
AcDbLine
 10
1507.933150630571
 20
752.9523095026876
 30
0.0
 11
1505.433150630572
 21
752.9523095026876
 31
0.0
  0
LINE
  5
2213
330
1F
100
AcDbEntity
  8
10
100
AcDbLine
 10
1502.933150630571
 20
752.9523095026876
 30
0.0
 11
1500.433150630571
 21
752.9523095026876
 31
0.0
  0
LINE
  5
2214
330
1F
100
AcDbEntity
  8
10
100
AcDbLine
 10
1517.933150630572
 20
752.9523095026876
 30
0.0
 11
1515.433150630571
 21
752.9523095026876
 31
0.0
  0
LINE
  5
2215
330
1F
100
AcDbEntity
  8
10
100
AcDbLine
 10
1512.933150630571
 20
752.9523095026876
 30
0.0
 11
1510.433150630571
 21
752.9523095026876
 31
0.0
  0
LINE
  5
2216
330
1F
100
AcDbEntity
  8
10
100
AcDbLine
 10
1522.933150630572
 20
752.9523095026876
 30
0.0
 11
1520.433150630571
 21
752.9523095026876
 31
0.0
  0
LINE
  5
2217
330
1F
100
AcDbEntity
  8
10
100
AcDbLine
 10
1497.933150630571
 20
787.9523095026876
 30
0.0
 11
1495.433150630572
 21
787.9523095026876
 31
0.0
  0
LINE
  5
2218
330
1F
100
AcDbEntity
  8
10
100
AcDbLine
 10
1492.933150630571
 20
787.9523095026876
 30
0.0
 11
1490.433150630571
 21
787.9523095026876
 31
0.0
  0
LINE
  5
2219
330
1F
100
AcDbEntity
  8
10
100
AcDbLine
 10
1507.933150630571
 20
787.9523095026876
 30
0.0
 11
1505.433150630572
 21
787.9523095026876
 31
0.0
  0
LINE
  5
221A
330
1F
100
AcDbEntity
  8
10
100
AcDbLine
 10
1502.933150630571
 20
787.9523095026876
 30
0.0
 11
1500.433150630571
 21
787.9523095026876
 31
0.0
  0
LINE
  5
221B
330
1F
100
AcDbEntity
  8
10
100
AcDbLine
 10
1497.933150630571
 20
802.9523095026876
 30
0.0
 11
1495.433150630572
 21
802.9523095026876
 31
0.0
  0
LINE
  5
221C
330
1F
100
AcDbEntity
  8
10
100
AcDbLine
 10
1492.933150630571
 20
802.9523095026876
 30
0.0
 11
1490.433150630571
 21
802.9523095026876
 31
0.0
  0
LINE
  5
221D
330
1F
100
AcDbEntity
  8
10
100
AcDbLine
 10
1507.933150630571
 20
802.9523095026876
 30
0.0
 11
1505.433150630572
 21
802.9523095026876
 31
0.0
  0
LINE
  5
221E
330
1F
100
AcDbEntity
  8
10
100
AcDbLine
 10
1502.933150630571
 20
802.9523095026876
 30
0.0
 11
1500.433150630571
 21
802.9523095026876
 31
0.0
  0
LINE
  5
221F
330
1F
100
AcDbEntity
  8
10
100
AcDbLine
 10
1517.933150630572
 20
787.9523095026876
 30
0.0
 11
1515.433150630571
 21
787.9523095026876
 31
0.0
  0
LINE
  5
2220
330
1F
100
AcDbEntity
  8
10
100
AcDbLine
 10
1512.933150630571
 20
787.9523095026876
 30
0.0
 11
1510.433150630571
 21
787.9523095026876
 31
0.0
  0
LINE
  5
2221
330
1F
100
AcDbEntity
  8
10
100
AcDbLine
 10
1522.933150630572
 20
787.9523095026876
 30
0.0
 11
1520.433150630571
 21
787.9523095026876
 31
0.0
  0
LINE
  5
2222
330
1F
100
AcDbEntity
  8
10
100
AcDbLine
 10
1517.933150630572
 20
802.9523095026876
 30
0.0
 11
1515.433150630571
 21
802.9523095026876
 31
0.0
  0
LINE
  5
2223
330
1F
100
AcDbEntity
  8
10
100
AcDbLine
 10
1512.933150630571
 20
802.9523095026876
 30
0.0
 11
1510.433150630571
 21
802.9523095026876
 31
0.0
  0
LINE
  5
2224
330
1F
100
AcDbEntity
  8
10
100
AcDbLine
 10
1522.933150630572
 20
802.9523095026876
 30
0.0
 11
1520.433150630571
 21
802.9523095026876
 31
0.0
  0
LINE
  5
2225
330
1F
100
AcDbEntity
  8
10
100
AcDbLine
 10
1532.933150630571
 20
752.9523095026876
 30
0.0
 11
1530.433150630571
 21
752.9523095026876
 31
0.0
  0
LINE
  5
2226
330
1F
100
AcDbEntity
  8
10
100
AcDbLine
 10
1542.933150630571
 20
752.9523095026876
 30
0.0
 11
1540.433150630572
 21
752.9523095026876
 31
0.0
  0
LINE
  5
2227
330
1F
100
AcDbEntity
  8
10
100
AcDbLine
 10
1537.933150630571
 20
752.9523095026876
 30
0.0
 11
1535.433150630572
 21
752.9523095026876
 31
0.0
  0
LINE
  5
2228
330
1F
100
AcDbEntity
  8
10
100
AcDbLine
 10
1552.933150630571
 20
752.9523095026876
 30
0.0
 11
1550.433150630571
 21
752.9523095026876
 31
0.0
  0
LINE
  5
2229
330
1F
100
AcDbEntity
  8
10
100
AcDbLine
 10
1547.933150630572
 20
752.9523095026876
 30
0.0
 11
1545.433150630572
 21
752.9523095026876
 31
0.0
  0
LINE
  5
222A
330
1F
100
AcDbEntity
  8
10
100
AcDbLine
 10
1557.933150630572
 20
752.9523095026876
 30
0.0
 11
1555.433150630571
 21
752.9523095026876
 31
0.0
  0
LINE
  5
222B
330
1F
100
AcDbEntity
  8
10
100
AcDbLine
 10
1532.933150630571
 20
787.9523095026876
 30
0.0
 11
1530.433150630571
 21
787.9523095026876
 31
0.0
  0
LINE
  5
222C
330
1F
100
AcDbEntity
  8
10
100
AcDbLine
 10
1542.933150630571
 20
787.9523095026876
 30
0.0
 11
1540.433150630572
 21
787.9523095026876
 31
0.0
  0
LINE
  5
222D
330
1F
100
AcDbEntity
  8
10
100
AcDbLine
 10
1537.933150630571
 20
787.9523095026876
 30
0.0
 11
1535.433150630572
 21
787.9523095026876
 31
0.0
  0
LINE
  5
222E
330
1F
100
AcDbEntity
  8
10
100
AcDbLine
 10
1532.933150630571
 20
802.9523095026876
 30
0.0
 11
1530.433150630571
 21
802.9523095026876
 31
0.0
  0
LINE
  5
222F
330
1F
100
AcDbEntity
  8
10
100
AcDbLine
 10
1542.933150630571
 20
802.9523095026876
 30
0.0
 11
1540.433150630572
 21
802.9523095026876
 31
0.0
  0
LINE
  5
2230
330
1F
100
AcDbEntity
  8
10
100
AcDbLine
 10
1537.933150630571
 20
802.9523095026876
 30
0.0
 11
1535.433150630572
 21
802.9523095026876
 31
0.0
  0
LINE
  5
2231
330
1F
100
AcDbEntity
  8
10
100
AcDbLine
 10
1552.933150630571
 20
787.9523095026876
 30
0.0
 11
1550.433150630571
 21
787.9523095026876
 31
0.0
  0
LINE
  5
2232
330
1F
100
AcDbEntity
  8
10
100
AcDbLine
 10
1547.933150630572
 20
787.9523095026876
 30
0.0
 11
1545.433150630572
 21
787.9523095026876
 31
0.0
  0
LINE
  5
2233
330
1F
100
AcDbEntity
  8
10
100
AcDbLine
 10
1557.933150630572
 20
787.9523095026876
 30
0.0
 11
1555.433150630571
 21
787.9523095026876
 31
0.0
  0
LINE
  5
2234
330
1F
100
AcDbEntity
  8
10
100
AcDbLine
 10
1552.933150630571
 20
802.9523095026876
 30
0.0
 11
1550.433150630571
 21
802.9523095026876
 31
0.0
  0
LINE
  5
2235
330
1F
100
AcDbEntity
  8
10
100
AcDbLine
 10
1547.933150630572
 20
802.9523095026876
 30
0.0
 11
1545.433150630572
 21
802.9523095026876
 31
0.0
  0
LINE
  5
2236
330
1F
100
AcDbEntity
  8
10
100
AcDbLine
 10
1557.933150630572
 20
802.9523095026876
 30
0.0
 11
1555.433150630571
 21
802.9523095026876
 31
0.0
  0
LINE
  5
2237
330
1F
100
AcDbEntity
  8
10
100
AcDbLine
 10
1527.933150630572
 20
837.9523095026875
 30
0.0
 11
1525.433150630571
 21
837.9523095026875
 31
0.0
  0
LINE
  5
2238
330
1F
100
AcDbEntity
  8
10
100
AcDbLine
 10
1527.933150630572
 20
852.9523095026876
 30
0.0
 11
1525.433150630571
 21
852.9523095026876
 31
0.0
  0
ARC
  5
2239
330
1F
100
AcDbEntity
  8
10
100
AcDbCircle
 10
1526.683150630572
 20
884.2023095026856
 30
0.0
 40
1.250000000000001
100
AcDbArc
 50
0.0
 51
180.0
  0
LINE
  5
223A
330
1F
100
AcDbEntity
  8
10
100
AcDbLine
 10
1497.933150630571
 20
837.9523095026875
 30
0.0
 11
1495.433150630572
 21
837.9523095026875
 31
0.0
  0
LINE
  5
223B
330
1F
100
AcDbEntity
  8
10
100
AcDbLine
 10
1492.933150630571
 20
837.9523095026875
 30
0.0
 11
1490.433150630571
 21
837.9523095026875
 31
0.0
  0
LINE
  5
223C
330
1F
100
AcDbEntity
  8
10
100
AcDbLine
 10
1507.933150630571
 20
837.9523095026875
 30
0.0
 11
1505.433150630572
 21
837.9523095026875
 31
0.0
  0
LINE
  5
223D
330
1F
100
AcDbEntity
  8
10
100
AcDbLine
 10
1502.933150630571
 20
837.9523095026875
 30
0.0
 11
1500.433150630571
 21
837.9523095026875
 31
0.0
  0
LINE
  5
223E
330
1F
100
AcDbEntity
  8
10
100
AcDbLine
 10
1497.933150630571
 20
852.9523095026876
 30
0.0
 11
1495.433150630572
 21
852.9523095026876
 31
0.0
  0
LINE
  5
223F
330
1F
100
AcDbEntity
  8
10
100
AcDbLine
 10
1492.933150630571
 20
852.9523095026876
 30
0.0
 11
1490.433150630571
 21
852.9523095026876
 31
0.0
  0
LINE
  5
2240
330
1F
100
AcDbEntity
  8
10
100
AcDbLine
 10
1507.933150630571
 20
852.9523095026876
 30
0.0
 11
1505.433150630572
 21
852.9523095026876
 31
0.0
  0
LINE
  5
2241
330
1F
100
AcDbEntity
  8
10
100
AcDbLine
 10
1502.933150630571
 20
852.9523095026876
 30
0.0
 11
1500.433150630571
 21
852.9523095026876
 31
0.0
  0
LINE
  5
2242
330
1F
100
AcDbEntity
  8
10
100
AcDbLine
 10
1517.933150630572
 20
837.9523095026875
 30
0.0
 11
1515.433150630571
 21
837.9523095026875
 31
0.0
  0
LINE
  5
2243
330
1F
100
AcDbEntity
  8
10
100
AcDbLine
 10
1512.933150630571
 20
837.9523095026875
 30
0.0
 11
1510.433150630571
 21
837.9523095026875
 31
0.0
  0
LINE
  5
2244
330
1F
100
AcDbEntity
  8
10
100
AcDbLine
 10
1522.933150630572
 20
837.9523095026875
 30
0.0
 11
1520.433150630571
 21
837.9523095026875
 31
0.0
  0
LINE
  5
2245
330
1F
100
AcDbEntity
  8
10
100
AcDbLine
 10
1517.933150630572
 20
852.9523095026876
 30
0.0
 11
1515.433150630571
 21
852.9523095026876
 31
0.0
  0
LINE
  5
2246
330
1F
100
AcDbEntity
  8
10
100
AcDbLine
 10
1512.933150630571
 20
852.9523095026876
 30
0.0
 11
1510.433150630571
 21
852.9523095026876
 31
0.0
  0
LINE
  5
2247
330
1F
100
AcDbEntity
  8
10
100
AcDbLine
 10
1522.933150630572
 20
852.9523095026876
 30
0.0
 11
1520.433150630571
 21
852.9523095026876
 31
0.0
  0
ARC
  5
2248
330
1F
100
AcDbEntity
  8
10
100
AcDbCircle
 10
1496.683150630572
 20
884.2023095026856
 30
0.0
 40
1.250000000000001
100
AcDbArc
 50
0.0
 51
180.0
  0
ARC
  5
2249
330
1F
100
AcDbEntity
  8
10
100
AcDbCircle
 10
1491.683150630572
 20
884.2023095026856
 30
0.0
 40
1.250000000000009
100
AcDbArc
 50
0.0
 51
180.0
  0
ARC
  5
224A
330
1F
100
AcDbEntity
  8
10
100
AcDbCircle
 10
1506.683150630571
 20
884.2023095026856
 30
0.0
 40
1.250000000000001
100
AcDbArc
 50
0.0
 51
180.0
  0
ARC
  5
224B
330
1F
100
AcDbEntity
  8
10
100
AcDbCircle
 10
1501.683150630571
 20
884.2023095026856
 30
0.0
 40
1.249999999999995
100
AcDbArc
 50
0.0
 51
180.0
  0
ARC
  5
224C
330
1F
100
AcDbEntity
  8
10
100
AcDbCircle
 10
1516.683150630572
 20
884.2023095026856
 30
0.0
 40
1.250000000000001
100
AcDbArc
 50
0.0
 51
180.0
  0
ARC
  5
224D
330
1F
100
AcDbEntity
  8
10
100
AcDbCircle
 10
1511.683150630571
 20
884.2023095026856
 30
0.0
 40
1.250000000000001
100
AcDbArc
 50
0.0
 51
180.0
  0
ARC
  5
224E
330
1F
100
AcDbEntity
  8
10
100
AcDbCircle
 10
1521.683150630571
 20
884.2023095026856
 30
0.0
 40
1.249999999999987
100
AcDbArc
 50
0.0
 51
180.0
  0
LINE
  5
224F
330
1F
100
AcDbEntity
  8
10
100
AcDbLine
 10
1532.933150630571
 20
837.9523095026875
 30
0.0
 11
1530.433150630571
 21
837.9523095026875
 31
0.0
  0
LINE
  5
2250
330
1F
100
AcDbEntity
  8
10
100
AcDbLine
 10
1542.933150630571
 20
837.9523095026875
 30
0.0
 11
1540.433150630572
 21
837.9523095026875
 31
0.0
  0
LINE
  5
2251
330
1F
100
AcDbEntity
  8
10
100
AcDbLine
 10
1537.933150630571
 20
837.9523095026875
 30
0.0
 11
1535.433150630572
 21
837.9523095026875
 31
0.0
  0
LINE
  5
2252
330
1F
100
AcDbEntity
  8
10
100
AcDbLine
 10
1532.933150630571
 20
852.9523095026876
 30
0.0
 11
1530.433150630571
 21
852.9523095026876
 31
0.0
  0
LINE
  5
2253
330
1F
100
AcDbEntity
  8
10
100
AcDbLine
 10
1542.933150630571
 20
852.9523095026876
 30
0.0
 11
1540.433150630572
 21
852.9523095026876
 31
0.0
  0
LINE
  5
2254
330
1F
100
AcDbEntity
  8
10
100
AcDbLine
 10
1537.933150630571
 20
852.9523095026876
 30
0.0
 11
1535.433150630572
 21
852.9523095026876
 31
0.0
  0
LINE
  5
2255
330
1F
100
AcDbEntity
  8
10
100
AcDbLine
 10
1552.933150630571
 20
837.9523095026875
 30
0.0
 11
1550.433150630571
 21
837.9523095026875
 31
0.0
  0
LINE
  5
2256
330
1F
100
AcDbEntity
  8
10
100
AcDbLine
 10
1547.933150630572
 20
837.9523095026875
 30
0.0
 11
1545.433150630572
 21
837.9523095026875
 31
0.0
  0
LINE
  5
2257
330
1F
100
AcDbEntity
  8
10
100
AcDbLine
 10
1557.933150630572
 20
837.9523095026875
 30
0.0
 11
1555.433150630571
 21
837.9523095026875
 31
0.0
  0
LINE
  5
2258
330
1F
100
AcDbEntity
  8
10
100
AcDbLine
 10
1552.933150630571
 20
852.9523095026876
 30
0.0
 11
1550.433150630571
 21
852.9523095026876
 31
0.0
  0
LINE
  5
2259
330
1F
100
AcDbEntity
  8
10
100
AcDbLine
 10
1547.933150630572
 20
852.9523095026876
 30
0.0
 11
1545.433150630572
 21
852.9523095026876
 31
0.0
  0
LINE
  5
225A
330
1F
100
AcDbEntity
  8
10
100
AcDbLine
 10
1557.933150630572
 20
852.9523095026876
 30
0.0
 11
1555.433150630571
 21
852.9523095026876
 31
0.0
  0
ARC
  5
225B
330
1F
100
AcDbEntity
  8
10
100
AcDbCircle
 10
1531.683150630571
 20
884.2023095026856
 30
0.0
 40
1.250000000000001
100
AcDbArc
 50
0.0
 51
180.0
  0
ARC
  5
225C
330
1F
100
AcDbEntity
  8
10
100
AcDbCircle
 10
1541.683150630571
 20
884.2023095026856
 30
0.0
 40
1.250000000000001
100
AcDbArc
 50
0.0
 51
180.0
  0
ARC
  5
225D
330
1F
100
AcDbEntity
  8
10
100
AcDbCircle
 10
1536.683150630572
 20
884.2023095026856
 30
0.0
 40
1.249999999999987
100
AcDbArc
 50
0.0
 51
180.0
  0
ARC
  5
225E
330
1F
100
AcDbEntity
  8
10
100
AcDbCircle
 10
1551.683150630571
 20
884.2023095026856
 30
0.0
 40
1.250000000000001
100
AcDbArc
 50
0.0
 51
180.0
  0
ARC
  5
225F
330
1F
100
AcDbEntity
  8
10
100
AcDbCircle
 10
1546.683150630571
 20
884.2023095026856
 30
0.0
 40
1.250000000000001
100
AcDbArc
 50
0.0
 51
180.0
  0
ARC
  5
2260
330
1F
100
AcDbEntity
  8
10
100
AcDbCircle
 10
1556.683150630572
 20
884.2023095026856
 30
0.0
 40
1.250000000000001
100
AcDbArc
 50
0.0
 51
180.0
  0
LINE
  5
2261
330
1F
100
AcDbEntity
  8
10
100
AcDbLine
 10
1604.683150630571
 20
692.95230950269
 30
0.0
 11
1604.683150630571
 21
802.9523095026901
 31
0.0
  0
LINE
  5
2262
330
1F
100
AcDbEntity
  8
10
100
AcDbLine
 10
1567.933150630572
 20
656.7023095026901
 30
0.0
 11
1567.933150630572
 21
884.2023095026856
 31
0.0
  0
LINE
  5
2263
330
1F
100
AcDbEntity
  8
10
100
AcDbLine
 10
1592.933150630571
 20
656.7023095026901
 30
0.0
 11
1592.933150630571
 21
884.2023095026856
 31
0.0
  0
LINE
  5
2264
330
1F
100
AcDbEntity
  8
10
100
AcDbLine
 10
1590.433150630572
 20
656.7023095026901
 30
0.0
 11
1590.433150630572
 21
884.2023095026856
 31
0.0
  0
LINE
  5
2265
330
1F
100
AcDbEntity
  8
10
100
AcDbLine
 10
1596.683150630571
 20
692.95230950269
 30
0.0
 11
1596.683150630571
 21
802.9523095026901
 31
0.0
  0
LINE
  5
2266
330
1F
100
AcDbEntity
  8
10
100
AcDbLine
 10
1587.933150630572
 20
656.7023095026901
 30
0.0
 11
1587.933150630572
 21
884.2023095026856
 31
0.0
  0
LINE
  5
2267
330
1F
100
AcDbEntity
  8
10
100
AcDbLine
 10
1585.433150630572
 20
656.7023095026901
 30
0.0
 11
1585.433150630572
 21
884.2023095026856
 31
0.0
  0
LINE
  5
2268
330
1F
100
AcDbEntity
  8
10
100
AcDbLine
 10
1582.933150630571
 20
656.7023095026901
 30
0.0
 11
1582.933150630571
 21
884.2023095026856
 31
0.0
  0
LINE
  5
2269
330
1F
100
AcDbEntity
  8
10
100
AcDbLine
 10
1580.433150630572
 20
656.7023095026901
 30
0.0
 11
1580.433150630572
 21
884.2023095026856
 31
0.0
  0
LINE
  5
226A
330
1F
100
AcDbEntity
  8
10
100
AcDbLine
 10
1577.933150630571
 20
656.7023095026901
 30
0.0
 11
1577.933150630571
 21
884.2023095026856
 31
0.0
  0
LINE
  5
226B
330
1F
100
AcDbEntity
  8
10
100
AcDbLine
 10
1575.433150630572
 20
656.7023095026901
 30
0.0
 11
1575.433150630572
 21
884.2023095026856
 31
0.0
  0
LINE
  5
226C
330
1F
100
AcDbEntity
  8
10
100
AcDbLine
 10
1572.933150630571
 20
656.7023095026901
 30
0.0
 11
1572.933150630571
 21
884.2023095026856
 31
0.0
  0
LINE
  5
226D
330
1F
100
AcDbEntity
  8
10
100
AcDbLine
 10
1570.433150630571
 20
656.7023095026901
 30
0.0
 11
1570.433150630571
 21
884.2023095026856
 31
0.0
  0
LINE
  5
226E
330
1F
100
AcDbEntity
  8
10
100
AcDbLine
 10
1565.433150630571
 20
656.7023095026901
 30
0.0
 11
1565.433150630571
 21
884.2023095026856
 31
0.0
  0
LINE
  5
226F
330
1F
100
AcDbEntity
  8
10
100
AcDbLine
 10
1562.933150630572
 20
656.7023095026901
 30
0.0
 11
1562.933150630572
 21
884.2023095026856
 31
0.0
  0
ARC
  5
2270
330
1F
100
AcDbEntity
  8
10
100
AcDbCircle
 10
1625.812215548491
 20
625.5319139701343
 30
0.0
 40
50.49999999999998
100
AcDbArc
 50
74.99999999999882
 51
90.0
  0
ARC
  5
2271
330
1F
100
AcDbEntity
  8
10
100
AcDbCircle
 10
1625.812215548491
 20
625.5319139701343
 30
0.0
 40
49.49999999999996
100
AcDbArc
 50
74.99999999999882
 51
90.0
  0
LINE
  5
2272
330
1F
100
AcDbEntity
  8
10
100
AcDbLine
 10
1626.277853159114
 20
666.9027251266942
 30
0.0
 11
1641.417191788747
 21
666.9027251266942
 31
0.0
  0
LINE
  5
2273
330
1F
100
AcDbEntity
  8
10
100
AcDbLine
 10
1633.412960193103
 20
664.9567868446972
 30
0.0
 11
1648.679532325553
 21
664.9567868446972
 31
0.0
  0
LINE
  5
2274
330
1F
100
AcDbEntity
  8
10
100
AcDbLine
 10
1673.953341068041
 20
649.699033716709
 30
0.0
 11
1633.412960193103
 21
649.699033716709
 31
0.0
  0
LINE
  5
2275
330
1F
100
AcDbEntity
  8
10
100
AcDbLine
 10
1644.602105314586
 20
648.4017415287112
 30
0.0
 11
1626.277853159114
 21
648.4017415287112
 31
0.0
  0
LINE
  5
2276
330
1F
100
AcDbEntity
  8
10
100
AcDbLine
 10
1683.683032478024
 20
645.1521571527154
 30
0.0
 11
1623.683268783118
 21
645.1521571527154
 31
0.0
  0
LINE
  5
2277
330
1F
100
AcDbEntity
  8
10
100
AcDbLine
 10
1623.683268783118
 20
670.1523095026902
 30
0.0
 11
1638.57836263093
 21
670.1523095026902
 31
0.0
  0
LINE
  5
2278
330
1F
100
AcDbEntity
  8
10
100
AcDbLine
 10
1630.891996420134
 20
639.6521571527151
 30
0.0
 11
1676.474304841009
 21
639.6521571527151
 31
0.0
  0
LINE
  5
2279
330
1F
100
AcDbEntity
  8
10
100
AcDbLine
 10
1636.000809407572
 20
641.1521571527152
 30
0.0
 11
1631.704057134911
 21
641.1521571527152
 31
0.0
  0
LINE
  5
227A
330
1F
100
AcDbEntity
  8
10
100
AcDbLine
 10
1633.500809407572
 20
643.6521571527151
 30
0.0
 11
1637.500809407572
 21
639.6521571527151
 31
0.0
  0
LINE
  5
227B
330
1F
100
AcDbEntity
  8
10
100
AcDbLine
 10
1634.546393819844
 20
645.1521571527154
 30
0.0
 11
1638.546393819844
 21
641.1521571527152
 31
0.0
  0
LINE
  5
227C
330
1F
100
AcDbEntity
  8
10
100
AcDbLine
 10
1630.683150630572
 20
672.4523095026902
 30
0.0
 11
1630.683150630572
 21
674.4521571527152
 31
0.0
  0
LINE
  5
227D
330
1F
100
AcDbEntity
  8
10
100
AcDbLine
 10
1626.683150630571
 20
672.45230950269
 30
0.0
 11
1626.683150630571
 21
674.452157152715
 31
0.0
  0
LINE
  5
227E
330
1F
100
AcDbEntity
  8
10
100
AcDbLine
 10
1606.183150630571
 20
692.95230950269
 30
0.0
 11
1606.183150630571
 21
625.4523095026901
 31
0.0
  0
ARC
  5
2280
330
1F
100
AcDbEntity
  8
10
100
AcDbCircle
 10
1581.683150630571
 20
656.7023095026901
 30
0.0
 40
1.249999999999987
100
AcDbArc
 50
180.0
 51
0.0
  0
ARC
  5
2281
330
1F
100
AcDbEntity
  8
10
100
AcDbCircle
 10
1571.683150630572
 20
656.7023095026901
 30
0.0
 40
1.250000000000001
100
AcDbArc
 50
180.0
 51
0.0
  0
ARC
  5
2282
330
1F
100
AcDbEntity
  8
10
100
AcDbCircle
 10
1566.683150630572
 20
656.7023095026901
 30
0.0
 40
1.250000000000001
100
AcDbArc
 50
180.0
 51
0.0
  0
ARC
  5
2283
330
1F
100
AcDbEntity
  8
10
100
AcDbCircle
 10
1576.683150630572
 20
656.7023095026901
 30
0.0
 40
1.249999999999987
100
AcDbArc
 50
180.0
 51
0.0
  0
ARC
  5
2284
330
1F
100
AcDbEntity
  8
10
100
AcDbCircle
 10
1586.683150630571
 20
656.7023095026901
 30
0.0
 40
1.250000000000017
100
AcDbArc
 50
180.0
 51
0.0
  0
ARC
  5
2285
330
1F
100
AcDbEntity
  8
10
100
AcDbCircle
 10
1591.683150630571
 20
656.7023095026901
 30
0.0
 40
1.249999999999987
100
AcDbArc
 50
180.0
 51
0.0
  0
LINE
  5
2288
330
1F
100
AcDbEntity
  8
10
100
AcDbLine
 10
1604.683150630571
 20
620.45230950269
 30
0.0
 11
1610.683150630571
 21
620.45230950269
 31
0.0
  0
LINE
  5
2289
330
1F
100
AcDbEntity
  8
10
100
AcDbLine
 10
1604.683150630571
 20
620.45230950269
 30
0.0
 11
1604.683150630571
 21
625.4523095026901
 31
0.0
  0
LINE
  5
228A
330
1F
100
AcDbEntity
  8
10
100
AcDbLine
 10
1601.683150630571
 20
625.4523095026901
 30
0.0
 11
1606.183150630571
 21
625.4523095026901
 31
0.0
  0
LINE
  5
228B
330
1F
100
AcDbEntity
  8
10
100
AcDbLine
 10
1615.683150630571
 20
651.95230950269
 30
0.0
 11
1617.983150630571
 21
651.9523095026897
 31
0.0
  0
LINE
  5
228C
330
1F
100
AcDbEntity
  8
10
100
AcDbLine
 10
1615.683150630571
 20
646.95230950269
 30
0.0
 11
1617.983150630571
 21
646.9523095026898
 31
0.0
  0
LINE
  5
228D
330
1F
100
AcDbEntity
  8
10
100
AcDbLine
 10
1615.683150630571
 20
672.4523095026897
 30
0.0
 11
1633.683150630571
 21
672.4523095026902
 31
0.0
  0
LINE
  5
228E
330
1F
100
AcDbEntity
  8
10
100
AcDbLine
 10
1615.683150630571
 20
646.95230950269
 30
0.0
 11
1615.683150630571
 21
672.4523095026897
 31
0.0
  0
LINE
  5
228F
330
1F
100
AcDbEntity
  8
10
100
AcDbLine
 10
1610.683150630571
 20
639.45230950269
 30
0.0
 11
1615.683150630571
 21
639.45230950269
 31
0.0
  0
LINE
  5
2291
330
1F
100
AcDbEntity
  8
10
100
AcDbLine
 10
1617.983150630571
 20
660.45230950269
 30
0.0
 11
1617.983150630571
 21
652.4523095026899
 31
0.0
  0
LINE
  5
2292
330
1F
100
AcDbEntity
  8
10
100
AcDbLine
 10
1618.483150630572
 20
652.4523095026899
 30
0.0
 11
1618.483150630572
 21
660.45230950269
 31
0.0
  0
LINE
  5
2293
330
1F
100
AcDbEntity
  8
10
100
AcDbLine
 10
1619.483150630571
 20
652.95230950269
 30
0.0
 11
1619.483150630571
 21
659.95230950269
 31
0.0
  0
ARC
  5
2294
330
1F
100
AcDbEntity
  8
10
100
AcDbCircle
 10
1620.583150630572
 20
654.7819801938406
 30
0.0
 40
1.499999999999791
100
AcDbArc
 50
303.367012969229
 51
0.0
  0
LINE
  5
2295
330
1F
100
AcDbEntity
  8
10
100
AcDbLine
 10
1633.412960193103
 20
664.9567868446972
 30
0.0
 11
1633.412960193103
 21
649.699033716709
 31
0.0
  0
LINE
  5
2296
330
1F
100
AcDbEntity
  8
10
100
AcDbLine
 10
1626.277853159114
 20
666.9027251266942
 30
0.0
 11
1626.277853159114
 21
648.4017415287112
 31
0.0
  0
LINE
  5
2297
330
1F
100
AcDbEntity
  8
10
100
AcDbLine
 10
1623.683268783118
 20
670.1523095026902
 30
0.0
 11
1623.683268783118
 21
645.1521571527154
 31
0.0
  0
LINE
  5
2298
330
1F
100
AcDbEntity
  8
10
100
AcDbLine
 10
1617.983150630571
 20
646.9523095026898
 30
0.0
 11
1617.983150630571
 21
670.1523095026901
 31
0.0
  0
LINE
  5
2299
330
1F
100
AcDbEntity
  8
10
100
AcDbLine
 10
1626.277853159114
 20
648.4017415287112
 30
0.0
 11
1633.412960193103
 21
649.699033716709
 31
0.0
  0
LINE
  5
229A
330
1F
100
AcDbEntity
  8
10
100
AcDbLine
 10
1624.683150630571
 20
643.6521571527151
 30
0.0
 11
1632.683150630572
 21
643.6521571527151
 31
0.0
  0
LINE
  5
229B
330
1F
100
AcDbEntity
  8
10
100
AcDbLine
 10
1624.683150630571
 20
643.1521571527151
 30
0.0
 11
1632.683150630572
 21
643.1521571527151
 31
0.0
  0
ARC
  5
229C
330
1F
100
AcDbEntity
  8
10
100
AcDbCircle
 10
1627.012821321723
 20
641.0521571527152
 30
0.0
 40
1.500000000000096
100
AcDbArc
 50
213.3670129692312
 51
270.0
  0
LINE
  5
229D
330
1F
100
AcDbEntity
  8
10
100
AcDbLine
 10
1624.883150630572
 20
642.1521571527152
 30
0.0
 11
1632.183150630572
 21
642.1521571527152
 31
0.0
  0
LINE
  5
229E
330
1F
100
AcDbEntity
  8
10
100
AcDbLine
 10
1624.43315063057
 20
643.6521571527151
 30
0.0
 11
1633.500809407572
 21
643.6521571527151
 31
0.0
  0
LINE
  5
229F
330
1F
100
AcDbEntity
  8
10
100
AcDbLine
 10
1617.983150630571
 20
652.4523095026899
 30
0.0
 11
1618.483150630572
 21
652.4523095026899
 31
0.0
  0
LINE
  5
22A0
330
1F
100
AcDbEntity
  8
10
100
AcDbLine
 10
1618.483150630572
 20
652.6523095026897
 30
0.0
 11
1619.483150630571
 21
652.6523095026897
 31
0.0
  0
LINE
  5
22A1
330
1F
100
AcDbEntity
  8
10
100
AcDbLine
 10
1619.483150630571
 20
652.6523095026897
 30
0.0
 11
1619.483150630571
 21
652.95230950269
 31
0.0
  0
ARC
  5
22A2
330
1F
100
AcDbEntity
  8
10
100
AcDbCircle
 10
1619.483150630571
 20
656.4523095026901
 30
0.0
 40
3.499999999999998
100
AcDbArc
 50
270.0
 51
303.367012969229
  0
LINE
  5
22A3
330
1F
100
AcDbEntity
  8
10
100
AcDbLine
 10
1624.683150630571
 20
643.6521571527151
 30
0.0
 11
1624.683150630571
 21
643.1521571527151
 31
0.0
  0
ARC
  5
22A4
330
1F
100
AcDbEntity
  8
10
100
AcDbCircle
 10
1628.683150630572
 20
642.1521571527152
 30
0.0
 40
3.499999999999984
100
AcDbArc
 50
180.0
 51
213.3670129692312
  0
LINE
  5
22A5
330
1F
100
AcDbEntity
  8
10
100
AcDbLine
 10
1624.883150630572
 20
643.1521571527151
 30
0.0
 11
1624.883150630572
 21
642.1521571527152
 31
0.0
  0
ARC
  5
22A6
330
1F
100
AcDbEntity
  8
10
100
AcDbCircle
 10
1624.43315063057
 20
644.4021571527152
 30
0.0
 40
0.7499999999999997
100
AcDbArc
 50
90.0
 51
270.0
  0
LINE
  5
22A7
330
1F
100
AcDbEntity
  8
10
100
AcDbLine
 10
1632.683150630572
 20
643.1521571527151
 30
0.0
 11
1632.683150630572
 21
643.6521571527151
 31
0.0
  0
LINE
  5
22A8
330
1F
100
AcDbEntity
  8
10
100
AcDbLine
 10
1628.500809407572
 20
642.1521571527152
 30
0.0
 11
1629.500809407572
 21
643.1521571527151
 31
0.0
  0
LINE
  5
22A9
330
1F
100
AcDbEntity
  8
10
100
AcDbLine
 10
1627.151690315721
 20
642.1521571527152
 30
0.0
 11
1628.151690315721
 21
643.1521571527151
 31
0.0
  0
LINE
  5
22AA
330
1F
100
AcDbEntity
  8
10
100
AcDbLine
 10
1632.483150630571
 20
642.1521571527152
 30
0.0
 11
1632.483150630571
 21
643.1521571527151
 31
0.0
  0
LINE
  5
22AB
330
1F
100
AcDbEntity
  8
10
100
AcDbLine
 10
1632.183150630572
 20
642.1521571527152
 30
0.0
 11
1632.483150630571
 21
642.1521571527152
 31
0.0
  0
ARC
  5
22AC
330
1F
100
AcDbEntity
  8
10
100
AcDbCircle
 10
1628.683150630572
 20
642.1521571527152
 30
0.0
 40
3.500000000000021
100
AcDbArc
 50
326.6329870307686
 51
0.0
  0
LINE
  5
22AD
330
1F
100
AcDbEntity
  8
10
100
AcDbLine
 10
1630.353479939421
 20
639.5521571527154
 30
0.0
 11
1627.012821321723
 21
639.5521571527154
 31
0.0
  0
ARC
  5
22AE
330
1F
100
AcDbEntity
  8
10
100
AcDbCircle
 10
1630.353479939421
 20
641.0521571527152
 30
0.0
 40
1.499999999999999
100
AcDbArc
 50
270.0
 51
326.6329870307686
  0
ARC
  5
22AF
330
1F
100
AcDbEntity
  8
10
100
AcDbCircle
 10
1628.683150630572
 20
641.0521571527152
 30
0.0
 40
1.499999999999999
100
AcDbArc
 50
270.0
 51
0.0
  0
LINE
  5
22B0
330
1F
100
AcDbEntity
  8
10
100
AcDbLine
 10
1628.683150630572
 20
639.5521571527154
 30
0.0
 11
1628.683150630572
 21
639.5521571527154
 31
0.0
  0
ARC
  5
22B1
330
1F
100
AcDbEntity
  8
10
100
AcDbCircle
 10
1628.683150630572
 20
641.0521571527152
 30
0.0
 40
1.499999999999996
100
AcDbArc
 50
180.0
 51
270.0
  0
LINE
  5
22B2
330
1F
100
AcDbEntity
  8
10
100
AcDbLine
 10
1633.412960193103
 20
664.9567868446972
 30
0.0
 11
1626.277853159114
 21
666.9027251266942
 31
0.0
  0
LINE
  5
22B3
330
1F
100
AcDbEntity
  8
10
100
AcDbLine
 10
1617.983150630571
 20
670.1523095026901
 30
0.0
 11
1633.683150630571
 21
670.1523095026904
 31
0.0
  0
LINE
  5
22B4
330
1F
100
AcDbEntity
  8
10
100
AcDbLine
 10
1618.483150630572
 20
660.45230950269
 30
0.0
 11
1617.983150630571
 21
660.45230950269
 31
0.0
  0
LINE
  5
22B5
330
1F
100
AcDbEntity
  8
10
100
AcDbLine
 10
1619.483150630571
 20
660.2523095026898
 30
0.0
 11
1618.483150630572
 21
660.2523095026898
 31
0.0
  0
LINE
  5
22B6
330
1F
100
AcDbEntity
  8
10
100
AcDbLine
 10
1619.483150630571
 20
659.95230950269
 30
0.0
 11
1619.483150630571
 21
660.2523095026898
 31
0.0
  0
ARC
  5
22B7
330
1F
100
AcDbEntity
  8
10
100
AcDbCircle
 10
1619.483150630571
 20
656.4523095026901
 30
0.0
 40
3.499999999999836
100
AcDbArc
 50
56.63298703076453
 51
90.0
  0
LINE
  5
22B8
330
1F
100
AcDbEntity
  8
10
100
AcDbLine
 10
1622.083150630572
 20
658.1226388115388
 30
0.0
 11
1622.083150630572
 21
654.7819801938406
 31
0.0
  0
ARC
  5
22B9
330
1F
100
AcDbEntity
  8
10
100
AcDbCircle
 10
1620.583150630572
 20
658.1226388115388
 30
0.0
 40
1.499999999999996
100
AcDbArc
 50
0.0
 51
56.63298703077085
  0
ARC
  5
22BA
330
1F
100
AcDbEntity
  8
10
100
AcDbCircle
 10
1620.583150630572
 20
656.4523095026901
 30
0.0
 40
1.499999999999996
100
AcDbArc
 50
0.0
 51
90.0
  0
LINE
  5
22BB
330
1F
100
AcDbEntity
  8
10
100
AcDbLine
 10
1622.083150630572
 20
656.4523095026901
 30
0.0
 11
1622.083150630572
 21
656.4523095026901
 31
0.0
  0
ARC
  5
22BC
330
1F
100
AcDbEntity
  8
10
100
AcDbCircle
 10
1620.583150630572
 20
656.4523095026901
 30
0.0
 40
1.499999999999996
100
AcDbArc
 50
270.0
 51
0.0
  0
LINE
  5
22BD
330
1F
100
AcDbEntity
  8
10
100
AcDbLine
 10
1619.483150630571
 20
656.2699682796902
 30
0.0
 11
1618.483150630572
 21
657.2699682796902
 31
0.0
  0
LINE
  5
22BE
330
1F
100
AcDbEntity
  8
10
100
AcDbLine
 10
1619.483150630571
 20
654.9208491878389
 30
0.0
 11
1618.483150630572
 21
655.9208491878389
 31
0.0
  0
LINE
  5
22BF
330
1F
100
AcDbEntity
  8
10
100
AcDbLine
 10
1633.683150630571
 20
670.1523095026904
 30
0.0
 11
1633.683150630571
 21
672.4523095026902
 31
0.0
  0
LINE
  5
22C0
330
1F
100
AcDbEntity
  8
10
100
AcDbLine
 10
1596.683150630571
 20
692.95230950269
 30
0.0
 11
1606.183150630571
 21
692.95230950269
 31
0.0
  0
LINE
  5
22C1
330
1F
100
AcDbEntity
  8
10
100
AcDbLine
 10
1582.933150630571
 20
702.9523095026876
 30
0.0
 11
1580.433150630572
 21
702.9523095026876
 31
0.0
  0
LINE
  5
22C2
330
1F
100
AcDbEntity
  8
10
100
AcDbLine
 10
1582.933150630571
 20
687.9523095026875
 30
0.0
 11
1580.433150630572
 21
687.9523095026875
 31
0.0
  0
LINE
  5
22C3
330
1F
100
AcDbEntity
  8
10
100
AcDbLine
 10
1572.933150630571
 20
687.9523095026875
 30
0.0
 11
1570.433150630571
 21
687.9523095026875
 31
0.0
  0
LINE
  5
22C4
330
1F
100
AcDbEntity
  8
10
100
AcDbLine
 10
1567.933150630572
 20
687.9523095026875
 30
0.0
 11
1565.433150630571
 21
687.9523095026875
 31
0.0
  0
LINE
  5
22C5
330
1F
100
AcDbEntity
  8
10
100
AcDbLine
 10
1577.933150630571
 20
687.9523095026875
 30
0.0
 11
1575.433150630572
 21
687.9523095026875
 31
0.0
  0
LINE
  5
22C6
330
1F
100
AcDbEntity
  8
10
100
AcDbLine
 10
1572.933150630571
 20
702.9523095026876
 30
0.0
 11
1570.433150630571
 21
702.9523095026876
 31
0.0
  0
LINE
  5
22C7
330
1F
100
AcDbEntity
  8
10
100
AcDbLine
 10
1567.933150630572
 20
702.9523095026876
 30
0.0
 11
1565.433150630571
 21
702.9523095026876
 31
0.0
  0
LINE
  5
22C8
330
1F
100
AcDbEntity
  8
10
100
AcDbLine
 10
1577.933150630571
 20
702.9523095026876
 30
0.0
 11
1575.433150630572
 21
702.9523095026876
 31
0.0
  0
LINE
  5
22C9
330
1F
100
AcDbEntity
  8
10
100
AcDbLine
 10
1587.933150630572
 20
687.9523095026875
 30
0.0
 11
1585.433150630572
 21
687.9523095026875
 31
0.0
  0
LINE
  5
22CA
330
1F
100
AcDbEntity
  8
10
100
AcDbLine
 10
1592.933150630571
 20
687.9523095026875
 30
0.0
 11
1590.433150630572
 21
687.9523095026875
 31
0.0
  0
LINE
  5
22CB
330
1F
100
AcDbEntity
  8
10
100
AcDbLine
 10
1587.933150630572
 20
702.9523095026876
 30
0.0
 11
1585.433150630572
 21
702.9523095026876
 31
0.0
  0
LINE
  5
22CC
330
1F
100
AcDbEntity
  8
10
100
AcDbLine
 10
1592.933150630571
 20
702.9523095026876
 30
0.0
 11
1590.433150630572
 21
702.9523095026876
 31
0.0
  0
LINE
  5
22CD
330
1F
100
AcDbEntity
  8
10
100
AcDbLine
 10
1582.933150630571
 20
737.9523095026875
 30
0.0
 11
1580.433150630572
 21
737.9523095026875
 31
0.0
  0
LINE
  5
22CE
330
1F
100
AcDbEntity
  8
10
100
AcDbLine
 10
1572.933150630571
 20
737.9523095026875
 30
0.0
 11
1570.433150630571
 21
737.9523095026875
 31
0.0
  0
LINE
  5
22CF
330
1F
100
AcDbEntity
  8
10
100
AcDbLine
 10
1567.933150630572
 20
737.9523095026875
 30
0.0
 11
1565.433150630571
 21
737.9523095026875
 31
0.0
  0
LINE
  5
22D0
330
1F
100
AcDbEntity
  8
10
100
AcDbLine
 10
1577.933150630571
 20
737.9523095026875
 30
0.0
 11
1575.433150630572
 21
737.9523095026875
 31
0.0
  0
LINE
  5
22D1
330
1F
100
AcDbEntity
  8
10
100
AcDbLine
 10
1587.933150630572
 20
737.9523095026875
 30
0.0
 11
1585.433150630572
 21
737.9523095026875
 31
0.0
  0
LINE
  5
22D2
330
1F
100
AcDbEntity
  8
10
100
AcDbLine
 10
1592.933150630571
 20
737.9523095026875
 30
0.0
 11
1590.433150630572
 21
737.9523095026875
 31
0.0
  0
LINE
  5
22D3
330
1F
100
AcDbEntity
  8
10
100
AcDbLine
 10
1615.683150630571
 20
675.0319139701341
 30
0.0
 11
1625.812215548491
 21
675.0319139701341
 31
0.0
  0
LINE
  5
22D4
330
1F
100
AcDbEntity
  8
10
100
AcDbLine
 10
1615.683150630571
 20
676.0319139701342
 30
0.0
 11
1625.812215548491
 21
676.0319139701342
 31
0.0
  0
LINE
  5
22D5
330
1F
100
AcDbEntity
  8
10
100
AcDbLine
 10
1626.683150630571
 20
674.452157152715
 30
0.0
 11
1630.683150630572
 21
674.4521571527152
 31
0.0
  0
LINE
  5
22D6
330
1F
100
AcDbEntity
  8
10
100
AcDbLine
 10
1641.061960573233
 20
679.4212232089387
 30
0.0
 11
1679.698993624796
 21
669.0684614048379
 31
0.0
  0
LINE
  5
22D7
330
1F
100
AcDbEntity
  8
10
100
AcDbLine
 10
1641.061960573233
 20
679.4212232089387
 30
0.0
 11
1637.956132032003
 21
667.8301132934696
 31
0.0
  0
LINE
  5
22D8
330
1F
100
AcDbEntity
  8
10
100
AcDbLine
 10
1682.733150630571
 20
670.1523095026902
 30
0.0
 11
1682.733150630571
 21
673.3523095026903
 31
0.0
  0
LINE
  5
22D9
330
1F
100
AcDbEntity
  8
10
100
AcDbLine
 10
1676.783150630571
 20
670.1523095026902
 30
0.0
 11
1676.783150630571
 21
673.3523095026903
 31
0.0
  0
LINE
  5
22DA
330
1F
100
AcDbEntity
  8
10
100
AcDbLine
 10
1680.583150630571
 20
670.1523095026902
 30
0.0
 11
1680.583150630571
 21
673.3523095026903
 31
0.0
  0
LINE
  5
22DB
330
1F
100
AcDbEntity
  8
10
100
AcDbLine
 10
1674.633150630572
 20
670.1523095026902
 30
0.0
 11
1674.633150630572
 21
673.3523095026903
 31
0.0
  0
LINE
  5
22DE
330
1F
100
AcDbEntity
  8
10
100
AcDbLine
 10
1637.956132032003
 20
667.8301132934696
 30
0.0
 11
1676.593165083566
 21
657.4773514893693
 31
0.0
  0
LINE
  5
22DF
330
1F
100
AcDbEntity
  8
10
100
AcDbLine
 10
1676.780225099784
 20
648.4017415287112
 30
0.0
 11
1662.764195946558
 21
648.4017415287112
 31
0.0
  0
LINE
  5
22E0
330
1F
100
AcDbEntity
  8
10
100
AcDbLine
 10
1675.329048664321
 20
641.1521571527152
 30
0.0
 11
1671.36549185357
 21
641.1521571527152
 31
0.0
  0
LINE
  5
22E1
330
1F
100
AcDbEntity
  8
10
100
AcDbLine
 10
1672.8199074413
 20
645.1521571527154
 30
0.0
 11
1668.819907441299
 21
641.1521571527152
 31
0.0
  0
LINE
  5
22E2
330
1F
100
AcDbEntity
  8
10
100
AcDbLine
 10
1673.865491853572
 20
643.6521571527151
 30
0.0
 11
1669.86549185357
 21
639.6521571527151
 31
0.0
  0
ARC
  5
22E3
330
1F
100
AcDbEntity
  8
10
100
AcDbCircle
 10
1653.683150630572
 20
617.2667290167593
 30
0.0
 40
32.43230469994988
100
AcDbArc
 50
73.73979529168967
 51
106.2602047083103
  0
LINE
  5
22E4
330
1F
100
AcDbEntity
  8
10
100
AcDbLine
 10
1668.819907441299
 20
641.1521571527152
 30
0.0
 11
1638.546393819844
 21
641.1521571527152
 31
0.0
  0
LINE
  5
22E5
330
1F
100
AcDbEntity
  8
10
100
AcDbLine
 10
1642.507722059144
 20
651.4390337167092
 30
0.0
 11
1642.507722059144
 21
657.5487480024235
 31
0.0
  0
LINE
  5
22E6
330
1F
100
AcDbEntity
  8
10
100
AcDbLine
 10
1646.858579202001
 20
651.4390337167092
 30
0.0
 11
1646.858579202001
 21
657.5487480024235
 31
0.0
  0
LINE
  5
22E7
330
1F
100
AcDbEntity
  8
10
100
AcDbLine
 10
1646.858579202001
 20
651.4390337167092
 30
0.0
 11
1642.507722059144
 21
651.4390337167092
 31
0.0
  0
LINE
  5
22E8
330
1F
100
AcDbEntity
  8
10
100
AcDbLine
 10
1644.683150630572
 20
663.1030337167092
 30
0.0
 11
1649.589436344858
 21
657.5487480024235
 31
0.0
  0
LINE
  5
22E9
330
1F
100
AcDbEntity
  8
10
100
AcDbLine
 10
1644.683150630572
 20
663.1030337167092
 30
0.0
 11
1639.776864916286
 21
657.5487480024235
 31
0.0
  0
LINE
  5
22EA
330
1F
100
AcDbEntity
  8
10
100
AcDbLine
 10
1639.776864916286
 20
657.5487480024235
 30
0.0
 11
1642.507722059144
 21
657.5487480024235
 31
0.0
  0
LINE
  5
22EB
330
1F
100
AcDbEntity
  8
10
100
AcDbLine
 10
1646.858579202001
 20
657.5487480024235
 30
0.0
 11
1649.589436344858
 21
657.5487480024235
 31
0.0
  0
LINE
  5
22EC
330
1F
100
AcDbEntity
  8
10
100
AcDbLine
 10
1684.296451142063
 20
654.6892283648721
 30
0.0
 11
1679.388852132735
 21
650.8356103508353
 31
0.0
  0
LINE
  5
22ED
330
1F
100
AcDbEntity
  8
10
100
AcDbLine
 10
1683.678862738631
 20
655.4757298359102
 30
0.0
 11
1678.771263729301
 21
651.6221118218736
 31
0.0
  0
LINE
  5
22EE
330
1F
100
AcDbEntity
  8
10
100
AcDbLine
 10
1673.953341068041
 20
658.1846902024892
 30
0.0
 11
1673.953341068041
 21
649.699033716709
 31
0.0
  0
LINE
  5
22EF
330
1F
100
AcDbEntity
  8
10
100
AcDbLine
 10
1681.08844810203
 20
661.9668630270776
 30
0.0
 11
1681.08844810203
 21
653.4416458595185
 31
0.0
  0
LINE
  5
22F0
330
1F
100
AcDbEntity
  8
10
100
AcDbLine
 10
1682.683150630571
 20
643.6521571527151
 30
0.0
 11
1674.683150630571
 21
643.6521571527151
 31
0.0
  0
LINE
  5
22F1
330
1F
100
AcDbEntity
  8
10
100
AcDbLine
 10
1682.683150630571
 20
643.1521571527151
 30
0.0
 11
1674.683150630571
 21
643.1521571527151
 31
0.0
  0
ARC
  5
22F2
330
1F
100
AcDbEntity
  8
10
100
AcDbCircle
 10
1678.683150630572
 20
642.1521571527152
 30
0.0
 40
3.500000000000047
100
AcDbArc
 50
326.6329870307686
 51
0.0
  0
ARC
  5
22F3
330
1F
100
AcDbEntity
  8
10
100
AcDbCircle
 10
1680.353479939421
 20
641.0521571527152
 30
0.0
 40
1.499999999999999
100
AcDbArc
 50
270.0
 51
326.6329870307686
  0
LINE
  5
22F4
330
1F
100
AcDbEntity
  8
10
100
AcDbLine
 10
1682.483150630571
 20
642.1521571527152
 30
0.0
 11
1675.183150630572
 21
642.1521571527152
 31
0.0
  0
LINE
  5
22F5
330
1F
100
AcDbEntity
  8
10
100
AcDbLine
 10
1673.865491853572
 20
643.6521571527151
 30
0.0
 11
1682.933150630571
 21
643.6521571527151
 31
0.0
  0
ARC
  5
22F6
330
1F
100
AcDbEntity
  8
10
100
AcDbCircle
 10
1682.167999948182
 20
647.2963537311628
 30
0.0
 40
5.499999999999992
100
AcDbArc
 50
128.140239994472
 51
180.0
  0
ARC
  5
22F7
330
1F
100
AcDbEntity
  8
10
100
AcDbCircle
 10
1682.167999948182
 20
647.2963537311628
 30
0.0
 40
4.499999999999976
100
AcDbArc
 50
128.140239994472
 51
180.0
  0
LINE
  5
22F8
330
1F
100
AcDbEntity
  8
10
100
AcDbLine
 10
1676.667999948182
 20
645.1521571527154
 30
0.0
 11
1676.667999948182
 21
647.2963537311628
 31
0.0
  0
LINE
  5
22F9
330
1F
100
AcDbEntity
  8
10
100
AcDbLine
 10
1677.667999948182
 20
645.1521571527154
 30
0.0
 11
1677.667999948182
 21
647.2963537311628
 31
0.0
  0
LINE
  5
22FA
330
1F
100
AcDbEntity
  8
10
100
AcDbLine
 10
1681.08844810203
 20
648.4017415287112
 30
0.0
 11
1677.805876862225
 21
648.4017415287112
 31
0.0
  0
LINE
  5
22FB
330
1F
100
AcDbEntity
  8
10
100
AcDbLine
 10
1681.08844810203
 20
648.4017415287112
 30
0.0
 11
1677.988927191041
 21
648.9652907852546
 31
0.0
  0
LINE
  5
22FC
330
1F
100
AcDbEntity
  8
10
100
AcDbLine
 10
1681.08844810203
 20
652.1701924206841
 30
0.0
 11
1681.08844810203
 21
648.4017415287112
 31
0.0
  0
LINE
  5
22FD
330
1F
100
AcDbEntity
  8
10
100
AcDbLine
 10
1676.988754008512
 20
649.1471404548055
 30
0.0
 11
1673.953341068041
 21
649.699033716709
 31
0.0
  0
LINE
  5
22FE
330
1F
100
AcDbEntity
  8
10
100
AcDbLine
 10
1674.683150630571
 20
643.1521571527151
 30
0.0
 11
1674.683150630571
 21
643.6521571527151
 31
0.0
  0
LINE
  5
22FF
330
1F
100
AcDbEntity
  8
10
100
AcDbLine
 10
1678.865491853572
 20
642.1521571527152
 30
0.0
 11
1677.865491853572
 21
643.1521571527151
 31
0.0
  0
LINE
  5
2300
330
1F
100
AcDbEntity
  8
10
100
AcDbLine
 10
1680.214610945423
 20
642.1521571527152
 30
0.0
 11
1679.214610945423
 21
643.1521571527151
 31
0.0
  0
LINE
  5
2301
330
1F
100
AcDbEntity
  8
10
100
AcDbLine
 10
1674.883150630572
 20
642.1521571527152
 30
0.0
 11
1674.883150630572
 21
643.1521571527151
 31
0.0
  0
LINE
  5
2302
330
1F
100
AcDbEntity
  8
10
100
AcDbLine
 10
1675.183150630572
 20
642.1521571527152
 30
0.0
 11
1674.883150630572
 21
642.1521571527152
 31
0.0
  0
ARC
  5
2303
330
1F
100
AcDbEntity
  8
10
100
AcDbCircle
 10
1678.683150630572
 20
642.1521571527152
 30
0.0
 40
3.499999999999984
100
AcDbArc
 50
180.0
 51
213.3670129692312
  0
LINE
  5
2304
330
1F
100
AcDbEntity
  8
10
100
AcDbLine
 10
1677.012821321723
 20
639.5521571527154
 30
0.0
 11
1680.353479939421
 21
639.5521571527154
 31
0.0
  0
ARC
  5
2305
330
1F
100
AcDbEntity
  8
10
100
AcDbCircle
 10
1677.012821321723
 20
641.0521571527152
 30
0.0
 40
1.500000000000096
100
AcDbArc
 50
213.3670129692312
 51
270.0
  0
ARC
  5
2306
330
1F
100
AcDbEntity
  8
10
100
AcDbCircle
 10
1678.683150630572
 20
641.0521571527152
 30
0.0
 40
1.499999999999996
100
AcDbArc
 50
180.0
 51
270.0
  0
LINE
  5
2307
330
1F
100
AcDbEntity
  8
10
100
AcDbLine
 10
1678.683150630572
 20
639.5521571527154
 30
0.0
 11
1678.683150630572
 21
639.5521571527154
 31
0.0
  0
ARC
  5
2308
330
1F
100
AcDbEntity
  8
10
100
AcDbCircle
 10
1678.683150630572
 20
641.0521571527152
 30
0.0
 40
1.499999999999999
100
AcDbArc
 50
270.0
 51
0.0
  0
LINE
  5
2309
330
1F
100
AcDbEntity
  8
10
100
AcDbLine
 10
1683.683032478024
 20
654.2075506219695
 30
0.0
 11
1683.683032478024
 21
645.1521571527154
 31
0.0
  0
LINE
  5
230A
330
1F
100
AcDbEntity
  8
10
100
AcDbLine
 10
1682.683150630571
 20
643.6521571527151
 30
0.0
 11
1682.683150630571
 21
643.1521571527151
 31
0.0
  0
LINE
  5
230B
330
1F
100
AcDbEntity
  8
10
100
AcDbLine
 10
1682.483150630571
 20
643.1521571527151
 30
0.0
 11
1682.483150630571
 21
642.1521571527152
 31
0.0
  0
ARC
  5
230C
330
1F
100
AcDbEntity
  8
10
100
AcDbCircle
 10
1682.933150630571
 20
644.4021571527152
 30
0.0
 40
0.7499999999999997
100
AcDbArc
 50
270.0
 51
90.0
  0
LINE
  5
230D
330
1F
100
AcDbEntity
  8
10
100
AcDbLine
 10
1678.275488876732
 20
663.7558693602478
 30
0.0
 11
1682.681989029577
 21
662.5751512028451
 31
0.0
  0
LINE
  5
230E
330
1F
100
AcDbEntity
  8
10
100
AcDbLine
 10
1678.01666983163
 20
662.7899435339587
 30
0.0
 11
1682.423169984476
 21
661.6092253765562
 31
0.0
  0
LINE
  5
230F
330
1F
100
AcDbEntity
  8
10
100
AcDbLine
 10
1675.654017455924
 20
670.1523095026902
 30
0.0
 11
1683.683032478024
 21
670.1523095026902
 31
0.0
  0
LINE
  5
2310
330
1F
100
AcDbEntity
  8
10
100
AcDbLine
 10
1679.698993624796
 20
669.0684614048379
 30
0.0
 11
1676.593165083566
 21
657.4773514893693
 31
0.0
  0
LINE
  5
2311
330
1F
100
AcDbEntity
  8
10
100
AcDbLine
 10
1681.08844810203
 20
666.9027251266942
 30
0.0
 11
1681.08844810203
 21
663.0021392074877
 31
0.0
  0
LINE
  5
2312
330
1F
100
AcDbEntity
  8
10
100
AcDbLine
 10
1679.118686338048
 20
666.9027251266942
 30
0.0
 11
1681.08844810203
 21
666.9027251266942
 31
0.0
  0
LINE
  5
2313
330
1F
100
AcDbEntity
  8
10
100
AcDbLine
 10
1678.963393620151
 20
666.3231648134547
 30
0.0
 11
1681.08844810203
 21
666.9027251266942
 31
0.0
  0
ARC
  5
2314
330
1F
100
AcDbEntity
  8
10
100
AcDbCircle
 10
1681.517303326617
 20
658.2284849845445
 30
0.0
 40
4.500000000000011
100
AcDbArc
 50
308.1402399944719
 51
74.99999999999882
  0
ARC
  5
2315
330
1F
100
AcDbEntity
  8
10
100
AcDbCircle
 10
1681.517303326617
 20
658.2284849845445
 30
0.0
 40
3.500000000000017
100
AcDbArc
 50
308.1402399944719
 51
74.99999999999882
  0
LINE
  5
2316
330
1F
100
AcDbEntity
  8
10
100
AcDbLine
 10
1683.683032478024
 20
670.1523095026902
 30
0.0
 11
1683.683032478024
 21
662.1730530525003
 31
0.0
  0
LINE
  5
2317
330
1F
100
AcDbEntity
  8
10
100
AcDbLine
 10
1683.683032478024
 20
660.9779607969017
 30
0.0
 11
1683.683032478024
 21
655.4790091721871
 31
0.0
  0
LINE
  5
2318
330
1F
100
AcDbEntity
  8
10
100
AcDbLine
 10
1639.63845582517
 20
674.1086311643489
 30
0.0
 11
1638.882577326171
 21
674.3111681977318
 31
0.0
  0
LINE
  5
2319
330
1F
100
AcDbEntity
  8
10
100
AcDbLine
 10
1639.379636780067
 20
673.1427053380598
 30
0.0
 11
1638.623758281068
 21
673.3452423714427
 31
0.0
  0
LINE
  5
231A
330
1F
100
AcDbEntity
  8
10
100
AcDbLine
 10
1682.733150630571
 20
673.3523095026903
 30
0.0
 11
1674.633150630572
 21
673.3523095026903
 31
0.0
  0
LINE
  5
231B
330
1F
100
AcDbEntity
  8
10
100
AcDbLine
 10
1680.683150630572
 20
673.3523095026903
 30
0.0
 11
1680.683150630572
 21
674.4521571527152
 31
0.0
  0
LINE
  5
231C
330
1F
100
AcDbEntity
  8
10
100
AcDbLine
 10
1676.683150630571
 20
673.3523095026903
 30
0.0
 11
1676.683150630571
 21
674.4521571527152
 31
0.0
  0
LINE
  5
231D
330
1F
100
AcDbEntity
  8
10
100
AcDbLine
 10
1680.683150630572
 20
674.4521571527152
 30
0.0
 11
1676.683150630571
 21
674.4521571527152
 31
0.0
  0
LINE
  5
231E
330
1F
100
AcDbEntity
  8
10
100
AcDbLine
 10
1596.683150630571
 20
802.9523095026901
 30
0.0
 11
1606.183150630571
 21
802.9523095026901
 31
0.0
  0
LINE
  5
231F
330
1F
100
AcDbEntity
  8
10
100
AcDbLine
 10
1582.933150630571
 20
752.9523095026876
 30
0.0
 11
1580.433150630572
 21
752.9523095026876
 31
0.0
  0
LINE
  5
2320
330
1F
100
AcDbEntity
  8
10
100
AcDbLine
 10
1572.933150630571
 20
752.9523095026876
 30
0.0
 11
1570.433150630571
 21
752.9523095026876
 31
0.0
  0
LINE
  5
2321
330
1F
100
AcDbEntity
  8
10
100
AcDbLine
 10
1567.933150630572
 20
752.9523095026876
 30
0.0
 11
1565.433150630571
 21
752.9523095026876
 31
0.0
  0
LINE
  5
2322
330
1F
100
AcDbEntity
  8
10
100
AcDbLine
 10
1577.933150630571
 20
752.9523095026876
 30
0.0
 11
1575.433150630572
 21
752.9523095026876
 31
0.0
  0
LINE
  5
2323
330
1F
100
AcDbEntity
  8
10
100
AcDbLine
 10
1587.933150630572
 20
752.9523095026876
 30
0.0
 11
1585.433150630572
 21
752.9523095026876
 31
0.0
  0
LINE
  5
2324
330
1F
100
AcDbEntity
  8
10
100
AcDbLine
 10
1592.933150630571
 20
752.9523095026876
 30
0.0
 11
1590.433150630572
 21
752.9523095026876
 31
0.0
  0
LINE
  5
2325
330
1F
100
AcDbEntity
  8
10
100
AcDbLine
 10
1582.933150630571
 20
787.9523095026876
 30
0.0
 11
1580.433150630572
 21
787.9523095026876
 31
0.0
  0
LINE
  5
2326
330
1F
100
AcDbEntity
  8
10
100
AcDbLine
 10
1582.933150630571
 20
802.9523095026876
 30
0.0
 11
1580.433150630572
 21
802.9523095026876
 31
0.0
  0
LINE
  5
2327
330
1F
100
AcDbEntity
  8
10
100
AcDbLine
 10
1572.933150630571
 20
787.9523095026876
 30
0.0
 11
1570.433150630571
 21
787.9523095026876
 31
0.0
  0
LINE
  5
2328
330
1F
100
AcDbEntity
  8
10
100
AcDbLine
 10
1567.933150630572
 20
787.9523095026876
 30
0.0
 11
1565.433150630571
 21
787.9523095026876
 31
0.0
  0
LINE
  5
2329
330
1F
100
AcDbEntity
  8
10
100
AcDbLine
 10
1577.933150630571
 20
787.9523095026876
 30
0.0
 11
1575.433150630572
 21
787.9523095026876
 31
0.0
  0
LINE
  5
232A
330
1F
100
AcDbEntity
  8
10
100
AcDbLine
 10
1572.933150630571
 20
802.9523095026876
 30
0.0
 11
1570.433150630571
 21
802.9523095026876
 31
0.0
  0
LINE
  5
232B
330
1F
100
AcDbEntity
  8
10
100
AcDbLine
 10
1567.933150630572
 20
802.9523095026876
 30
0.0
 11
1565.433150630571
 21
802.9523095026876
 31
0.0
  0
LINE
  5
232C
330
1F
100
AcDbEntity
  8
10
100
AcDbLine
 10
1577.933150630571
 20
802.9523095026876
 30
0.0
 11
1575.433150630572
 21
802.9523095026876
 31
0.0
  0
LINE
  5
232D
330
1F
100
AcDbEntity
  8
10
100
AcDbLine
 10
1587.933150630572
 20
787.9523095026876
 30
0.0
 11
1585.433150630572
 21
787.9523095026876
 31
0.0
  0
LINE
  5
232E
330
1F
100
AcDbEntity
  8
10
100
AcDbLine
 10
1592.933150630571
 20
787.9523095026876
 30
0.0
 11
1590.433150630572
 21
787.9523095026876
 31
0.0
  0
LINE
  5
232F
330
1F
100
AcDbEntity
  8
10
100
AcDbLine
 10
1587.933150630572
 20
802.9523095026876
 30
0.0
 11
1585.433150630572
 21
802.9523095026876
 31
0.0
  0
LINE
  5
2330
330
1F
100
AcDbEntity
  8
10
100
AcDbLine
 10
1592.933150630571
 20
802.9523095026876
 30
0.0
 11
1590.433150630572
 21
802.9523095026876
 31
0.0
  0
LINE
  5
2331
330
1F
100
AcDbEntity
  8
10
100
AcDbLine
 10
1582.933150630571
 20
837.9523095026875
 30
0.0
 11
1580.433150630572
 21
837.9523095026875
 31
0.0
  0
LINE
  5
2332
330
1F
100
AcDbEntity
  8
10
100
AcDbLine
 10
1582.933150630571
 20
852.9523095026876
 30
0.0
 11
1580.433150630572
 21
852.9523095026876
 31
0.0
  0
LINE
  5
2333
330
1F
100
AcDbEntity
  8
10
100
AcDbLine
 10
1572.933150630571
 20
837.9523095026875
 30
0.0
 11
1570.433150630571
 21
837.9523095026875
 31
0.0
  0
LINE
  5
2334
330
1F
100
AcDbEntity
  8
10
100
AcDbLine
 10
1567.933150630572
 20
837.9523095026875
 30
0.0
 11
1565.433150630571
 21
837.9523095026875
 31
0.0
  0
LINE
  5
2335
330
1F
100
AcDbEntity
  8
10
100
AcDbLine
 10
1577.933150630571
 20
837.9523095026875
 30
0.0
 11
1575.433150630572
 21
837.9523095026875
 31
0.0
  0
LINE
  5
2336
330
1F
100
AcDbEntity
  8
10
100
AcDbLine
 10
1572.933150630571
 20
852.9523095026876
 30
0.0
 11
1570.433150630571
 21
852.9523095026876
 31
0.0
  0
LINE
  5
2337
330
1F
100
AcDbEntity
  8
10
100
AcDbLine
 10
1567.933150630572
 20
852.9523095026876
 30
0.0
 11
1565.433150630571
 21
852.9523095026876
 31
0.0
  0
LINE
  5
2338
330
1F
100
AcDbEntity
  8
10
100
AcDbLine
 10
1577.933150630571
 20
852.9523095026876
 30
0.0
 11
1575.433150630572
 21
852.9523095026876
 31
0.0
  0
LINE
  5
2339
330
1F
100
AcDbEntity
  8
10
100
AcDbLine
 10
1587.933150630572
 20
837.9523095026875
 30
0.0
 11
1585.433150630572
 21
837.9523095026875
 31
0.0
  0
LINE
  5
233A
330
1F
100
AcDbEntity
  8
10
100
AcDbLine
 10
1592.933150630571
 20
837.9523095026875
 30
0.0
 11
1590.433150630572
 21
837.9523095026875
 31
0.0
  0
LINE
  5
233B
330
1F
100
AcDbEntity
  8
10
100
AcDbLine
 10
1587.933150630572
 20
852.9523095026876
 30
0.0
 11
1585.433150630572
 21
852.9523095026876
 31
0.0
  0
LINE
  5
233C
330
1F
100
AcDbEntity
  8
10
100
AcDbLine
 10
1592.933150630571
 20
852.9523095026876
 30
0.0
 11
1590.433150630572
 21
852.9523095026876
 31
0.0
  0
ARC
  5
233D
330
1F
100
AcDbEntity
  8
10
100
AcDbCircle
 10
1581.683150630571
 20
884.2023095026856
 30
0.0
 40
1.249999999999987
100
AcDbArc
 50
0.0
 51
180.0
  0
ARC
  5
233E
330
1F
100
AcDbEntity
  8
10
100
AcDbCircle
 10
1571.683150630572
 20
884.2023095026856
 30
0.0
 40
1.249999999999987
100
AcDbArc
 50
0.0
 51
180.0
  0
ARC
  5
233F
330
1F
100
AcDbEntity
  8
10
100
AcDbCircle
 10
1566.683150630572
 20
884.2023095026856
 30
0.0
 40
1.249999999999987
100
AcDbArc
 50
0.0
 51
180.0
  0
ARC
  5
2340
330
1F
100
AcDbEntity
  8
10
100
AcDbCircle
 10
1576.683150630572
 20
884.2023095026856
 30
0.0
 40
1.250000000000017
100
AcDbArc
 50
0.0
 51
180.0
  0
ARC
  5
2341
330
1F
100
AcDbEntity
  8
10
100
AcDbCircle
 10
1586.683150630571
 20
884.2023095026856
 30
0.0
 40
1.249999999999987
100
AcDbArc
 50
0.0
 51
180.0
  0
ARC
  5
2342
330
1F
100
AcDbEntity
  8
10
100
AcDbCircle
 10
1591.683150630571
 20
884.2023095026856
 30
0.0
 40
1.250000000000017
100
AcDbArc
 50
0.0
 51
180.0
  0
LINE
  5
2343
330
1F
100
AcDbEntity
  8
10
100
AcDbLine
 10
1450.683150630571
 20
905.4523095026899
 30
0.0
 11
1576.683150630572
 21
905.4523095026899
 31
0.0
  0
LINE
  5
2344
330
1F
100
AcDbEntity
  8
10
100
AcDbLine
 10
1435.893501993128
 20
904.6772168612251
 30
0.0
 11
1432.603853355685
 21
904.5048136815152
 31
0.0
  0
ARC
  5
2345
330
1F
100
AcDbEntity
  8
10
100
AcDbCircle
 10
1435.760861224415
 20
901.6661484151006
 30
0.0
 40
2.999999999999939
100
AcDbArc
 50
92.9999999999991
 51
160.3162775136998
  0
ARC
  5
2346
330
1F
100
AcDbEntity
  8
10
100
AcDbCircle
 10
1432.760861224415
 20
901.5089250772515
 30
0.0
 40
2.999999999999933
100
AcDbArc
 50
92.9999999999991
 51
160.3162775136998
  0
ARC
  5
2347
330
1F
100
AcDbEntity
  8
10
100
AcDbCircle
 10
1433.683150630572
 20
904.5613772548783
 30
0.0
 40
0.500000000000023
100
AcDbArc
 50
2.999999999990786
 51
183.0000000000105
  0
LINE
  5
2348
330
1F
100
AcDbEntity
  8
10
100
AcDbLine
 10
1450.683150630571
 20
905.4523095026899
 30
0.0
 11
1435.603853355686
 21
904.6620370193643
 31
0.0
  0
ARC
  5
2349
330
1F
100
AcDbEntity
  8
10
100
AcDbCircle
 10
1435.683150630572
 20
904.6661928134444
 30
0.0
 40
0.5000000000000249
100
AcDbArc
 50
2.999999999997291
 51
182.9999999999973
  0
ARC
  5
234A
330
1F
100
AcDbEntity
  8
10
100
AcDbCircle
 10
1437.683150630571
 20
904.7710083720103
 30
0.0
 40
0.5000000000000249
100
AcDbArc
 50
2.999999999997291
 51
182.9999999999973
  0
LINE
  5
234B
330
1F
100
AcDbEntity
  8
10
100
AcDbLine
 10
1450.683150630571
 20
902.75230950269
 30
0.0
 11
1450.683150630571
 21
905.4523095026899
 31
0.0
  0
LINE
  5
234C
330
1F
100
AcDbEntity
  8
10
100
AcDbLine
 10
1601.683150630571
 20
915.4523095026901
 30
0.0
 11
1576.683150630572
 21
905.4523095026899
 31
0.0
  0
LINE
  5
234F
330
1F
100
AcDbEntity
  8
10
100
AcDbLine
 10
1610.683150630571
 20
900.45230950269
 30
0.0
 11
1615.683150630571
 21
900.45230950269
 31
0.0
  0
LINE
  5
2351
330
1F
100
AcDbEntity
  8
10
100
AcDbLine
 10
1604.683150630571
 20
920.45230950269
 30
0.0
 11
1610.683150630571
 21
920.45230950269
 31
0.0
  0
LINE
  5
2352
330
1F
100
AcDbEntity
  8
10
100
AcDbLine
 10
1604.683150630571
 20
915.4523095026901
 30
0.0
 11
1604.683150630571
 21
920.45230950269
 31
0.0
  0
LINE
  5
2353
330
1F
100
AcDbEntity
  8
10
100
AcDbLine
 10
1601.683150630571
 20
915.4523095026901
 30
0.0
 11
1606.183150630571
 21
915.4523095026901
 31
0.0
  0
LINE
  5
2354
330
1F
100
AcDbEntity
  8
10
100
AcDbLine
 10
1715.683150630571
 20
684.45230950269
 30
0.0
 11
1715.683150630571
 21
899.4523095026901
 31
0.0
  0
CIRCLE
  5
24F2
330
1F
100
AcDbEntity
  8
10
100
AcDbCircle
 10
1148.683150630572
 20
910.4523095026898
 30
0.0
 40
3.500000000000026
  0
CIRCLE
  5
24F3
330
1F
100
AcDbEntity
  8
10
100
AcDbCircle
 10
1148.683150630572
 20
910.4523095026898
 30
0.0
 40
4.000000000000031
  0
LINE
  5
24F4
330
1F
100
AcDbEntity
  8
10
100
AcDbLine
 10
1147.268937068198
 20
911.8665230650632
 30
0.0
 11
1150.097364192945
 21
909.0380959403168
 31
0.0
  0
LINE
  5
24F5
330
1F
100
AcDbEntity
  8
10
100
AcDbLine
 10
1150.097364192945
 20
911.8665230650632
 30
0.0
 11
1147.268937068198
 21
909.0380959403168
 31
0.0
  0
CIRCLE
  5
24F6
330
1F
100
AcDbEntity
  8
10
100
AcDbCircle
 10
1252.683150630572
 20
910.4523095026898
 30
0.0
 40
3.500000000000026
  0
CIRCLE
  5
24F7
330
1F
100
AcDbEntity
  8
10
100
AcDbCircle
 10
1252.683150630572
 20
910.4523095026898
 30
0.0
 40
4.000000000000031
  0
LINE
  5
24F8
330
1F
100
AcDbEntity
  8
10
100
AcDbLine
 10
1251.268937068199
 20
911.8665230650632
 30
0.0
 11
1254.097364192944
 21
909.0380959403168
 31
0.0
  0
LINE
  5
24F9
330
1F
100
AcDbEntity
  8
10
100
AcDbLine
 10
1254.097364192944
 20
911.8665230650632
 30
0.0
 11
1251.268937068199
 21
909.0380959403168
 31
0.0
  0
CIRCLE
  5
24FA
330
1F
100
AcDbEntity
  8
10
100
AcDbCircle
 10
1148.683150630572
 20
630.4523095026901
 30
0.0
 40
3.500000000000026
  0
CIRCLE
  5
24FB
330
1F
100
AcDbEntity
  8
10
100
AcDbCircle
 10
1148.683150630572
 20
630.4523095026901
 30
0.0
 40
4.000000000000031
  0
LINE
  5
24FC
330
1F
100
AcDbEntity
  8
10
100
AcDbLine
 10
1147.268937068198
 20
631.8665230650632
 30
0.0
 11
1150.097364192945
 21
629.038095940317
 31
0.0
  0
LINE
  5
24FD
330
1F
100
AcDbEntity
  8
10
100
AcDbLine
 10
1150.097364192945
 20
631.8665230650632
 30
0.0
 11
1147.268937068198
 21
629.038095940317
 31
0.0
  0
CIRCLE
  5
24FE
330
1F
100
AcDbEntity
  8
10
100
AcDbCircle
 10
1227.683150630572
 20
627.45230950269
 30
0.0
 40
4.500000000000033
  0
CIRCLE
  5
24FF
330
1F
100
AcDbEntity
  8
10
100
AcDbCircle
 10
1227.683150630572
 20
627.45230950269
 30
0.0
 40
5.000000000000039
  0
LINE
  5
2500
330
1F
100
AcDbEntity
  8
10
100
AcDbLine
 10
1225.915383677606
 20
629.2200764556562
 30
0.0
 11
1229.450917583538
 21
625.6845425497235
 31
0.0
  0
LINE
  5
2501
330
1F
100
AcDbEntity
  8
10
100
AcDbLine
 10
1229.450917583538
 20
629.2200764556562
 30
0.0
 11
1225.915383677606
 21
625.6845425497235
 31
0.0
  0
CIRCLE
  5
2502
330
1F
100
AcDbEntity
  8
10
100
AcDbCircle
 10
1240.683150630572
 20
627.4523095026895
 30
0.0
 40
4.500000000000033
  0
CIRCLE
  5
2503
330
1F
100
AcDbEntity
  8
10
100
AcDbCircle
 10
1240.683150630572
 20
627.4523095026895
 30
0.0
 40
5.000000000000039
  0
LINE
  5
2504
330
1F
100
AcDbEntity
  8
10
100
AcDbLine
 10
1238.915383677606
 20
629.220076455656
 30
0.0
 11
1242.450917583538
 21
625.6845425497232
 31
0.0
  0
LINE
  5
2505
330
1F
100
AcDbEntity
  8
10
100
AcDbLine
 10
1242.450917583538
 20
629.220076455656
 30
0.0
 11
1238.915383677606
 21
625.6845425497232
 31
0.0
  0
CIRCLE
  5
2506
330
1F
100
AcDbEntity
  8
10
100
AcDbCircle
 10
1252.683150630572
 20
630.4523095026901
 30
0.0
 40
3.500000000000026
  0
CIRCLE
  5
2507
330
1F
100
AcDbEntity
  8
10
100
AcDbCircle
 10
1252.683150630572
 20
630.4523095026901
 30
0.0
 40
4.000000000000031
  0
LINE
  5
2508
330
1F
100
AcDbEntity
  8
10
100
AcDbLine
 10
1251.268937068199
 20
631.8665230650632
 30
0.0
 11
1254.097364192944
 21
629.038095940317
 31
0.0
  0
LINE
  5
2509
330
1F
100
AcDbEntity
  8
10
100
AcDbLine
 10
1254.097364192944
 20
631.8665230650632
 30
0.0
 11
1251.268937068199
 21
629.038095940317
 31
0.0
  0
LWPOLYLINE
  5
2512
330
1F
100
AcDbEntity
  8
18
100
AcDbPolyline
 90
        4
 70
     1
 43
0.0
 10
1090.683150630572
 20
1020.452309502689
 10
1310.683150630572
 20
1020.452309502689
 10
1310.683150630572
 20
520.45230950269
 10
1090.683150630572
 20
520.45230950269
  0
LWPOLYLINE
  5
2516
330
1F
100
AcDbEntity
  8
18
100
AcDbPolyline
 90
        4
 70
     1
 43
0.0
 10
1610.683150630571
 20
1020.452309502689
 10
1360.683150630572
 20
1020.452309502689
 10
1360.683150630572
 20
520.45230950269
 10
1610.683150630571
 20
520.45230950269
  0
VIEWPORT
  5
1A9E
330
1B
100
AcDbEntity
 67
     1
  8
0
100
AcDbViewport
 10
5.249999639556162
 20
3.999999883606676
 30
0.0
 40
13.61503641713194
 41
8.992999745766947
 68
     1
 69
     1
 12
5.249999639556162
 22
3.999999883606676
 13
0.0
 23
0.0
 14
10.0
 24
10.0
 15
10.0
 25
10.0
 16
0.0
 26
0.0
 36
1.0
 17
0.0
 27
0.0
 37
0.0
 42
50.0
 43
0.0
 44
0.0
 45
8.992999745766947
 50
0.0
 51
0.0
 72
   100
 90
    32800
  1

281
     0
 71
     1
 74
     0
110
0.0
120
0.0
130
0.0
111
1.0
121
0.0
131
0.0
112
0.0
122
1.0
132
0.0
 79
     0
146
0.0
  0
VIEWPORT
  5
1AA0
330
1B
100
AcDbEntity
 67
     1
  8
0
100
AcDbViewport
 10
5.24999976158142
 20
3.999999761581419
 30
0.0
 40
8.399999618530271
 41
6.399999618530272
 68
     2
 69
     2
 12
-1363.137645193887
 22
-311.7485573738788
 13
0.0
 23
0.0
 14
10.0
 24
10.0
 15
10.0
 25
10.0
 16
0.0
 26
0.0
 36
1.0
 17
0.0
 27
0.0
 37
0.0
 42
50.0
 43
0.0
 44
0.0
 45
467.9695885509838
 50
0.0
 51
0.0
 72
   100
 90
    32864
  1

281
     0
 71
     1
 74
     0
110
0.0
120
0.0
130
0.0
111
1.0
121
0.0
131
0.0
112
0.0
122
1.0
132
0.0
 79
     0
146
0.0
  0
ENDSEC
  0
SECTION
  2
OBJECTS
  0
DICTIONARY
  5
C
330
0
100
AcDbDictionary
281
     1
  3
ACAD_GROUP
350
D
  3
ACAD_LAYOUT
350
1A
  3
ACAD_MLINESTYLE
350
17
  3
ACAD_PLOTSETTINGS
350
19
  3
ACAD_PLOTSTYLENAME
350
47
  3
AcDbVariableDictionary
350
191F
  3
DWGPROPS
350
2544
1001
ACAD
1000
TREAT_AS_HARD
1070
     0
  0
DICTIONARY
  5
41
330
1F
100
AcDbDictionary
280
     1
281
     1
  3
ACAD_LAYOUTSELFREF
360
1B2E
  0
DICTIONARY
  5
3F
330
1B
100
AcDbDictionary
280
     1
281
     1
  3
ACAD_LAYOUTSELFREF
360
1B2D
  0
DICTIONARY
  5
D
102
{ACAD_REACTORS
330
C
102
}
330
C
100
AcDbDictionary
281
     1
1001
ACAD
1000
TREAT_AS_HARD
1070
     0
  0
DICTIONARY
  5
1A
102
{ACAD_REACTORS
330
C
102
}
330
C
100
AcDbDictionary
281
     1
  3
Model
350
49
  3
ﾚｲｱｳﾄ1
350
4A
1001
ACAD
1000
TREAT_AS_HARD
1070
     0
  0
DICTIONARY
  5
17
102
{ACAD_REACTORS
330
C
102
}
330
C
100
AcDbDictionary
281
     1
  3
STANDARD
350
18
1001
ACAD
1000
TREAT_AS_HARD
1070
     0
  0
DICTIONARY
  5
19
102
{ACAD_REACTORS
330
C
102
}
330
C
100
AcDbDictionary
281
     1
1001
ACAD
1000
TREAT_AS_HARD
1070
     0
  0
ACDBDICTIONARYWDFLT
  5
47
102
{ACAD_REACTORS
330
C
102
}
330
C
100
AcDbDictionary
281
     1
  3
Normal
350
48
100
AcDbDictionaryWithDefault
340
48
  0
DICTIONARY
  5
191F
102
{ACAD_REACTORS
330
C
102
}
330
C
100
AcDbDictionary
281
     1
  3
DIMASSOC
350
1920
  0
XRECORD
  5
2544
102
{ACAD_REACTORS
330
C
102
}
330
C
100
AcDbXrecord
280
     1
  1
DWGPROPS COOKIE
  2

  3

  4

  6

  7

  8

  9

300
=
301
=
302
=
303
=
304
=
305
=
306
=
307
=
308
=
309
=
 40
0.0591954050925926
 41
2453312.371317361
 42
2453971.448896886
  1

 90
        0
  0
XRECORD
  5
1B2E
102
{ACAD_REACTORS
330
41
102
}
330
41
100
AcDbXrecord
280
     1
340
1F
  0
XRECORD
  5
1B2D
102
{ACAD_REACTORS
330
3F
102
}
330
3F
100
AcDbXrecord
280
     1
340
1B
  0
LAYOUT
  5
49
102
{ACAD_REACTORS
330
1A
102
}
330
1A
100
AcDbPlotSettings
  1

  2
EPSON LP-9200PS2
  4

  6

 40
0.0
 41
0.0
 42
0.0
 43
0.0
 44
0.0
 45
0.0
 46
0.0
 47
0.0
 48
0.0
 49
0.0
140
0.0
141
0.0
142
1.0
143
1.0
 70
  1712
 72
     0
 73
     0
 74
     0
  7

 75
     0
147
1.0
148
0.0
149
0.0
100
AcDbLayout
  1
Model
 70
     1
 71
     0
 10
0.0
 20
0.0
 11
12.0
 21
9.0
 12
0.0
 22
0.0
 32
0.0
 14
0.0
 24
0.0
 34
0.0
 15
0.0
 25
0.0
 35
0.0
146
0.0
 13
0.0
 23
0.0
 33
0.0
 16
1.0
 26
0.0
 36
0.0
 17
0.0
 27
1.0
 37
0.0
 76
     0
330
1F
  0
LAYOUT
  5
4A
102
{ACAD_REACTORS
330
1A
102
}
330
1A
100
AcDbPlotSettings
  1

  2
none_device
  4
Letter_(8.50_x_11.00_Inches)
  6

 40
6.349999904632567
 41
6.349999904632567
 42
6.350006103515625
 43
6.350006103515625
 44
215.8999938964842
 45
279.3999938964843
 46
0.0
 47
0.0
 48
0.0
 49
0.0
140
0.0
141
0.0
142
1.0
143
1.0
 70
   688
 72
     0
 73
     1
 74
     5
  7

 75
    16
147
1.0
148
0.0
149
0.0
100
AcDbLayout
  1
ﾚｲｱｳﾄ1
 70
     1
 71
     1
 10
-0.2500002402958907
 20
-0.2499999962453767
 11
10.74999951940821
 21
8.249999763458731
 12
0.0
 22
0.0
 32
0.0
 14
1.049999952316283
 24
0.7999999523162842
 34
0.0
 15
9.449999570846555
 25
7.199999570846556
 35
0.0
146
0.0
 13
0.0
 23
0.0
 33
0.0
 16
1.0
 26
0.0
 36
0.0
 17
0.0
 27
1.0
 37
0.0
 76
     0
330
1B
331
1A9E
  0
MLINESTYLE
  5
18
102
{ACAD_REACTORS
330
17
102
}
330
17
100
AcDbMlineStyle
  2
STANDARD
 70
     0
  3

 62
   256
 51
90.0
 52
90.0
 71
     2
 49
0.5
 62
   256
  6
BYLAYER
 49
-0.5
 62
   256
  6
BYLAYER
  0
ACDBPLACEHOLDER
  5
48
102
{ACAD_REACTORS
330
47
102
}
330
47
  0
DICTIONARYVAR
  5
1920
102
{ACAD_REACTORS
330
191F
102
}
330
191F
100
DictionaryVariables
280
     0
  1
1
  0
ENDSEC
  0
EOF
