  0
SECTION
  2
HEADER
  9
$ACADVER
  1
AC1015
  9
$ACADMAINTVER
 70
    10
  9
$DWGCODEPAGE
  3
ANSI_932
  9
$INSBASE
 10
0.0
 20
0.0
 30
0.0
  9
$EXTMIN
 10
1197.512661856533
 20
756.9035550108959
 30
0.0
  9
$EXTMAX
 10
2034.092842046419
 20
1342.545302510174
 30
0.0
  9
$LIMMIN
 10
0.0
 20
0.0
  9
$LIMMAX
 10
420.0
 20
297.0
  9
$ORTHOMODE
 70
     1
  9
$REGENMODE
 70
     1
  9
$FILLMODE
 70
     1
  9
$QTEXTMODE
 70
     0
  9
$MIRRTEXT
 70
     1
  9
$LTSCALE
 40
1.0
  9
$ATTMODE
 70
     1
  9
$TEXTSIZE
 40
2.5
  9
$TRACEWID
 40
1.0
  9
$TEXTSTYLE
  7
STANDARD
  9
$CLAYER
  8
0
  9
$CELTYPE
  6
BYLAYER
  9
$CECOLOR
 62
   256
  9
$CELTSCALE
 40
1.0
  9
$DISPSILH
 70
     0
  9
$DIMSCALE
 40
1.0
  9
$DIMASZ
 40
2.5
  9
$DIMEXO
 40
0.625
  9
$DIMDLI
 40
3.75
  9
$DIMRND
 40
0.0
  9
$DIMDLE
 40
0.0
  9
$DIMEXE
 40
1.25
  9
$DIMTP
 40
0.0
  9
$DIMTM
 40
0.0
  9
$DIMTXT
 40
2.5
  9
$DIMCEN
 40
2.5
  9
$DIMTSZ
 40
0.0
  9
$DIMTOL
 70
     0
  9
$DIMLIM
 70
     0
  9
$DIMTIH
 70
     0
  9
$DIMTOH
 70
     0
  9
$DIMSE1
 70
     0
  9
$DIMSE2
 70
     0
  9
$DIMTAD
 70
     1
  9
$DIMZIN
 70
     8
  9
$DIMBLK
  1

  9
$DIMASO
 70
     1
  9
$DIMSHO
 70
     1
  9
$DIMPOST
  1

  9
$DIMAPOST
  1

  9
$DIMALT
 70
     0
  9
$DIMALTD
 70
     3
  9
$DIMALTF
 40
0.03937007874016
  9
$DIMLFAC
 40
1.0
  9
$DIMTOFL
 70
     1
  9
$DIMTVP
 40
0.0
  9
$DIMTIX
 70
     0
  9
$DIMSOXD
 70
     0
  9
$DIMSAH
 70
     0
  9
$DIMBLK1
  1

  9
$DIMBLK2
  1

  9
$DIMSTYLE
  2
ISO-25
  9
$DIMCLRD
 70
     0
  9
$DIMCLRE
 70
     0
  9
$DIMCLRT
 70
     0
  9
$DIMTFAC
 40
1.0
  9
$DIMGAP
 40
0.625
  9
$DIMJUST
 70
     0
  9
$DIMSD1
 70
     0
  9
$DIMSD2
 70
     0
  9
$DIMTOLJ
 70
     0
  9
$DIMTZIN
 70
     8
  9
$DIMALTZ
 70
     0
  9
$DIMALTTZ
 70
     0
  9
$DIMUPT
 70
     0
  9
$DIMDEC
 70
     1
  9
$DIMTDEC
 70
     1
  9
$DIMALTU
 70
     2
  9
$DIMALTTD
 70
     3
  9
$DIMTXSTY
  7
STANDARD
  9
$DIMAUNIT
 70
     0
  9
$DIMADEC
 70
     0
  9
$DIMALTRND
 40
0.0
  9
$DIMAZIN
 70
     0
  9
$DIMDSEP
 70
    46
  9
$DIMATFIT
 70
     3
  9
$DIMFRAC
 70
     0
  9
$DIMLDRBLK
  1

  9
$DIMLUNIT
 70
     2
  9
$DIMLWD
 70
    -2
  9
$DIMLWE
 70
    -2
  9
$DIMTMOVE
 70
     0
  9
$LUNITS
 70
     2
  9
$LUPREC
 70
     4
  9
$SKETCHINC
 40
1.0
  9
$FILLETRAD
 40
10.0
  9
$AUNITS
 70
     0
  9
$AUPREC
 70
     0
  9
$MENU
  1
.
  9
$ELEVATION
 40
0.0
  9
$PELEVATION
 40
0.0
  9
$THICKNESS
 40
0.0
  9
$LIMCHECK
 70
     0
  9
$CHAMFERA
 40
10.0
  9
$CHAMFERB
 40
10.0
  9
$CHAMFERC
 40
20.0
  9
$CHAMFERD
 40
0.0
  9
$SKPOLY
 70
     0
  9
$TDCREATE
 40
2453312.371317361
  9
$TDUCREATE
 40
2453311.996317361
  9
$TDUPDATE
 40
2454637.669461018
  9
$TDUUPDATE
 40
2454637.294461018
  9
$TDINDWG
 40
0.0347574190
  9
$TDUSRTIMER
 40
0.0347571181
  9
$USRTIMER
 70
     1
  9
$ANGBASE
 50
0.0
  9
$ANGDIR
 70
     0
  9
$PDMODE
 70
    34
  9
$PDSIZE
 40
0.0
  9
$PLINEWID
 40
0.0
  9
$SPLFRAME
 70
     0
  9
$SPLINETYPE
 70
     6
  9
$SPLINESEGS
 70
     8
  9
$HANDSEED
  5
272A
  9
$SURFTAB1
 70
     6
  9
$SURFTAB2
 70
     6
  9
$SURFTYPE
 70
     6
  9
$SURFU
 70
     6
  9
$SURFV
 70
     6
  9
$UCSBASE
  2

  9
$UCSNAME
  2

  9
$UCSORG
 10
0.0
 20
0.0
 30
0.0
  9
$UCSXDIR
 10
1.0
 20
0.0
 30
0.0
  9
$UCSYDIR
 10
0.0
 20
1.0
 30
0.0
  9
$UCSORTHOREF
  2

  9
$UCSORTHOVIEW
 70
     0
  9
$UCSORGTOP
 10
0.0
 20
0.0
 30
0.0
  9
$UCSORGBOTTOM
 10
0.0
 20
0.0
 30
0.0
  9
$UCSORGLEFT
 10
0.0
 20
0.0
 30
0.0
  9
$UCSORGRIGHT
 10
0.0
 20
0.0
 30
0.0
  9
$UCSORGFRONT
 10
0.0
 20
0.0
 30
0.0
  9
$UCSORGBACK
 10
0.0
 20
0.0
 30
0.0
  9
$PUCSBASE
  2

  9
$PUCSNAME
  2

  9
$PUCSORG
 10
0.0
 20
0.0
 30
0.0
  9
$PUCSXDIR
 10
1.0
 20
0.0
 30
0.0
  9
$PUCSYDIR
 10
0.0
 20
1.0
 30
0.0
  9
$PUCSORTHOREF
  2

  9
$PUCSORTHOVIEW
 70
     0
  9
$PUCSORGTOP
 10
0.0
 20
0.0
 30
0.0
  9
$PUCSORGBOTTOM
 10
0.0
 20
0.0
 30
0.0
  9
$PUCSORGLEFT
 10
0.0
 20
0.0
 30
0.0
  9
$PUCSORGRIGHT
 10
0.0
 20
0.0
 30
0.0
  9
$PUCSORGFRONT
 10
0.0
 20
0.0
 30
0.0
  9
$PUCSORGBACK
 10
0.0
 20
0.0
 30
0.0
  9
$USERI1
 70
     0
  9
$USERI2
 70
     0
  9
$USERI3
 70
     0
  9
$USERI4
 70
     0
  9
$USERI5
 70
     0
  9
$USERR1
 40
0.0
  9
$USERR2
 40
0.0
  9
$USERR3
 40
0.0
  9
$USERR4
 40
0.0
  9
$USERR5
 40
0.0
  9
$WORLDVIEW
 70
     1
  9
$SHADEDGE
 70
     3
  9
$SHADEDIF
 70
    70
  9
$TILEMODE
 70
     1
  9
$MAXACTVP
 70
    48
  9
$PINSBASE
 10
0.0
 20
0.0
 30
0.0
  9
$PLIMCHECK
 70
     0
  9
$PEXTMIN
 10
1.049999952316283
 20
0.7999999523162842
 30
0.0
  9
$PEXTMAX
 10
9.449999570846555
 20
7.199999570846556
 30
0.0
  9
$PLIMMIN
 10
-0.2500002402958907
 20
-0.2499999962453767
  9
$PLIMMAX
 10
10.74999951940821
 20
8.249999763458731
  9
$UNITMODE
 70
     0
  9
$VISRETAIN
 70
     1
  9
$PLINEGEN
 70
     0
  9
$PSLTSCALE
 70
     1
  9
$TREEDEPTH
 70
  3020
  9
$CMLSTYLE
  2
STANDARD
  9
$CMLJUST
 70
     0
  9
$CMLSCALE
 40
20.0
  9
$PROXYGRAPHICS
 70
     1
  9
$MEASUREMENT
 70
     0
  9
$CELWEIGHT
370
    -1
  9
$ENDCAPS
280
     0
  9
$JOINSTYLE
280
     0
  9
$LWDISPLAY
290
     0
  9
$INSUNITS
 70
     0
  9
$HYPERLINKBASE
  1

  9
$STYLESHEET
  1

  9
$XEDIT
290
     1
  9
$CEPSNTYPE
380
     0
  9
$PSTYLEMODE
290
     1
  9
$FINGERPRINTGUID
  2
{C8342AD0-ADE8-45AD-AC00-933185DE4E38}
  9
$VERSIONGUID
  2
{4534C54F-C9C1-4E93-85C1-546ED618C3C4}
  9
$EXTNAMES
290
     1
  9
$PSVPSCALE
 40
0.0
  9
$OLESTARTUP
290
     0
  0
ENDSEC
  0
SECTION
  2
CLASSES
  0
CLASS
  1
ACDBDICTIONARYWDFLT
  2
AcDbDictionaryWithDefault
  3
AutoCAD 2000
 90
        0
280
     0
281
     0
  0
CLASS
  1
ACDBPLACEHOLDER
  2
AcDbPlaceHolder
  3
AutoCAD 2000
 90
        0
280
     0
281
     0
  0
CLASS
  1
LAYOUT
  2
AcDbLayout
  3
AutoCAD 2000
 90
        0
280
     0
281
     0
  0
CLASS
  1
LONG_TRANSACTION
  2
AcDbLongTransaction
  3
AutoCAD 2000
 90
    32768
280
     0
281
     0
  0
CLASS
  1
LWPOLYLINE
  2
AcDbPolyline
  3
AutoCAD 2000
 90
    32768
280
     0
281
     1
  0
CLASS
  1
HATCH
  2
AcDbHatch
  3
AutoCAD 2000
 90
    32768
280
     0
281
     1
  0
CLASS
  1
XRECORD
  2
AcDbXrecord
  3
AutoCAD 2000
 90
    32768
280
     0
281
     0
  0
CLASS
  1
DICTIONARYVAR
  2
AcDbDictionaryVar
  3
AutoCAD 2000
 90
        0
280
     0
281
     0
  0
CLASS
  1
LONG_TRANSACTION
  2
AcDbLongTransaction
  3
AutoCAD 2000
 90
    32768
280
     0
281
     0
  0
CLASS
  1
LWPOLYLINE
  2
AcDbPolyline
  3
AutoCAD 2000
 90
    32768
280
     0
281
     1
  0
CLASS
  1
HATCH
  2
AcDbHatch
  3
AutoCAD 2000
 90
    32768
280
     0
281
     1
  0
CLASS
  1
XRECORD
  2
AcDbXrecord
  3
AutoCAD 2000
 90
    32768
280
     0
281
     0
  0
CLASS
  1
LONG_TRANSACTION
  2
AcDbLongTransaction
  3
AutoCAD 2000
 90
    32768
280
     0
281
     0
  0
CLASS
  1
LWPOLYLINE
  2
AcDbPolyline
  3
AutoCAD 2000
 90
    32768
280
     0
281
     1
  0
CLASS
  1
HATCH
  2
AcDbHatch
  3
AutoCAD 2000
 90
    32768
280
     0
281
     1
  0
CLASS
  1
XRECORD
  2
AcDbXrecord
  3
AutoCAD 2000
 90
    32768
280
     0
281
     0
  0
CLASS
  1
LONG_TRANSACTION
  2
AcDbLongTransaction
  3
AutoCAD 2000
 90
    32768
280
     0
281
     0
  0
CLASS
  1
LWPOLYLINE
  2
AcDbPolyline
  3
AutoCAD 2000
 90
    32768
280
     0
281
     1
  0
CLASS
  1
HATCH
  2
AcDbHatch
  3
AutoCAD 2000
 90
    32768
280
     0
281
     1
  0
CLASS
  1
XRECORD
  2
AcDbXrecord
  3
AutoCAD 2000
 90
    32768
280
     0
281
     0
  0
CLASS
  1
LONG_TRANSACTION
  2
AcDbLongTransaction
  3
AutoCAD 2000
 90
    32768
280
     0
281
     0
  0
CLASS
  1
LWPOLYLINE
  2
AcDbPolyline
  3
AutoCAD 2000
 90
    32768
280
     0
281
     1
  0
CLASS
  1
HATCH
  2
AcDbHatch
  3
AutoCAD 2000
 90
    32768
280
     0
281
     1
  0
CLASS
  1
XRECORD
  2
AcDbXrecord
  3
AutoCAD 2000
 90
    32768
280
     0
281
     0
  0
CLASS
  1
LONG_TRANSACTION
  2
AcDbLongTransaction
  3
AutoCAD 2000
 90
    32768
280
     0
281
     0
  0
CLASS
  1
LWPOLYLINE
  2
AcDbPolyline
  3
AutoCAD 2000
 90
    32768
280
     0
281
     1
  0
CLASS
  1
HATCH
  2
AcDbHatch
  3
AutoCAD 2000
 90
    32768
280
     0
281
     1
  0
CLASS
  1
XRECORD
  2
AcDbXrecord
  3
AutoCAD 2000
 90
    32768
280
     0
281
     0
  0
CLASS
  1
LONG_TRANSACTION
  2
AcDbLongTransaction
  3
AutoCAD 2000
 90
    32768
280
     0
281
     0
  0
CLASS
  1
LWPOLYLINE
  2
AcDbPolyline
  3
AutoCAD 2000
 90
    32768
280
     0
281
     1
  0
CLASS
  1
HATCH
  2
AcDbHatch
  3
AutoCAD 2000
 90
    32768
280
     0
281
     1
  0
CLASS
  1
XRECORD
  2
AcDbXrecord
  3
AutoCAD 2000
 90
    32768
280
     0
281
     0
  0
CLASS
  1
LONG_TRANSACTION
  2
AcDbLongTransaction
  3
AutoCAD 2000
 90
    32768
280
     0
281
     0
  0
CLASS
  1
LWPOLYLINE
  2
AcDbPolyline
  3
AutoCAD 2000
 90
    32768
280
     0
281
     1
  0
CLASS
  1
HATCH
  2
AcDbHatch
  3
AutoCAD 2000
 90
    32768
280
     0
281
     1
  0
CLASS
  1
XRECORD
  2
AcDbXrecord
  3
AutoCAD 2000
 90
    32768
280
     0
281
     0
  0
CLASS
  1
LONG_TRANSACTION
  2
AcDbLongTransaction
  3
AutoCAD 2000
 90
    32768
280
     0
281
     0
  0
CLASS
  1
LWPOLYLINE
  2
AcDbPolyline
  3
AutoCAD 2000
 90
    32768
280
     0
281
     1
  0
CLASS
  1
HATCH
  2
AcDbHatch
  3
AutoCAD 2000
 90
    32768
280
     0
281
     1
  0
CLASS
  1
XRECORD
  2
AcDbXrecord
  3
AutoCAD 2000
 90
    32768
280
     0
281
     0
  0
CLASS
  1
LONG_TRANSACTION
  2
AcDbLongTransaction
  3
AutoCAD 2000
 90
    32768
280
     0
281
     0
  0
CLASS
  1
LWPOLYLINE
  2
AcDbPolyline
  3
AutoCAD 2000
 90
    32768
280
     0
281
     1
  0
CLASS
  1
HATCH
  2
AcDbHatch
  3
AutoCAD 2000
 90
    32768
280
     0
281
     1
  0
CLASS
  1
XRECORD
  2
AcDbXrecord
  3
AutoCAD 2000
 90
    32768
280
     0
281
     0
  0
ENDSEC
  0
SECTION
  2
TABLES
  0
TABLE
  2
VPORT
  5
8
330
0
100
AcDbSymbolTable
 70
     4
  0
VPORT
  5
2729
330
8
100
AcDbSymbolTableRecord
100
AcDbViewportTableRecord
  2
*Active
 70
     0
 10
0.0
 20
0.0
 11
1.0
 21
1.0
 12
1618.221347458829
 22
1005.011088819921
 13
0.0
 23
0.0
 14
10.0
 24
10.0
 15
10.0
 25
10.0
 16
0.0
 26
0.0
 36
1.0
 17
0.0
 27
0.0
 37
0.0
 40
1212.026701317686
 41
1.527918781725888
 42
50.0
 43
0.0
 44
0.0
 50
0.0
 51
0.0
 71
     0
 72
   100
 73
     1
 74
     3
 75
     0
 76
     0
 77
     0
 78
     0
281
     0
 65
     1
110
0.0
120
0.0
130
0.0
111
1.0
121
0.0
131
0.0
112
0.0
122
1.0
132
0.0
 79
     0
146
0.0
  0
ENDTAB
  0
TABLE
  2
LTYPE
  5
5
330
0
100
AcDbSymbolTable
 70
     3
  0
LTYPE
  5
14
330
5
100
AcDbSymbolTableRecord
100
AcDbLinetypeTableRecord
  2
BYBLOCK
 70
     0
  3

 72
    65
 73
     0
 40
0.0
  0
LTYPE
  5
15
330
5
100
AcDbSymbolTableRecord
100
AcDbLinetypeTableRecord
  2
BYLAYER
 70
     0
  3

 72
    65
 73
     0
 40
0.0
  0
LTYPE
  5
16
330
5
100
AcDbSymbolTableRecord
100
AcDbLinetypeTableRecord
  2
CONTINUOUS
 70
     0
  3
Solid line
 72
    65
 73
     0
 40
0.0
  0
LTYPE
  5
35
330
5
100
AcDbSymbolTableRecord
100
AcDbLinetypeTableRecord
  2
PHANTOMX2
 70
     0
  3
Phantom (2x) ____________    ____    ____   _
 72
    65
 73
     6
 40
127.0
 49
63.5
 74
     0
 49
-12.7
 74
     0
 49
12.7
 74
     0
 49
-12.7
 74
     0
 49
12.7
 74
     0
 49
-12.7
 74
     0
  0
LTYPE
  5
26D3
330
5
100
AcDbSymbolTableRecord
100
AcDbLinetypeTableRecord
  2
CENTERX2
 70
     0
  3
Center (2x) ________  __  ________  __  _____
 72
    65
 73
     4
 40
4.0
 49
2.5
 74
     0
 49
-0.5
 74
     0
 49
0.5
 74
     0
 49
-0.5
 74
     0
  0
ENDTAB
  0
TABLE
  2
LAYER
  5
2
330
0
100
AcDbSymbolTable
 70
     7
  0
LAYER
  5
10
330
2
100
AcDbSymbolTableRecord
100
AcDbLayerTableRecord
  2
0
 70
     0
 62
     7
  6
CONTINUOUS
370
    -3
390
48
  0
LAYER
  5
2D
330
2
100
AcDbSymbolTableRecord
100
AcDbLayerTableRecord
  2
10
 70
     0
 62
     4
  6
CONTINUOUS
370
    -3
390
48
  0
LAYER
  5
2F
330
2
100
AcDbSymbolTableRecord
100
AcDbLayerTableRecord
  2
12
 70
     0
 62
     3
  6
CONTINUOUS
370
    -3
390
48
  0
LAYER
  5
33
330
2
100
AcDbSymbolTableRecord
100
AcDbLayerTableRecord
  2
18
 70
     0
 62
     1
  6
PHANTOMX2
370
    -3
390
48
  0
LAYER
  5
34
330
2
100
AcDbSymbolTableRecord
100
AcDbLayerTableRecord
  2
19
 70
     0
 62
     7
  6
CONTINUOUS
370
    -3
390
48
  0
LAYER
  5
1C23
330
2
100
AcDbSymbolTableRecord
100
AcDbLayerTableRecord
  2
DEFPOINTS
 70
     0
 62
     7
  6
CONTINUOUS
290
     0
370
    -3
390
48
  0
LAYER
  5
26D4
330
2
100
AcDbSymbolTableRecord
100
AcDbLayerTableRecord
  2
16
 70
     0
 62
     4
  6
CENTERX2
370
    -3
390
48
  0
ENDTAB
  0
TABLE
  2
STYLE
  5
3
330
0
100
AcDbSymbolTable
 70
     3
  0
STYLE
  5
11
330
3
100
AcDbSymbolTableRecord
100
AcDbTextStyleTableRecord
  2
STANDARD
 70
     0
 40
0.0
 41
1.0
 50
0.0
 71
     0
 42
2.5
  3
txt
  4

  0
STYLE
  5
56
330
3
100
AcDbSymbolTableRecord
100
AcDbTextStyleTableRecord
  2
STANDARD1
 70
     0
 40
0.0
 41
0.7
 50
0.0
 71
     0
 42
4.0
  3
romans.shx
  4
extfont.shx
  0
STYLE
  5
26D2
330
3
100
AcDbSymbolTableRecord
100
AcDbTextStyleTableRecord
  2

 70
     1
 40
0.0
 41
1.0
 50
0.0
 71
     0
 42
2.5
  3
ltypeshp.shx
  4

  0
ENDTAB
  0
TABLE
  2
VIEW
  5
6
330
0
100
AcDbSymbolTable
 70
     0
  0
ENDTAB
  0
TABLE
  2
UCS
  5
7
330
0
100
AcDbSymbolTable
 70
     0
  0
ENDTAB
  0
TABLE
  2
APPID
  5
9
330
0
100
AcDbSymbolTable
 70
     1
  0
APPID
  5
12
330
9
100
AcDbSymbolTableRecord
100
AcDbRegAppTableRecord
  2
ACAD
 70
     0
  0
ENDTAB
  0
TABLE
  2
DIMSTYLE
  5
A
330
0
100
AcDbSymbolTable
 70
     2
100
AcDbDimStyleTable
 71
     1
340
27
  0
DIMSTYLE
105
27
330
A
100
AcDbSymbolTableRecord
100
AcDbDimStyleTableRecord
  2
ISO-25
 70
     0
 41
2.5
 42
0.625
 43
3.75
 44
1.25
 73
     0
 74
     0
 77
     1
 78
     8
140
2.5
141
2.5
143
0.03937007874016
147
0.625
171
     3
172
     1
271
     1
272
     1
274
     3
283
     0
284
     8
340
11
  0
DIMSTYLE
105
1C24
330
A
100
AcDbSymbolTableRecord
100
AcDbDimStyleTableRecord
  2
STANDARD
 70
     0
340
11
  0
ENDTAB
  0
TABLE
  2
BLOCK_RECORD
  5
1
330
0
100
AcDbSymbolTable
 70
     0
  0
BLOCK_RECORD
  5
1F
102
{ACAD_XDICTIONARY
360
41
102
}
330
1
100
AcDbSymbolTableRecord
100
AcDbBlockTableRecord
  2
*MODEL_SPACE
340
49
  0
BLOCK_RECORD
  5
1B
102
{ACAD_XDICTIONARY
360
3F
102
}
330
1
100
AcDbSymbolTableRecord
100
AcDbBlockTableRecord
  2
*PAPER_SPACE
340
4A
  0
ENDTAB
  0
ENDSEC
  0
SECTION
  2
BLOCKS
  0
BLOCK
  5
20
330
1F
100
AcDbEntity
  8
0
100
AcDbBlockBegin
  2
*MODEL_SPACE
 70
     0
 10
0.0
 20
0.0
 30
0.0
  3
*MODEL_SPACE
  1

  0
ENDBLK
  5
21
330
1F
100
AcDbEntity
  8
0
100
AcDbBlockEnd
  0
BLOCK
  5
1C
330
1B
100
AcDbEntity
 67
     1
  8
0
100
AcDbBlockBegin
  2
*PAPER_SPACE
 70
     0
 10
0.0
 20
0.0
 30
0.0
  3
*PAPER_SPACE
  1

  0
ENDBLK
  5
1D
330
1B
100
AcDbEntity
 67
     1
  8
0
100
AcDbBlockEnd
  0
ENDSEC
  0
SECTION
  2
ENTITIES
  0
LINE
  5
205F
330
1F
100
AcDbEntity
  8
10
100
AcDbLine
 10
1397.512661856534
 20
1237.545302510166
 30
0.0
 11
1397.512661856534
 21
955.1190149885657
 31
0.0
  0
LINE
  5
2060
330
1F
100
AcDbEntity
  8
10
100
AcDbLine
 10
1247.512661856533
 20
864.5453025101742
 30
0.0
 11
1247.512661856533
 21
1240.545302510167
 31
0.0
  0
LINE
  5
2061
330
1F
100
AcDbEntity
  8
10
100
AcDbLine
 10
1397.512661856534
 20
864.5453025101742
 30
0.0
 11
1397.512661856534
 21
1240.545302510167
 31
0.0
  0
LINE
  5
2062
330
1F
100
AcDbEntity
  8
10
100
AcDbLine
 10
1247.512661856533
 20
867.5453025101671
 30
0.0
 11
1247.512661856533
 21
1237.545302510166
 31
0.0
  0
LINE
  5
2063
330
1F
100
AcDbEntity
  8
10
100
AcDbLine
 10
1397.512661856534
 20
1237.545302510166
 30
0.0
 11
1397.512661856534
 21
867.5453025101671
 31
0.0
  0
LINE
  5
2066
330
1F
100
AcDbEntity
  8
10
100
AcDbLine
 10
1317.512661856534
 20
1147.545302510174
 30
0.0
 11
1317.512661856534
 21
1227.545302510174
 31
0.0
  0
LINE
  5
2067
330
1F
100
AcDbEntity
  8
10
100
AcDbLine
 10
1377.512661856534
 20
1147.545302510174
 30
0.0
 11
1377.512661856534
 21
1227.545302510174
 31
0.0
  0
LINE
  5
2068
330
1F
100
AcDbEntity
  8
12
 48
3.0
100
AcDbLine
 10
1292.512661856535
 20
1225.545302510174
 30
0.0
 11
1292.512661856534
 21
1239.545302510174
 31
0.0
  0
LINE
  5
2069
330
1F
100
AcDbEntity
  8
12
 48
3.0
100
AcDbLine
 10
1352.512661856533
 20
1225.545302510174
 30
0.0
 11
1352.512661856533
 21
1239.545302510174
 31
0.0
  0
LINE
  5
206A
330
1F
100
AcDbEntity
  8
10
100
AcDbLine
 10
1247.512661856533
 20
1155.905302510173
 30
0.0
 11
1317.512661856534
 21
1155.905302510173
 31
0.0
  0
LINE
  5
206B
330
1F
100
AcDbEntity
  8
10
100
AcDbLine
 10
1247.512661856533
 20
1162.905302510173
 30
0.0
 11
1317.512661856534
 21
1162.905302510173
 31
0.0
  0
LINE
  5
206C
330
1F
100
AcDbEntity
  8
10
100
AcDbLine
 10
1249.512661856533
 20
862.5453025101743
 30
0.0
 11
1268.639678510327
 21
862.5453025101743
 31
0.0
  0
LINE
  5
206D
330
1F
100
AcDbEntity
  8
10
100
AcDbLine
 10
1397.512661856534
 20
877.5453025101668
 30
0.0
 11
1247.512661856533
 21
877.5453025101668
 31
0.0
  0
LINE
  5
206E
330
1F
100
AcDbEntity
  8
10
100
AcDbLine
 10
1249.242661856533
 20
877.5453025101668
 30
0.0
 11
1250.512661856534
 21
867.5453025101671
 31
0.0
  0
LINE
  5
206F
330
1F
100
AcDbEntity
  8
10
100
AcDbLine
 10
1247.512661856533
 20
867.5453025101671
 30
0.0
 11
1260.512661856534
 21
867.5453025101671
 31
0.0
  0
LINE
  5
2070
330
1F
100
AcDbEntity
  8
10
100
AcDbLine
 10
1397.512661856534
 20
1032.41892074002
 30
0.0
 11
1247.512661856533
 21
1032.41892074002
 31
0.0
  0
LINE
  5
2072
330
1F
100
AcDbEntity
  8
10
100
AcDbLine
 10
1249.012661856534
 20
863.0453025101742
 30
0.0
 11
1249.012661856534
 21
867.5453025101671
 31
0.0
  0
LINE
  5
2073
330
1F
100
AcDbEntity
  8
10
100
AcDbLine
 10
1247.512661856533
 20
864.5453025101742
 30
0.0
 11
1249.512661856533
 21
862.5453025101743
 31
0.0
  0
LINE
  5
2074
330
1F
100
AcDbEntity
  8
10
 48
3.0
100
AcDbLine
 10
1339.512661856534
 20
1024.045302510167
 30
0.0
 11
1339.512661856534
 21
974.045302510167
 31
0.0
  0
LINE
  5
2075
330
1F
100
AcDbEntity
  8
10
 48
3.0
100
AcDbLine
 10
1371.512661856534
 20
1024.045302510167
 30
0.0
 11
1371.512661856534
 21
974.045302510167
 31
0.0
  0
LINE
  5
2076
330
1F
100
AcDbEntity
  8
10
100
AcDbLine
 10
1295.512661856534
 20
862.5453025101743
 30
0.0
 11
1349.512661856533
 21
862.5453025101743
 31
0.0
  0
TEXT
  5
2077
330
1F
100
AcDbEntity
  8
10
 48
3.0
100
AcDbText
 10
1323.655524679163
 20
888.5453033222331
 30
0.0
 40
9.142857279096331
  1
ＴＢ１
 50
0.0000025044784726
 41
0.7031250019402551
  7
STANDARD1
100
AcDbText
  0
LINE
  5
2078
330
1F
100
AcDbEntity
  8
10
 48
3.0
100
AcDbLine
 10
1282.012661856533
 20
886.0453025101669
 30
0.0
 11
1363.012661856534
 21
886.0453025101669
 31
0.0
  0
LINE
  5
2079
330
1F
100
AcDbEntity
  8
10
 48
3.0
100
AcDbLine
 10
1282.012661856533
 20
924.045302510167
 30
0.0
 11
1363.012661856534
 21
924.045302510167
 31
0.0
  0
LINE
  5
207A
330
1F
100
AcDbEntity
  8
12
 48
3.0
100
AcDbLine
 10
1285.512661856534
 20
872.5453025101742
 30
0.0
 11
1359.512661856534
 21
872.5453025101742
 31
0.0
  0
LINE
  5
207B
330
1F
100
AcDbEntity
  8
10
 48
3.0
100
AcDbLine
 10
1282.012661856533
 20
886.0453025101669
 30
0.0
 11
1282.012661856533
 21
924.045302510167
 31
0.0
  0
ARC
  5
207C
330
1F
100
AcDbEntity
  8
12
100
AcDbCircle
 10
1292.512661856534
 20
872.5453025101742
 30
0.0
 40
2.999999999999991
100
AcDbArc
 50
0.0
 51
180.0
  0
LINE
  5
207D
330
1F
100
AcDbEntity
  8
12
100
AcDbLine
 10
1289.512661856534
 20
872.5453025101742
 30
0.0
 11
1289.512661856534
 21
862.5453025101743
 31
0.0
  0
CIRCLE
  5
207F
330
1F
100
AcDbEntity
  8
10
100
AcDbCircle
 10
1272.512661856533
 20
869.5453025101741
 30
0.0
 40
7.999999999999992
  0
LINE
  5
2080
330
1F
100
AcDbEntity
  8
10
100
AcDbLine
 10
1269.684234731788
 20
872.3737296349202
 30
0.0
 11
1275.341088981281
 21
866.7168753854284
 31
0.0
  0
LINE
  5
2081
330
1F
100
AcDbEntity
  8
10
100
AcDbLine
 10
1279.007852384918
 20
873.2953025101743
 30
0.0
 11
1279.007852384918
 21
865.7953025101742
 31
0.0
  0
LINE
  5
2082
330
1F
100
AcDbEntity
  8
10
100
AcDbLine
 10
1266.017471328151
 20
873.2953025101743
 30
0.0
 11
1266.017471328151
 21
865.7953025101742
 31
0.0
  0
LINE
  5
2083
330
1F
100
AcDbEntity
  8
10
100
AcDbLine
 10
1275.341088981281
 20
872.3737296349202
 30
0.0
 11
1269.684234731788
 21
866.716875385428
 31
0.0
  0
LINE
  5
2084
330
1F
100
AcDbEntity
  8
10
100
AcDbLine
 10
1250.512661856534
 20
877.5453025101668
 30
0.0
 11
1250.512661856534
 21
867.5453025101671
 31
0.0
  0
LINE
  5
2085
330
1F
100
AcDbEntity
  8
10
100
AcDbLine
 10
1260.512661856534
 20
877.5453025101668
 30
0.0
 11
1260.512661856534
 21
867.5453025101671
 31
0.0
  0
LINE
  5
2086
330
1F
100
AcDbEntity
  8
10
100
AcDbLine
 10
1272.512661856535
 20
862.0453025101744
 30
0.0
 11
1266.017471328151
 21
865.7953025101742
 31
0.0
  0
LINE
  5
2087
330
1F
100
AcDbEntity
  8
10
100
AcDbLine
 10
1276.385645202742
 20
862.5453025101743
 30
0.0
 11
1289.512661856534
 21
862.5453025101743
 31
0.0
  0
LINE
  5
2088
330
1F
100
AcDbEntity
  8
10
100
AcDbLine
 10
1272.512661856535
 20
862.0453025101744
 30
0.0
 11
1279.007852384918
 21
865.7953025101742
 31
0.0
  0
LINE
  5
2089
330
1F
100
AcDbEntity
  8
10
100
AcDbLine
 10
1266.017471328151
 20
873.2953025101743
 30
0.0
 11
1272.512661856533
 21
877.0453025101742
 31
0.0
  0
LINE
  5
208A
330
1F
100
AcDbEntity
  8
10
100
AcDbLine
 10
1279.007852384918
 20
873.2953025101743
 30
0.0
 11
1272.512661856533
 21
877.0453025101742
 31
0.0
  0
LINE
  5
208B
330
1F
100
AcDbEntity
  8
12
100
AcDbLine
 10
1295.512661856534
 20
872.5453025101742
 30
0.0
 11
1295.512661856534
 21
862.5453025101743
 31
0.0
  0
LINE
  5
208C
330
1F
100
AcDbEntity
  8
12
 48
3.0
100
AcDbLine
 10
1292.512661856534
 20
879.5453025101743
 30
0.0
 11
1292.512661856535
 21
865.5453025101742
 31
0.0
  0
LINE
  5
208D
330
1F
100
AcDbEntity
  8
10
 48
3.0
100
AcDbLine
 10
1363.012661856534
 20
886.0453025101669
 30
0.0
 11
1363.012661856534
 21
924.045302510167
 31
0.0
  0
LINE
  5
208E
330
1F
100
AcDbEntity
  8
10
100
AcDbLine
 10
1369.684234731788
 20
872.3737296349202
 30
0.0
 11
1375.341088981281
 21
866.716875385428
 31
0.0
  0
LINE
  5
208F
330
1F
100
AcDbEntity
  8
10
100
AcDbLine
 10
1375.34108898128
 20
872.3737296349202
 30
0.0
 11
1369.684234731788
 21
866.716875385428
 31
0.0
  0
LINE
  5
2090
330
1F
100
AcDbEntity
  8
10
100
AcDbLine
 10
1379.007852384916
 20
873.2953025101737
 30
0.0
 11
1372.512661856533
 21
877.0453025101737
 31
0.0
  0
LINE
  5
2091
330
1F
100
AcDbEntity
  8
10
100
AcDbLine
 10
1372.512661856535
 20
862.0453025101744
 30
0.0
 11
1379.007852384916
 21
865.7953025101738
 31
0.0
  0
CIRCLE
  5
2092
330
1F
100
AcDbEntity
  8
10
100
AcDbCircle
 10
1372.512661856533
 20
869.5453025101738
 30
0.0
 40
8.000000000000012
  0
LINE
  5
2094
330
1F
100
AcDbEntity
  8
12
100
AcDbLine
 10
1349.512661856533
 20
872.5453025101742
 30
0.0
 11
1349.512661856533
 21
862.5453025101743
 31
0.0
  0
LINE
  5
2095
330
1F
100
AcDbEntity
  8
12
100
AcDbLine
 10
1355.512661856534
 20
872.5453025101742
 30
0.0
 11
1355.512661856534
 21
862.5453025101743
 31
0.0
  0
LINE
  5
2096
330
1F
100
AcDbEntity
  8
10
100
AcDbLine
 10
1366.01747132815
 20
873.2953025101743
 30
0.0
 11
1366.01747132815
 21
865.7953025101742
 31
0.0
  0
LINE
  5
2097
330
1F
100
AcDbEntity
  8
12
 48
3.0
100
AcDbLine
 10
1352.512661856533
 20
879.5453025101743
 30
0.0
 11
1352.512661856533
 21
865.5453025101742
 31
0.0
  0
LINE
  5
2098
330
1F
100
AcDbEntity
  8
10
100
AcDbLine
 10
1355.512661856534
 20
862.5453025101743
 30
0.0
 11
1368.639678510326
 21
862.5453025101743
 31
0.0
  0
LINE
  5
2099
330
1F
100
AcDbEntity
  8
10
100
AcDbLine
 10
1372.512661856535
 20
862.0453025101744
 30
0.0
 11
1366.01747132815
 21
865.7953025101742
 31
0.0
  0
ARC
  5
209A
330
1F
100
AcDbEntity
  8
12
100
AcDbCircle
 10
1352.512661856533
 20
872.5453025101742
 30
0.0
 40
3.000000000000011
100
AcDbArc
 50
0.0
 51
180.0
  0
LINE
  5
209B
330
1F
100
AcDbEntity
  8
10
100
AcDbLine
 10
1366.01747132815
 20
873.2953025101743
 30
0.0
 11
1372.512661856533
 21
877.0453025101737
 31
0.0
  0
LINE
  5
209D
330
1F
100
AcDbEntity
  8
10
100
AcDbLine
 10
1379.007852384916
 20
873.2953025101737
 30
0.0
 11
1379.007852384916
 21
865.7953025101738
 31
0.0
  0
LINE
  5
209E
330
1F
100
AcDbEntity
  8
10
100
AcDbLine
 10
1395.782661856534
 20
877.5453025101668
 30
0.0
 11
1394.512661856534
 21
867.5453025101671
 31
0.0
  0
LINE
  5
209F
330
1F
100
AcDbEntity
  8
10
100
AcDbLine
 10
1394.512661856534
 20
877.5453025101668
 30
0.0
 11
1394.512661856534
 21
867.5453025101671
 31
0.0
  0
LINE
  5
20A0
330
1F
100
AcDbEntity
  8
10
100
AcDbLine
 10
1384.512661856534
 20
877.5453025101668
 30
0.0
 11
1384.512661856534
 21
867.5453025101671
 31
0.0
  0
LINE
  5
20A1
330
1F
100
AcDbEntity
  8
10
100
AcDbLine
 10
1376.385645202741
 20
862.5453025101743
 30
0.0
 11
1395.512661856534
 21
862.5453025101743
 31
0.0
  0
LINE
  5
20A2
330
1F
100
AcDbEntity
  8
10
100
AcDbLine
 10
1384.512661856534
 20
867.5453025101671
 30
0.0
 11
1397.512661856534
 21
867.5453025101671
 31
0.0
  0
LINE
  5
20A3
330
1F
100
AcDbEntity
  8
10
100
AcDbLine
 10
1396.012661856534
 20
863.0453025101742
 30
0.0
 11
1396.012661856534
 21
867.5453025101671
 31
0.0
  0
LINE
  5
20A4
330
1F
100
AcDbEntity
  8
10
100
AcDbLine
 10
1397.512661856534
 20
864.5453025101742
 30
0.0
 11
1395.512661856534
 21
862.5453025101743
 31
0.0
  0
TEXT
  5
20A5
330
1F
100
AcDbEntity
  8
10
 48
3.0
100
AcDbText
 10
1351.241248556116
 20
938.8952960743083
 30
0.0
 40
8.22857175554548
  1
ＴＢ２
 50
0.0000025044784726
 41
0.7031249913766429
  7
STANDARD1
100
AcDbText
  0
LINE
  5
20A6
330
1F
100
AcDbEntity
  8
10
 48
3.0
100
AcDbLine
 10
1350.512661856534
 20
972.695302510167
 30
0.0
 11
1371.512661856534
 21
972.695302510167
 31
0.0
  0
LINE
  5
20A7
330
1F
100
AcDbEntity
  8
10
 48
3.0
100
AcDbLine
 10
1350.512661856534
 20
936.395302510167
 30
0.0
 11
1371.512661856534
 21
936.395302510167
 31
0.0
  0
LINE
  5
20A8
330
1F
100
AcDbEntity
  8
10
 48
3.0
100
AcDbLine
 10
1350.512661856534
 20
936.395302510167
 30
0.0
 11
1350.512661856534
 21
972.695302510167
 31
0.0
  0
LINE
  5
20A9
330
1F
100
AcDbEntity
  8
10
 48
3.0
100
AcDbLine
 10
1371.512661856534
 20
936.395302510167
 30
0.0
 11
1371.512661856534
 21
972.695302510167
 31
0.0
  0
TEXT
  5
20AA
330
1F
100
AcDbEntity
  8
10
 48
3.0
100
AcDbText
 10
1344.655524679163
 20
976.5453052295816
 30
0.0
 40
9.142857279096331
  1
ＴＢ３
 50
0.0000025044784726
 41
0.7031250019402551
  7
STANDARD1
100
AcDbText
  0
LINE
  5
20AB
330
1F
100
AcDbEntity
  8
10
 48
3.0
100
AcDbLine
 10
1371.512661856534
 20
974.045302510167
 30
0.0
 11
1339.512661856534
 21
974.045302510167
 31
0.0
  0
LINE
  5
20AC
330
1F
100
AcDbEntity
  8
10
100
AcDbLine
 10
1328.512661856533
 20
1150.905302510173
 30
0.0
 11
1366.512661856533
 21
1150.905302510173
 31
0.0
  0
LINE
  5
20AD
330
1F
100
AcDbEntity
  8
10
100
AcDbLine
 10
1328.512661856533
 20
1144.405302510173
 30
0.0
 11
1366.512661856533
 21
1144.405302510173
 31
0.0
  0
LINE
  5
20AE
330
1F
100
AcDbEntity
  8
10
 48
3.0
100
AcDbLine
 10
1327.112661856534
 20
1136.405302510173
 30
0.0
 11
1335.112661856534
 21
1136.405302510173
 31
0.0
  0
LINE
  5
20AF
330
1F
100
AcDbEntity
  8
10
 48
3.0
100
AcDbLine
 10
1327.112661856534
 20
1081.405302510173
 30
0.0
 11
1335.112661856534
 21
1081.405302510173
 31
0.0
  0
LINE
  5
20B0
330
1F
100
AcDbEntity
  8
10
100
AcDbLine
 10
1322.512661856533
 20
1157.405302510173
 30
0.0
 11
1341.312661856534
 21
1157.405302510173
 31
0.0
  0
LINE
  5
20B1
330
1F
100
AcDbEntity
  8
10
100
AcDbLine
 10
1321.712661856534
 20
1159.405302510174
 30
0.0
 11
1342.112661856534
 21
1159.405302510174
 31
0.0
  0
LINE
  5
20B2
330
1F
100
AcDbEntity
  8
10
100
AcDbLine
 10
1318.403594104346
 20
1139.905302510173
 30
0.0
 11
1377.012661856534
 21
1139.905302510173
 31
0.0
  0
LINE
  5
20B3
330
1F
100
AcDbEntity
  8
10
100
AcDbLine
 10
1318.403594104346
 20
1077.905302510173
 30
0.0
 11
1361.012661856533
 21
1077.905302510173
 31
0.0
  0
LINE
  5
20B4
330
1F
100
AcDbEntity
  8
10
100
AcDbLine
 10
1318.012661856533
 20
1155.905302510173
 30
0.0
 11
1377.012661856534
 21
1155.905302510173
 31
0.0
  0
LINE
  5
20B5
330
1F
100
AcDbEntity
  8
10
100
AcDbLine
 10
1317.512661856534
 20
1072.405302510173
 30
0.0
 11
1377.512661856534
 21
1072.405302510173
 31
0.0
  0
LINE
  5
20B6
330
1F
100
AcDbEntity
  8
10
100
AcDbLine
 10
1318.512661856534
 20
1186.905302510173
 30
0.0
 11
1376.512661856534
 21
1186.905302510173
 31
0.0
  0
LINE
  5
20B7
330
1F
100
AcDbEntity
  8
10
100
AcDbLine
 10
1322.912661856534
 20
1159.405302510174
 30
0.0
 11
1340.912661856534
 21
1159.405302510174
 31
0.0
  0
LINE
  5
20B8
330
1F
100
AcDbEntity
  8
10
100
AcDbLine
 10
1326.912661856534
 20
1186.090891745996
 30
0.0
 11
1336.912661856534
 21
1186.090891745996
 31
0.0
  0
LINE
  5
20B9
330
1F
100
AcDbEntity
  8
10
100
AcDbLine
 10
1327.412661856534
 20
1186.617059724117
 30
0.0
 11
1336.412661856534
 21
1186.617059724117
 31
0.0
  0
LINE
  5
20BA
330
1F
100
AcDbEntity
  8
10
100
AcDbLine
 10
1327.412661856534
 20
1186.721875282682
 30
0.0
 11
1336.412661856534
 21
1186.721875282682
 31
0.0
  0
LINE
  5
20BB
330
1F
100
AcDbEntity
  8
10
100
AcDbLine
 10
1327.412661856534
 20
1186.826690841248
 30
0.0
 11
1336.412661856534
 21
1186.826690841248
 31
0.0
  0
LINE
  5
20BC
330
1F
100
AcDbEntity
  8
10
100
AcDbLine
 10
1322.612661856534
 20
1173.970257577986
 30
0.0
 11
1341.212661856534
 21
1173.970257577986
 31
0.0
  0
LINE
  5
20BD
330
1F
100
AcDbEntity
  8
10
100
AcDbLine
 10
1322.612661856534
 20
1161.405302510174
 30
0.0
 11
1341.212661856534
 21
1161.405302510174
 31
0.0
  0
LINE
  5
20BE
330
1F
100
AcDbEntity
  8
10
100
AcDbLine
 10
1319.312661856534
 20
1078.005302510174
 30
0.0
 11
1349.312661856534
 21
1078.005302510174
 31
0.0
  0
LINE
  5
20BF
330
1F
100
AcDbEntity
  8
10
100
AcDbLine
 10
1319.312661856534
 20
1139.805302510173
 30
0.0
 11
1349.312661856534
 21
1139.805302510173
 31
0.0
  0
LINE
  5
20C0
330
1F
100
AcDbEntity
  8
10
 48
3.0
100
AcDbLine
 10
1339.532661856533
 20
1178.945302510173
 30
0.0
 11
1324.292661856533
 21
1178.945302510173
 31
0.0
  0
LINE
  5
20C1
330
1F
100
AcDbEntity
  8
10
 48
3.0
100
AcDbLine
 10
1339.532661856533
 20
1163.865302510173
 30
0.0
 11
1324.292661856533
 21
1163.865302510173
 31
0.0
  0
ARC
  5
20C2
330
1F
100
AcDbEntity
  8
10
100
AcDbCircle
 10
1334.512661856534
 20
1200.045302510174
 30
0.0
 40
7.000000000000007
100
AcDbArc
 50
90.0
 51
180.0
  0
LINE
  5
20C3
330
1F
100
AcDbEntity
  8
10
 48
3.0
100
AcDbLine
 10
1327.112661856534
 20
1136.405302510173
 30
0.0
 11
1327.112661856534
 21
1081.405302510173
 31
0.0
  0
LINE
  5
20C4
330
1F
100
AcDbEntity
  8
10
100
AcDbLine
 10
1317.512661856534
 20
1185.905302510174
 30
0.0
 11
1317.512661856534
 21
1072.405302510173
 31
0.0
  0
LINE
  5
20C5
330
1F
100
AcDbEntity
  8
10
100
AcDbLine
 10
1324.312661856534
 20
1078.005302510174
 30
0.0
 11
1324.312661856534
 21
1139.805302510173
 31
0.0
  0
LINE
  5
20C6
330
1F
100
AcDbEntity
  8
10
100
AcDbLine
 10
1326.910738067887
 20
1078.005302510174
 30
0.0
 11
1326.910738067887
 21
1139.805302510173
 31
0.0
  0
LINE
  5
20C7
330
1F
100
AcDbEntity
  8
10
100
AcDbLine
 10
1318.403594104346
 20
1080.405302510173
 30
0.0
 11
1324.312661856534
 21
1080.405302510173
 31
0.0
  0
LINE
  5
20C8
330
1F
100
AcDbEntity
  8
10
100
AcDbLine
 10
1324.312661856534
 20
1080.005302510174
 30
0.0
 11
1319.312661856534
 21
1080.005302510174
 31
0.0
  0
LINE
  5
20C9
330
1F
100
AcDbEntity
  8
10
100
AcDbLine
 10
1319.712661856534
 20
1080.005302510174
 30
0.0
 11
1319.712661856534
 21
1080.405302510173
 31
0.0
  0
LINE
  5
20CA
330
1F
100
AcDbEntity
  8
10
100
AcDbLine
 10
1320.712661856534
 20
1080.005302510174
 30
0.0
 11
1320.712661856534
 21
1080.405302510173
 31
0.0
  0
LINE
  5
20CB
330
1F
100
AcDbEntity
  8
10
100
AcDbLine
 10
1321.912661856534
 20
1080.005302510174
 30
0.0
 11
1321.912661856534
 21
1080.405302510173
 31
0.0
  0
LINE
  5
20CC
330
1F
100
AcDbEntity
  8
10
100
AcDbLine
 10
1319.712661856534
 20
1077.905302510173
 30
0.0
 11
1319.712661856534
 21
1078.005302510174
 31
0.0
  0
LINE
  5
20CD
330
1F
100
AcDbEntity
  8
10
100
AcDbLine
 10
1321.912661856534
 20
1077.905302510173
 30
0.0
 11
1321.912661856534
 21
1078.005302510174
 31
0.0
  0
LINE
  5
20CE
330
1F
100
AcDbEntity
  8
10
100
AcDbLine
 10
1320.712661856534
 20
1077.905302510173
 30
0.0
 11
1320.712661856534
 21
1078.005302510174
 31
0.0
  0
LINE
  5
20CF
330
1F
100
AcDbEntity
  8
10
100
AcDbLine
 10
1318.403594104346
 20
1077.905302510173
 30
0.0
 11
1318.403594104346
 21
1080.405302510173
 31
0.0
  0
LINE
  5
20D0
330
1F
100
AcDbEntity
  8
10
100
AcDbLine
 10
1319.312661856534
 20
1078.005302510174
 30
0.0
 11
1319.312661856534
 21
1080.005302510174
 31
0.0
  0
LINE
  5
20D1
330
1F
100
AcDbEntity
  8
10
100
AcDbLine
 10
1323.112661856534
 20
1080.005302510174
 30
0.0
 11
1323.112661856534
 21
1080.405302510173
 31
0.0
  0
LINE
  5
20D2
330
1F
100
AcDbEntity
  8
10
100
AcDbLine
 10
1325.012661856534
 20
1078.005302510174
 30
0.0
 11
1325.012661856534
 21
1077.905302510173
 31
0.0
  0
LINE
  5
20D3
330
1F
100
AcDbEntity
  8
10
100
AcDbLine
 10
1323.112661856534
 20
1077.905302510173
 30
0.0
 11
1323.112661856534
 21
1078.005302510174
 31
0.0
  0
LINE
  5
20D4
330
1F
100
AcDbEntity
  8
10
100
AcDbLine
 10
1322.512661856533
 20
1186.250205269136
 30
0.0
 11
1322.512661856533
 21
1175.494000843549
 31
0.0
  0
LINE
  5
20D5
330
1F
100
AcDbEntity
  8
10
100
AcDbLine
 10
1322.512661856533
 20
1186.302613048419
 30
0.0
 11
1322.512661856533
 21
1157.405302510173
 31
0.0
  0
LINE
  5
20D6
330
1F
100
AcDbEntity
  8
10
100
AcDbLine
 10
1322.612661856534
 20
1186.105302510173
 30
0.0
 11
1322.612661856534
 21
1159.705302510173
 31
0.0
  0
LINE
  5
20D7
330
1F
100
AcDbEntity
  8
10
 48
3.0
100
AcDbLine
 10
1324.292661856533
 20
1178.945302510173
 30
0.0
 11
1324.292661856533
 21
1163.865302510173
 31
0.0
  0
ARC
  5
20D8
330
1F
100
AcDbEntity
  8
10
100
AcDbCircle
 10
1328.512661856533
 20
1149.905302510173
 30
0.0
 40
1.000000000000025
100
AcDbArc
 50
90.0
 51
180.0
  0
LINE
  5
20D9
330
1F
100
AcDbEntity
  8
10
100
AcDbLine
 10
1318.403594104346
 20
1137.405302510174
 30
0.0
 11
1324.312661856534
 21
1137.405302510174
 31
0.0
  0
LINE
  5
20DA
330
1F
100
AcDbEntity
  8
10
100
AcDbLine
 10
1324.312661856534
 20
1137.805302510174
 30
0.0
 11
1319.312661856534
 21
1137.805302510174
 31
0.0
  0
LINE
  5
20DB
330
1F
100
AcDbEntity
  8
10
100
AcDbLine
 10
1319.712661856534
 20
1139.805302510173
 30
0.0
 11
1319.712661856534
 21
1139.905302510173
 31
0.0
  0
LINE
  5
20DC
330
1F
100
AcDbEntity
  8
10
100
AcDbLine
 10
1320.712661856534
 20
1139.805302510173
 30
0.0
 11
1320.712661856534
 21
1139.905302510173
 31
0.0
  0
LINE
  5
20DD
330
1F
100
AcDbEntity
  8
10
100
AcDbLine
 10
1321.912661856534
 20
1139.805302510173
 30
0.0
 11
1321.912661856534
 21
1139.905302510173
 31
0.0
  0
LINE
  5
20DE
330
1F
100
AcDbEntity
  8
10
100
AcDbLine
 10
1319.712661856534
 20
1137.405302510174
 30
0.0
 11
1319.712661856534
 21
1137.805302510174
 31
0.0
  0
LINE
  5
20DF
330
1F
100
AcDbEntity
  8
10
100
AcDbLine
 10
1320.712661856534
 20
1137.405302510174
 30
0.0
 11
1320.712661856534
 21
1137.805302510174
 31
0.0
  0
LINE
  5
20E0
330
1F
100
AcDbEntity
  8
10
100
AcDbLine
 10
1321.912661856534
 20
1137.405302510174
 30
0.0
 11
1321.912661856534
 21
1137.805302510174
 31
0.0
  0
LINE
  5
20E1
330
1F
100
AcDbEntity
  8
10
100
AcDbLine
 10
1318.403594104346
 20
1137.405302510174
 30
0.0
 11
1318.403594104346
 21
1139.905302510173
 31
0.0
  0
LINE
  5
20E2
330
1F
100
AcDbEntity
  8
10
100
AcDbLine
 10
1319.312661856534
 20
1137.805302510174
 30
0.0
 11
1319.312661856534
 21
1139.805302510173
 31
0.0
  0
LINE
  5
20E3
330
1F
100
AcDbEntity
  8
10
100
AcDbLine
 10
1327.512661856534
 20
1145.405302510174
 30
0.0
 11
1327.512661856534
 21
1149.905302510173
 31
0.0
  0
ARC
  5
20E4
330
1F
100
AcDbEntity
  8
10
100
AcDbCircle
 10
1328.512661856533
 20
1145.405302510174
 30
0.0
 40
0.9999999999999827
100
AcDbArc
 50
180.0
 51
270.0
  0
LINE
  5
20E5
330
1F
100
AcDbEntity
  8
10
100
AcDbLine
 10
1323.112661856534
 20
1139.805302510173
 30
0.0
 11
1323.112661856534
 21
1139.905302510173
 31
0.0
  0
LINE
  5
20E6
330
1F
100
AcDbEntity
  8
10
100
AcDbLine
 10
1323.112661856534
 20
1137.405302510174
 30
0.0
 11
1323.112661856534
 21
1137.805302510174
 31
0.0
  0
LINE
  5
20E7
330
1F
100
AcDbEntity
  8
10
100
AcDbLine
 10
1325.012661856534
 20
1139.905302510173
 30
0.0
 11
1325.012661856534
 21
1139.805302510173
 31
0.0
  0
ARC
  5
20E8
330
1F
100
AcDbEntity
  8
10
100
AcDbCircle
 10
1321.712661856534
 20
1159.905302510173
 30
0.0
 40
0.4999999999999914
100
AcDbArc
 50
180.0
 51
270.0
  0
ARC
  5
20E9
330
1F
100
AcDbEntity
  8
10
100
AcDbCircle
 10
1320.712661856534
 20
1162.405302510173
 30
0.0
 40
0.4999999999999914
100
AcDbArc
 50
0.0
 51
90.0
  0
ARC
  5
20EA
330
1F
100
AcDbEntity
  8
10
100
AcDbCircle
 10
1318.012661856533
 20
1163.405302510174
 30
0.0
 40
0.4999999999999914
100
AcDbArc
 50
180.0
 51
270.0
  0
ARC
  5
20EB
330
1F
100
AcDbEntity
  8
10
100
AcDbCircle
 10
1318.012661856533
 20
1155.405302510174
 30
0.0
 40
0.4999999999999914
100
AcDbArc
 50
90.0
 51
180.0
  0
LINE
  5
20EC
330
1F
100
AcDbEntity
  8
10
100
AcDbLine
 10
1321.212661856534
 20
1162.405302510173
 30
0.0
 11
1321.212661856534
 21
1159.905302510173
 31
0.0
  0
LINE
  5
20ED
330
1F
100
AcDbEntity
  8
10
100
AcDbLine
 10
1318.012661856533
 20
1162.905302510173
 30
0.0
 11
1320.712661856534
 21
1162.905302510173
 31
0.0
  0
LINE
  5
20EE
330
1F
100
AcDbEntity
  8
10
100
AcDbLine
 10
1322.512661856533
 20
1162.005302510173
 30
0.0
 11
1322.612661856534
 21
1162.005302510173
 31
0.0
  0
LINE
  5
20EF
330
1F
100
AcDbEntity
  8
10
100
AcDbLine
 10
1322.512661856533
 20
1160.805302510173
 30
0.0
 11
1322.612661856534
 21
1160.805302510173
 31
0.0
  0
LINE
  5
20F0
330
1F
100
AcDbEntity
  8
10
100
AcDbLine
 10
1322.512661856533
 20
1164.405302510173
 30
0.0
 11
1322.612661856534
 21
1164.405302510173
 31
0.0
  0
LINE
  5
20F1
330
1F
100
AcDbEntity
  8
10
100
AcDbLine
 10
1322.512661856533
 20
1163.905302510173
 30
0.0
 11
1322.612661856534
 21
1163.905302510173
 31
0.0
  0
ARC
  5
20F2
330
1F
100
AcDbEntity
  8
10
100
AcDbCircle
 10
1322.912661856534
 20
1159.705302510173
 30
0.0
 40
0.3000000000000514
100
AcDbArc
 50
180.0
 51
270.0
  0
LINE
  5
20F3
330
1F
100
AcDbEntity
  8
10
100
AcDbLine
 10
1327.512661856534
 20
1190.545302510174
 30
0.0
 11
1317.512661856534
 21
1190.545302510174
 31
0.0
  0
ARC
  5
20F4
330
1F
100
AcDbEntity
  8
10
100
AcDbCircle
 10
1318.512661856534
 20
1185.905302510174
 30
0.0
 40
0.9999999999999827
100
AcDbArc
 50
90.0
 51
180.0
  0
LINE
  5
20F5
330
1F
100
AcDbEntity
  8
10
100
AcDbLine
 10
1322.512661856533
 20
1186.302613048419
 30
0.0
 11
1322.686678336123
 21
1186.302613048419
 31
0.0
  0
LINE
  5
20F6
330
1F
100
AcDbEntity
  8
10
100
AcDbLine
 10
1322.512661856533
 20
1184.102338579219
 30
0.0
 11
1322.612661856534
 21
1184.102338579219
 31
0.0
  0
ARC
  5
20F7
330
1F
100
AcDbEntity
  8
10
100
AcDbCircle
 10
1322.912661856534
 20
1186.105302510173
 30
0.0
 40
0.3000000000000514
100
AcDbArc
 50
90.0
 51
180.0
  0
ARC
  5
20F8
330
1F
100
AcDbEntity
  8
10
100
AcDbCircle
 10
1327.412661856534
 20
1186.117059724116
 30
0.0
 40
0.4999999999999914
100
AcDbArc
 50
90.0
 51
180.0
  0
ARC
  5
20F9
330
1F
100
AcDbEntity
  8
10
100
AcDbCircle
 10
1327.412661856534
 20
1186.221875282683
 30
0.0
 40
0.4999999999999914
100
AcDbArc
 50
90.0
 51
180.0
  0
LINE
  5
20FA
330
1F
100
AcDbEntity
  8
10
100
AcDbLine
 10
1326.912661856534
 20
1186.090891745996
 30
0.0
 11
1326.912661856534
 21
1186.326690841248
 31
0.0
  0
ARC
  5
20FB
330
1F
100
AcDbEntity
  8
10
100
AcDbCircle
 10
1327.412661856534
 20
1186.326690841248
 30
0.0
 40
0.4999999999999914
100
AcDbArc
 50
90.0
 51
180.0
  0
LINE
  5
20FC
330
1F
100
AcDbEntity
  8
10
100
AcDbLine
 10
1322.912661856534
 20
1186.405302510173
 30
0.0
 11
1326.918880320317
 21
1186.405302510173
 31
0.0
  0
LINE
  5
20FD
330
1F
100
AcDbEntity
  8
10
100
AcDbLine
 10
1327.512661856534
 20
1200.045302510174
 30
0.0
 11
1327.512661856534
 21
1190.545302510174
 31
0.0
  0
LINE
  5
20FE
330
1F
100
AcDbEntity
  8
10
 48
3.0
100
AcDbLine
 10
1335.112661856534
 20
1081.405302510173
 30
0.0
 11
1335.112661856534
 21
1136.405302510173
 31
0.0
  0
LINE
  5
20FF
330
1F
100
AcDbEntity
  8
10
100
AcDbLine
 10
1377.512661856534
 20
1185.905302510174
 30
0.0
 11
1377.512661856534
 21
1072.405302510173
 31
0.0
  0
LINE
  5
2100
330
1F
100
AcDbEntity
  8
10
100
AcDbLine
 10
1348.511477137402
 20
1097.40530599265
 30
0.0
 11
1348.511477137402
 21
1137.805302510174
 31
0.0
  0
LINE
  5
2101
330
1F
100
AcDbEntity
  8
10
100
AcDbLine
 10
1348.090792638713
 20
1097.40530599265
 30
0.0
 11
1348.090792638713
 21
1139.805302510173
 31
0.0
  0
LINE
  5
2102
330
1F
100
AcDbEntity
  8
10
100
AcDbLine
 10
1368.012661856534
 20
1077.905302510173
 30
0.0
 11
1377.012661856534
 21
1077.905302510173
 31
0.0
  0
ARC
  5
2103
330
1F
100
AcDbEntity
  8
10
100
AcDbCircle
 10
1364.512661856533
 20
1077.905302510173
 30
0.0
 40
3.999999999999996
100
AcDbArc
 50
180.0
 51
0.0
  0
LINE
  5
2104
330
1F
100
AcDbEntity
  8
10
 48
3.0
100
AcDbLine
 10
1371.512661856534
 20
1024.045302510167
 30
0.0
 11
1339.512661856534
 21
1024.045302510167
 31
0.0
  0
TEXT
  5
2105
330
1F
100
AcDbEntity
  8
10
100
AcDbText
 10
1336.112647481898
 20
1088.405298210537
 30
0.0
 40
7.999999863760812
  1
ＴＢ４
 50
0.0000025044784726
 41
0.5555555673818741
  7
STANDARD1
100
AcDbText
  0
ARC
  5
2106
330
1F
100
AcDbEntity
  8
10
100
AcDbCircle
 10
1349.877451618732
 20
1078.905302510173
 30
0.0
 40
0.5000000000000116
100
AcDbArc
 50
0.0
 51
90.0
  0
LINE
  5
2107
330
1F
100
AcDbEntity
  8
10
100
AcDbLine
 10
1349.312661856534
 20
1079.405302510173
 30
0.0
 11
1349.877451618732
 21
1079.405302510173
 31
0.0
  0
LINE
  5
2108
330
1F
100
AcDbEntity
  8
10
100
AcDbLine
 10
1350.377451618731
 20
1077.905302510173
 30
0.0
 11
1350.377451618731
 21
1078.905302510173
 31
0.0
  0
LINE
  5
2109
330
1F
100
AcDbEntity
  8
10
100
AcDbLine
 10
1344.377451618731
 20
1077.905302510173
 30
0.0
 11
1344.377451618731
 21
1078.005302510174
 31
0.0
  0
LINE
  5
210A
330
1F
100
AcDbEntity
  8
10
100
AcDbLine
 10
1348.312661856534
 20
1077.905302510173
 30
0.0
 11
1348.312661856534
 21
1078.005302510174
 31
0.0
  0
LINE
  5
210B
330
1F
100
AcDbEntity
  8
10
100
AcDbLine
 10
1346.312661856534
 20
1077.905302510173
 30
0.0
 11
1346.312661856534
 21
1078.005302510174
 31
0.0
  0
LINE
  5
210C
330
1F
100
AcDbEntity
  8
10
100
AcDbLine
 10
1348.090792638713
 20
1078.005302510174
 30
0.0
 11
1348.090792638713
 21
1087.405305293267
 31
0.0
  0
LINE
  5
210D
330
1F
100
AcDbEntity
  8
10
100
AcDbLine
 10
1349.312661856534
 20
1078.005302510174
 30
0.0
 11
1349.312661856534
 21
1080.005302510174
 31
0.0
  0
LINE
  5
210E
330
1F
100
AcDbEntity
  8
10
100
AcDbLine
 10
1348.254699972283
 20
1080.005302510174
 30
0.0
 11
1349.312661856534
 21
1080.005302510174
 31
0.0
  0
LINE
  5
210F
330
1F
100
AcDbEntity
  8
10
100
AcDbLine
 10
1348.511477137402
 20
1080.005302510174
 30
0.0
 11
1348.511477137402
 21
1087.405305293267
 31
0.0
  0
ARC
  5
2110
330
1F
100
AcDbEntity
  8
10
100
AcDbCircle
 10
1364.512661856533
 20
1077.905302510173
 30
0.0
 40
6.499999999999997
100
AcDbArc
 50
0.0
 51
180.0
  0
ARC
  5
2111
330
1F
100
AcDbEntity
  8
10
100
AcDbCircle
 10
1364.512661856533
 20
1077.905302510173
 30
0.0
 40
4.999999999999875
100
AcDbArc
 50
0.0
 51
180.0
  0
ARC
  5
2112
330
1F
100
AcDbEntity
  8
10
100
AcDbCircle
 10
1364.512661856533
 20
1077.905302510173
 30
0.0
 40
3.500000000000001
100
AcDbArc
 50
0.0
 51
180.0
  0
CIRCLE
  5
2113
330
1F
100
AcDbEntity
  8
10
100
AcDbCircle
 10
1364.512661856533
 20
1077.905302510173
 30
0.0
 40
2.999999999999991
  0
CIRCLE
  5
2114
330
1F
100
AcDbEntity
  8
10
100
AcDbCircle
 10
1364.512661856533
 20
1077.905302510173
 30
0.0
 40
2.999999999999991
  0
ARC
  5
2115
330
1F
100
AcDbEntity
  8
10
100
AcDbCircle
 10
1377.012661856534
 20
1077.405302510173
 30
0.0
 40
0.4999999999999914
100
AcDbArc
 50
0.0
 51
90.0
  0
LINE
  5
2116
330
1F
100
AcDbEntity
  8
10
100
AcDbLine
 10
1343.112661856534
 20
1162.905302510173
 30
0.0
 11
1377.012661856534
 21
1162.905302510173
 31
0.0
  0
LINE
  5
2117
330
1F
100
AcDbEntity
  8
10
100
AcDbLine
 10
1377.512661856534
 20
1190.545302510174
 30
0.0
 11
1367.512661856534
 21
1190.545302510174
 31
0.0
  0
ARC
  5
2118
330
1F
100
AcDbEntity
  8
10
100
AcDbCircle
 10
1359.212661856534
 20
1176.105302510173
 30
0.0
 40
0.9999999999999827
100
AcDbArc
 50
0.0
 51
90.0
  0
ARC
  5
2119
330
1F
100
AcDbEntity
  8
10
100
AcDbCircle
 10
1343.012661856533
 20
1176.105302510173
 30
0.0
 40
1.000000000000025
100
AcDbArc
 50
90.0
 51
180.0
  0
LINE
  5
211A
330
1F
100
AcDbEntity
  8
10
100
AcDbLine
 10
1341.312661856534
 20
1186.302613048419
 30
0.0
 11
1341.312661856534
 21
1170.381339739767
 31
0.0
  0
LINE
  5
211B
330
1F
100
AcDbEntity
  8
10
100
AcDbLine
 10
1341.312661856534
 20
1186.302613048419
 30
0.0
 11
1341.312661856534
 21
1157.405302510173
 31
0.0
  0
LINE
  5
211C
330
1F
100
AcDbEntity
  8
10
100
AcDbLine
 10
1341.212661856534
 20
1186.105302510173
 30
0.0
 11
1341.212661856534
 21
1159.705302510173
 31
0.0
  0
LINE
  5
211D
330
1F
100
AcDbEntity
  8
10
 48
3.0
100
AcDbLine
 10
1339.532661856533
 20
1178.945302510173
 30
0.0
 11
1339.532661856533
 21
1163.865302510173
 31
0.0
  0
LINE
  5
211E
330
1F
100
AcDbEntity
  8
10
100
AcDbLine
 10
1343.012661856533
 20
1165.905302510173
 30
0.0
 11
1359.212661856534
 21
1165.905302510173
 31
0.0
  0
ARC
  5
211F
330
1F
100
AcDbEntity
  8
10
100
AcDbCircle
 10
1349.877451618732
 20
1138.905302510174
 30
0.0
 40
0.4999999999999914
100
AcDbArc
 50
270.0
 51
0.0
  0
LINE
  5
2120
330
1F
100
AcDbEntity
  8
10
100
AcDbLine
 10
1350.377451618731
 20
1138.905302510174
 30
0.0
 11
1350.377451618731
 21
1139.905302510173
 31
0.0
  0
LINE
  5
2121
330
1F
100
AcDbEntity
  8
10
100
AcDbLine
 10
1344.377451618731
 20
1139.805302510173
 30
0.0
 11
1344.377451618731
 21
1139.905302510173
 31
0.0
  0
LINE
  5
2122
330
1F
100
AcDbEntity
  8
10
100
AcDbLine
 10
1349.312661856534
 20
1138.405302510173
 30
0.0
 11
1349.877451618732
 21
1138.405302510173
 31
0.0
  0
LINE
  5
2123
330
1F
100
AcDbEntity
  8
10
100
AcDbLine
 10
1348.312661856534
 20
1139.905302510173
 30
0.0
 11
1348.312661856534
 21
1139.805302510173
 31
0.0
  0
LINE
  5
2124
330
1F
100
AcDbEntity
  8
10
100
AcDbLine
 10
1346.312661856534
 20
1139.905302510173
 30
0.0
 11
1346.312661856534
 21
1139.805302510173
 31
0.0
  0
LINE
  5
2125
330
1F
100
AcDbEntity
  8
10
100
AcDbLine
 10
1348.254699972283
 20
1137.805302510174
 30
0.0
 11
1349.312661856534
 21
1137.805302510174
 31
0.0
  0
LINE
  5
2126
330
1F
100
AcDbEntity
  8
10
100
AcDbLine
 10
1349.312661856534
 20
1137.805302510174
 30
0.0
 11
1349.312661856534
 21
1139.805302510173
 31
0.0
  0
ARC
  5
2127
330
1F
100
AcDbEntity
  8
10
100
AcDbCircle
 10
1343.012661856533
 20
1166.905302510173
 30
0.0
 40
1.000000000000001
100
AcDbArc
 50
180.0
 51
270.0
  0
ARC
  5
2128
330
1F
100
AcDbEntity
  8
10
100
AcDbCircle
 10
1343.112661856534
 20
1162.405302510173
 30
0.0
 40
0.5000000000000316
100
AcDbArc
 50
90.0
 51
180.0
  0
ARC
  5
2129
330
1F
100
AcDbEntity
  8
10
100
AcDbCircle
 10
1342.112661856534
 20
1159.905302510173
 30
0.0
 40
0.4999999999999914
100
AcDbArc
 50
270.0
 51
0.0
  0
LINE
  5
212A
330
1F
100
AcDbEntity
  8
10
100
AcDbLine
 10
1341.212661856534
 20
1160.805302510173
 30
0.0
 11
1341.312661856534
 21
1160.805302510173
 31
0.0
  0
LINE
  5
212B
330
1F
100
AcDbEntity
  8
10
100
AcDbLine
 10
1341.212661856534
 20
1162.005302510173
 30
0.0
 11
1341.312661856534
 21
1162.005302510173
 31
0.0
  0
LINE
  5
212C
330
1F
100
AcDbEntity
  8
10
100
AcDbLine
 10
1341.212661856534
 20
1164.405302510173
 30
0.0
 11
1341.312661856534
 21
1164.405302510173
 31
0.0
  0
LINE
  5
212D
330
1F
100
AcDbEntity
  8
10
100
AcDbLine
 10
1341.212661856534
 20
1163.905302510173
 30
0.0
 11
1341.312661856534
 21
1163.905302510173
 31
0.0
  0
LINE
  5
212E
330
1F
100
AcDbEntity
  8
10
100
AcDbLine
 10
1342.612661856534
 20
1162.405302510173
 30
0.0
 11
1342.612661856534
 21
1159.905302510173
 31
0.0
  0
LINE
  5
212F
330
1F
100
AcDbEntity
  8
10
100
AcDbLine
 10
1342.012661856534
 20
1176.105302510173
 30
0.0
 11
1342.012661856534
 21
1166.905302510173
 31
0.0
  0
ARC
  5
2130
330
1F
100
AcDbEntity
  8
10
100
AcDbCircle
 10
1340.912661856534
 20
1159.705302510173
 30
0.0
 40
0.3000000000000914
100
AcDbArc
 50
270.0
 51
0.0
  0
ARC
  5
2131
330
1F
100
AcDbEntity
  8
10
100
AcDbCircle
 10
1366.512661856533
 20
1149.905302510173
 30
0.0
 40
1.000000000000001
100
AcDbArc
 50
0.0
 51
90.0
  0
LINE
  5
2132
330
1F
100
AcDbEntity
  8
10
100
AcDbLine
 10
1367.512661856534
 20
1145.405302510174
 30
0.0
 11
1367.512661856534
 21
1149.905302510173
 31
0.0
  0
ARC
  5
2133
330
1F
100
AcDbEntity
  8
10
100
AcDbCircle
 10
1366.512661856533
 20
1145.405302510174
 30
0.0
 40
1.000000000000025
100
AcDbArc
 50
270.0
 51
0.0
  0
ARC
  5
2134
330
1F
100
AcDbEntity
  8
10
100
AcDbCircle
 10
1359.212661856534
 20
1166.905302510173
 30
0.0
 40
0.9999999999999827
100
AcDbArc
 50
270.0
 51
0.0
  0
LINE
  5
2135
330
1F
100
AcDbEntity
  8
10
100
AcDbLine
 10
1360.212661856533
 20
1176.105302510173
 30
0.0
 11
1360.212661856533
 21
1166.905302510173
 31
0.0
  0
LINE
  5
2136
330
1F
100
AcDbEntity
  8
10
100
AcDbLine
 10
1343.012661856533
 20
1177.105302510174
 30
0.0
 11
1359.212661856534
 21
1177.105302510174
 31
0.0
  0
LINE
  5
2137
330
1F
100
AcDbEntity
  8
10
100
AcDbLine
 10
1360.512661856533
 20
1207.045302510174
 30
0.0
 11
1334.512661856534
 21
1207.045302510174
 31
0.0
  0
LINE
  5
2138
330
1F
100
AcDbEntity
  8
10
100
AcDbLine
 10
1341.138645376945
 20
1186.302613048419
 30
0.0
 11
1341.312661856534
 21
1186.302613048419
 31
0.0
  0
LINE
  5
2139
330
1F
100
AcDbEntity
  8
10
100
AcDbLine
 10
1341.212661856534
 20
1184.102338579219
 30
0.0
 11
1341.312661856534
 21
1184.102338579219
 31
0.0
  0
ARC
  5
213A
330
1F
100
AcDbEntity
  8
10
100
AcDbCircle
 10
1340.912661856534
 20
1186.105302510173
 30
0.0
 40
0.2999999999999514
100
AcDbArc
 50
0.0
 51
90.0
  0
ARC
  5
213B
330
1F
100
AcDbEntity
  8
10
100
AcDbCircle
 10
1336.412661856534
 20
1186.117059724116
 30
0.0
 40
0.4999999999999914
100
AcDbArc
 50
0.0
 51
90.0
  0
ARC
  5
213C
330
1F
100
AcDbEntity
  8
10
100
AcDbCircle
 10
1336.412661856534
 20
1186.221875282683
 30
0.0
 40
0.4999999999999914
100
AcDbArc
 50
0.0
 51
90.0
  0
LINE
  5
213D
330
1F
100
AcDbEntity
  8
10
100
AcDbLine
 10
1336.912661856534
 20
1186.090891745996
 30
0.0
 11
1336.912661856534
 21
1186.326690841248
 31
0.0
  0
ARC
  5
213E
330
1F
100
AcDbEntity
  8
10
100
AcDbCircle
 10
1336.412661856534
 20
1186.326690841248
 30
0.0
 40
0.4999999999999914
100
AcDbArc
 50
0.0
 51
90.0
  0
LINE
  5
213F
330
1F
100
AcDbEntity
  8
10
100
AcDbLine
 10
1336.906443392751
 20
1186.405302510173
 30
0.0
 11
1340.912661856534
 21
1186.405302510173
 31
0.0
  0
ARC
  5
2140
330
1F
100
AcDbEntity
  8
10
100
AcDbCircle
 10
1360.512661856533
 20
1200.045302510174
 30
0.0
 40
6.999999999999988
100
AcDbArc
 50
0.0
 51
90.0
  0
LINE
  5
2141
330
1F
100
AcDbEntity
  8
10
100
AcDbLine
 10
1367.512661856534
 20
1200.045302510174
 30
0.0
 11
1367.512661856534
 21
1190.545302510174
 31
0.0
  0
LINE
  5
2142
330
1F
100
AcDbEntity
  8
10
100
AcDbLine
 10
1377.512661856534
 20
1155.905302510173
 30
0.0
 11
1397.512661856534
 21
1155.905302510173
 31
0.0
  0
LINE
  5
2143
330
1F
100
AcDbEntity
  8
10
100
AcDbLine
 10
1377.512661856534
 20
1162.905302510173
 30
0.0
 11
1397.512661856534
 21
1162.905302510173
 31
0.0
  0
ARC
  5
2144
330
1F
100
AcDbEntity
  8
10
100
AcDbCircle
 10
1377.012661856534
 20
1140.405302510173
 30
0.0
 40
0.4999999999999914
100
AcDbArc
 50
270.0
 51
0.0
  0
ARC
  5
2145
330
1F
100
AcDbEntity
  8
10
100
AcDbCircle
 10
1377.012661856534
 20
1155.405302510174
 30
0.0
 40
0.4999999999999914
100
AcDbArc
 50
0.0
 51
90.0
  0
ARC
  5
2146
330
1F
100
AcDbEntity
  8
10
100
AcDbCircle
 10
1377.012661856534
 20
1163.405302510174
 30
0.0
 40
0.4999999999999914
100
AcDbArc
 50
270.0
 51
0.0
  0
ARC
  5
2147
330
1F
100
AcDbEntity
  8
10
100
AcDbCircle
 10
1376.512661856534
 20
1185.905302510174
 30
0.0
 40
1.000000000000001
100
AcDbArc
 50
0.0
 51
90.0
  0
LINE
  5
2148
330
1F
100
AcDbEntity
  8
10
100
AcDbLine
 10
1249.512661856533
 20
1242.545302510174
 30
0.0
 11
1395.512661856534
 21
1242.545302510174
 31
0.0
  0
LINE
  5
2149
330
1F
100
AcDbEntity
  8
10
100
AcDbLine
 10
1397.512661856534
 20
1227.545302510167
 30
0.0
 11
1247.512661856533
 21
1227.545302510167
 31
0.0
  0
LINE
  5
214A
330
1F
100
AcDbEntity
  8
10
100
AcDbLine
 10
1249.242661856533
 20
1227.545302510167
 30
0.0
 11
1250.512661856534
 21
1237.545302510166
 31
0.0
  0
LINE
  5
214B
330
1F
100
AcDbEntity
  8
10
100
AcDbLine
 10
1247.512661856533
 20
1237.545302510166
 30
0.0
 11
1260.512661856534
 21
1237.545302510166
 31
0.0
  0
LINE
  5
214C
330
1F
100
AcDbEntity
  8
10
100
AcDbLine
 10
1397.512661856534
 20
1227.545302510174
 30
0.0
 11
1247.512661856533
 21
1227.545302510174
 31
0.0
  0
LINE
  5
214D
330
1F
100
AcDbEntity
  8
10
100
AcDbLine
 10
1249.012661856534
 20
1237.545302510166
 30
0.0
 11
1249.012661856534
 21
1242.045302510172
 31
0.0
  0
LINE
  5
214E
330
1F
100
AcDbEntity
  8
10
100
AcDbLine
 10
1247.512661856533
 20
1240.545302510167
 30
0.0
 11
1249.512661856533
 21
1242.545302510174
 31
0.0
  0
LINE
  5
2150
330
1F
100
AcDbEntity
  8
12
 48
3.0
100
AcDbLine
 10
1285.512661856534
 20
1232.545302510174
 30
0.0
 11
1359.512661856534
 21
1232.545302510174
 31
0.0
  0
CIRCLE
  5
2151
330
1F
100
AcDbEntity
  8
12
100
AcDbCircle
 10
1292.512661856534
 20
1232.545302510174
 30
0.0
 40
2.999999999999991
  0
LINE
  5
2153
330
1F
100
AcDbEntity
  8
10
100
AcDbLine
 10
1250.512661856534
 20
1227.545302510167
 30
0.0
 11
1250.512661856534
 21
1237.545302510166
 31
0.0
  0
LINE
  5
2154
330
1F
100
AcDbEntity
  8
10
100
AcDbLine
 10
1260.512661856534
 20
1227.545302510167
 30
0.0
 11
1260.512661856534
 21
1237.545302510166
 31
0.0
  0
CIRCLE
  5
2156
330
1F
100
AcDbEntity
  8
12
100
AcDbCircle
 10
1352.512661856533
 20
1232.545302510174
 30
0.0
 40
3.000000000000011
  0
LINE
  5
2159
330
1F
100
AcDbEntity
  8
10
100
AcDbLine
 10
1384.512661856534
 20
1237.545302510166
 30
0.0
 11
1397.512661856534
 21
1237.545302510166
 31
0.0
  0
LINE
  5
215B
330
1F
100
AcDbEntity
  8
10
100
AcDbLine
 10
1384.512661856534
 20
1227.545302510167
 30
0.0
 11
1384.512661856534
 21
1237.545302510166
 31
0.0
  0
LINE
  5
215C
330
1F
100
AcDbEntity
  8
10
100
AcDbLine
 10
1396.012661856534
 20
1237.545302510166
 30
0.0
 11
1396.012661856534
 21
1242.045302510172
 31
0.0
  0
LINE
  5
215D
330
1F
100
AcDbEntity
  8
10
100
AcDbLine
 10
1395.512661856534
 20
1242.545302510174
 30
0.0
 11
1397.512661856534
 21
1240.545302510167
 31
0.0
  0
LINE
  5
215E
330
1F
100
AcDbEntity
  8
10
100
AcDbLine
 10
1395.782661856534
 20
1227.545302510167
 30
0.0
 11
1394.512661856534
 21
1237.545302510166
 31
0.0
  0
LINE
  5
215F
330
1F
100
AcDbEntity
  8
10
100
AcDbLine
 10
1394.512661856534
 20
1227.545302510167
 30
0.0
 11
1394.512661856534
 21
1237.545302510166
 31
0.0
  0
LINE
  5
2163
330
1F
100
AcDbEntity
  8
10
100
AcDbLine
 10
1852.512661856534
 20
928.0453025101742
 30
0.0
 11
1747.512661856534
 21
928.0453025101742
 31
0.0
  0
LINE
  5
2164
330
1F
100
AcDbEntity
  8
10
100
AcDbLine
 10
1852.512661856534
 20
1221.045302510174
 30
0.0
 11
1747.512661856534
 21
1221.045302510174
 31
0.0
  0
LINE
  5
2165
330
1F
100
AcDbEntity
  8
10
100
AcDbLine
 10
1763.262661856534
 20
895.0453025101742
 30
0.0
 11
1843.262661856534
 21
895.0453025101742
 31
0.0
  0
LINE
  5
2166
330
1F
100
AcDbEntity
  8
10
100
AcDbLine
 10
1763.262661856534
 20
912.0453025101744
 30
0.0
 11
1843.262661856534
 21
912.0453025101744
 31
0.0
  0
LINE
  5
2167
330
1F
100
AcDbEntity
  8
10
100
AcDbLine
 10
1763.262661856534
 20
916.0453025101745
 30
0.0
 11
1843.262661856534
 21
916.0453025101745
 31
0.0
  0
LINE
  5
2168
330
1F
100
AcDbEntity
  8
10
100
AcDbLine
 10
1763.262661856534
 20
891.0453025101743
 30
0.0
 11
1843.262661856534
 21
891.0453025101743
 31
0.0
  0
LINE
  5
216A
330
1F
100
AcDbEntity
  8
10
100
AcDbLine
 10
1772.758246268806
 20
891.0453025101743
 30
0.0
 11
1777.258246268806
 21
886.5453025101741
 31
0.0
  0
LINE
  5
216B
330
1F
100
AcDbEntity
  8
10
100
AcDbLine
 10
1772.261189993958
 20
889.8453025101744
 30
0.0
 11
1776.761189993958
 21
885.3453025101742
 31
0.0
  0
LINE
  5
216C
330
1F
100
AcDbEntity
  8
10
100
AcDbLine
 10
1839.012661856534
 20
885.3453025101742
 30
0.0
 11
1767.512661856533
 21
885.3453025101742
 31
0.0
  0
LINE
  5
216D
330
1F
100
AcDbEntity
  8
10
100
AcDbLine
 10
1775.561189993958
 20
886.5453025101741
 30
0.0
 11
1770.514328060495
 21
886.5453025101741
 31
0.0
  0
LINE
  5
216E
330
1F
100
AcDbEntity
  8
10
100
AcDbLine
 10
1747.512661856534
 20
862.5453025101743
 30
0.0
 11
1747.512661856534
 21
1242.545302510174
 31
0.0
  0
LINE
  5
2171
330
1F
100
AcDbEntity
  8
10
100
AcDbLine
 10
1739.512661856534
 20
862.5453025101743
 30
0.0
 11
1739.512661856534
 21
1242.545302510174
 31
0.0
  0
LINE
  5
2175
330
1F
100
AcDbEntity
  8
10
100
AcDbLine
 10
1587.512661856533
 20
1227.545302510174
 30
0.0
 11
1587.512661856533
 21
1147.545302510174
 31
0.0
  0
LINE
  5
2176
330
1F
100
AcDbEntity
  8
10
100
AcDbLine
 10
1587.012661856534
 20
1227.571506399815
 30
0.0
 11
1587.012661856534
 21
1032.589094661939
 31
0.0
  0
LINE
  5
2177
330
1F
100
AcDbEntity
  8
10
100
AcDbLine
 10
1571.626931418181
 20
1226.765174434893
 30
0.0
 11
1587.012661856534
 21
1227.571506399815
 31
0.0
  0
ARC
  5
2178
330
1F
100
AcDbEntity
  8
10
100
AcDbCircle
 10
1571.783939286909
 20
1223.76928583063
 30
0.0
 40
2.999999999999944
100
AcDbArc
 50
92.9999999999991
 51
162.3479617698537
  0
LINE
  5
2179
330
1F
100
AcDbEntity
  8
10
100
AcDbLine
 10
1739.012661856534
 20
1237.545302510174
 30
0.0
 11
1739.012661856534
 21
867.5453025101742
 31
0.0
  0
LINE
  5
217A
330
1F
100
AcDbEntity
  8
10
100
AcDbLine
 10
1587.512661856534
 20
877.5453025101741
 30
0.0
 11
1634.512661856534
 21
877.5453025101741
 31
0.0
  0
LINE
  5
217B
330
1F
100
AcDbEntity
  8
10
100
AcDbLine
 10
1582.012661856534
 20
887.5453025101743
 30
0.0
 11
1611.012661856534
 21
887.5453025101743
 31
0.0
  0
LINE
  5
217C
330
1F
100
AcDbEntity
  8
10
100
AcDbLine
 10
1582.012661856534
 20
937.5453025101744
 30
0.0
 11
1611.012661856534
 21
937.5453025101744
 31
0.0
  0
LINE
  5
217E
330
1F
100
AcDbEntity
  8
10
100
AcDbLine
 10
1609.762661856534
 20
937.5453025101744
 30
0.0
 11
1609.762661856534
 21
1206.295302510172
 31
0.0
  0
LINE
  5
217F
330
1F
100
AcDbEntity
  8
10
100
AcDbLine
 10
1607.262661856534
 20
937.5453025101744
 30
0.0
 11
1607.262661856534
 21
1206.295302510172
 31
0.0
  0
LINE
  5
2180
330
1F
100
AcDbEntity
  8
10
100
AcDbLine
 10
1604.762661856534
 20
937.5453025101744
 30
0.0
 11
1604.762661856534
 21
1206.295302510172
 31
0.0
  0
LINE
  5
2181
330
1F
100
AcDbEntity
  8
10
100
AcDbLine
 10
1602.262661856534
 20
937.5453025101744
 30
0.0
 11
1602.262661856534
 21
1206.295302510172
 31
0.0
  0
LINE
  5
2182
330
1F
100
AcDbEntity
  8
10
100
AcDbLine
 10
1599.762661856534
 20
937.5453025101744
 30
0.0
 11
1599.762661856534
 21
1206.295302510172
 31
0.0
  0
LINE
  5
2183
330
1F
100
AcDbEntity
  8
10
100
AcDbLine
 10
1597.262661856534
 20
937.5453025101744
 30
0.0
 11
1597.262661856534
 21
1206.295302510172
 31
0.0
  0
LINE
  5
2184
330
1F
100
AcDbEntity
  8
10
100
AcDbLine
 10
1592.262661856534
 20
937.5453025101744
 30
0.0
 11
1592.262661856534
 21
1206.295302510172
 31
0.0
  0
LINE
  5
2185
330
1F
100
AcDbEntity
  8
10
100
AcDbLine
 10
1594.762661856534
 20
937.5453025101744
 30
0.0
 11
1594.762661856534
 21
1206.295302510172
 31
0.0
  0
LINE
  5
2186
330
1F
100
AcDbEntity
  8
10
100
AcDbLine
 10
1587.512661856533
 20
1147.545302510174
 30
0.0
 11
1587.512661856533
 21
937.5453025101744
 31
0.0
  0
LINE
  5
2187
330
1F
100
AcDbEntity
  8
10
100
AcDbLine
 10
1587.012661856532
 20
1032.589094661939
 30
0.0
 11
1587.012661856532
 21
937.5453025101744
 31
0.0
  0
LINE
  5
2188
330
1F
100
AcDbEntity
  8
10
100
AcDbLine
 10
1578.512661856534
 20
1025.071506399815
 30
0.0
 11
1578.512661856534
 21
925.0715063998157
 31
0.0
  0
LINE
  5
2189
330
1F
100
AcDbEntity
  8
10
100
AcDbLine
 10
1547.512661856534
 20
909.0679403791924
 30
0.0
 11
1547.512661856534
 21
1024.932493283275
 31
0.0
  0
LINE
  5
218A
330
1F
100
AcDbEntity
  8
10
100
AcDbLine
 10
1567.512661856534
 20
1025.093458095834
 30
0.0
 11
1557.253842811431
 21
1022.344615817402
 31
0.0
  0
LINE
  5
218B
330
1F
100
AcDbEntity
  8
10
100
AcDbLine
 10
1567.512661856534
 20
924.0715063998157
 30
0.0
 11
1567.512661856534
 21
879.5424226625499
 31
0.0
  0
LINE
  5
218C
330
1F
100
AcDbEntity
  8
10
100
AcDbLine
 10
1581.512661856534
 20
888.0453025101742
 30
0.0
 11
1581.512661856534
 21
937.0453025101742
 31
0.0
  0
LINE
  5
218D
330
1F
100
AcDbEntity
  8
10
100
AcDbLine
 10
1567.512661856534
 20
878.593458095835
 30
0.0
 11
1567.512661856534
 21
924.5934580958348
 31
0.0
  0
LINE
  5
218E
330
1F
100
AcDbEntity
  8
10
100
AcDbLine
 10
1568.460325900291
 20
878.5437931277952
 30
0.0
 11
1587.012661856532
 21
877.5715063998157
 31
0.0
  0
ARC
  5
2191
330
1F
100
AcDbEntity
  8
10
100
AcDbCircle
 10
1577.512661856534
 20
891.5830369041168
 30
0.0
 40
30.0
100
AcDbArc
 50
180.0
 51
199.4477664087378
  0
LINE
  5
2192
330
1F
100
AcDbEntity
  8
10
100
AcDbLine
 10
1547.986493878411
 20
901.6182905798547
 30
0.0
 11
1550.038829834655
 21
901.7258489496642
 31
0.0
  0
LINE
  5
2193
330
1F
100
AcDbEntity
  8
10
100
AcDbLine
 10
1550.038829834655
 20
908.4610672420055
 30
0.0
 11
1547.986493878411
 21
908.5686256118151
 31
0.0
  0
LINE
  5
2194
330
1F
100
AcDbEntity
  8
10
100
AcDbLine
 10
1547.512661856534
 20
891.5830369041168
 30
0.0
 11
1547.512661856534
 21
901.1189758124775
 31
0.0
  0
ARC
  5
2195
330
1F
100
AcDbEntity
  8
10
100
AcDbCircle
 10
1548.012661856534
 20
909.0679403791924
 30
0.0
 40
0.5
100
AcDbArc
 50
180.0
 51
266.9999999999943
  0
ARC
  5
2196
330
1F
100
AcDbEntity
  8
10
100
AcDbCircle
 10
1548.012661856534
 20
901.1189758124775
 30
0.0
 40
0.4999999999999714
100
AcDbArc
 50
93.00000000000556
 51
180.0
  0
LINE
  5
2197
330
1F
100
AcDbEntity
  8
10
100
AcDbLine
 10
1567.512661856534
 20
878.593458095835
 30
0.0
 11
1552.053135685576
 21
879.593458095835
 31
0.0
  0
ARC
  5
2198
330
1F
100
AcDbEntity
  8
10
100
AcDbCircle
 10
1552.053135685576
 20
882.5934580958351
 30
0.0
 40
3.000000000000136
100
AcDbArc
 50
199.4477664087362
 51
270.0
  0
ARC
  5
2199
330
1F
100
AcDbEntity
  8
10
100
AcDbCircle
 10
1568.512661856534
 20
879.5424226625499
 30
0.0
 40
1.000000000000001
100
AcDbArc
 50
180.0
 51
266.9999999999943
  0
LINE
  5
219A
330
1F
100
AcDbEntity
  8
10
100
AcDbLine
 10
1567.512661856534
 20
881.593458095835
 30
0.0
 11
1567.512661856534
 21
881.6107608327193
 31
0.0
  0
LINE
  5
219B
330
1F
100
AcDbEntity
  8
10
100
AcDbLine
 10
1550.512661856534
 20
902.2251637170416
 30
0.0
 11
1550.512661856534
 21
907.9617524746284
 31
0.0
  0
ARC
  5
219C
330
1F
100
AcDbEntity
  8
10
100
AcDbCircle
 10
1550.012661856534
 20
902.2251637170416
 30
0.0
 40
0.5000000000000286
100
AcDbArc
 50
273.0000000000056
 51
0.0
  0
ARC
  5
219D
330
1F
100
AcDbEntity
  8
10
100
AcDbCircle
 10
1550.012661856534
 20
907.9617524746284
 30
0.0
 40
0.5
100
AcDbArc
 50
0.0
 51
86.99999999999441
  0
TEXT
  5
219E
330
1F
100
AcDbEntity
  8
10
100
AcDbText
 10
1583.512640719558
 20
919.5453014148846
 30
0.0
 40
9.142857279096331
  1
ＮＰ
 50
269.999994991043
 41
0.7031250019402551
  7
STANDARD1
100
AcDbText
  0
LINE
  5
219F
330
1F
100
AcDbEntity
  8
10
100
AcDbLine
 10
1587.012661856532
 20
887.5453025101743
 30
0.0
 11
1587.012661856532
 21
877.5715063998157
 31
0.0
  0
LINE
  5
21A0
330
1F
100
AcDbEntity
  8
10
100
AcDbLine
 10
1587.512661856533
 20
887.5453025101743
 30
0.0
 11
1587.512661856533
 21
877.5453025101741
 31
0.0
  0
LINE
  5
21A1
330
1F
100
AcDbEntity
  8
10
100
AcDbLine
 10
1587.012661856532
 20
878.045302510174
 30
0.0
 11
1587.512661856533
 21
878.045302510174
 31
0.0
  0
ARC
  5
21A2
330
1F
100
AcDbEntity
  8
10
100
AcDbCircle
 10
1582.012661856534
 20
888.0453025101742
 30
0.0
 40
0.5000000000000029
100
AcDbArc
 50
180.0
 51
270.0
  0
LINE
  5
21A3
330
1F
100
AcDbEntity
  8
10
100
AcDbLine
 10
1578.012661856534
 20
924.5715063998156
 30
0.0
 11
1568.012661856534
 21
924.5715063998156
 31
0.0
  0
LINE
  5
21A4
330
1F
100
AcDbEntity
  8
10
100
AcDbLine
 10
1568.212661856534
 20
995.2453025101744
 30
0.0
 11
1570.512661856534
 21
995.2453025101744
 31
0.0
  0
LINE
  5
21A5
330
1F
100
AcDbEntity
  8
10
100
AcDbLine
 10
1568.212661856534
 20
978.8453025101739
 30
0.0
 11
1570.512661856534
 21
978.8453025101739
 31
0.0
  0
LINE
  5
21A6
330
1F
100
AcDbEntity
  8
10
100
AcDbLine
 10
1568.212661856534
 20
1019.245302510173
 30
0.0
 11
1570.512661856534
 21
1019.245302510173
 31
0.0
  0
LINE
  5
21A7
330
1F
100
AcDbEntity
  8
10
100
AcDbLine
 10
1568.212661856534
 20
1002.845302510174
 30
0.0
 11
1570.512661856534
 21
1002.845302510174
 31
0.0
  0
LINE
  5
21A8
330
1F
100
AcDbEntity
  8
10
100
AcDbLine
 10
1561.012661856534
 20
948.0453025101745
 30
0.0
 11
1578.512661856534
 21
948.0453025101745
 31
0.0
  0
LINE
  5
21A9
330
1F
100
AcDbEntity
  8
10
100
AcDbLine
 10
1561.012661856534
 20
950.0453025101744
 30
0.0
 11
1578.512661856534
 21
950.0453025101744
 31
0.0
  0
LINE
  5
21AA
330
1F
100
AcDbEntity
  8
10
100
AcDbLine
 10
1561.012661856534
 20
972.6953025101742
 30
0.0
 11
1578.512661856534
 21
972.6953025101742
 31
0.0
  0
LINE
  5
21AB
330
1F
100
AcDbEntity
  8
10
100
AcDbLine
 10
1561.012661856534
 20
936.3953025101743
 30
0.0
 11
1578.512661856534
 21
936.3953025101743
 31
0.0
  0
LINE
  5
21AC
330
1F
100
AcDbEntity
  8
10
100
AcDbLine
 10
1561.012661856534
 20
970.0453025101742
 30
0.0
 11
1578.512661856534
 21
970.0453025101742
 31
0.0
  0
LINE
  5
21AD
330
1F
100
AcDbEntity
  8
10
100
AcDbLine
 10
1561.012661856534
 20
961.045302510174
 30
0.0
 11
1578.512661856534
 21
961.045302510174
 31
0.0
  0
LINE
  5
21AE
330
1F
100
AcDbEntity
  8
10
100
AcDbLine
 10
1561.012661856534
 20
939.0453025101745
 30
0.0
 11
1578.512661856534
 21
939.0453025101745
 31
0.0
  0
LINE
  5
21AF
330
1F
100
AcDbEntity
  8
10
100
AcDbLine
 10
1561.012661856534
 20
959.0453025101744
 30
0.0
 11
1578.512661856534
 21
959.0453025101744
 31
0.0
  0
LINE
  5
21B0
330
1F
100
AcDbEntity
  8
10
100
AcDbLine
 10
1556.512661856534
 20
974.0453025101739
 30
0.0
 11
1578.512661856534
 21
974.0453025101739
 31
0.0
  0
LINE
  5
21B1
330
1F
100
AcDbEntity
  8
10
100
AcDbLine
 10
1556.512661856534
 20
1019.545302510173
 30
0.0
 11
1578.512661856534
 21
1019.545302510173
 31
0.0
  0
LINE
  5
21B2
330
1F
100
AcDbEntity
  8
10
100
AcDbLine
 10
1556.512661856534
 20
1002.545302510174
 30
0.0
 11
1578.512661856534
 21
1002.545302510174
 31
0.0
  0
LINE
  5
21B3
330
1F
100
AcDbEntity
  8
10
100
AcDbLine
 10
1556.512661856534
 20
995.5453025101739
 30
0.0
 11
1578.512661856534
 21
995.5453025101739
 31
0.0
  0
LINE
  5
21B4
330
1F
100
AcDbEntity
  8
10
100
AcDbLine
 10
1556.512661856534
 20
978.5453025101745
 30
0.0
 11
1578.512661856534
 21
978.5453025101745
 31
0.0
  0
LINE
  5
21B5
330
1F
100
AcDbEntity
  8
10
100
AcDbLine
 10
1556.512661856534
 20
925.7681610731609
 30
0.0
 11
1556.512661856534
 21
1021.378689991113
 31
0.0
  0
LINE
  5
21B6
330
1F
100
AcDbEntity
  8
10
100
AcDbLine
 10
1567.512661856534
 20
924.5934580958348
 30
0.0
 11
1557.495209450096
 21
924.7683133780045
 31
0.0
  0
ARC
  5
21B7
330
1F
100
AcDbEntity
  8
10
100
AcDbCircle
 10
1557.512661856534
 20
925.7681610731609
 30
0.0
 40
1.000000000000001
100
AcDbArc
 50
180.0
 51
268.9999999999981
  0
ARC
  5
21B8
330
1F
100
AcDbEntity
  8
10
100
AcDbCircle
 10
1568.012661856534
 20
924.0715063998157
 30
0.0
 40
0.4999999999999914
100
AcDbArc
 50
90.0
 51
180.0
  0
LINE
  5
21B9
330
1F
100
AcDbEntity
  8
10
100
AcDbLine
 10
1561.012661856534
 20
936.3953025101743
 30
0.0
 11
1561.012661856534
 21
939.0453025101745
 31
0.0
  0
LINE
  5
21BA
330
1F
100
AcDbEntity
  8
10
100
AcDbLine
 10
1561.012661856534
 20
948.0453025101745
 30
0.0
 11
1561.012661856534
 21
950.0453025101744
 31
0.0
  0
LINE
  5
21BB
330
1F
100
AcDbEntity
  8
10
100
AcDbLine
 10
1561.012661856534
 20
970.0453025101742
 30
0.0
 11
1561.012661856534
 21
972.6953025101742
 31
0.0
  0
LINE
  5
21BC
330
1F
100
AcDbEntity
  8
10
100
AcDbLine
 10
1561.012661856534
 20
959.0453025101744
 30
0.0
 11
1561.012661856534
 21
961.0453025101742
 31
0.0
  0
LINE
  5
21BD
330
1F
100
AcDbEntity
  8
10
100
AcDbLine
 10
1568.212661856534
 20
978.8453025101739
 30
0.0
 11
1568.212661856534
 21
995.2453025101744
 31
0.0
  0
ARC
  5
21BE
330
1F
100
AcDbEntity
  8
10
100
AcDbCircle
 10
1566.312661856534
 20
987.0453025101742
 30
0.0
 40
1.999999999999987
100
AcDbArc
 50
90.0
 51
180.0
  0
ARC
  5
21BF
330
1F
100
AcDbEntity
  8
10
100
AcDbCircle
 10
1566.312661856534
 20
987.0453025101742
 30
0.0
 40
1.999999999999993
100
AcDbArc
 50
180.0
 51
270.0
  0
ARC
  5
21C0
330
1F
100
AcDbEntity
  8
10
100
AcDbCircle
 10
1566.812661856534
 20
989.412262585883
 30
0.0
 40
2.499999999999928
100
AcDbArc
 50
120.6032946082065
 51
180.0
  0
ARC
  5
21C1
330
1F
100
AcDbEntity
  8
10
100
AcDbCircle
 10
1566.812661856534
 20
984.6783424344652
 30
0.0
 40
2.499999999999994
100
AcDbArc
 50
180.0
 51
239.3967053917934
  0
LINE
  5
21C2
330
1F
100
AcDbEntity
  8
10
100
AcDbLine
 10
1564.312661856534
 20
989.412262585883
 30
0.0
 11
1564.312661856534
 21
984.6783424344652
 31
0.0
  0
ARC
  5
21C3
330
1F
100
AcDbEntity
  8
10
100
AcDbCircle
 10
1568.212661856534
 20
987.0453025101742
 30
0.0
 40
5.249999999999997
100
AcDbArc
 50
90.0
 51
120.6032946082065
  0
ARC
  5
21C4
330
1F
100
AcDbEntity
  8
10
100
AcDbCircle
 10
1568.212661856534
 20
987.0453025101742
 30
0.0
 40
5.249999999999959
100
AcDbArc
 50
239.3967053917934
 51
270.0
  0
ARC
  5
21C5
330
1F
100
AcDbEntity
  8
10
100
AcDbCircle
 10
1557.512661856534
 20
1021.378689991113
 30
0.0
 40
0.999999999999957
100
AcDbArc
 50
104.9999999999944
 51
180.0
  0
LINE
  5
21C6
330
1F
100
AcDbEntity
  8
10
100
AcDbLine
 10
1564.312661856534
 20
1013.412262585883
 30
0.0
 11
1564.312661856534
 21
1008.678342434465
 31
0.0
  0
LINE
  5
21C7
330
1F
100
AcDbEntity
  8
10
100
AcDbLine
 10
1568.212661856534
 20
1002.845302510174
 30
0.0
 11
1568.212661856534
 21
1019.245302510173
 31
0.0
  0
ARC
  5
21C8
330
1F
100
AcDbEntity
  8
10
100
AcDbCircle
 10
1566.312661856534
 20
1011.045302510174
 30
0.0
 40
2.000000000000007
100
AcDbArc
 50
90.0
 51
180.0
  0
ARC
  5
21C9
330
1F
100
AcDbEntity
  8
10
100
AcDbCircle
 10
1566.312661856534
 20
1011.045302510174
 30
0.0
 40
1.999999999999993
100
AcDbArc
 50
180.0
 51
270.0
  0
ARC
  5
21CA
330
1F
100
AcDbEntity
  8
10
100
AcDbCircle
 10
1566.812661856534
 20
1013.412262585883
 30
0.0
 40
2.499999999999928
100
AcDbArc
 50
120.6032946082065
 51
180.0
  0
ARC
  5
21CB
330
1F
100
AcDbEntity
  8
10
100
AcDbCircle
 10
1566.812661856534
 20
1008.678342434465
 30
0.0
 40
2.499999999999994
100
AcDbArc
 50
180.0
 51
239.3967053917934
  0
ARC
  5
21CC
330
1F
100
AcDbEntity
  8
10
100
AcDbCircle
 10
1568.212661856534
 20
1011.045302510174
 30
0.0
 40
5.250000000000016
100
AcDbArc
 50
90.0
 51
120.6032946082065
  0
ARC
  5
21CD
330
1F
100
AcDbEntity
  8
10
100
AcDbCircle
 10
1568.212661856534
 20
1011.045302510174
 30
0.0
 40
5.249999999999943
100
AcDbArc
 50
239.3967053917934
 51
270.0
  0
LINE
  5
21CE
330
1F
100
AcDbEntity
  8
10
100
AcDbLine
 10
1573.012661856534
 20
939.0453025101745
 30
0.0
 11
1573.012661856534
 21
948.0453025101745
 31
0.0
  0
ARC
  5
21CF
330
1F
100
AcDbEntity
  8
10
100
AcDbCircle
 10
1578.012661856534
 20
925.0715063998157
 30
0.0
 40
0.5000000000000029
100
AcDbArc
 50
270.0
 51
0.0
  0
LINE
  5
21D0
330
1F
100
AcDbEntity
  8
10
100
AcDbLine
 10
1572.012661856534
 20
947.8453025101744
 30
0.0
 11
1573.012661856534
 21
947.8453025101744
 31
0.0
  0
LINE
  5
21D1
330
1F
100
AcDbEntity
  8
10
100
AcDbLine
 10
1573.012661856534
 20
939.2453025101742
 30
0.0
 11
1572.012661856534
 21
939.2453025101742
 31
0.0
  0
LINE
  5
21D2
330
1F
100
AcDbEntity
  8
10
100
AcDbLine
 10
1572.012661856534
 20
939.2453025101742
 30
0.0
 11
1572.012661856534
 21
947.8453025101744
 31
0.0
  0
LINE
  5
21D3
330
1F
100
AcDbEntity
  8
10
100
AcDbLine
 10
1572.012661856534
 20
940.0453025101745
 30
0.0
 11
1572.012661856534
 21
947.0453025101745
 31
0.0
  0
LINE
  5
21D4
330
1F
100
AcDbEntity
  8
10
100
AcDbLine
 10
1572.012661856534
 20
947.0453025101745
 30
0.0
 11
1572.012661856534
 21
947.3453025101743
 31
0.0
  0
ARC
  5
21D5
330
1F
100
AcDbEntity
  8
10
100
AcDbCircle
 10
1572.012661856534
 20
943.545302510174
 30
0.0
 40
3.500000000000153
100
AcDbArc
 50
236.6329870307644
 51
270.0
  0
ARC
  5
21D6
330
1F
100
AcDbEntity
  8
10
100
AcDbCircle
 10
1572.012661856534
 20
943.545302510174
 30
0.0
 40
3.500000000000001
100
AcDbArc
 50
90.0
 51
123.3670129692354
  0
LINE
  5
21D7
330
1F
100
AcDbEntity
  8
10
100
AcDbLine
 10
1569.412661856534
 20
945.2156318190233
 30
0.0
 11
1569.412661856534
 21
941.8749732013257
 31
0.0
  0
ARC
  5
21D8
330
1F
100
AcDbEntity
  8
10
100
AcDbCircle
 10
1570.912661856534
 20
945.2156318190233
 30
0.0
 40
1.50000000000023
100
AcDbArc
 50
123.3670129692371
 51
180.0
  0
ARC
  5
21D9
330
1F
100
AcDbEntity
  8
10
100
AcDbCircle
 10
1570.912661856534
 20
941.8749732013257
 30
0.0
 40
1.5
100
AcDbArc
 50
180.0
 51
236.6329870307627
  0
ARC
  5
21DA
330
1F
100
AcDbEntity
  8
10
100
AcDbCircle
 10
1570.912661856534
 20
943.545302510174
 30
0.0
 40
1.499999999999995
100
AcDbArc
 50
90.0
 51
180.0
  0
LINE
  5
21DB
330
1F
100
AcDbEntity
  8
10
100
AcDbLine
 10
1569.412661856534
 20
943.545302510174
 30
0.0
 11
1569.412661856534
 21
943.545302510174
 31
0.0
  0
ARC
  5
21DC
330
1F
100
AcDbEntity
  8
10
100
AcDbCircle
 10
1570.912661856534
 20
943.545302510174
 30
0.0
 40
1.5
100
AcDbArc
 50
180.0
 51
270.0
  0
ARC
  5
21DD
330
1F
100
AcDbEntity
  8
10
100
AcDbCircle
 10
1582.012661856534
 20
937.0453025101742
 30
0.0
 40
0.5000000000000029
100
AcDbArc
 50
90.0
 51
180.0
  0
LINE
  5
21DE
330
1F
100
AcDbEntity
  8
10
100
AcDbLine
 10
1572.012661856534
 20
958.0453025101745
 30
0.0
 11
1572.012661856534
 21
958.3453025101739
 31
0.0
  0
ARC
  5
21DF
330
1F
100
AcDbEntity
  8
10
100
AcDbCircle
 10
1572.012661856534
 20
954.5453025101744
 30
0.0
 40
3.500000000000144
100
AcDbArc
 50
236.6329870307644
 51
270.0
  0
ARC
  5
21E0
330
1F
100
AcDbEntity
  8
10
100
AcDbCircle
 10
1572.012661856534
 20
954.5453025101744
 30
0.0
 40
3.500000000000001
100
AcDbArc
 50
90.0
 51
123.3670129692354
  0
LINE
  5
21E1
330
1F
100
AcDbEntity
  8
10
100
AcDbLine
 10
1569.412661856534
 20
956.2156318190233
 30
0.0
 11
1569.412661856534
 21
952.8749732013253
 31
0.0
  0
ARC
  5
21E2
330
1F
100
AcDbEntity
  8
10
100
AcDbCircle
 10
1570.912661856534
 20
956.2156318190233
 30
0.0
 40
1.50000000000023
100
AcDbArc
 50
123.3670129692371
 51
180.0
  0
ARC
  5
21E3
330
1F
100
AcDbEntity
  8
10
100
AcDbCircle
 10
1570.912661856534
 20
952.8749732013253
 30
0.0
 40
1.5
100
AcDbArc
 50
180.0
 51
236.6329870307627
  0
ARC
  5
21E4
330
1F
100
AcDbEntity
  8
10
100
AcDbCircle
 10
1570.912661856534
 20
954.5453025101744
 30
0.0
 40
1.499999999999995
100
AcDbArc
 50
90.0
 51
180.0
  0
LINE
  5
21E5
330
1F
100
AcDbEntity
  8
10
100
AcDbLine
 10
1569.412661856534
 20
954.5453025101744
 30
0.0
 11
1569.412661856534
 21
954.5453025101744
 31
0.0
  0
ARC
  5
21E6
330
1F
100
AcDbEntity
  8
10
100
AcDbCircle
 10
1570.912661856534
 20
954.5453025101744
 30
0.0
 40
1.5
100
AcDbArc
 50
180.0
 51
270.0
  0
LINE
  5
21E7
330
1F
100
AcDbEntity
  8
10
100
AcDbLine
 10
1573.012661856534
 20
950.2453025101743
 30
0.0
 11
1572.012661856534
 21
950.2453025101743
 31
0.0
  0
LINE
  5
21E8
330
1F
100
AcDbEntity
  8
10
100
AcDbLine
 10
1572.012661856534
 20
950.2453025101743
 30
0.0
 11
1572.012661856534
 21
958.8453025101744
 31
0.0
  0
LINE
  5
21E9
330
1F
100
AcDbEntity
  8
10
100
AcDbLine
 10
1572.012661856534
 20
958.8453025101744
 30
0.0
 11
1573.012661856534
 21
958.8453025101744
 31
0.0
  0
LINE
  5
21EA
330
1F
100
AcDbEntity
  8
10
100
AcDbLine
 10
1572.012661856534
 20
962.0453025101742
 30
0.0
 11
1572.012661856534
 21
969.0453025101742
 31
0.0
  0
LINE
  5
21EB
330
1F
100
AcDbEntity
  8
10
100
AcDbLine
 10
1572.012661856534
 20
969.0453025101742
 30
0.0
 11
1572.012661856534
 21
969.3453025101742
 31
0.0
  0
ARC
  5
21EC
330
1F
100
AcDbEntity
  8
10
100
AcDbCircle
 10
1572.012661856534
 20
965.545302510174
 30
0.0
 40
3.500000000000144
100
AcDbArc
 50
236.6329870307644
 51
270.0
  0
ARC
  5
21ED
330
1F
100
AcDbEntity
  8
10
100
AcDbCircle
 10
1572.012661856534
 20
965.545302510174
 30
0.0
 40
3.500000000000001
100
AcDbArc
 50
90.0
 51
123.3670129692354
  0
LINE
  5
21EE
330
1F
100
AcDbEntity
  8
10
100
AcDbLine
 10
1569.412661856534
 20
967.2156318190232
 30
0.0
 11
1569.412661856534
 21
963.874973201325
 31
0.0
  0
ARC
  5
21EF
330
1F
100
AcDbEntity
  8
10
100
AcDbCircle
 10
1570.912661856534
 20
967.2156318190232
 30
0.0
 40
1.50000000000023
100
AcDbArc
 50
123.3670129692371
 51
180.0
  0
ARC
  5
21F0
330
1F
100
AcDbEntity
  8
10
100
AcDbCircle
 10
1570.912661856534
 20
963.874973201325
 30
0.0
 40
1.5
100
AcDbArc
 50
180.0
 51
236.6329870307627
  0
ARC
  5
21F1
330
1F
100
AcDbEntity
  8
10
100
AcDbCircle
 10
1570.912661856534
 20
965.545302510174
 30
0.0
 40
1.500000000000017
100
AcDbArc
 50
90.0
 51
180.0
  0
LINE
  5
21F2
330
1F
100
AcDbEntity
  8
10
100
AcDbLine
 10
1569.412661856534
 20
965.545302510174
 30
0.0
 11
1569.412661856534
 21
965.545302510174
 31
0.0
  0
ARC
  5
21F3
330
1F
100
AcDbEntity
  8
10
100
AcDbCircle
 10
1570.912661856534
 20
965.545302510174
 30
0.0
 40
1.5
100
AcDbArc
 50
180.0
 51
270.0
  0
LINE
  5
21F4
330
1F
100
AcDbEntity
  8
10
100
AcDbLine
 10
1573.012661856534
 20
961.2453025101739
 30
0.0
 11
1572.012661856534
 21
961.2453025101739
 31
0.0
  0
LINE
  5
21F5
330
1F
100
AcDbEntity
  8
10
100
AcDbLine
 10
1572.012661856534
 20
961.2453025101739
 30
0.0
 11
1572.012661856534
 21
969.845302510174
 31
0.0
  0
LINE
  5
21F6
330
1F
100
AcDbEntity
  8
10
100
AcDbLine
 10
1572.012661856534
 20
969.845302510174
 30
0.0
 11
1573.012661856534
 21
969.845302510174
 31
0.0
  0
LINE
  5
21F7
330
1F
100
AcDbEntity
  8
10
100
AcDbLine
 10
1572.012661856534
 20
951.0453025101742
 30
0.0
 11
1572.012661856534
 21
958.0453025101745
 31
0.0
  0
LINE
  5
21F8
330
1F
100
AcDbEntity
  8
10
100
AcDbLine
 10
1573.012661856534
 20
950.0453025101744
 30
0.0
 11
1573.012661856534
 21
959.0453025101744
 31
0.0
  0
LINE
  5
21F9
330
1F
100
AcDbEntity
  8
10
100
AcDbLine
 10
1573.012661856534
 20
961.045302510174
 30
0.0
 11
1573.012661856534
 21
970.0453025101742
 31
0.0
  0
LINE
  5
21FA
330
1F
100
AcDbEntity
  8
10
100
AcDbLine
 10
1599.762661856534
 20
970.0453025101742
 30
0.0
 11
1597.262661856534
 21
970.0453025101742
 31
0.0
  0
LINE
  5
21FB
330
1F
100
AcDbEntity
  8
10
100
AcDbLine
 10
1594.762661856534
 20
970.0453025101742
 30
0.0
 11
1592.262661856534
 21
970.0453025101742
 31
0.0
  0
LINE
  5
21FC
330
1F
100
AcDbEntity
  8
10
100
AcDbLine
 10
1609.762661856534
 20
970.0453025101742
 30
0.0
 11
1607.262661856534
 21
970.0453025101742
 31
0.0
  0
LINE
  5
21FD
330
1F
100
AcDbEntity
  8
10
100
AcDbLine
 10
1604.762661856534
 20
970.0453025101742
 30
0.0
 11
1602.262661856534
 21
970.0453025101742
 31
0.0
  0
LINE
  5
21FE
330
1F
100
AcDbEntity
  8
10
100
AcDbLine
 10
1570.512661856534
 20
978.5453025101745
 30
0.0
 11
1570.512661856534
 21
995.5453025101739
 31
0.0
  0
LINE
  5
21FF
330
1F
100
AcDbEntity
  8
10
100
AcDbLine
 10
1570.512661856534
 20
1002.545302510174
 30
0.0
 11
1570.512661856534
 21
1019.545302510173
 31
0.0
  0
LINE
  5
2200
330
1F
100
AcDbEntity
  8
10
100
AcDbLine
 10
1599.762661856534
 20
985.0453025101742
 30
0.0
 11
1597.262661856534
 21
985.0453025101742
 31
0.0
  0
LINE
  5
2201
330
1F
100
AcDbEntity
  8
10
100
AcDbLine
 10
1594.762661856534
 20
985.0453025101742
 30
0.0
 11
1592.262661856534
 21
985.0453025101742
 31
0.0
  0
LINE
  5
2202
330
1F
100
AcDbEntity
  8
10
100
AcDbLine
 10
1609.762661856534
 20
985.0453025101742
 30
0.0
 11
1607.262661856534
 21
985.0453025101742
 31
0.0
  0
LINE
  5
2203
330
1F
100
AcDbEntity
  8
10
100
AcDbLine
 10
1604.762661856534
 20
985.0453025101742
 30
0.0
 11
1602.262661856534
 21
985.0453025101742
 31
0.0
  0
LINE
  5
2204
330
1F
100
AcDbEntity
  8
10
100
AcDbLine
 10
1599.762661856534
 20
1020.045302510174
 30
0.0
 11
1597.262661856534
 21
1020.045302510174
 31
0.0
  0
LINE
  5
2205
330
1F
100
AcDbEntity
  8
10
100
AcDbLine
 10
1594.762661856534
 20
1020.045302510174
 30
0.0
 11
1592.262661856534
 21
1020.045302510174
 31
0.0
  0
LINE
  5
2206
330
1F
100
AcDbEntity
  8
10
100
AcDbLine
 10
1609.762661856534
 20
1020.045302510174
 30
0.0
 11
1607.262661856534
 21
1020.045302510174
 31
0.0
  0
LINE
  5
2207
330
1F
100
AcDbEntity
  8
10
100
AcDbLine
 10
1604.762661856534
 20
1020.045302510174
 30
0.0
 11
1602.262661856534
 21
1020.045302510174
 31
0.0
  0
LINE
  5
2208
330
1F
100
AcDbEntity
  8
10
100
AcDbLine
 10
1564.412661856534
 20
1136.405302510173
 30
0.0
 11
1564.412661856534
 21
1081.405302510173
 31
0.0
  0
LINE
  5
2209
330
1F
100
AcDbEntity
  8
10
100
AcDbLine
 10
1567.512661856534
 20
1155.931506399815
 30
0.0
 11
1567.512661856534
 21
1032.41892074002
 31
0.0
  0
LINE
  5
220A
330
1F
100
AcDbEntity
  8
10
100
AcDbLine
 10
1587.512661856534
 20
1186.431506399815
 30
0.0
 11
1587.512661856534
 21
1072.479661985476
 31
0.0
  0
LINE
  5
220B
330
1F
100
AcDbEntity
  8
10
100
AcDbLine
 10
1587.012661856534
 20
1186.931506399815
 30
0.0
 11
1587.012661856534
 21
1071.870447487303
 31
0.0
  0
LINE
  5
220C
330
1F
100
AcDbEntity
  8
10
100
AcDbLine
 10
1561.512661856534
 20
1138.64189126776
 30
0.0
 11
1561.512661856534
 21
1079.168713752586
 31
0.0
  0
LINE
  5
220D
330
1F
100
AcDbEntity
  8
10
100
AcDbLine
 10
1563.512661856534
 20
1137.692926701046
 30
0.0
 11
1563.512661856534
 21
1080.117678319302
 31
0.0
  0
LINE
  5
220E
330
1F
100
AcDbEntity
  8
10
100
AcDbLine
 10
1587.512661856534
 20
1032.593458095834
 30
0.0
 11
1567.512661856534
 21
1032.41892074002
 31
0.0
  0
LINE
  5
220F
330
1F
100
AcDbEntity
  8
10
100
AcDbLine
 10
1578.512661856534
 20
1025.071506399815
 30
0.0
 11
1568.012661856534
 21
1025.071506399815
 31
0.0
  0
LINE
  5
2210
330
1F
100
AcDbEntity
  8
10
100
AcDbLine
 10
1563.600891956611
 20
1024.045302510174
 30
0.0
 11
1578.512661856534
 21
1024.045302510174
 31
0.0
  0
ARC
  5
2211
330
1F
100
AcDbEntity
  8
10
100
AcDbCircle
 10
1550.512661856534
 20
1024.932493283275
 30
0.0
 40
3.000000000000011
100
AcDbArc
 50
105.0000000000011
 51
180.0
  0
LINE
  5
2212
330
1F
100
AcDbEntity
  8
10
100
AcDbLine
 10
1549.736204721225
 20
1027.830270762142
 30
0.0
 11
1567.512661856534
 21
1032.593458095834
 31
0.0
  0
LINE
  5
2213
330
1F
100
AcDbEntity
  8
10
100
AcDbLine
 10
1567.512661856534
 20
1032.41892074002
 30
0.0
 11
1567.512661856534
 21
1025.571506399815
 31
0.0
  0
ARC
  5
2214
330
1F
100
AcDbEntity
  8
10
100
AcDbCircle
 10
1568.012661856534
 20
1025.571506399815
 30
0.0
 40
0.5000000000000029
100
AcDbArc
 50
180.0
 51
270.0
  0
LINE
  5
2215
330
1F
100
AcDbEntity
  8
10
100
AcDbLine
 10
1567.512661856534
 20
1032.593458095834
 30
0.0
 11
1567.512661856534
 21
1025.093458095834
 31
0.0
  0
LINE
  5
2216
330
1F
100
AcDbEntity
  8
10
100
AcDbLine
 10
1564.412661856534
 20
1081.405302510173
 30
0.0
 11
1567.512661856534
 21
1081.405302510173
 31
0.0
  0
ARC
  5
2217
330
1F
100
AcDbEntity
  8
10
100
AcDbCircle
 10
1562.512661856534
 20
1079.168713752586
 30
0.0
 40
1.0
100
AcDbArc
 50
180.0
 51
267.0000000000009
  0
LINE
  5
2218
330
1F
100
AcDbEntity
  8
10
100
AcDbLine
 10
1562.460325900291
 20
1078.170084217832
 30
0.0
 11
1567.512661856536
 21
1077.905302510173
 31
0.0
  0
LINE
  5
2219
330
1F
100
AcDbEntity
  8
10
100
AcDbLine
 10
1563.512661856534
 20
1080.117678319302
 30
0.0
 11
1567.512661856534
 21
1079.908047202169
 31
0.0
  0
LINE
  5
221A
330
1F
100
AcDbEntity
  8
10
100
AcDbLine
 10
1565.414585645181
 20
1080.018002717173
 30
0.0
 11
1565.414585645181
 21
1081.405302510173
 31
0.0
  0
LINE
  5
221B
330
1F
100
AcDbEntity
  8
10
100
AcDbLine
 10
1567.012661856534
 20
1079.934251091811
 30
0.0
 11
1567.012661856534
 21
1081.405302510173
 31
0.0
  0
LINE
  5
221C
330
1F
100
AcDbEntity
  8
10
100
AcDbLine
 10
1587.512661856534
 20
1032.593458095834
 30
0.0
 11
1587.512661856534
 21
1036.593458095834
 31
0.0
  0
ARC
  5
221D
330
1F
100
AcDbEntity
  8
10
100
AcDbCircle
 10
1587.512661856534
 20
1071.979661985476
 30
0.0
 40
0.5000000000000316
100
AcDbArc
 50
90.0
 51
192.6167771362602
  0
LINE
  5
221E
330
1F
100
AcDbEntity
  8
10
100
AcDbLine
 10
1599.762661856534
 20
1035.045302510174
 30
0.0
 11
1597.262661856534
 21
1035.045302510174
 31
0.0
  0
LINE
  5
221F
330
1F
100
AcDbEntity
  8
10
100
AcDbLine
 10
1594.762661856534
 20
1035.045302510174
 30
0.0
 11
1592.262661856534
 21
1035.045302510174
 31
0.0
  0
LINE
  5
2220
330
1F
100
AcDbEntity
  8
10
100
AcDbLine
 10
1609.762661856534
 20
1035.045302510174
 30
0.0
 11
1607.262661856534
 21
1035.045302510174
 31
0.0
  0
LINE
  5
2221
330
1F
100
AcDbEntity
  8
10
100
AcDbLine
 10
1604.762661856534
 20
1035.045302510174
 30
0.0
 11
1602.262661856534
 21
1035.045302510174
 31
0.0
  0
LINE
  5
2222
330
1F
100
AcDbEntity
  8
10
100
AcDbLine
 10
1599.762661856534
 20
1070.045302510174
 30
0.0
 11
1597.262661856534
 21
1070.045302510174
 31
0.0
  0
LINE
  5
2223
330
1F
100
AcDbEntity
  8
10
100
AcDbLine
 10
1594.762661856534
 20
1070.045302510174
 30
0.0
 11
1592.262661856534
 21
1070.045302510174
 31
0.0
  0
LINE
  5
2224
330
1F
100
AcDbEntity
  8
10
100
AcDbLine
 10
1609.762661856534
 20
1070.045302510174
 30
0.0
 11
1607.262661856534
 21
1070.045302510174
 31
0.0
  0
LINE
  5
2225
330
1F
100
AcDbEntity
  8
10
100
AcDbLine
 10
1604.762661856534
 20
1070.045302510174
 30
0.0
 11
1602.262661856534
 21
1070.045302510174
 31
0.0
  0
LINE
  5
2226
330
1F
100
AcDbEntity
  8
10
100
AcDbLine
 10
1599.762661856534
 20
1085.045302510174
 30
0.0
 11
1597.262661856534
 21
1085.045302510174
 31
0.0
  0
LINE
  5
2227
330
1F
100
AcDbEntity
  8
10
100
AcDbLine
 10
1594.762661856534
 20
1085.045302510174
 30
0.0
 11
1592.262661856534
 21
1085.045302510174
 31
0.0
  0
LINE
  5
2228
330
1F
100
AcDbEntity
  8
10
100
AcDbLine
 10
1609.762661856534
 20
1085.045302510174
 30
0.0
 11
1607.262661856534
 21
1085.045302510174
 31
0.0
  0
LINE
  5
2229
330
1F
100
AcDbEntity
  8
10
100
AcDbLine
 10
1604.762661856534
 20
1085.045302510174
 30
0.0
 11
1602.262661856534
 21
1085.045302510174
 31
0.0
  0
LINE
  5
222A
330
1F
100
AcDbEntity
  8
10
100
AcDbLine
 10
1599.762661856534
 20
1120.045302510174
 30
0.0
 11
1597.262661856534
 21
1120.045302510174
 31
0.0
  0
LINE
  5
222B
330
1F
100
AcDbEntity
  8
10
100
AcDbLine
 10
1594.762661856534
 20
1120.045302510174
 30
0.0
 11
1592.262661856534
 21
1120.045302510174
 31
0.0
  0
LINE
  5
222C
330
1F
100
AcDbEntity
  8
10
100
AcDbLine
 10
1609.762661856534
 20
1120.045302510174
 30
0.0
 11
1607.262661856534
 21
1120.045302510174
 31
0.0
  0
LINE
  5
222D
330
1F
100
AcDbEntity
  8
10
100
AcDbLine
 10
1604.762661856534
 20
1120.045302510174
 30
0.0
 11
1602.262661856534
 21
1120.045302510174
 31
0.0
  0
LINE
  5
222E
330
1F
100
AcDbEntity
  8
10
100
AcDbLine
 10
1568.012661856534
 20
1159.405302510174
 30
0.0
 11
1570.012661856534
 21
1159.405302510174
 31
0.0
  0
LINE
  5
222F
330
1F
100
AcDbEntity
  8
10
100
AcDbLine
 10
1567.512661856534
 20
1162.931506399815
 30
0.0
 11
1570.012661856534
 21
1162.931506399815
 31
0.0
  0
LINE
  5
2230
330
1F
100
AcDbEntity
  8
10
100
AcDbLine
 10
1567.512661856534
 20
1155.931506399815
 30
0.0
 11
1570.012661856534
 21
1155.931506399815
 31
0.0
  0
ARC
  5
2231
330
1F
100
AcDbEntity
  8
10
100
AcDbCircle
 10
1597.512661856534
 20
1215.581927591534
 30
0.0
 40
30.00000000000003
100
AcDbArc
 50
162.3479617698537
 51
180.0
  0
LINE
  5
2232
330
1F
100
AcDbEntity
  8
10
100
AcDbLine
 10
1567.512661856534
 20
1215.581927591534
 30
0.0
 11
1567.512661856534
 21
1159.905302510173
 31
0.0
  0
ARC
  5
2233
330
1F
100
AcDbEntity
  8
10
100
AcDbCircle
 10
1594.512661856534
 20
1173.86756811623
 30
0.0
 40
29.99999999999994
100
AcDbArc
 50
160.3162775136998
 51
180.0
  0
LINE
  5
2234
330
1F
100
AcDbEntity
  8
10
100
AcDbLine
 10
1564.412661856534
 20
1136.405302510173
 30
0.0
 11
1567.512661856534
 21
1136.405302510173
 31
0.0
  0
LINE
  5
2235
330
1F
100
AcDbEntity
  8
10
100
AcDbLine
 10
1565.414585645181
 20
1136.405302510173
 30
0.0
 11
1565.414585645181
 21
1137.792602303173
 31
0.0
  0
LINE
  5
2236
330
1F
100
AcDbEntity
  8
10
100
AcDbLine
 10
1567.012661856534
 20
1136.405302510173
 30
0.0
 11
1567.012661856534
 21
1137.876353928537
 31
0.0
  0
ARC
  5
2237
330
1F
100
AcDbEntity
  8
10
100
AcDbCircle
 10
1562.512661856534
 20
1138.64189126776
 30
0.0
 40
1.000000000000065
100
AcDbArc
 50
93.00000000000556
 51
180.0
  0
LINE
  5
2238
330
1F
100
AcDbEntity
  8
10
100
AcDbLine
 10
1562.460325900291
 20
1139.640520802514
 30
0.0
 11
1567.512661856536
 21
1139.905302510173
 31
0.0
  0
LINE
  5
2239
330
1F
100
AcDbEntity
  8
10
100
AcDbLine
 10
1563.512661856534
 20
1137.692926701046
 30
0.0
 11
1567.512661856534
 21
1137.902557818178
 31
0.0
  0
ARC
  5
223A
330
1F
100
AcDbEntity
  8
10
100
AcDbCircle
 10
1568.012661856534
 20
1159.905302510173
 30
0.0
 40
0.5000000000000029
100
AcDbArc
 50
180.0
 51
270.0
  0
LINE
  5
223B
330
1F
100
AcDbEntity
  8
10
100
AcDbLine
 10
1567.512661856534
 20
1165.931506399815
 30
0.0
 11
1567.512661856534
 21
1162.931506399815
 31
0.0
  0
ARC
  5
223C
330
1F
100
AcDbEntity
  8
10
100
AcDbCircle
 10
1566.926875418906
 20
1160.405302510173
 30
0.0
 40
0.9999999999999284
100
AcDbArc
 50
224.9999999999976
 51
270.0
  0
ARC
  5
223D
330
1F
100
AcDbEntity
  8
10
100
AcDbCircle
 10
1565.512661856534
 20
1161.819516072547
 30
0.0
 40
0.9999999999999971
100
AcDbArc
 50
180.0
 51
225.0000000000069
  0
LINE
  5
223E
330
1F
100
AcDbEntity
  8
10
100
AcDbLine
 10
1566.21976863772
 20
1159.698195728987
 30
0.0
 11
1564.805555075347
 21
1161.11240929136
 31
0.0
  0
LINE
  5
223F
330
1F
100
AcDbEntity
  8
10
100
AcDbLine
 10
1566.926875418906
 20
1159.405302510174
 30
0.0
 11
1568.012661856534
 21
1159.405302510174
 31
0.0
  0
LINE
  5
2240
330
1F
100
AcDbEntity
  8
10
100
AcDbLine
 10
1564.512661856534
 20
1173.86756811623
 30
0.0
 11
1564.512661856534
 21
1161.819516072547
 31
0.0
  0
ARC
  5
2241
330
1F
100
AcDbEntity
  8
10
100
AcDbCircle
 10
1569.090372450378
 20
1182.961918084734
 30
0.0
 40
3.000000000000001
100
AcDbArc
 50
121.7290884710793
 51
160.3162775136983
  0
ARC
  5
2242
330
1F
100
AcDbEntity
  8
10
100
AcDbCircle
 10
1597.512661856534
 20
1215.581927591534
 30
0.0
 40
30.00000000000005
100
AcDbArc
 50
176.1973934261183
 51
180.0
  0
ARC
  5
2243
330
1F
100
AcDbEntity
  8
10
100
AcDbCircle
 10
1570.012661856534
 20
1158.905302510173
 30
0.0
 40
0.5000000000000029
100
AcDbArc
 50
0.0
 51
90.0
  0
ARC
  5
2244
330
1F
100
AcDbEntity
  8
10
100
AcDbCircle
 10
1570.012661856534
 20
1162.431506399815
 30
0.0
 40
0.5000000000000029
100
AcDbArc
 50
0.0
 51
90.0
  0
LINE
  5
2245
330
1F
100
AcDbEntity
  8
10
100
AcDbLine
 10
1570.512661856534
 20
1162.431506399815
 30
0.0
 11
1570.512661856534
 21
1156.431506399815
 31
0.0
  0
ARC
  5
2246
330
1F
100
AcDbEntity
  8
10
100
AcDbCircle
 10
1570.012661856534
 20
1156.431506399815
 30
0.0
 40
0.4999999999999914
100
AcDbArc
 50
270.0
 51
0.0
  0
LINE
  5
2247
330
1F
100
AcDbEntity
  8
10
100
AcDbLine
 10
1599.762661856534
 20
1135.045302510174
 30
0.0
 11
1597.262661856534
 21
1135.045302510174
 31
0.0
  0
LINE
  5
2248
330
1F
100
AcDbEntity
  8
10
100
AcDbLine
 10
1594.762661856534
 20
1135.045302510174
 30
0.0
 11
1592.262661856534
 21
1135.045302510174
 31
0.0
  0
LINE
  5
2249
330
1F
100
AcDbEntity
  8
10
100
AcDbLine
 10
1609.762661856534
 20
1135.045302510174
 30
0.0
 11
1607.262661856534
 21
1135.045302510174
 31
0.0
  0
LINE
  5
224A
330
1F
100
AcDbEntity
  8
10
100
AcDbLine
 10
1604.762661856534
 20
1135.045302510174
 30
0.0
 11
1602.262661856534
 21
1135.045302510174
 31
0.0
  0
LINE
  5
224B
330
1F
100
AcDbEntity
  8
10
100
AcDbLine
 10
1599.762661856534
 20
1170.045302510174
 30
0.0
 11
1597.262661856534
 21
1170.045302510174
 31
0.0
  0
LINE
  5
224C
330
1F
100
AcDbEntity
  8
10
100
AcDbLine
 10
1594.762661856534
 20
1170.045302510174
 30
0.0
 11
1592.262661856534
 21
1170.045302510174
 31
0.0
  0
LINE
  5
224D
330
1F
100
AcDbEntity
  8
10
100
AcDbLine
 10
1609.762661856534
 20
1170.045302510174
 30
0.0
 11
1607.262661856534
 21
1170.045302510174
 31
0.0
  0
LINE
  5
224E
330
1F
100
AcDbEntity
  8
10
100
AcDbLine
 10
1604.762661856534
 20
1170.045302510174
 30
0.0
 11
1602.262661856534
 21
1170.045302510174
 31
0.0
  0
ARC
  5
224F
330
1F
100
AcDbEntity
  8
10
100
AcDbCircle
 10
1587.512661856534
 20
1186.931506399815
 30
0.0
 40
0.4999999999999973
100
AcDbArc
 50
180.0
 51
270.0
  0
ARC
  5
2250
330
1F
100
AcDbEntity
  8
10
100
AcDbCircle
 10
1587.512661856534
 20
1186.931506399815
 30
0.0
 40
0.4999999999999973
100
AcDbArc
 50
180.0
 51
270.0
  0
LINE
  5
2251
330
1F
100
AcDbEntity
  8
10
100
AcDbLine
 10
1599.762661856534
 20
1185.045302510174
 30
0.0
 11
1597.262661856534
 21
1185.045302510174
 31
0.0
  0
LINE
  5
2252
330
1F
100
AcDbEntity
  8
10
100
AcDbLine
 10
1594.762661856534
 20
1185.045302510174
 30
0.0
 11
1592.262661856534
 21
1185.045302510174
 31
0.0
  0
LINE
  5
2253
330
1F
100
AcDbEntity
  8
10
100
AcDbLine
 10
1609.762661856534
 20
1185.045302510174
 30
0.0
 11
1607.262661856534
 21
1185.045302510174
 31
0.0
  0
LINE
  5
2254
330
1F
100
AcDbEntity
  8
10
100
AcDbLine
 10
1604.762661856534
 20
1185.045302510174
 30
0.0
 11
1602.262661856534
 21
1185.045302510174
 31
0.0
  0
ARC
  5
2255
330
1F
100
AcDbEntity
  8
10
100
AcDbCircle
 10
1598.512661856534
 20
1206.295302510172
 30
0.0
 40
1.25
100
AcDbArc
 50
0.0
 51
180.0
  0
ARC
  5
2256
330
1F
100
AcDbEntity
  8
10
100
AcDbCircle
 10
1593.512661856534
 20
1206.295302510172
 30
0.0
 40
1.25
100
AcDbArc
 50
0.0
 51
180.0
  0
ARC
  5
2257
330
1F
100
AcDbEntity
  8
10
100
AcDbCircle
 10
1608.512661856534
 20
1206.295302510172
 30
0.0
 40
1.25
100
AcDbArc
 50
0.0
 51
180.0
  0
ARC
  5
2258
330
1F
100
AcDbEntity
  8
10
100
AcDbCircle
 10
1603.512661856534
 20
1206.295302510172
 30
0.0
 40
1.25
100
AcDbArc
 50
0.0
 51
180.0
  0
LINE
  5
2259
330
1F
100
AcDbEntity
  8
10
100
AcDbLine
 10
1644.762661856534
 20
898.7953025101765
 30
0.0
 11
1644.762661856534
 21
1206.295302510172
 31
0.0
  0
LINE
  5
225A
330
1F
100
AcDbEntity
  8
10
100
AcDbLine
 10
1642.262661856534
 20
898.7953025101765
 30
0.0
 11
1642.262661856534
 21
1206.295302510172
 31
0.0
  0
LINE
  5
225B
330
1F
100
AcDbEntity
  8
10
100
AcDbLine
 10
1639.762661856534
 20
898.7953025101765
 30
0.0
 11
1639.762661856534
 21
1206.295302510172
 31
0.0
  0
LINE
  5
225C
330
1F
100
AcDbEntity
  8
10
100
AcDbLine
 10
1634.762661856534
 20
898.7953025101765
 30
0.0
 11
1634.762661856534
 21
1206.295302510172
 31
0.0
  0
LINE
  5
225D
330
1F
100
AcDbEntity
  8
10
100
AcDbLine
 10
1637.262661856534
 20
898.7953025101765
 30
0.0
 11
1637.262661856534
 21
1206.295302510172
 31
0.0
  0
LINE
  5
225E
330
1F
100
AcDbEntity
  8
10
100
AcDbLine
 10
1632.262661856534
 20
898.7953025101765
 30
0.0
 11
1632.262661856534
 21
1206.295302510172
 31
0.0
  0
LINE
  5
225F
330
1F
100
AcDbEntity
  8
10
100
AcDbLine
 10
1629.762661856534
 20
898.7953025101765
 30
0.0
 11
1629.762661856534
 21
1206.295302510172
 31
0.0
  0
LINE
  5
2260
330
1F
100
AcDbEntity
  8
10
100
AcDbLine
 10
1627.262661856534
 20
898.7953025101765
 30
0.0
 11
1627.262661856534
 21
1206.295302510172
 31
0.0
  0
LINE
  5
2261
330
1F
100
AcDbEntity
  8
10
100
AcDbLine
 10
1624.762661856534
 20
898.7953025101765
 30
0.0
 11
1624.762661856534
 21
1206.295302510172
 31
0.0
  0
LINE
  5
2262
330
1F
100
AcDbEntity
  8
10
100
AcDbLine
 10
1622.262661856534
 20
898.7953025101765
 30
0.0
 11
1622.262661856534
 21
1206.295302510172
 31
0.0
  0
LINE
  5
2263
330
1F
100
AcDbEntity
  8
10
100
AcDbLine
 10
1619.762661856534
 20
898.7953025101765
 30
0.0
 11
1619.762661856534
 21
1206.295302510172
 31
0.0
  0
LINE
  5
2264
330
1F
100
AcDbEntity
  8
10
100
AcDbLine
 10
1617.262661856534
 20
898.7953025101765
 30
0.0
 11
1617.262661856534
 21
1206.295302510172
 31
0.0
  0
LINE
  5
2265
330
1F
100
AcDbEntity
  8
10
100
AcDbLine
 10
1614.762661856534
 20
898.7953025101765
 30
0.0
 11
1614.762661856534
 21
1206.295302510172
 31
0.0
  0
LINE
  5
2266
330
1F
100
AcDbEntity
  8
10
100
AcDbLine
 10
1612.262661856534
 20
898.7953025101765
 30
0.0
 11
1612.262661856534
 21
1206.295302510172
 31
0.0
  0
LINE
  5
2267
330
1F
100
AcDbEntity
  8
10
100
AcDbLine
 10
1727.262661856534
 20
898.7953025101765
 30
0.0
 11
1727.262661856534
 21
1206.295302510172
 31
0.0
  0
LINE
  5
2268
330
1F
100
AcDbEntity
  8
10
100
AcDbLine
 10
1729.762661856534
 20
898.7953025101765
 30
0.0
 11
1729.762661856534
 21
1206.295302510172
 31
0.0
  0
LINE
  5
2269
330
1F
100
AcDbEntity
  8
10
100
AcDbLine
 10
1722.262661856534
 20
898.7953025101765
 30
0.0
 11
1722.262661856534
 21
1206.295302510172
 31
0.0
  0
LINE
  5
226A
330
1F
100
AcDbEntity
  8
10
100
AcDbLine
 10
1724.762661856534
 20
898.7953025101765
 30
0.0
 11
1724.762661856534
 21
1206.295302510172
 31
0.0
  0
LINE
  5
226B
330
1F
100
AcDbEntity
  8
10
100
AcDbLine
 10
1717.262661856534
 20
898.7953025101765
 30
0.0
 11
1717.262661856534
 21
1206.295302510172
 31
0.0
  0
LINE
  5
226C
330
1F
100
AcDbEntity
  8
10
100
AcDbLine
 10
1719.762661856534
 20
898.7953025101765
 30
0.0
 11
1719.762661856534
 21
1206.295302510172
 31
0.0
  0
LINE
  5
226D
330
1F
100
AcDbEntity
  8
10
100
AcDbLine
 10
1712.262661856534
 20
898.7953025101765
 30
0.0
 11
1712.262661856534
 21
1206.295302510172
 31
0.0
  0
LINE
  5
226E
330
1F
100
AcDbEntity
  8
10
100
AcDbLine
 10
1714.762661856534
 20
898.7953025101765
 30
0.0
 11
1714.762661856534
 21
1206.295302510172
 31
0.0
  0
LINE
  5
226F
330
1F
100
AcDbEntity
  8
10
100
AcDbLine
 10
1707.262661856534
 20
898.7953025101765
 30
0.0
 11
1707.262661856534
 21
1206.295302510172
 31
0.0
  0
LINE
  5
2270
330
1F
100
AcDbEntity
  8
10
100
AcDbLine
 10
1709.762661856534
 20
898.7953025101765
 30
0.0
 11
1709.762661856534
 21
1206.295302510172
 31
0.0
  0
LINE
  5
2271
330
1F
100
AcDbEntity
  8
10
100
AcDbLine
 10
1702.262661856534
 20
898.7953025101765
 30
0.0
 11
1702.262661856534
 21
1206.295302510172
 31
0.0
  0
LINE
  5
2272
330
1F
100
AcDbEntity
  8
10
100
AcDbLine
 10
1704.762661856534
 20
898.7953025101765
 30
0.0
 11
1704.762661856534
 21
1206.295302510172
 31
0.0
  0
LINE
  5
2273
330
1F
100
AcDbEntity
  8
10
100
AcDbLine
 10
1697.262661856534
 20
898.7953025101765
 30
0.0
 11
1697.262661856534
 21
1206.295302510172
 31
0.0
  0
LINE
  5
2274
330
1F
100
AcDbEntity
  8
10
100
AcDbLine
 10
1699.762661856534
 20
898.7953025101765
 30
0.0
 11
1699.762661856534
 21
1206.295302510172
 31
0.0
  0
LINE
  5
2275
330
1F
100
AcDbEntity
  8
10
100
AcDbLine
 10
1692.262661856534
 20
898.7953025101765
 30
0.0
 11
1692.262661856534
 21
1206.295302510172
 31
0.0
  0
LINE
  5
2276
330
1F
100
AcDbEntity
  8
10
100
AcDbLine
 10
1694.762661856534
 20
898.7953025101765
 30
0.0
 11
1694.762661856534
 21
1206.295302510172
 31
0.0
  0
LINE
  5
2277
330
1F
100
AcDbEntity
  8
10
100
AcDbLine
 10
1687.262661856534
 20
898.7953025101765
 30
0.0
 11
1687.262661856534
 21
1206.295302510172
 31
0.0
  0
LINE
  5
2278
330
1F
100
AcDbEntity
  8
10
100
AcDbLine
 10
1689.762661856534
 20
898.7953025101765
 30
0.0
 11
1689.762661856534
 21
1206.295302510172
 31
0.0
  0
LINE
  5
2279
330
1F
100
AcDbEntity
  8
10
100
AcDbLine
 10
1682.262661856534
 20
898.7953025101765
 30
0.0
 11
1682.262661856534
 21
1206.295302510172
 31
0.0
  0
LINE
  5
227A
330
1F
100
AcDbEntity
  8
10
100
AcDbLine
 10
1684.762661856534
 20
898.7953025101765
 30
0.0
 11
1684.762661856534
 21
1206.295302510172
 31
0.0
  0
LINE
  5
227B
330
1F
100
AcDbEntity
  8
10
100
AcDbLine
 10
1677.262661856534
 20
898.7953025101765
 30
0.0
 11
1677.262661856534
 21
1206.295302510172
 31
0.0
  0
LINE
  5
227C
330
1F
100
AcDbEntity
  8
10
100
AcDbLine
 10
1679.762661856534
 20
898.7953025101765
 30
0.0
 11
1679.762661856534
 21
1206.295302510172
 31
0.0
  0
LINE
  5
227D
330
1F
100
AcDbEntity
  8
10
100
AcDbLine
 10
1672.262661856534
 20
898.7953025101765
 30
0.0
 11
1672.262661856534
 21
1206.295302510172
 31
0.0
  0
LINE
  5
227E
330
1F
100
AcDbEntity
  8
10
100
AcDbLine
 10
1674.762661856534
 20
898.7953025101765
 30
0.0
 11
1674.762661856534
 21
1206.295302510172
 31
0.0
  0
LINE
  5
227F
330
1F
100
AcDbEntity
  8
10
100
AcDbLine
 10
1667.262661856534
 20
898.7953025101765
 30
0.0
 11
1667.262661856534
 21
1206.295302510172
 31
0.0
  0
LINE
  5
2280
330
1F
100
AcDbEntity
  8
10
100
AcDbLine
 10
1669.762661856534
 20
898.7953025101765
 30
0.0
 11
1669.762661856534
 21
1206.295302510172
 31
0.0
  0
LINE
  5
2281
330
1F
100
AcDbEntity
  8
10
100
AcDbLine
 10
1662.262661856534
 20
898.7953025101765
 30
0.0
 11
1662.262661856534
 21
1206.295302510172
 31
0.0
  0
LINE
  5
2282
330
1F
100
AcDbEntity
  8
10
100
AcDbLine
 10
1664.762661856534
 20
898.7953025101765
 30
0.0
 11
1664.762661856534
 21
1206.295302510172
 31
0.0
  0
LINE
  5
2283
330
1F
100
AcDbEntity
  8
10
100
AcDbLine
 10
1657.262661856534
 20
898.7953025101765
 30
0.0
 11
1657.262661856534
 21
1206.295302510172
 31
0.0
  0
LINE
  5
2284
330
1F
100
AcDbEntity
  8
10
100
AcDbLine
 10
1659.762661856534
 20
898.7953025101765
 30
0.0
 11
1659.762661856534
 21
1206.295302510172
 31
0.0
  0
LINE
  5
2285
330
1F
100
AcDbEntity
  8
10
100
AcDbLine
 10
1652.262661856534
 20
898.7953025101765
 30
0.0
 11
1652.262661856534
 21
1206.295302510172
 31
0.0
  0
LINE
  5
2286
330
1F
100
AcDbEntity
  8
10
100
AcDbLine
 10
1654.762661856534
 20
898.7953025101765
 30
0.0
 11
1654.762661856534
 21
1206.295302510172
 31
0.0
  0
LINE
  5
2287
330
1F
100
AcDbEntity
  8
10
100
AcDbLine
 10
1647.262661856534
 20
898.7953025101765
 30
0.0
 11
1647.262661856534
 21
1206.295302510172
 31
0.0
  0
LINE
  5
2288
330
1F
100
AcDbEntity
  8
10
100
AcDbLine
 10
1649.762661856534
 20
898.7953025101765
 30
0.0
 11
1649.762661856534
 21
1206.295302510172
 31
0.0
  0
LINE
  5
2289
330
1F
100
AcDbEntity
  8
10
100
AcDbLine
 10
1734.512661856534
 20
867.5453025101742
 30
0.0
 11
1634.512661856534
 21
877.5453025101741
 31
0.0
  0
LINE
  5
228A
330
1F
100
AcDbEntity
  8
10
100
AcDbLine
 10
1611.512661856534
 20
888.0453025101742
 30
0.0
 11
1611.512661856534
 21
937.0453025101742
 31
0.0
  0
ARC
  5
228B
330
1F
100
AcDbEntity
  8
10
100
AcDbCircle
 10
1611.012661856534
 20
888.0453025101742
 30
0.0
 40
0.4999999999999973
100
AcDbArc
 50
270.0
 51
0.0
  0
ARC
  5
228C
330
1F
100
AcDbEntity
  8
10
100
AcDbCircle
 10
1613.512661856534
 20
898.7953025101765
 30
0.0
 40
1.25
100
AcDbArc
 50
180.0
 51
0.0
  0
ARC
  5
228D
330
1F
100
AcDbEntity
  8
10
100
AcDbCircle
 10
1618.512661856534
 20
898.7953025101765
 30
0.0
 40
1.25
100
AcDbArc
 50
180.0
 51
0.0
  0
LINE
  5
228E
330
1F
100
AcDbEntity
  8
10
100
AcDbLine
 10
1619.762661856534
 20
920.0453025101742
 30
0.0
 11
1617.262661856534
 21
920.0453025101742
 31
0.0
  0
LINE
  5
228F
330
1F
100
AcDbEntity
  8
10
100
AcDbLine
 10
1614.762661856534
 20
920.0453025101742
 30
0.0
 11
1612.262661856534
 21
920.0453025101742
 31
0.0
  0
ARC
  5
2290
330
1F
100
AcDbEntity
  8
10
100
AcDbCircle
 10
1623.512661856534
 20
898.7953025101765
 30
0.0
 40
1.25
100
AcDbArc
 50
180.0
 51
0.0
  0
ARC
  5
2291
330
1F
100
AcDbEntity
  8
10
100
AcDbCircle
 10
1628.512661856534
 20
898.7953025101765
 30
0.0
 40
1.25
100
AcDbArc
 50
180.0
 51
0.0
  0
LINE
  5
2292
330
1F
100
AcDbEntity
  8
10
100
AcDbLine
 10
1629.762661856534
 20
920.0453025101742
 30
0.0
 11
1627.262661856534
 21
920.0453025101742
 31
0.0
  0
LINE
  5
2293
330
1F
100
AcDbEntity
  8
10
100
AcDbLine
 10
1624.762661856534
 20
920.0453025101742
 30
0.0
 11
1622.262661856534
 21
920.0453025101742
 31
0.0
  0
ARC
  5
2294
330
1F
100
AcDbEntity
  8
10
100
AcDbCircle
 10
1633.512661856534
 20
898.7953025101765
 30
0.0
 40
1.25
100
AcDbArc
 50
180.0
 51
0.0
  0
LINE
  5
2295
330
1F
100
AcDbEntity
  8
10
100
AcDbLine
 10
1639.762661856534
 20
920.0453025101742
 30
0.0
 11
1637.262661856534
 21
920.0453025101742
 31
0.0
  0
LINE
  5
2296
330
1F
100
AcDbEntity
  8
10
100
AcDbLine
 10
1634.762661856534
 20
920.0453025101742
 30
0.0
 11
1632.262661856534
 21
920.0453025101742
 31
0.0
  0
ARC
  5
2297
330
1F
100
AcDbEntity
  8
10
100
AcDbCircle
 10
1638.512661856534
 20
898.7953025101765
 30
0.0
 40
1.25
100
AcDbArc
 50
180.0
 51
0.0
  0
ARC
  5
2298
330
1F
100
AcDbEntity
  8
10
100
AcDbCircle
 10
1648.512661856534
 20
898.7953025101765
 30
0.0
 40
1.25
100
AcDbArc
 50
180.0
 51
0.0
  0
LINE
  5
2299
330
1F
100
AcDbEntity
  8
10
100
AcDbLine
 10
1649.762661856534
 20
920.0453025101742
 30
0.0
 11
1647.262661856534
 21
920.0453025101742
 31
0.0
  0
LINE
  5
229A
330
1F
100
AcDbEntity
  8
10
100
AcDbLine
 10
1644.762661856534
 20
920.0453025101742
 30
0.0
 11
1642.262661856534
 21
920.0453025101742
 31
0.0
  0
ARC
  5
229B
330
1F
100
AcDbEntity
  8
10
100
AcDbCircle
 10
1643.512661856534
 20
898.7953025101765
 30
0.0
 40
1.25
100
AcDbArc
 50
180.0
 51
0.0
  0
ARC
  5
229C
330
1F
100
AcDbEntity
  8
10
100
AcDbCircle
 10
1653.512661856534
 20
898.7953025101765
 30
0.0
 40
1.25
100
AcDbArc
 50
180.0
 51
0.0
  0
ARC
  5
229D
330
1F
100
AcDbEntity
  8
10
100
AcDbCircle
 10
1658.512661856534
 20
898.7953025101765
 30
0.0
 40
1.25
100
AcDbArc
 50
180.0
 51
0.0
  0
LINE
  5
229E
330
1F
100
AcDbEntity
  8
10
100
AcDbLine
 10
1659.762661856534
 20
920.0453025101742
 30
0.0
 11
1657.262661856534
 21
920.0453025101742
 31
0.0
  0
LINE
  5
229F
330
1F
100
AcDbEntity
  8
10
100
AcDbLine
 10
1654.762661856534
 20
920.0453025101742
 30
0.0
 11
1652.262661856534
 21
920.0453025101742
 31
0.0
  0
ARC
  5
22A0
330
1F
100
AcDbEntity
  8
10
100
AcDbCircle
 10
1663.512661856534
 20
898.7953025101765
 30
0.0
 40
1.25
100
AcDbArc
 50
180.0
 51
0.0
  0
ARC
  5
22A1
330
1F
100
AcDbEntity
  8
10
100
AcDbCircle
 10
1668.512661856534
 20
898.7953025101765
 30
0.0
 40
1.25
100
AcDbArc
 50
180.0
 51
0.0
  0
LINE
  5
22A2
330
1F
100
AcDbEntity
  8
10
100
AcDbLine
 10
1669.762661856534
 20
920.0453025101742
 30
0.0
 11
1667.262661856534
 21
920.0453025101742
 31
0.0
  0
LINE
  5
22A3
330
1F
100
AcDbEntity
  8
10
100
AcDbLine
 10
1664.762661856534
 20
920.0453025101742
 30
0.0
 11
1662.262661856534
 21
920.0453025101742
 31
0.0
  0
ARC
  5
22A4
330
1F
100
AcDbEntity
  8
10
100
AcDbCircle
 10
1673.512661856534
 20
898.7953025101765
 30
0.0
 40
1.25
100
AcDbArc
 50
180.0
 51
0.0
  0
ARC
  5
22A5
330
1F
100
AcDbEntity
  8
10
100
AcDbCircle
 10
1678.512661856534
 20
898.7953025101765
 30
0.0
 40
1.25
100
AcDbArc
 50
180.0
 51
0.0
  0
LINE
  5
22A6
330
1F
100
AcDbEntity
  8
10
100
AcDbLine
 10
1679.762661856534
 20
920.0453025101742
 30
0.0
 11
1677.262661856534
 21
920.0453025101742
 31
0.0
  0
LINE
  5
22A7
330
1F
100
AcDbEntity
  8
10
100
AcDbLine
 10
1674.762661856534
 20
920.0453025101742
 30
0.0
 11
1672.262661856534
 21
920.0453025101742
 31
0.0
  0
ARC
  5
22A8
330
1F
100
AcDbEntity
  8
10
100
AcDbCircle
 10
1683.512661856534
 20
898.7953025101765
 30
0.0
 40
1.25
100
AcDbArc
 50
180.0
 51
0.0
  0
ARC
  5
22A9
330
1F
100
AcDbEntity
  8
10
100
AcDbCircle
 10
1688.512661856534
 20
898.7953025101765
 30
0.0
 40
1.25
100
AcDbArc
 50
180.0
 51
0.0
  0
LINE
  5
22AA
330
1F
100
AcDbEntity
  8
10
100
AcDbLine
 10
1689.762661856534
 20
920.0453025101742
 30
0.0
 11
1687.262661856534
 21
920.0453025101742
 31
0.0
  0
LINE
  5
22AB
330
1F
100
AcDbEntity
  8
10
100
AcDbLine
 10
1684.762661856534
 20
920.0453025101742
 30
0.0
 11
1682.262661856534
 21
920.0453025101742
 31
0.0
  0
LINE
  5
22AC
330
1F
100
AcDbEntity
  8
10
100
AcDbLine
 10
1619.762661856534
 20
935.0453025101742
 30
0.0
 11
1617.262661856534
 21
935.0453025101742
 31
0.0
  0
LINE
  5
22AD
330
1F
100
AcDbEntity
  8
10
100
AcDbLine
 10
1614.762661856534
 20
935.0453025101742
 30
0.0
 11
1612.262661856534
 21
935.0453025101742
 31
0.0
  0
ARC
  5
22AE
330
1F
100
AcDbEntity
  8
10
100
AcDbCircle
 10
1611.012661856534
 20
937.0453025101742
 30
0.0
 40
0.4999999999999914
100
AcDbArc
 50
0.0
 51
90.0
  0
LINE
  5
22AF
330
1F
100
AcDbEntity
  8
10
100
AcDbLine
 10
1629.762661856534
 20
935.0453025101742
 30
0.0
 11
1627.262661856534
 21
935.0453025101742
 31
0.0
  0
LINE
  5
22B0
330
1F
100
AcDbEntity
  8
10
100
AcDbLine
 10
1624.762661856534
 20
935.0453025101742
 30
0.0
 11
1622.262661856534
 21
935.0453025101742
 31
0.0
  0
LINE
  5
22B1
330
1F
100
AcDbEntity
  8
10
100
AcDbLine
 10
1619.762661856534
 20
970.0453025101742
 30
0.0
 11
1617.262661856534
 21
970.0453025101742
 31
0.0
  0
LINE
  5
22B2
330
1F
100
AcDbEntity
  8
10
100
AcDbLine
 10
1614.762661856534
 20
970.0453025101742
 30
0.0
 11
1612.262661856534
 21
970.0453025101742
 31
0.0
  0
LINE
  5
22B3
330
1F
100
AcDbEntity
  8
10
100
AcDbLine
 10
1629.762661856534
 20
970.0453025101742
 30
0.0
 11
1627.262661856534
 21
970.0453025101742
 31
0.0
  0
LINE
  5
22B4
330
1F
100
AcDbEntity
  8
10
100
AcDbLine
 10
1624.762661856534
 20
970.0453025101742
 30
0.0
 11
1622.262661856534
 21
970.0453025101742
 31
0.0
  0
LINE
  5
22B5
330
1F
100
AcDbEntity
  8
10
100
AcDbLine
 10
1639.762661856534
 20
935.0453025101742
 30
0.0
 11
1637.262661856534
 21
935.0453025101742
 31
0.0
  0
LINE
  5
22B6
330
1F
100
AcDbEntity
  8
10
100
AcDbLine
 10
1634.762661856534
 20
935.0453025101742
 30
0.0
 11
1632.262661856534
 21
935.0453025101742
 31
0.0
  0
LINE
  5
22B7
330
1F
100
AcDbEntity
  8
10
100
AcDbLine
 10
1649.762661856534
 20
935.0453025101742
 30
0.0
 11
1647.262661856534
 21
935.0453025101742
 31
0.0
  0
LINE
  5
22B8
330
1F
100
AcDbEntity
  8
10
100
AcDbLine
 10
1644.762661856534
 20
935.0453025101742
 30
0.0
 11
1642.262661856534
 21
935.0453025101742
 31
0.0
  0
LINE
  5
22B9
330
1F
100
AcDbEntity
  8
10
100
AcDbLine
 10
1639.762661856534
 20
970.0453025101742
 30
0.0
 11
1637.262661856534
 21
970.0453025101742
 31
0.0
  0
LINE
  5
22BA
330
1F
100
AcDbEntity
  8
10
100
AcDbLine
 10
1634.762661856534
 20
970.0453025101742
 30
0.0
 11
1632.262661856534
 21
970.0453025101742
 31
0.0
  0
LINE
  5
22BB
330
1F
100
AcDbEntity
  8
10
100
AcDbLine
 10
1649.762661856534
 20
970.0453025101742
 30
0.0
 11
1647.262661856534
 21
970.0453025101742
 31
0.0
  0
LINE
  5
22BC
330
1F
100
AcDbEntity
  8
10
100
AcDbLine
 10
1644.762661856534
 20
970.0453025101742
 30
0.0
 11
1642.262661856534
 21
970.0453025101742
 31
0.0
  0
LINE
  5
22BD
330
1F
100
AcDbEntity
  8
10
100
AcDbLine
 10
1619.762661856534
 20
985.0453025101742
 30
0.0
 11
1617.262661856534
 21
985.0453025101742
 31
0.0
  0
LINE
  5
22BE
330
1F
100
AcDbEntity
  8
10
100
AcDbLine
 10
1614.762661856534
 20
985.0453025101742
 30
0.0
 11
1612.262661856534
 21
985.0453025101742
 31
0.0
  0
LINE
  5
22BF
330
1F
100
AcDbEntity
  8
10
100
AcDbLine
 10
1629.762661856534
 20
985.0453025101742
 30
0.0
 11
1627.262661856534
 21
985.0453025101742
 31
0.0
  0
LINE
  5
22C0
330
1F
100
AcDbEntity
  8
10
100
AcDbLine
 10
1624.762661856534
 20
985.0453025101742
 30
0.0
 11
1622.262661856534
 21
985.0453025101742
 31
0.0
  0
LINE
  5
22C1
330
1F
100
AcDbEntity
  8
10
100
AcDbLine
 10
1619.762661856534
 20
1020.045302510174
 30
0.0
 11
1617.262661856534
 21
1020.045302510174
 31
0.0
  0
LINE
  5
22C2
330
1F
100
AcDbEntity
  8
10
100
AcDbLine
 10
1614.762661856534
 20
1020.045302510174
 30
0.0
 11
1612.262661856534
 21
1020.045302510174
 31
0.0
  0
LINE
  5
22C3
330
1F
100
AcDbEntity
  8
10
100
AcDbLine
 10
1629.762661856534
 20
1020.045302510174
 30
0.0
 11
1627.262661856534
 21
1020.045302510174
 31
0.0
  0
LINE
  5
22C4
330
1F
100
AcDbEntity
  8
10
100
AcDbLine
 10
1624.762661856534
 20
1020.045302510174
 30
0.0
 11
1622.262661856534
 21
1020.045302510174
 31
0.0
  0
LINE
  5
22C5
330
1F
100
AcDbEntity
  8
10
100
AcDbLine
 10
1639.762661856534
 20
985.0453025101742
 30
0.0
 11
1637.262661856534
 21
985.0453025101742
 31
0.0
  0
LINE
  5
22C6
330
1F
100
AcDbEntity
  8
10
100
AcDbLine
 10
1634.762661856534
 20
985.0453025101742
 30
0.0
 11
1632.262661856534
 21
985.0453025101742
 31
0.0
  0
LINE
  5
22C7
330
1F
100
AcDbEntity
  8
10
100
AcDbLine
 10
1649.762661856534
 20
985.0453025101742
 30
0.0
 11
1647.262661856534
 21
985.0453025101742
 31
0.0
  0
LINE
  5
22C8
330
1F
100
AcDbEntity
  8
10
100
AcDbLine
 10
1644.762661856534
 20
985.0453025101742
 30
0.0
 11
1642.262661856534
 21
985.0453025101742
 31
0.0
  0
LINE
  5
22C9
330
1F
100
AcDbEntity
  8
10
100
AcDbLine
 10
1639.762661856534
 20
1020.045302510174
 30
0.0
 11
1637.262661856534
 21
1020.045302510174
 31
0.0
  0
LINE
  5
22CA
330
1F
100
AcDbEntity
  8
10
100
AcDbLine
 10
1634.762661856534
 20
1020.045302510174
 30
0.0
 11
1632.262661856534
 21
1020.045302510174
 31
0.0
  0
LINE
  5
22CB
330
1F
100
AcDbEntity
  8
10
100
AcDbLine
 10
1649.762661856534
 20
1020.045302510174
 30
0.0
 11
1647.262661856534
 21
1020.045302510174
 31
0.0
  0
LINE
  5
22CC
330
1F
100
AcDbEntity
  8
10
100
AcDbLine
 10
1644.762661856534
 20
1020.045302510174
 30
0.0
 11
1642.262661856534
 21
1020.045302510174
 31
0.0
  0
LINE
  5
22CD
330
1F
100
AcDbEntity
  8
10
100
AcDbLine
 10
1659.762661856534
 20
935.0453025101742
 30
0.0
 11
1657.262661856534
 21
935.0453025101742
 31
0.0
  0
LINE
  5
22CE
330
1F
100
AcDbEntity
  8
10
100
AcDbLine
 10
1654.762661856534
 20
935.0453025101742
 30
0.0
 11
1652.262661856534
 21
935.0453025101742
 31
0.0
  0
LINE
  5
22CF
330
1F
100
AcDbEntity
  8
10
100
AcDbLine
 10
1669.762661856534
 20
935.0453025101742
 30
0.0
 11
1667.262661856534
 21
935.0453025101742
 31
0.0
  0
LINE
  5
22D0
330
1F
100
AcDbEntity
  8
10
100
AcDbLine
 10
1664.762661856534
 20
935.0453025101742
 30
0.0
 11
1662.262661856534
 21
935.0453025101742
 31
0.0
  0
LINE
  5
22D1
330
1F
100
AcDbEntity
  8
10
100
AcDbLine
 10
1659.762661856534
 20
970.0453025101742
 30
0.0
 11
1657.262661856534
 21
970.0453025101742
 31
0.0
  0
LINE
  5
22D2
330
1F
100
AcDbEntity
  8
10
100
AcDbLine
 10
1654.762661856534
 20
970.0453025101742
 30
0.0
 11
1652.262661856534
 21
970.0453025101742
 31
0.0
  0
LINE
  5
22D3
330
1F
100
AcDbEntity
  8
10
100
AcDbLine
 10
1669.762661856534
 20
970.0453025101742
 30
0.0
 11
1667.262661856534
 21
970.0453025101742
 31
0.0
  0
LINE
  5
22D4
330
1F
100
AcDbEntity
  8
10
100
AcDbLine
 10
1664.762661856534
 20
970.0453025101742
 30
0.0
 11
1662.262661856534
 21
970.0453025101742
 31
0.0
  0
LINE
  5
22D5
330
1F
100
AcDbEntity
  8
10
100
AcDbLine
 10
1679.762661856534
 20
935.0453025101742
 30
0.0
 11
1677.262661856534
 21
935.0453025101742
 31
0.0
  0
LINE
  5
22D6
330
1F
100
AcDbEntity
  8
10
100
AcDbLine
 10
1674.762661856534
 20
935.0453025101742
 30
0.0
 11
1672.262661856534
 21
935.0453025101742
 31
0.0
  0
LINE
  5
22D7
330
1F
100
AcDbEntity
  8
10
100
AcDbLine
 10
1689.762661856534
 20
935.0453025101742
 30
0.0
 11
1687.262661856534
 21
935.0453025101742
 31
0.0
  0
LINE
  5
22D8
330
1F
100
AcDbEntity
  8
10
100
AcDbLine
 10
1684.762661856534
 20
935.0453025101742
 30
0.0
 11
1682.262661856534
 21
935.0453025101742
 31
0.0
  0
LINE
  5
22D9
330
1F
100
AcDbEntity
  8
10
100
AcDbLine
 10
1679.762661856534
 20
970.0453025101742
 30
0.0
 11
1677.262661856534
 21
970.0453025101742
 31
0.0
  0
LINE
  5
22DA
330
1F
100
AcDbEntity
  8
10
100
AcDbLine
 10
1674.762661856534
 20
970.0453025101742
 30
0.0
 11
1672.262661856534
 21
970.0453025101742
 31
0.0
  0
LINE
  5
22DB
330
1F
100
AcDbEntity
  8
10
100
AcDbLine
 10
1689.762661856534
 20
970.0453025101742
 30
0.0
 11
1687.262661856534
 21
970.0453025101742
 31
0.0
  0
LINE
  5
22DC
330
1F
100
AcDbEntity
  8
10
100
AcDbLine
 10
1684.762661856534
 20
970.0453025101742
 30
0.0
 11
1682.262661856534
 21
970.0453025101742
 31
0.0
  0
LINE
  5
22DD
330
1F
100
AcDbEntity
  8
10
100
AcDbLine
 10
1659.762661856534
 20
985.0453025101742
 30
0.0
 11
1657.262661856534
 21
985.0453025101742
 31
0.0
  0
LINE
  5
22DE
330
1F
100
AcDbEntity
  8
10
100
AcDbLine
 10
1654.762661856534
 20
985.0453025101742
 30
0.0
 11
1652.262661856534
 21
985.0453025101742
 31
0.0
  0
LINE
  5
22DF
330
1F
100
AcDbEntity
  8
10
100
AcDbLine
 10
1669.762661856534
 20
985.0453025101742
 30
0.0
 11
1667.262661856534
 21
985.0453025101742
 31
0.0
  0
LINE
  5
22E0
330
1F
100
AcDbEntity
  8
10
100
AcDbLine
 10
1664.762661856534
 20
985.0453025101742
 30
0.0
 11
1662.262661856534
 21
985.0453025101742
 31
0.0
  0
LINE
  5
22E1
330
1F
100
AcDbEntity
  8
10
100
AcDbLine
 10
1659.762661856534
 20
1020.045302510174
 30
0.0
 11
1657.262661856534
 21
1020.045302510174
 31
0.0
  0
LINE
  5
22E2
330
1F
100
AcDbEntity
  8
10
100
AcDbLine
 10
1654.762661856534
 20
1020.045302510174
 30
0.0
 11
1652.262661856534
 21
1020.045302510174
 31
0.0
  0
LINE
  5
22E3
330
1F
100
AcDbEntity
  8
10
100
AcDbLine
 10
1669.762661856534
 20
1020.045302510174
 30
0.0
 11
1667.262661856534
 21
1020.045302510174
 31
0.0
  0
LINE
  5
22E4
330
1F
100
AcDbEntity
  8
10
100
AcDbLine
 10
1664.762661856534
 20
1020.045302510174
 30
0.0
 11
1662.262661856534
 21
1020.045302510174
 31
0.0
  0
LINE
  5
22E5
330
1F
100
AcDbEntity
  8
10
100
AcDbLine
 10
1679.762661856534
 20
985.0453025101742
 30
0.0
 11
1677.262661856534
 21
985.0453025101742
 31
0.0
  0
LINE
  5
22E6
330
1F
100
AcDbEntity
  8
10
100
AcDbLine
 10
1674.762661856534
 20
985.0453025101742
 30
0.0
 11
1672.262661856534
 21
985.0453025101742
 31
0.0
  0
LINE
  5
22E7
330
1F
100
AcDbEntity
  8
10
100
AcDbLine
 10
1689.762661856534
 20
985.0453025101742
 30
0.0
 11
1687.262661856534
 21
985.0453025101742
 31
0.0
  0
LINE
  5
22E8
330
1F
100
AcDbEntity
  8
10
100
AcDbLine
 10
1684.762661856534
 20
985.0453025101742
 30
0.0
 11
1682.262661856534
 21
985.0453025101742
 31
0.0
  0
LINE
  5
22E9
330
1F
100
AcDbEntity
  8
10
100
AcDbLine
 10
1679.762661856534
 20
1020.045302510174
 30
0.0
 11
1677.262661856534
 21
1020.045302510174
 31
0.0
  0
LINE
  5
22EA
330
1F
100
AcDbEntity
  8
10
100
AcDbLine
 10
1674.762661856534
 20
1020.045302510174
 30
0.0
 11
1672.262661856534
 21
1020.045302510174
 31
0.0
  0
LINE
  5
22EB
330
1F
100
AcDbEntity
  8
10
100
AcDbLine
 10
1689.762661856534
 20
1020.045302510174
 30
0.0
 11
1687.262661856534
 21
1020.045302510174
 31
0.0
  0
LINE
  5
22EC
330
1F
100
AcDbEntity
  8
10
100
AcDbLine
 10
1684.762661856534
 20
1020.045302510174
 30
0.0
 11
1682.262661856534
 21
1020.045302510174
 31
0.0
  0
LINE
  5
22ED
330
1F
100
AcDbEntity
  8
10
100
AcDbLine
 10
1747.512661856534
 20
922.74336467474
 30
0.0
 11
1750.031249154464
 21
921.6992105053968
 31
0.0
  0
LINE
  5
22EF
330
1F
100
AcDbEntity
  8
12
 48
3.0
100
AcDbLine
 10
1730.512661856534
 20
872.5453025101742
 30
0.0
 11
1754.512661856534
 21
872.5453025101742
 31
0.0
  0
ARC
  5
22F0
330
1F
100
AcDbEntity
  8
10
100
AcDbCircle
 10
1713.512661856534
 20
898.7953025101765
 30
0.0
 40
1.25
100
AcDbArc
 50
180.0
 51
0.0
  0
LINE
  5
22F1
330
1F
100
AcDbEntity
  8
10
100
AcDbLine
 10
1714.762661856534
 20
920.0453025101742
 30
0.0
 11
1712.262661856534
 21
920.0453025101742
 31
0.0
  0
ARC
  5
22F2
330
1F
100
AcDbEntity
  8
10
100
AcDbCircle
 10
1703.512661856534
 20
898.7953025101765
 30
0.0
 40
1.25
100
AcDbArc
 50
180.0
 51
0.0
  0
LINE
  5
22F3
330
1F
100
AcDbEntity
  8
10
100
AcDbLine
 10
1704.762661856534
 20
920.0453025101742
 30
0.0
 11
1702.262661856534
 21
920.0453025101742
 31
0.0
  0
ARC
  5
22F4
330
1F
100
AcDbEntity
  8
10
100
AcDbCircle
 10
1693.512661856534
 20
898.7953025101765
 30
0.0
 40
1.25
100
AcDbArc
 50
180.0
 51
0.0
  0
ARC
  5
22F5
330
1F
100
AcDbEntity
  8
10
100
AcDbCircle
 10
1698.512661856534
 20
898.7953025101765
 30
0.0
 40
1.25
100
AcDbArc
 50
180.0
 51
0.0
  0
LINE
  5
22F6
330
1F
100
AcDbEntity
  8
10
100
AcDbLine
 10
1699.762661856534
 20
920.0453025101742
 30
0.0
 11
1697.262661856534
 21
920.0453025101742
 31
0.0
  0
LINE
  5
22F7
330
1F
100
AcDbEntity
  8
10
100
AcDbLine
 10
1694.762661856534
 20
920.0453025101742
 30
0.0
 11
1692.262661856534
 21
920.0453025101742
 31
0.0
  0
ARC
  5
22F8
330
1F
100
AcDbEntity
  8
10
100
AcDbCircle
 10
1708.512661856534
 20
898.7953025101765
 30
0.0
 40
1.25
100
AcDbArc
 50
180.0
 51
0.0
  0
LINE
  5
22F9
330
1F
100
AcDbEntity
  8
10
100
AcDbLine
 10
1709.762661856534
 20
920.0453025101742
 30
0.0
 11
1707.262661856534
 21
920.0453025101742
 31
0.0
  0
ARC
  5
22FA
330
1F
100
AcDbEntity
  8
10
100
AcDbCircle
 10
1723.512661856534
 20
898.7953025101765
 30
0.0
 40
1.25
100
AcDbArc
 50
180.0
 51
0.0
  0
LINE
  5
22FB
330
1F
100
AcDbEntity
  8
10
100
AcDbLine
 10
1724.762661856534
 20
920.0453025101742
 30
0.0
 11
1722.262661856534
 21
920.0453025101742
 31
0.0
  0
ARC
  5
22FC
330
1F
100
AcDbEntity
  8
10
100
AcDbCircle
 10
1718.512661856534
 20
898.7953025101765
 30
0.0
 40
1.25
100
AcDbArc
 50
180.0
 51
0.0
  0
LINE
  5
22FD
330
1F
100
AcDbEntity
  8
10
100
AcDbLine
 10
1719.762661856534
 20
920.0453025101742
 30
0.0
 11
1717.262661856534
 21
920.0453025101742
 31
0.0
  0
ARC
  5
22FE
330
1F
100
AcDbEntity
  8
10
100
AcDbCircle
 10
1728.512661856534
 20
898.7953025101765
 30
0.0
 40
1.25
100
AcDbArc
 50
180.0
 51
0.0
  0
LINE
  5
22FF
330
1F
100
AcDbEntity
  8
10
100
AcDbLine
 10
1729.762661856534
 20
920.0453025101742
 30
0.0
 11
1727.262661856534
 21
920.0453025101742
 31
0.0
  0
LINE
  5
2302
330
1F
100
AcDbEntity
  8
10
100
AcDbLine
 10
1737.512661856534
 20
862.5453025101743
 30
0.0
 11
1747.512661856534
 21
862.5453025101743
 31
0.0
  0
LINE
  5
2303
330
1F
100
AcDbEntity
  8
10
100
AcDbLine
 10
1737.512661856534
 20
862.5453025101743
 30
0.0
 11
1737.512661856534
 21
867.5453025101742
 31
0.0
  0
LINE
  5
2304
330
1F
100
AcDbEntity
  8
10
100
AcDbLine
 10
1734.512661856534
 20
867.5453025101742
 30
0.0
 11
1739.012661856534
 21
867.5453025101742
 31
0.0
  0
ARC
  5
2305
330
1F
100
AcDbEntity
  8
10
100
AcDbCircle
 10
1752.412661856534
 20
903.0453025101742
 30
0.0
 40
1.499999999999995
100
AcDbArc
 50
270.0
 51
0.0
  0
ARC
  5
2306
330
1F
100
AcDbEntity
  8
10
100
AcDbCircle
 10
1752.412661856534
 20
903.0453025101742
 30
0.0
 40
1.500000000000017
100
AcDbArc
 50
0.0
 51
90.0
  0
ARC
  5
2307
330
1F
100
AcDbEntity
  8
10
100
AcDbCircle
 10
1752.412661856534
 20
901.3749732013252
 30
0.0
 40
1.499999999999974
100
AcDbArc
 50
303.3670129692219
 51
0.0
  0
ARC
  5
2308
330
1F
100
AcDbEntity
  8
10
100
AcDbCircle
 10
1752.412661856534
 20
904.7156318190232
 30
0.0
 40
1.500000000000017
100
AcDbArc
 50
0.0
 51
56.6329870307781
  0
ARC
  5
2309
330
1F
100
AcDbEntity
  8
10
100
AcDbCircle
 10
1756.537661856534
 20
899.5453025101742
 30
0.0
 40
5.300000000000037
100
AcDbArc
 50
183.2448916717471
 51
0.0
  0
ARC
  5
230A
330
1F
100
AcDbEntity
  8
10
100
AcDbCircle
 10
1756.537661856534
 20
899.5453025101742
 30
0.0
 40
5.999999999999997
100
AcDbArc
 50
182.865983982601
 51
0.0
  0
LINE
  5
230B
330
1F
100
AcDbEntity
  8
10
100
AcDbLine
 10
1749.812661856534
 20
916.0453025101745
 30
0.0
 11
1772.512661856534
 21
916.0453025101745
 31
0.0
  0
LINE
  5
230C
330
1F
100
AcDbEntity
  8
10
100
AcDbLine
 10
1747.512661856534
 20
918.3453025101739
 30
0.0
 11
1772.512661856534
 21
918.3453025101744
 31
0.0
  0
ARC
  5
230D
330
1F
100
AcDbEntity
  8
10
100
AcDbCircle
 10
1756.537661856534
 20
908.5453025101742
 30
0.0
 40
5.999999999999982
100
AcDbArc
 50
0.0
 51
180.0
  0
ARC
  5
230E
330
1F
100
AcDbEntity
  8
10
100
AcDbCircle
 10
1756.537661856534
 20
908.5453025101742
 30
0.0
 40
5.300000000000012
100
AcDbArc
 50
0.0
 51
180.0
  0
LINE
  5
230F
330
1F
100
AcDbEntity
  8
10
100
AcDbLine
 10
1752.737661856534
 20
898.0453025101741
 30
0.0
 11
1760.337661856534
 21
898.0453025101741
 31
0.0
  0
LINE
  5
2310
330
1F
100
AcDbEntity
  8
10
100
AcDbLine
 10
1760.337661856534
 20
910.0453025101742
 30
0.0
 11
1752.737661856534
 21
910.0453025101742
 31
0.0
  0
LINE
  5
2311
330
1F
100
AcDbEntity
  8
10
100
AcDbLine
 10
1747.512661856534
 20
893.3453025101744
 30
0.0
 11
1747.512661856534
 21
918.3453025101739
 31
0.0
  0
LINE
  5
2312
330
1F
100
AcDbEntity
  8
10
100
AcDbLine
 10
1749.812661856534
 20
893.3453025101741
 30
0.0
 11
1749.812661856534
 21
916.0453025101745
 31
0.0
  0
LINE
  5
2314
330
1F
100
AcDbEntity
  8
10
100
AcDbLine
 10
1747.512661856534
 20
893.3453025101744
 30
0.0
 11
1749.812661856534
 21
893.3453025101741
 31
0.0
  0
LINE
  5
2315
330
1F
100
AcDbEntity
  8
10
100
AcDbLine
 10
1751.312661856534
 20
901.5138421953231
 30
0.0
 11
1750.312661856534
 21
902.5138421953231
 31
0.0
  0
LINE
  5
2316
330
1F
100
AcDbEntity
  8
10
100
AcDbLine
 10
1751.312661856534
 20
902.8629612871746
 30
0.0
 11
1750.312661856534
 21
903.8629612871746
 31
0.0
  0
ARC
  5
2317
330
1F
100
AcDbEntity
  8
10
100
AcDbCircle
 10
1751.312661856534
 20
903.0453025101742
 30
0.0
 40
3.500000000000028
100
AcDbArc
 50
56.63298703077085
 51
90.0
  0
ARC
  5
2318
330
1F
100
AcDbEntity
  8
10
100
AcDbCircle
 10
1751.312661856534
 20
903.0453025101742
 30
0.0
 40
3.5
100
AcDbArc
 50
270.0
 51
303.367012969229
  0
LINE
  5
2319
330
1F
100
AcDbEntity
  8
10
100
AcDbLine
 10
1751.312661856534
 20
906.5453025101742
 30
0.0
 11
1751.312661856534
 21
906.8453025101744
 31
0.0
  0
LINE
  5
231A
330
1F
100
AcDbEntity
  8
10
100
AcDbLine
 10
1751.312661856534
 20
899.5453025101742
 30
0.0
 11
1751.312661856534
 21
906.5453025101742
 31
0.0
  0
LINE
  5
231B
330
1F
100
AcDbEntity
  8
10
100
AcDbLine
 10
1751.312661856534
 20
906.8453025101744
 30
0.0
 11
1750.312661856534
 21
906.8453025101744
 31
0.0
  0
LINE
  5
231C
330
1F
100
AcDbEntity
  8
10
100
AcDbLine
 10
1751.312661856534
 20
899.2453025101738
 30
0.0
 11
1751.312661856534
 21
899.5453025101742
 31
0.0
  0
LINE
  5
231D
330
1F
100
AcDbEntity
  8
10
100
AcDbLine
 10
1750.312661856534
 20
899.2453025101738
 30
0.0
 11
1751.312661856534
 21
899.2453025101738
 31
0.0
  0
LINE
  5
231E
330
1F
100
AcDbEntity
  8
10
100
AcDbLine
 10
1750.312661856534
 20
899.0453025101741
 30
0.0
 11
1750.312661856534
 21
907.0453025101739
 31
0.0
  0
LINE
  5
231F
330
1F
100
AcDbEntity
  8
10
100
AcDbLine
 10
1749.812661856534
 20
899.0453025101741
 30
0.0
 11
1750.312661856534
 21
899.0453025101741
 31
0.0
  0
LINE
  5
2320
330
1F
100
AcDbEntity
  8
10
100
AcDbLine
 10
1749.812661856534
 20
907.0453025101739
 30
0.0
 11
1749.812661856534
 21
899.0453025101741
 31
0.0
  0
LINE
  5
2321
330
1F
100
AcDbEntity
  8
10
100
AcDbLine
 10
1750.312661856534
 20
907.0453025101739
 30
0.0
 11
1749.812661856534
 21
907.0453025101739
 31
0.0
  0
LINE
  5
2322
330
1F
100
AcDbEntity
  8
10
100
AcDbLine
 10
1753.790732631351
 20
913.8795672047541
 30
0.0
 11
1752.962229863507
 21
916.0453025101745
 31
0.0
  0
LINE
  5
2323
330
1F
100
AcDbEntity
  8
10
100
AcDbLine
 10
1752.737661856534
 20
910.0453025101742
 30
0.0
 11
1752.737661856534
 21
906.2420782295516
 31
0.0
  0
LINE
  5
2324
330
1F
100
AcDbEntity
  8
10
100
AcDbLine
 10
1752.737661856534
 20
899.848526790797
 30
0.0
 11
1752.737661856534
 21
898.0453025101741
 31
0.0
  0
LINE
  5
2325
330
1F
100
AcDbEntity
  8
10
100
AcDbLine
 10
1750.537661856534
 20
908.5453025101742
 30
0.0
 11
1750.537661856534
 21
906.8453025101744
 31
0.0
  0
LINE
  5
2326
330
1F
100
AcDbEntity
  8
10
100
AcDbLine
 10
1751.237661856534
 20
908.5453025101742
 30
0.0
 11
1751.237661856534
 21
906.8453025101744
 31
0.0
  0
LINE
  5
2327
330
1F
100
AcDbEntity
  8
10
100
AcDbLine
 10
1747.512661856534
 20
898.3453025101743
 30
0.0
 11
1749.812661856534
 21
898.345302510174
 31
0.0
  0
ARC
  5
2328
330
1F
100
AcDbEntity
  8
10
100
AcDbCircle
 10
1747.924904291693
 20
916.6185303029953
 30
0.0
 40
4.499999999999983
100
AcDbArc
 50
22.56474332873309
 51
67.4821157105071
  0
LINE
  5
2329
330
1F
100
AcDbEntity
  8
10
100
AcDbLine
 10
1747.512661856534
 20
921.6608324584042
 30
0.0
 11
1749.648277361233
 21
920.7754504685963
 31
0.0
  0
ARC
  5
232A
330
1F
100
AcDbEntity
  8
10
100
AcDbCircle
 10
1747.262657476657
 20
916.8930841267293
 30
0.0
 40
4.500000000000011
100
AcDbArc
 50
18.82720817448902
 51
67.4821157105071
  0
LINE
  5
232B
330
1F
100
AcDbEntity
  8
10
100
AcDbLine
 10
1753.153038999985
 20
918.3453025101739
 30
0.0
 11
1753.061851050608
 21
918.583671009426
 31
0.0
  0
ARC
  5
232C
330
1F
100
AcDbEntity
  8
10
100
AcDbCircle
 10
1747.924904291693
 20
916.6185303029953
 30
0.0
 40
5.499999999999976
100
AcDbArc
 50
20.93436841944263
 51
67.4821157105071
  0
LINE
  5
232D
330
1F
100
AcDbEntity
  8
10
100
AcDbLine
 10
1753.715939412705
 20
910.0453025101742
 30
0.0
 11
1753.059021880598
 21
912.5439352662317
 31
0.0
  0
LINE
  5
232E
330
1F
100
AcDbEntity
  8
10
100
AcDbLine
 10
1752.863246918896
 20
913.2885793169883
 30
0.0
 11
1752.138474623974
 21
916.0453025101745
 31
0.0
  0
LINE
  5
232F
330
1F
100
AcDbEntity
  8
10
100
AcDbLine
 10
1753.747732966958
 20
913.857203939146
 30
0.0
 11
1753.634440171719
 21
914.2881211781771
 31
0.0
  0
LINE
  5
2330
330
1F
100
AcDbEntity
  8
10
100
AcDbLine
 10
1763.262661856534
 20
891.0453025101743
 30
0.0
 11
1763.262661856534
 21
900.4294938034931
 31
0.0
  0
ARC
  5
2331
330
1F
100
AcDbEntity
  8
10
100
AcDbCircle
 10
1766.333156403342
 20
893.0541577454173
 30
0.0
 40
5.500000000000031
100
AcDbArc
 50
21.22469158133897
 51
54.19307054490179
  0
ARC
  5
2332
330
1F
100
AcDbEntity
  8
10
100
AcDbCircle
 10
1766.333156403342
 20
893.0541577454173
 30
0.0
 40
6.50000000000004
100
AcDbArc
 50
17.83819561518615
 51
54.19307054490179
  0
ARC
  5
2333
330
1F
100
AcDbEntity
  8
10
100
AcDbCircle
 10
1766.333156403342
 20
894.6390406674925
 30
0.0
 40
6.500000000000011
100
AcDbArc
 50
3.882485352434977
 51
41.16573980498841
  0
ARC
  5
2334
330
1F
100
AcDbEntity
  8
10
100
AcDbCircle
 10
1767.512661856533
 20
888.3453025101742
 30
0.0
 40
3.499999999999982
100
AcDbArc
 50
180.0
 51
213.367012969225
  0
LINE
  5
2335
330
1F
100
AcDbEntity
  8
10
100
AcDbLine
 10
1764.012661856534
 20
888.3453025101742
 30
0.0
 11
1771.012661856534
 21
888.3453025101742
 31
0.0
  0
LINE
  5
2336
330
1F
100
AcDbEntity
  8
10
100
AcDbLine
 10
1763.512661856534
 20
889.3453025101743
 30
0.0
 11
1771.512661856534
 21
889.3453025101743
 31
0.0
  0
LINE
  5
2337
330
1F
100
AcDbEntity
  8
10
100
AcDbLine
 10
1771.512661856534
 20
889.8453025101742
 30
0.0
 11
1763.512661856534
 21
889.8453025101742
 31
0.0
  0
LINE
  5
2338
330
1F
100
AcDbEntity
  8
10
100
AcDbLine
 10
1772.261189993958
 20
889.8453025101744
 30
0.0
 11
1763.862661856534
 21
889.8453025101744
 31
0.0
  0
LINE
  5
2339
330
1F
100
AcDbEntity
  8
10
100
AcDbLine
 10
1763.712661856534
 20
888.3453025101742
 30
0.0
 11
1764.012661856534
 21
888.3453025101742
 31
0.0
  0
LINE
  5
233A
330
1F
100
AcDbEntity
  8
10
100
AcDbLine
 10
1763.712661856534
 20
889.3453025101743
 30
0.0
 11
1763.712661856534
 21
888.3453025101742
 31
0.0
  0
LINE
  5
233B
330
1F
100
AcDbEntity
  8
10
100
AcDbLine
 10
1763.512661856534
 20
889.8453025101742
 30
0.0
 11
1763.512661856534
 21
889.3453025101743
 31
0.0
  0
ARC
  5
233C
330
1F
100
AcDbEntity
  8
10
100
AcDbCircle
 10
1763.862661856534
 20
890.4453025101743
 30
0.0
 40
0.5999999999999658
100
AcDbArc
 50
90.0
 51
270.0
  0
LINE
  5
233D
330
1F
100
AcDbEntity
  8
10
100
AcDbLine
 10
1765.981201541682
 20
888.3453025101742
 30
0.0
 11
1766.981201541683
 21
889.3453025101743
 31
0.0
  0
LINE
  5
233E
330
1F
100
AcDbEntity
  8
10
100
AcDbLine
 10
1767.330320633534
 20
888.3453025101742
 30
0.0
 11
1768.330320633535
 21
889.3453025101743
 31
0.0
  0
ARC
  5
233F
330
1F
100
AcDbEntity
  8
10
100
AcDbCircle
 10
1767.512661856533
 20
887.2453025101743
 30
0.0
 40
1.499999999999974
100
AcDbArc
 50
180.0
 51
270.0
  0
LINE
  5
2340
330
1F
100
AcDbEntity
  8
10
100
AcDbLine
 10
1767.512661856533
 20
885.9453025101741
 30
0.0
 11
1767.512661856533
 21
885.9453025101741
 31
0.0
  0
ARC
  5
2341
330
1F
100
AcDbEntity
  8
10
100
AcDbCircle
 10
1767.512661856533
 20
887.2453025101743
 30
0.0
 40
1.499999999999995
100
AcDbArc
 50
270.0
 51
0.0
  0
ARC
  5
2342
330
1F
100
AcDbEntity
  8
10
100
AcDbCircle
 10
1765.842332547685
 20
887.2453025101743
 30
0.0
 40
1.499999999999791
100
AcDbArc
 50
213.3670129692299
 51
270.0
  0
ARC
  5
2343
330
1F
100
AcDbEntity
  8
10
100
AcDbCircle
 10
1769.182991165383
 20
887.2453025101743
 30
0.0
 40
1.499999999999995
100
AcDbArc
 50
270.0
 51
326.6329870307698
  0
LINE
  5
2344
330
1F
100
AcDbEntity
  8
10
100
AcDbLine
 10
1769.182991165383
 20
885.7453025101742
 30
0.0
 11
1765.842332547685
 21
885.7453025101742
 31
0.0
  0
ARC
  5
2345
330
1F
100
AcDbEntity
  8
10
100
AcDbCircle
 10
1767.512661856533
 20
888.3453025101742
 30
0.0
 40
3.499999999999721
100
AcDbArc
 50
326.6329870307698
 51
0.0
  0
LINE
  5
2346
330
1F
100
AcDbEntity
  8
10
100
AcDbLine
 10
1771.012661856534
 20
888.3453025101742
 30
0.0
 11
1771.312661856534
 21
888.3453025101742
 31
0.0
  0
LINE
  5
2347
330
1F
100
AcDbEntity
  8
10
100
AcDbLine
 10
1771.312661856534
 20
888.3453025101742
 30
0.0
 11
1771.312661856534
 21
889.3453025101743
 31
0.0
  0
LINE
  5
2348
330
1F
100
AcDbEntity
  8
10
100
AcDbLine
 10
1771.512661856534
 20
889.3453025101743
 30
0.0
 11
1771.512661856534
 21
889.8453025101742
 31
0.0
  0
ARC
  5
2349
330
1F
100
AcDbEntity
  8
10
100
AcDbCircle
 10
1767.512661856533
 20
885.9453025101741
 30
0.0
 40
0.6000000000000686
100
AcDbArc
 50
199.4712206344765
 51
270.0
  0
ARC
  5
234A
330
1F
100
AcDbEntity
  8
10
100
AcDbCircle
 10
1760.731660959564
 20
901.0453025101739
 30
0.0
 40
6.499999999999992
100
AcDbArc
 50
41.16573980498841
 51
90.0
  0
ARC
  5
234B
330
1F
100
AcDbEntity
  8
10
100
AcDbCircle
 10
1760.731660959564
 20
901.0453025101739
 30
0.0
 40
5.499999999999992
100
AcDbArc
 50
41.16573980498841
 51
90.0
  0
ARC
  5
234C
330
1F
100
AcDbEntity
  8
10
100
AcDbCircle
 10
1761.634721870811
 20
889.0453025101741
 30
0.0
 40
11.5
100
AcDbArc
 50
54.19307054490179
 51
90.0
  0
ARC
  5
234D
330
1F
100
AcDbEntity
  8
10
100
AcDbCircle
 10
1761.634721870811
 20
889.0453025101741
 30
0.0
 40
12.5
100
AcDbArc
 50
54.19307054490179
 51
90.0
  0
ARC
  5
234E
330
1F
100
AcDbEntity
  8
10
100
AcDbCircle
 10
1760.574789094884
 20
894.0453025101742
 30
0.0
 40
9.499999999999991
100
AcDbArc
 50
44.19307054489958
 51
90.0
  0
ARC
  5
234F
330
1F
100
AcDbEntity
  8
10
100
AcDbCircle
 10
1760.574789094884
 20
894.0453025101742
 30
0.0
 40
10.5
100
AcDbArc
 50
54.28924389786812
 51
90.0
  0
LINE
  5
2350
330
1F
100
AcDbEntity
  8
10
100
AcDbLine
 10
1763.262661856534
 20
901.4388416093531
 30
0.0
 11
1763.262661856534
 21
903.1571266973053
 31
0.0
  0
LINE
  5
2351
330
1F
100
AcDbEntity
  8
10
100
AcDbLine
 10
1763.262661856534
 20
904.1954424115342
 30
0.0
 11
1763.262661856534
 21
905.928337883744
 31
0.0
  0
LINE
  5
2352
330
1F
100
AcDbEntity
  8
10
100
AcDbLine
 10
1763.262661856534
 20
907.0322912741136
 30
0.0
 11
1763.262661856534
 21
916.0453025101745
 31
0.0
  0
LINE
  5
2353
330
1F
100
AcDbEntity
  8
10
100
AcDbLine
 10
1753.912661856534
 20
903.0453025101742
 30
0.0
 11
1753.912661856534
 21
903.0453025101742
 31
0.0
  0
LINE
  5
2354
330
1F
100
AcDbEntity
  8
10
100
AcDbLine
 10
1753.912661856534
 20
904.7156318190232
 30
0.0
 11
1753.912661856534
 21
901.3749732013252
 31
0.0
  0
LINE
  5
2355
330
1F
100
AcDbEntity
  8
10
100
AcDbLine
 10
1755.257531876929
 20
910.0453025101742
 30
0.0
 11
1754.042570666227
 21
913.2212537451691
 31
0.0
  0
LINE
  5
2356
330
1F
100
AcDbEntity
  8
10
100
AcDbLine
 10
1756.328206785221
 20
910.0453025101742
 30
0.0
 11
1754.965742865119
 21
913.6068310030733
 31
0.0
  0
LINE
  5
2357
330
1F
100
AcDbEntity
  8
10
100
AcDbLine
 10
1754.715177341329
 20
914.2618180740326
 30
0.0
 11
1754.032904771798
 21
916.0453025101745
 31
0.0
  0
LINE
  5
2358
330
1F
100
AcDbEntity
  8
10
100
AcDbLine
 10
1761.837661856534
 20
900.5435117343184
 30
0.0
 11
1761.837661856534
 21
899.5453025101742
 31
0.0
  0
LINE
  5
2359
330
1F
100
AcDbEntity
  8
10
100
AcDbLine
 10
1761.837661856534
 20
903.4609890166317
 30
0.0
 11
1761.837661856534
 21
901.5436550160924
 31
0.0
  0
LINE
  5
235A
330
1F
100
AcDbEntity
  8
10
100
AcDbLine
 10
1761.837661856534
 20
908.5453025101742
 30
0.0
 11
1761.837661856534
 21
907.4505161690538
 31
0.0
  0
LINE
  5
235B
330
1F
100
AcDbEntity
  8
10
100
AcDbLine
 10
1761.837661856534
 20
906.4329515351106
 30
0.0
 11
1761.837661856534
 21
904.4690807305647
 31
0.0
  0
LINE
  5
235C
330
1F
100
AcDbEntity
  8
10
100
AcDbLine
 10
1762.537661856534
 20
908.5453025101742
 30
0.0
 11
1762.537661856534
 21
907.2893685540387
 31
0.0
  0
LINE
  5
235D
330
1F
100
AcDbEntity
  8
10
100
AcDbLine
 10
1762.537661856534
 20
906.2403348257756
 30
0.0
 11
1762.537661856534
 21
904.3602009838178
 31
0.0
  0
LINE
  5
235E
330
1F
100
AcDbEntity
  8
10
100
AcDbLine
 10
1762.537661856534
 20
903.3403081864273
 30
0.0
 11
1762.537661856534
 21
901.512647832342
 31
0.0
  0
LINE
  5
235F
330
1F
100
AcDbEntity
  8
10
100
AcDbLine
 10
1762.537661856534
 20
900.5097998555521
 30
0.0
 11
1762.537661856534
 21
899.5453025101742
 31
0.0
  0
ARC
  5
2360
330
1F
100
AcDbEntity
  8
10
100
AcDbCircle
 10
1756.813978745692
 20
907.0453025101739
 30
0.0
 40
0.4999999999999973
100
AcDbArc
 50
90.0
 51
270.0
  0
ARC
  5
2361
330
1F
100
AcDbEntity
  8
10
100
AcDbCircle
 10
1756.813978745692
 20
904.0453025101742
 30
0.0
 40
0.5000000000000029
100
AcDbArc
 50
90.0
 51
270.0
  0
ARC
  5
2362
330
1F
100
AcDbEntity
  8
10
100
AcDbCircle
 10
1756.813978745692
 20
901.0453025101742
 30
0.0
 40
0.4999999999999973
100
AcDbArc
 50
90.0
 51
270.0
  0
LINE
  5
2363
330
1F
100
AcDbEntity
  8
10
100
AcDbLine
 10
1756.813978745692
 20
907.5453025101742
 30
0.0
 11
1760.731660959564
 21
907.5453025101742
 31
0.0
  0
LINE
  5
2364
330
1F
100
AcDbEntity
  8
10
100
AcDbLine
 10
1756.813978745692
 20
906.5453025101742
 30
0.0
 11
1760.731660959564
 21
906.5453025101742
 31
0.0
  0
LINE
  5
2365
330
1F
100
AcDbEntity
  8
10
100
AcDbLine
 10
1756.813978745692
 20
901.545302510174
 30
0.0
 11
1761.634721870811
 21
901.545302510174
 31
0.0
  0
LINE
  5
2366
330
1F
100
AcDbEntity
  8
10
100
AcDbLine
 10
1756.813978745692
 20
900.5453025101742
 30
0.0
 11
1761.634721870811
 21
900.5453025101742
 31
0.0
  0
LINE
  5
2367
330
1F
100
AcDbEntity
  8
10
100
AcDbLine
 10
1756.813978745692
 20
904.5453025101744
 30
0.0
 11
1760.574789094884
 21
904.5453025101744
 31
0.0
  0
LINE
  5
2368
330
1F
100
AcDbEntity
  8
10
100
AcDbLine
 10
1756.813978745692
 20
903.5453025101745
 30
0.0
 11
1760.574789094884
 21
903.5453025101745
 31
0.0
  0
LINE
  5
2369
330
1F
100
AcDbEntity
  8
10
100
AcDbLine
 10
1760.337661856534
 20
900.5453025101742
 30
0.0
 11
1760.337661856534
 21
898.0453025101741
 31
0.0
  0
LINE
  5
236A
330
1F
100
AcDbEntity
  8
10
100
AcDbLine
 10
1760.337661856534
 20
903.5453025101745
 30
0.0
 11
1760.337661856534
 21
901.545302510174
 31
0.0
  0
LINE
  5
236B
330
1F
100
AcDbEntity
  8
10
100
AcDbLine
 10
1760.337661856534
 20
910.0453025101742
 30
0.0
 11
1760.337661856534
 21
907.5453025101742
 31
0.0
  0
LINE
  5
236C
330
1F
100
AcDbEntity
  8
10
100
AcDbLine
 10
1760.337661856534
 20
906.5453025101742
 30
0.0
 11
1760.337661856534
 21
904.5453025101744
 31
0.0
  0
LINE
  5
236D
330
1F
100
AcDbEntity
  8
10
100
AcDbLine
 10
1754.749923014012
 20
910.0453025101742
 30
0.0
 11
1753.931033782717
 21
913.1600061934884
 31
0.0
  0
LINE
  5
236E
330
1F
100
AcDbEntity
  8
10
100
AcDbLine
 10
1769.512661856534
 20
918.3453025101744
 30
0.0
 11
1769.512661856534
 21
920.3453025101742
 31
0.0
  0
LINE
  5
236F
330
1F
100
AcDbEntity
  8
10
100
AcDbLine
 10
1765.512661856534
 20
918.3453025101742
 30
0.0
 11
1765.512661856534
 21
920.3453025101742
 31
0.0
  0
LINE
  5
2370
330
1F
100
AcDbEntity
  8
10
100
AcDbLine
 10
1765.512661856534
 20
920.3453025101742
 30
0.0
 11
1769.512661856534
 21
920.3453025101742
 31
0.0
  0
LINE
  5
2371
330
1F
100
AcDbEntity
  8
10
100
AcDbLine
 10
1772.512661856534
 20
916.0453025101745
 30
0.0
 11
1772.512661856534
 21
918.3453025101744
 31
0.0
  0
LINE
  5
2372
330
1F
100
AcDbEntity
  8
10
100
AcDbLine
 10
1765.624917118485
 20
905.3238588278098
 30
0.0
 11
1771.226412562262
 21
898.9175969851283
 31
0.0
  0
LINE
  5
2373
330
1F
100
AcDbEntity
  8
10
100
AcDbLine
 10
1764.872108478651
 20
904.6656193943276
 30
0.0
 11
1770.473603922429
 21
898.2593575516458
 31
0.0
  0
LINE
  5
2374
330
1F
100
AcDbEntity
  8
10
100
AcDbLine
 10
1769.550963095622
 20
897.5146196151253
 30
0.0
 11
1768.362863136485
 21
898.3717227832004
 31
0.0
  0
LINE
  5
2375
330
1F
100
AcDbEntity
  8
10
100
AcDbLine
 10
1770.136018857854
 20
898.3256126823453
 30
0.0
 11
1768.947918898718
 21
899.1827158504198
 31
0.0
  0
ARC
  5
2376
330
1F
100
AcDbEntity
  8
10
100
AcDbCircle
 10
1766.333156403342
 20
894.6390406674925
 30
0.0
 40
5.500000000000007
100
AcDbArc
 50
32.97283182060484
 51
41.16573980498841
  0
LINE
  5
2377
330
1F
100
AcDbEntity
  8
10
100
AcDbLine
 10
1768.584006659883
 20
899.4355595291493
 30
0.0
 11
1767.386240823622
 21
900.6675472464467
 31
0.0
  0
LINE
  5
2378
330
1F
100
AcDbEntity
  8
10
100
AcDbLine
 10
1714.762661856534
 20
935.0453025101742
 30
0.0
 11
1712.262661856534
 21
935.0453025101742
 31
0.0
  0
LINE
  5
2379
330
1F
100
AcDbEntity
  8
10
100
AcDbLine
 10
1714.762661856534
 20
970.0453025101742
 30
0.0
 11
1712.262661856534
 21
970.0453025101742
 31
0.0
  0
LINE
  5
237A
330
1F
100
AcDbEntity
  8
10
100
AcDbLine
 10
1704.762661856534
 20
935.0453025101742
 30
0.0
 11
1702.262661856534
 21
935.0453025101742
 31
0.0
  0
LINE
  5
237B
330
1F
100
AcDbEntity
  8
10
100
AcDbLine
 10
1699.762661856534
 20
935.0453025101742
 30
0.0
 11
1697.262661856534
 21
935.0453025101742
 31
0.0
  0
LINE
  5
237C
330
1F
100
AcDbEntity
  8
10
100
AcDbLine
 10
1694.762661856534
 20
935.0453025101742
 30
0.0
 11
1692.262661856534
 21
935.0453025101742
 31
0.0
  0
LINE
  5
237D
330
1F
100
AcDbEntity
  8
10
100
AcDbLine
 10
1709.762661856534
 20
935.0453025101742
 30
0.0
 11
1707.262661856534
 21
935.0453025101742
 31
0.0
  0
LINE
  5
237E
330
1F
100
AcDbEntity
  8
10
100
AcDbLine
 10
1704.762661856534
 20
970.0453025101742
 30
0.0
 11
1702.262661856534
 21
970.0453025101742
 31
0.0
  0
LINE
  5
237F
330
1F
100
AcDbEntity
  8
10
100
AcDbLine
 10
1699.762661856534
 20
970.0453025101742
 30
0.0
 11
1697.262661856534
 21
970.0453025101742
 31
0.0
  0
LINE
  5
2380
330
1F
100
AcDbEntity
  8
10
100
AcDbLine
 10
1694.762661856534
 20
970.0453025101742
 30
0.0
 11
1692.262661856534
 21
970.0453025101742
 31
0.0
  0
LINE
  5
2381
330
1F
100
AcDbEntity
  8
10
100
AcDbLine
 10
1709.762661856534
 20
970.0453025101742
 30
0.0
 11
1707.262661856534
 21
970.0453025101742
 31
0.0
  0
LINE
  5
2382
330
1F
100
AcDbEntity
  8
10
100
AcDbLine
 10
1724.762661856534
 20
935.0453025101742
 30
0.0
 11
1722.262661856534
 21
935.0453025101742
 31
0.0
  0
LINE
  5
2383
330
1F
100
AcDbEntity
  8
10
100
AcDbLine
 10
1719.762661856534
 20
935.0453025101742
 30
0.0
 11
1717.262661856534
 21
935.0453025101742
 31
0.0
  0
LINE
  5
2384
330
1F
100
AcDbEntity
  8
10
100
AcDbLine
 10
1729.762661856534
 20
935.0453025101742
 30
0.0
 11
1727.262661856534
 21
935.0453025101742
 31
0.0
  0
LINE
  5
2385
330
1F
100
AcDbEntity
  8
10
100
AcDbLine
 10
1724.762661856534
 20
970.0453025101742
 30
0.0
 11
1722.262661856534
 21
970.0453025101742
 31
0.0
  0
LINE
  5
2386
330
1F
100
AcDbEntity
  8
10
100
AcDbLine
 10
1719.762661856534
 20
970.0453025101742
 30
0.0
 11
1717.262661856534
 21
970.0453025101742
 31
0.0
  0
LINE
  5
2387
330
1F
100
AcDbEntity
  8
10
100
AcDbLine
 10
1729.762661856534
 20
970.0453025101742
 30
0.0
 11
1727.262661856534
 21
970.0453025101742
 31
0.0
  0
LINE
  5
2388
330
1F
100
AcDbEntity
  8
10
100
AcDbLine
 10
1714.762661856534
 20
1020.045302510174
 30
0.0
 11
1712.262661856534
 21
1020.045302510174
 31
0.0
  0
LINE
  5
2389
330
1F
100
AcDbEntity
  8
10
100
AcDbLine
 10
1714.762661856534
 20
985.0453025101742
 30
0.0
 11
1712.262661856534
 21
985.0453025101742
 31
0.0
  0
LINE
  5
238A
330
1F
100
AcDbEntity
  8
10
100
AcDbLine
 10
1704.762661856534
 20
985.0453025101742
 30
0.0
 11
1702.262661856534
 21
985.0453025101742
 31
0.0
  0
LINE
  5
238B
330
1F
100
AcDbEntity
  8
10
100
AcDbLine
 10
1699.762661856534
 20
985.0453025101742
 30
0.0
 11
1697.262661856534
 21
985.0453025101742
 31
0.0
  0
LINE
  5
238C
330
1F
100
AcDbEntity
  8
10
100
AcDbLine
 10
1694.762661856534
 20
985.0453025101742
 30
0.0
 11
1692.262661856534
 21
985.0453025101742
 31
0.0
  0
LINE
  5
238D
330
1F
100
AcDbEntity
  8
10
100
AcDbLine
 10
1709.762661856534
 20
985.0453025101742
 30
0.0
 11
1707.262661856534
 21
985.0453025101742
 31
0.0
  0
LINE
  5
238E
330
1F
100
AcDbEntity
  8
10
100
AcDbLine
 10
1704.762661856534
 20
1020.045302510174
 30
0.0
 11
1702.262661856534
 21
1020.045302510174
 31
0.0
  0
LINE
  5
238F
330
1F
100
AcDbEntity
  8
10
100
AcDbLine
 10
1699.762661856534
 20
1020.045302510174
 30
0.0
 11
1697.262661856534
 21
1020.045302510174
 31
0.0
  0
LINE
  5
2390
330
1F
100
AcDbEntity
  8
10
100
AcDbLine
 10
1694.762661856534
 20
1020.045302510174
 30
0.0
 11
1692.262661856534
 21
1020.045302510174
 31
0.0
  0
LINE
  5
2391
330
1F
100
AcDbEntity
  8
10
100
AcDbLine
 10
1709.762661856534
 20
1020.045302510174
 30
0.0
 11
1707.262661856534
 21
1020.045302510174
 31
0.0
  0
LINE
  5
2392
330
1F
100
AcDbEntity
  8
10
100
AcDbLine
 10
1724.762661856534
 20
985.0453025101742
 30
0.0
 11
1722.262661856534
 21
985.0453025101742
 31
0.0
  0
LINE
  5
2393
330
1F
100
AcDbEntity
  8
10
100
AcDbLine
 10
1719.762661856534
 20
985.0453025101742
 30
0.0
 11
1717.262661856534
 21
985.0453025101742
 31
0.0
  0
LINE
  5
2394
330
1F
100
AcDbEntity
  8
10
100
AcDbLine
 10
1729.762661856534
 20
985.0453025101742
 30
0.0
 11
1727.262661856534
 21
985.0453025101742
 31
0.0
  0
LINE
  5
2395
330
1F
100
AcDbEntity
  8
10
100
AcDbLine
 10
1724.762661856534
 20
1020.045302510174
 30
0.0
 11
1722.262661856534
 21
1020.045302510174
 31
0.0
  0
LINE
  5
2396
330
1F
100
AcDbEntity
  8
10
100
AcDbLine
 10
1719.762661856534
 20
1020.045302510174
 30
0.0
 11
1717.262661856534
 21
1020.045302510174
 31
0.0
  0
LINE
  5
2397
330
1F
100
AcDbEntity
  8
10
100
AcDbLine
 10
1729.762661856534
 20
1020.045302510174
 30
0.0
 11
1727.262661856534
 21
1020.045302510174
 31
0.0
  0
LINE
  5
2398
330
1F
100
AcDbEntity
  8
10
100
AcDbLine
 10
1619.762661856534
 20
1035.045302510174
 30
0.0
 11
1617.262661856534
 21
1035.045302510174
 31
0.0
  0
LINE
  5
2399
330
1F
100
AcDbEntity
  8
10
100
AcDbLine
 10
1614.762661856534
 20
1035.045302510174
 30
0.0
 11
1612.262661856534
 21
1035.045302510174
 31
0.0
  0
LINE
  5
239A
330
1F
100
AcDbEntity
  8
10
100
AcDbLine
 10
1629.762661856534
 20
1035.045302510174
 30
0.0
 11
1627.262661856534
 21
1035.045302510174
 31
0.0
  0
LINE
  5
239B
330
1F
100
AcDbEntity
  8
10
100
AcDbLine
 10
1624.762661856534
 20
1035.045302510174
 30
0.0
 11
1622.262661856534
 21
1035.045302510174
 31
0.0
  0
LINE
  5
239C
330
1F
100
AcDbEntity
  8
10
100
AcDbLine
 10
1619.762661856534
 20
1070.045302510174
 30
0.0
 11
1617.262661856534
 21
1070.045302510174
 31
0.0
  0
LINE
  5
239D
330
1F
100
AcDbEntity
  8
10
100
AcDbLine
 10
1614.762661856534
 20
1070.045302510174
 30
0.0
 11
1612.262661856534
 21
1070.045302510174
 31
0.0
  0
LINE
  5
239E
330
1F
100
AcDbEntity
  8
10
100
AcDbLine
 10
1629.762661856534
 20
1070.045302510174
 30
0.0
 11
1627.262661856534
 21
1070.045302510174
 31
0.0
  0
LINE
  5
239F
330
1F
100
AcDbEntity
  8
10
100
AcDbLine
 10
1624.762661856534
 20
1070.045302510174
 30
0.0
 11
1622.262661856534
 21
1070.045302510174
 31
0.0
  0
LINE
  5
23A0
330
1F
100
AcDbEntity
  8
10
100
AcDbLine
 10
1639.762661856534
 20
1035.045302510174
 30
0.0
 11
1637.262661856534
 21
1035.045302510174
 31
0.0
  0
LINE
  5
23A1
330
1F
100
AcDbEntity
  8
10
100
AcDbLine
 10
1634.762661856534
 20
1035.045302510174
 30
0.0
 11
1632.262661856534
 21
1035.045302510174
 31
0.0
  0
LINE
  5
23A2
330
1F
100
AcDbEntity
  8
10
100
AcDbLine
 10
1649.762661856534
 20
1035.045302510174
 30
0.0
 11
1647.262661856534
 21
1035.045302510174
 31
0.0
  0
LINE
  5
23A3
330
1F
100
AcDbEntity
  8
10
100
AcDbLine
 10
1644.762661856534
 20
1035.045302510174
 30
0.0
 11
1642.262661856534
 21
1035.045302510174
 31
0.0
  0
LINE
  5
23A4
330
1F
100
AcDbEntity
  8
10
100
AcDbLine
 10
1639.762661856534
 20
1070.045302510174
 30
0.0
 11
1637.262661856534
 21
1070.045302510174
 31
0.0
  0
LINE
  5
23A5
330
1F
100
AcDbEntity
  8
10
100
AcDbLine
 10
1634.762661856534
 20
1070.045302510174
 30
0.0
 11
1632.262661856534
 21
1070.045302510174
 31
0.0
  0
LINE
  5
23A6
330
1F
100
AcDbEntity
  8
10
100
AcDbLine
 10
1649.762661856534
 20
1070.045302510174
 30
0.0
 11
1647.262661856534
 21
1070.045302510174
 31
0.0
  0
LINE
  5
23A7
330
1F
100
AcDbEntity
  8
10
100
AcDbLine
 10
1644.762661856534
 20
1070.045302510174
 30
0.0
 11
1642.262661856534
 21
1070.045302510174
 31
0.0
  0
LINE
  5
23A8
330
1F
100
AcDbEntity
  8
10
100
AcDbLine
 10
1619.762661856534
 20
1085.045302510174
 30
0.0
 11
1617.262661856534
 21
1085.045302510174
 31
0.0
  0
LINE
  5
23A9
330
1F
100
AcDbEntity
  8
10
100
AcDbLine
 10
1614.762661856534
 20
1085.045302510174
 30
0.0
 11
1612.262661856534
 21
1085.045302510174
 31
0.0
  0
LINE
  5
23AA
330
1F
100
AcDbEntity
  8
10
100
AcDbLine
 10
1629.762661856534
 20
1085.045302510174
 30
0.0
 11
1627.262661856534
 21
1085.045302510174
 31
0.0
  0
LINE
  5
23AB
330
1F
100
AcDbEntity
  8
10
100
AcDbLine
 10
1624.762661856534
 20
1085.045302510174
 30
0.0
 11
1622.262661856534
 21
1085.045302510174
 31
0.0
  0
LINE
  5
23AC
330
1F
100
AcDbEntity
  8
10
100
AcDbLine
 10
1619.762661856534
 20
1120.045302510174
 30
0.0
 11
1617.262661856534
 21
1120.045302510174
 31
0.0
  0
LINE
  5
23AD
330
1F
100
AcDbEntity
  8
10
100
AcDbLine
 10
1614.762661856534
 20
1120.045302510174
 30
0.0
 11
1612.262661856534
 21
1120.045302510174
 31
0.0
  0
LINE
  5
23AE
330
1F
100
AcDbEntity
  8
10
100
AcDbLine
 10
1629.762661856534
 20
1120.045302510174
 30
0.0
 11
1627.262661856534
 21
1120.045302510174
 31
0.0
  0
LINE
  5
23AF
330
1F
100
AcDbEntity
  8
10
100
AcDbLine
 10
1624.762661856534
 20
1120.045302510174
 30
0.0
 11
1622.262661856534
 21
1120.045302510174
 31
0.0
  0
LINE
  5
23B0
330
1F
100
AcDbEntity
  8
10
100
AcDbLine
 10
1639.762661856534
 20
1085.045302510174
 30
0.0
 11
1637.262661856534
 21
1085.045302510174
 31
0.0
  0
LINE
  5
23B1
330
1F
100
AcDbEntity
  8
10
100
AcDbLine
 10
1634.762661856534
 20
1085.045302510174
 30
0.0
 11
1632.262661856534
 21
1085.045302510174
 31
0.0
  0
LINE
  5
23B2
330
1F
100
AcDbEntity
  8
10
100
AcDbLine
 10
1649.762661856534
 20
1085.045302510174
 30
0.0
 11
1647.262661856534
 21
1085.045302510174
 31
0.0
  0
LINE
  5
23B3
330
1F
100
AcDbEntity
  8
10
100
AcDbLine
 10
1644.762661856534
 20
1085.045302510174
 30
0.0
 11
1642.262661856534
 21
1085.045302510174
 31
0.0
  0
LINE
  5
23B4
330
1F
100
AcDbEntity
  8
10
100
AcDbLine
 10
1639.762661856534
 20
1120.045302510174
 30
0.0
 11
1637.262661856534
 21
1120.045302510174
 31
0.0
  0
LINE
  5
23B5
330
1F
100
AcDbEntity
  8
10
100
AcDbLine
 10
1634.762661856534
 20
1120.045302510174
 30
0.0
 11
1632.262661856534
 21
1120.045302510174
 31
0.0
  0
LINE
  5
23B6
330
1F
100
AcDbEntity
  8
10
100
AcDbLine
 10
1649.762661856534
 20
1120.045302510174
 30
0.0
 11
1647.262661856534
 21
1120.045302510174
 31
0.0
  0
LINE
  5
23B7
330
1F
100
AcDbEntity
  8
10
100
AcDbLine
 10
1644.762661856534
 20
1120.045302510174
 30
0.0
 11
1642.262661856534
 21
1120.045302510174
 31
0.0
  0
LINE
  5
23B8
330
1F
100
AcDbEntity
  8
10
100
AcDbLine
 10
1659.762661856534
 20
1035.045302510174
 30
0.0
 11
1657.262661856534
 21
1035.045302510174
 31
0.0
  0
LINE
  5
23B9
330
1F
100
AcDbEntity
  8
10
100
AcDbLine
 10
1654.762661856534
 20
1035.045302510174
 30
0.0
 11
1652.262661856534
 21
1035.045302510174
 31
0.0
  0
LINE
  5
23BA
330
1F
100
AcDbEntity
  8
10
100
AcDbLine
 10
1669.762661856534
 20
1035.045302510174
 30
0.0
 11
1667.262661856534
 21
1035.045302510174
 31
0.0
  0
LINE
  5
23BB
330
1F
100
AcDbEntity
  8
10
100
AcDbLine
 10
1664.762661856534
 20
1035.045302510174
 30
0.0
 11
1662.262661856534
 21
1035.045302510174
 31
0.0
  0
LINE
  5
23BC
330
1F
100
AcDbEntity
  8
10
100
AcDbLine
 10
1659.762661856534
 20
1070.045302510174
 30
0.0
 11
1657.262661856534
 21
1070.045302510174
 31
0.0
  0
LINE
  5
23BD
330
1F
100
AcDbEntity
  8
10
100
AcDbLine
 10
1654.762661856534
 20
1070.045302510174
 30
0.0
 11
1652.262661856534
 21
1070.045302510174
 31
0.0
  0
LINE
  5
23BE
330
1F
100
AcDbEntity
  8
10
100
AcDbLine
 10
1669.762661856534
 20
1070.045302510174
 30
0.0
 11
1667.262661856534
 21
1070.045302510174
 31
0.0
  0
LINE
  5
23BF
330
1F
100
AcDbEntity
  8
10
100
AcDbLine
 10
1664.762661856534
 20
1070.045302510174
 30
0.0
 11
1662.262661856534
 21
1070.045302510174
 31
0.0
  0
LINE
  5
23C0
330
1F
100
AcDbEntity
  8
10
100
AcDbLine
 10
1679.762661856534
 20
1035.045302510174
 30
0.0
 11
1677.262661856534
 21
1035.045302510174
 31
0.0
  0
LINE
  5
23C1
330
1F
100
AcDbEntity
  8
10
100
AcDbLine
 10
1674.762661856534
 20
1035.045302510174
 30
0.0
 11
1672.262661856534
 21
1035.045302510174
 31
0.0
  0
LINE
  5
23C2
330
1F
100
AcDbEntity
  8
10
100
AcDbLine
 10
1689.762661856534
 20
1035.045302510174
 30
0.0
 11
1687.262661856534
 21
1035.045302510174
 31
0.0
  0
LINE
  5
23C3
330
1F
100
AcDbEntity
  8
10
100
AcDbLine
 10
1684.762661856534
 20
1035.045302510174
 30
0.0
 11
1682.262661856534
 21
1035.045302510174
 31
0.0
  0
LINE
  5
23C4
330
1F
100
AcDbEntity
  8
10
100
AcDbLine
 10
1679.762661856534
 20
1070.045302510174
 30
0.0
 11
1677.262661856534
 21
1070.045302510174
 31
0.0
  0
LINE
  5
23C5
330
1F
100
AcDbEntity
  8
10
100
AcDbLine
 10
1674.762661856534
 20
1070.045302510174
 30
0.0
 11
1672.262661856534
 21
1070.045302510174
 31
0.0
  0
LINE
  5
23C6
330
1F
100
AcDbEntity
  8
10
100
AcDbLine
 10
1689.762661856534
 20
1070.045302510174
 30
0.0
 11
1687.262661856534
 21
1070.045302510174
 31
0.0
  0
LINE
  5
23C7
330
1F
100
AcDbEntity
  8
10
100
AcDbLine
 10
1684.762661856534
 20
1070.045302510174
 30
0.0
 11
1682.262661856534
 21
1070.045302510174
 31
0.0
  0
LINE
  5
23C8
330
1F
100
AcDbEntity
  8
10
100
AcDbLine
 10
1659.762661856534
 20
1085.045302510174
 30
0.0
 11
1657.262661856534
 21
1085.045302510174
 31
0.0
  0
LINE
  5
23C9
330
1F
100
AcDbEntity
  8
10
100
AcDbLine
 10
1654.762661856534
 20
1085.045302510174
 30
0.0
 11
1652.262661856534
 21
1085.045302510174
 31
0.0
  0
LINE
  5
23CA
330
1F
100
AcDbEntity
  8
10
100
AcDbLine
 10
1669.762661856534
 20
1085.045302510174
 30
0.0
 11
1667.262661856534
 21
1085.045302510174
 31
0.0
  0
LINE
  5
23CB
330
1F
100
AcDbEntity
  8
10
100
AcDbLine
 10
1664.762661856534
 20
1085.045302510174
 30
0.0
 11
1662.262661856534
 21
1085.045302510174
 31
0.0
  0
LINE
  5
23CC
330
1F
100
AcDbEntity
  8
10
100
AcDbLine
 10
1659.762661856534
 20
1120.045302510174
 30
0.0
 11
1657.262661856534
 21
1120.045302510174
 31
0.0
  0
LINE
  5
23CD
330
1F
100
AcDbEntity
  8
10
100
AcDbLine
 10
1654.762661856534
 20
1120.045302510174
 30
0.0
 11
1652.262661856534
 21
1120.045302510174
 31
0.0
  0
LINE
  5
23CE
330
1F
100
AcDbEntity
  8
10
100
AcDbLine
 10
1669.762661856534
 20
1120.045302510174
 30
0.0
 11
1667.262661856534
 21
1120.045302510174
 31
0.0
  0
LINE
  5
23CF
330
1F
100
AcDbEntity
  8
10
100
AcDbLine
 10
1664.762661856534
 20
1120.045302510174
 30
0.0
 11
1662.262661856534
 21
1120.045302510174
 31
0.0
  0
LINE
  5
23D0
330
1F
100
AcDbEntity
  8
10
100
AcDbLine
 10
1679.762661856534
 20
1085.045302510174
 30
0.0
 11
1677.262661856534
 21
1085.045302510174
 31
0.0
  0
LINE
  5
23D1
330
1F
100
AcDbEntity
  8
10
100
AcDbLine
 10
1674.762661856534
 20
1085.045302510174
 30
0.0
 11
1672.262661856534
 21
1085.045302510174
 31
0.0
  0
LINE
  5
23D2
330
1F
100
AcDbEntity
  8
10
100
AcDbLine
 10
1689.762661856534
 20
1085.045302510174
 30
0.0
 11
1687.262661856534
 21
1085.045302510174
 31
0.0
  0
LINE
  5
23D3
330
1F
100
AcDbEntity
  8
10
100
AcDbLine
 10
1684.762661856534
 20
1085.045302510174
 30
0.0
 11
1682.262661856534
 21
1085.045302510174
 31
0.0
  0
LINE
  5
23D4
330
1F
100
AcDbEntity
  8
10
100
AcDbLine
 10
1679.762661856534
 20
1120.045302510174
 30
0.0
 11
1677.262661856534
 21
1120.045302510174
 31
0.0
  0
LINE
  5
23D5
330
1F
100
AcDbEntity
  8
10
100
AcDbLine
 10
1674.762661856534
 20
1120.045302510174
 30
0.0
 11
1672.262661856534
 21
1120.045302510174
 31
0.0
  0
LINE
  5
23D6
330
1F
100
AcDbEntity
  8
10
100
AcDbLine
 10
1689.762661856534
 20
1120.045302510174
 30
0.0
 11
1687.262661856534
 21
1120.045302510174
 31
0.0
  0
LINE
  5
23D7
330
1F
100
AcDbEntity
  8
10
100
AcDbLine
 10
1684.762661856534
 20
1120.045302510174
 30
0.0
 11
1682.262661856534
 21
1120.045302510174
 31
0.0
  0
LINE
  5
23D8
330
1F
100
AcDbEntity
  8
10
100
AcDbLine
 10
1619.762661856534
 20
1135.045302510174
 30
0.0
 11
1617.262661856534
 21
1135.045302510174
 31
0.0
  0
LINE
  5
23D9
330
1F
100
AcDbEntity
  8
10
100
AcDbLine
 10
1614.762661856534
 20
1135.045302510174
 30
0.0
 11
1612.262661856534
 21
1135.045302510174
 31
0.0
  0
LINE
  5
23DA
330
1F
100
AcDbEntity
  8
10
100
AcDbLine
 10
1629.762661856534
 20
1135.045302510174
 30
0.0
 11
1627.262661856534
 21
1135.045302510174
 31
0.0
  0
LINE
  5
23DB
330
1F
100
AcDbEntity
  8
10
100
AcDbLine
 10
1624.762661856534
 20
1135.045302510174
 30
0.0
 11
1622.262661856534
 21
1135.045302510174
 31
0.0
  0
LINE
  5
23DC
330
1F
100
AcDbEntity
  8
10
100
AcDbLine
 10
1619.762661856534
 20
1170.045302510174
 30
0.0
 11
1617.262661856534
 21
1170.045302510174
 31
0.0
  0
LINE
  5
23DD
330
1F
100
AcDbEntity
  8
10
100
AcDbLine
 10
1614.762661856534
 20
1170.045302510174
 30
0.0
 11
1612.262661856534
 21
1170.045302510174
 31
0.0
  0
LINE
  5
23DE
330
1F
100
AcDbEntity
  8
10
100
AcDbLine
 10
1629.762661856534
 20
1170.045302510174
 30
0.0
 11
1627.262661856534
 21
1170.045302510174
 31
0.0
  0
LINE
  5
23DF
330
1F
100
AcDbEntity
  8
10
100
AcDbLine
 10
1624.762661856534
 20
1170.045302510174
 30
0.0
 11
1622.262661856534
 21
1170.045302510174
 31
0.0
  0
LINE
  5
23E0
330
1F
100
AcDbEntity
  8
10
100
AcDbLine
 10
1639.762661856534
 20
1135.045302510174
 30
0.0
 11
1637.262661856534
 21
1135.045302510174
 31
0.0
  0
LINE
  5
23E1
330
1F
100
AcDbEntity
  8
10
100
AcDbLine
 10
1634.762661856534
 20
1135.045302510174
 30
0.0
 11
1632.262661856534
 21
1135.045302510174
 31
0.0
  0
LINE
  5
23E2
330
1F
100
AcDbEntity
  8
10
100
AcDbLine
 10
1649.762661856534
 20
1135.045302510174
 30
0.0
 11
1647.262661856534
 21
1135.045302510174
 31
0.0
  0
LINE
  5
23E3
330
1F
100
AcDbEntity
  8
10
100
AcDbLine
 10
1644.762661856534
 20
1135.045302510174
 30
0.0
 11
1642.262661856534
 21
1135.045302510174
 31
0.0
  0
LINE
  5
23E4
330
1F
100
AcDbEntity
  8
10
100
AcDbLine
 10
1639.762661856534
 20
1170.045302510174
 30
0.0
 11
1637.262661856534
 21
1170.045302510174
 31
0.0
  0
LINE
  5
23E5
330
1F
100
AcDbEntity
  8
10
100
AcDbLine
 10
1634.762661856534
 20
1170.045302510174
 30
0.0
 11
1632.262661856534
 21
1170.045302510174
 31
0.0
  0
LINE
  5
23E6
330
1F
100
AcDbEntity
  8
10
100
AcDbLine
 10
1649.762661856534
 20
1170.045302510174
 30
0.0
 11
1647.262661856534
 21
1170.045302510174
 31
0.0
  0
LINE
  5
23E7
330
1F
100
AcDbEntity
  8
10
100
AcDbLine
 10
1644.762661856534
 20
1170.045302510174
 30
0.0
 11
1642.262661856534
 21
1170.045302510174
 31
0.0
  0
LINE
  5
23E8
330
1F
100
AcDbEntity
  8
10
100
AcDbLine
 10
1619.762661856534
 20
1185.045302510174
 30
0.0
 11
1617.262661856534
 21
1185.045302510174
 31
0.0
  0
LINE
  5
23E9
330
1F
100
AcDbEntity
  8
10
100
AcDbLine
 10
1614.762661856534
 20
1185.045302510174
 30
0.0
 11
1612.262661856534
 21
1185.045302510174
 31
0.0
  0
LINE
  5
23EA
330
1F
100
AcDbEntity
  8
10
100
AcDbLine
 10
1629.762661856534
 20
1185.045302510174
 30
0.0
 11
1627.262661856534
 21
1185.045302510174
 31
0.0
  0
LINE
  5
23EB
330
1F
100
AcDbEntity
  8
10
100
AcDbLine
 10
1624.762661856534
 20
1185.045302510174
 30
0.0
 11
1622.262661856534
 21
1185.045302510174
 31
0.0
  0
ARC
  5
23EC
330
1F
100
AcDbEntity
  8
10
100
AcDbCircle
 10
1618.512661856534
 20
1206.295302510172
 30
0.0
 40
1.25
100
AcDbArc
 50
0.0
 51
180.0
  0
ARC
  5
23ED
330
1F
100
AcDbEntity
  8
10
100
AcDbCircle
 10
1613.512661856534
 20
1206.295302510172
 30
0.0
 40
1.25
100
AcDbArc
 50
0.0
 51
180.0
  0
ARC
  5
23EE
330
1F
100
AcDbEntity
  8
10
100
AcDbCircle
 10
1628.512661856534
 20
1206.295302510172
 30
0.0
 40
1.25
100
AcDbArc
 50
0.0
 51
180.0
  0
ARC
  5
23EF
330
1F
100
AcDbEntity
  8
10
100
AcDbCircle
 10
1623.512661856534
 20
1206.295302510172
 30
0.0
 40
1.25
100
AcDbArc
 50
0.0
 51
180.0
  0
LINE
  5
23F0
330
1F
100
AcDbEntity
  8
10
100
AcDbLine
 10
1639.762661856534
 20
1185.045302510174
 30
0.0
 11
1637.262661856534
 21
1185.045302510174
 31
0.0
  0
LINE
  5
23F1
330
1F
100
AcDbEntity
  8
10
100
AcDbLine
 10
1634.762661856534
 20
1185.045302510174
 30
0.0
 11
1632.262661856534
 21
1185.045302510174
 31
0.0
  0
LINE
  5
23F2
330
1F
100
AcDbEntity
  8
10
100
AcDbLine
 10
1649.762661856534
 20
1185.045302510174
 30
0.0
 11
1647.262661856534
 21
1185.045302510174
 31
0.0
  0
LINE
  5
23F3
330
1F
100
AcDbEntity
  8
10
100
AcDbLine
 10
1644.762661856534
 20
1185.045302510174
 30
0.0
 11
1642.262661856534
 21
1185.045302510174
 31
0.0
  0
ARC
  5
23F4
330
1F
100
AcDbEntity
  8
10
100
AcDbCircle
 10
1638.512661856534
 20
1206.295302510172
 30
0.0
 40
1.25
100
AcDbArc
 50
0.0
 51
180.0
  0
ARC
  5
23F5
330
1F
100
AcDbEntity
  8
10
100
AcDbCircle
 10
1633.512661856534
 20
1206.295302510172
 30
0.0
 40
1.250000000000011
100
AcDbArc
 50
0.0
 51
180.0
  0
ARC
  5
23F6
330
1F
100
AcDbEntity
  8
10
100
AcDbCircle
 10
1648.512661856534
 20
1206.295302510172
 30
0.0
 40
1.25
100
AcDbArc
 50
0.0
 51
180.0
  0
ARC
  5
23F7
330
1F
100
AcDbEntity
  8
10
100
AcDbCircle
 10
1643.512661856534
 20
1206.295302510172
 30
0.0
 40
1.25
100
AcDbArc
 50
0.0
 51
180.0
  0
LINE
  5
23F8
330
1F
100
AcDbEntity
  8
10
100
AcDbLine
 10
1659.762661856534
 20
1135.045302510174
 30
0.0
 11
1657.262661856534
 21
1135.045302510174
 31
0.0
  0
LINE
  5
23F9
330
1F
100
AcDbEntity
  8
10
100
AcDbLine
 10
1654.762661856534
 20
1135.045302510174
 30
0.0
 11
1652.262661856534
 21
1135.045302510174
 31
0.0
  0
LINE
  5
23FA
330
1F
100
AcDbEntity
  8
10
100
AcDbLine
 10
1669.762661856534
 20
1135.045302510174
 30
0.0
 11
1667.262661856534
 21
1135.045302510174
 31
0.0
  0
LINE
  5
23FB
330
1F
100
AcDbEntity
  8
10
100
AcDbLine
 10
1664.762661856534
 20
1135.045302510174
 30
0.0
 11
1662.262661856534
 21
1135.045302510174
 31
0.0
  0
LINE
  5
23FC
330
1F
100
AcDbEntity
  8
10
100
AcDbLine
 10
1659.762661856534
 20
1170.045302510174
 30
0.0
 11
1657.262661856534
 21
1170.045302510174
 31
0.0
  0
LINE
  5
23FD
330
1F
100
AcDbEntity
  8
10
100
AcDbLine
 10
1654.762661856534
 20
1170.045302510174
 30
0.0
 11
1652.262661856534
 21
1170.045302510174
 31
0.0
  0
LINE
  5
23FE
330
1F
100
AcDbEntity
  8
10
100
AcDbLine
 10
1669.762661856534
 20
1170.045302510174
 30
0.0
 11
1667.262661856534
 21
1170.045302510174
 31
0.0
  0
LINE
  5
23FF
330
1F
100
AcDbEntity
  8
10
100
AcDbLine
 10
1664.762661856534
 20
1170.045302510174
 30
0.0
 11
1662.262661856534
 21
1170.045302510174
 31
0.0
  0
LINE
  5
2400
330
1F
100
AcDbEntity
  8
10
100
AcDbLine
 10
1679.762661856534
 20
1135.045302510174
 30
0.0
 11
1677.262661856534
 21
1135.045302510174
 31
0.0
  0
LINE
  5
2401
330
1F
100
AcDbEntity
  8
10
100
AcDbLine
 10
1674.762661856534
 20
1135.045302510174
 30
0.0
 11
1672.262661856534
 21
1135.045302510174
 31
0.0
  0
LINE
  5
2402
330
1F
100
AcDbEntity
  8
10
100
AcDbLine
 10
1689.762661856534
 20
1135.045302510174
 30
0.0
 11
1687.262661856534
 21
1135.045302510174
 31
0.0
  0
LINE
  5
2403
330
1F
100
AcDbEntity
  8
10
100
AcDbLine
 10
1684.762661856534
 20
1135.045302510174
 30
0.0
 11
1682.262661856534
 21
1135.045302510174
 31
0.0
  0
LINE
  5
2404
330
1F
100
AcDbEntity
  8
10
100
AcDbLine
 10
1679.762661856534
 20
1170.045302510174
 30
0.0
 11
1677.262661856534
 21
1170.045302510174
 31
0.0
  0
LINE
  5
2405
330
1F
100
AcDbEntity
  8
10
100
AcDbLine
 10
1674.762661856534
 20
1170.045302510174
 30
0.0
 11
1672.262661856534
 21
1170.045302510174
 31
0.0
  0
LINE
  5
2406
330
1F
100
AcDbEntity
  8
10
100
AcDbLine
 10
1689.762661856534
 20
1170.045302510174
 30
0.0
 11
1687.262661856534
 21
1170.045302510174
 31
0.0
  0
LINE
  5
2407
330
1F
100
AcDbEntity
  8
10
100
AcDbLine
 10
1684.762661856534
 20
1170.045302510174
 30
0.0
 11
1682.262661856534
 21
1170.045302510174
 31
0.0
  0
LINE
  5
2408
330
1F
100
AcDbEntity
  8
10
100
AcDbLine
 10
1659.762661856534
 20
1185.045302510174
 30
0.0
 11
1657.262661856534
 21
1185.045302510174
 31
0.0
  0
LINE
  5
2409
330
1F
100
AcDbEntity
  8
10
100
AcDbLine
 10
1654.762661856534
 20
1185.045302510174
 30
0.0
 11
1652.262661856534
 21
1185.045302510174
 31
0.0
  0
LINE
  5
240A
330
1F
100
AcDbEntity
  8
10
100
AcDbLine
 10
1669.762661856534
 20
1185.045302510174
 30
0.0
 11
1667.262661856534
 21
1185.045302510174
 31
0.0
  0
LINE
  5
240B
330
1F
100
AcDbEntity
  8
10
100
AcDbLine
 10
1664.762661856534
 20
1185.045302510174
 30
0.0
 11
1662.262661856534
 21
1185.045302510174
 31
0.0
  0
ARC
  5
240C
330
1F
100
AcDbEntity
  8
10
100
AcDbCircle
 10
1658.512661856534
 20
1206.295302510172
 30
0.0
 40
1.25
100
AcDbArc
 50
0.0
 51
180.0
  0
ARC
  5
240D
330
1F
100
AcDbEntity
  8
10
100
AcDbCircle
 10
1653.512661856534
 20
1206.295302510172
 30
0.0
 40
1.25
100
AcDbArc
 50
0.0
 51
180.0
  0
ARC
  5
240E
330
1F
100
AcDbEntity
  8
10
100
AcDbCircle
 10
1668.512661856534
 20
1206.295302510172
 30
0.0
 40
1.25
100
AcDbArc
 50
0.0
 51
180.0
  0
ARC
  5
240F
330
1F
100
AcDbEntity
  8
10
100
AcDbCircle
 10
1663.512661856534
 20
1206.295302510172
 30
0.0
 40
1.25
100
AcDbArc
 50
0.0
 51
180.0
  0
LINE
  5
2410
330
1F
100
AcDbEntity
  8
10
100
AcDbLine
 10
1679.762661856534
 20
1185.045302510174
 30
0.0
 11
1677.262661856534
 21
1185.045302510174
 31
0.0
  0
LINE
  5
2411
330
1F
100
AcDbEntity
  8
10
100
AcDbLine
 10
1674.762661856534
 20
1185.045302510174
 30
0.0
 11
1672.262661856534
 21
1185.045302510174
 31
0.0
  0
LINE
  5
2412
330
1F
100
AcDbEntity
  8
10
100
AcDbLine
 10
1689.762661856534
 20
1185.045302510174
 30
0.0
 11
1687.262661856534
 21
1185.045302510174
 31
0.0
  0
LINE
  5
2413
330
1F
100
AcDbEntity
  8
10
100
AcDbLine
 10
1684.762661856534
 20
1185.045302510174
 30
0.0
 11
1682.262661856534
 21
1185.045302510174
 31
0.0
  0
ARC
  5
2414
330
1F
100
AcDbEntity
  8
10
100
AcDbCircle
 10
1678.512661856534
 20
1206.295302510172
 30
0.0
 40
1.25
100
AcDbArc
 50
0.0
 51
180.0
  0
ARC
  5
2415
330
1F
100
AcDbEntity
  8
10
100
AcDbCircle
 10
1673.512661856534
 20
1206.295302510172
 30
0.0
 40
1.25
100
AcDbArc
 50
0.0
 51
180.0
  0
ARC
  5
2416
330
1F
100
AcDbEntity
  8
10
100
AcDbCircle
 10
1688.512661856534
 20
1206.295302510172
 30
0.0
 40
1.25
100
AcDbArc
 50
0.0
 51
180.0
  0
ARC
  5
2417
330
1F
100
AcDbEntity
  8
10
100
AcDbCircle
 10
1683.512661856534
 20
1206.295302510172
 30
0.0
 40
1.25
100
AcDbArc
 50
0.0
 51
180.0
  0
LINE
  5
2418
330
1F
100
AcDbEntity
  8
10
100
AcDbLine
 10
1714.762661856534
 20
1035.045302510174
 30
0.0
 11
1712.262661856534
 21
1035.045302510174
 31
0.0
  0
LINE
  5
2419
330
1F
100
AcDbEntity
  8
10
100
AcDbLine
 10
1714.762661856534
 20
1070.045302510174
 30
0.0
 11
1712.262661856534
 21
1070.045302510174
 31
0.0
  0
LINE
  5
241A
330
1F
100
AcDbEntity
  8
10
100
AcDbLine
 10
1704.762661856534
 20
1035.045302510174
 30
0.0
 11
1702.262661856534
 21
1035.045302510174
 31
0.0
  0
LINE
  5
241B
330
1F
100
AcDbEntity
  8
10
100
AcDbLine
 10
1699.762661856534
 20
1035.045302510174
 30
0.0
 11
1697.262661856534
 21
1035.045302510174
 31
0.0
  0
LINE
  5
241C
330
1F
100
AcDbEntity
  8
10
100
AcDbLine
 10
1694.762661856534
 20
1035.045302510174
 30
0.0
 11
1692.262661856534
 21
1035.045302510174
 31
0.0
  0
LINE
  5
241D
330
1F
100
AcDbEntity
  8
10
100
AcDbLine
 10
1709.762661856534
 20
1035.045302510174
 30
0.0
 11
1707.262661856534
 21
1035.045302510174
 31
0.0
  0
LINE
  5
241E
330
1F
100
AcDbEntity
  8
10
100
AcDbLine
 10
1704.762661856534
 20
1070.045302510174
 30
0.0
 11
1702.262661856534
 21
1070.045302510174
 31
0.0
  0
LINE
  5
241F
330
1F
100
AcDbEntity
  8
10
100
AcDbLine
 10
1699.762661856534
 20
1070.045302510174
 30
0.0
 11
1697.262661856534
 21
1070.045302510174
 31
0.0
  0
LINE
  5
2420
330
1F
100
AcDbEntity
  8
10
100
AcDbLine
 10
1694.762661856534
 20
1070.045302510174
 30
0.0
 11
1692.262661856534
 21
1070.045302510174
 31
0.0
  0
LINE
  5
2421
330
1F
100
AcDbEntity
  8
10
100
AcDbLine
 10
1709.762661856534
 20
1070.045302510174
 30
0.0
 11
1707.262661856534
 21
1070.045302510174
 31
0.0
  0
LINE
  5
2422
330
1F
100
AcDbEntity
  8
10
100
AcDbLine
 10
1724.762661856534
 20
1035.045302510174
 30
0.0
 11
1722.262661856534
 21
1035.045302510174
 31
0.0
  0
LINE
  5
2423
330
1F
100
AcDbEntity
  8
10
100
AcDbLine
 10
1719.762661856534
 20
1035.045302510174
 30
0.0
 11
1717.262661856534
 21
1035.045302510174
 31
0.0
  0
LINE
  5
2424
330
1F
100
AcDbEntity
  8
10
100
AcDbLine
 10
1729.762661856534
 20
1035.045302510174
 30
0.0
 11
1727.262661856534
 21
1035.045302510174
 31
0.0
  0
LINE
  5
2425
330
1F
100
AcDbEntity
  8
10
100
AcDbLine
 10
1724.762661856534
 20
1070.045302510174
 30
0.0
 11
1722.262661856534
 21
1070.045302510174
 31
0.0
  0
LINE
  5
2426
330
1F
100
AcDbEntity
  8
10
100
AcDbLine
 10
1719.762661856534
 20
1070.045302510174
 30
0.0
 11
1717.262661856534
 21
1070.045302510174
 31
0.0
  0
LINE
  5
2427
330
1F
100
AcDbEntity
  8
10
100
AcDbLine
 10
1729.762661856534
 20
1070.045302510174
 30
0.0
 11
1727.262661856534
 21
1070.045302510174
 31
0.0
  0
LINE
  5
2428
330
1F
100
AcDbEntity
  8
10
100
AcDbLine
 10
1714.762661856534
 20
1120.045302510174
 30
0.0
 11
1712.262661856534
 21
1120.045302510174
 31
0.0
  0
LINE
  5
2429
330
1F
100
AcDbEntity
  8
10
100
AcDbLine
 10
1714.762661856534
 20
1085.045302510174
 30
0.0
 11
1712.262661856534
 21
1085.045302510174
 31
0.0
  0
LINE
  5
242A
330
1F
100
AcDbEntity
  8
10
100
AcDbLine
 10
1704.762661856534
 20
1085.045302510174
 30
0.0
 11
1702.262661856534
 21
1085.045302510174
 31
0.0
  0
LINE
  5
242B
330
1F
100
AcDbEntity
  8
10
100
AcDbLine
 10
1699.762661856534
 20
1085.045302510174
 30
0.0
 11
1697.262661856534
 21
1085.045302510174
 31
0.0
  0
LINE
  5
242C
330
1F
100
AcDbEntity
  8
10
100
AcDbLine
 10
1694.762661856534
 20
1085.045302510174
 30
0.0
 11
1692.262661856534
 21
1085.045302510174
 31
0.0
  0
LINE
  5
242D
330
1F
100
AcDbEntity
  8
10
100
AcDbLine
 10
1709.762661856534
 20
1085.045302510174
 30
0.0
 11
1707.262661856534
 21
1085.045302510174
 31
0.0
  0
LINE
  5
242E
330
1F
100
AcDbEntity
  8
10
100
AcDbLine
 10
1704.762661856534
 20
1120.045302510174
 30
0.0
 11
1702.262661856534
 21
1120.045302510174
 31
0.0
  0
LINE
  5
242F
330
1F
100
AcDbEntity
  8
10
100
AcDbLine
 10
1699.762661856534
 20
1120.045302510174
 30
0.0
 11
1697.262661856534
 21
1120.045302510174
 31
0.0
  0
LINE
  5
2430
330
1F
100
AcDbEntity
  8
10
100
AcDbLine
 10
1694.762661856534
 20
1120.045302510174
 30
0.0
 11
1692.262661856534
 21
1120.045302510174
 31
0.0
  0
LINE
  5
2431
330
1F
100
AcDbEntity
  8
10
100
AcDbLine
 10
1709.762661856534
 20
1120.045302510174
 30
0.0
 11
1707.262661856534
 21
1120.045302510174
 31
0.0
  0
LINE
  5
2432
330
1F
100
AcDbEntity
  8
10
100
AcDbLine
 10
1724.762661856534
 20
1085.045302510174
 30
0.0
 11
1722.262661856534
 21
1085.045302510174
 31
0.0
  0
LINE
  5
2433
330
1F
100
AcDbEntity
  8
10
100
AcDbLine
 10
1719.762661856534
 20
1085.045302510174
 30
0.0
 11
1717.262661856534
 21
1085.045302510174
 31
0.0
  0
LINE
  5
2434
330
1F
100
AcDbEntity
  8
10
100
AcDbLine
 10
1729.762661856534
 20
1085.045302510174
 30
0.0
 11
1727.262661856534
 21
1085.045302510174
 31
0.0
  0
LINE
  5
2435
330
1F
100
AcDbEntity
  8
10
100
AcDbLine
 10
1724.762661856534
 20
1120.045302510174
 30
0.0
 11
1722.262661856534
 21
1120.045302510174
 31
0.0
  0
LINE
  5
2436
330
1F
100
AcDbEntity
  8
10
100
AcDbLine
 10
1719.762661856534
 20
1120.045302510174
 30
0.0
 11
1717.262661856534
 21
1120.045302510174
 31
0.0
  0
LINE
  5
2437
330
1F
100
AcDbEntity
  8
10
100
AcDbLine
 10
1729.762661856534
 20
1120.045302510174
 30
0.0
 11
1727.262661856534
 21
1120.045302510174
 31
0.0
  0
LINE
  5
2438
330
1F
100
AcDbEntity
  8
10
100
AcDbLine
 10
1714.762661856534
 20
1170.045302510174
 30
0.0
 11
1712.262661856534
 21
1170.045302510174
 31
0.0
  0
LINE
  5
2439
330
1F
100
AcDbEntity
  8
10
100
AcDbLine
 10
1714.762661856534
 20
1135.045302510174
 30
0.0
 11
1712.262661856534
 21
1135.045302510174
 31
0.0
  0
LINE
  5
243A
330
1F
100
AcDbEntity
  8
10
100
AcDbLine
 10
1704.762661856534
 20
1135.045302510174
 30
0.0
 11
1702.262661856534
 21
1135.045302510174
 31
0.0
  0
LINE
  5
243B
330
1F
100
AcDbEntity
  8
10
100
AcDbLine
 10
1699.762661856534
 20
1135.045302510174
 30
0.0
 11
1697.262661856534
 21
1135.045302510174
 31
0.0
  0
LINE
  5
243C
330
1F
100
AcDbEntity
  8
10
100
AcDbLine
 10
1694.762661856534
 20
1135.045302510174
 30
0.0
 11
1692.262661856534
 21
1135.045302510174
 31
0.0
  0
LINE
  5
243D
330
1F
100
AcDbEntity
  8
10
100
AcDbLine
 10
1709.762661856534
 20
1135.045302510174
 30
0.0
 11
1707.262661856534
 21
1135.045302510174
 31
0.0
  0
LINE
  5
243E
330
1F
100
AcDbEntity
  8
10
100
AcDbLine
 10
1704.762661856534
 20
1170.045302510174
 30
0.0
 11
1702.262661856534
 21
1170.045302510174
 31
0.0
  0
LINE
  5
243F
330
1F
100
AcDbEntity
  8
10
100
AcDbLine
 10
1699.762661856534
 20
1170.045302510174
 30
0.0
 11
1697.262661856534
 21
1170.045302510174
 31
0.0
  0
LINE
  5
2440
330
1F
100
AcDbEntity
  8
10
100
AcDbLine
 10
1694.762661856534
 20
1170.045302510174
 30
0.0
 11
1692.262661856534
 21
1170.045302510174
 31
0.0
  0
LINE
  5
2441
330
1F
100
AcDbEntity
  8
10
100
AcDbLine
 10
1709.762661856534
 20
1170.045302510174
 30
0.0
 11
1707.262661856534
 21
1170.045302510174
 31
0.0
  0
LINE
  5
2442
330
1F
100
AcDbEntity
  8
10
100
AcDbLine
 10
1724.762661856534
 20
1135.045302510174
 30
0.0
 11
1722.262661856534
 21
1135.045302510174
 31
0.0
  0
LINE
  5
2443
330
1F
100
AcDbEntity
  8
10
100
AcDbLine
 10
1719.762661856534
 20
1135.045302510174
 30
0.0
 11
1717.262661856534
 21
1135.045302510174
 31
0.0
  0
LINE
  5
2444
330
1F
100
AcDbEntity
  8
10
100
AcDbLine
 10
1729.762661856534
 20
1135.045302510174
 30
0.0
 11
1727.262661856534
 21
1135.045302510174
 31
0.0
  0
LINE
  5
2445
330
1F
100
AcDbEntity
  8
10
100
AcDbLine
 10
1724.762661856534
 20
1170.045302510174
 30
0.0
 11
1722.262661856534
 21
1170.045302510174
 31
0.0
  0
LINE
  5
2446
330
1F
100
AcDbEntity
  8
10
100
AcDbLine
 10
1719.762661856534
 20
1170.045302510174
 30
0.0
 11
1717.262661856534
 21
1170.045302510174
 31
0.0
  0
LINE
  5
2447
330
1F
100
AcDbEntity
  8
10
100
AcDbLine
 10
1729.762661856534
 20
1170.045302510174
 30
0.0
 11
1727.262661856534
 21
1170.045302510174
 31
0.0
  0
LINE
  5
2448
330
1F
100
AcDbEntity
  8
10
100
AcDbLine
 10
1714.762661856534
 20
1185.045302510174
 30
0.0
 11
1712.262661856534
 21
1185.045302510174
 31
0.0
  0
ARC
  5
2449
330
1F
100
AcDbEntity
  8
10
100
AcDbCircle
 10
1713.512661856534
 20
1206.295302510172
 30
0.0
 40
1.25
100
AcDbArc
 50
0.0
 51
180.0
  0
LINE
  5
244A
330
1F
100
AcDbEntity
  8
10
100
AcDbLine
 10
1704.762661856534
 20
1185.045302510174
 30
0.0
 11
1702.262661856534
 21
1185.045302510174
 31
0.0
  0
LINE
  5
244B
330
1F
100
AcDbEntity
  8
10
100
AcDbLine
 10
1699.762661856534
 20
1185.045302510174
 30
0.0
 11
1697.262661856534
 21
1185.045302510174
 31
0.0
  0
LINE
  5
244C
330
1F
100
AcDbEntity
  8
10
100
AcDbLine
 10
1694.762661856534
 20
1185.045302510174
 30
0.0
 11
1692.262661856534
 21
1185.045302510174
 31
0.0
  0
LINE
  5
244D
330
1F
100
AcDbEntity
  8
10
100
AcDbLine
 10
1709.762661856534
 20
1185.045302510174
 30
0.0
 11
1707.262661856534
 21
1185.045302510174
 31
0.0
  0
ARC
  5
244E
330
1F
100
AcDbEntity
  8
10
100
AcDbCircle
 10
1703.512661856534
 20
1206.295302510172
 30
0.0
 40
1.25
100
AcDbArc
 50
0.0
 51
180.0
  0
ARC
  5
244F
330
1F
100
AcDbEntity
  8
10
100
AcDbCircle
 10
1698.512661856534
 20
1206.295302510172
 30
0.0
 40
1.25
100
AcDbArc
 50
0.0
 51
180.0
  0
ARC
  5
2450
330
1F
100
AcDbEntity
  8
10
100
AcDbCircle
 10
1693.512661856534
 20
1206.295302510172
 30
0.0
 40
1.25
100
AcDbArc
 50
0.0
 51
180.0
  0
ARC
  5
2451
330
1F
100
AcDbEntity
  8
10
100
AcDbCircle
 10
1708.512661856534
 20
1206.295302510172
 30
0.0
 40
1.25
100
AcDbArc
 50
0.0
 51
180.0
  0
LINE
  5
2452
330
1F
100
AcDbEntity
  8
10
100
AcDbLine
 10
1724.762661856534
 20
1185.045302510174
 30
0.0
 11
1722.262661856534
 21
1185.045302510174
 31
0.0
  0
LINE
  5
2453
330
1F
100
AcDbEntity
  8
10
100
AcDbLine
 10
1719.762661856534
 20
1185.045302510174
 30
0.0
 11
1717.262661856534
 21
1185.045302510174
 31
0.0
  0
LINE
  5
2454
330
1F
100
AcDbEntity
  8
10
100
AcDbLine
 10
1729.762661856534
 20
1185.045302510174
 30
0.0
 11
1727.262661856534
 21
1185.045302510174
 31
0.0
  0
ARC
  5
2455
330
1F
100
AcDbEntity
  8
10
100
AcDbCircle
 10
1723.512661856534
 20
1206.295302510172
 30
0.0
 40
1.25
100
AcDbArc
 50
0.0
 51
180.0
  0
ARC
  5
2456
330
1F
100
AcDbEntity
  8
10
100
AcDbCircle
 10
1718.512661856534
 20
1206.295302510172
 30
0.0
 40
1.25
100
AcDbArc
 50
0.0
 51
180.0
  0
ARC
  5
2457
330
1F
100
AcDbEntity
  8
10
100
AcDbCircle
 10
1728.512661856534
 20
1206.295302510172
 30
0.0
 40
1.25
100
AcDbArc
 50
0.0
 51
180.0
  0
LINE
  5
2459
330
1F
100
AcDbEntity
  8
10
100
AcDbLine
 10
1587.512661856534
 20
1227.545302510174
 30
0.0
 11
1634.512661856534
 21
1227.545302510174
 31
0.0
  0
LINE
  5
245A
330
1F
100
AcDbEntity
  8
10
100
AcDbLine
 10
1587.012661856534
 20
1227.045302510174
 30
0.0
 11
1587.512661856534
 21
1227.045302510174
 31
0.0
  0
LINE
  5
245B
330
1F
100
AcDbEntity
  8
10
100
AcDbLine
 10
1634.512661856534
 20
1227.545302510174
 30
0.0
 11
1734.512661856534
 21
1237.545302510174
 31
0.0
  0
LINE
  5
245C
330
1F
100
AcDbEntity
  8
12
 48
3.0
100
AcDbLine
 10
1730.512661856534
 20
1232.545302510174
 30
0.0
 11
1754.512661856534
 21
1232.545302510174
 31
0.0
  0
LINE
  5
245D
330
1F
100
AcDbEntity
  8
10
100
AcDbLine
 10
1737.512661856534
 20
1242.545302510174
 30
0.0
 11
1747.512661856534
 21
1242.545302510174
 31
0.0
  0
LINE
  5
245E
330
1F
100
AcDbEntity
  8
10
100
AcDbLine
 10
1737.512661856534
 20
1237.545302510174
 30
0.0
 11
1737.512661856534
 21
1242.545302510174
 31
0.0
  0
LINE
  5
245F
330
1F
100
AcDbEntity
  8
10
100
AcDbLine
 10
1734.512661856534
 20
1237.545302510174
 30
0.0
 11
1739.012661856534
 21
1237.545302510174
 31
0.0
  0
LINE
  5
2460
330
1F
100
AcDbEntity
  8
10
100
AcDbLine
 10
1852.512661856534
 20
928.0453025101742
 30
0.0
 11
1852.512661856534
 21
1221.045302510174
 31
0.0
  0
LINE
  5
2462
330
1F
100
AcDbEntity
  8
10
100
AcDbLine
 10
1829.267077444262
 20
886.5453025101741
 30
0.0
 11
1777.258246268806
 21
886.5453025101741
 31
0.0
  0
LINE
  5
2463
330
1F
100
AcDbEntity
  8
10
100
AcDbLine
 10
1803.262661856534
 20
910.2453025101743
 30
0.0
 11
1808.714090427963
 21
904.0738739387455
 31
0.0
  0
LINE
  5
2464
330
1F
100
AcDbEntity
  8
10
100
AcDbLine
 10
1805.679804713676
 20
897.2853025101741
 30
0.0
 11
1800.845518999391
 21
897.2853025101741
 31
0.0
  0
LINE
  5
2465
330
1F
100
AcDbEntity
  8
10
100
AcDbLine
 10
1800.845518999391
 20
897.2853025101741
 30
0.0
 11
1800.845518999391
 21
904.0738739387455
 31
0.0
  0
LINE
  5
2466
330
1F
100
AcDbEntity
  8
10
100
AcDbLine
 10
1797.811233285105
 20
904.0738739387455
 30
0.0
 11
1800.845518999391
 21
904.0738739387455
 31
0.0
  0
LINE
  5
2467
330
1F
100
AcDbEntity
  8
10
100
AcDbLine
 10
1803.262661856534
 20
910.2453025101743
 30
0.0
 11
1797.811233285105
 21
904.0738739387455
 31
0.0
  0
LINE
  5
2468
330
1F
100
AcDbEntity
  8
10
100
AcDbLine
 10
1805.679804713676
 20
904.0738739387455
 30
0.0
 11
1808.714090427963
 21
904.0738739387455
 31
0.0
  0
LINE
  5
2469
330
1F
100
AcDbEntity
  8
10
100
AcDbLine
 10
1805.679804713676
 20
897.2853025101741
 30
0.0
 11
1805.679804713676
 21
904.0738739387455
 31
0.0
  0
ARC
  5
246A
330
1F
100
AcDbEntity
  8
10
100
AcDbCircle
 10
1837.342332547684
 20
887.2453025101743
 30
0.0
 40
1.499999999999961
100
AcDbArc
 50
213.3670129692236
 51
270.0
  0
ARC
  5
246B
330
1F
100
AcDbEntity
  8
10
100
AcDbCircle
 10
1839.012661856534
 20
888.3453025101742
 30
0.0
 40
3.499999999999982
100
AcDbArc
 50
180.0
 51
213.367012969225
  0
LINE
  5
246C
330
1F
100
AcDbEntity
  8
10
100
AcDbLine
 10
1835.512661856534
 20
888.3453025101742
 30
0.0
 11
1842.512661856534
 21
888.3453025101742
 31
0.0
  0
LINE
  5
246D
330
1F
100
AcDbEntity
  8
10
100
AcDbLine
 10
1835.012661856534
 20
889.3453025101743
 30
0.0
 11
1843.012661856534
 21
889.3453025101743
 31
0.0
  0
LINE
  5
246E
330
1F
100
AcDbEntity
  8
10
100
AcDbLine
 10
1843.012661856534
 20
889.8453025101742
 30
0.0
 11
1835.012661856534
 21
889.8453025101742
 31
0.0
  0
LINE
  5
246F
330
1F
100
AcDbEntity
  8
10
100
AcDbLine
 10
1843.062661856534
 20
919.2453025101743
 30
0.0
 11
1834.962661856534
 21
919.2453025101743
 31
0.0
  0
LINE
  5
2470
330
1F
100
AcDbEntity
  8
10
100
AcDbLine
 10
1834.962661856534
 20
916.0453025101745
 30
0.0
 11
1843.062661856534
 21
916.0453025101745
 31
0.0
  0
LINE
  5
2471
330
1F
100
AcDbEntity
  8
10
100
AcDbLine
 10
1834.26413371911
 20
889.8453025101744
 30
0.0
 11
1842.662661856534
 21
889.8453025101744
 31
0.0
  0
LINE
  5
2472
330
1F
100
AcDbEntity
  8
10
100
AcDbLine
 10
1835.212661856534
 20
888.3453025101742
 30
0.0
 11
1835.512661856534
 21
888.3453025101742
 31
0.0
  0
LINE
  5
2473
330
1F
100
AcDbEntity
  8
10
100
AcDbLine
 10
1835.212661856534
 20
889.3453025101743
 30
0.0
 11
1835.212661856534
 21
888.3453025101742
 31
0.0
  0
LINE
  5
2474
330
1F
100
AcDbEntity
  8
10
100
AcDbLine
 10
1835.012661856534
 20
889.8453025101742
 30
0.0
 11
1835.012661856534
 21
889.3453025101743
 31
0.0
  0
LINE
  5
2475
330
1F
100
AcDbEntity
  8
10
100
AcDbLine
 10
1836.010995652572
 20
886.5453025101741
 30
0.0
 11
1830.96413371911
 21
886.5453025101741
 31
0.0
  0
LINE
  5
2476
330
1F
100
AcDbEntity
  8
10
100
AcDbLine
 10
1834.26413371911
 20
889.8453025101744
 30
0.0
 11
1829.76413371911
 21
885.3453025101742
 31
0.0
  0
LINE
  5
2477
330
1F
100
AcDbEntity
  8
10
100
AcDbLine
 10
1833.767077444262
 20
891.0453025101743
 30
0.0
 11
1829.267077444262
 21
886.5453025101741
 31
0.0
  0
LINE
  5
2478
330
1F
100
AcDbEntity
  8
10
100
AcDbLine
 10
1834.962661856534
 20
916.0453025101745
 30
0.0
 11
1834.962661856534
 21
919.2453025101743
 31
0.0
  0
LINE
  5
2479
330
1F
100
AcDbEntity
  8
10
100
AcDbLine
 10
1843.262661856534
 20
891.0453025101743
 30
0.0
 11
1843.262661856534
 21
916.0453025101745
 31
0.0
  0
LINE
  5
247A
330
1F
100
AcDbEntity
  8
10
100
AcDbLine
 10
1837.481201541683
 20
888.3453025101742
 30
0.0
 11
1838.481201541683
 21
889.3453025101743
 31
0.0
  0
LINE
  5
247B
330
1F
100
AcDbEntity
  8
10
100
AcDbLine
 10
1838.830320633534
 20
888.3453025101742
 30
0.0
 11
1839.830320633534
 21
889.3453025101743
 31
0.0
  0
ARC
  5
247C
330
1F
100
AcDbEntity
  8
10
100
AcDbCircle
 10
1839.012661856534
 20
887.2453025101743
 30
0.0
 40
1.499999999999974
100
AcDbArc
 50
180.0
 51
270.0
  0
LINE
  5
247D
330
1F
100
AcDbEntity
  8
10
100
AcDbLine
 10
1839.012661856534
 20
885.7453025101742
 30
0.0
 11
1839.012661856534
 21
885.7453025101742
 31
0.0
  0
ARC
  5
247E
330
1F
100
AcDbEntity
  8
10
100
AcDbCircle
 10
1839.012661856534
 20
887.2453025101743
 30
0.0
 40
1.499999999999995
100
AcDbArc
 50
270.0
 51
0.0
  0
ARC
  5
247F
330
1F
100
AcDbEntity
  8
10
100
AcDbCircle
 10
1840.682991165382
 20
887.2453025101743
 30
0.0
 40
1.499999999999995
100
AcDbArc
 50
270.0
 51
326.6329870307763
  0
LINE
  5
2480
330
1F
100
AcDbEntity
  8
10
100
AcDbLine
 10
1840.682991165382
 20
885.7453025101742
 30
0.0
 11
1837.342332547684
 21
885.7453025101742
 31
0.0
  0
ARC
  5
2481
330
1F
100
AcDbEntity
  8
10
100
AcDbCircle
 10
1839.012661856534
 20
888.3453025101742
 30
0.0
 40
3.499999999999893
100
AcDbArc
 50
326.6329870307748
 51
0.0
  0
LINE
  5
2482
330
1F
100
AcDbEntity
  8
10
100
AcDbLine
 10
1842.512661856534
 20
888.3453025101742
 30
0.0
 11
1842.812661856534
 21
888.3453025101742
 31
0.0
  0
LINE
  5
2483
330
1F
100
AcDbEntity
  8
10
100
AcDbLine
 10
1842.812661856534
 20
888.3453025101742
 30
0.0
 11
1842.812661856534
 21
889.3453025101743
 31
0.0
  0
LINE
  5
2484
330
1F
100
AcDbEntity
  8
10
100
AcDbLine
 10
1843.012661856534
 20
889.3453025101743
 30
0.0
 11
1843.012661856534
 21
889.8453025101742
 31
0.0
  0
ARC
  5
2485
330
1F
100
AcDbEntity
  8
10
100
AcDbCircle
 10
1839.012661856534
 20
885.9453025101741
 30
0.0
 40
0.5999999999999658
100
AcDbArc
 50
270.0
 51
340.5287793655173
  0
ARC
  5
2486
330
1F
100
AcDbEntity
  8
10
100
AcDbCircle
 10
1842.662661856534
 20
890.4453025101743
 30
0.0
 40
0.5999999999999658
100
AcDbArc
 50
270.0
 51
90.0
  0
LINE
  5
2487
330
1F
100
AcDbEntity
  8
10
100
AcDbLine
 10
1837.012661856534
 20
920.3453025101742
 30
0.0
 11
1841.012661856534
 21
920.3453025101742
 31
0.0
  0
LINE
  5
2488
330
1F
100
AcDbEntity
  8
10
100
AcDbLine
 10
1837.012661856534
 20
919.2453025101743
 30
0.0
 11
1837.012661856534
 21
920.3453025101742
 31
0.0
  0
LINE
  5
2489
330
1F
100
AcDbEntity
  8
10
100
AcDbLine
 10
1841.012661856534
 20
919.2453025101743
 30
0.0
 11
1841.012661856534
 21
920.3453025101742
 31
0.0
  0
LINE
  5
248A
330
1F
100
AcDbEntity
  8
10
100
AcDbLine
 10
1840.912661856534
 20
916.0453025101745
 30
0.0
 11
1840.912661856534
 21
919.2453025101743
 31
0.0
  0
LINE
  5
248B
330
1F
100
AcDbEntity
  8
10
100
AcDbLine
 10
1837.112661856534
 20
916.0453025101745
 30
0.0
 11
1837.112661856534
 21
919.2453025101743
 31
0.0
  0
LINE
  5
248C
330
1F
100
AcDbEntity
  8
10
100
AcDbLine
 10
1843.062661856534
 20
916.0453025101745
 30
0.0
 11
1843.062661856534
 21
919.2453025101743
 31
0.0
  0
CIRCLE
  5
268C
330
1F
100
AcDbEntity
  8
10
100
AcDbCircle
 10
1255.512661856533
 20
1232.545302510174
 30
0.0
 40
3.500000000000085
  0
CIRCLE
  5
268D
330
1F
100
AcDbEntity
  8
10
100
AcDbCircle
 10
1255.512661856533
 20
1232.545302510174
 30
0.0
 40
4.000000000000096
  0
LINE
  5
268E
330
1F
100
AcDbEntity
  8
10
100
AcDbLine
 10
1254.098448294161
 20
1233.959516072547
 30
0.0
 11
1256.926875418907
 21
1231.131088947801
 31
0.0
  0
LINE
  5
268F
330
1F
100
AcDbEntity
  8
10
100
AcDbLine
 10
1256.926875418907
 20
1233.959516072547
 30
0.0
 11
1254.098448294161
 21
1231.131088947801
 31
0.0
  0
CIRCLE
  5
2690
330
1F
100
AcDbEntity
  8
10
100
AcDbCircle
 10
1389.512661856534
 20
1232.545302510174
 30
0.0
 40
3.500000000000085
  0
CIRCLE
  5
2691
330
1F
100
AcDbEntity
  8
10
100
AcDbCircle
 10
1389.512661856534
 20
1232.545302510174
 30
0.0
 40
4.000000000000096
  0
LINE
  5
2692
330
1F
100
AcDbEntity
  8
10
100
AcDbLine
 10
1388.098448294161
 20
1233.959516072547
 30
0.0
 11
1390.926875418906
 21
1231.131088947801
 31
0.0
  0
LINE
  5
2693
330
1F
100
AcDbEntity
  8
10
100
AcDbLine
 10
1390.926875418906
 20
1233.959516072547
 30
0.0
 11
1388.098448294161
 21
1231.131088947801
 31
0.0
  0
CIRCLE
  5
2694
330
1F
100
AcDbEntity
  8
10
100
AcDbCircle
 10
1255.512661856533
 20
872.5453025101669
 30
0.0
 40
3.500000000000085
  0
CIRCLE
  5
2695
330
1F
100
AcDbEntity
  8
10
100
AcDbCircle
 10
1255.512661856533
 20
872.5453025101669
 30
0.0
 40
4.000000000000096
  0
LINE
  5
2696
330
1F
100
AcDbEntity
  8
10
100
AcDbLine
 10
1254.098448294161
 20
873.9595160725402
 30
0.0
 11
1256.926875418907
 21
871.1310889477939
 31
0.0
  0
LINE
  5
2697
330
1F
100
AcDbEntity
  8
10
100
AcDbLine
 10
1256.926875418907
 20
873.9595160725402
 30
0.0
 11
1254.098448294161
 21
871.1310889477939
 31
0.0
  0
CIRCLE
  5
2698
330
1F
100
AcDbEntity
  8
10
100
AcDbCircle
 10
1389.512661856534
 20
872.5453025101669
 30
0.0
 40
3.500000000000085
  0
CIRCLE
  5
2699
330
1F
100
AcDbEntity
  8
10
100
AcDbCircle
 10
1389.512661856534
 20
872.5453025101669
 30
0.0
 40
4.000000000000096
  0
LINE
  5
269A
330
1F
100
AcDbEntity
  8
10
100
AcDbLine
 10
1388.098448294161
 20
873.9595160725402
 30
0.0
 11
1390.926875418906
 21
871.1310889477939
 31
0.0
  0
LINE
  5
269B
330
1F
100
AcDbEntity
  8
10
100
AcDbLine
 10
1390.926875418906
 20
873.9595160725402
 30
0.0
 11
1388.098448294161
 21
871.1310889477939
 31
0.0
  0
LWPOLYLINE
  5
26B2
330
1F
100
AcDbEntity
  8
18
100
AcDbPolyline
 90
        4
 70
     1
 43
0.0
 10
1197.512661856533
 20
762.5453025101741
 10
1447.512661856534
 20
762.5453025101741
 10
1447.512661856534
 20
1342.545302510174
 10
1197.512661856533
 20
1342.545302510174
  0
LWPOLYLINE
  5
26C4
330
1F
100
AcDbEntity
  8
18
100
AcDbPolyline
 90
        4
 70
     1
 43
0.0
 10
1747.512661856534
 20
1342.545302510174
 10
1497.512661856534
 20
1342.545302510174
 10
1497.512661856534
 20
762.5453025101741
 10
1747.512661856534
 20
762.5453025101741
  0
LINE
  5
26D5
330
1F
100
AcDbEntity
  8
16
100
AcDbLine
 10
1322.512661856533
 20
1259.548540843041
 30
0.0
 11
1322.512661856533
 21
836.5017479378741
 31
0.0
  0
VIEWPORT
  5
1A9E
330
1B
100
AcDbEntity
 67
     1
  8
0
100
AcDbViewport
 10
5.249999639556162
 20
3.999999883606676
 30
0.0
 40
13.61503641713194
 41
8.992999745766947
 68
     1
 69
     1
 12
5.249999639556162
 22
3.999999883606676
 13
0.0
 23
0.0
 14
10.0
 24
10.0
 15
10.0
 25
10.0
 16
0.0
 26
0.0
 36
1.0
 17
0.0
 27
0.0
 37
0.0
 42
50.0
 43
0.0
 44
0.0
 45
8.992999745766947
 50
0.0
 51
0.0
 72
   100
 90
    32800
  1

281
     0
 71
     1
 74
     0
110
0.0
120
0.0
130
0.0
111
1.0
121
0.0
131
0.0
112
0.0
122
1.0
132
0.0
 79
     0
146
0.0
  0
VIEWPORT
  5
1AA0
330
1B
100
AcDbEntity
 67
     1
  8
0
100
AcDbViewport
 10
5.24999976158142
 20
3.999999761581419
 30
0.0
 40
8.399999618530271
 41
6.399999618530272
 68
     2
 69
     2
 12
-1363.137645193887
 22
-311.7485573738788
 13
0.0
 23
0.0
 14
10.0
 24
10.0
 15
10.0
 25
10.0
 16
0.0
 26
0.0
 36
1.0
 17
0.0
 27
0.0
 37
0.0
 42
50.0
 43
0.0
 44
0.0
 45
467.9695885509838
 50
0.0
 51
0.0
 72
   100
 90
    32864
  1

281
     0
 71
     1
 74
     0
110
0.0
120
0.0
130
0.0
111
1.0
121
0.0
131
0.0
112
0.0
122
1.0
132
0.0
 79
     0
146
0.0
  0
ENDSEC
  0
SECTION
  2
OBJECTS
  0
DICTIONARY
  5
C
330
0
100
AcDbDictionary
281
     1
  3
ACAD_GROUP
350
D
  3
ACAD_LAYOUT
350
1A
  3
ACAD_MLINESTYLE
350
17
  3
ACAD_PLOTSETTINGS
350
19
  3
ACAD_PLOTSTYLENAME
350
47
  3
AcDbVariableDictionary
350
191F
  3
DWGPROPS
350
26ED
1001
ACAD
1000
TREAT_AS_HARD
1070
     0
  0
DICTIONARY
  5
41
330
1F
100
AcDbDictionary
280
     1
281
     1
  3
ACAD_LAYOUTSELFREF
360
1B2E
  0
DICTIONARY
  5
3F
330
1B
100
AcDbDictionary
280
     1
281
     1
  3
ACAD_LAYOUTSELFREF
360
1B2D
  0
DICTIONARY
  5
D
102
{ACAD_REACTORS
330
C
102
}
330
C
100
AcDbDictionary
281
     1
1001
ACAD
1000
TREAT_AS_HARD
1070
     0
  0
DICTIONARY
  5
1A
102
{ACAD_REACTORS
330
C
102
}
330
C
100
AcDbDictionary
281
     1
  3
Model
350
49
  3
ﾚｲｱｳﾄ1
350
4A
1001
ACAD
1000
TREAT_AS_HARD
1070
     0
  0
DICTIONARY
  5
17
102
{ACAD_REACTORS
330
C
102
}
330
C
100
AcDbDictionary
281
     1
  3
STANDARD
350
18
1001
ACAD
1000
TREAT_AS_HARD
1070
     0
  0
DICTIONARY
  5
19
102
{ACAD_REACTORS
330
C
102
}
330
C
100
AcDbDictionary
281
     1
1001
ACAD
1000
TREAT_AS_HARD
1070
     0
  0
ACDBDICTIONARYWDFLT
  5
47
102
{ACAD_REACTORS
330
C
102
}
330
C
100
AcDbDictionary
281
     1
  3
Normal
350
48
100
AcDbDictionaryWithDefault
340
48
  0
DICTIONARY
  5
191F
102
{ACAD_REACTORS
330
C
102
}
330
C
100
AcDbDictionary
281
     1
  3
DIMASSOC
350
1920
  0
XRECORD
  5
26ED
102
{ACAD_REACTORS
330
C
102
}
330
C
100
AcDbXrecord
280
     1
  1
DWGPROPS COOKIE
  2

  3

  4

  6

  7

  8

  9

300
=
301
=
302
=
303
=
304
=
305
=
306
=
307
=
308
=
309
=
 40
0.0335906018518519
 41
2453312.371317361
 42
2453971.447745729
  1

 90
        0
  0
XRECORD
  5
1B2E
102
{ACAD_REACTORS
330
41
102
}
330
41
100
AcDbXrecord
280
     1
340
1F
  0
XRECORD
  5
1B2D
102
{ACAD_REACTORS
330
3F
102
}
330
3F
100
AcDbXrecord
280
     1
340
1B
  0
LAYOUT
  5
49
102
{ACAD_REACTORS
330
1A
102
}
330
1A
100
AcDbPlotSettings
  1

  2
EPSON LP-9200PS2
  4

  6

 40
0.0
 41
0.0
 42
0.0
 43
0.0
 44
0.0
 45
0.0
 46
0.0
 47
0.0
 48
0.0
 49
0.0
140
0.0
141
0.0
142
1.0
143
1.0
 70
  1712
 72
     0
 73
     0
 74
     0
  7

 75
     0
147
1.0
148
0.0
149
0.0
100
AcDbLayout
  1
Model
 70
     1
 71
     0
 10
0.0
 20
0.0
 11
12.0
 21
9.0
 12
0.0
 22
0.0
 32
0.0
 14
0.0
 24
0.0
 34
0.0
 15
0.0
 25
0.0
 35
0.0
146
0.0
 13
0.0
 23
0.0
 33
0.0
 16
1.0
 26
0.0
 36
0.0
 17
0.0
 27
1.0
 37
0.0
 76
     0
330
1F
  0
LAYOUT
  5
4A
102
{ACAD_REACTORS
330
1A
102
}
330
1A
100
AcDbPlotSettings
  1

  2
none_device
  4
Letter_(8.50_x_11.00_Inches)
  6

 40
6.349999904632567
 41
6.349999904632567
 42
6.350006103515625
 43
6.350006103515625
 44
215.8999938964842
 45
279.3999938964843
 46
0.0
 47
0.0
 48
0.0
 49
0.0
140
0.0
141
0.0
142
1.0
143
1.0
 70
   688
 72
     0
 73
     1
 74
     5
  7

 75
    16
147
1.0
148
0.0
149
0.0
100
AcDbLayout
  1
ﾚｲｱｳﾄ1
 70
     1
 71
     1
 10
-0.2500002402958907
 20
-0.2499999962453767
 11
10.74999951940821
 21
8.249999763458731
 12
0.0
 22
0.0
 32
0.0
 14
1.049999952316283
 24
0.7999999523162842
 34
0.0
 15
9.449999570846555
 25
7.199999570846556
 35
0.0
146
0.0
 13
0.0
 23
0.0
 33
0.0
 16
1.0
 26
0.0
 36
0.0
 17
0.0
 27
1.0
 37
0.0
 76
     0
330
1B
331
1A9E
  0
MLINESTYLE
  5
18
102
{ACAD_REACTORS
330
17
102
}
330
17
100
AcDbMlineStyle
  2
STANDARD
 70
     0
  3

 62
   256
 51
90.0
 52
90.0
 71
     2
 49
0.5
 62
   256
  6
BYLAYER
 49
-0.5
 62
   256
  6
BYLAYER
  0
ACDBPLACEHOLDER
  5
48
102
{ACAD_REACTORS
330
47
102
}
330
47
  0
DICTIONARYVAR
  5
1920
102
{ACAD_REACTORS
330
191F
102
}
330
191F
100
DictionaryVariables
280
     0
  1
1
  0
ENDSEC
  0
EOF
