  0
SECTION
  2
HEADER
  9
$ACADVER
  1
AC1015
  9
$ACADMAINTVER
 70
    10
  9
$DWGCODEPAGE
  3
ANSI_932
  9
$INSBASE
 10
0.0
 20
0.0
 30
0.0
  9
$EXTMIN
 10
935.2237258702844
 20
389.043014902103
 30
0.0
  9
$EXTMAX
 10
2008.838907755618
 20
999.0430149021035
 30
0.0
  9
$LIMMIN
 10
0.0
 20
0.0
  9
$LIMMAX
 10
420.0
 20
297.0
  9
$ORTHOMODE
 70
     1
  9
$REGENMODE
 70
     1
  9
$FILLMODE
 70
     1
  9
$QTEXTMODE
 70
     0
  9
$MIRRTEXT
 70
     1
  9
$LTSCALE
 40
1.0
  9
$ATTMODE
 70
     1
  9
$TEXTSIZE
 40
2.5
  9
$TRACEWID
 40
1.0
  9
$TEXTSTYLE
  7
STANDARD
  9
$CLAYER
  8
0
  9
$CELTYPE
  6
BYLAYER
  9
$CECOLOR
 62
   256
  9
$CELTSCALE
 40
1.0
  9
$DISPSILH
 70
     0
  9
$DIMSCALE
 40
1.0
  9
$DIMASZ
 40
2.5
  9
$DIMEXO
 40
0.625
  9
$DIMDLI
 40
3.75
  9
$DIMRND
 40
0.0
  9
$DIMDLE
 40
0.0
  9
$DIMEXE
 40
1.25
  9
$DIMTP
 40
0.0
  9
$DIMTM
 40
0.0
  9
$DIMTXT
 40
2.5
  9
$DIMCEN
 40
2.5
  9
$DIMTSZ
 40
0.0
  9
$DIMTOL
 70
     0
  9
$DIMLIM
 70
     0
  9
$DIMTIH
 70
     0
  9
$DIMTOH
 70
     0
  9
$DIMSE1
 70
     0
  9
$DIMSE2
 70
     0
  9
$DIMTAD
 70
     1
  9
$DIMZIN
 70
     8
  9
$DIMBLK
  1

  9
$DIMASO
 70
     1
  9
$DIMSHO
 70
     1
  9
$DIMPOST
  1

  9
$DIMAPOST
  1

  9
$DIMALT
 70
     0
  9
$DIMALTD
 70
     3
  9
$DIMALTF
 40
0.03937007874016
  9
$DIMLFAC
 40
1.0
  9
$DIMTOFL
 70
     1
  9
$DIMTVP
 40
0.0
  9
$DIMTIX
 70
     0
  9
$DIMSOXD
 70
     0
  9
$DIMSAH
 70
     0
  9
$DIMBLK1
  1

  9
$DIMBLK2
  1

  9
$DIMSTYLE
  2
ISO-25
  9
$DIMCLRD
 70
     0
  9
$DIMCLRE
 70
     0
  9
$DIMCLRT
 70
     0
  9
$DIMTFAC
 40
1.0
  9
$DIMGAP
 40
0.625
  9
$DIMJUST
 70
     0
  9
$DIMSD1
 70
     0
  9
$DIMSD2
 70
     0
  9
$DIMTOLJ
 70
     0
  9
$DIMTZIN
 70
     8
  9
$DIMALTZ
 70
     0
  9
$DIMALTTZ
 70
     0
  9
$DIMUPT
 70
     0
  9
$DIMDEC
 70
     0
  9
$DIMTDEC
 70
     0
  9
$DIMALTU
 70
     2
  9
$DIMALTTD
 70
     3
  9
$DIMTXSTY
  7
STANDARD
  9
$DIMAUNIT
 70
     0
  9
$DIMADEC
 70
     0
  9
$DIMALTRND
 40
0.0
  9
$DIMAZIN
 70
     0
  9
$DIMDSEP
 70
    46
  9
$DIMATFIT
 70
     3
  9
$DIMFRAC
 70
     0
  9
$DIMLDRBLK
  1

  9
$DIMLUNIT
 70
     2
  9
$DIMLWD
 70
    -2
  9
$DIMLWE
 70
    -2
  9
$DIMTMOVE
 70
     0
  9
$LUNITS
 70
     2
  9
$LUPREC
 70
     4
  9
$SKETCHINC
 40
1.0
  9
$FILLETRAD
 40
10.0
  9
$AUNITS
 70
     0
  9
$AUPREC
 70
     0
  9
$MENU
  1
.
  9
$ELEVATION
 40
0.0
  9
$PELEVATION
 40
0.0
  9
$THICKNESS
 40
0.0
  9
$LIMCHECK
 70
     0
  9
$CHAMFERA
 40
10.0
  9
$CHAMFERB
 40
10.0
  9
$CHAMFERC
 40
20.0
  9
$CHAMFERD
 40
0.0
  9
$SKPOLY
 70
     0
  9
$TDCREATE
 40
2453312.371317361
  9
$TDUCREATE
 40
2453311.996317361
  9
$TDUPDATE
 40
2454642.552756458
  9
$TDUUPDATE
 40
2454642.177756458
  9
$TDINDWG
 40
0.0343563773
  9
$TDUSRTIMER
 40
0.0343560764
  9
$USRTIMER
 70
     1
  9
$ANGBASE
 50
0.0
  9
$ANGDIR
 70
     0
  9
$PDMODE
 70
    34
  9
$PDSIZE
 40
0.0
  9
$PLINEWID
 40
0.0
  9
$SPLFRAME
 70
     0
  9
$SPLINETYPE
 70
     6
  9
$SPLINESEGS
 70
     8
  9
$HANDSEED
  5
2F5C
  9
$SURFTAB1
 70
     6
  9
$SURFTAB2
 70
     6
  9
$SURFTYPE
 70
     6
  9
$SURFU
 70
     6
  9
$SURFV
 70
     6
  9
$UCSBASE
  2

  9
$UCSNAME
  2

  9
$UCSORG
 10
0.0
 20
0.0
 30
0.0
  9
$UCSXDIR
 10
1.0
 20
0.0
 30
0.0
  9
$UCSYDIR
 10
0.0
 20
1.0
 30
0.0
  9
$UCSORTHOREF
  2

  9
$UCSORTHOVIEW
 70
     0
  9
$UCSORGTOP
 10
0.0
 20
0.0
 30
0.0
  9
$UCSORGBOTTOM
 10
0.0
 20
0.0
 30
0.0
  9
$UCSORGLEFT
 10
0.0
 20
0.0
 30
0.0
  9
$UCSORGRIGHT
 10
0.0
 20
0.0
 30
0.0
  9
$UCSORGFRONT
 10
0.0
 20
0.0
 30
0.0
  9
$UCSORGBACK
 10
0.0
 20
0.0
 30
0.0
  9
$PUCSBASE
  2

  9
$PUCSNAME
  2

  9
$PUCSORG
 10
0.0
 20
0.0
 30
0.0
  9
$PUCSXDIR
 10
1.0
 20
0.0
 30
0.0
  9
$PUCSYDIR
 10
0.0
 20
1.0
 30
0.0
  9
$PUCSORTHOREF
  2

  9
$PUCSORTHOVIEW
 70
     0
  9
$PUCSORGTOP
 10
0.0
 20
0.0
 30
0.0
  9
$PUCSORGBOTTOM
 10
0.0
 20
0.0
 30
0.0
  9
$PUCSORGLEFT
 10
0.0
 20
0.0
 30
0.0
  9
$PUCSORGRIGHT
 10
0.0
 20
0.0
 30
0.0
  9
$PUCSORGFRONT
 10
0.0
 20
0.0
 30
0.0
  9
$PUCSORGBACK
 10
0.0
 20
0.0
 30
0.0
  9
$USERI1
 70
     0
  9
$USERI2
 70
     0
  9
$USERI3
 70
     0
  9
$USERI4
 70
     0
  9
$USERI5
 70
     0
  9
$USERR1
 40
0.0
  9
$USERR2
 40
0.0
  9
$USERR3
 40
0.0
  9
$USERR4
 40
0.0
  9
$USERR5
 40
0.0
  9
$WORLDVIEW
 70
     1
  9
$SHADEDGE
 70
     3
  9
$SHADEDIF
 70
    70
  9
$TILEMODE
 70
     1
  9
$MAXACTVP
 70
    48
  9
$PINSBASE
 10
0.0
 20
0.0
 30
0.0
  9
$PLIMCHECK
 70
     0
  9
$PEXTMIN
 10
1.049999952316283
 20
0.7999999523162842
 30
0.0
  9
$PEXTMAX
 10
9.449999570846555
 20
7.199999570846556
 30
0.0
  9
$PLIMMIN
 10
-0.2500002402958907
 20
-0.2499999962453767
  9
$PLIMMAX
 10
10.74999951940821
 20
8.249999763458731
  9
$UNITMODE
 70
     0
  9
$VISRETAIN
 70
     1
  9
$PLINEGEN
 70
     0
  9
$PSLTSCALE
 70
     1
  9
$TREEDEPTH
 70
  3020
  9
$CMLSTYLE
  2
STANDARD
  9
$CMLJUST
 70
     0
  9
$CMLSCALE
 40
20.0
  9
$PROXYGRAPHICS
 70
     1
  9
$MEASUREMENT
 70
     0
  9
$CELWEIGHT
370
    -1
  9
$ENDCAPS
280
     0
  9
$JOINSTYLE
280
     0
  9
$LWDISPLAY
290
     0
  9
$INSUNITS
 70
     0
  9
$HYPERLINKBASE
  1

  9
$STYLESHEET
  1

  9
$XEDIT
290
     1
  9
$CEPSNTYPE
380
     0
  9
$PSTYLEMODE
290
     1
  9
$FINGERPRINTGUID
  2
{C8342AD0-ADE8-45AD-AC00-933185DE4E38}
  9
$VERSIONGUID
  2
{7CF3CA99-253B-48D6-B938-8EF529A6F918}
  9
$EXTNAMES
290
     1
  9
$PSVPSCALE
 40
0.0
  9
$OLESTARTUP
290
     0
  0
ENDSEC
  0
SECTION
  2
CLASSES
  0
CLASS
  1
ACDBDICTIONARYWDFLT
  2
AcDbDictionaryWithDefault
  3
AutoCAD 2000
 90
        0
280
     0
281
     0
  0
CLASS
  1
ACDBPLACEHOLDER
  2
AcDbPlaceHolder
  3
AutoCAD 2000
 90
        0
280
     0
281
     0
  0
CLASS
  1
LAYOUT
  2
AcDbLayout
  3
AutoCAD 2000
 90
        0
280
     0
281
     0
  0
CLASS
  1
LONG_TRANSACTION
  2
AcDbLongTransaction
  3
AutoCAD 2000
 90
    32768
280
     0
281
     0
  0
CLASS
  1
LWPOLYLINE
  2
AcDbPolyline
  3
AutoCAD 2000
 90
    32768
280
     0
281
     1
  0
CLASS
  1
HATCH
  2
AcDbHatch
  3
AutoCAD 2000
 90
    32768
280
     0
281
     1
  0
CLASS
  1
XRECORD
  2
AcDbXrecord
  3
AutoCAD 2000
 90
    32768
280
     0
281
     0
  0
CLASS
  1
DICTIONARYVAR
  2
AcDbDictionaryVar
  3
AutoCAD 2000
 90
        0
280
     0
281
     0
  0
CLASS
  1
LONG_TRANSACTION
  2
AcDbLongTransaction
  3
AutoCAD 2000
 90
    32768
280
     0
281
     0
  0
CLASS
  1
LWPOLYLINE
  2
AcDbPolyline
  3
AutoCAD 2000
 90
    32768
280
     0
281
     1
  0
CLASS
  1
HATCH
  2
AcDbHatch
  3
AutoCAD 2000
 90
    32768
280
     0
281
     1
  0
CLASS
  1
XRECORD
  2
AcDbXrecord
  3
AutoCAD 2000
 90
    32768
280
     0
281
     0
  0
CLASS
  1
LONG_TRANSACTION
  2
AcDbLongTransaction
  3
AutoCAD 2000
 90
    32768
280
     0
281
     0
  0
CLASS
  1
LWPOLYLINE
  2
AcDbPolyline
  3
AutoCAD 2000
 90
    32768
280
     0
281
     1
  0
CLASS
  1
HATCH
  2
AcDbHatch
  3
AutoCAD 2000
 90
    32768
280
     0
281
     1
  0
CLASS
  1
XRECORD
  2
AcDbXrecord
  3
AutoCAD 2000
 90
    32768
280
     0
281
     0
  0
CLASS
  1
LONG_TRANSACTION
  2
AcDbLongTransaction
  3
AutoCAD 2000
 90
    32768
280
     0
281
     0
  0
CLASS
  1
LWPOLYLINE
  2
AcDbPolyline
  3
AutoCAD 2000
 90
    32768
280
     0
281
     1
  0
CLASS
  1
HATCH
  2
AcDbHatch
  3
AutoCAD 2000
 90
    32768
280
     0
281
     1
  0
CLASS
  1
XRECORD
  2
AcDbXrecord
  3
AutoCAD 2000
 90
    32768
280
     0
281
     0
  0
CLASS
  1
LONG_TRANSACTION
  2
AcDbLongTransaction
  3
AutoCAD 2000
 90
    32768
280
     0
281
     0
  0
CLASS
  1
LWPOLYLINE
  2
AcDbPolyline
  3
AutoCAD 2000
 90
    32768
280
     0
281
     1
  0
CLASS
  1
HATCH
  2
AcDbHatch
  3
AutoCAD 2000
 90
    32768
280
     0
281
     1
  0
CLASS
  1
XRECORD
  2
AcDbXrecord
  3
AutoCAD 2000
 90
    32768
280
     0
281
     0
  0
CLASS
  1
LONG_TRANSACTION
  2
AcDbLongTransaction
  3
AutoCAD 2000
 90
    32768
280
     0
281
     0
  0
CLASS
  1
LWPOLYLINE
  2
AcDbPolyline
  3
AutoCAD 2000
 90
    32768
280
     0
281
     1
  0
CLASS
  1
HATCH
  2
AcDbHatch
  3
AutoCAD 2000
 90
    32768
280
     0
281
     1
  0
CLASS
  1
XRECORD
  2
AcDbXrecord
  3
AutoCAD 2000
 90
    32768
280
     0
281
     0
  0
CLASS
  1
LONG_TRANSACTION
  2
AcDbLongTransaction
  3
AutoCAD 2000
 90
    32768
280
     0
281
     0
  0
CLASS
  1
LWPOLYLINE
  2
AcDbPolyline
  3
AutoCAD 2000
 90
    32768
280
     0
281
     1
  0
CLASS
  1
HATCH
  2
AcDbHatch
  3
AutoCAD 2000
 90
    32768
280
     0
281
     1
  0
CLASS
  1
XRECORD
  2
AcDbXrecord
  3
AutoCAD 2000
 90
    32768
280
     0
281
     0
  0
CLASS
  1
LONG_TRANSACTION
  2
AcDbLongTransaction
  3
AutoCAD 2000
 90
    32768
280
     0
281
     0
  0
CLASS
  1
LWPOLYLINE
  2
AcDbPolyline
  3
AutoCAD 2000
 90
    32768
280
     0
281
     1
  0
CLASS
  1
HATCH
  2
AcDbHatch
  3
AutoCAD 2000
 90
    32768
280
     0
281
     1
  0
CLASS
  1
XRECORD
  2
AcDbXrecord
  3
AutoCAD 2000
 90
    32768
280
     0
281
     0
  0
CLASS
  1
LONG_TRANSACTION
  2
AcDbLongTransaction
  3
AutoCAD 2000
 90
    32768
280
     0
281
     0
  0
CLASS
  1
LWPOLYLINE
  2
AcDbPolyline
  3
AutoCAD 2000
 90
    32768
280
     0
281
     1
  0
CLASS
  1
HATCH
  2
AcDbHatch
  3
AutoCAD 2000
 90
    32768
280
     0
281
     1
  0
CLASS
  1
XRECORD
  2
AcDbXrecord
  3
AutoCAD 2000
 90
    32768
280
     0
281
     0
  0
CLASS
  1
LONG_TRANSACTION
  2
AcDbLongTransaction
  3
AutoCAD 2000
 90
    32768
280
     0
281
     0
  0
CLASS
  1
LWPOLYLINE
  2
AcDbPolyline
  3
AutoCAD 2000
 90
    32768
280
     0
281
     1
  0
CLASS
  1
HATCH
  2
AcDbHatch
  3
AutoCAD 2000
 90
    32768
280
     0
281
     1
  0
CLASS
  1
XRECORD
  2
AcDbXrecord
  3
AutoCAD 2000
 90
    32768
280
     0
281
     0
  0
ENDSEC
  0
SECTION
  2
TABLES
  0
TABLE
  2
VPORT
  5
8
330
0
100
AcDbSymbolTable
 70
     3
  0
VPORT
  5
2F5B
330
8
100
AcDbSymbolTableRecord
100
AcDbViewportTableRecord
  2
*Active
 70
     0
 10
0.0
 20
0.0
 11
1.0
 21
1.0
 12
3120.053784910719
 22
2556.205613246442
 13
0.0
 23
0.0
 14
10.0
 24
10.0
 15
10.0
 25
10.0
 16
0.0
 26
0.0
 36
1.0
 17
0.0
 27
0.0
 37
0.0
 40
6641.976795875628
 41
1.527918781725888
 42
50.0
 43
0.0
 44
0.0
 50
0.0
 51
0.0
 71
     0
 72
   100
 73
     1
 74
     3
 75
     0
 76
     0
 77
     0
 78
     0
281
     0
 65
     1
110
0.0
120
0.0
130
0.0
111
1.0
121
0.0
131
0.0
112
0.0
122
1.0
132
0.0
 79
     0
146
0.0
  0
ENDTAB
  0
TABLE
  2
LTYPE
  5
5
330
0
100
AcDbSymbolTable
 70
     3
  0
LTYPE
  5
14
330
5
100
AcDbSymbolTableRecord
100
AcDbLinetypeTableRecord
  2
BYBLOCK
 70
     0
  3

 72
    65
 73
     0
 40
0.0
  0
LTYPE
  5
15
330
5
100
AcDbSymbolTableRecord
100
AcDbLinetypeTableRecord
  2
BYLAYER
 70
     0
  3

 72
    65
 73
     0
 40
0.0
  0
LTYPE
  5
16
330
5
100
AcDbSymbolTableRecord
100
AcDbLinetypeTableRecord
  2
CONTINUOUS
 70
     0
  3
Solid line
 72
    65
 73
     0
 40
0.0
  0
LTYPE
  5
35
330
5
100
AcDbSymbolTableRecord
100
AcDbLinetypeTableRecord
  2
PHANTOMX2
 70
     0
  3
Phantom (2x) ____________    ____    ____   _
 72
    65
 73
     6
 40
127.0
 49
63.5
 74
     0
 49
-12.7
 74
     0
 49
12.7
 74
     0
 49
-12.7
 74
     0
 49
12.7
 74
     0
 49
-12.7
 74
     0
  0
LTYPE
  5
36
330
5
100
AcDbSymbolTableRecord
100
AcDbLinetypeTableRecord
  2
CENTERX2
 70
     0
  3
Center (2x) ________  __  ________  __  _____
 72
    65
 73
     4
 40
101.6
 49
63.5
 74
     0
 49
-12.7
 74
     0
 49
12.7
 74
     0
 49
-12.7
 74
     0
  0
ENDTAB
  0
TABLE
  2
LAYER
  5
2
330
0
100
AcDbSymbolTable
 70
     7
  0
LAYER
  5
10
330
2
100
AcDbSymbolTableRecord
100
AcDbLayerTableRecord
  2
0
 70
     0
 62
     7
  6
CONTINUOUS
370
    -3
390
48
  0
LAYER
  5
2D
330
2
100
AcDbSymbolTableRecord
100
AcDbLayerTableRecord
  2
10
 70
     0
 62
     4
  6
CONTINUOUS
370
    -3
390
48
  0
LAYER
  5
2F
330
2
100
AcDbSymbolTableRecord
100
AcDbLayerTableRecord
  2
12
 70
     0
 62
     3
  6
CONTINUOUS
370
    -3
390
48
  0
LAYER
  5
31
330
2
100
AcDbSymbolTableRecord
100
AcDbLayerTableRecord
  2
16
 70
     0
 62
     4
  6
CENTERX2
370
    -3
390
48
  0
LAYER
  5
33
330
2
100
AcDbSymbolTableRecord
100
AcDbLayerTableRecord
  2
18
 70
     0
 62
     1
  6
PHANTOMX2
370
    -3
390
48
  0
LAYER
  5
34
330
2
100
AcDbSymbolTableRecord
100
AcDbLayerTableRecord
  2
19
 70
     0
 62
     7
  6
CONTINUOUS
370
    -3
390
48
  0
LAYER
  5
1C0B
330
2
100
AcDbSymbolTableRecord
100
AcDbLayerTableRecord
  2
DEFPOINTS
 70
     0
 62
     7
  6
CONTINUOUS
290
     0
370
    -3
390
48
  0
ENDTAB
  0
TABLE
  2
STYLE
  5
3
330
0
100
AcDbSymbolTable
 70
     2
  0
STYLE
  5
11
330
3
100
AcDbSymbolTableRecord
100
AcDbTextStyleTableRecord
  2
STANDARD
 70
     0
 40
0.0
 41
1.0
 50
0.0
 71
     0
 42
2.5
  3
txt
  4

  0
STYLE
  5
56
330
3
100
AcDbSymbolTableRecord
100
AcDbTextStyleTableRecord
  2
STANDARD1
 70
     0
 40
0.0
 41
0.7
 50
0.0
 71
     0
 42
4.0
  3
romans.shx
  4
extfont.shx
  0
ENDTAB
  0
TABLE
  2
VIEW
  5
6
330
0
100
AcDbSymbolTable
 70
     0
  0
ENDTAB
  0
TABLE
  2
UCS
  5
7
330
0
100
AcDbSymbolTable
 70
     0
  0
ENDTAB
  0
TABLE
  2
APPID
  5
9
330
0
100
AcDbSymbolTable
 70
     1
  0
APPID
  5
12
330
9
100
AcDbSymbolTableRecord
100
AcDbRegAppTableRecord
  2
ACAD
 70
     0
  0
ENDTAB
  0
TABLE
  2
DIMSTYLE
  5
A
330
0
100
AcDbSymbolTable
 70
     2
100
AcDbDimStyleTable
 71
     1
340
27
  0
DIMSTYLE
105
27
330
A
100
AcDbSymbolTableRecord
100
AcDbDimStyleTableRecord
  2
ISO-25
 70
     0
 41
2.5
 42
0.625
 43
3.75
 44
1.25
 73
     0
 74
     0
 77
     1
 78
     8
140
2.5
141
2.5
143
0.03937007874016
147
0.625
171
     3
172
     1
271
     0
272
     0
274
     3
283
     0
284
     8
340
11
  0
DIMSTYLE
105
1C0C
330
A
100
AcDbSymbolTableRecord
100
AcDbDimStyleTableRecord
  2
STANDARD
 70
     0
340
11
  0
ENDTAB
  0
TABLE
  2
BLOCK_RECORD
  5
1
330
0
100
AcDbSymbolTable
 70
     0
  0
BLOCK_RECORD
  5
1F
102
{ACAD_XDICTIONARY
360
41
102
}
330
1
100
AcDbSymbolTableRecord
100
AcDbBlockTableRecord
  2
*MODEL_SPACE
340
49
  0
BLOCK_RECORD
  5
1B
102
{ACAD_XDICTIONARY
360
3F
102
}
330
1
100
AcDbSymbolTableRecord
100
AcDbBlockTableRecord
  2
*PAPER_SPACE
340
4A
  0
ENDTAB
  0
ENDSEC
  0
SECTION
  2
BLOCKS
  0
BLOCK
  5
20
330
1F
100
AcDbEntity
  8
0
100
AcDbBlockBegin
  2
*MODEL_SPACE
 70
     0
 10
0.0
 20
0.0
 30
0.0
  3
*MODEL_SPACE
  1

  0
ENDBLK
  5
21
330
1F
100
AcDbEntity
  8
0
100
AcDbBlockEnd
  0
BLOCK
  5
1C
330
1B
100
AcDbEntity
 67
     1
  8
0
100
AcDbBlockBegin
  2
*PAPER_SPACE
 70
     0
 10
0.0
 20
0.0
 30
0.0
  3
*PAPER_SPACE
  1

  0
ENDBLK
  5
1D
330
1B
100
AcDbEntity
 67
     1
  8
0
100
AcDbBlockEnd
  0
ENDSEC
  0
SECTION
  2
ENTITIES
  0
LINE
  5
2932
330
1F
100
AcDbEntity
  8
12
 48
3.0
100
AcDbLine
 10
1131.223725870283
 20
892.0430149021031
 30
0.0
 11
999.2237258702843
 21
892.0430149021031
 31
0.0
  0
LINE
  5
2933
330
1F
100
AcDbEntity
  8
12
 48
3.0
100
AcDbLine
 10
1131.223725870283
 20
496.0430149021029
 30
0.0
 11
999.223725870285
 21
496.0430149021029
 31
0.0
  0
LINE
  5
2934
330
1F
100
AcDbEntity
  8
10
100
AcDbLine
 10
987.5237258702846
 20
884.0430149021035
 30
0.0
 11
1142.923725870284
 21
884.0430149021033
 31
0.0
  0
LINE
  5
2935
330
1F
100
AcDbEntity
  8
10
100
AcDbLine
 10
989.5237258702845
 20
899.0430149021033
 30
0.0
 11
1140.923725870284
 21
899.0430149021033
 31
0.0
  0
LINE
  5
2936
330
1F
100
AcDbEntity
  8
10
100
AcDbLine
 10
1121.723725870283
 20
489.0430149021033
 30
0.0
 11
1008.723725870284
 21
489.0430149021033
 31
0.0
  0
LINE
  5
2937
330
1F
100
AcDbEntity
  8
10
100
AcDbLine
 10
1021.718916398667
 20
514.7930149021029
 30
0.0
 11
1015.223725870284
 21
518.5430149021031
 31
0.0
  0
LINE
  5
2938
330
1F
100
AcDbEntity
  8
10
100
AcDbLine
 10
1015.223725870284
 20
503.543014902103
 30
0.0
 11
1021.718916398667
 21
507.2930149021031
 31
0.0
  0
LINE
  5
2939
330
1F
100
AcDbEntity
  8
10
100
AcDbLine
 10
1018.05215299503
 20
513.8714420268495
 30
0.0
 11
1012.395298745538
 21
508.214587777357
 31
0.0
  0
CIRCLE
  5
293A
330
1F
100
AcDbEntity
  8
10
100
AcDbCircle
 10
1015.223725870284
 20
511.0430149021031
 30
0.0
 40
7.999999999999997
  0
LINE
  5
293B
330
1F
100
AcDbEntity
  8
10
100
AcDbLine
 10
1012.395298745538
 20
513.8714420268495
 30
0.0
 11
1018.052152995031
 21
508.2145877773573
 31
0.0
  0
LINE
  5
293C
330
1F
100
AcDbEntity
  8
10
100
AcDbLine
 10
1140.223725870284
 20
869.043014902096
 30
0.0
 11
990.2237258702843
 21
869.043014902096
 31
0.0
  0
LINE
  5
293D
330
1F
100
AcDbEntity
  8
10
100
AcDbLine
 10
1140.223725870284
 20
519.0430149020958
 30
0.0
 11
990.2237258702843
 21
519.0430149020958
 31
0.0
  0
LINE
  5
293E
330
1F
100
AcDbEntity
  8
10
100
AcDbLine
 10
1140.223725870284
 20
673.9166331319487
 30
0.0
 11
990.2237258702843
 21
673.9166331319487
 31
0.0
  0
LINE
  5
293F
330
1F
100
AcDbEntity
  8
10
100
AcDbLine
 10
1140.223725870284
 20
869.0430149021032
 30
0.0
 11
990.2237258702843
 21
869.0430149021032
 31
0.0
  0
LINE
  5
2940
330
1F
100
AcDbEntity
  8
10
100
AcDbLine
 10
992.2237258702844
 20
884.0430149021033
 30
0.0
 11
1138.223725870284
 21
884.0430149021033
 31
0.0
  0
LINE
  5
2941
330
1F
100
AcDbEntity
  8
10
100
AcDbLine
 10
990.2237258702843
 20
797.4030149021032
 30
0.0
 11
1060.223725870284
 21
797.4030149021032
 31
0.0
  0
LINE
  5
2942
330
1F
100
AcDbEntity
  8
10
100
AcDbLine
 10
990.2237258702843
 20
804.4030149021033
 30
0.0
 11
1060.223725870284
 21
804.4030149021033
 31
0.0
  0
LINE
  5
2943
330
1F
100
AcDbEntity
  8
10
100
AcDbLine
 10
985.2237258702851
 20
491.043014902103
 30
0.0
 11
985.2237258702851
 21
896.9930149021033
 31
0.0
  0
LINE
  5
2944
330
1F
100
AcDbEntity
  8
10
100
AcDbLine
 10
990.2237258702843
 20
509.0430149020958
 30
0.0
 11
990.2237258702843
 21
879.0430149020961
 31
0.0
  0
LINE
  5
2945
330
1F
100
AcDbEntity
  8
10
100
AcDbLine
 10
990.2237258702843
 20
506.0430149021031
 30
0.0
 11
990.2237258702843
 21
882.0430149020959
 31
0.0
  0
LINE
  5
2946
330
1F
100
AcDbEntity
  8
10
100
AcDbLine
 10
987.5237258702851
 20
491.043014902103
 30
0.0
 11
987.5237258702851
 21
506.3430149021028
 31
0.0
  0
LINE
  5
2947
330
1F
100
AcDbEntity
  8
10
100
AcDbLine
 10
1015.223725870284
 20
503.543014902103
 30
0.0
 11
1008.7285353419
 21
507.2930149021031
 31
0.0
  0
LINE
  5
2948
330
1F
100
AcDbEntity
  8
10
100
AcDbLine
 10
991.7237258702844
 20
504.5430149021029
 30
0.0
 11
991.7237258702844
 21
509.0430149020958
 31
0.0
  0
LINE
  5
2949
330
1F
100
AcDbEntity
  8
10
100
AcDbLine
 10
990.2237258702843
 20
506.0430149021031
 30
0.0
 11
992.2237258702844
 21
504.0430149021033
 31
0.0
  0
LINE
  5
294A
330
1F
100
AcDbEntity
  8
10
100
AcDbLine
 10
1001.723725870284
 20
489.0430149021033
 30
0.0
 11
989.5237258702854
 21
489.0430149021033
 31
0.0
  0
LINE
  5
294B
330
1F
100
AcDbEntity
  8
10
100
AcDbLine
 10
987.5237258702851
 20
504.0430149021033
 30
0.0
 11
1011.350742524076
 21
504.0430149021033
 31
0.0
  0
LINE
  5
294C
330
1F
100
AcDbEntity
  8
10
100
AcDbLine
 10
987.5237258702851
 20
491.043014902103
 30
0.0
 11
985.2237258702851
 21
491.043014902103
 31
0.0
  0
LINE
  5
294D
330
1F
100
AcDbEntity
  8
10
100
AcDbLine
 10
987.5237258702851
 20
491.043014902103
 30
0.0
 11
989.5237258702854
 21
489.0430149021033
 31
0.0
  0
ARC
  5
294E
330
1F
100
AcDbEntity
  8
12
100
AcDbCircle
 10
1005.223725870285
 20
496.0430149021029
 30
0.0
 40
3.500000000000028
100
AcDbArc
 50
0.0
 51
180.0
  0
LINE
  5
294F
330
1F
100
AcDbEntity
  8
12
 48
3.0
100
AcDbLine
 10
1005.223725870285
 20
502.0430149021031
 30
0.0
 11
1005.223725870285
 21
490.0430149021032
 31
0.0
  0
LINE
  5
2950
330
1F
100
AcDbEntity
  8
12
100
AcDbLine
 10
1001.723725870284
 20
496.0430149021029
 30
0.0
 11
1001.723725870284
 21
489.0430149021033
 31
0.0
  0
LINE
  5
2951
330
1F
100
AcDbEntity
  8
12
100
AcDbLine
 10
1008.723725870284
 20
496.0430149021029
 30
0.0
 11
1008.723725870284
 21
489.0430149021033
 31
0.0
  0
LINE
  5
2953
330
1F
100
AcDbEntity
  8
10
100
AcDbLine
 10
990.2237258702843
 20
509.0430149020958
 30
0.0
 11
1003.223725870283
 21
509.0430149020958
 31
0.0
  0
LINE
  5
2954
330
1F
100
AcDbEntity
  8
10
100
AcDbLine
 10
987.5237258702851
 20
506.3430149021028
 30
0.0
 11
985.2237258702851
 21
506.3430149021028
 31
0.0
  0
LINE
  5
2955
330
1F
100
AcDbEntity
  8
10
100
AcDbLine
 10
991.9537258702844
 20
519.0430149020958
 30
0.0
 11
993.2237258702842
 21
509.0430149020958
 31
0.0
  0
LINE
  5
2956
330
1F
100
AcDbEntity
  8
10
100
AcDbLine
 10
993.2237258702842
 20
519.0430149020958
 30
0.0
 11
993.2237258702842
 21
509.0430149020958
 31
0.0
  0
LINE
  5
2957
330
1F
100
AcDbEntity
  8
10
100
AcDbLine
 10
1003.223725870283
 20
519.0430149020958
 30
0.0
 11
1003.223725870283
 21
509.0430149020958
 31
0.0
  0
LINE
  5
2958
330
1F
100
AcDbEntity
  8
10
100
AcDbLine
 10
1008.7285353419
 20
514.7930149021029
 30
0.0
 11
1008.7285353419
 21
507.2930149021031
 31
0.0
  0
LINE
  5
2959
330
1F
100
AcDbEntity
  8
10
100
AcDbLine
 10
1008.7285353419
 20
514.7930149021029
 30
0.0
 11
1015.223725870284
 21
518.5430149021031
 31
0.0
  0
LINE
  5
295A
330
1F
100
AcDbEntity
  8
10
100
AcDbLine
 10
987.5237258702846
 20
884.0430149021035
 30
0.0
 11
1002.723725870284
 21
884.0430149021033
 31
0.0
  0
LINE
  5
295C
330
1F
100
AcDbEntity
  8
10
100
AcDbLine
 10
990.2237258702843
 20
879.0430149020961
 30
0.0
 11
1003.223725870283
 21
879.0430149020961
 31
0.0
  0
LINE
  5
295D
330
1F
100
AcDbEntity
  8
10
100
AcDbLine
 10
987.5237258702846
 20
897.0430149021034
 30
0.0
 11
987.5237258702846
 21
881.7430149021037
 31
0.0
  0
LINE
  5
295E
330
1F
100
AcDbEntity
  8
10
100
AcDbLine
 10
990.2237258702843
 20
882.0430149020959
 30
0.0
 11
992.2237258702844
 21
884.0430149021033
 31
0.0
  0
LINE
  5
295F
330
1F
100
AcDbEntity
  8
10
100
AcDbLine
 10
985.2237258702844
 20
881.7430149021033
 30
0.0
 11
987.5237258702846
 21
881.7430149021037
 31
0.0
  0
LINE
  5
2960
330
1F
100
AcDbEntity
  8
10
100
AcDbLine
 10
991.9537258702844
 20
869.043014902096
 30
0.0
 11
993.2237258702842
 21
879.0430149020961
 31
0.0
  0
LINE
  5
2961
330
1F
100
AcDbEntity
  8
10
100
AcDbLine
 10
993.2237258702842
 20
869.043014902096
 30
0.0
 11
993.2237258702842
 21
879.0430149020961
 31
0.0
  0
LINE
  5
2962
330
1F
100
AcDbEntity
  8
10
100
AcDbLine
 10
991.7237258702844
 20
879.0430149020961
 30
0.0
 11
991.7237258702844
 21
883.5430149021014
 31
0.0
  0
LINE
  5
2963
330
1F
100
AcDbEntity
  8
10
100
AcDbLine
 10
987.5237258702846
 20
897.0430149021034
 30
0.0
 11
985.2237258702844
 21
897.0430149021034
 31
0.0
  0
LINE
  5
2964
330
1F
100
AcDbEntity
  8
10
100
AcDbLine
 10
989.5237258702845
 20
899.0430149021033
 30
0.0
 11
987.5237258702846
 21
897.0430149021034
 31
0.0
  0
LINE
  5
2965
330
1F
100
AcDbEntity
  8
10
100
AcDbLine
 10
1003.223725870283
 20
869.043014902096
 30
0.0
 11
1003.223725870283
 21
879.0430149020961
 31
0.0
  0
CIRCLE
  5
2966
330
1F
100
AcDbEntity
  8
12
100
AcDbCircle
 10
1005.223725870284
 20
892.0430149021031
 30
0.0
 40
3.499999999999984
  0
LINE
  5
2967
330
1F
100
AcDbEntity
  8
12
 48
3.0
100
AcDbLine
 10
1005.223725870284
 20
886.0430149021032
 30
0.0
 11
1005.223725870284
 21
898.0430149021033
 31
0.0
  0
LINE
  5
296A
330
1F
100
AcDbEntity
  8
10
100
AcDbLine
 10
1145.223725870285
 20
491.0430149021029
 30
0.0
 11
1145.223725870285
 21
896.9930149021028
 31
0.0
  0
LINE
  5
296B
330
1F
100
AcDbEntity
  8
10
100
AcDbLine
 10
1140.223725870284
 20
879.0430149020961
 30
0.0
 11
1140.223725870284
 21
509.0430149020958
 31
0.0
  0
LINE
  5
296C
330
1F
100
AcDbEntity
  8
10
100
AcDbLine
 10
1060.223725870284
 20
789.0430149021033
 30
0.0
 11
1060.223725870284
 21
869.0430149021032
 31
0.0
  0
LINE
  5
296D
330
1F
100
AcDbEntity
  8
10
100
AcDbLine
 10
1120.223725870283
 20
789.0430149021033
 30
0.0
 11
1120.223725870283
 21
869.0430149021032
 31
0.0
  0
LINE
  5
296E
330
1F
100
AcDbEntity
  8
10
100
AcDbLine
 10
1140.223725870284
 20
879.0430149020961
 30
0.0
 11
1140.223725870284
 21
596.6167273804948
 31
0.0
  0
LINE
  5
296F
330
1F
100
AcDbEntity
  8
10
100
AcDbLine
 10
1140.223725870284
 20
506.0430149021031
 30
0.0
 11
1140.223725870284
 21
882.0430149020959
 31
0.0
  0
LINE
  5
2971
330
1F
100
AcDbEntity
  8
10
 48
3.0
100
AcDbLine
 10
1114.223725870284
 20
665.543014902096
 30
0.0
 11
1114.223725870284
 21
615.543014902096
 31
0.0
  0
LINE
  5
2972
330
1F
100
AcDbEntity
  8
10
 48
3.0
100
AcDbLine
 10
1082.223725870284
 20
665.543014902096
 30
0.0
 11
1082.223725870284
 21
615.543014902096
 31
0.0
  0
LINE
  5
2973
330
1F
100
AcDbEntity
  8
10
 48
3.0
100
AcDbLine
 10
1114.223725870284
 20
615.543014902096
 30
0.0
 11
1082.223725870284
 21
615.543014902096
 31
0.0
  0
LINE
  5
2974
330
1F
100
AcDbEntity
  8
10
 48
3.0
100
AcDbLine
 10
1024.723725870283
 20
565.543014902096
 30
0.0
 11
1105.723725870283
 21
565.543014902096
 31
0.0
  0
LINE
  5
2975
330
1F
100
AcDbEntity
  8
10
 48
3.0
100
AcDbLine
 10
1024.723725870283
 20
527.5430149020958
 30
0.0
 11
1105.723725870283
 21
527.5430149020958
 31
0.0
  0
TEXT
  5
2976
330
1F
100
AcDbEntity
  8
10
 48
3.0
100
AcDbText
 10
1066.366648008395
 20
536.0430154704157
 30
0.0
 40
9.14285727909634
  1
ＴＢ１
 50
0.0000025044784726
 41
0.7031250019402551
  7
STANDARD1
100
AcDbText
  0
LINE
  5
2977
330
1F
100
AcDbEntity
  8
10
100
AcDbLine
 10
1038.223725870283
 20
504.0430149021033
 30
0.0
 11
1092.223725870284
 21
504.0430149021033
 31
0.0
  0
LINE
  5
2978
330
1F
100
AcDbEntity
  8
10
 48
3.0
100
AcDbLine
 10
1024.723725870283
 20
527.5430149020958
 30
0.0
 11
1024.723725870283
 21
565.543014902096
 31
0.0
  0
LINE
  5
2979
330
1F
100
AcDbEntity
  8
10
100
AcDbLine
 10
1032.223725870283
 20
510.0430149021033
 30
0.0
 11
1032.223725870283
 21
504.0430149021033
 31
0.0
  0
LINE
  5
297A
330
1F
100
AcDbEntity
  8
10
100
AcDbLine
 10
1038.223725870283
 20
510.0430149021032
 30
0.0
 11
1038.223725870283
 21
504.0430149021033
 31
0.0
  0
LINE
  5
297B
330
1F
100
AcDbEntity
  8
10
100
AcDbLine
 10
1019.09670921649
 20
504.0430149021033
 30
0.0
 11
1032.223725870283
 21
504.0430149021033
 31
0.0
  0
LINE
  5
297D
330
1F
100
AcDbEntity
  8
10
100
AcDbLine
 10
1021.718916398667
 20
514.7930149021029
 30
0.0
 11
1021.718916398667
 21
507.2930149021031
 31
0.0
  0
LINE
  5
297E
330
1F
100
AcDbEntity
  8
10
 48
3.0
100
AcDbLine
 10
1105.723725870283
 20
527.5430149020958
 30
0.0
 11
1105.723725870283
 21
565.543014902096
 31
0.0
  0
LINE
  5
2980
330
1F
100
AcDbEntity
  8
10
100
AcDbLine
 10
1112.395298745538
 20
513.8714420268488
 30
0.0
 11
1118.052152995031
 21
508.214587777357
 31
0.0
  0
LINE
  5
2981
330
1F
100
AcDbEntity
  8
10
100
AcDbLine
 10
1118.05215299503
 20
513.8714420268495
 30
0.0
 11
1112.395298745538
 21
508.214587777357
 31
0.0
  0
LINE
  5
2982
330
1F
100
AcDbEntity
  8
10
100
AcDbLine
 10
1121.718916398667
 20
514.7930149021028
 30
0.0
 11
1115.223725870283
 21
518.5430149021028
 31
0.0
  0
LINE
  5
2983
330
1F
100
AcDbEntity
  8
10
100
AcDbLine
 10
1115.223725870283
 20
503.543014902103
 30
0.0
 11
1121.718916398667
 21
507.2930149021027
 31
0.0
  0
CIRCLE
  5
2984
330
1F
100
AcDbEntity
  8
10
100
AcDbCircle
 10
1115.223725870283
 20
511.0430149021028
 30
0.0
 40
7.999999999999997
  0
LINE
  5
2985
330
1F
100
AcDbEntity
  8
10
100
AcDbLine
 10
1115.223725870283
 20
503.543014902103
 30
0.0
 11
1108.7285353419
 21
507.2930149021031
 31
0.0
  0
LINE
  5
2986
330
1F
100
AcDbEntity
  8
10
100
AcDbLine
 10
1092.223725870284
 20
510.0430149021033
 30
0.0
 11
1092.223725870284
 21
504.0430149021033
 31
0.0
  0
LINE
  5
2987
330
1F
100
AcDbEntity
  8
10
100
AcDbLine
 10
1098.223725870284
 20
510.0430149021032
 30
0.0
 11
1098.223725870284
 21
504.0430149021033
 31
0.0
  0
LINE
  5
2988
330
1F
100
AcDbEntity
  8
10
100
AcDbLine
 10
1098.223725870284
 20
504.0430149021033
 30
0.0
 11
1111.350742524076
 21
504.0430149021033
 31
0.0
  0
LINE
  5
298A
330
1F
100
AcDbEntity
  8
10
100
AcDbLine
 10
1108.7285353419
 20
514.7930149021029
 30
0.0
 11
1115.223725870283
 21
518.5430149021028
 31
0.0
  0
LINE
  5
298B
330
1F
100
AcDbEntity
  8
10
100
AcDbLine
 10
1108.7285353419
 20
514.7930149021029
 30
0.0
 11
1108.7285353419
 21
507.2930149021031
 31
0.0
  0
LINE
  5
298C
330
1F
100
AcDbEntity
  8
10
100
AcDbLine
 10
1142.923725870284
 20
491.0430149021029
 30
0.0
 11
1142.923725870284
 21
506.3430149021026
 31
0.0
  0
LINE
  5
298D
330
1F
100
AcDbEntity
  8
10
100
AcDbLine
 10
1138.723725870284
 20
504.5430149021029
 30
0.0
 11
1138.723725870284
 21
509.0430149020958
 31
0.0
  0
LINE
  5
298E
330
1F
100
AcDbEntity
  8
10
100
AcDbLine
 10
1140.223725870284
 20
506.0430149021031
 30
0.0
 11
1138.223725870284
 21
504.0430149021033
 31
0.0
  0
LINE
  5
298F
330
1F
100
AcDbEntity
  8
10
100
AcDbLine
 10
1142.923725870284
 20
504.0430149021029
 30
0.0
 11
1127.723725870285
 21
504.0430149021033
 31
0.0
  0
LINE
  5
2990
330
1F
100
AcDbEntity
  8
10
100
AcDbLine
 10
1140.923725870284
 20
489.0430149021028
 30
0.0
 11
1128.723725870284
 21
489.0430149021033
 31
0.0
  0
LINE
  5
2991
330
1F
100
AcDbEntity
  8
10
100
AcDbLine
 10
1119.096709216492
 20
504.0430149021033
 30
0.0
 11
1138.223725870284
 21
504.0430149021033
 31
0.0
  0
ARC
  5
2992
330
1F
100
AcDbEntity
  8
12
100
AcDbCircle
 10
1125.223725870283
 20
496.0430149021029
 30
0.0
 40
3.500000000000004
100
AcDbArc
 50
0.0
 51
180.0
  0
LINE
  5
2993
330
1F
100
AcDbEntity
  8
12
100
AcDbLine
 10
1121.723725870283
 20
496.0430149021029
 30
0.0
 11
1121.723725870283
 21
489.0430149021033
 31
0.0
  0
LINE
  5
2994
330
1F
100
AcDbEntity
  8
12
 48
3.0
100
AcDbLine
 10
1125.223725870283
 20
502.0430149021031
 30
0.0
 11
1125.223725870283
 21
490.0430149021032
 31
0.0
  0
LINE
  5
2995
330
1F
100
AcDbEntity
  8
12
100
AcDbLine
 10
1128.723725870284
 20
496.0430149021029
 30
0.0
 11
1128.723725870284
 21
489.0430149021033
 31
0.0
  0
LINE
  5
2996
330
1F
100
AcDbEntity
  8
10
100
AcDbLine
 10
1140.923725870284
 20
489.0430149021028
 30
0.0
 11
1142.923725870284
 21
491.0430149021029
 31
0.0
  0
LINE
  5
2997
330
1F
100
AcDbEntity
  8
10
100
AcDbLine
 10
1142.923725870284
 20
491.0430149021029
 30
0.0
 11
1145.223725870285
 21
491.0430149021029
 31
0.0
  0
LINE
  5
2999
330
1F
100
AcDbEntity
  8
10
100
AcDbLine
 10
1127.223725870283
 20
509.0430149020958
 30
0.0
 11
1140.223725870284
 21
509.0430149020958
 31
0.0
  0
LINE
  5
299A
330
1F
100
AcDbEntity
  8
10
100
AcDbLine
 10
1121.718916398667
 20
514.7930149021028
 30
0.0
 11
1121.718916398667
 21
507.2930149021027
 31
0.0
  0
LINE
  5
299B
330
1F
100
AcDbEntity
  8
10
100
AcDbLine
 10
1127.223725870283
 20
519.0430149020958
 30
0.0
 11
1127.223725870283
 21
509.0430149020958
 31
0.0
  0
LINE
  5
299C
330
1F
100
AcDbEntity
  8
10
100
AcDbLine
 10
1138.493725870284
 20
519.0430149020958
 30
0.0
 11
1137.223725870283
 21
509.0430149020958
 31
0.0
  0
LINE
  5
299D
330
1F
100
AcDbEntity
  8
10
100
AcDbLine
 10
1137.223725870283
 20
519.0430149020958
 30
0.0
 11
1137.223725870283
 21
509.0430149020958
 31
0.0
  0
LINE
  5
299E
330
1F
100
AcDbEntity
  8
10
100
AcDbLine
 10
1145.223725870285
 20
506.3430149021031
 30
0.0
 11
1142.923725870284
 21
506.3430149021026
 31
0.0
  0
LINE
  5
299F
330
1F
100
AcDbEntity
  8
10
 48
3.0
100
AcDbLine
 10
1114.223725870284
 20
577.8930149020958
 30
0.0
 11
1114.223725870284
 21
614.1930149020959
 31
0.0
  0
LINE
  5
29A0
330
1F
100
AcDbEntity
  8
10
 48
3.0
100
AcDbLine
 10
1093.223725870283
 20
577.8930149020958
 30
0.0
 11
1093.223725870283
 21
614.1930149020959
 31
0.0
  0
LINE
  5
29A1
330
1F
100
AcDbEntity
  8
10
 48
3.0
100
AcDbLine
 10
1093.223725870283
 20
577.8930149020958
 30
0.0
 11
1114.223725870284
 21
577.8930149020958
 31
0.0
  0
TEXT
  5
29A2
330
1F
100
AcDbEntity
  8
10
 48
3.0
100
AcDbText
 10
1093.95237188535
 20
580.3930063151423
 30
0.0
 40
8.228571755545486
  1
ＴＢ２
 50
0.0000025044784726
 41
0.7031249913766429
  7
STANDARD1
100
AcDbText
  0
LINE
  5
29A3
330
1F
100
AcDbEntity
  8
10
 48
3.0
100
AcDbLine
 10
1093.223725870283
 20
614.1930149020959
 30
0.0
 11
1114.223725870284
 21
614.1930149020959
 31
0.0
  0
TEXT
  5
29A4
330
1F
100
AcDbEntity
  8
10
 48
3.0
100
AcDbText
 10
1087.366648008397
 20
618.0430078410211
 30
0.0
 40
9.14285727909634
  1
ＴＢ３
 50
0.0000025044784726
 41
0.7031250019402551
  7
STANDARD1
100
AcDbText
  0
LINE
  5
29A5
330
1F
100
AcDbEntity
  8
10
100
AcDbLine
 10
1071.223725870284
 20
792.4030149021032
 30
0.0
 11
1109.223725870283
 21
792.4030149021032
 31
0.0
  0
LINE
  5
29A6
330
1F
100
AcDbEntity
  8
10
100
AcDbLine
 10
1071.223725870284
 20
785.9030149021032
 30
0.0
 11
1109.223725870283
 21
785.9030149021032
 31
0.0
  0
LINE
  5
29A7
330
1F
100
AcDbEntity
  8
10
 48
3.0
100
AcDbLine
 10
1114.223725870284
 20
665.543014902096
 30
0.0
 11
1082.223725870284
 21
665.543014902096
 31
0.0
  0
LINE
  5
29A8
330
1F
100
AcDbEntity
  8
10
100
AcDbLine
 10
1065.623725870284
 20
800.9030149021031
 30
0.0
 11
1083.623725870284
 21
800.9030149021031
 31
0.0
  0
LINE
  5
29A9
330
1F
100
AcDbEntity
  8
10
100
AcDbLine
 10
1079.617507406501
 20
827.903014902103
 30
0.0
 11
1083.623725870284
 21
827.903014902103
 31
0.0
  0
LINE
  5
29AA
330
1F
100
AcDbEntity
  8
10
100
AcDbLine
 10
1065.323725870284
 20
815.4679699699155
 30
0.0
 11
1083.923725870284
 21
815.4679699699155
 31
0.0
  0
LINE
  5
29AB
330
1F
100
AcDbEntity
  8
10
100
AcDbLine
 10
1065.323725870284
 20
802.903014902103
 30
0.0
 11
1083.923725870284
 21
802.903014902103
 31
0.0
  0
LINE
  5
29AC
330
1F
100
AcDbEntity
  8
10
100
AcDbLine
 10
1062.023725870284
 20
719.5030149021031
 30
0.0
 11
1092.023725870283
 21
719.5030149021031
 31
0.0
  0
LINE
  5
29AD
330
1F
100
AcDbEntity
  8
10
100
AcDbLine
 10
1062.023725870284
 20
781.3030149021033
 30
0.0
 11
1092.023725870283
 21
781.3030149021033
 31
0.0
  0
TEXT
  5
29AE
330
1F
100
AcDbEntity
  8
10
100
AcDbText
 10
1078.823770811131
 20
729.9030313395566
 30
0.0
 40
7.999999863760817
  1
ＴＢ４
 50
0.0000025044784726
 41
0.5555555673818741
  7
STANDARD1
100
AcDbText
  0
LINE
  5
29AF
330
1F
100
AcDbEntity
  8
10
100
AcDbLine
 10
1103.223725870283
 20
848.5430149021032
 30
0.0
 11
1077.223725870283
 21
848.5430149021032
 31
0.0
  0
LINE
  5
29B0
330
1F
100
AcDbEntity
  8
10
100
AcDbLine
 10
1065.223725870284
 20
798.9030149021036
 30
0.0
 11
1084.023725870283
 21
798.9030149021036
 31
0.0
  0
LINE
  5
29B1
330
1F
100
AcDbEntity
  8
10
100
AcDbLine
 10
1064.423725870284
 20
800.9030149021032
 30
0.0
 11
1084.823725870284
 21
800.9030149021032
 31
0.0
  0
LINE
  5
29B2
330
1F
100
AcDbEntity
  8
10
100
AcDbLine
 10
1061.114658118096
 20
781.4030149021032
 30
0.0
 11
1119.723725870284
 21
781.4030149021032
 31
0.0
  0
LINE
  5
29B3
330
1F
100
AcDbEntity
  8
10
100
AcDbLine
 10
1061.114658118096
 20
719.4030149021032
 30
0.0
 11
1103.723725870284
 21
719.4030149021032
 31
0.0
  0
LINE
  5
29B4
330
1F
100
AcDbEntity
  8
10
100
AcDbLine
 10
1060.723725870283
 20
797.4030149021032
 30
0.0
 11
1119.723725870284
 21
797.4030149021032
 31
0.0
  0
LINE
  5
29B5
330
1F
100
AcDbEntity
  8
10
100
AcDbLine
 10
1060.223725870284
 20
713.9030149021031
 30
0.0
 11
1120.223725870283
 21
713.9030149021031
 31
0.0
  0
LINE
  5
29B6
330
1F
100
AcDbEntity
  8
10
100
AcDbLine
 10
1061.223725870283
 20
828.4030149021031
 30
0.0
 11
1119.223725870283
 21
828.4030149021031
 31
0.0
  0
LINE
  5
29B7
330
1F
100
AcDbEntity
  8
10
 48
3.0
100
AcDbLine
 10
1069.823725870284
 20
777.9030149021032
 30
0.0
 11
1069.823725870284
 21
722.9030149021032
 31
0.0
  0
LINE
  5
29B8
330
1F
100
AcDbEntity
  8
10
 48
3.0
100
AcDbLine
 10
1077.823725870284
 20
722.9030149021032
 30
0.0
 11
1077.823725870284
 21
777.9030149021032
 31
0.0
  0
LINE
  5
29B9
330
1F
100
AcDbEntity
  8
10
100
AcDbLine
 10
1067.023725870283
 20
719.5030149021031
 30
0.0
 11
1067.023725870283
 21
781.3030149021033
 31
0.0
  0
LINE
  5
29BA
330
1F
100
AcDbEntity
  8
10
100
AcDbLine
 10
1069.621802081637
 20
719.5030149021031
 30
0.0
 11
1069.621802081637
 21
781.3030149021033
 31
0.0
  0
LINE
  5
29BB
330
1F
100
AcDbEntity
  8
10
100
AcDbLine
 10
1060.223725870284
 20
827.4030149021031
 30
0.0
 11
1060.223725870284
 21
713.9030149021031
 31
0.0
  0
LINE
  5
29BC
330
1F
100
AcDbEntity
  8
10
100
AcDbLine
 10
1067.023725870283
 20
721.5030149021031
 30
0.0
 11
1062.023725870284
 21
721.5030149021031
 31
0.0
  0
LINE
  5
29BD
330
1F
100
AcDbEntity
  8
10
100
AcDbLine
 10
1061.114658118096
 20
721.9030149021032
 30
0.0
 11
1067.023725870283
 21
721.9030149021032
 31
0.0
  0
LINE
  5
29BE
330
1F
100
AcDbEntity
  8
10
100
AcDbLine
 10
1062.023725870284
 20
719.5030149021031
 30
0.0
 11
1062.023725870284
 21
721.5030149021031
 31
0.0
  0
LINE
  5
29BF
330
1F
100
AcDbEntity
  8
10
100
AcDbLine
 10
1062.423725870283
 20
719.4030149021032
 30
0.0
 11
1062.423725870283
 21
719.5030149021031
 31
0.0
  0
LINE
  5
29C0
330
1F
100
AcDbEntity
  8
10
100
AcDbLine
 10
1064.623725870283
 20
719.4030149021032
 30
0.0
 11
1064.623725870283
 21
719.5030149021031
 31
0.0
  0
LINE
  5
29C1
330
1F
100
AcDbEntity
  8
10
100
AcDbLine
 10
1063.423725870283
 20
719.4030149021032
 30
0.0
 11
1063.423725870283
 21
719.5030149021031
 31
0.0
  0
LINE
  5
29C2
330
1F
100
AcDbEntity
  8
10
100
AcDbLine
 10
1065.823725870284
 20
719.4030149021032
 30
0.0
 11
1065.823725870284
 21
719.5030149021031
 31
0.0
  0
LINE
  5
29C3
330
1F
100
AcDbEntity
  8
10
100
AcDbLine
 10
1061.114658118096
 20
719.4030149021032
 30
0.0
 11
1061.114658118096
 21
721.9030149021032
 31
0.0
  0
LINE
  5
29C4
330
1F
100
AcDbEntity
  8
10
100
AcDbLine
 10
1062.423725870283
 20
721.5030149021031
 30
0.0
 11
1062.423725870283
 21
721.9030149021032
 31
0.0
  0
LINE
  5
29C5
330
1F
100
AcDbEntity
  8
10
100
AcDbLine
 10
1063.423725870283
 20
721.5030149021031
 30
0.0
 11
1063.423725870283
 21
721.9030149021032
 31
0.0
  0
LINE
  5
29C6
330
1F
100
AcDbEntity
  8
10
100
AcDbLine
 10
1064.623725870283
 20
721.5030149021031
 30
0.0
 11
1064.623725870283
 21
721.9030149021032
 31
0.0
  0
LINE
  5
29C7
330
1F
100
AcDbEntity
  8
10
100
AcDbLine
 10
1065.823725870284
 20
721.5030149021031
 30
0.0
 11
1065.823725870284
 21
721.9030149021032
 31
0.0
  0
LINE
  5
29C8
330
1F
100
AcDbEntity
  8
10
 48
3.0
100
AcDbLine
 10
1069.823725870284
 20
722.9030149021032
 30
0.0
 11
1077.823725870284
 21
722.9030149021032
 31
0.0
  0
LINE
  5
29C9
330
1F
100
AcDbEntity
  8
10
100
AcDbLine
 10
1067.723725870284
 20
719.5030149021031
 30
0.0
 11
1067.723725870284
 21
719.4030149021032
 31
0.0
  0
LINE
  5
29CA
330
1F
100
AcDbEntity
  8
10
100
AcDbLine
 10
1065.323725870284
 20
827.6030149021028
 30
0.0
 11
1065.323725870284
 21
801.2030149021031
 31
0.0
  0
LINE
  5
29CB
330
1F
100
AcDbEntity
  8
10
 48
3.0
100
AcDbLine
 10
1067.003725870284
 20
820.4430149021034
 30
0.0
 11
1067.003725870284
 21
805.3630149021033
 31
0.0
  0
LINE
  5
29CC
330
1F
100
AcDbEntity
  8
10
 48
3.0
100
AcDbLine
 10
1082.243725870283
 20
820.4430149021034
 30
0.0
 11
1082.243725870283
 21
805.3630149021033
 31
0.0
  0
LINE
  5
29CD
330
1F
100
AcDbEntity
  8
10
100
AcDbLine
 10
1065.223725870284
 20
827.8003254403481
 30
0.0
 11
1065.223725870284
 21
798.9030149021036
 31
0.0
  0
LINE
  5
29CE
330
1F
100
AcDbEntity
  8
10
100
AcDbLine
 10
1067.023725870283
 20
779.303014902103
 30
0.0
 11
1062.023725870284
 21
779.303014902103
 31
0.0
  0
LINE
  5
29CF
330
1F
100
AcDbEntity
  8
10
100
AcDbLine
 10
1061.114658118096
 20
778.9030149021032
 30
0.0
 11
1067.023725870283
 21
778.9030149021032
 31
0.0
  0
LINE
  5
29D0
330
1F
100
AcDbEntity
  8
10
100
AcDbLine
 10
1062.023725870284
 20
779.303014902103
 30
0.0
 11
1062.023725870284
 21
781.3030149021033
 31
0.0
  0
LINE
  5
29D1
330
1F
100
AcDbEntity
  8
10
100
AcDbLine
 10
1062.423725870283
 20
778.9030149021032
 30
0.0
 11
1062.423725870283
 21
779.303014902103
 31
0.0
  0
LINE
  5
29D2
330
1F
100
AcDbEntity
  8
10
100
AcDbLine
 10
1063.423725870283
 20
778.9030149021032
 30
0.0
 11
1063.423725870283
 21
779.303014902103
 31
0.0
  0
LINE
  5
29D3
330
1F
100
AcDbEntity
  8
10
100
AcDbLine
 10
1064.623725870283
 20
778.9030149021032
 30
0.0
 11
1064.623725870283
 21
779.303014902103
 31
0.0
  0
LINE
  5
29D4
330
1F
100
AcDbEntity
  8
10
100
AcDbLine
 10
1062.423725870283
 20
781.3030149021033
 30
0.0
 11
1062.423725870283
 21
781.4030149021032
 31
0.0
  0
LINE
  5
29D5
330
1F
100
AcDbEntity
  8
10
100
AcDbLine
 10
1065.823725870284
 20
778.9030149021032
 30
0.0
 11
1065.823725870284
 21
779.303014902103
 31
0.0
  0
LINE
  5
29D6
330
1F
100
AcDbEntity
  8
10
100
AcDbLine
 10
1061.114658118096
 20
778.9030149021032
 30
0.0
 11
1061.114658118096
 21
781.4030149021032
 31
0.0
  0
LINE
  5
29D7
330
1F
100
AcDbEntity
  8
10
100
AcDbLine
 10
1063.423725870283
 20
781.3030149021033
 30
0.0
 11
1063.423725870283
 21
781.4030149021032
 31
0.0
  0
LINE
  5
29D8
330
1F
100
AcDbEntity
  8
10
100
AcDbLine
 10
1064.623725870283
 20
781.3030149021033
 30
0.0
 11
1064.623725870283
 21
781.4030149021032
 31
0.0
  0
LINE
  5
29D9
330
1F
100
AcDbEntity
  8
10
100
AcDbLine
 10
1065.823725870284
 20
781.3030149021033
 30
0.0
 11
1065.823725870284
 21
781.4030149021032
 31
0.0
  0
ARC
  5
29DA
330
1F
100
AcDbEntity
  8
10
100
AcDbCircle
 10
1065.623725870284
 20
801.2030149021031
 30
0.0
 40
0.3000000000001745
100
AcDbArc
 50
180.0
 51
270.0
  0
LINE
  5
29DB
330
1F
100
AcDbEntity
  8
10
100
AcDbLine
 10
1065.223725870284
 20
803.5030149021034
 30
0.0
 11
1065.323725870284
 21
803.5030149021034
 31
0.0
  0
LINE
  5
29DC
330
1F
100
AcDbEntity
  8
10
100
AcDbLine
 10
1065.223725870284
 20
802.3030149021034
 30
0.0
 11
1065.323725870284
 21
802.3030149021034
 31
0.0
  0
LINE
  5
29DD
330
1F
100
AcDbEntity
  8
10
100
AcDbLine
 10
1065.223725870284
 20
805.9030149021031
 30
0.0
 11
1065.323725870284
 21
805.9030149021031
 31
0.0
  0
LINE
  5
29DE
330
1F
100
AcDbEntity
  8
10
100
AcDbLine
 10
1065.223725870284
 20
805.4030149021036
 30
0.0
 11
1065.323725870284
 21
805.4030149021036
 31
0.0
  0
LINE
  5
29DF
330
1F
100
AcDbEntity
  8
10
100
AcDbLine
 10
1063.923725870284
 20
803.9030149021032
 30
0.0
 11
1063.923725870284
 21
801.4030149021031
 31
0.0
  0
LINE
  5
29E0
330
1F
100
AcDbEntity
  8
10
100
AcDbLine
 10
1060.723725870283
 20
804.4030149021033
 30
0.0
 11
1063.423725870283
 21
804.4030149021033
 31
0.0
  0
ARC
  5
29E1
330
1F
100
AcDbEntity
  8
10
100
AcDbCircle
 10
1064.423725870284
 20
801.4030149021031
 30
0.0
 40
0.499999999999992
100
AcDbArc
 50
180.0
 51
270.0
  0
ARC
  5
29E2
330
1F
100
AcDbEntity
  8
10
100
AcDbCircle
 10
1063.423725870283
 20
803.9030149021032
 30
0.0
 40
0.499999999999992
100
AcDbArc
 50
0.0
 51
90.0
  0
ARC
  5
29E3
330
1F
100
AcDbEntity
  8
10
100
AcDbCircle
 10
1060.723725870283
 20
804.9030149021032
 30
0.0
 40
0.499999999999992
100
AcDbArc
 50
180.0
 51
270.0
  0
ARC
  5
29E4
330
1F
100
AcDbEntity
  8
10
100
AcDbCircle
 10
1060.723725870283
 20
796.9030149021031
 30
0.0
 40
0.499999999999992
100
AcDbArc
 50
90.0
 51
180.0
  0
LINE
  5
29E5
330
1F
100
AcDbEntity
  8
10
100
AcDbLine
 10
1069.823725870284
 20
777.9030149021032
 30
0.0
 11
1077.823725870284
 21
777.9030149021032
 31
0.0
  0
LINE
  5
29E6
330
1F
100
AcDbEntity
  8
10
100
AcDbLine
 10
1067.723725870284
 20
781.4030149021032
 30
0.0
 11
1067.723725870284
 21
781.3030149021033
 31
0.0
  0
LINE
  5
29E7
330
1F
100
AcDbEntity
  8
10
 48
3.0
100
AcDbLine
 10
1082.243725870283
 20
805.3630149021033
 30
0.0
 11
1067.003725870284
 21
805.3630149021033
 31
0.0
  0
LINE
  5
29E8
330
1F
100
AcDbEntity
  8
10
100
AcDbLine
 10
1070.223725870284
 20
786.9030149021031
 30
0.0
 11
1070.223725870284
 21
791.4030149021032
 31
0.0
  0
ARC
  5
29E9
330
1F
100
AcDbEntity
  8
10
100
AcDbCircle
 10
1071.223725870284
 20
791.4030149021032
 30
0.0
 40
0.9999999999999836
100
AcDbArc
 50
90.0
 51
180.0
  0
ARC
  5
29EA
330
1F
100
AcDbEntity
  8
10
100
AcDbCircle
 10
1071.223725870284
 20
786.9030149021031
 30
0.0
 40
0.9999999999999836
100
AcDbArc
 50
180.0
 51
270.0
  0
LINE
  5
29EB
330
1F
100
AcDbEntity
  8
10
100
AcDbLine
 10
1065.623725870284
 20
827.903014902103
 30
0.0
 11
1069.629944334067
 21
827.903014902103
 31
0.0
  0
LINE
  5
29EC
330
1F
100
AcDbEntity
  8
10
100
AcDbLine
 10
1070.223725870284
 20
832.0430149021033
 30
0.0
 11
1060.223725870284
 21
832.0430149021033
 31
0.0
  0
ARC
  5
29ED
330
1F
100
AcDbEntity
  8
10
100
AcDbCircle
 10
1065.623725870284
 20
827.6030149021028
 30
0.0
 40
0.2999999999999717
100
AcDbArc
 50
90.0
 51
180.0
  0
ARC
  5
29EE
330
1F
100
AcDbEntity
  8
10
100
AcDbCircle
 10
1061.223725870283
 20
827.4030149021031
 30
0.0
 40
1.000000000000025
100
AcDbArc
 50
90.0
 51
180.0
  0
LINE
  5
29EF
330
1F
100
AcDbEntity
  8
10
100
AcDbLine
 10
1065.223725870284
 20
827.8003254403481
 30
0.0
 11
1065.397742349872
 21
827.8003254403481
 31
0.0
  0
LINE
  5
29F0
330
1F
100
AcDbEntity
  8
10
100
AcDbLine
 10
1065.223725870284
 20
827.7479176610652
 30
0.0
 11
1065.223725870284
 21
816.9917132354793
 31
0.0
  0
LINE
  5
29F1
330
1F
100
AcDbEntity
  8
10
100
AcDbLine
 10
1065.223725870284
 20
825.6000509711487
 30
0.0
 11
1065.323725870284
 21
825.6000509711487
 31
0.0
  0
LINE
  5
29F2
330
1F
100
AcDbEntity
  8
10
100
AcDbLine
 10
1070.223725870284
 20
841.5430149021032
 30
0.0
 11
1070.223725870284
 21
832.0430149021033
 31
0.0
  0
LINE
  5
29F3
330
1F
100
AcDbEntity
  8
10
100
AcDbLine
 10
1069.623725870284
 20
827.5886041379248
 30
0.0
 11
1079.623725870284
 21
827.5886041379248
 31
0.0
  0
LINE
  5
29F4
330
1F
100
AcDbEntity
  8
10
100
AcDbLine
 10
1070.123725870284
 20
828.1147721160463
 30
0.0
 11
1079.123725870284
 21
828.1147721160463
 31
0.0
  0
LINE
  5
29F5
330
1F
100
AcDbEntity
  8
10
100
AcDbLine
 10
1070.123725870284
 20
828.2195876746126
 30
0.0
 11
1079.123725870284
 21
828.2195876746126
 31
0.0
  0
LINE
  5
29F6
330
1F
100
AcDbEntity
  8
10
100
AcDbLine
 10
1070.123725870284
 20
828.3244032331786
 30
0.0
 11
1079.123725870284
 21
828.3244032331786
 31
0.0
  0
LINE
  5
29F7
330
1F
100
AcDbEntity
  8
10
 48
3.0
100
AcDbLine
 10
1082.243725870283
 20
820.4430149021034
 30
0.0
 11
1067.003725870284
 21
820.4430149021034
 31
0.0
  0
ARC
  5
29F8
330
1F
100
AcDbEntity
  8
10
100
AcDbCircle
 10
1070.123725870284
 20
827.6147721160464
 30
0.0
 40
0.499999999999992
100
AcDbArc
 50
90.0
 51
180.0
  0
ARC
  5
29F9
330
1F
100
AcDbEntity
  8
10
100
AcDbCircle
 10
1070.123725870284
 20
827.7195876746123
 30
0.0
 40
0.499999999999992
100
AcDbArc
 50
90.0
 51
180.0
  0
LINE
  5
29FA
330
1F
100
AcDbEntity
  8
10
100
AcDbLine
 10
1069.623725870284
 20
827.5886041379248
 30
0.0
 11
1069.623725870284
 21
827.8244032331786
 31
0.0
  0
ARC
  5
29FB
330
1F
100
AcDbEntity
  8
10
100
AcDbCircle
 10
1070.123725870284
 20
827.8244032331786
 30
0.0
 40
0.499999999999992
100
AcDbArc
 50
90.0
 51
180.0
  0
ARC
  5
29FC
330
1F
100
AcDbEntity
  8
10
100
AcDbCircle
 10
1079.123725870284
 20
827.6147721160464
 30
0.0
 40
0.499999999999992
100
AcDbArc
 50
0.0
 51
90.0
  0
ARC
  5
29FD
330
1F
100
AcDbEntity
  8
10
100
AcDbCircle
 10
1079.123725870284
 20
827.7195876746123
 30
0.0
 40
0.499999999999992
100
AcDbArc
 50
0.0
 51
90.0
  0
LINE
  5
29FE
330
1F
100
AcDbEntity
  8
10
100
AcDbLine
 10
1079.623725870284
 20
827.5886041379248
 30
0.0
 11
1079.623725870284
 21
827.8244032331786
 31
0.0
  0
ARC
  5
29FF
330
1F
100
AcDbEntity
  8
10
100
AcDbCircle
 10
1079.123725870284
 20
827.8244032331786
 30
0.0
 40
0.499999999999992
100
AcDbArc
 50
0.0
 51
90.0
  0
ARC
  5
2A00
330
1F
100
AcDbEntity
  8
10
100
AcDbCircle
 10
1077.223725870283
 20
841.5430149021032
 30
0.0
 40
7.000000000000013
100
AcDbArc
 50
90.0
 51
180.0
  0
LINE
  5
2A01
330
1F
100
AcDbEntity
  8
10
100
AcDbLine
 10
1090.801856652463
 20
738.9030183845793
 30
0.0
 11
1090.801856652463
 21
781.3030149021033
 31
0.0
  0
LINE
  5
2A02
330
1F
100
AcDbEntity
  8
10
100
AcDbLine
 10
1091.222541151152
 20
738.9030183845793
 30
0.0
 11
1091.222541151152
 21
779.303014902103
 31
0.0
  0
LINE
  5
2A03
330
1F
100
AcDbEntity
  8
10
100
AcDbLine
 10
1120.223725870283
 20
827.4030149021031
 30
0.0
 11
1120.223725870283
 21
713.9030149021031
 31
0.0
  0
LINE
  5
2A04
330
1F
100
AcDbEntity
  8
10
100
AcDbLine
 10
1110.723725870284
 20
719.4030149021032
 30
0.0
 11
1119.723725870284
 21
719.4030149021032
 31
0.0
  0
LINE
  5
2A05
330
1F
100
AcDbEntity
  8
10
100
AcDbLine
 10
1090.965763986033
 20
721.5030149021031
 30
0.0
 11
1092.023725870283
 21
721.5030149021031
 31
0.0
  0
LINE
  5
2A06
330
1F
100
AcDbEntity
  8
10
100
AcDbLine
 10
1091.023725870283
 20
719.4030149021031
 30
0.0
 11
1091.023725870283
 21
719.5030149021031
 31
0.0
  0
LINE
  5
2A07
330
1F
100
AcDbEntity
  8
10
100
AcDbLine
 10
1089.023725870283
 20
719.4030149021031
 30
0.0
 11
1089.023725870283
 21
719.5030149021031
 31
0.0
  0
LINE
  5
2A08
330
1F
100
AcDbEntity
  8
10
100
AcDbLine
 10
1090.801856652463
 20
719.5030149021031
 30
0.0
 11
1090.801856652463
 21
728.9030176851971
 31
0.0
  0
LINE
  5
2A09
330
1F
100
AcDbEntity
  8
10
100
AcDbLine
 10
1087.088515632482
 20
719.4030149021032
 30
0.0
 11
1087.088515632482
 21
719.5030149021031
 31
0.0
  0
LINE
  5
2A0A
330
1F
100
AcDbEntity
  8
10
100
AcDbLine
 10
1092.023725870283
 20
719.5030149021031
 30
0.0
 11
1092.023725870283
 21
721.5030149021031
 31
0.0
  0
LINE
  5
2A0B
330
1F
100
AcDbEntity
  8
10
100
AcDbLine
 10
1091.222541151152
 20
721.5030149021031
 30
0.0
 11
1091.222541151152
 21
728.9030176851971
 31
0.0
  0
LINE
  5
2A0C
330
1F
100
AcDbEntity
  8
10
100
AcDbLine
 10
1092.023725870283
 20
720.9030149021032
 30
0.0
 11
1092.588515632482
 21
720.9030149021032
 31
0.0
  0
LINE
  5
2A0D
330
1F
100
AcDbEntity
  8
10
100
AcDbLine
 10
1093.08851563248
 20
719.4030149021032
 30
0.0
 11
1093.08851563248
 21
720.4030149021031
 31
0.0
  0
ARC
  5
2A0E
330
1F
100
AcDbEntity
  8
10
100
AcDbCircle
 10
1092.588515632482
 20
720.4030149021031
 30
0.0
 40
0.499999999999992
100
AcDbArc
 50
0.0
 51
90.0
  0
ARC
  5
2A0F
330
1F
100
AcDbEntity
  8
10
100
AcDbCircle
 10
1107.223725870283
 20
719.4030149021032
 30
0.0
 40
6.500000000000002
100
AcDbArc
 50
0.0
 51
180.0
  0
ARC
  5
2A10
330
1F
100
AcDbEntity
  8
10
100
AcDbCircle
 10
1107.223725870283
 20
719.4030149021032
 30
0.0
 40
4.999999999999761
100
AcDbArc
 50
0.0
 51
180.0
  0
ARC
  5
2A11
330
1F
100
AcDbEntity
  8
10
100
AcDbCircle
 10
1107.223725870283
 20
719.4030149021032
 30
0.0
 40
3.499999999999984
100
AcDbArc
 50
0.0
 51
180.0
  0
ARC
  5
2A12
330
1F
100
AcDbEntity
  8
10
100
AcDbCircle
 10
1107.223725870283
 20
719.4030149021032
 30
0.0
 40
4.00000000000002
100
AcDbArc
 50
180.0
 51
0.0
  0
CIRCLE
  5
2A13
330
1F
100
AcDbEntity
  8
10
100
AcDbCircle
 10
1107.223725870283
 20
719.4030149021032
 30
0.0
 40
2.999999999999993
  0
CIRCLE
  5
2A14
330
1F
100
AcDbEntity
  8
10
100
AcDbCircle
 10
1107.223725870283
 20
719.4030149021032
 30
0.0
 40
2.999999999999993
  0
ARC
  5
2A15
330
1F
100
AcDbEntity
  8
10
100
AcDbCircle
 10
1119.723725870284
 20
718.9030149021032
 30
0.0
 40
0.499999999999992
100
AcDbArc
 50
0.0
 51
90.0
  0
LINE
  5
2A16
330
1F
100
AcDbEntity
  8
10
100
AcDbLine
 10
1120.223725870283
 20
832.0430149021033
 30
0.0
 11
1110.223725870284
 21
832.0430149021033
 31
0.0
  0
LINE
  5
2A17
330
1F
100
AcDbEntity
  8
10
100
AcDbLine
 10
1085.823725870284
 20
804.4030149021033
 30
0.0
 11
1119.723725870284
 21
804.4030149021033
 31
0.0
  0
LINE
  5
2A18
330
1F
100
AcDbEntity
  8
10
100
AcDbLine
 10
1083.923725870284
 20
827.6030149021028
 30
0.0
 11
1083.923725870284
 21
801.2030149021031
 31
0.0
  0
LINE
  5
2A19
330
1F
100
AcDbEntity
  8
10
100
AcDbLine
 10
1084.023725870283
 20
827.8003254403481
 30
0.0
 11
1084.023725870283
 21
798.9030149021036
 31
0.0
  0
LINE
  5
2A1A
330
1F
100
AcDbEntity
  8
10
100
AcDbLine
 10
1102.923725870284
 20
817.6030149021032
 30
0.0
 11
1102.923725870284
 21
808.4030149021032
 31
0.0
  0
LINE
  5
2A1B
330
1F
100
AcDbEntity
  8
10
100
AcDbLine
 10
1084.723725870283
 20
817.6030149021032
 30
0.0
 11
1084.723725870283
 21
808.4030149021032
 31
0.0
  0
LINE
  5
2A1C
330
1F
100
AcDbEntity
  8
10
100
AcDbLine
 10
1085.723725870284
 20
807.4030149021032
 30
0.0
 11
1101.923725870284
 21
807.4030149021032
 31
0.0
  0
LINE
  5
2A1D
330
1F
100
AcDbEntity
  8
10
100
AcDbLine
 10
1090.965763986033
 20
779.303014902103
 30
0.0
 11
1092.023725870283
 21
779.303014902103
 31
0.0
  0
LINE
  5
2A1E
330
1F
100
AcDbEntity
  8
10
100
AcDbLine
 10
1091.023725870283
 20
781.4030149021029
 30
0.0
 11
1091.023725870283
 21
781.3030149021033
 31
0.0
  0
LINE
  5
2A1F
330
1F
100
AcDbEntity
  8
10
100
AcDbLine
 10
1089.023725870283
 20
781.4030149021029
 30
0.0
 11
1089.023725870283
 21
781.3030149021033
 31
0.0
  0
LINE
  5
2A20
330
1F
100
AcDbEntity
  8
10
100
AcDbLine
 10
1087.088515632482
 20
781.3030149021033
 30
0.0
 11
1087.088515632482
 21
781.4030149021032
 31
0.0
  0
LINE
  5
2A21
330
1F
100
AcDbEntity
  8
10
100
AcDbLine
 10
1092.023725870283
 20
779.303014902103
 30
0.0
 11
1092.023725870283
 21
781.3030149021033
 31
0.0
  0
LINE
  5
2A22
330
1F
100
AcDbEntity
  8
10
100
AcDbLine
 10
1093.08851563248
 20
780.4030149021031
 30
0.0
 11
1093.08851563248
 21
781.4030149021032
 31
0.0
  0
LINE
  5
2A23
330
1F
100
AcDbEntity
  8
10
100
AcDbLine
 10
1092.023725870283
 20
779.9030149021032
 30
0.0
 11
1092.588515632482
 21
779.9030149021032
 31
0.0
  0
ARC
  5
2A24
330
1F
100
AcDbEntity
  8
10
100
AcDbCircle
 10
1092.588515632482
 20
780.4030149021031
 30
0.0
 40
0.5000000000000318
100
AcDbArc
 50
270.0
 51
0.0
  0
ARC
  5
2A25
330
1F
100
AcDbEntity
  8
10
100
AcDbCircle
 10
1083.623725870284
 20
801.2030149021031
 30
0.0
 40
0.3000000000001745
100
AcDbArc
 50
270.0
 51
0.0
  0
LINE
  5
2A26
330
1F
100
AcDbEntity
  8
10
100
AcDbLine
 10
1083.923725870284
 20
802.3030149021034
 30
0.0
 11
1084.023725870283
 21
802.3030149021034
 31
0.0
  0
LINE
  5
2A27
330
1F
100
AcDbEntity
  8
10
100
AcDbLine
 10
1083.923725870284
 20
803.5030149021034
 30
0.0
 11
1084.023725870283
 21
803.5030149021034
 31
0.0
  0
LINE
  5
2A28
330
1F
100
AcDbEntity
  8
10
100
AcDbLine
 10
1083.923725870284
 20
805.9030149021031
 30
0.0
 11
1084.023725870283
 21
805.9030149021031
 31
0.0
  0
LINE
  5
2A29
330
1F
100
AcDbEntity
  8
10
100
AcDbLine
 10
1083.923725870284
 20
805.4030149021032
 30
0.0
 11
1084.023725870283
 21
805.4030149021032
 31
0.0
  0
LINE
  5
2A2A
330
1F
100
AcDbEntity
  8
10
100
AcDbLine
 10
1085.323725870284
 20
803.9030149021032
 30
0.0
 11
1085.323725870284
 21
801.4030149021031
 31
0.0
  0
ARC
  5
2A2B
330
1F
100
AcDbEntity
  8
10
100
AcDbCircle
 10
1085.723725870284
 20
808.4030149021032
 30
0.0
 40
1.000000000000025
100
AcDbArc
 50
180.0
 51
270.0
  0
ARC
  5
2A2C
330
1F
100
AcDbEntity
  8
10
100
AcDbCircle
 10
1084.823725870284
 20
801.4030149021031
 30
0.0
 40
0.499999999999992
100
AcDbArc
 50
270.0
 51
0.0
  0
ARC
  5
2A2D
330
1F
100
AcDbEntity
  8
10
100
AcDbCircle
 10
1085.823725870284
 20
803.9030149021032
 30
0.0
 40
0.499999999999992
100
AcDbArc
 50
90.0
 51
180.0
  0
ARC
  5
2A2E
330
1F
100
AcDbEntity
  8
10
100
AcDbCircle
 10
1101.923725870284
 20
808.4030149021032
 30
0.0
 40
1.000000000000025
100
AcDbArc
 50
270.0
 51
0.0
  0
LINE
  5
2A2F
330
1F
100
AcDbEntity
  8
10
100
AcDbLine
 10
1110.223725870284
 20
786.9030149021031
 30
0.0
 11
1110.223725870284
 21
791.4030149021032
 31
0.0
  0
ARC
  5
2A30
330
1F
100
AcDbEntity
  8
10
100
AcDbCircle
 10
1109.223725870283
 20
791.4030149021032
 30
0.0
 40
1.000000000000002
100
AcDbArc
 50
0.0
 51
90.0
  0
ARC
  5
2A31
330
1F
100
AcDbEntity
  8
10
100
AcDbCircle
 10
1109.223725870283
 20
786.9030149021031
 30
0.0
 40
0.9999999999999836
100
AcDbArc
 50
270.0
 51
0.0
  0
LINE
  5
2A32
330
1F
100
AcDbEntity
  8
10
100
AcDbLine
 10
1085.723725870284
 20
818.6030149021032
 30
0.0
 11
1101.923725870284
 21
818.6030149021032
 31
0.0
  0
ARC
  5
2A33
330
1F
100
AcDbEntity
  8
10
100
AcDbCircle
 10
1083.623725870284
 20
827.6030149021028
 30
0.0
 40
0.2999999999999717
100
AcDbArc
 50
0.0
 51
90.0
  0
LINE
  5
2A34
330
1F
100
AcDbEntity
  8
10
100
AcDbLine
 10
1084.023725870283
 20
827.8003254403481
 30
0.0
 11
1084.023725870283
 21
811.8790521316968
 31
0.0
  0
LINE
  5
2A35
330
1F
100
AcDbEntity
  8
10
100
AcDbLine
 10
1083.923725870284
 20
825.6000509711487
 30
0.0
 11
1084.023725870283
 21
825.6000509711487
 31
0.0
  0
LINE
  5
2A36
330
1F
100
AcDbEntity
  8
10
100
AcDbLine
 10
1083.849709390695
 20
827.8003254403481
 30
0.0
 11
1084.023725870283
 21
827.8003254403481
 31
0.0
  0
ARC
  5
2A37
330
1F
100
AcDbEntity
  8
10
100
AcDbCircle
 10
1085.723725870284
 20
817.6030149021032
 30
0.0
 40
0.9999999999999836
100
AcDbArc
 50
90.0
 51
180.0
  0
LINE
  5
2A38
330
1F
100
AcDbEntity
  8
10
100
AcDbLine
 10
1110.223725870284
 20
841.5430149021032
 30
0.0
 11
1110.223725870284
 21
832.0430149021033
 31
0.0
  0
ARC
  5
2A39
330
1F
100
AcDbEntity
  8
10
100
AcDbCircle
 10
1101.923725870284
 20
817.6030149021032
 30
0.0
 40
1.000000000000002
100
AcDbArc
 50
0.0
 51
90.0
  0
ARC
  5
2A3A
330
1F
100
AcDbEntity
  8
10
100
AcDbCircle
 10
1103.223725870283
 20
841.5430149021032
 30
0.0
 40
7.000000000000013
100
AcDbArc
 50
0.0
 51
90.0
  0
LINE
  5
2A3B
330
1F
100
AcDbEntity
  8
10
100
AcDbLine
 10
1120.223725870283
 20
797.4030149021032
 30
0.0
 11
1140.223725870284
 21
797.4030149021032
 31
0.0
  0
LINE
  5
2A3C
330
1F
100
AcDbEntity
  8
10
100
AcDbLine
 10
1120.223725870283
 20
804.4030149021033
 30
0.0
 11
1140.223725870284
 21
804.4030149021033
 31
0.0
  0
ARC
  5
2A3D
330
1F
100
AcDbEntity
  8
10
100
AcDbCircle
 10
1119.723725870284
 20
781.9030149021031
 30
0.0
 40
0.499999999999992
100
AcDbArc
 50
270.0
 51
0.0
  0
ARC
  5
2A3E
330
1F
100
AcDbEntity
  8
10
100
AcDbCircle
 10
1119.723725870284
 20
796.9030149021031
 30
0.0
 40
0.499999999999992
100
AcDbArc
 50
0.0
 51
90.0
  0
ARC
  5
2A3F
330
1F
100
AcDbEntity
  8
10
100
AcDbCircle
 10
1119.723725870284
 20
804.9030149021032
 30
0.0
 40
0.499999999999992
100
AcDbArc
 50
270.0
 51
0.0
  0
ARC
  5
2A40
330
1F
100
AcDbEntity
  8
10
100
AcDbCircle
 10
1119.223725870283
 20
827.4030149021031
 30
0.0
 40
1.000000000000002
100
AcDbArc
 50
0.0
 51
90.0
  0
LINE
  5
2A47
330
1F
100
AcDbEntity
  8
10
100
AcDbLine
 10
1127.223725870283
 20
879.0430149020961
 30
0.0
 11
1140.223725870284
 21
879.0430149020961
 31
0.0
  0
LINE
  5
2A48
330
1F
100
AcDbEntity
  8
10
100
AcDbLine
 10
1127.223725870283
 20
869.043014902096
 30
0.0
 11
1127.223725870283
 21
879.0430149020961
 31
0.0
  0
CIRCLE
  5
2A49
330
1F
100
AcDbEntity
  8
12
100
AcDbCircle
 10
1125.223725870283
 20
892.0430149021031
 30
0.0
 40
3.500000000000004
  0
LINE
  5
2A4A
330
1F
100
AcDbEntity
  8
12
 48
3.0
100
AcDbLine
 10
1125.223725870283
 20
886.0430149021032
 30
0.0
 11
1125.223725870283
 21
898.0430149021033
 31
0.0
  0
LINE
  5
2A4D
330
1F
100
AcDbEntity
  8
10
100
AcDbLine
 10
1142.923725870284
 20
897.043014902103
 30
0.0
 11
1142.923725870284
 21
881.7430149021033
 31
0.0
  0
LINE
  5
2A4E
330
1F
100
AcDbEntity
  8
10
100
AcDbLine
 10
1138.493725870284
 20
869.043014902096
 30
0.0
 11
1137.223725870283
 21
879.0430149020961
 31
0.0
  0
LINE
  5
2A4F
330
1F
100
AcDbEntity
  8
10
100
AcDbLine
 10
1137.223725870283
 20
869.043014902096
 30
0.0
 11
1137.223725870283
 21
879.0430149020961
 31
0.0
  0
LINE
  5
2A50
330
1F
100
AcDbEntity
  8
10
100
AcDbLine
 10
1138.223725870284
 20
884.0430149021033
 30
0.0
 11
1140.223725870284
 21
882.0430149020959
 31
0.0
  0
LINE
  5
2A51
330
1F
100
AcDbEntity
  8
10
100
AcDbLine
 10
1138.723725870284
 20
879.0430149020961
 30
0.0
 11
1138.723725870284
 21
883.5430149021014
 31
0.0
  0
LINE
  5
2A52
330
1F
100
AcDbEntity
  8
10
100
AcDbLine
 10
1142.923725870284
 20
881.7430149021033
 30
0.0
 11
1145.223725870283
 21
881.7430149021033
 31
0.0
  0
LINE
  5
2A53
330
1F
100
AcDbEntity
  8
10
100
AcDbLine
 10
1142.923725870284
 20
897.043014902103
 30
0.0
 11
1140.923725870284
 21
899.0430149021033
 31
0.0
  0
LINE
  5
2A54
330
1F
100
AcDbEntity
  8
10
100
AcDbLine
 10
1142.923725870284
 20
897.043014902103
 30
0.0
 11
1145.223725870283
 21
897.043014902103
 31
0.0
  0
LINE
  5
2A5A
330
1F
100
AcDbEntity
  8
10
100
AcDbLine
 10
1582.46737130691
 20
557.543014902103
 30
0.0
 11
1624.923725870284
 21
557.543014902103
 31
0.0
  0
LINE
  5
2A5B
330
1F
100
AcDbEntity
  8
10
100
AcDbLine
 10
1587.541267504765
 20
553.543014902103
 30
0.0
 11
1624.923725870284
 21
553.543014902103
 31
0.0
  0
LINE
  5
2A5C
330
1F
100
AcDbEntity
  8
10
 48
3.0
100
AcDbLine
 10
1554.173725870285
 20
532.543014902103
 30
0.0
 11
1634.173725870285
 21
532.543014902103
 31
0.0
  0
LINE
  5
2A5D
330
1F
100
AcDbEntity
  8
10
100
AcDbLine
 10
1597.223725870284
 20
722.0430149021028
 30
0.0
 11
1639.223725870284
 21
722.0430149021028
 31
0.0
  0
LINE
  5
2A5E
330
1F
100
AcDbEntity
  8
10
100
AcDbLine
 10
1597.223725870284
 20
666.043014902103
 30
0.0
 11
1639.223725870284
 21
666.043014902103
 31
0.0
  0
LINE
  5
2A5F
330
1F
100
AcDbEntity
  8
10
100
AcDbLine
 10
1597.223725870284
 20
837.0430149021029
 30
0.0
 11
1639.223725870284
 21
837.0430149021029
 31
0.0
  0
LINE
  5
2A60
330
1F
100
AcDbEntity
  8
10
100
AcDbLine
 10
1597.223725870284
 20
551.0430149021026
 30
0.0
 11
1639.223725870284
 21
551.0430149021026
 31
0.0
  0
LINE
  5
2A61
330
1F
100
AcDbEntity
  8
10
100
AcDbLine
 10
1654.223725870285
 20
491.043014902103
 30
0.0
 11
1554.223725870285
 21
506.3430149021026
 31
0.0
  0
LINE
  5
2A62
330
1F
100
AcDbEntity
  8
10
100
AcDbLine
 10
1654.223725870285
 20
897.0430149021034
 30
0.0
 11
1554.223725870285
 21
881.7430149021033
 31
0.0
  0
LINE
  5
2A63
330
1F
100
AcDbEntity
  8
10
100
AcDbLine
 10
1577.280055195105
 20
569.5430149021031
 30
0.0
 11
1645.723725870301
 21
569.543014902103
 31
0.0
  0
LINE
  5
2A64
330
1F
100
AcDbEntity
  8
10
100
AcDbLine
 10
1545.223725870285
 20
504.0430149021029
 30
0.0
 11
1545.223725870285
 21
884.0430149021033
 31
0.0
  0
LINE
  5
2A65
330
1F
100
AcDbEntity
  8
10
100
AcDbLine
 10
1385.223725870284
 20
869.0430149021031
 30
0.0
 11
1385.223725870284
 21
789.0430149021031
 31
0.0
  0
LINE
  5
2A66
330
1F
100
AcDbEntity
  8
10
100
AcDbLine
 10
1384.723725870284
 20
869.0692187917447
 30
0.0
 11
1384.723725870284
 21
674.0868070538684
 31
0.0
  0
ARC
  5
2A67
330
1F
100
AcDbEntity
  8
10
100
AcDbCircle
 10
1395.223725870285
 20
857.0796399834629
 30
0.0
 40
30.00000000000007
100
AcDbArc
 50
162.347961769852
 51
180.0
  0
LINE
  5
2A68
330
1F
100
AcDbEntity
  8
10
100
AcDbLine
 10
1536.723725870285
 20
879.043014902103
 30
0.0
 11
1536.723725870285
 21
509.0430149021027
 31
0.0
  0
LINE
  5
2A69
330
1F
100
AcDbEntity
  8
10
100
AcDbLine
 10
1537.223725870284
 20
504.0430149021032
 30
0.0
 11
1537.223725870284
 21
884.0430149021031
 31
0.0
  0
LINE
  5
2A6A
330
1F
100
AcDbEntity
  8
10
100
AcDbLine
 10
1545.223725870285
 20
504.0430149021032
 30
0.0
 11
1545.223725870285
 21
884.0430149021031
 31
0.0
  0
LINE
  5
2A6B
330
1F
100
AcDbEntity
  8
10
100
AcDbLine
 10
1532.223725870284
 20
509.0430149021027
 30
0.0
 11
1432.223725870285
 21
519.0430149021028
 31
0.0
  0
ARC
  5
2A6C
330
1F
100
AcDbEntity
  8
10
100
AcDbCircle
 10
1471.223725870284
 20
540.2930149021051
 30
0.0
 40
1.25
100
AcDbArc
 50
180.0
 51
0.0
  0
LINE
  5
2A6D
330
1F
100
AcDbEntity
  8
10
100
AcDbLine
 10
1472.473725870284
 20
576.5430149021031
 30
0.0
 11
1469.973725870285
 21
576.5430149021031
 31
0.0
  0
LINE
  5
2A6E
330
1F
100
AcDbEntity
  8
10
100
AcDbLine
 10
1472.473725870284
 20
561.543014902103
 30
0.0
 11
1469.973725870285
 21
561.543014902103
 31
0.0
  0
LINE
  5
2A6F
330
1F
100
AcDbEntity
  8
10
100
AcDbLine
 10
1472.473725870284
 20
676.5430149021033
 30
0.0
 11
1469.973725870285
 21
676.5430149021033
 31
0.0
  0
LINE
  5
2A70
330
1F
100
AcDbEntity
  8
10
100
AcDbLine
 10
1472.473725870284
 20
661.543014902103
 30
0.0
 11
1469.973725870285
 21
661.543014902103
 31
0.0
  0
LINE
  5
2A71
330
1F
100
AcDbEntity
  8
10
100
AcDbLine
 10
1472.473725870284
 20
626.5430149021031
 30
0.0
 11
1469.973725870285
 21
626.5430149021031
 31
0.0
  0
LINE
  5
2A72
330
1F
100
AcDbEntity
  8
10
100
AcDbLine
 10
1472.473725870284
 20
611.543014902103
 30
0.0
 11
1469.973725870285
 21
611.543014902103
 31
0.0
  0
LINE
  5
2A73
330
1F
100
AcDbEntity
  8
10
100
AcDbLine
 10
1472.473725870284
 20
826.543014902103
 30
0.0
 11
1469.973725870285
 21
826.543014902103
 31
0.0
  0
LINE
  5
2A74
330
1F
100
AcDbEntity
  8
10
100
AcDbLine
 10
1472.473725870284
 20
811.5430149021031
 30
0.0
 11
1469.973725870285
 21
811.5430149021031
 31
0.0
  0
ARC
  5
2A75
330
1F
100
AcDbEntity
  8
10
100
AcDbCircle
 10
1471.223725870284
 20
847.7930149021007
 30
0.0
 40
1.25
100
AcDbArc
 50
0.0
 51
180.0
  0
LINE
  5
2A76
330
1F
100
AcDbEntity
  8
10
100
AcDbLine
 10
1472.473725870284
 20
776.5430149021033
 30
0.0
 11
1469.973725870285
 21
776.5430149021033
 31
0.0
  0
LINE
  5
2A77
330
1F
100
AcDbEntity
  8
10
100
AcDbLine
 10
1472.473725870284
 20
761.543014902103
 30
0.0
 11
1469.973725870285
 21
761.543014902103
 31
0.0
  0
LINE
  5
2A78
330
1F
100
AcDbEntity
  8
10
100
AcDbLine
 10
1472.473725870284
 20
726.5430149021033
 30
0.0
 11
1469.973725870285
 21
726.5430149021033
 31
0.0
  0
LINE
  5
2A79
330
1F
100
AcDbEntity
  8
10
100
AcDbLine
 10
1472.473725870284
 20
711.543014902103
 30
0.0
 11
1469.973725870285
 21
711.543014902103
 31
0.0
  0
LINE
  5
2A7A
330
1F
100
AcDbEntity
  8
10
100
AcDbLine
 10
1365.923725870284
 20
644.3430149021029
 30
0.0
 11
1365.923725870284
 21
660.7430149021029
 31
0.0
  0
ARC
  5
2A7B
330
1F
100
AcDbEntity
  8
10
100
AcDbCircle
 10
1364.523725870284
 20
654.909974977812
 30
0.0
 40
2.499999999999841
100
AcDbArc
 50
120.6032946082074
 51
180.0
  0
LINE
  5
2A7C
330
1F
100
AcDbEntity
  8
10
100
AcDbLine
 10
1368.223725870284
 20
644.043014902103
 30
0.0
 11
1368.223725870284
 21
661.0430149021031
 31
0.0
  0
LINE
  5
2A7D
330
1F
100
AcDbEntity
  8
10
100
AcDbLine
 10
1354.223725870284
 20
567.2658734650897
 30
0.0
 11
1354.223725870284
 21
662.8764023830425
 31
0.0
  0
LINE
  5
2A7E
330
1F
100
AcDbEntity
  8
10
100
AcDbLine
 10
1345.223725870285
 20
550.5656527711209
 30
0.0
 11
1345.223725870285
 21
666.4302056752042
 31
0.0
  0
LINE
  5
2A7F
330
1F
100
AcDbEntity
  8
10
100
AcDbLine
 10
1442.473725870284
 20
540.2930149021051
 30
0.0
 11
1442.473725870284
 21
847.7930149021007
 31
0.0
  0
LINE
  5
2A80
330
1F
100
AcDbEntity
  8
10
100
AcDbLine
 10
1439.973725870284
 20
540.2930149021051
 30
0.0
 11
1439.973725870284
 21
847.7930149021007
 31
0.0
  0
LINE
  5
2A81
330
1F
100
AcDbEntity
  8
10
100
AcDbLine
 10
1437.473725870284
 20
540.2930149021051
 30
0.0
 11
1437.473725870284
 21
847.7930149021007
 31
0.0
  0
LINE
  5
2A82
330
1F
100
AcDbEntity
  8
10
100
AcDbLine
 10
1432.473725870284
 20
540.2930149021051
 30
0.0
 11
1432.473725870284
 21
847.7930149021007
 31
0.0
  0
LINE
  5
2A83
330
1F
100
AcDbEntity
  8
10
100
AcDbLine
 10
1434.973725870285
 20
540.2930149021051
 30
0.0
 11
1434.973725870285
 21
847.7930149021007
 31
0.0
  0
LINE
  5
2A84
330
1F
100
AcDbEntity
  8
10
100
AcDbLine
 10
1429.973725870284
 20
540.2930149021051
 30
0.0
 11
1429.973725870284
 21
847.7930149021007
 31
0.0
  0
LINE
  5
2A85
330
1F
100
AcDbEntity
  8
10
100
AcDbLine
 10
1427.473725870284
 20
540.2930149021051
 30
0.0
 11
1427.473725870284
 21
847.7930149021007
 31
0.0
  0
LINE
  5
2A86
330
1F
100
AcDbEntity
  8
10
100
AcDbLine
 10
1424.973725870285
 20
540.2930149021051
 30
0.0
 11
1424.973725870285
 21
847.7930149021007
 31
0.0
  0
LINE
  5
2A87
330
1F
100
AcDbEntity
  8
10
100
AcDbLine
 10
1422.473725870284
 20
540.2930149021051
 30
0.0
 11
1422.473725870284
 21
847.7930149021007
 31
0.0
  0
LINE
  5
2A88
330
1F
100
AcDbEntity
  8
10
100
AcDbLine
 10
1419.973725870284
 20
540.2930149021051
 30
0.0
 11
1419.973725870284
 21
847.7930149021007
 31
0.0
  0
LINE
  5
2A89
330
1F
100
AcDbEntity
  8
10
100
AcDbLine
 10
1417.473725870284
 20
540.2930149021051
 30
0.0
 11
1417.473725870284
 21
847.7930149021007
 31
0.0
  0
LINE
  5
2A8A
330
1F
100
AcDbEntity
  8
10
100
AcDbLine
 10
1414.973725870285
 20
540.2930149021051
 30
0.0
 11
1414.973725870285
 21
847.7930149021007
 31
0.0
  0
LINE
  5
2A8B
330
1F
100
AcDbEntity
  8
10
100
AcDbLine
 10
1412.473725870285
 20
540.2930149021051
 30
0.0
 11
1412.473725870285
 21
847.7930149021007
 31
0.0
  0
LINE
  5
2A8C
330
1F
100
AcDbEntity
  8
10
100
AcDbLine
 10
1409.973725870284
 20
540.2930149021051
 30
0.0
 11
1409.973725870284
 21
847.7930149021007
 31
0.0
  0
LINE
  5
2A8D
330
1F
100
AcDbEntity
  8
10
100
AcDbLine
 10
1407.473725870285
 20
579.0430149021029
 30
0.0
 11
1407.473725870285
 21
847.7930149021007
 31
0.0
  0
LINE
  5
2A8E
330
1F
100
AcDbEntity
  8
10
100
AcDbLine
 10
1404.973725870284
 20
579.0430149021029
 30
0.0
 11
1404.973725870284
 21
847.7930149021007
 31
0.0
  0
LINE
  5
2A8F
330
1F
100
AcDbEntity
  8
10
100
AcDbLine
 10
1402.473725870285
 20
579.0430149021029
 30
0.0
 11
1402.473725870285
 21
847.7930149021007
 31
0.0
  0
LINE
  5
2A90
330
1F
100
AcDbEntity
  8
10
100
AcDbLine
 10
1399.973725870284
 20
579.0430149021029
 30
0.0
 11
1399.973725870284
 21
847.7930149021007
 31
0.0
  0
LINE
  5
2A91
330
1F
100
AcDbEntity
  8
10
100
AcDbLine
 10
1397.473725870284
 20
579.0430149021029
 30
0.0
 11
1397.473725870284
 21
847.7930149021007
 31
0.0
  0
LINE
  5
2A92
330
1F
100
AcDbEntity
  8
10
100
AcDbLine
 10
1394.973725870285
 20
579.0430149021029
 30
0.0
 11
1394.973725870285
 21
847.7930149021007
 31
0.0
  0
LINE
  5
2A93
330
1F
100
AcDbEntity
  8
10
100
AcDbLine
 10
1469.973725870285
 20
540.2930149021051
 30
0.0
 11
1469.973725870285
 21
847.7930149021007
 31
0.0
  0
LINE
  5
2A94
330
1F
100
AcDbEntity
  8
10
100
AcDbLine
 10
1464.973725870285
 20
540.2930149021051
 30
0.0
 11
1464.973725870285
 21
847.7930149021007
 31
0.0
  0
LINE
  5
2A95
330
1F
100
AcDbEntity
  8
10
100
AcDbLine
 10
1467.473725870284
 20
540.2930149021051
 30
0.0
 11
1467.473725870284
 21
847.7930149021007
 31
0.0
  0
LINE
  5
2A96
330
1F
100
AcDbEntity
  8
10
100
AcDbLine
 10
1459.973725870284
 20
540.2930149021051
 30
0.0
 11
1459.973725870284
 21
847.7930149021007
 31
0.0
  0
LINE
  5
2A97
330
1F
100
AcDbEntity
  8
10
100
AcDbLine
 10
1462.473725870284
 20
540.2930149021051
 30
0.0
 11
1462.473725870284
 21
847.7930149021007
 31
0.0
  0
LINE
  5
2A98
330
1F
100
AcDbEntity
  8
10
100
AcDbLine
 10
1454.973725870284
 20
540.2930149021051
 30
0.0
 11
1454.973725870284
 21
847.7930149021007
 31
0.0
  0
LINE
  5
2A99
330
1F
100
AcDbEntity
  8
10
100
AcDbLine
 10
1457.473725870285
 20
540.2930149021051
 30
0.0
 11
1457.473725870285
 21
847.7930149021007
 31
0.0
  0
LINE
  5
2A9A
330
1F
100
AcDbEntity
  8
10
100
AcDbLine
 10
1449.973725870284
 20
540.2930149021051
 30
0.0
 11
1449.973725870284
 21
847.7930149021007
 31
0.0
  0
LINE
  5
2A9B
330
1F
100
AcDbEntity
  8
10
100
AcDbLine
 10
1452.473725870285
 20
540.2930149021051
 30
0.0
 11
1452.473725870285
 21
847.7930149021007
 31
0.0
  0
LINE
  5
2A9C
330
1F
100
AcDbEntity
  8
10
100
AcDbLine
 10
1444.973725870284
 20
540.2930149021051
 30
0.0
 11
1444.973725870284
 21
847.7930149021007
 31
0.0
  0
LINE
  5
2A9D
330
1F
100
AcDbEntity
  8
10
100
AcDbLine
 10
1447.473725870285
 20
540.2930149021051
 30
0.0
 11
1447.473725870285
 21
847.7930149021007
 31
0.0
  0
LINE
  5
2A9E
330
1F
100
AcDbEntity
  8
10
100
AcDbLine
 10
1389.973725870285
 20
579.0430149021029
 30
0.0
 11
1389.973725870285
 21
847.7930149021007
 31
0.0
  0
LINE
  5
2A9F
330
1F
100
AcDbEntity
  8
10
100
AcDbLine
 10
1392.473725870284
 20
579.0430149021029
 30
0.0
 11
1392.473725870284
 21
847.7930149021007
 31
0.0
  0
LINE
  5
2AA0
330
1F
100
AcDbEntity
  8
10
100
AcDbLine
 10
1385.223725870284
 20
789.0430149021031
 30
0.0
 11
1385.223725870284
 21
579.0430149021029
 31
0.0
  0
LINE
  5
2AA1
330
1F
100
AcDbEntity
  8
10
100
AcDbLine
 10
1384.723725870282
 20
674.0868070538684
 30
0.0
 11
1384.723725870284
 21
579.0430149021029
 31
0.0
  0
LINE
  5
2AA2
330
1F
100
AcDbEntity
  8
10
100
AcDbLine
 10
1376.223725870284
 20
666.5692187917443
 30
0.0
 11
1376.223725870284
 21
566.5692187917443
 31
0.0
  0
LINE
  5
2AA3
330
1F
100
AcDbEntity
  8
10
100
AcDbLine
 10
1379.723725870285
 20
529.0430149021029
 30
0.0
 11
1408.723725870284
 21
529.0430149021029
 31
0.0
  0
LINE
  5
2AA4
330
1F
100
AcDbEntity
  8
10
100
AcDbLine
 10
1379.723725870285
 20
579.0430149021029
 30
0.0
 11
1408.723725870284
 21
579.0430149021029
 31
0.0
  0
LINE
  5
2AA5
330
1F
100
AcDbEntity
  8
10
100
AcDbLine
 10
1385.223725870284
 20
519.0430149021028
 30
0.0
 11
1432.223725870285
 21
519.0430149021028
 31
0.0
  0
TEXT
  5
2AA6
330
1F
100
AcDbEntity
  8
10
100
AcDbText
 10
1381.223714457728
 20
561.0430154704156
 30
0.0
 40
9.14285727909634
  1
ＮＰ
 50
269.999994991043
 41
0.7031250019402551
  7
STANDARD1
100
AcDbText
  0
LINE
  5
2AA7
330
1F
100
AcDbEntity
  8
10
100
AcDbLine
 10
1379.223725870285
 20
529.5430149021028
 30
0.0
 11
1379.223725870285
 21
578.5430149021029
 31
0.0
  0
LINE
  5
2AA8
330
1F
100
AcDbEntity
  8
10
100
AcDbLine
 10
1365.223725870285
 20
520.0911704877636
 30
0.0
 11
1365.223725870285
 21
566.0911704877637
 31
0.0
  0
LINE
  5
2AA9
330
1F
100
AcDbEntity
  8
10
100
AcDbLine
 10
1365.223725870285
 20
565.5692187917442
 30
0.0
 11
1365.223725870285
 21
521.0401350544786
 31
0.0
  0
LINE
  5
2AAA
330
1F
100
AcDbEntity
  8
10
100
AcDbLine
 10
1366.171389914041
 20
520.0415055197238
 30
0.0
 11
1384.723725870284
 21
519.0692187917443
 31
0.0
  0
LINE
  5
2AAB
330
1F
100
AcDbEntity
  8
10
100
AcDbLine
 10
1365.223725870285
 20
520.0911704877636
 30
0.0
 11
1349.764199699327
 21
521.0911704877638
 31
0.0
  0
ARC
  5
2AAC
330
1F
100
AcDbEntity
  8
10
100
AcDbCircle
 10
1375.223725870284
 20
533.0807492960456
 30
0.0
 40
30.00000000000001
100
AcDbArc
 50
180.0
 51
199.4477664087362
  0
ARC
  5
2AAD
330
1F
100
AcDbEntity
  8
10
100
AcDbCircle
 10
1349.764199699327
 20
524.0911704877636
 30
0.0
 40
3.000000000000156
100
AcDbArc
 50
199.4477664087362
 51
270.0
  0
LINE
  5
2AAE
330
1F
100
AcDbEntity
  8
10
100
AcDbLine
 10
1345.223725870285
 20
533.0807492960456
 30
0.0
 11
1345.223725870285
 21
542.6166882044062
 31
0.0
  0
LINE
  5
2AAF
330
1F
100
AcDbEntity
  8
10
100
AcDbLine
 10
1345.697557892163
 20
543.1160029717836
 30
0.0
 11
1347.749893848406
 21
543.223561341593
 31
0.0
  0
LINE
  5
2AB0
330
1F
100
AcDbEntity
  8
10
100
AcDbLine
 10
1348.223725870284
 20
543.7228761089703
 30
0.0
 11
1348.223725870284
 21
549.4594648665573
 31
0.0
  0
LINE
  5
2AB1
330
1F
100
AcDbEntity
  8
10
100
AcDbLine
 10
1347.749893848406
 20
549.9587796339344
 30
0.0
 11
1345.697557892163
 21
550.0663380037439
 31
0.0
  0
ARC
  5
2AB2
330
1F
100
AcDbEntity
  8
10
100
AcDbCircle
 10
1345.723725870284
 20
550.5656527711209
 30
0.0
 40
0.5000000000000005
100
AcDbArc
 50
180.0
 51
266.9999999999943
  0
ARC
  5
2AB3
330
1F
100
AcDbEntity
  8
10
100
AcDbCircle
 10
1345.723725870284
 20
542.6166882044062
 30
0.0
 40
0.4999999999999235
100
AcDbArc
 50
93.00000000000556
 51
180.0
  0
ARC
  5
2AB4
330
1F
100
AcDbEntity
  8
10
100
AcDbCircle
 10
1347.723725870284
 20
543.7228761089703
 30
0.0
 40
0.4999999999999119
100
AcDbArc
 50
273.0000000000056
 51
0.0
  0
ARC
  5
2AB5
330
1F
100
AcDbEntity
  8
10
100
AcDbCircle
 10
1347.723725870284
 20
549.4594648665573
 30
0.0
 40
0.5000000000000005
100
AcDbArc
 50
0.0
 51
86.99999999999441
  0
LINE
  5
2AB6
330
1F
100
AcDbEntity
  8
10
100
AcDbLine
 10
1365.223725870285
 20
523.0911704877636
 30
0.0
 11
1365.223725870285
 21
523.1084732246479
 31
0.0
  0
ARC
  5
2AB7
330
1F
100
AcDbEntity
  8
10
100
AcDbCircle
 10
1366.223725870284
 20
521.0401350544786
 30
0.0
 40
1.0
100
AcDbArc
 50
180.0
 51
266.9999999999943
  0
ARC
  5
2AB8
330
1F
100
AcDbEntity
  8
10
100
AcDbCircle
 10
1379.723725870285
 20
529.5430149021028
 30
0.0
 40
0.5000000000000035
100
AcDbArc
 50
180.0
 51
270.0
  0
LINE
  5
2AB9
330
1F
100
AcDbEntity
  8
10
100
AcDbLine
 10
1384.723725870284
 20
529.0430149021029
 30
0.0
 11
1384.723725870284
 21
519.0692187917443
 31
0.0
  0
LINE
  5
2ABA
330
1F
100
AcDbEntity
  8
10
100
AcDbLine
 10
1385.223725870284
 20
529.0430149021029
 30
0.0
 11
1385.223725870284
 21
519.0430149021028
 31
0.0
  0
LINE
  5
2ABB
330
1F
100
AcDbEntity
  8
10
100
AcDbLine
 10
1384.723725870284
 20
519.5430149021026
 30
0.0
 11
1385.223725870284
 21
519.5430149021026
 31
0.0
  0
LINE
  5
2ABC
330
1F
100
AcDbEntity
  8
10
100
AcDbLine
 10
1369.723725870285
 20
589.3430149021031
 30
0.0
 11
1370.723725870284
 21
589.3430149021031
 31
0.0
  0
LINE
  5
2ABD
330
1F
100
AcDbEntity
  8
10
100
AcDbLine
 10
1370.723725870284
 20
580.7430149021031
 30
0.0
 11
1369.723725870285
 21
580.7430149021031
 31
0.0
  0
LINE
  5
2ABE
330
1F
100
AcDbEntity
  8
10
100
AcDbLine
 10
1370.723725870284
 20
591.7430149021028
 30
0.0
 11
1369.723725870285
 21
591.7430149021028
 31
0.0
  0
LINE
  5
2ABF
330
1F
100
AcDbEntity
  8
10
100
AcDbLine
 10
1369.723725870285
 20
600.3430149021029
 30
0.0
 11
1370.723725870284
 21
600.3430149021029
 31
0.0
  0
LINE
  5
2AC0
330
1F
100
AcDbEntity
  8
10
100
AcDbLine
 10
1370.723725870284
 20
602.7430149021029
 30
0.0
 11
1369.723725870285
 21
602.7430149021029
 31
0.0
  0
LINE
  5
2AC1
330
1F
100
AcDbEntity
  8
10
100
AcDbLine
 10
1369.723725870285
 20
611.3430149021027
 30
0.0
 11
1370.723725870284
 21
611.3430149021027
 31
0.0
  0
LINE
  5
2AC2
330
1F
100
AcDbEntity
  8
10
100
AcDbLine
 10
1358.723725870285
 20
589.5430149021033
 30
0.0
 11
1376.223725870284
 21
589.5430149021033
 31
0.0
  0
LINE
  5
2AC3
330
1F
100
AcDbEntity
  8
10
100
AcDbLine
 10
1358.723725870285
 20
591.5430149021029
 30
0.0
 11
1376.223725870284
 21
591.5430149021029
 31
0.0
  0
LINE
  5
2AC4
330
1F
100
AcDbEntity
  8
10
100
AcDbLine
 10
1358.723725870285
 20
614.1930149021028
 30
0.0
 11
1376.223725870284
 21
614.1930149021028
 31
0.0
  0
LINE
  5
2AC5
330
1F
100
AcDbEntity
  8
10
100
AcDbLine
 10
1358.723725870285
 20
577.8930149021032
 30
0.0
 11
1376.223725870284
 21
577.8930149021032
 31
0.0
  0
LINE
  5
2AC6
330
1F
100
AcDbEntity
  8
10
100
AcDbLine
 10
1358.723725870285
 20
611.543014902103
 30
0.0
 11
1376.223725870284
 21
611.543014902103
 31
0.0
  0
LINE
  5
2AC7
330
1F
100
AcDbEntity
  8
10
100
AcDbLine
 10
1358.723725870285
 20
602.543014902103
 30
0.0
 11
1376.223725870284
 21
602.543014902103
 31
0.0
  0
LINE
  5
2AC8
330
1F
100
AcDbEntity
  8
10
100
AcDbLine
 10
1358.723725870285
 20
580.5430149021033
 30
0.0
 11
1376.223725870284
 21
580.5430149021033
 31
0.0
  0
LINE
  5
2AC9
330
1F
100
AcDbEntity
  8
10
100
AcDbLine
 10
1358.723725870285
 20
600.5430149021033
 30
0.0
 11
1376.223725870284
 21
600.5430149021033
 31
0.0
  0
LINE
  5
2ACA
330
1F
100
AcDbEntity
  8
10
100
AcDbLine
 10
1354.223725870284
 20
615.5430149021031
 30
0.0
 11
1376.223725870284
 21
615.5430149021031
 31
0.0
  0
LINE
  5
2ACB
330
1F
100
AcDbEntity
  8
10
100
AcDbLine
 10
1354.223725870284
 20
644.043014902103
 30
0.0
 11
1376.223725870284
 21
644.043014902103
 31
0.0
  0
LINE
  5
2ACC
330
1F
100
AcDbEntity
  8
10
100
AcDbLine
 10
1354.223725870284
 20
637.0430149021027
 30
0.0
 11
1376.223725870284
 21
637.0430149021027
 31
0.0
  0
LINE
  5
2ACD
330
1F
100
AcDbEntity
  8
10
100
AcDbLine
 10
1354.223725870284
 20
620.043014902103
 30
0.0
 11
1376.223725870284
 21
620.043014902103
 31
0.0
  0
LINE
  5
2ACE
330
1F
100
AcDbEntity
  8
10
100
AcDbLine
 10
1375.723725870285
 20
566.0692187917442
 30
0.0
 11
1365.723725870285
 21
566.0692187917442
 31
0.0
  0
LINE
  5
2ACF
330
1F
100
AcDbEntity
  8
10
100
AcDbLine
 10
1369.723725870285
 20
603.543014902103
 30
0.0
 11
1369.723725870285
 21
610.5430149021027
 31
0.0
  0
LINE
  5
2AD0
330
1F
100
AcDbEntity
  8
10
100
AcDbLine
 10
1367.123725870285
 20
608.7133442109518
 30
0.0
 11
1367.123725870285
 21
605.372685593254
 31
0.0
  0
ARC
  5
2AD1
330
1F
100
AcDbEntity
  8
10
100
AcDbCircle
 10
1368.623725870285
 20
607.0430149021027
 30
0.0
 40
1.5
100
AcDbArc
 50
180.0
 51
270.0
  0
LINE
  5
2AD2
330
1F
100
AcDbEntity
  8
10
100
AcDbLine
 10
1369.723725870285
 20
602.7430149021029
 30
0.0
 11
1369.723725870285
 21
611.3430149021027
 31
0.0
  0
LINE
  5
2AD3
330
1F
100
AcDbEntity
  8
10
100
AcDbLine
 10
1369.723725870285
 20
580.7430149021031
 30
0.0
 11
1369.723725870285
 21
589.3430149021031
 31
0.0
  0
LINE
  5
2AD4
330
1F
100
AcDbEntity
  8
10
100
AcDbLine
 10
1365.223725870285
 20
566.0911704877637
 30
0.0
 11
1355.206273463847
 21
566.2660257699331
 31
0.0
  0
LINE
  5
2AD5
330
1F
100
AcDbEntity
  8
10
100
AcDbLine
 10
1358.723725870285
 20
577.8930149021032
 30
0.0
 11
1358.723725870285
 21
580.5430149021033
 31
0.0
  0
ARC
  5
2AD6
330
1F
100
AcDbEntity
  8
10
100
AcDbCircle
 10
1355.223725870285
 20
567.2658734650897
 30
0.0
 40
1.000000000000002
100
AcDbArc
 50
180.0
 51
268.9999999999981
  0
ARC
  5
2AD7
330
1F
100
AcDbEntity
  8
10
100
AcDbCircle
 10
1365.723725870285
 20
565.5692187917442
 30
0.0
 40
0.5000000000000035
100
AcDbArc
 50
90.0
 51
180.0
  0
LINE
  5
2AD8
330
1F
100
AcDbEntity
  8
10
100
AcDbLine
 10
1358.723725870285
 20
589.5430149021033
 30
0.0
 11
1358.723725870285
 21
591.5430149021029
 31
0.0
  0
LINE
  5
2AD9
330
1F
100
AcDbEntity
  8
10
100
AcDbLine
 10
1358.723725870285
 20
600.5430149021033
 30
0.0
 11
1358.723725870285
 21
602.5430149021033
 31
0.0
  0
LINE
  5
2ADA
330
1F
100
AcDbEntity
  8
10
100
AcDbLine
 10
1369.723725870285
 20
599.5430149021033
 30
0.0
 11
1369.723725870285
 21
599.8430149021031
 31
0.0
  0
ARC
  5
2ADB
330
1F
100
AcDbEntity
  8
10
100
AcDbCircle
 10
1369.723725870285
 20
596.0430149021028
 30
0.0
 40
3.500000000000147
100
AcDbArc
 50
236.6329870307644
 51
270.0
  0
ARC
  5
2ADC
330
1F
100
AcDbEntity
  8
10
100
AcDbCircle
 10
1369.723725870285
 20
596.0430149021028
 30
0.0
 40
3.500000000000004
100
AcDbArc
 50
90.0
 51
123.3670129692354
  0
LINE
  5
2ADD
330
1F
100
AcDbEntity
  8
10
100
AcDbLine
 10
1367.123725870285
 20
597.7133442109521
 30
0.0
 11
1367.123725870285
 21
594.3726855932541
 31
0.0
  0
ARC
  5
2ADE
330
1F
100
AcDbEntity
  8
10
100
AcDbCircle
 10
1368.623725870285
 20
597.7133442109521
 30
0.0
 40
1.500000000000231
100
AcDbArc
 50
123.3670129692371
 51
180.0
  0
ARC
  5
2ADF
330
1F
100
AcDbEntity
  8
10
100
AcDbCircle
 10
1368.623725870285
 20
594.3726855932541
 30
0.0
 40
1.5
100
AcDbArc
 50
180.0
 51
236.6329870307627
  0
ARC
  5
2AE0
330
1F
100
AcDbEntity
  8
10
100
AcDbCircle
 10
1368.623725870285
 20
596.0430149021028
 30
0.0
 40
1.500000000000018
100
AcDbArc
 50
90.0
 51
180.0
  0
LINE
  5
2AE1
330
1F
100
AcDbEntity
  8
10
100
AcDbLine
 10
1367.123725870285
 20
596.0430149021028
 30
0.0
 11
1367.123725870285
 21
596.0430149021028
 31
0.0
  0
ARC
  5
2AE2
330
1F
100
AcDbEntity
  8
10
100
AcDbCircle
 10
1368.623725870285
 20
596.0430149021028
 30
0.0
 40
1.5
100
AcDbArc
 50
180.0
 51
270.0
  0
LINE
  5
2AE3
330
1F
100
AcDbEntity
  8
10
100
AcDbLine
 10
1369.723725870285
 20
581.5430149021031
 30
0.0
 11
1369.723725870285
 21
588.5430149021028
 31
0.0
  0
LINE
  5
2AE4
330
1F
100
AcDbEntity
  8
10
100
AcDbLine
 10
1369.723725870285
 20
588.5430149021028
 30
0.0
 11
1369.723725870285
 21
588.8430149021031
 31
0.0
  0
ARC
  5
2AE5
330
1F
100
AcDbEntity
  8
10
100
AcDbCircle
 10
1369.723725870285
 20
585.0430149021033
 30
0.0
 40
3.500000000000147
100
AcDbArc
 50
236.6329870307644
 51
270.0
  0
ARC
  5
2AE6
330
1F
100
AcDbEntity
  8
10
100
AcDbCircle
 10
1369.723725870285
 20
585.0430149021033
 30
0.0
 40
3.500000000000015
100
AcDbArc
 50
90.0
 51
123.3670129692354
  0
LINE
  5
2AE7
330
1F
100
AcDbEntity
  8
10
100
AcDbLine
 10
1367.123725870285
 20
586.7133442109519
 30
0.0
 11
1367.123725870285
 21
583.3726855932542
 31
0.0
  0
ARC
  5
2AE8
330
1F
100
AcDbEntity
  8
10
100
AcDbCircle
 10
1368.623725870285
 20
586.7133442109519
 30
0.0
 40
1.500000000000223
100
AcDbArc
 50
123.3670129692371
 51
180.0
  0
ARC
  5
2AE9
330
1F
100
AcDbEntity
  8
10
100
AcDbCircle
 10
1368.623725870285
 20
583.3726855932542
 30
0.0
 40
1.5
100
AcDbArc
 50
180.0
 51
236.6329870307627
  0
ARC
  5
2AEA
330
1F
100
AcDbEntity
  8
10
100
AcDbCircle
 10
1368.623725870285
 20
585.0430149021033
 30
0.0
 40
1.500000000000006
100
AcDbArc
 50
90.0
 51
180.0
  0
LINE
  5
2AEB
330
1F
100
AcDbEntity
  8
10
100
AcDbLine
 10
1367.123725870285
 20
585.0430149021033
 30
0.0
 11
1367.123725870285
 21
585.0430149021033
 31
0.0
  0
ARC
  5
2AEC
330
1F
100
AcDbEntity
  8
10
100
AcDbCircle
 10
1368.623725870285
 20
585.0430149021033
 30
0.0
 40
1.5
100
AcDbArc
 50
180.0
 51
270.0
  0
LINE
  5
2AED
330
1F
100
AcDbEntity
  8
10
100
AcDbLine
 10
1369.723725870285
 20
591.7430149021028
 30
0.0
 11
1369.723725870285
 21
600.3430149021029
 31
0.0
  0
ARC
  5
2AEE
330
1F
100
AcDbEntity
  8
10
100
AcDbCircle
 10
1369.723725870285
 20
607.0430149021027
 30
0.0
 40
3.500000000000147
100
AcDbArc
 50
236.6329870307644
 51
270.0
  0
ARC
  5
2AEF
330
1F
100
AcDbEntity
  8
10
100
AcDbCircle
 10
1368.623725870285
 20
605.372685593254
 30
0.0
 40
1.5
100
AcDbArc
 50
180.0
 51
236.6329870307627
  0
LINE
  5
2AF0
330
1F
100
AcDbEntity
  8
10
100
AcDbLine
 10
1369.723725870285
 20
592.5430149021033
 30
0.0
 11
1369.723725870285
 21
599.5430149021033
 31
0.0
  0
LINE
  5
2AF1
330
1F
100
AcDbEntity
  8
10
100
AcDbLine
 10
1365.923725870284
 20
620.3430149021031
 30
0.0
 11
1365.923725870284
 21
636.7430149021028
 31
0.0
  0
ARC
  5
2AF2
330
1F
100
AcDbEntity
  8
10
100
AcDbCircle
 10
1364.523725870284
 20
630.9099749778121
 30
0.0
 40
2.499999999999841
100
AcDbArc
 50
120.6032946082074
 51
180.0
  0
LINE
  5
2AF3
330
1F
100
AcDbEntity
  8
10
100
AcDbLine
 10
1368.223725870284
 20
620.043014902103
 30
0.0
 11
1368.223725870284
 21
637.0430149021027
 31
0.0
  0
LINE
  5
2AF4
330
1F
100
AcDbEntity
  8
10
100
AcDbLine
 10
1358.723725870285
 20
611.543014902103
 30
0.0
 11
1358.723725870285
 21
614.1930149021028
 31
0.0
  0
LINE
  5
2AF5
330
1F
100
AcDbEntity
  8
10
100
AcDbLine
 10
1365.923725870284
 20
620.3430149021031
 30
0.0
 11
1368.223725870284
 21
620.3430149021031
 31
0.0
  0
ARC
  5
2AF6
330
1F
100
AcDbEntity
  8
10
100
AcDbCircle
 10
1364.023725870284
 20
628.543014902103
 30
0.0
 40
2.00000000000001
100
AcDbArc
 50
90.0
 51
180.0
  0
ARC
  5
2AF7
330
1F
100
AcDbEntity
  8
10
100
AcDbCircle
 10
1364.023725870284
 20
628.543014902103
 30
0.0
 40
2.000000000000003
100
AcDbArc
 50
180.0
 51
270.0
  0
ARC
  5
2AF8
330
1F
100
AcDbEntity
  8
10
100
AcDbCircle
 10
1364.523725870284
 20
626.1760548263938
 30
0.0
 40
2.5
100
AcDbArc
 50
180.0
 51
239.3967053917924
  0
LINE
  5
2AF9
330
1F
100
AcDbEntity
  8
10
100
AcDbLine
 10
1362.023725870284
 20
630.9099749778121
 30
0.0
 11
1362.023725870284
 21
626.1760548263938
 31
0.0
  0
ARC
  5
2AFA
330
1F
100
AcDbEntity
  8
10
100
AcDbCircle
 10
1365.923725870284
 20
628.543014902103
 30
0.0
 40
5.249999999999857
100
AcDbArc
 50
239.3967053917924
 51
270.0
  0
LINE
  5
2AFB
330
1F
100
AcDbEntity
  8
10
100
AcDbLine
 10
1369.723725870285
 20
610.5430149021027
 30
0.0
 11
1369.723725870285
 21
610.8430149021029
 31
0.0
  0
ARC
  5
2AFC
330
1F
100
AcDbEntity
  8
10
100
AcDbCircle
 10
1369.723725870285
 20
607.0430149021027
 30
0.0
 40
3.500000000000004
100
AcDbArc
 50
90.0
 51
123.3670129692354
  0
ARC
  5
2AFD
330
1F
100
AcDbEntity
  8
10
100
AcDbCircle
 10
1368.623725870285
 20
608.7133442109518
 30
0.0
 40
1.500000000000215
100
AcDbArc
 50
123.3670129692371
 51
180.0
  0
ARC
  5
2AFE
330
1F
100
AcDbEntity
  8
10
100
AcDbCircle
 10
1368.623725870285
 20
607.0430149021027
 30
0.0
 40
1.499999999999998
100
AcDbArc
 50
90.0
 51
180.0
  0
LINE
  5
2AFF
330
1F
100
AcDbEntity
  8
10
100
AcDbLine
 10
1367.123725870285
 20
607.0430149021027
 30
0.0
 11
1367.123725870285
 21
607.0430149021027
 31
0.0
  0
LINE
  5
2B00
330
1F
100
AcDbEntity
  8
10
100
AcDbLine
 10
1365.923725870284
 20
636.7430149021028
 30
0.0
 11
1368.223725870284
 21
636.7430149021028
 31
0.0
  0
ARC
  5
2B01
330
1F
100
AcDbEntity
  8
10
100
AcDbCircle
 10
1365.923725870284
 20
628.543014902103
 30
0.0
 40
5.25
100
AcDbArc
 50
90.0
 51
120.6032946082074
  0
LINE
  5
2B02
330
1F
100
AcDbEntity
  8
10
100
AcDbLine
 10
1362.023725870284
 20
654.909974977812
 30
0.0
 11
1362.023725870284
 21
650.176054826394
 31
0.0
  0
LINE
  5
2B03
330
1F
100
AcDbEntity
  8
10
100
AcDbLine
 10
1365.923725870284
 20
644.3430149021029
 30
0.0
 11
1368.223725870284
 21
644.3430149021029
 31
0.0
  0
ARC
  5
2B04
330
1F
100
AcDbEntity
  8
10
100
AcDbCircle
 10
1364.023725870284
 20
652.543014902103
 30
0.0
 40
2.00000000000001
100
AcDbArc
 50
90.0
 51
180.0
  0
ARC
  5
2B05
330
1F
100
AcDbEntity
  8
10
100
AcDbCircle
 10
1364.023725870284
 20
652.543014902103
 30
0.0
 40
2.000000000000003
100
AcDbArc
 50
180.0
 51
270.0
  0
ARC
  5
2B06
330
1F
100
AcDbEntity
  8
10
100
AcDbCircle
 10
1364.523725870284
 20
650.176054826394
 30
0.0
 40
2.5
100
AcDbArc
 50
180.0
 51
239.3967053917924
  0
ARC
  5
2B07
330
1F
100
AcDbEntity
  8
10
100
AcDbCircle
 10
1365.923725870284
 20
652.543014902103
 30
0.0
 40
5.249999999999857
100
AcDbArc
 50
239.3967053917924
 51
270.0
  0
LINE
  5
2B08
330
1F
100
AcDbEntity
  8
10
100
AcDbLine
 10
1370.723725870284
 20
602.543014902103
 30
0.0
 11
1370.723725870284
 21
611.543014902103
 31
0.0
  0
LINE
  5
2B09
330
1F
100
AcDbEntity
  8
10
100
AcDbLine
 10
1370.723725870284
 20
580.5430149021033
 30
0.0
 11
1370.723725870284
 21
589.5430149021033
 31
0.0
  0
ARC
  5
2B0A
330
1F
100
AcDbEntity
  8
10
100
AcDbCircle
 10
1375.723725870285
 20
566.5692187917443
 30
0.0
 40
0.5000000000000035
100
AcDbArc
 50
270.0
 51
0.0
  0
ARC
  5
2B0B
330
1F
100
AcDbEntity
  8
10
100
AcDbCircle
 10
1379.723725870285
 20
578.5430149021029
 30
0.0
 40
0.499999999999992
100
AcDbArc
 50
90.0
 51
180.0
  0
LINE
  5
2B0C
330
1F
100
AcDbEntity
  8
10
100
AcDbLine
 10
1370.723725870284
 20
591.5430149021029
 30
0.0
 11
1370.723725870284
 21
600.5430149021033
 31
0.0
  0
LINE
  5
2B0D
330
1F
100
AcDbEntity
  8
10
100
AcDbLine
 10
1397.473725870284
 20
626.5430149021031
 30
0.0
 11
1394.973725870285
 21
626.5430149021031
 31
0.0
  0
LINE
  5
2B0E
330
1F
100
AcDbEntity
  8
10
100
AcDbLine
 10
1397.473725870284
 20
611.543014902103
 30
0.0
 11
1394.973725870285
 21
611.543014902103
 31
0.0
  0
LINE
  5
2B0F
330
1F
100
AcDbEntity
  8
10
100
AcDbLine
 10
1392.473725870284
 20
626.5430149021031
 30
0.0
 11
1389.973725870285
 21
626.5430149021031
 31
0.0
  0
LINE
  5
2B10
330
1F
100
AcDbEntity
  8
10
100
AcDbLine
 10
1392.473725870284
 20
611.543014902103
 30
0.0
 11
1389.973725870285
 21
611.543014902103
 31
0.0
  0
LINE
  5
2B11
330
1F
100
AcDbEntity
  8
10
100
AcDbLine
 10
1402.473725870285
 20
626.5430149021031
 30
0.0
 11
1399.973725870284
 21
626.5430149021031
 31
0.0
  0
LINE
  5
2B12
330
1F
100
AcDbEntity
  8
10
100
AcDbLine
 10
1402.473725870285
 20
611.543014902103
 30
0.0
 11
1399.973725870284
 21
611.543014902103
 31
0.0
  0
LINE
  5
2B13
330
1F
100
AcDbEntity
  8
10
100
AcDbLine
 10
1409.223725870284
 20
529.5430149021028
 30
0.0
 11
1409.223725870284
 21
578.5430149021029
 31
0.0
  0
ARC
  5
2B14
330
1F
100
AcDbEntity
  8
10
100
AcDbCircle
 10
1436.223725870284
 20
540.2930149021051
 30
0.0
 40
1.25
100
AcDbArc
 50
180.0
 51
0.0
  0
ARC
  5
2B15
330
1F
100
AcDbEntity
  8
10
100
AcDbCircle
 10
1421.223725870285
 20
540.2930149021051
 30
0.0
 40
1.25
100
AcDbArc
 50
180.0
 51
0.0
  0
ARC
  5
2B16
330
1F
100
AcDbEntity
  8
10
100
AcDbCircle
 10
1408.723725870284
 20
529.5430149021028
 30
0.0
 40
0.4999999999999976
100
AcDbArc
 50
270.0
 51
0.0
  0
ARC
  5
2B17
330
1F
100
AcDbEntity
  8
10
100
AcDbCircle
 10
1411.223725870284
 20
540.2930149021051
 30
0.0
 40
1.25
100
AcDbArc
 50
180.0
 51
0.0
  0
ARC
  5
2B18
330
1F
100
AcDbEntity
  8
10
100
AcDbCircle
 10
1416.223725870285
 20
540.2930149021051
 30
0.0
 40
1.25
100
AcDbArc
 50
180.0
 51
0.0
  0
ARC
  5
2B19
330
1F
100
AcDbEntity
  8
10
100
AcDbCircle
 10
1426.223725870285
 20
540.2930149021051
 30
0.0
 40
1.25
100
AcDbArc
 50
180.0
 51
0.0
  0
ARC
  5
2B1A
330
1F
100
AcDbEntity
  8
10
100
AcDbCircle
 10
1431.223725870284
 20
540.2930149021051
 30
0.0
 40
1.25
100
AcDbArc
 50
180.0
 51
0.0
  0
ARC
  5
2B1B
330
1F
100
AcDbEntity
  8
10
100
AcDbCircle
 10
1446.223725870285
 20
540.2930149021051
 30
0.0
 40
1.25
100
AcDbArc
 50
180.0
 51
0.0
  0
ARC
  5
2B1C
330
1F
100
AcDbEntity
  8
10
100
AcDbCircle
 10
1441.223725870284
 20
540.2930149021051
 30
0.0
 40
1.25
100
AcDbArc
 50
180.0
 51
0.0
  0
ARC
  5
2B1D
330
1F
100
AcDbEntity
  8
10
100
AcDbCircle
 10
1451.223725870284
 20
540.2930149021051
 30
0.0
 40
1.25
100
AcDbArc
 50
180.0
 51
0.0
  0
ARC
  5
2B1E
330
1F
100
AcDbEntity
  8
10
100
AcDbCircle
 10
1461.223725870284
 20
540.2930149021051
 30
0.0
 40
1.25
100
AcDbArc
 50
180.0
 51
0.0
  0
ARC
  5
2B1F
330
1F
100
AcDbEntity
  8
10
100
AcDbCircle
 10
1456.223725870285
 20
540.2930149021051
 30
0.0
 40
1.25
100
AcDbArc
 50
180.0
 51
0.0
  0
ARC
  5
2B20
330
1F
100
AcDbEntity
  8
10
100
AcDbCircle
 10
1466.223725870285
 20
540.2930149021051
 30
0.0
 40
1.25
100
AcDbArc
 50
180.0
 51
0.0
  0
LINE
  5
2B21
330
1F
100
AcDbEntity
  8
10
100
AcDbLine
 10
1437.473725870284
 20
576.5430149021031
 30
0.0
 11
1434.973725870285
 21
576.5430149021031
 31
0.0
  0
LINE
  5
2B22
330
1F
100
AcDbEntity
  8
10
100
AcDbLine
 10
1437.473725870284
 20
561.543014902103
 30
0.0
 11
1434.973725870285
 21
561.543014902103
 31
0.0
  0
LINE
  5
2B23
330
1F
100
AcDbEntity
  8
10
100
AcDbLine
 10
1437.473725870284
 20
626.5430149021031
 30
0.0
 11
1434.973725870285
 21
626.5430149021031
 31
0.0
  0
LINE
  5
2B24
330
1F
100
AcDbEntity
  8
10
100
AcDbLine
 10
1437.473725870284
 20
611.543014902103
 30
0.0
 11
1434.973725870285
 21
611.543014902103
 31
0.0
  0
LINE
  5
2B25
330
1F
100
AcDbEntity
  8
10
100
AcDbLine
 10
1422.473725870284
 20
576.5430149021031
 30
0.0
 11
1419.973725870284
 21
576.5430149021031
 31
0.0
  0
LINE
  5
2B26
330
1F
100
AcDbEntity
  8
10
100
AcDbLine
 10
1422.473725870284
 20
561.543014902103
 30
0.0
 11
1419.973725870284
 21
561.543014902103
 31
0.0
  0
LINE
  5
2B27
330
1F
100
AcDbEntity
  8
10
100
AcDbLine
 10
1412.473725870285
 20
576.5430149021031
 30
0.0
 11
1409.973725870284
 21
576.5430149021031
 31
0.0
  0
LINE
  5
2B28
330
1F
100
AcDbEntity
  8
10
100
AcDbLine
 10
1412.473725870285
 20
561.543014902103
 30
0.0
 11
1409.973725870284
 21
561.543014902103
 31
0.0
  0
ARC
  5
2B29
330
1F
100
AcDbEntity
  8
10
100
AcDbCircle
 10
1408.723725870284
 20
578.5430149021029
 30
0.0
 40
0.5000000000000035
100
AcDbArc
 50
0.0
 51
90.0
  0
LINE
  5
2B2A
330
1F
100
AcDbEntity
  8
10
100
AcDbLine
 10
1417.473725870284
 20
576.5430149021031
 30
0.0
 11
1414.973725870285
 21
576.5430149021031
 31
0.0
  0
LINE
  5
2B2B
330
1F
100
AcDbEntity
  8
10
100
AcDbLine
 10
1417.473725870284
 20
561.543014902103
 30
0.0
 11
1414.973725870285
 21
561.543014902103
 31
0.0
  0
LINE
  5
2B2C
330
1F
100
AcDbEntity
  8
10
100
AcDbLine
 10
1427.473725870284
 20
576.5430149021031
 30
0.0
 11
1424.973725870285
 21
576.5430149021031
 31
0.0
  0
LINE
  5
2B2D
330
1F
100
AcDbEntity
  8
10
100
AcDbLine
 10
1427.473725870284
 20
561.543014902103
 30
0.0
 11
1424.973725870285
 21
561.543014902103
 31
0.0
  0
LINE
  5
2B2E
330
1F
100
AcDbEntity
  8
10
100
AcDbLine
 10
1432.473725870284
 20
576.5430149021031
 30
0.0
 11
1429.973725870284
 21
576.5430149021031
 31
0.0
  0
LINE
  5
2B2F
330
1F
100
AcDbEntity
  8
10
100
AcDbLine
 10
1432.473725870284
 20
561.543014902103
 30
0.0
 11
1429.973725870284
 21
561.543014902103
 31
0.0
  0
LINE
  5
2B30
330
1F
100
AcDbEntity
  8
10
100
AcDbLine
 10
1422.473725870284
 20
626.5430149021031
 30
0.0
 11
1419.973725870284
 21
626.5430149021031
 31
0.0
  0
LINE
  5
2B31
330
1F
100
AcDbEntity
  8
10
100
AcDbLine
 10
1422.473725870284
 20
611.543014902103
 30
0.0
 11
1419.973725870284
 21
611.543014902103
 31
0.0
  0
LINE
  5
2B32
330
1F
100
AcDbEntity
  8
10
100
AcDbLine
 10
1412.473725870285
 20
626.5430149021031
 30
0.0
 11
1409.973725870284
 21
626.5430149021031
 31
0.0
  0
LINE
  5
2B33
330
1F
100
AcDbEntity
  8
10
100
AcDbLine
 10
1412.473725870285
 20
611.543014902103
 30
0.0
 11
1409.973725870284
 21
611.543014902103
 31
0.0
  0
LINE
  5
2B34
330
1F
100
AcDbEntity
  8
10
100
AcDbLine
 10
1407.473725870285
 20
626.5430149021031
 30
0.0
 11
1404.973725870284
 21
626.5430149021031
 31
0.0
  0
LINE
  5
2B35
330
1F
100
AcDbEntity
  8
10
100
AcDbLine
 10
1407.473725870285
 20
611.543014902103
 30
0.0
 11
1404.973725870284
 21
611.543014902103
 31
0.0
  0
LINE
  5
2B36
330
1F
100
AcDbEntity
  8
10
100
AcDbLine
 10
1417.473725870284
 20
626.5430149021031
 30
0.0
 11
1414.973725870285
 21
626.5430149021031
 31
0.0
  0
LINE
  5
2B37
330
1F
100
AcDbEntity
  8
10
100
AcDbLine
 10
1417.473725870284
 20
611.543014902103
 30
0.0
 11
1414.973725870285
 21
611.543014902103
 31
0.0
  0
LINE
  5
2B38
330
1F
100
AcDbEntity
  8
10
100
AcDbLine
 10
1427.473725870284
 20
626.5430149021031
 30
0.0
 11
1424.973725870285
 21
626.5430149021031
 31
0.0
  0
LINE
  5
2B39
330
1F
100
AcDbEntity
  8
10
100
AcDbLine
 10
1427.473725870284
 20
611.543014902103
 30
0.0
 11
1424.973725870285
 21
611.543014902103
 31
0.0
  0
LINE
  5
2B3A
330
1F
100
AcDbEntity
  8
10
100
AcDbLine
 10
1432.473725870284
 20
626.5430149021031
 30
0.0
 11
1429.973725870284
 21
626.5430149021031
 31
0.0
  0
LINE
  5
2B3B
330
1F
100
AcDbEntity
  8
10
100
AcDbLine
 10
1432.473725870284
 20
611.543014902103
 30
0.0
 11
1429.973725870284
 21
611.543014902103
 31
0.0
  0
LINE
  5
2B3C
330
1F
100
AcDbEntity
  8
10
100
AcDbLine
 10
1447.473725870285
 20
576.5430149021031
 30
0.0
 11
1444.973725870284
 21
576.5430149021031
 31
0.0
  0
LINE
  5
2B3D
330
1F
100
AcDbEntity
  8
10
100
AcDbLine
 10
1447.473725870285
 20
561.543014902103
 30
0.0
 11
1444.973725870284
 21
561.543014902103
 31
0.0
  0
LINE
  5
2B3E
330
1F
100
AcDbEntity
  8
10
100
AcDbLine
 10
1442.473725870284
 20
576.5430149021031
 30
0.0
 11
1439.973725870284
 21
576.5430149021031
 31
0.0
  0
LINE
  5
2B3F
330
1F
100
AcDbEntity
  8
10
100
AcDbLine
 10
1442.473725870284
 20
561.543014902103
 30
0.0
 11
1439.973725870284
 21
561.543014902103
 31
0.0
  0
LINE
  5
2B40
330
1F
100
AcDbEntity
  8
10
100
AcDbLine
 10
1452.473725870285
 20
576.5430149021031
 30
0.0
 11
1449.973725870284
 21
576.5430149021031
 31
0.0
  0
LINE
  5
2B41
330
1F
100
AcDbEntity
  8
10
100
AcDbLine
 10
1452.473725870285
 20
561.543014902103
 30
0.0
 11
1449.973725870284
 21
561.543014902103
 31
0.0
  0
LINE
  5
2B42
330
1F
100
AcDbEntity
  8
10
100
AcDbLine
 10
1462.473725870284
 20
576.5430149021031
 30
0.0
 11
1459.973725870284
 21
576.5430149021031
 31
0.0
  0
LINE
  5
2B43
330
1F
100
AcDbEntity
  8
10
100
AcDbLine
 10
1462.473725870284
 20
561.543014902103
 30
0.0
 11
1459.973725870284
 21
561.543014902103
 31
0.0
  0
LINE
  5
2B44
330
1F
100
AcDbEntity
  8
10
100
AcDbLine
 10
1457.473725870285
 20
576.5430149021031
 30
0.0
 11
1454.973725870284
 21
576.5430149021031
 31
0.0
  0
LINE
  5
2B45
330
1F
100
AcDbEntity
  8
10
100
AcDbLine
 10
1457.473725870285
 20
561.543014902103
 30
0.0
 11
1454.973725870284
 21
561.543014902103
 31
0.0
  0
LINE
  5
2B46
330
1F
100
AcDbEntity
  8
10
100
AcDbLine
 10
1467.473725870284
 20
576.5430149021031
 30
0.0
 11
1464.973725870285
 21
576.5430149021031
 31
0.0
  0
LINE
  5
2B47
330
1F
100
AcDbEntity
  8
10
100
AcDbLine
 10
1467.473725870284
 20
561.543014902103
 30
0.0
 11
1464.973725870285
 21
561.543014902103
 31
0.0
  0
LINE
  5
2B48
330
1F
100
AcDbEntity
  8
10
100
AcDbLine
 10
1447.473725870285
 20
626.5430149021031
 30
0.0
 11
1444.973725870284
 21
626.5430149021031
 31
0.0
  0
LINE
  5
2B49
330
1F
100
AcDbEntity
  8
10
100
AcDbLine
 10
1447.473725870285
 20
611.543014902103
 30
0.0
 11
1444.973725870284
 21
611.543014902103
 31
0.0
  0
LINE
  5
2B4A
330
1F
100
AcDbEntity
  8
10
100
AcDbLine
 10
1442.473725870284
 20
626.5430149021031
 30
0.0
 11
1439.973725870284
 21
626.5430149021031
 31
0.0
  0
LINE
  5
2B4B
330
1F
100
AcDbEntity
  8
10
100
AcDbLine
 10
1442.473725870284
 20
611.543014902103
 30
0.0
 11
1439.973725870284
 21
611.543014902103
 31
0.0
  0
LINE
  5
2B4C
330
1F
100
AcDbEntity
  8
10
100
AcDbLine
 10
1452.473725870285
 20
626.5430149021031
 30
0.0
 11
1449.973725870284
 21
626.5430149021031
 31
0.0
  0
LINE
  5
2B4D
330
1F
100
AcDbEntity
  8
10
100
AcDbLine
 10
1452.473725870285
 20
611.543014902103
 30
0.0
 11
1449.973725870284
 21
611.543014902103
 31
0.0
  0
LINE
  5
2B4E
330
1F
100
AcDbEntity
  8
10
100
AcDbLine
 10
1462.473725870284
 20
626.5430149021031
 30
0.0
 11
1459.973725870284
 21
626.5430149021031
 31
0.0
  0
LINE
  5
2B4F
330
1F
100
AcDbEntity
  8
10
100
AcDbLine
 10
1462.473725870284
 20
611.543014902103
 30
0.0
 11
1459.973725870284
 21
611.543014902103
 31
0.0
  0
LINE
  5
2B50
330
1F
100
AcDbEntity
  8
10
100
AcDbLine
 10
1457.473725870285
 20
626.5430149021031
 30
0.0
 11
1454.973725870284
 21
626.5430149021031
 31
0.0
  0
LINE
  5
2B51
330
1F
100
AcDbEntity
  8
10
100
AcDbLine
 10
1457.473725870285
 20
611.543014902103
 30
0.0
 11
1454.973725870284
 21
611.543014902103
 31
0.0
  0
LINE
  5
2B52
330
1F
100
AcDbEntity
  8
10
100
AcDbLine
 10
1467.473725870284
 20
626.5430149021031
 30
0.0
 11
1464.973725870285
 21
626.5430149021031
 31
0.0
  0
LINE
  5
2B53
330
1F
100
AcDbEntity
  8
10
100
AcDbLine
 10
1467.473725870284
 20
611.543014902103
 30
0.0
 11
1464.973725870285
 21
611.543014902103
 31
0.0
  0
LINE
  5
2B54
330
1F
100
AcDbEntity
  8
10
100
AcDbLine
 10
1362.123725870285
 20
777.9030149021031
 30
0.0
 11
1362.123725870285
 21
722.9030149021028
 31
0.0
  0
LINE
  5
2B55
330
1F
100
AcDbEntity
  8
10
100
AcDbLine
 10
1359.223725870283
 20
780.1396036596901
 30
0.0
 11
1359.223725870283
 21
720.6664261445158
 31
0.0
  0
LINE
  5
2B56
330
1F
100
AcDbEntity
  8
10
100
AcDbLine
 10
1361.223725870283
 20
779.190639092975
 30
0.0
 11
1361.223725870283
 21
721.615390711231
 31
0.0
  0
LINE
  5
2B57
330
1F
100
AcDbEntity
  8
10
100
AcDbLine
 10
1365.223725870285
 20
797.4292187917443
 30
0.0
 11
1365.223725870285
 21
673.9166331319487
 31
0.0
  0
LINE
  5
2B58
330
1F
100
AcDbEntity
  8
10
100
AcDbLine
 10
1385.223725870284
 20
827.9292187917445
 30
0.0
 11
1385.223725870284
 21
713.9773743774052
 31
0.0
  0
LINE
  5
2B59
330
1F
100
AcDbEntity
  8
10
100
AcDbLine
 10
1384.723725870284
 20
828.4292187917447
 30
0.0
 11
1384.723725870284
 21
713.3681598792335
 31
0.0
  0
LINE
  5
2B5A
330
1F
100
AcDbEntity
  8
10
100
AcDbLine
 10
1361.311955970362
 20
665.5430149021031
 30
0.0
 11
1376.223725870284
 21
665.5430149021031
 31
0.0
  0
LINE
  5
2B5B
330
1F
100
AcDbEntity
  8
10
100
AcDbLine
 10
1354.223725870284
 20
661.0430149021031
 30
0.0
 11
1376.223725870284
 21
661.0430149021031
 31
0.0
  0
LINE
  5
2B5C
330
1F
100
AcDbEntity
  8
10
100
AcDbLine
 10
1385.223725870284
 20
674.0911704877637
 30
0.0
 11
1365.223725870285
 21
673.9166331319487
 31
0.0
  0
LINE
  5
2B5D
330
1F
100
AcDbEntity
  8
10
100
AcDbLine
 10
1376.223725870284
 20
666.5692187917443
 30
0.0
 11
1365.723725870285
 21
666.5692187917443
 31
0.0
  0
LINE
  5
2B5E
330
1F
100
AcDbEntity
  8
10
100
AcDbLine
 10
1347.447268734976
 20
669.3279831540714
 30
0.0
 11
1365.223725870285
 21
674.0911704877637
 31
0.0
  0
ARC
  5
2B5F
330
1F
100
AcDbEntity
  8
10
100
AcDbCircle
 10
1348.223725870284
 20
666.4302056752042
 30
0.0
 40
3.000000000000073
100
AcDbArc
 50
105.0000000000007
 51
180.0
  0
LINE
  5
2B60
330
1F
100
AcDbEntity
  8
10
100
AcDbLine
 10
1365.223725870285
 20
666.5911704877637
 30
0.0
 11
1354.964906825182
 21
663.8423282093314
 31
0.0
  0
ARC
  5
2B61
330
1F
100
AcDbEntity
  8
10
100
AcDbCircle
 10
1355.223725870285
 20
662.8764023830425
 30
0.0
 40
0.9999999999997807
100
AcDbArc
 50
105.0000000000007
 51
180.0
  0
LINE
  5
2B62
330
1F
100
AcDbEntity
  8
10
100
AcDbLine
 10
1365.923725870284
 20
660.7430149021029
 30
0.0
 11
1368.223725870284
 21
660.7430149021029
 31
0.0
  0
ARC
  5
2B63
330
1F
100
AcDbEntity
  8
10
100
AcDbCircle
 10
1365.923725870284
 20
652.543014902103
 30
0.0
 40
5.25
100
AcDbArc
 50
90.0
 51
120.6032946082074
  0
LINE
  5
2B64
330
1F
100
AcDbEntity
  8
10
100
AcDbLine
 10
1365.223725870285
 20
674.0911704877637
 30
0.0
 11
1365.223725870285
 21
666.5911704877637
 31
0.0
  0
LINE
  5
2B65
330
1F
100
AcDbEntity
  8
10
100
AcDbLine
 10
1365.223725870285
 20
673.9166331319487
 30
0.0
 11
1365.223725870285
 21
667.0692187917445
 31
0.0
  0
ARC
  5
2B66
330
1F
100
AcDbEntity
  8
10
100
AcDbCircle
 10
1365.723725870285
 20
667.0692187917445
 30
0.0
 40
0.4999999999999976
100
AcDbArc
 50
180.0
 51
270.0
  0
LINE
  5
2B67
330
1F
100
AcDbEntity
  8
10
100
AcDbLine
 10
1360.171389914042
 20
719.6677966097612
 30
0.0
 11
1365.223725870287
 21
719.4030149021032
 31
0.0
  0
LINE
  5
2B68
330
1F
100
AcDbEntity
  8
10
100
AcDbLine
 10
1361.223725870283
 20
721.615390711231
 30
0.0
 11
1365.223725870285
 21
721.4057595940991
 31
0.0
  0
ARC
  5
2B69
330
1F
100
AcDbEntity
  8
10
100
AcDbCircle
 10
1360.223725870284
 20
720.6664261445158
 30
0.0
 40
1.0
100
AcDbArc
 50
180.0
 51
267.0000000000074
  0
LINE
  5
2B6A
330
1F
100
AcDbEntity
  8
10
100
AcDbLine
 10
1362.123725870285
 20
722.9030149021028
 30
0.0
 11
1365.223725870285
 21
722.9030149021028
 31
0.0
  0
LINE
  5
2B6B
330
1F
100
AcDbEntity
  8
10
100
AcDbLine
 10
1363.125649658932
 20
721.5157151091026
 30
0.0
 11
1363.125649658932
 21
722.9030149021028
 31
0.0
  0
LINE
  5
2B6C
330
1F
100
AcDbEntity
  8
10
100
AcDbLine
 10
1364.723725870284
 20
721.4319634837407
 30
0.0
 11
1364.723725870284
 21
722.9030149021028
 31
0.0
  0
LINE
  5
2B6D
330
1F
100
AcDbEntity
  8
10
100
AcDbLine
 10
1385.223725870284
 20
674.0911704877637
 30
0.0
 11
1385.223725870284
 21
678.0911704877637
 31
0.0
  0
LINE
  5
2B6E
330
1F
100
AcDbEntity
  8
10
100
AcDbLine
 10
1397.473725870284
 20
676.5430149021033
 30
0.0
 11
1394.973725870285
 21
676.5430149021033
 31
0.0
  0
LINE
  5
2B6F
330
1F
100
AcDbEntity
  8
10
100
AcDbLine
 10
1397.473725870284
 20
661.543014902103
 30
0.0
 11
1394.973725870285
 21
661.543014902103
 31
0.0
  0
LINE
  5
2B70
330
1F
100
AcDbEntity
  8
10
100
AcDbLine
 10
1392.473725870284
 20
676.5430149021033
 30
0.0
 11
1389.973725870285
 21
676.5430149021033
 31
0.0
  0
LINE
  5
2B71
330
1F
100
AcDbEntity
  8
10
100
AcDbLine
 10
1392.473725870284
 20
661.543014902103
 30
0.0
 11
1389.973725870285
 21
661.543014902103
 31
0.0
  0
LINE
  5
2B72
330
1F
100
AcDbEntity
  8
10
100
AcDbLine
 10
1402.473725870285
 20
676.5430149021033
 30
0.0
 11
1399.973725870284
 21
676.5430149021033
 31
0.0
  0
LINE
  5
2B73
330
1F
100
AcDbEntity
  8
10
100
AcDbLine
 10
1402.473725870285
 20
661.543014902103
 30
0.0
 11
1399.973725870284
 21
661.543014902103
 31
0.0
  0
ARC
  5
2B74
330
1F
100
AcDbEntity
  8
10
100
AcDbCircle
 10
1385.223725870284
 20
713.4773743774055
 30
0.0
 40
0.499999999999992
100
AcDbArc
 50
90.0
 51
192.6167771362775
  0
LINE
  5
2B75
330
1F
100
AcDbEntity
  8
10
100
AcDbLine
 10
1397.473725870284
 20
726.5430149021033
 30
0.0
 11
1394.973725870285
 21
726.5430149021033
 31
0.0
  0
LINE
  5
2B76
330
1F
100
AcDbEntity
  8
10
100
AcDbLine
 10
1397.473725870284
 20
711.543014902103
 30
0.0
 11
1394.973725870285
 21
711.543014902103
 31
0.0
  0
LINE
  5
2B77
330
1F
100
AcDbEntity
  8
10
100
AcDbLine
 10
1392.473725870284
 20
726.5430149021033
 30
0.0
 11
1389.973725870285
 21
726.5430149021033
 31
0.0
  0
LINE
  5
2B78
330
1F
100
AcDbEntity
  8
10
100
AcDbLine
 10
1392.473725870284
 20
711.543014902103
 30
0.0
 11
1389.973725870285
 21
711.543014902103
 31
0.0
  0
LINE
  5
2B79
330
1F
100
AcDbEntity
  8
10
100
AcDbLine
 10
1402.473725870285
 20
726.5430149021033
 30
0.0
 11
1399.973725870284
 21
726.5430149021033
 31
0.0
  0
LINE
  5
2B7A
330
1F
100
AcDbEntity
  8
10
100
AcDbLine
 10
1402.473725870285
 20
711.543014902103
 30
0.0
 11
1399.973725870284
 21
711.543014902103
 31
0.0
  0
LINE
  5
2B7B
330
1F
100
AcDbEntity
  8
10
100
AcDbLine
 10
1362.223725870284
 20
815.3652805081607
 30
0.0
 11
1362.223725870284
 21
803.3172284644761
 31
0.0
  0
LINE
  5
2B7C
330
1F
100
AcDbEntity
  8
10
100
AcDbLine
 10
1365.223725870285
 20
857.0796399834629
 30
0.0
 11
1365.223725870285
 21
801.4030149021031
 31
0.0
  0
LINE
  5
2B7D
330
1F
100
AcDbEntity
  8
10
100
AcDbLine
 10
1360.17138991404
 20
781.1382331944444
 30
0.0
 11
1365.223725870287
 21
781.4030149021032
 31
0.0
  0
LINE
  5
2B7E
330
1F
100
AcDbEntity
  8
10
100
AcDbLine
 10
1361.223725870283
 20
779.190639092975
 30
0.0
 11
1365.223725870285
 21
779.4002702101074
 31
0.0
  0
ARC
  5
2B7F
330
1F
100
AcDbEntity
  8
10
100
AcDbCircle
 10
1360.223725870284
 20
780.1396036596901
 30
0.0
 40
1.000000000000065
100
AcDbArc
 50
93.00000000000556
 51
180.0
  0
LINE
  5
2B80
330
1F
100
AcDbEntity
  8
10
100
AcDbLine
 10
1362.123725870285
 20
777.9030149021031
 30
0.0
 11
1365.223725870285
 21
777.9030149021031
 31
0.0
  0
LINE
  5
2B81
330
1F
100
AcDbEntity
  8
10
100
AcDbLine
 10
1364.723725870284
 20
777.9030149021031
 30
0.0
 11
1364.723725870284
 21
779.3740663204657
 31
0.0
  0
LINE
  5
2B82
330
1F
100
AcDbEntity
  8
10
100
AcDbLine
 10
1363.125649658932
 20
777.9030149021031
 30
0.0
 11
1363.125649658932
 21
779.2903146951037
 31
0.0
  0
ARC
  5
2B83
330
1F
100
AcDbEntity
  8
10
100
AcDbCircle
 10
1364.637939432657
 20
801.903014902103
 30
0.0
 40
0.9999999999999264
100
AcDbArc
 50
224.9999999999976
 51
270.0
  0
ARC
  5
2B84
330
1F
100
AcDbEntity
  8
10
100
AcDbCircle
 10
1363.223725870285
 20
803.3172284644761
 30
0.0
 40
1.0
100
AcDbArc
 50
180.0
 51
225.0000000000069
  0
LINE
  5
2B85
330
1F
100
AcDbEntity
  8
10
100
AcDbLine
 10
1363.93083265147
 20
801.1959081209166
 30
0.0
 11
1362.516619089098
 21
802.6101216832897
 31
0.0
  0
LINE
  5
2B86
330
1F
100
AcDbEntity
  8
10
100
AcDbLine
 10
1364.637939432657
 20
800.9030149021027
 30
0.0
 11
1365.723725870285
 21
800.9030149021027
 31
0.0
  0
ARC
  5
2B87
330
1F
100
AcDbEntity
  8
10
100
AcDbCircle
 10
1365.723725870285
 20
801.4030149021031
 30
0.0
 40
0.4999999999999976
100
AcDbArc
 50
180.0
 51
270.0
  0
ARC
  5
2B88
330
1F
100
AcDbEntity
  8
10
100
AcDbCircle
 10
1367.723725870285
 20
800.403014902103
 30
0.0
 40
0.4999999999999976
100
AcDbArc
 50
0.0
 51
90.0
  0
LINE
  5
2B89
330
1F
100
AcDbEntity
  8
10
100
AcDbLine
 10
1365.723725870285
 20
800.9030149021031
 30
0.0
 11
1367.723725870285
 21
800.9030149021031
 31
0.0
  0
LINE
  5
2B8A
330
1F
100
AcDbEntity
  8
10
100
AcDbLine
 10
1365.223725870285
 20
807.4292187917443
 30
0.0
 11
1365.223725870285
 21
804.4292187917447
 31
0.0
  0
LINE
  5
2B8B
330
1F
100
AcDbEntity
  8
10
100
AcDbLine
 10
1365.223725870285
 20
804.4292187917447
 30
0.0
 11
1367.723725870285
 21
804.4292187917447
 31
0.0
  0
ARC
  5
2B8C
330
1F
100
AcDbEntity
  8
10
100
AcDbCircle
 10
1367.723725870285
 20
803.9292187917446
 30
0.0
 40
0.4999999999999976
100
AcDbArc
 50
0.0
 51
90.0
  0
LINE
  5
2B8D
330
1F
100
AcDbEntity
  8
10
100
AcDbLine
 10
1368.223725870284
 20
803.9292187917446
 30
0.0
 11
1368.223725870284
 21
797.9292187917446
 31
0.0
  0
ARC
  5
2B8E
330
1F
100
AcDbEntity
  8
10
100
AcDbCircle
 10
1367.723725870285
 20
797.9292187917446
 30
0.0
 40
0.5000000000000318
100
AcDbArc
 50
270.0
 51
0.0
  0
LINE
  5
2B8F
330
1F
100
AcDbEntity
  8
10
100
AcDbLine
 10
1365.223725870285
 20
797.4292187917443
 30
0.0
 11
1367.723725870285
 21
797.4292187917443
 31
0.0
  0
ARC
  5
2B90
330
1F
100
AcDbEntity
  8
10
100
AcDbCircle
 10
1366.801436464128
 20
824.459630476665
 30
0.0
 40
3.000000000000001
100
AcDbArc
 50
121.7290884710793
 51
160.3162775136983
  0
ARC
  5
2B91
330
1F
100
AcDbEntity
  8
10
100
AcDbCircle
 10
1392.223725870284
 20
815.3652805081607
 30
0.0
 40
29.99999999999996
100
AcDbArc
 50
160.3162775137014
 51
180.0
  0
ARC
  5
2B92
330
1F
100
AcDbEntity
  8
10
100
AcDbCircle
 10
1395.223725870285
 20
857.0796399834629
 30
0.0
 40
30.00000000000007
100
AcDbArc
 50
176.1973934261165
 51
180.0
  0
LINE
  5
2B93
330
1F
100
AcDbEntity
  8
10
100
AcDbLine
 10
1397.473725870284
 20
776.5430149021033
 30
0.0
 11
1394.973725870285
 21
776.5430149021033
 31
0.0
  0
LINE
  5
2B94
330
1F
100
AcDbEntity
  8
10
100
AcDbLine
 10
1397.473725870284
 20
761.543014902103
 30
0.0
 11
1394.973725870285
 21
761.543014902103
 31
0.0
  0
LINE
  5
2B95
330
1F
100
AcDbEntity
  8
10
100
AcDbLine
 10
1392.473725870284
 20
776.5430149021033
 30
0.0
 11
1389.973725870285
 21
776.5430149021033
 31
0.0
  0
LINE
  5
2B96
330
1F
100
AcDbEntity
  8
10
100
AcDbLine
 10
1392.473725870284
 20
761.543014902103
 30
0.0
 11
1389.973725870285
 21
761.543014902103
 31
0.0
  0
LINE
  5
2B97
330
1F
100
AcDbEntity
  8
10
100
AcDbLine
 10
1402.473725870285
 20
776.5430149021033
 30
0.0
 11
1399.973725870284
 21
776.5430149021033
 31
0.0
  0
LINE
  5
2B98
330
1F
100
AcDbEntity
  8
10
100
AcDbLine
 10
1402.473725870285
 20
761.543014902103
 30
0.0
 11
1399.973725870284
 21
761.543014902103
 31
0.0
  0
ARC
  5
2B99
330
1F
100
AcDbEntity
  8
10
100
AcDbCircle
 10
1385.223725870284
 20
828.4292187917447
 30
0.0
 40
0.5000000000000035
100
AcDbArc
 50
180.0
 51
270.0
  0
ARC
  5
2B9A
330
1F
100
AcDbEntity
  8
10
100
AcDbCircle
 10
1385.223725870284
 20
828.4292187917447
 30
0.0
 40
0.5000000000000035
100
AcDbArc
 50
180.0
 51
270.0
  0
LINE
  5
2B9B
330
1F
100
AcDbEntity
  8
10
100
AcDbLine
 10
1397.473725870284
 20
826.543014902103
 30
0.0
 11
1394.973725870285
 21
826.543014902103
 31
0.0
  0
LINE
  5
2B9C
330
1F
100
AcDbEntity
  8
10
100
AcDbLine
 10
1397.473725870284
 20
811.5430149021031
 30
0.0
 11
1394.973725870285
 21
811.5430149021031
 31
0.0
  0
LINE
  5
2B9D
330
1F
100
AcDbEntity
  8
10
100
AcDbLine
 10
1392.473725870284
 20
826.543014902103
 30
0.0
 11
1389.973725870285
 21
826.543014902103
 31
0.0
  0
LINE
  5
2B9E
330
1F
100
AcDbEntity
  8
10
100
AcDbLine
 10
1392.473725870284
 20
811.5430149021031
 30
0.0
 11
1389.973725870285
 21
811.5430149021031
 31
0.0
  0
LINE
  5
2B9F
330
1F
100
AcDbEntity
  8
10
100
AcDbLine
 10
1402.473725870285
 20
826.543014902103
 30
0.0
 11
1399.973725870284
 21
826.543014902103
 31
0.0
  0
LINE
  5
2BA0
330
1F
100
AcDbEntity
  8
10
100
AcDbLine
 10
1402.473725870285
 20
811.5430149021031
 30
0.0
 11
1399.973725870284
 21
811.5430149021031
 31
0.0
  0
ARC
  5
2BA1
330
1F
100
AcDbEntity
  8
10
100
AcDbCircle
 10
1396.223725870284
 20
847.7930149021007
 30
0.0
 40
1.25
100
AcDbArc
 50
0.0
 51
180.0
  0
ARC
  5
2BA2
330
1F
100
AcDbEntity
  8
10
100
AcDbCircle
 10
1391.223725870284
 20
847.7930149021007
 30
0.0
 40
1.25
100
AcDbArc
 50
0.0
 51
180.0
  0
ARC
  5
2BA3
330
1F
100
AcDbEntity
  8
10
100
AcDbCircle
 10
1401.223725870284
 20
847.7930149021007
 30
0.0
 40
1.25
100
AcDbArc
 50
0.0
 51
180.0
  0
LINE
  5
2BA4
330
1F
100
AcDbEntity
  8
10
100
AcDbLine
 10
1437.473725870284
 20
676.5430149021033
 30
0.0
 11
1434.973725870285
 21
676.5430149021033
 31
0.0
  0
LINE
  5
2BA5
330
1F
100
AcDbEntity
  8
10
100
AcDbLine
 10
1437.473725870284
 20
661.543014902103
 30
0.0
 11
1434.973725870285
 21
661.543014902103
 31
0.0
  0
LINE
  5
2BA6
330
1F
100
AcDbEntity
  8
10
100
AcDbLine
 10
1437.473725870284
 20
726.5430149021033
 30
0.0
 11
1434.973725870285
 21
726.5430149021033
 31
0.0
  0
LINE
  5
2BA7
330
1F
100
AcDbEntity
  8
10
100
AcDbLine
 10
1437.473725870284
 20
711.543014902103
 30
0.0
 11
1434.973725870285
 21
711.543014902103
 31
0.0
  0
LINE
  5
2BA8
330
1F
100
AcDbEntity
  8
10
100
AcDbLine
 10
1422.473725870284
 20
676.5430149021033
 30
0.0
 11
1419.973725870284
 21
676.5430149021033
 31
0.0
  0
LINE
  5
2BA9
330
1F
100
AcDbEntity
  8
10
100
AcDbLine
 10
1422.473725870284
 20
661.543014902103
 30
0.0
 11
1419.973725870284
 21
661.543014902103
 31
0.0
  0
LINE
  5
2BAA
330
1F
100
AcDbEntity
  8
10
100
AcDbLine
 10
1412.473725870285
 20
676.5430149021033
 30
0.0
 11
1409.973725870284
 21
676.5430149021033
 31
0.0
  0
LINE
  5
2BAB
330
1F
100
AcDbEntity
  8
10
100
AcDbLine
 10
1412.473725870285
 20
661.543014902103
 30
0.0
 11
1409.973725870284
 21
661.543014902103
 31
0.0
  0
LINE
  5
2BAC
330
1F
100
AcDbEntity
  8
10
100
AcDbLine
 10
1407.473725870285
 20
676.5430149021033
 30
0.0
 11
1404.973725870284
 21
676.5430149021033
 31
0.0
  0
LINE
  5
2BAD
330
1F
100
AcDbEntity
  8
10
100
AcDbLine
 10
1407.473725870285
 20
661.543014902103
 30
0.0
 11
1404.973725870284
 21
661.543014902103
 31
0.0
  0
LINE
  5
2BAE
330
1F
100
AcDbEntity
  8
10
100
AcDbLine
 10
1417.473725870284
 20
676.5430149021033
 30
0.0
 11
1414.973725870285
 21
676.5430149021033
 31
0.0
  0
LINE
  5
2BAF
330
1F
100
AcDbEntity
  8
10
100
AcDbLine
 10
1417.473725870284
 20
661.543014902103
 30
0.0
 11
1414.973725870285
 21
661.543014902103
 31
0.0
  0
LINE
  5
2BB0
330
1F
100
AcDbEntity
  8
10
100
AcDbLine
 10
1427.473725870284
 20
676.5430149021033
 30
0.0
 11
1424.973725870285
 21
676.5430149021033
 31
0.0
  0
LINE
  5
2BB1
330
1F
100
AcDbEntity
  8
10
100
AcDbLine
 10
1427.473725870284
 20
661.543014902103
 30
0.0
 11
1424.973725870285
 21
661.543014902103
 31
0.0
  0
LINE
  5
2BB2
330
1F
100
AcDbEntity
  8
10
100
AcDbLine
 10
1432.473725870284
 20
676.5430149021033
 30
0.0
 11
1429.973725870284
 21
676.5430149021033
 31
0.0
  0
LINE
  5
2BB3
330
1F
100
AcDbEntity
  8
10
100
AcDbLine
 10
1432.473725870284
 20
661.543014902103
 30
0.0
 11
1429.973725870284
 21
661.543014902103
 31
0.0
  0
LINE
  5
2BB4
330
1F
100
AcDbEntity
  8
10
100
AcDbLine
 10
1422.473725870284
 20
726.5430149021033
 30
0.0
 11
1419.973725870284
 21
726.5430149021033
 31
0.0
  0
LINE
  5
2BB5
330
1F
100
AcDbEntity
  8
10
100
AcDbLine
 10
1422.473725870284
 20
711.543014902103
 30
0.0
 11
1419.973725870284
 21
711.543014902103
 31
0.0
  0
LINE
  5
2BB6
330
1F
100
AcDbEntity
  8
10
100
AcDbLine
 10
1412.473725870285
 20
726.5430149021033
 30
0.0
 11
1409.973725870284
 21
726.5430149021033
 31
0.0
  0
LINE
  5
2BB7
330
1F
100
AcDbEntity
  8
10
100
AcDbLine
 10
1412.473725870285
 20
711.543014902103
 30
0.0
 11
1409.973725870284
 21
711.543014902103
 31
0.0
  0
LINE
  5
2BB8
330
1F
100
AcDbEntity
  8
10
100
AcDbLine
 10
1407.473725870285
 20
726.5430149021033
 30
0.0
 11
1404.973725870284
 21
726.5430149021033
 31
0.0
  0
LINE
  5
2BB9
330
1F
100
AcDbEntity
  8
10
100
AcDbLine
 10
1407.473725870285
 20
711.543014902103
 30
0.0
 11
1404.973725870284
 21
711.543014902103
 31
0.0
  0
LINE
  5
2BBA
330
1F
100
AcDbEntity
  8
10
100
AcDbLine
 10
1417.473725870284
 20
726.5430149021033
 30
0.0
 11
1414.973725870285
 21
726.5430149021033
 31
0.0
  0
LINE
  5
2BBB
330
1F
100
AcDbEntity
  8
10
100
AcDbLine
 10
1417.473725870284
 20
711.543014902103
 30
0.0
 11
1414.973725870285
 21
711.543014902103
 31
0.0
  0
LINE
  5
2BBC
330
1F
100
AcDbEntity
  8
10
100
AcDbLine
 10
1427.473725870284
 20
726.5430149021033
 30
0.0
 11
1424.973725870285
 21
726.5430149021033
 31
0.0
  0
LINE
  5
2BBD
330
1F
100
AcDbEntity
  8
10
100
AcDbLine
 10
1427.473725870284
 20
711.543014902103
 30
0.0
 11
1424.973725870285
 21
711.543014902103
 31
0.0
  0
LINE
  5
2BBE
330
1F
100
AcDbEntity
  8
10
100
AcDbLine
 10
1432.473725870284
 20
726.5430149021033
 30
0.0
 11
1429.973725870284
 21
726.5430149021033
 31
0.0
  0
LINE
  5
2BBF
330
1F
100
AcDbEntity
  8
10
100
AcDbLine
 10
1432.473725870284
 20
711.543014902103
 30
0.0
 11
1429.973725870284
 21
711.543014902103
 31
0.0
  0
LINE
  5
2BC0
330
1F
100
AcDbEntity
  8
10
100
AcDbLine
 10
1447.473725870285
 20
676.5430149021033
 30
0.0
 11
1444.973725870284
 21
676.5430149021033
 31
0.0
  0
LINE
  5
2BC1
330
1F
100
AcDbEntity
  8
10
100
AcDbLine
 10
1447.473725870285
 20
661.543014902103
 30
0.0
 11
1444.973725870284
 21
661.543014902103
 31
0.0
  0
LINE
  5
2BC2
330
1F
100
AcDbEntity
  8
10
100
AcDbLine
 10
1442.473725870284
 20
676.5430149021033
 30
0.0
 11
1439.973725870284
 21
676.5430149021033
 31
0.0
  0
LINE
  5
2BC3
330
1F
100
AcDbEntity
  8
10
100
AcDbLine
 10
1442.473725870284
 20
661.543014902103
 30
0.0
 11
1439.973725870284
 21
661.543014902103
 31
0.0
  0
LINE
  5
2BC4
330
1F
100
AcDbEntity
  8
10
100
AcDbLine
 10
1452.473725870285
 20
676.5430149021033
 30
0.0
 11
1449.973725870284
 21
676.5430149021033
 31
0.0
  0
LINE
  5
2BC5
330
1F
100
AcDbEntity
  8
10
100
AcDbLine
 10
1452.473725870285
 20
661.543014902103
 30
0.0
 11
1449.973725870284
 21
661.543014902103
 31
0.0
  0
LINE
  5
2BC6
330
1F
100
AcDbEntity
  8
10
100
AcDbLine
 10
1462.473725870284
 20
676.5430149021033
 30
0.0
 11
1459.973725870284
 21
676.5430149021033
 31
0.0
  0
LINE
  5
2BC7
330
1F
100
AcDbEntity
  8
10
100
AcDbLine
 10
1462.473725870284
 20
661.543014902103
 30
0.0
 11
1459.973725870284
 21
661.543014902103
 31
0.0
  0
LINE
  5
2BC8
330
1F
100
AcDbEntity
  8
10
100
AcDbLine
 10
1457.473725870285
 20
676.5430149021033
 30
0.0
 11
1454.973725870284
 21
676.5430149021033
 31
0.0
  0
LINE
  5
2BC9
330
1F
100
AcDbEntity
  8
10
100
AcDbLine
 10
1457.473725870285
 20
661.543014902103
 30
0.0
 11
1454.973725870284
 21
661.543014902103
 31
0.0
  0
LINE
  5
2BCA
330
1F
100
AcDbEntity
  8
10
100
AcDbLine
 10
1467.473725870284
 20
676.5430149021033
 30
0.0
 11
1464.973725870285
 21
676.5430149021033
 31
0.0
  0
LINE
  5
2BCB
330
1F
100
AcDbEntity
  8
10
100
AcDbLine
 10
1467.473725870284
 20
661.543014902103
 30
0.0
 11
1464.973725870285
 21
661.543014902103
 31
0.0
  0
LINE
  5
2BCC
330
1F
100
AcDbEntity
  8
10
100
AcDbLine
 10
1447.473725870285
 20
726.5430149021033
 30
0.0
 11
1444.973725870284
 21
726.5430149021033
 31
0.0
  0
LINE
  5
2BCD
330
1F
100
AcDbEntity
  8
10
100
AcDbLine
 10
1447.473725870285
 20
711.543014902103
 30
0.0
 11
1444.973725870284
 21
711.543014902103
 31
0.0
  0
LINE
  5
2BCE
330
1F
100
AcDbEntity
  8
10
100
AcDbLine
 10
1442.473725870284
 20
726.5430149021033
 30
0.0
 11
1439.973725870284
 21
726.5430149021033
 31
0.0
  0
LINE
  5
2BCF
330
1F
100
AcDbEntity
  8
10
100
AcDbLine
 10
1442.473725870284
 20
711.543014902103
 30
0.0
 11
1439.973725870284
 21
711.543014902103
 31
0.0
  0
LINE
  5
2BD0
330
1F
100
AcDbEntity
  8
10
100
AcDbLine
 10
1452.473725870285
 20
726.5430149021033
 30
0.0
 11
1449.973725870284
 21
726.5430149021033
 31
0.0
  0
LINE
  5
2BD1
330
1F
100
AcDbEntity
  8
10
100
AcDbLine
 10
1452.473725870285
 20
711.543014902103
 30
0.0
 11
1449.973725870284
 21
711.543014902103
 31
0.0
  0
LINE
  5
2BD2
330
1F
100
AcDbEntity
  8
10
100
AcDbLine
 10
1462.473725870284
 20
726.5430149021033
 30
0.0
 11
1459.973725870284
 21
726.5430149021033
 31
0.0
  0
LINE
  5
2BD3
330
1F
100
AcDbEntity
  8
10
100
AcDbLine
 10
1462.473725870284
 20
711.543014902103
 30
0.0
 11
1459.973725870284
 21
711.543014902103
 31
0.0
  0
LINE
  5
2BD4
330
1F
100
AcDbEntity
  8
10
100
AcDbLine
 10
1457.473725870285
 20
726.5430149021033
 30
0.0
 11
1454.973725870284
 21
726.5430149021033
 31
0.0
  0
LINE
  5
2BD5
330
1F
100
AcDbEntity
  8
10
100
AcDbLine
 10
1457.473725870285
 20
711.543014902103
 30
0.0
 11
1454.973725870284
 21
711.543014902103
 31
0.0
  0
LINE
  5
2BD6
330
1F
100
AcDbEntity
  8
10
100
AcDbLine
 10
1467.473725870284
 20
726.5430149021033
 30
0.0
 11
1464.973725870285
 21
726.5430149021033
 31
0.0
  0
LINE
  5
2BD7
330
1F
100
AcDbEntity
  8
10
100
AcDbLine
 10
1467.473725870284
 20
711.543014902103
 30
0.0
 11
1464.973725870285
 21
711.543014902103
 31
0.0
  0
LINE
  5
2BD8
330
1F
100
AcDbEntity
  8
10
100
AcDbLine
 10
1437.473725870284
 20
826.543014902103
 30
0.0
 11
1434.973725870285
 21
826.543014902103
 31
0.0
  0
LINE
  5
2BD9
330
1F
100
AcDbEntity
  8
10
100
AcDbLine
 10
1437.473725870284
 20
811.5430149021031
 30
0.0
 11
1434.973725870285
 21
811.5430149021031
 31
0.0
  0
ARC
  5
2BDA
330
1F
100
AcDbEntity
  8
10
100
AcDbCircle
 10
1436.223725870284
 20
847.7930149021007
 30
0.0
 40
1.25
100
AcDbArc
 50
0.0
 51
180.0
  0
LINE
  5
2BDB
330
1F
100
AcDbEntity
  8
10
100
AcDbLine
 10
1437.473725870284
 20
776.5430149021033
 30
0.0
 11
1434.973725870285
 21
776.5430149021033
 31
0.0
  0
LINE
  5
2BDC
330
1F
100
AcDbEntity
  8
10
100
AcDbLine
 10
1437.473725870284
 20
761.543014902103
 30
0.0
 11
1434.973725870285
 21
761.543014902103
 31
0.0
  0
LINE
  5
2BDD
330
1F
100
AcDbEntity
  8
10
100
AcDbLine
 10
1422.473725870284
 20
776.5430149021033
 30
0.0
 11
1419.973725870284
 21
776.5430149021033
 31
0.0
  0
LINE
  5
2BDE
330
1F
100
AcDbEntity
  8
10
100
AcDbLine
 10
1422.473725870284
 20
761.543014902103
 30
0.0
 11
1419.973725870284
 21
761.543014902103
 31
0.0
  0
LINE
  5
2BDF
330
1F
100
AcDbEntity
  8
10
100
AcDbLine
 10
1412.473725870285
 20
776.5430149021033
 30
0.0
 11
1409.973725870284
 21
776.5430149021033
 31
0.0
  0
LINE
  5
2BE0
330
1F
100
AcDbEntity
  8
10
100
AcDbLine
 10
1412.473725870285
 20
761.543014902103
 30
0.0
 11
1409.973725870284
 21
761.543014902103
 31
0.0
  0
LINE
  5
2BE1
330
1F
100
AcDbEntity
  8
10
100
AcDbLine
 10
1407.473725870285
 20
776.5430149021033
 30
0.0
 11
1404.973725870284
 21
776.5430149021033
 31
0.0
  0
LINE
  5
2BE2
330
1F
100
AcDbEntity
  8
10
100
AcDbLine
 10
1407.473725870285
 20
761.543014902103
 30
0.0
 11
1404.973725870284
 21
761.543014902103
 31
0.0
  0
LINE
  5
2BE3
330
1F
100
AcDbEntity
  8
10
100
AcDbLine
 10
1417.473725870284
 20
776.5430149021033
 30
0.0
 11
1414.973725870285
 21
776.5430149021033
 31
0.0
  0
LINE
  5
2BE4
330
1F
100
AcDbEntity
  8
10
100
AcDbLine
 10
1417.473725870284
 20
761.543014902103
 30
0.0
 11
1414.973725870285
 21
761.543014902103
 31
0.0
  0
LINE
  5
2BE5
330
1F
100
AcDbEntity
  8
10
100
AcDbLine
 10
1427.473725870284
 20
776.5430149021033
 30
0.0
 11
1424.973725870285
 21
776.5430149021033
 31
0.0
  0
LINE
  5
2BE6
330
1F
100
AcDbEntity
  8
10
100
AcDbLine
 10
1427.473725870284
 20
761.543014902103
 30
0.0
 11
1424.973725870285
 21
761.543014902103
 31
0.0
  0
LINE
  5
2BE7
330
1F
100
AcDbEntity
  8
10
100
AcDbLine
 10
1432.473725870284
 20
776.5430149021033
 30
0.0
 11
1429.973725870284
 21
776.5430149021033
 31
0.0
  0
LINE
  5
2BE8
330
1F
100
AcDbEntity
  8
10
100
AcDbLine
 10
1432.473725870284
 20
761.543014902103
 30
0.0
 11
1429.973725870284
 21
761.543014902103
 31
0.0
  0
LINE
  5
2BE9
330
1F
100
AcDbEntity
  8
10
100
AcDbLine
 10
1422.473725870284
 20
826.543014902103
 30
0.0
 11
1419.973725870284
 21
826.543014902103
 31
0.0
  0
LINE
  5
2BEA
330
1F
100
AcDbEntity
  8
10
100
AcDbLine
 10
1422.473725870284
 20
811.5430149021031
 30
0.0
 11
1419.973725870284
 21
811.5430149021031
 31
0.0
  0
ARC
  5
2BEB
330
1F
100
AcDbEntity
  8
10
100
AcDbCircle
 10
1421.223725870285
 20
847.7930149021007
 30
0.0
 40
1.25
100
AcDbArc
 50
0.0
 51
180.0
  0
LINE
  5
2BEC
330
1F
100
AcDbEntity
  8
10
100
AcDbLine
 10
1412.473725870285
 20
826.543014902103
 30
0.0
 11
1409.973725870284
 21
826.543014902103
 31
0.0
  0
LINE
  5
2BED
330
1F
100
AcDbEntity
  8
10
100
AcDbLine
 10
1412.473725870285
 20
811.5430149021031
 30
0.0
 11
1409.973725870284
 21
811.5430149021031
 31
0.0
  0
LINE
  5
2BEE
330
1F
100
AcDbEntity
  8
10
100
AcDbLine
 10
1407.473725870285
 20
826.543014902103
 30
0.0
 11
1404.973725870284
 21
826.543014902103
 31
0.0
  0
LINE
  5
2BEF
330
1F
100
AcDbEntity
  8
10
100
AcDbLine
 10
1407.473725870285
 20
811.5430149021031
 30
0.0
 11
1404.973725870284
 21
811.5430149021031
 31
0.0
  0
LINE
  5
2BF0
330
1F
100
AcDbEntity
  8
10
100
AcDbLine
 10
1417.473725870284
 20
826.543014902103
 30
0.0
 11
1414.973725870285
 21
826.543014902103
 31
0.0
  0
LINE
  5
2BF1
330
1F
100
AcDbEntity
  8
10
100
AcDbLine
 10
1417.473725870284
 20
811.5430149021031
 30
0.0
 11
1414.973725870285
 21
811.5430149021031
 31
0.0
  0
ARC
  5
2BF2
330
1F
100
AcDbEntity
  8
10
100
AcDbCircle
 10
1411.223725870284
 20
847.7930149021007
 30
0.0
 40
1.25
100
AcDbArc
 50
0.0
 51
180.0
  0
ARC
  5
2BF3
330
1F
100
AcDbEntity
  8
10
100
AcDbCircle
 10
1406.223725870284
 20
847.7930149021007
 30
0.0
 40
1.25
100
AcDbArc
 50
0.0
 51
180.0
  0
ARC
  5
2BF4
330
1F
100
AcDbEntity
  8
10
100
AcDbCircle
 10
1416.223725870285
 20
847.7930149021007
 30
0.0
 40
1.25
100
AcDbArc
 50
0.0
 51
180.0
  0
LINE
  5
2BF5
330
1F
100
AcDbEntity
  8
10
100
AcDbLine
 10
1427.473725870284
 20
826.543014902103
 30
0.0
 11
1424.973725870285
 21
826.543014902103
 31
0.0
  0
LINE
  5
2BF6
330
1F
100
AcDbEntity
  8
10
100
AcDbLine
 10
1427.473725870284
 20
811.5430149021031
 30
0.0
 11
1424.973725870285
 21
811.5430149021031
 31
0.0
  0
LINE
  5
2BF7
330
1F
100
AcDbEntity
  8
10
100
AcDbLine
 10
1432.473725870284
 20
826.543014902103
 30
0.0
 11
1429.973725870284
 21
826.543014902103
 31
0.0
  0
LINE
  5
2BF8
330
1F
100
AcDbEntity
  8
10
100
AcDbLine
 10
1432.473725870284
 20
811.5430149021031
 30
0.0
 11
1429.973725870284
 21
811.5430149021031
 31
0.0
  0
ARC
  5
2BF9
330
1F
100
AcDbEntity
  8
10
100
AcDbCircle
 10
1426.223725870285
 20
847.7930149021007
 30
0.0
 40
1.25
100
AcDbArc
 50
0.0
 51
180.0
  0
ARC
  5
2BFA
330
1F
100
AcDbEntity
  8
10
100
AcDbCircle
 10
1431.223725870284
 20
847.7930149021007
 30
0.0
 40
1.24999999999998
100
AcDbArc
 50
0.0
 51
180.0
  0
LINE
  5
2BFB
330
1F
100
AcDbEntity
  8
10
100
AcDbLine
 10
1447.473725870285
 20
776.5430149021033
 30
0.0
 11
1444.973725870284
 21
776.5430149021033
 31
0.0
  0
LINE
  5
2BFC
330
1F
100
AcDbEntity
  8
10
100
AcDbLine
 10
1447.473725870285
 20
761.543014902103
 30
0.0
 11
1444.973725870284
 21
761.543014902103
 31
0.0
  0
LINE
  5
2BFD
330
1F
100
AcDbEntity
  8
10
100
AcDbLine
 10
1442.473725870284
 20
776.5430149021033
 30
0.0
 11
1439.973725870284
 21
776.5430149021033
 31
0.0
  0
LINE
  5
2BFE
330
1F
100
AcDbEntity
  8
10
100
AcDbLine
 10
1442.473725870284
 20
761.543014902103
 30
0.0
 11
1439.973725870284
 21
761.543014902103
 31
0.0
  0
LINE
  5
2BFF
330
1F
100
AcDbEntity
  8
10
100
AcDbLine
 10
1452.473725870285
 20
776.5430149021033
 30
0.0
 11
1449.973725870284
 21
776.5430149021033
 31
0.0
  0
LINE
  5
2C00
330
1F
100
AcDbEntity
  8
10
100
AcDbLine
 10
1452.473725870285
 20
761.543014902103
 30
0.0
 11
1449.973725870284
 21
761.543014902103
 31
0.0
  0
LINE
  5
2C01
330
1F
100
AcDbEntity
  8
10
100
AcDbLine
 10
1462.473725870284
 20
776.5430149021033
 30
0.0
 11
1459.973725870284
 21
776.5430149021033
 31
0.0
  0
LINE
  5
2C02
330
1F
100
AcDbEntity
  8
10
100
AcDbLine
 10
1462.473725870284
 20
761.543014902103
 30
0.0
 11
1459.973725870284
 21
761.543014902103
 31
0.0
  0
LINE
  5
2C03
330
1F
100
AcDbEntity
  8
10
100
AcDbLine
 10
1457.473725870285
 20
776.5430149021033
 30
0.0
 11
1454.973725870284
 21
776.5430149021033
 31
0.0
  0
LINE
  5
2C04
330
1F
100
AcDbEntity
  8
10
100
AcDbLine
 10
1457.473725870285
 20
761.543014902103
 30
0.0
 11
1454.973725870284
 21
761.543014902103
 31
0.0
  0
LINE
  5
2C05
330
1F
100
AcDbEntity
  8
10
100
AcDbLine
 10
1467.473725870284
 20
776.5430149021033
 30
0.0
 11
1464.973725870285
 21
776.5430149021033
 31
0.0
  0
LINE
  5
2C06
330
1F
100
AcDbEntity
  8
10
100
AcDbLine
 10
1467.473725870284
 20
761.543014902103
 30
0.0
 11
1464.973725870285
 21
761.543014902103
 31
0.0
  0
LINE
  5
2C07
330
1F
100
AcDbEntity
  8
10
100
AcDbLine
 10
1447.473725870285
 20
826.543014902103
 30
0.0
 11
1444.973725870284
 21
826.543014902103
 31
0.0
  0
LINE
  5
2C08
330
1F
100
AcDbEntity
  8
10
100
AcDbLine
 10
1447.473725870285
 20
811.5430149021031
 30
0.0
 11
1444.973725870284
 21
811.5430149021031
 31
0.0
  0
LINE
  5
2C09
330
1F
100
AcDbEntity
  8
10
100
AcDbLine
 10
1442.473725870284
 20
826.543014902103
 30
0.0
 11
1439.973725870284
 21
826.543014902103
 31
0.0
  0
LINE
  5
2C0A
330
1F
100
AcDbEntity
  8
10
100
AcDbLine
 10
1442.473725870284
 20
811.5430149021031
 30
0.0
 11
1439.973725870284
 21
811.5430149021031
 31
0.0
  0
LINE
  5
2C0B
330
1F
100
AcDbEntity
  8
10
100
AcDbLine
 10
1452.473725870285
 20
826.543014902103
 30
0.0
 11
1449.973725870284
 21
826.543014902103
 31
0.0
  0
LINE
  5
2C0C
330
1F
100
AcDbEntity
  8
10
100
AcDbLine
 10
1452.473725870285
 20
811.5430149021031
 30
0.0
 11
1449.973725870284
 21
811.5430149021031
 31
0.0
  0
ARC
  5
2C0D
330
1F
100
AcDbEntity
  8
10
100
AcDbCircle
 10
1446.223725870285
 20
847.7930149021007
 30
0.0
 40
1.25
100
AcDbArc
 50
0.0
 51
180.0
  0
ARC
  5
2C0E
330
1F
100
AcDbEntity
  8
10
100
AcDbCircle
 10
1441.223725870284
 20
847.7930149021007
 30
0.0
 40
1.25
100
AcDbArc
 50
0.0
 51
180.0
  0
ARC
  5
2C0F
330
1F
100
AcDbEntity
  8
10
100
AcDbCircle
 10
1451.223725870284
 20
847.7930149021007
 30
0.0
 40
1.25
100
AcDbArc
 50
0.0
 51
180.0
  0
LINE
  5
2C10
330
1F
100
AcDbEntity
  8
10
100
AcDbLine
 10
1462.473725870284
 20
826.543014902103
 30
0.0
 11
1459.973725870284
 21
826.543014902103
 31
0.0
  0
LINE
  5
2C11
330
1F
100
AcDbEntity
  8
10
100
AcDbLine
 10
1462.473725870284
 20
811.5430149021031
 30
0.0
 11
1459.973725870284
 21
811.5430149021031
 31
0.0
  0
LINE
  5
2C12
330
1F
100
AcDbEntity
  8
10
100
AcDbLine
 10
1457.473725870285
 20
826.543014902103
 30
0.0
 11
1454.973725870284
 21
826.543014902103
 31
0.0
  0
LINE
  5
2C13
330
1F
100
AcDbEntity
  8
10
100
AcDbLine
 10
1457.473725870285
 20
811.5430149021031
 30
0.0
 11
1454.973725870284
 21
811.5430149021031
 31
0.0
  0
LINE
  5
2C14
330
1F
100
AcDbEntity
  8
10
100
AcDbLine
 10
1467.473725870284
 20
826.543014902103
 30
0.0
 11
1464.973725870285
 21
826.543014902103
 31
0.0
  0
LINE
  5
2C15
330
1F
100
AcDbEntity
  8
10
100
AcDbLine
 10
1467.473725870284
 20
811.5430149021031
 30
0.0
 11
1464.973725870285
 21
811.5430149021031
 31
0.0
  0
ARC
  5
2C16
330
1F
100
AcDbEntity
  8
10
100
AcDbCircle
 10
1461.223725870284
 20
847.7930149021007
 30
0.0
 40
1.25
100
AcDbArc
 50
0.0
 51
180.0
  0
ARC
  5
2C17
330
1F
100
AcDbEntity
  8
10
100
AcDbCircle
 10
1456.223725870285
 20
847.7930149021007
 30
0.0
 40
1.25
100
AcDbArc
 50
0.0
 51
180.0
  0
ARC
  5
2C18
330
1F
100
AcDbEntity
  8
10
100
AcDbCircle
 10
1466.223725870285
 20
847.7930149021007
 30
0.0
 40
1.25
100
AcDbArc
 50
0.0
 51
180.0
  0
ARC
  5
2C19
330
1F
100
AcDbEntity
  8
10
100
AcDbCircle
 10
1597.223725870284
 20
646.0430149021028
 30
0.0
 40
20.00000000000001
100
AcDbArc
 50
90.0
 51
180.0
  0
LINE
  5
2C1A
330
1F
100
AcDbEntity
  8
10
100
AcDbLine
 10
1524.973725870284
 20
540.2930149021051
 30
0.0
 11
1524.973725870284
 21
847.7930149021007
 31
0.0
  0
LINE
  5
2C1B
330
1F
100
AcDbEntity
  8
10
100
AcDbLine
 10
1527.473725870285
 20
540.2930149021051
 30
0.0
 11
1527.473725870285
 21
847.7930149021007
 31
0.0
  0
LINE
  5
2C1C
330
1F
100
AcDbEntity
  8
10
100
AcDbLine
 10
1519.973725870285
 20
540.2930149021051
 30
0.0
 11
1519.973725870285
 21
847.7930149021007
 31
0.0
  0
LINE
  5
2C1D
330
1F
100
AcDbEntity
  8
10
100
AcDbLine
 10
1522.473725870284
 20
540.2930149021051
 30
0.0
 11
1522.473725870284
 21
847.7930149021007
 31
0.0
  0
LINE
  5
2C1E
330
1F
100
AcDbEntity
  8
10
100
AcDbLine
 10
1514.973725870285
 20
540.2930149021051
 30
0.0
 11
1514.973725870285
 21
847.7930149021007
 31
0.0
  0
LINE
  5
2C1F
330
1F
100
AcDbEntity
  8
10
100
AcDbLine
 10
1517.473725870284
 20
540.2930149021051
 30
0.0
 11
1517.473725870284
 21
847.7930149021007
 31
0.0
  0
LINE
  5
2C20
330
1F
100
AcDbEntity
  8
10
100
AcDbLine
 10
1509.973725870285
 20
540.2930149021051
 30
0.0
 11
1509.973725870285
 21
847.7930149021007
 31
0.0
  0
LINE
  5
2C21
330
1F
100
AcDbEntity
  8
10
100
AcDbLine
 10
1512.473725870284
 20
540.2930149021051
 30
0.0
 11
1512.473725870284
 21
847.7930149021007
 31
0.0
  0
LINE
  5
2C22
330
1F
100
AcDbEntity
  8
10
100
AcDbLine
 10
1504.973725870284
 20
540.2930149021051
 30
0.0
 11
1504.973725870284
 21
847.7930149021007
 31
0.0
  0
LINE
  5
2C23
330
1F
100
AcDbEntity
  8
10
100
AcDbLine
 10
1507.473725870284
 20
540.2930149021051
 30
0.0
 11
1507.473725870284
 21
847.7930149021007
 31
0.0
  0
LINE
  5
2C24
330
1F
100
AcDbEntity
  8
10
100
AcDbLine
 10
1499.973725870284
 20
540.2930149021051
 30
0.0
 11
1499.973725870284
 21
847.7930149021007
 31
0.0
  0
LINE
  5
2C25
330
1F
100
AcDbEntity
  8
10
100
AcDbLine
 10
1502.473725870284
 20
540.2930149021051
 30
0.0
 11
1502.473725870284
 21
847.7930149021007
 31
0.0
  0
LINE
  5
2C26
330
1F
100
AcDbEntity
  8
10
100
AcDbLine
 10
1494.973725870284
 20
540.2930149021051
 30
0.0
 11
1494.973725870284
 21
847.7930149021007
 31
0.0
  0
LINE
  5
2C27
330
1F
100
AcDbEntity
  8
10
100
AcDbLine
 10
1497.473725870285
 20
540.2930149021051
 30
0.0
 11
1497.473725870285
 21
847.7930149021007
 31
0.0
  0
LINE
  5
2C28
330
1F
100
AcDbEntity
  8
10
100
AcDbLine
 10
1489.973725870284
 20
540.2930149021051
 30
0.0
 11
1489.973725870284
 21
847.7930149021007
 31
0.0
  0
LINE
  5
2C29
330
1F
100
AcDbEntity
  8
10
100
AcDbLine
 10
1492.473725870284
 20
540.2930149021051
 30
0.0
 11
1492.473725870284
 21
847.7930149021007
 31
0.0
  0
LINE
  5
2C2A
330
1F
100
AcDbEntity
  8
10
100
AcDbLine
 10
1484.973725870284
 20
540.2930149021051
 30
0.0
 11
1484.973725870284
 21
847.7930149021007
 31
0.0
  0
LINE
  5
2C2B
330
1F
100
AcDbEntity
  8
10
100
AcDbLine
 10
1487.473725870285
 20
540.2930149021051
 30
0.0
 11
1487.473725870285
 21
847.7930149021007
 31
0.0
  0
LINE
  5
2C2C
330
1F
100
AcDbEntity
  8
10
100
AcDbLine
 10
1479.973725870284
 20
540.2930149021051
 30
0.0
 11
1479.973725870284
 21
847.7930149021007
 31
0.0
  0
LINE
  5
2C2D
330
1F
100
AcDbEntity
  8
10
100
AcDbLine
 10
1482.473725870284
 20
540.2930149021051
 30
0.0
 11
1482.473725870284
 21
847.7930149021007
 31
0.0
  0
LINE
  5
2C2E
330
1F
100
AcDbEntity
  8
10
100
AcDbLine
 10
1474.973725870285
 20
540.2930149021051
 30
0.0
 11
1474.973725870285
 21
847.7930149021007
 31
0.0
  0
LINE
  5
2C2F
330
1F
100
AcDbEntity
  8
10
100
AcDbLine
 10
1477.473725870285
 20
540.2930149021051
 30
0.0
 11
1477.473725870285
 21
847.7930149021007
 31
0.0
  0
LINE
  5
2C30
330
1F
100
AcDbEntity
  8
10
100
AcDbLine
 10
1472.473725870284
 20
540.2930149021051
 30
0.0
 11
1472.473725870284
 21
847.7930149021007
 31
0.0
  0
LINE
  5
2C31
330
1F
100
AcDbEntity
  8
10
100
AcDbLine
 10
1535.223725870284
 20
504.0430149021032
 30
0.0
 11
1545.223725870285
 21
504.0430149021032
 31
0.0
  0
ARC
  5
2C32
330
1F
100
AcDbEntity
  8
10
100
AcDbCircle
 10
1486.223725870284
 20
540.2930149021051
 30
0.0
 40
1.25
100
AcDbArc
 50
180.0
 51
0.0
  0
ARC
  5
2C33
330
1F
100
AcDbEntity
  8
10
100
AcDbCircle
 10
1476.223725870284
 20
540.2930149021051
 30
0.0
 40
1.25
100
AcDbArc
 50
180.0
 51
0.0
  0
ARC
  5
2C34
330
1F
100
AcDbEntity
  8
10
100
AcDbCircle
 10
1481.223725870284
 20
540.2930149021051
 30
0.0
 40
1.25
100
AcDbArc
 50
180.0
 51
0.0
  0
ARC
  5
2C35
330
1F
100
AcDbEntity
  8
10
100
AcDbCircle
 10
1496.223725870285
 20
540.2930149021051
 30
0.0
 40
1.25
100
AcDbArc
 50
180.0
 51
0.0
  0
ARC
  5
2C36
330
1F
100
AcDbEntity
  8
10
100
AcDbCircle
 10
1491.223725870284
 20
540.2930149021051
 30
0.0
 40
1.25
100
AcDbArc
 50
180.0
 51
0.0
  0
ARC
  5
2C37
330
1F
100
AcDbEntity
  8
10
100
AcDbCircle
 10
1501.223725870285
 20
540.2930149021051
 30
0.0
 40
1.25
100
AcDbArc
 50
180.0
 51
0.0
  0
LINE
  5
2C38
330
1F
100
AcDbEntity
  8
10
100
AcDbLine
 10
1535.223725870284
 20
504.0430149021032
 30
0.0
 11
1535.223725870284
 21
509.0430149021027
 31
0.0
  0
ARC
  5
2C39
330
1F
100
AcDbEntity
  8
10
100
AcDbCircle
 10
1521.223725870284
 20
540.2930149021051
 30
0.0
 40
1.25
100
AcDbArc
 50
180.0
 51
0.0
  0
ARC
  5
2C3A
330
1F
100
AcDbEntity
  8
10
100
AcDbCircle
 10
1511.223725870284
 20
540.2930149021051
 30
0.0
 40
1.25
100
AcDbArc
 50
180.0
 51
0.0
  0
ARC
  5
2C3B
330
1F
100
AcDbEntity
  8
10
100
AcDbCircle
 10
1506.223725870285
 20
540.2930149021051
 30
0.0
 40
1.25
100
AcDbArc
 50
180.0
 51
0.0
  0
ARC
  5
2C3C
330
1F
100
AcDbEntity
  8
10
100
AcDbCircle
 10
1516.223725870284
 20
540.2930149021051
 30
0.0
 40
1.25
100
AcDbArc
 50
180.0
 51
0.0
  0
LINE
  5
2C3D
330
1F
100
AcDbEntity
  8
10
100
AcDbLine
 10
1532.223725870284
 20
509.0430149021027
 30
0.0
 11
1536.723725870285
 21
509.0430149021027
 31
0.0
  0
ARC
  5
2C3E
330
1F
100
AcDbEntity
  8
10
100
AcDbCircle
 10
1526.223725870284
 20
540.2930149021051
 30
0.0
 40
1.25
100
AcDbArc
 50
180.0
 51
0.0
  0
LINE
  5
2C3F
330
1F
100
AcDbEntity
  8
10
100
AcDbLine
 10
1487.473725870285
 20
576.5430149021031
 30
0.0
 11
1484.973725870284
 21
576.5430149021031
 31
0.0
  0
LINE
  5
2C40
330
1F
100
AcDbEntity
  8
10
100
AcDbLine
 10
1487.473725870285
 20
561.543014902103
 30
0.0
 11
1484.973725870284
 21
561.543014902103
 31
0.0
  0
LINE
  5
2C41
330
1F
100
AcDbEntity
  8
10
100
AcDbLine
 10
1477.473725870285
 20
576.5430149021031
 30
0.0
 11
1474.973725870285
 21
576.5430149021031
 31
0.0
  0
LINE
  5
2C42
330
1F
100
AcDbEntity
  8
10
100
AcDbLine
 10
1477.473725870285
 20
561.543014902103
 30
0.0
 11
1474.973725870285
 21
561.543014902103
 31
0.0
  0
LINE
  5
2C43
330
1F
100
AcDbEntity
  8
10
100
AcDbLine
 10
1482.473725870284
 20
576.5430149021031
 30
0.0
 11
1479.973725870284
 21
576.5430149021031
 31
0.0
  0
LINE
  5
2C44
330
1F
100
AcDbEntity
  8
10
100
AcDbLine
 10
1482.473725870284
 20
561.543014902103
 30
0.0
 11
1479.973725870284
 21
561.543014902103
 31
0.0
  0
LINE
  5
2C45
330
1F
100
AcDbEntity
  8
10
100
AcDbLine
 10
1497.473725870285
 20
576.5430149021031
 30
0.0
 11
1494.973725870284
 21
576.5430149021031
 31
0.0
  0
LINE
  5
2C46
330
1F
100
AcDbEntity
  8
10
100
AcDbLine
 10
1497.473725870285
 20
561.543014902103
 30
0.0
 11
1494.973725870284
 21
561.543014902103
 31
0.0
  0
LINE
  5
2C47
330
1F
100
AcDbEntity
  8
10
100
AcDbLine
 10
1492.473725870284
 20
576.5430149021031
 30
0.0
 11
1489.973725870284
 21
576.5430149021031
 31
0.0
  0
LINE
  5
2C48
330
1F
100
AcDbEntity
  8
10
100
AcDbLine
 10
1492.473725870284
 20
561.543014902103
 30
0.0
 11
1489.973725870284
 21
561.543014902103
 31
0.0
  0
LINE
  5
2C49
330
1F
100
AcDbEntity
  8
10
100
AcDbLine
 10
1502.473725870284
 20
576.5430149021031
 30
0.0
 11
1499.973725870284
 21
576.5430149021031
 31
0.0
  0
LINE
  5
2C4A
330
1F
100
AcDbEntity
  8
10
100
AcDbLine
 10
1502.473725870284
 20
561.543014902103
 30
0.0
 11
1499.973725870284
 21
561.543014902103
 31
0.0
  0
LINE
  5
2C4B
330
1F
100
AcDbEntity
  8
10
100
AcDbLine
 10
1487.473725870285
 20
626.5430149021031
 30
0.0
 11
1484.973725870284
 21
626.5430149021031
 31
0.0
  0
LINE
  5
2C4C
330
1F
100
AcDbEntity
  8
10
100
AcDbLine
 10
1487.473725870285
 20
611.543014902103
 30
0.0
 11
1484.973725870284
 21
611.543014902103
 31
0.0
  0
LINE
  5
2C4D
330
1F
100
AcDbEntity
  8
10
100
AcDbLine
 10
1477.473725870285
 20
626.5430149021031
 30
0.0
 11
1474.973725870285
 21
626.5430149021031
 31
0.0
  0
LINE
  5
2C4E
330
1F
100
AcDbEntity
  8
10
100
AcDbLine
 10
1477.473725870285
 20
611.543014902103
 30
0.0
 11
1474.973725870285
 21
611.543014902103
 31
0.0
  0
LINE
  5
2C4F
330
1F
100
AcDbEntity
  8
10
100
AcDbLine
 10
1482.473725870284
 20
626.5430149021031
 30
0.0
 11
1479.973725870284
 21
626.5430149021031
 31
0.0
  0
LINE
  5
2C50
330
1F
100
AcDbEntity
  8
10
100
AcDbLine
 10
1482.473725870284
 20
611.543014902103
 30
0.0
 11
1479.973725870284
 21
611.543014902103
 31
0.0
  0
LINE
  5
2C51
330
1F
100
AcDbEntity
  8
10
100
AcDbLine
 10
1497.473725870285
 20
626.5430149021031
 30
0.0
 11
1494.973725870284
 21
626.5430149021031
 31
0.0
  0
LINE
  5
2C52
330
1F
100
AcDbEntity
  8
10
100
AcDbLine
 10
1497.473725870285
 20
611.543014902103
 30
0.0
 11
1494.973725870284
 21
611.543014902103
 31
0.0
  0
LINE
  5
2C53
330
1F
100
AcDbEntity
  8
10
100
AcDbLine
 10
1492.473725870284
 20
626.5430149021031
 30
0.0
 11
1489.973725870284
 21
626.5430149021031
 31
0.0
  0
LINE
  5
2C54
330
1F
100
AcDbEntity
  8
10
100
AcDbLine
 10
1492.473725870284
 20
611.543014902103
 30
0.0
 11
1489.973725870284
 21
611.543014902103
 31
0.0
  0
LINE
  5
2C55
330
1F
100
AcDbEntity
  8
10
100
AcDbLine
 10
1502.473725870284
 20
626.5430149021031
 30
0.0
 11
1499.973725870284
 21
626.5430149021031
 31
0.0
  0
LINE
  5
2C56
330
1F
100
AcDbEntity
  8
10
100
AcDbLine
 10
1502.473725870284
 20
611.543014902103
 30
0.0
 11
1499.973725870284
 21
611.543014902103
 31
0.0
  0
LINE
  5
2C57
330
1F
100
AcDbEntity
  8
10
100
AcDbLine
 10
1522.473725870284
 20
576.5430149021031
 30
0.0
 11
1519.973725870285
 21
576.5430149021031
 31
0.0
  0
LINE
  5
2C58
330
1F
100
AcDbEntity
  8
10
100
AcDbLine
 10
1522.473725870284
 20
561.543014902103
 30
0.0
 11
1519.973725870285
 21
561.543014902103
 31
0.0
  0
LINE
  5
2C59
330
1F
100
AcDbEntity
  8
10
100
AcDbLine
 10
1512.473725870284
 20
576.5430149021031
 30
0.0
 11
1509.973725870285
 21
576.5430149021031
 31
0.0
  0
LINE
  5
2C5A
330
1F
100
AcDbEntity
  8
10
100
AcDbLine
 10
1512.473725870284
 20
561.543014902103
 30
0.0
 11
1509.973725870285
 21
561.543014902103
 31
0.0
  0
LINE
  5
2C5B
330
1F
100
AcDbEntity
  8
10
100
AcDbLine
 10
1507.473725870284
 20
576.5430149021031
 30
0.0
 11
1504.973725870284
 21
576.5430149021031
 31
0.0
  0
LINE
  5
2C5C
330
1F
100
AcDbEntity
  8
10
100
AcDbLine
 10
1507.473725870284
 20
561.543014902103
 30
0.0
 11
1504.973725870284
 21
561.543014902103
 31
0.0
  0
LINE
  5
2C5D
330
1F
100
AcDbEntity
  8
10
100
AcDbLine
 10
1517.473725870284
 20
576.5430149021031
 30
0.0
 11
1514.973725870285
 21
576.5430149021031
 31
0.0
  0
LINE
  5
2C5E
330
1F
100
AcDbEntity
  8
10
100
AcDbLine
 10
1517.473725870284
 20
561.543014902103
 30
0.0
 11
1514.973725870285
 21
561.543014902103
 31
0.0
  0
LINE
  5
2C5F
330
1F
100
AcDbEntity
  8
10
100
AcDbLine
 10
1527.473725870285
 20
576.5430149021031
 30
0.0
 11
1524.973725870284
 21
576.5430149021031
 31
0.0
  0
LINE
  5
2C60
330
1F
100
AcDbEntity
  8
10
100
AcDbLine
 10
1527.473725870285
 20
561.543014902103
 30
0.0
 11
1524.973725870284
 21
561.543014902103
 31
0.0
  0
LINE
  5
2C61
330
1F
100
AcDbEntity
  8
10
100
AcDbLine
 10
1522.473725870284
 20
626.5430149021031
 30
0.0
 11
1519.973725870285
 21
626.5430149021031
 31
0.0
  0
LINE
  5
2C62
330
1F
100
AcDbEntity
  8
10
100
AcDbLine
 10
1522.473725870284
 20
611.543014902103
 30
0.0
 11
1519.973725870285
 21
611.543014902103
 31
0.0
  0
LINE
  5
2C63
330
1F
100
AcDbEntity
  8
10
100
AcDbLine
 10
1512.473725870284
 20
626.5430149021031
 30
0.0
 11
1509.973725870285
 21
626.5430149021031
 31
0.0
  0
LINE
  5
2C64
330
1F
100
AcDbEntity
  8
10
100
AcDbLine
 10
1512.473725870284
 20
611.543014902103
 30
0.0
 11
1509.973725870285
 21
611.543014902103
 31
0.0
  0
LINE
  5
2C65
330
1F
100
AcDbEntity
  8
10
100
AcDbLine
 10
1507.473725870284
 20
626.5430149021031
 30
0.0
 11
1504.973725870284
 21
626.5430149021031
 31
0.0
  0
LINE
  5
2C66
330
1F
100
AcDbEntity
  8
10
100
AcDbLine
 10
1507.473725870284
 20
611.543014902103
 30
0.0
 11
1504.973725870284
 21
611.543014902103
 31
0.0
  0
LINE
  5
2C67
330
1F
100
AcDbEntity
  8
10
100
AcDbLine
 10
1517.473725870284
 20
626.5430149021031
 30
0.0
 11
1514.973725870285
 21
626.5430149021031
 31
0.0
  0
LINE
  5
2C68
330
1F
100
AcDbEntity
  8
10
100
AcDbLine
 10
1517.473725870284
 20
611.543014902103
 30
0.0
 11
1514.973725870285
 21
611.543014902103
 31
0.0
  0
LINE
  5
2C69
330
1F
100
AcDbEntity
  8
10
100
AcDbLine
 10
1527.473725870285
 20
626.5430149021031
 30
0.0
 11
1524.973725870284
 21
626.5430149021031
 31
0.0
  0
LINE
  5
2C6A
330
1F
100
AcDbEntity
  8
10
100
AcDbLine
 10
1527.473725870285
 20
611.543014902103
 30
0.0
 11
1524.973725870284
 21
611.543014902103
 31
0.0
  0
LINE
  5
2C6B
330
1F
100
AcDbEntity
  8
10
 48
3.0
100
AcDbLine
 10
1554.173725870285
 20
532.543014902103
 30
0.0
 11
1554.173725870285
 21
557.543014902103
 31
0.0
  0
ARC
  5
2C6C
330
1F
100
AcDbEntity
  8
10
100
AcDbCircle
 10
1597.223725870284
 20
571.0430149021028
 30
0.0
 40
20.00000000000001
100
AcDbArc
 50
180.0
 51
270.0
  0
TEXT
  5
2C6D
330
1F
100
AcDbEntity
  8
10
100
AcDbText
 10
1556.391225444057
 20
533.7430162333552
 30
0.0
 40
7.999999863760817
  1
ＦＡＮ
 50
0.0000025044784726
 41
0.744047631718675
  7
STANDARD1
100
AcDbText
  0
LINE
  5
2C6E
330
1F
100
AcDbEntity
  8
10
100
AcDbLine
 10
1545.223725870285
 20
504.0430149021029
 30
0.0
 11
1568.955752014075
 21
504.0430149021029
 31
0.0
  0
LINE
  5
2C6F
330
1F
100
AcDbEntity
  8
10
100
AcDbLine
 10
1545.223725870285
 20
506.3430149021026
 30
0.0
 11
1554.223725870286
 21
506.3430149021026
 31
0.0
  0
LINE
  5
2C70
330
1F
100
AcDbEntity
  8
10
100
AcDbLine
 10
1594.173725870285
 20
547.5430149021032
 30
0.0
 11
1598.883760155999
 21
542.2109006163887
 31
0.0
  0
LINE
  5
2C71
330
1F
100
AcDbEntity
  8
10
100
AcDbLine
 10
1596.262137298855
 20
542.2109006163887
 30
0.0
 11
1598.883760155999
 21
542.2109006163887
 31
0.0
  0
LINE
  5
2C72
330
1F
100
AcDbEntity
  8
10
100
AcDbLine
 10
1596.262137298855
 20
536.3455749021031
 30
0.0
 11
1592.085314441712
 21
536.3455749021031
 31
0.0
  0
LINE
  5
2C73
330
1F
100
AcDbEntity
  8
10
100
AcDbLine
 10
1594.173725870285
 20
547.5430149021032
 30
0.0
 11
1589.463691584571
 21
542.2109006163887
 31
0.0
  0
LINE
  5
2C74
330
1F
100
AcDbEntity
  8
10
100
AcDbLine
 10
1589.463691584571
 20
542.2109006163887
 30
0.0
 11
1592.085314441712
 21
542.2109006163887
 31
0.0
  0
LINE
  5
2C75
330
1F
100
AcDbEntity
  8
10
100
AcDbLine
 10
1592.085314441712
 20
536.3455749021031
 30
0.0
 11
1592.085314441712
 21
542.2109006163887
 31
0.0
  0
LINE
  5
2C76
330
1F
100
AcDbEntity
  8
10
100
AcDbLine
 10
1596.262137298855
 20
536.3455749021031
 30
0.0
 11
1596.262137298855
 21
542.2109006163887
 31
0.0
  0
LINE
  5
2C77
330
1F
100
AcDbEntity
  8
10
 48
3.0
100
AcDbLine
 10
1554.173725870285
 20
557.543014902103
 30
0.0
 11
1582.46737130691
 21
557.543014902103
 31
0.0
  0
LINE
  5
2C78
330
1F
100
AcDbEntity
  8
10
100
AcDbLine
 10
1577.223725870284
 20
571.0430149021028
 30
0.0
 11
1577.223725870284
 21
646.0430149021028
 31
0.0
  0
LINE
  5
2C79
330
1F
100
AcDbEntity
  8
10
100
AcDbLine
 10
1487.473725870285
 20
676.5430149021033
 30
0.0
 11
1484.973725870284
 21
676.5430149021033
 31
0.0
  0
LINE
  5
2C7A
330
1F
100
AcDbEntity
  8
10
100
AcDbLine
 10
1487.473725870285
 20
661.543014902103
 30
0.0
 11
1484.973725870284
 21
661.543014902103
 31
0.0
  0
LINE
  5
2C7B
330
1F
100
AcDbEntity
  8
10
100
AcDbLine
 10
1477.473725870285
 20
676.5430149021033
 30
0.0
 11
1474.973725870285
 21
676.5430149021033
 31
0.0
  0
LINE
  5
2C7C
330
1F
100
AcDbEntity
  8
10
100
AcDbLine
 10
1477.473725870285
 20
661.543014902103
 30
0.0
 11
1474.973725870285
 21
661.543014902103
 31
0.0
  0
LINE
  5
2C7D
330
1F
100
AcDbEntity
  8
10
100
AcDbLine
 10
1482.473725870284
 20
676.5430149021033
 30
0.0
 11
1479.973725870284
 21
676.5430149021033
 31
0.0
  0
LINE
  5
2C7E
330
1F
100
AcDbEntity
  8
10
100
AcDbLine
 10
1482.473725870284
 20
661.543014902103
 30
0.0
 11
1479.973725870284
 21
661.543014902103
 31
0.0
  0
LINE
  5
2C7F
330
1F
100
AcDbEntity
  8
10
100
AcDbLine
 10
1497.473725870285
 20
676.5430149021033
 30
0.0
 11
1494.973725870284
 21
676.5430149021033
 31
0.0
  0
LINE
  5
2C80
330
1F
100
AcDbEntity
  8
10
100
AcDbLine
 10
1497.473725870285
 20
661.543014902103
 30
0.0
 11
1494.973725870284
 21
661.543014902103
 31
0.0
  0
LINE
  5
2C81
330
1F
100
AcDbEntity
  8
10
100
AcDbLine
 10
1492.473725870284
 20
676.5430149021033
 30
0.0
 11
1489.973725870284
 21
676.5430149021033
 31
0.0
  0
LINE
  5
2C82
330
1F
100
AcDbEntity
  8
10
100
AcDbLine
 10
1492.473725870284
 20
661.543014902103
 30
0.0
 11
1489.973725870284
 21
661.543014902103
 31
0.0
  0
LINE
  5
2C83
330
1F
100
AcDbEntity
  8
10
100
AcDbLine
 10
1502.473725870284
 20
676.5430149021033
 30
0.0
 11
1499.973725870284
 21
676.5430149021033
 31
0.0
  0
LINE
  5
2C84
330
1F
100
AcDbEntity
  8
10
100
AcDbLine
 10
1502.473725870284
 20
661.543014902103
 30
0.0
 11
1499.973725870284
 21
661.543014902103
 31
0.0
  0
LINE
  5
2C85
330
1F
100
AcDbEntity
  8
10
100
AcDbLine
 10
1487.473725870285
 20
726.5430149021033
 30
0.0
 11
1484.973725870284
 21
726.5430149021033
 31
0.0
  0
LINE
  5
2C86
330
1F
100
AcDbEntity
  8
10
100
AcDbLine
 10
1487.473725870285
 20
711.543014902103
 30
0.0
 11
1484.973725870284
 21
711.543014902103
 31
0.0
  0
LINE
  5
2C87
330
1F
100
AcDbEntity
  8
10
100
AcDbLine
 10
1477.473725870285
 20
726.5430149021033
 30
0.0
 11
1474.973725870285
 21
726.5430149021033
 31
0.0
  0
LINE
  5
2C88
330
1F
100
AcDbEntity
  8
10
100
AcDbLine
 10
1477.473725870285
 20
711.543014902103
 30
0.0
 11
1474.973725870285
 21
711.543014902103
 31
0.0
  0
LINE
  5
2C89
330
1F
100
AcDbEntity
  8
10
100
AcDbLine
 10
1482.473725870284
 20
726.5430149021033
 30
0.0
 11
1479.973725870284
 21
726.5430149021033
 31
0.0
  0
LINE
  5
2C8A
330
1F
100
AcDbEntity
  8
10
100
AcDbLine
 10
1482.473725870284
 20
711.543014902103
 30
0.0
 11
1479.973725870284
 21
711.543014902103
 31
0.0
  0
LINE
  5
2C8B
330
1F
100
AcDbEntity
  8
10
100
AcDbLine
 10
1497.473725870285
 20
726.5430149021033
 30
0.0
 11
1494.973725870284
 21
726.5430149021033
 31
0.0
  0
LINE
  5
2C8C
330
1F
100
AcDbEntity
  8
10
100
AcDbLine
 10
1497.473725870285
 20
711.543014902103
 30
0.0
 11
1494.973725870284
 21
711.543014902103
 31
0.0
  0
LINE
  5
2C8D
330
1F
100
AcDbEntity
  8
10
100
AcDbLine
 10
1492.473725870284
 20
726.5430149021033
 30
0.0
 11
1489.973725870284
 21
726.5430149021033
 31
0.0
  0
LINE
  5
2C8E
330
1F
100
AcDbEntity
  8
10
100
AcDbLine
 10
1492.473725870284
 20
711.543014902103
 30
0.0
 11
1489.973725870284
 21
711.543014902103
 31
0.0
  0
LINE
  5
2C8F
330
1F
100
AcDbEntity
  8
10
100
AcDbLine
 10
1502.473725870284
 20
726.5430149021033
 30
0.0
 11
1499.973725870284
 21
726.5430149021033
 31
0.0
  0
LINE
  5
2C90
330
1F
100
AcDbEntity
  8
10
100
AcDbLine
 10
1502.473725870284
 20
711.543014902103
 30
0.0
 11
1499.973725870284
 21
711.543014902103
 31
0.0
  0
LINE
  5
2C91
330
1F
100
AcDbEntity
  8
10
100
AcDbLine
 10
1522.473725870284
 20
676.5430149021033
 30
0.0
 11
1519.973725870285
 21
676.5430149021033
 31
0.0
  0
LINE
  5
2C92
330
1F
100
AcDbEntity
  8
10
100
AcDbLine
 10
1522.473725870284
 20
661.543014902103
 30
0.0
 11
1519.973725870285
 21
661.543014902103
 31
0.0
  0
LINE
  5
2C93
330
1F
100
AcDbEntity
  8
10
100
AcDbLine
 10
1512.473725870284
 20
676.5430149021033
 30
0.0
 11
1509.973725870285
 21
676.5430149021033
 31
0.0
  0
LINE
  5
2C94
330
1F
100
AcDbEntity
  8
10
100
AcDbLine
 10
1512.473725870284
 20
661.543014902103
 30
0.0
 11
1509.973725870285
 21
661.543014902103
 31
0.0
  0
LINE
  5
2C95
330
1F
100
AcDbEntity
  8
10
100
AcDbLine
 10
1507.473725870284
 20
676.5430149021033
 30
0.0
 11
1504.973725870284
 21
676.5430149021033
 31
0.0
  0
LINE
  5
2C96
330
1F
100
AcDbEntity
  8
10
100
AcDbLine
 10
1507.473725870284
 20
661.543014902103
 30
0.0
 11
1504.973725870284
 21
661.543014902103
 31
0.0
  0
LINE
  5
2C97
330
1F
100
AcDbEntity
  8
10
100
AcDbLine
 10
1517.473725870284
 20
676.5430149021033
 30
0.0
 11
1514.973725870285
 21
676.5430149021033
 31
0.0
  0
LINE
  5
2C98
330
1F
100
AcDbEntity
  8
10
100
AcDbLine
 10
1517.473725870284
 20
661.543014902103
 30
0.0
 11
1514.973725870285
 21
661.543014902103
 31
0.0
  0
LINE
  5
2C99
330
1F
100
AcDbEntity
  8
10
100
AcDbLine
 10
1527.473725870285
 20
676.5430149021033
 30
0.0
 11
1524.973725870284
 21
676.5430149021033
 31
0.0
  0
LINE
  5
2C9A
330
1F
100
AcDbEntity
  8
10
100
AcDbLine
 10
1527.473725870285
 20
661.543014902103
 30
0.0
 11
1524.973725870284
 21
661.543014902103
 31
0.0
  0
LINE
  5
2C9B
330
1F
100
AcDbEntity
  8
10
100
AcDbLine
 10
1522.473725870284
 20
726.5430149021033
 30
0.0
 11
1519.973725870285
 21
726.5430149021033
 31
0.0
  0
LINE
  5
2C9C
330
1F
100
AcDbEntity
  8
10
100
AcDbLine
 10
1522.473725870284
 20
711.543014902103
 30
0.0
 11
1519.973725870285
 21
711.543014902103
 31
0.0
  0
LINE
  5
2C9D
330
1F
100
AcDbEntity
  8
10
100
AcDbLine
 10
1512.473725870284
 20
726.5430149021033
 30
0.0
 11
1509.973725870285
 21
726.5430149021033
 31
0.0
  0
LINE
  5
2C9E
330
1F
100
AcDbEntity
  8
10
100
AcDbLine
 10
1512.473725870284
 20
711.543014902103
 30
0.0
 11
1509.973725870285
 21
711.543014902103
 31
0.0
  0
LINE
  5
2C9F
330
1F
100
AcDbEntity
  8
10
100
AcDbLine
 10
1507.473725870284
 20
726.5430149021033
 30
0.0
 11
1504.973725870284
 21
726.5430149021033
 31
0.0
  0
LINE
  5
2CA0
330
1F
100
AcDbEntity
  8
10
100
AcDbLine
 10
1507.473725870284
 20
711.543014902103
 30
0.0
 11
1504.973725870284
 21
711.543014902103
 31
0.0
  0
LINE
  5
2CA1
330
1F
100
AcDbEntity
  8
10
100
AcDbLine
 10
1517.473725870284
 20
726.5430149021033
 30
0.0
 11
1514.973725870285
 21
726.5430149021033
 31
0.0
  0
LINE
  5
2CA2
330
1F
100
AcDbEntity
  8
10
100
AcDbLine
 10
1517.473725870284
 20
711.543014902103
 30
0.0
 11
1514.973725870285
 21
711.543014902103
 31
0.0
  0
LINE
  5
2CA3
330
1F
100
AcDbEntity
  8
10
100
AcDbLine
 10
1527.473725870285
 20
726.5430149021033
 30
0.0
 11
1524.973725870284
 21
726.5430149021033
 31
0.0
  0
LINE
  5
2CA4
330
1F
100
AcDbEntity
  8
10
100
AcDbLine
 10
1527.473725870285
 20
711.543014902103
 30
0.0
 11
1524.973725870284
 21
711.543014902103
 31
0.0
  0
LINE
  5
2CA5
330
1F
100
AcDbEntity
  8
10
100
AcDbLine
 10
1487.473725870285
 20
776.5430149021033
 30
0.0
 11
1484.973725870284
 21
776.5430149021033
 31
0.0
  0
LINE
  5
2CA6
330
1F
100
AcDbEntity
  8
10
100
AcDbLine
 10
1487.473725870285
 20
761.543014902103
 30
0.0
 11
1484.973725870284
 21
761.543014902103
 31
0.0
  0
LINE
  5
2CA7
330
1F
100
AcDbEntity
  8
10
100
AcDbLine
 10
1477.473725870285
 20
776.5430149021033
 30
0.0
 11
1474.973725870285
 21
776.5430149021033
 31
0.0
  0
LINE
  5
2CA8
330
1F
100
AcDbEntity
  8
10
100
AcDbLine
 10
1477.473725870285
 20
761.543014902103
 30
0.0
 11
1474.973725870285
 21
761.543014902103
 31
0.0
  0
LINE
  5
2CA9
330
1F
100
AcDbEntity
  8
10
100
AcDbLine
 10
1482.473725870284
 20
776.5430149021033
 30
0.0
 11
1479.973725870284
 21
776.5430149021033
 31
0.0
  0
LINE
  5
2CAA
330
1F
100
AcDbEntity
  8
10
100
AcDbLine
 10
1482.473725870284
 20
761.543014902103
 30
0.0
 11
1479.973725870284
 21
761.543014902103
 31
0.0
  0
LINE
  5
2CAB
330
1F
100
AcDbEntity
  8
10
100
AcDbLine
 10
1497.473725870285
 20
776.5430149021033
 30
0.0
 11
1494.973725870284
 21
776.5430149021033
 31
0.0
  0
LINE
  5
2CAC
330
1F
100
AcDbEntity
  8
10
100
AcDbLine
 10
1497.473725870285
 20
761.543014902103
 30
0.0
 11
1494.973725870284
 21
761.543014902103
 31
0.0
  0
LINE
  5
2CAD
330
1F
100
AcDbEntity
  8
10
100
AcDbLine
 10
1492.473725870284
 20
776.5430149021033
 30
0.0
 11
1489.973725870284
 21
776.5430149021033
 31
0.0
  0
LINE
  5
2CAE
330
1F
100
AcDbEntity
  8
10
100
AcDbLine
 10
1492.473725870284
 20
761.543014902103
 30
0.0
 11
1489.973725870284
 21
761.543014902103
 31
0.0
  0
LINE
  5
2CAF
330
1F
100
AcDbEntity
  8
10
100
AcDbLine
 10
1502.473725870284
 20
776.5430149021033
 30
0.0
 11
1499.973725870284
 21
776.5430149021033
 31
0.0
  0
LINE
  5
2CB0
330
1F
100
AcDbEntity
  8
10
100
AcDbLine
 10
1502.473725870284
 20
761.543014902103
 30
0.0
 11
1499.973725870284
 21
761.543014902103
 31
0.0
  0
LINE
  5
2CB1
330
1F
100
AcDbEntity
  8
10
100
AcDbLine
 10
1487.473725870285
 20
826.543014902103
 30
0.0
 11
1484.973725870284
 21
826.543014902103
 31
0.0
  0
LINE
  5
2CB2
330
1F
100
AcDbEntity
  8
10
100
AcDbLine
 10
1487.473725870285
 20
811.5430149021031
 30
0.0
 11
1484.973725870284
 21
811.5430149021031
 31
0.0
  0
ARC
  5
2CB3
330
1F
100
AcDbEntity
  8
10
100
AcDbCircle
 10
1486.223725870284
 20
847.7930149021007
 30
0.0
 40
1.25
100
AcDbArc
 50
0.0
 51
180.0
  0
LINE
  5
2CB4
330
1F
100
AcDbEntity
  8
10
100
AcDbLine
 10
1477.473725870285
 20
826.543014902103
 30
0.0
 11
1474.973725870285
 21
826.543014902103
 31
0.0
  0
LINE
  5
2CB5
330
1F
100
AcDbEntity
  8
10
100
AcDbLine
 10
1477.473725870285
 20
811.5430149021031
 30
0.0
 11
1474.973725870285
 21
811.5430149021031
 31
0.0
  0
LINE
  5
2CB6
330
1F
100
AcDbEntity
  8
10
100
AcDbLine
 10
1482.473725870284
 20
826.543014902103
 30
0.0
 11
1479.973725870284
 21
826.543014902103
 31
0.0
  0
LINE
  5
2CB7
330
1F
100
AcDbEntity
  8
10
100
AcDbLine
 10
1482.473725870284
 20
811.5430149021031
 30
0.0
 11
1479.973725870284
 21
811.5430149021031
 31
0.0
  0
ARC
  5
2CB8
330
1F
100
AcDbEntity
  8
10
100
AcDbCircle
 10
1476.223725870284
 20
847.7930149021007
 30
0.0
 40
1.25
100
AcDbArc
 50
0.0
 51
180.0
  0
ARC
  5
2CB9
330
1F
100
AcDbEntity
  8
10
100
AcDbCircle
 10
1481.223725870284
 20
847.7930149021007
 30
0.0
 40
1.25
100
AcDbArc
 50
0.0
 51
180.0
  0
LINE
  5
2CBA
330
1F
100
AcDbEntity
  8
10
100
AcDbLine
 10
1497.473725870285
 20
826.543014902103
 30
0.0
 11
1494.973725870284
 21
826.543014902103
 31
0.0
  0
LINE
  5
2CBB
330
1F
100
AcDbEntity
  8
10
100
AcDbLine
 10
1497.473725870285
 20
811.5430149021031
 30
0.0
 11
1494.973725870284
 21
811.5430149021031
 31
0.0
  0
LINE
  5
2CBC
330
1F
100
AcDbEntity
  8
10
100
AcDbLine
 10
1492.473725870284
 20
826.543014902103
 30
0.0
 11
1489.973725870284
 21
826.543014902103
 31
0.0
  0
LINE
  5
2CBD
330
1F
100
AcDbEntity
  8
10
100
AcDbLine
 10
1492.473725870284
 20
811.5430149021031
 30
0.0
 11
1489.973725870284
 21
811.5430149021031
 31
0.0
  0
LINE
  5
2CBE
330
1F
100
AcDbEntity
  8
10
100
AcDbLine
 10
1502.473725870284
 20
826.543014902103
 30
0.0
 11
1499.973725870284
 21
826.543014902103
 31
0.0
  0
LINE
  5
2CBF
330
1F
100
AcDbEntity
  8
10
100
AcDbLine
 10
1502.473725870284
 20
811.5430149021031
 30
0.0
 11
1499.973725870284
 21
811.5430149021031
 31
0.0
  0
ARC
  5
2CC0
330
1F
100
AcDbEntity
  8
10
100
AcDbCircle
 10
1496.223725870285
 20
847.7930149021007
 30
0.0
 40
1.25
100
AcDbArc
 50
0.0
 51
180.0
  0
ARC
  5
2CC1
330
1F
100
AcDbEntity
  8
10
100
AcDbCircle
 10
1491.223725870284
 20
847.7930149021007
 30
0.0
 40
1.25
100
AcDbArc
 50
0.0
 51
180.0
  0
ARC
  5
2CC2
330
1F
100
AcDbEntity
  8
10
100
AcDbCircle
 10
1501.223725870285
 20
847.7930149021007
 30
0.0
 40
1.25
100
AcDbArc
 50
0.0
 51
180.0
  0
LINE
  5
2CC3
330
1F
100
AcDbEntity
  8
10
100
AcDbLine
 10
1522.473725870284
 20
776.5430149021033
 30
0.0
 11
1519.973725870285
 21
776.5430149021033
 31
0.0
  0
LINE
  5
2CC4
330
1F
100
AcDbEntity
  8
10
100
AcDbLine
 10
1522.473725870284
 20
761.543014902103
 30
0.0
 11
1519.973725870285
 21
761.543014902103
 31
0.0
  0
LINE
  5
2CC5
330
1F
100
AcDbEntity
  8
10
100
AcDbLine
 10
1512.473725870284
 20
776.5430149021033
 30
0.0
 11
1509.973725870285
 21
776.5430149021033
 31
0.0
  0
LINE
  5
2CC6
330
1F
100
AcDbEntity
  8
10
100
AcDbLine
 10
1512.473725870284
 20
761.543014902103
 30
0.0
 11
1509.973725870285
 21
761.543014902103
 31
0.0
  0
LINE
  5
2CC7
330
1F
100
AcDbEntity
  8
10
100
AcDbLine
 10
1507.473725870284
 20
776.5430149021033
 30
0.0
 11
1504.973725870284
 21
776.5430149021033
 31
0.0
  0
LINE
  5
2CC8
330
1F
100
AcDbEntity
  8
10
100
AcDbLine
 10
1507.473725870284
 20
761.543014902103
 30
0.0
 11
1504.973725870284
 21
761.543014902103
 31
0.0
  0
LINE
  5
2CC9
330
1F
100
AcDbEntity
  8
10
100
AcDbLine
 10
1517.473725870284
 20
776.5430149021033
 30
0.0
 11
1514.973725870285
 21
776.5430149021033
 31
0.0
  0
LINE
  5
2CCA
330
1F
100
AcDbEntity
  8
10
100
AcDbLine
 10
1517.473725870284
 20
761.543014902103
 30
0.0
 11
1514.973725870285
 21
761.543014902103
 31
0.0
  0
LINE
  5
2CCB
330
1F
100
AcDbEntity
  8
10
100
AcDbLine
 10
1527.473725870285
 20
776.5430149021033
 30
0.0
 11
1524.973725870284
 21
776.5430149021033
 31
0.0
  0
LINE
  5
2CCC
330
1F
100
AcDbEntity
  8
10
100
AcDbLine
 10
1527.473725870285
 20
761.543014902103
 30
0.0
 11
1524.973725870284
 21
761.543014902103
 31
0.0
  0
LINE
  5
2CCD
330
1F
100
AcDbEntity
  8
10
100
AcDbLine
 10
1522.473725870284
 20
826.543014902103
 30
0.0
 11
1519.973725870285
 21
826.543014902103
 31
0.0
  0
LINE
  5
2CCE
330
1F
100
AcDbEntity
  8
10
100
AcDbLine
 10
1522.473725870284
 20
811.5430149021031
 30
0.0
 11
1519.973725870285
 21
811.5430149021031
 31
0.0
  0
ARC
  5
2CCF
330
1F
100
AcDbEntity
  8
10
100
AcDbCircle
 10
1521.223725870284
 20
847.7930149021007
 30
0.0
 40
1.25
100
AcDbArc
 50
0.0
 51
180.0
  0
LINE
  5
2CD0
330
1F
100
AcDbEntity
  8
10
100
AcDbLine
 10
1512.473725870284
 20
826.543014902103
 30
0.0
 11
1509.973725870285
 21
826.543014902103
 31
0.0
  0
LINE
  5
2CD1
330
1F
100
AcDbEntity
  8
10
100
AcDbLine
 10
1512.473725870284
 20
811.5430149021031
 30
0.0
 11
1509.973725870285
 21
811.5430149021031
 31
0.0
  0
LINE
  5
2CD2
330
1F
100
AcDbEntity
  8
10
100
AcDbLine
 10
1507.473725870284
 20
826.543014902103
 30
0.0
 11
1504.973725870284
 21
826.543014902103
 31
0.0
  0
LINE
  5
2CD3
330
1F
100
AcDbEntity
  8
10
100
AcDbLine
 10
1507.473725870284
 20
811.5430149021031
 30
0.0
 11
1504.973725870284
 21
811.5430149021031
 31
0.0
  0
LINE
  5
2CD4
330
1F
100
AcDbEntity
  8
10
100
AcDbLine
 10
1517.473725870284
 20
826.543014902103
 30
0.0
 11
1514.973725870285
 21
826.543014902103
 31
0.0
  0
LINE
  5
2CD5
330
1F
100
AcDbEntity
  8
10
100
AcDbLine
 10
1517.473725870284
 20
811.5430149021031
 30
0.0
 11
1514.973725870285
 21
811.5430149021031
 31
0.0
  0
ARC
  5
2CD6
330
1F
100
AcDbEntity
  8
10
100
AcDbCircle
 10
1511.223725870284
 20
847.7930149021007
 30
0.0
 40
1.25
100
AcDbArc
 50
0.0
 51
180.0
  0
ARC
  5
2CD7
330
1F
100
AcDbEntity
  8
10
100
AcDbCircle
 10
1506.223725870285
 20
847.7930149021007
 30
0.0
 40
1.25
100
AcDbArc
 50
0.0
 51
180.0
  0
ARC
  5
2CD8
330
1F
100
AcDbEntity
  8
10
100
AcDbCircle
 10
1516.223725870284
 20
847.7930149021007
 30
0.0
 40
1.25
100
AcDbArc
 50
0.0
 51
180.0
  0
LINE
  5
2CD9
330
1F
100
AcDbEntity
  8
10
100
AcDbLine
 10
1527.473725870285
 20
826.543014902103
 30
0.0
 11
1524.973725870284
 21
826.543014902103
 31
0.0
  0
LINE
  5
2CDA
330
1F
100
AcDbEntity
  8
10
100
AcDbLine
 10
1527.473725870285
 20
811.5430149021031
 30
0.0
 11
1524.973725870284
 21
811.5430149021031
 31
0.0
  0
ARC
  5
2CDB
330
1F
100
AcDbEntity
  8
10
100
AcDbCircle
 10
1526.223725870284
 20
847.7930149021007
 30
0.0
 40
1.25
100
AcDbArc
 50
0.0
 51
180.0
  0
LINE
  5
2CDC
330
1F
100
AcDbEntity
  8
10
100
AcDbLine
 10
1577.223725870284
 20
742.0430149021028
 30
0.0
 11
1577.223725870284
 21
817.0430149021028
 31
0.0
  0
ARC
  5
2CDD
330
1F
100
AcDbEntity
  8
10
100
AcDbCircle
 10
1597.223725870284
 20
742.0430149021028
 30
0.0
 40
20.00000000000001
100
AcDbArc
 50
180.0
 51
270.0
  0
ARC
  5
2CDE
330
1F
100
AcDbEntity
  8
10
100
AcDbCircle
 10
1597.223725870284
 20
817.0430149021028
 30
0.0
 40
20.00000000000001
100
AcDbArc
 50
90.0
 51
180.0
  0
LINE
  5
2CDF
330
1F
100
AcDbEntity
  8
10
100
AcDbLine
 10
1432.223725870285
 20
869.0430149021031
 30
0.0
 11
1532.223725870284
 21
879.043014902103
 31
0.0
  0
LINE
  5
2CE0
330
1F
100
AcDbEntity
  8
10
100
AcDbLine
 10
1385.223725870284
 20
869.0430149021031
 30
0.0
 11
1432.223725870285
 21
869.0430149021031
 31
0.0
  0
LINE
  5
2CE1
330
1F
100
AcDbEntity
  8
10
100
AcDbLine
 10
1369.337995431931
 20
868.2628868268228
 30
0.0
 11
1384.723725870284
 21
869.0692187917447
 31
0.0
  0
ARC
  5
2CE2
330
1F
100
AcDbEntity
  8
10
100
AcDbCircle
 10
1369.495003300659
 20
865.2669982225592
 30
0.0
 40
2.999999999999986
100
AcDbArc
 50
92.9999999999991
 51
162.3479617698551
  0
LINE
  5
2CE3
330
1F
100
AcDbEntity
  8
10
100
AcDbLine
 10
1384.723725870284
 20
868.543014902103
 30
0.0
 11
1385.223725870284
 21
868.543014902103
 31
0.0
  0
LINE
  5
2CE4
330
1F
100
AcDbEntity
  8
10
100
AcDbLine
 10
1535.223725870284
 20
884.0430149021031
 30
0.0
 11
1545.223725870285
 21
884.0430149021031
 31
0.0
  0
LINE
  5
2CE5
330
1F
100
AcDbEntity
  8
10
100
AcDbLine
 10
1532.223725870284
 20
879.043014902103
 30
0.0
 11
1536.723725870285
 21
879.043014902103
 31
0.0
  0
LINE
  5
2CE6
330
1F
100
AcDbEntity
  8
10
100
AcDbLine
 10
1535.223725870284
 20
879.043014902103
 30
0.0
 11
1535.223725870284
 21
884.0430149021031
 31
0.0
  0
LINE
  5
2CE7
330
1F
100
AcDbEntity
  8
10
100
AcDbLine
 10
1545.223725870285
 20
884.0430149021033
 30
0.0
 11
1568.955752014075
 21
884.0430149021033
 31
0.0
  0
LINE
  5
2CE8
330
1F
100
AcDbEntity
  8
10
100
AcDbLine
 10
1545.223725870285
 20
881.7430149021033
 30
0.0
 11
1554.223725870286
 21
881.7430149021033
 31
0.0
  0
LINE
  5
2CE9
330
1F
100
AcDbEntity
  8
10
100
AcDbLine
 10
1694.223725870284
 20
491.043014902103
 30
0.0
 11
1694.223725870284
 21
897.0430149021034
 31
0.0
  0
ARC
  5
2CEA
330
1F
100
AcDbEntity
  8
10
100
AcDbCircle
 10
1639.223725870284
 20
646.0430149021028
 30
0.0
 40
20.00000000000001
100
AcDbArc
 50
0.0
 51
90.0
  0
LINE
  5
2CEB
330
1F
100
AcDbEntity
  8
10
100
AcDbLine
 10
1645.723725870301
 20
569.543014902103
 30
0.0
 11
1645.723725870301
 21
664.9572952214752
 31
0.0
  0
LINE
  5
2CED
330
1F
100
AcDbEntity
  8
10
100
AcDbLine
 10
1654.223725870285
 20
491.043014902103
 30
0.0
 11
1695.223725870284
 21
491.043014902103
 31
0.0
  0
ARC
  5
2CEE
330
1F
100
AcDbEntity
  8
10
100
AcDbCircle
 10
1639.223725870284
 20
571.0430149021028
 30
0.0
 40
20.00000000000001
100
AcDbArc
 50
270.0
 51
0.0
  0
LINE
  5
2CEF
330
1F
100
AcDbEntity
  8
10
100
AcDbLine
 10
1624.923725870284
 20
557.543014902103
 30
0.0
 11
1624.923725870284
 21
551.0430149021026
 31
0.0
  0
LINE
  5
2CF0
330
1F
100
AcDbEntity
  8
10
 48
3.0
100
AcDbLine
 10
1634.173725870285
 20
532.543014902103
 30
0.0
 11
1634.173725870285
 21
551.0430149021026
 31
0.0
  0
LINE
  5
2CF1
330
1F
100
AcDbEntity
  8
10
100
AcDbLine
 10
1624.923725870284
 20
559.8430149021029
 30
0.0
 11
1655.793578012049
 21
559.8430149021029
 31
0.0
  0
LINE
  5
2CF2
330
1F
100
AcDbEntity
  8
10
100
AcDbLine
 10
1624.923725870284
 20
557.543014902103
 30
0.0
 11
1653.980080433657
 21
557.543014902103
 31
0.0
  0
LINE
  5
2CF3
330
1F
100
AcDbEntity
  8
10
100
AcDbLine
 10
1629.374665697771
 20
563.1430149021031
 30
0.0
 11
1631.923725870285
 21
563.1430149021031
 31
0.0
  0
LINE
  5
2CF4
330
1F
100
AcDbEntity
  8
10
100
AcDbLine
 10
1627.923725870285
 20
563.1430149021031
 30
0.0
 11
1629.374665697771
 21
563.1430149021031
 31
0.0
  0
LINE
  5
2CF5
330
1F
100
AcDbEntity
  8
10
100
AcDbLine
 10
1627.923725870285
 20
559.8430149021029
 30
0.0
 11
1627.923725870285
 21
563.1430149021031
 31
0.0
  0
LINE
  5
2CF6
330
1F
100
AcDbEntity
  8
10
100
AcDbLine
 10
1624.923725870284
 20
557.543014902103
 30
0.0
 11
1624.923725870284
 21
559.8430149021029
 31
0.0
  0
LINE
  5
2CF7
330
1F
100
AcDbEntity
  8
10
100
AcDbLine
 10
1631.923725870285
 20
559.8430149021029
 30
0.0
 11
1631.923725870285
 21
563.1430149021031
 31
0.0
  0
LINE
  5
2CF8
330
1F
100
AcDbEntity
  8
10
100
AcDbLine
 10
1659.223725870284
 20
571.0430149021028
 30
0.0
 11
1659.223725870284
 21
646.0430149021028
 31
0.0
  0
LINE
  5
2CF9
330
1F
100
AcDbEntity
  8
10
100
AcDbLine
 10
1645.923725870301
 20
599.5430149021029
 30
0.0
 11
1645.923725870301
 21
624.5430149021029
 31
0.0
  0
LINE
  5
2CFA
330
1F
100
AcDbEntity
  8
10
100
AcDbLine
 10
1645.723725870301
 20
599.5430149021029
 30
0.0
 11
1645.923725870301
 21
599.5430149021029
 31
0.0
  0
LINE
  5
2CFB
330
1F
100
AcDbEntity
  8
10
100
AcDbLine
 10
1645.723725870301
 20
624.5430149021029
 30
0.0
 11
1645.923725870301
 21
624.5430149021029
 31
0.0
  0
LINE
  5
2CFC
330
1F
100
AcDbEntity
  8
10
100
AcDbLine
 10
1695.223725870284
 20
489.0430149021028
 30
0.0
 11
1695.223725870284
 21
506.3430149021026
 31
0.0
  0
LINE
  5
2CFD
330
1F
100
AcDbEntity
  8
10
100
AcDbLine
 10
1692.923725870284
 20
489.0430149021028
 30
0.0
 11
1692.923725870284
 21
491.043014902103
 31
0.0
  0
LINE
  5
2CFE
330
1F
100
AcDbEntity
  8
10
100
AcDbLine
 10
1692.923725870284
 20
489.0430149021028
 30
0.0
 11
1695.223725870284
 21
489.0430149021028
 31
0.0
  0
LINE
  5
2CFF
330
1F
100
AcDbEntity
  8
10
100
AcDbLine
 10
1694.223725870284
 20
506.3430149021026
 30
0.0
 11
1695.223725870284
 21
506.3430149021026
 31
0.0
  0
LINE
  5
2D00
330
1F
100
AcDbEntity
  8
10
100
AcDbLine
 10
1659.223725870284
 20
742.0430149021028
 30
0.0
 11
1659.223725870284
 21
817.0430149021028
 31
0.0
  0
LINE
  5
2D01
330
1F
100
AcDbEntity
  8
10
100
AcDbLine
 10
1645.723725870301
 20
723.1287345827305
 30
0.0
 11
1645.723725870301
 21
835.9572952214751
 31
0.0
  0
ARC
  5
2D02
330
1F
100
AcDbEntity
  8
10
100
AcDbCircle
 10
1639.223725870284
 20
742.0430149021028
 30
0.0
 40
20.00000000000001
100
AcDbArc
 50
270.0
 51
0.0
  0
ARC
  5
2D03
330
1F
100
AcDbEntity
  8
10
100
AcDbCircle
 10
1639.223725870284
 20
817.0430149021028
 30
0.0
 40
20.00000000000001
100
AcDbArc
 50
0.0
 51
90.0
  0
LINE
  5
2D04
330
1F
100
AcDbEntity
  8
10
100
AcDbLine
 10
1654.223725870285
 20
897.0430149021034
 30
0.0
 11
1695.223725870284
 21
897.0430149021034
 31
0.0
  0
LINE
  5
2D05
330
1F
100
AcDbEntity
  8
10
100
AcDbLine
 10
1695.223725870284
 20
899.0430149021035
 30
0.0
 11
1695.223725870284
 21
881.7430149021037
 31
0.0
  0
LINE
  5
2D06
330
1F
100
AcDbEntity
  8
10
100
AcDbLine
 10
1694.223725870284
 20
881.7430149021037
 30
0.0
 11
1695.223725870284
 21
881.7430149021037
 31
0.0
  0
LINE
  5
2D07
330
1F
100
AcDbEntity
  8
10
100
AcDbLine
 10
1692.923725870284
 20
899.0430149021035
 30
0.0
 11
1692.923725870284
 21
897.0430149021034
 31
0.0
  0
LINE
  5
2D08
330
1F
100
AcDbEntity
  8
10
100
AcDbLine
 10
1692.923725870284
 20
899.0430149021035
 30
0.0
 11
1695.223725870284
 21
899.0430149021035
 31
0.0
  0
CIRCLE
  5
2EF9
330
1F
100
AcDbEntity
  8
10
  6
Continuous
100
AcDbCircle
 10
998.2237258702843
 20
514.0430149020958
 30
0.0
 40
3.50000000000023
  0
CIRCLE
  5
2EFA
330
1F
100
AcDbEntity
  8
10
  6
Continuous
100
AcDbCircle
 10
998.2237258702843
 20
514.0430149020958
 30
0.0
 40
4.000000000000262
  0
LINE
  5
2EFB
330
1F
100
AcDbEntity
  8
10
  6
Continuous
100
AcDbLine
 10
996.8095123079111
 20
515.457228464469
 30
0.0
 11
999.6379394326575
 21
512.6288013397226
 31
0.0
  0
LINE
  5
2EFC
330
1F
100
AcDbEntity
  8
10
  6
Continuous
100
AcDbLine
 10
999.6379394326575
 20
515.457228464469
 30
0.0
 11
996.8095123079111
 21
512.6288013397226
 31
0.0
  0
CIRCLE
  5
2EFD
330
1F
100
AcDbEntity
  8
10
  6
Continuous
100
AcDbCircle
 10
1035.223725870283
 20
514.0430149021033
 30
0.0
 40
4.500000000000294
  0
CIRCLE
  5
2EFE
330
1F
100
AcDbEntity
  8
10
  6
Continuous
100
AcDbCircle
 10
1035.223725870283
 20
514.0430149021033
 30
0.0
 40
5.000000000000328
  0
LINE
  5
2EFF
330
1F
100
AcDbEntity
  8
10
  6
Continuous
100
AcDbLine
 10
1033.455958917318
 20
515.8107818550696
 30
0.0
 11
1036.991492823251
 21
512.2752479491367
 31
0.0
  0
LINE
  5
2F00
330
1F
100
AcDbEntity
  8
10
  6
Continuous
100
AcDbLine
 10
1036.991492823251
 20
515.8107818550696
 30
0.0
 11
1033.455958917318
 21
512.2752479491367
 31
0.0
  0
CIRCLE
  5
2F01
330
1F
100
AcDbEntity
  8
10
  6
Continuous
100
AcDbCircle
 10
1095.223725870283
 20
514.0430149021033
 30
0.0
 40
4.500000000000294
  0
CIRCLE
  5
2F02
330
1F
100
AcDbEntity
  8
10
  6
Continuous
100
AcDbCircle
 10
1095.223725870283
 20
514.0430149021033
 30
0.0
 40
5.000000000000328
  0
LINE
  5
2F03
330
1F
100
AcDbEntity
  8
10
  6
Continuous
100
AcDbLine
 10
1093.455958917318
 20
515.8107818550696
 30
0.0
 11
1096.991492823251
 21
512.2752479491367
 31
0.0
  0
LINE
  5
2F04
330
1F
100
AcDbEntity
  8
10
  6
Continuous
100
AcDbLine
 10
1096.991492823251
 20
515.8107818550696
 30
0.0
 11
1093.455958917318
 21
512.2752479491367
 31
0.0
  0
CIRCLE
  5
2F05
330
1F
100
AcDbEntity
  8
10
  6
Continuous
100
AcDbCircle
 10
1132.223725870284
 20
514.0430149020958
 30
0.0
 40
3.50000000000023
  0
CIRCLE
  5
2F06
330
1F
100
AcDbEntity
  8
10
  6
Continuous
100
AcDbCircle
 10
1132.223725870284
 20
514.0430149020958
 30
0.0
 40
4.000000000000262
  0
LINE
  5
2F07
330
1F
100
AcDbEntity
  8
10
  6
Continuous
100
AcDbLine
 10
1130.809512307911
 20
515.457228464469
 30
0.0
 11
1133.637939432657
 21
512.6288013397226
 31
0.0
  0
LINE
  5
2F08
330
1F
100
AcDbEntity
  8
10
  6
Continuous
100
AcDbLine
 10
1133.637939432657
 20
515.457228464469
 30
0.0
 11
1130.809512307911
 21
512.6288013397226
 31
0.0
  0
CIRCLE
  5
2F09
330
1F
100
AcDbEntity
  8
10
  6
Continuous
100
AcDbCircle
 10
998.2237258702843
 20
874.0430149021033
 30
0.0
 40
3.50000000000023
  0
CIRCLE
  5
2F0A
330
1F
100
AcDbEntity
  8
10
  6
Continuous
100
AcDbCircle
 10
998.2237258702843
 20
874.0430149021033
 30
0.0
 40
4.000000000000262
  0
LINE
  5
2F0B
330
1F
100
AcDbEntity
  8
10
  6
Continuous
100
AcDbLine
 10
996.8095123079111
 20
875.4572284644764
 30
0.0
 11
999.6379394326575
 21
872.6288013397301
 31
0.0
  0
LINE
  5
2F0C
330
1F
100
AcDbEntity
  8
10
  6
Continuous
100
AcDbLine
 10
999.6379394326575
 20
875.4572284644764
 30
0.0
 11
996.8095123079111
 21
872.6288013397301
 31
0.0
  0
CIRCLE
  5
2F0D
330
1F
100
AcDbEntity
  8
10
  6
Continuous
100
AcDbCircle
 10
1035.223725870283
 20
874.0430149021033
 30
0.0
 40
3.50000000000023
  0
CIRCLE
  5
2F0E
330
1F
100
AcDbEntity
  8
10
  6
Continuous
100
AcDbCircle
 10
1035.223725870283
 20
874.0430149021033
 30
0.0
 40
4.000000000000262
  0
LINE
  5
2F0F
330
1F
100
AcDbEntity
  8
10
  6
Continuous
100
AcDbLine
 10
1033.809512307911
 20
875.4572284644764
 30
0.0
 11
1036.637939432657
 21
872.6288013397301
 31
0.0
  0
LINE
  5
2F10
330
1F
100
AcDbEntity
  8
10
  6
Continuous
100
AcDbLine
 10
1036.637939432657
 20
875.4572284644764
 30
0.0
 11
1033.809512307911
 21
872.6288013397301
 31
0.0
  0
CIRCLE
  5
2F11
330
1F
100
AcDbEntity
  8
10
  6
Continuous
100
AcDbCircle
 10
1095.223725870283
 20
874.0430149021033
 30
0.0
 40
3.50000000000023
  0
CIRCLE
  5
2F12
330
1F
100
AcDbEntity
  8
10
  6
Continuous
100
AcDbCircle
 10
1095.223725870283
 20
874.0430149021033
 30
0.0
 40
4.000000000000262
  0
LINE
  5
2F13
330
1F
100
AcDbEntity
  8
10
  6
Continuous
100
AcDbLine
 10
1093.809512307911
 20
875.4572284644764
 30
0.0
 11
1096.637939432657
 21
872.6288013397301
 31
0.0
  0
LINE
  5
2F14
330
1F
100
AcDbEntity
  8
10
  6
Continuous
100
AcDbLine
 10
1096.637939432657
 20
875.4572284644764
 30
0.0
 11
1093.809512307911
 21
872.6288013397301
 31
0.0
  0
CIRCLE
  5
2F15
330
1F
100
AcDbEntity
  8
10
  6
Continuous
100
AcDbCircle
 10
1132.223725870284
 20
874.0430149021033
 30
0.0
 40
3.50000000000023
  0
CIRCLE
  5
2F16
330
1F
100
AcDbEntity
  8
10
  6
Continuous
100
AcDbCircle
 10
1132.223725870284
 20
874.0430149021033
 30
0.0
 40
4.000000000000262
  0
LINE
  5
2F17
330
1F
100
AcDbEntity
  8
10
  6
Continuous
100
AcDbLine
 10
1130.809512307911
 20
875.4572284644764
 30
0.0
 11
1133.637939432657
 21
872.6288013397301
 31
0.0
  0
LINE
  5
2F18
330
1F
100
AcDbEntity
  8
10
  6
Continuous
100
AcDbLine
 10
1133.637939432657
 20
875.4572284644764
 30
0.0
 11
1130.809512307911
 21
872.6288013397301
 31
0.0
  0
LWPOLYLINE
  5
2F21
330
1F
100
AcDbEntity
  8
18
100
AcDbPolyline
 90
        4
 70
     1
 43
0.0
 10
935.2237258702844
 20
999.0430149021035
 10
1195.223725870284
 20
999.0430149021035
 10
1195.223725870284
 20
389.043014902103
 10
935.2237258702844
 20
389.043014902103
  0
LINE
  5
2F22
330
1F
100
AcDbEntity
  8
16
100
AcDbLine
 10
1065.223725870284
 20
444.2165486076486
 30
0.0
 11
1065.223725870284
 21
943.4869367002912
 31
0.0
  0
LWPOLYLINE
  5
2F29
330
1F
100
AcDbEntity
  8
18
100
AcDbPolyline
 90
        4
 70
     1
 43
0.0
 10
1295.223725870283
 20
999.0430149021035
 10
1695.223725870284
 20
999.0430149021035
 10
1695.223725870284
 20
389.043014902103
 10
1295.223725870283
 20
389.043014902103
  0
VIEWPORT
  5
1A9E
330
1B
100
AcDbEntity
 67
     1
  8
0
100
AcDbViewport
 10
5.249999639556162
 20
3.999999883606676
 30
0.0
 40
13.61503641713194
 41
8.992999745766947
 68
     1
 69
     1
 12
5.249999639556162
 22
3.999999883606676
 13
0.0
 23
0.0
 14
10.0
 24
10.0
 15
10.0
 25
10.0
 16
0.0
 26
0.0
 36
1.0
 17
0.0
 27
0.0
 37
0.0
 42
50.0
 43
0.0
 44
0.0
 45
8.992999745766947
 50
0.0
 51
0.0
 72
   100
 90
    32800
  1

281
     0
 71
     1
 74
     0
110
0.0
120
0.0
130
0.0
111
1.0
121
0.0
131
0.0
112
0.0
122
1.0
132
0.0
 79
     0
146
0.0
  0
VIEWPORT
  5
1AA0
330
1B
100
AcDbEntity
 67
     1
  8
0
100
AcDbViewport
 10
5.24999976158142
 20
3.999999761581419
 30
0.0
 40
8.399999618530271
 41
6.399999618530272
 68
     2
 69
     2
 12
-1363.137645193887
 22
-311.7485573738788
 13
0.0
 23
0.0
 14
10.0
 24
10.0
 15
10.0
 25
10.0
 16
0.0
 26
0.0
 36
1.0
 17
0.0
 27
0.0
 37
0.0
 42
50.0
 43
0.0
 44
0.0
 45
467.9695885509838
 50
0.0
 51
0.0
 72
   100
 90
    32864
  1

281
     0
 71
     1
 74
     0
110
0.0
120
0.0
130
0.0
111
1.0
121
0.0
131
0.0
112
0.0
122
1.0
132
0.0
 79
     0
146
0.0
  0
ENDSEC
  0
SECTION
  2
OBJECTS
  0
DICTIONARY
  5
C
330
0
100
AcDbDictionary
281
     1
  3
ACAD_GROUP
350
D
  3
ACAD_LAYOUT
350
1A
  3
ACAD_MLINESTYLE
350
17
  3
ACAD_PLOTSETTINGS
350
19
  3
ACAD_PLOTSTYLENAME
350
47
  3
AcDbVariableDictionary
350
191F
1001
ACAD
1000
TREAT_AS_HARD
1070
     0
  0
DICTIONARY
  5
41
330
1F
100
AcDbDictionary
280
     1
281
     1
  3
ACAD_LAYOUTSELFREF
360
1B2E
  0
DICTIONARY
  5
3F
330
1B
100
AcDbDictionary
280
     1
281
     1
  3
ACAD_LAYOUTSELFREF
360
1B2D
  0
DICTIONARY
  5
D
102
{ACAD_REACTORS
330
C
102
}
330
C
100
AcDbDictionary
281
     1
1001
ACAD
1000
TREAT_AS_HARD
1070
     0
  0
DICTIONARY
  5
1A
102
{ACAD_REACTORS
330
C
102
}
330
C
100
AcDbDictionary
281
     1
  3
Model
350
49
  3
ﾚｲｱｳﾄ1
350
4A
1001
ACAD
1000
TREAT_AS_HARD
1070
     0
  0
DICTIONARY
  5
17
102
{ACAD_REACTORS
330
C
102
}
330
C
100
AcDbDictionary
281
     1
  3
STANDARD
350
18
1001
ACAD
1000
TREAT_AS_HARD
1070
     0
  0
DICTIONARY
  5
19
102
{ACAD_REACTORS
330
C
102
}
330
C
100
AcDbDictionary
281
     1
1001
ACAD
1000
TREAT_AS_HARD
1070
     0
  0
ACDBDICTIONARYWDFLT
  5
47
102
{ACAD_REACTORS
330
C
102
}
330
C
100
AcDbDictionary
281
     1
  3
Normal
350
48
100
AcDbDictionaryWithDefault
340
48
  0
DICTIONARY
  5
191F
102
{ACAD_REACTORS
330
C
102
}
330
C
100
AcDbDictionary
281
     1
  3
DIMASSOC
350
1920
  0
XRECORD
  5
1B2E
102
{ACAD_REACTORS
330
41
102
}
330
41
100
AcDbXrecord
280
     1
340
1F
  0
XRECORD
  5
1B2D
102
{ACAD_REACTORS
330
3F
102
}
330
3F
100
AcDbXrecord
280
     1
340
1B
  0
LAYOUT
  5
49
102
{ACAD_REACTORS
330
1A
102
}
330
1A
100
AcDbPlotSettings
  1

  2
EPSON LP-9200PS2
  4

  6

 40
0.0
 41
0.0
 42
0.0
 43
0.0
 44
0.0
 45
0.0
 46
0.0
 47
0.0
 48
0.0
 49
0.0
140
0.0
141
0.0
142
1.0
143
1.0
 70
  1712
 72
     0
 73
     0
 74
     0
  7

 75
     0
147
1.0
148
0.0
149
0.0
100
AcDbLayout
  1
Model
 70
     1
 71
     0
 10
0.0
 20
0.0
 11
12.0
 21
9.0
 12
0.0
 22
0.0
 32
0.0
 14
0.0
 24
0.0
 34
0.0
 15
0.0
 25
0.0
 35
0.0
146
0.0
 13
0.0
 23
0.0
 33
0.0
 16
1.0
 26
0.0
 36
0.0
 17
0.0
 27
1.0
 37
0.0
 76
     0
330
1F
  0
LAYOUT
  5
4A
102
{ACAD_REACTORS
330
1A
102
}
330
1A
100
AcDbPlotSettings
  1

  2
none_device
  4
Letter_(8.50_x_11.00_Inches)
  6

 40
6.349999904632567
 41
6.349999904632567
 42
6.350006103515625
 43
6.350006103515625
 44
215.8999938964842
 45
279.3999938964843
 46
0.0
 47
0.0
 48
0.0
 49
0.0
140
0.0
141
0.0
142
1.0
143
1.0
 70
   688
 72
     0
 73
     1
 74
     5
  7

 75
    16
147
1.0
148
0.0
149
0.0
100
AcDbLayout
  1
ﾚｲｱｳﾄ1
 70
     1
 71
     1
 10
-0.2500002402958907
 20
-0.2499999962453767
 11
10.74999951940821
 21
8.249999763458731
 12
0.0
 22
0.0
 32
0.0
 14
1.049999952316283
 24
0.7999999523162842
 34
0.0
 15
9.449999570846555
 25
7.199999570846556
 35
0.0
146
0.0
 13
0.0
 23
0.0
 33
0.0
 16
1.0
 26
0.0
 36
0.0
 17
0.0
 27
1.0
 37
0.0
 76
     0
330
1B
331
1A9E
  0
MLINESTYLE
  5
18
102
{ACAD_REACTORS
330
17
102
}
330
17
100
AcDbMlineStyle
  2
STANDARD
 70
     0
  3

 62
   256
 51
90.0
 52
90.0
 71
     2
 49
0.5
 62
   256
  6
BYLAYER
 49
-0.5
 62
   256
  6
BYLAYER
  0
ACDBPLACEHOLDER
  5
48
102
{ACAD_REACTORS
330
47
102
}
330
47
  0
DICTIONARYVAR
  5
1920
102
{ACAD_REACTORS
330
191F
102
}
330
191F
100
DictionaryVariables
280
     0
  1
1
  0
ENDSEC
  0
EOF
