  0
SECTION
  2
HEADER
  9
$ACADVER
  1
AC1014
  9
$ACADMAINTVER
 70
     9
  9
$DWGCODEPAGE
  3
ANSI_932
  9
$INSBASE
 10
0.0
 20
0.0
 30
0.0
  9
$EXTMIN
 10
277.4576211020439
 20
230.5611832172726
 30
-0.0000000000000053
  9
$EXTMAX
 10
803.798809345722
 20
580.6158378654652
 30
0.0000000000000099
  9
$LIMMIN
 10
0.0
 20
0.0
  9
$LIMMAX
 10
420.0
 20
297.0
  9
$ORTHOMODE
 70
     0
  9
$REGENMODE
 70
     1
  9
$FILLMODE
 70
     1
  9
$QTEXTMODE
 70
     0
  9
$MIRRTEXT
 70
     1
  9
$DRAGMODE
 70
     2
  9
$LTSCALE
 40
1.0
  9
$OSMODE
 70
  3071
  9
$ATTMODE
 70
     1
  9
$TEXTSIZE
 40
2.5
  9
$TRACEWID
 40
1.0
  9
$TEXTSTYLE
  7
STANDARD
  9
$CLAYER
  8
0
  9
$CELTYPE
  6
BYLAYER
  9
$CECOLOR
 62
   256
  9
$CELTSCALE
 40
1.0
  9
$DELOBJ
 70
     1
  9
$DISPSILH
 70
     0
  9
$DIMSCALE
 40
1.0
  9
$DIMASZ
 40
2.5
  9
$DIMEXO
 40
0.625
  9
$DIMDLI
 40
3.75
  9
$DIMRND
 40
0.0
  9
$DIMDLE
 40
0.0
  9
$DIMEXE
 40
1.25
  9
$DIMTP
 40
0.0
  9
$DIMTM
 40
0.0
  9
$DIMTXT
 40
2.5
  9
$DIMCEN
 40
2.5
  9
$DIMTSZ
 40
0.0
  9
$DIMTOL
 70
     0
  9
$DIMLIM
 70
     0
  9
$DIMTIH
 70
     0
  9
$DIMTOH
 70
     0
  9
$DIMSE1
 70
     0
  9
$DIMSE2
 70
     0
  9
$DIMTAD
 70
     1
  9
$DIMZIN
 70
     8
  9
$DIMBLK
  1

  9
$DIMASO
 70
     1
  9
$DIMSHO
 70
     1
  9
$DIMPOST
  1

  9
$DIMAPOST
  1

  9
$DIMALT
 70
     0
  9
$DIMALTD
 70
     3
  9
$DIMALTF
 40
0.03937007874016
  9
$DIMLFAC
 40
1.0
  9
$DIMTOFL
 70
     1
  9
$DIMTVP
 40
0.0
  9
$DIMTIX
 70
     0
  9
$DIMSOXD
 70
     0
  9
$DIMSAH
 70
     0
  9
$DIMBLK1
  1

  9
$DIMBLK2
  1

  9
$DIMSTYLE
  2
ISO-25
  9
$DIMCLRD
 70
     0
  9
$DIMCLRE
 70
     0
  9
$DIMCLRT
 70
     0
  9
$DIMTFAC
 40
1.0
  9
$DIMGAP
 40
0.625
  9
$DIMJUST
 70
     0
  9
$DIMSD1
 70
     0
  9
$DIMSD2
 70
     0
  9
$DIMTOLJ
 70
     0
  9
$DIMTZIN
 70
     8
  9
$DIMALTZ
 70
     0
  9
$DIMALTTZ
 70
     0
  9
$DIMFIT
 70
     3
  9
$DIMUPT
 70
     0
  9
$DIMUNIT
 70
     2
  9
$DIMDEC
 70
     2
  9
$DIMTDEC
 70
     2
  9
$DIMALTU
 70
     2
  9
$DIMALTTD
 70
     3
  9
$DIMTXSTY
  7
STANDARD
  9
$DIMAUNIT
 70
     0
  9
$LUNITS
 70
     2
  9
$LUPREC
 70
     4
  9
$SKETCHINC
 40
1.0
  9
$FILLETRAD
 40
10.0
  9
$AUNITS
 70
     0
  9
$AUPREC
 70
     0
  9
$MENU
  1
.
  9
$ELEVATION
 40
0.0
  9
$PELEVATION
 40
0.0
  9
$THICKNESS
 40
0.0
  9
$LIMCHECK
 70
     0
  9
$BLIPMODE
 70
     0
  9
$CHAMFERA
 40
10.0
  9
$CHAMFERB
 40
10.0
  9
$CHAMFERC
 40
20.0
  9
$CHAMFERD
 40
0.0
  9
$SKPOLY
 70
     0
  9
$TDCREATE
 40
2455716.570724826
  9
$TDUPDATE
 40
2455796.753574757
  9
$TDINDWG
 40
0.0290363079
  9
$TDUSRTIMER
 40
0.0290363079
  9
$USRTIMER
 70
     1
  9
$ANGBASE
 50
0.0
  9
$ANGDIR
 70
     0
  9
$PDMODE
 70
     0
  9
$PDSIZE
 40
0.0
  9
$PLINEWID
 40
0.0
  9
$COORDS
 70
     2
  9
$SPLFRAME
 70
     0
  9
$SPLINETYPE
 70
     6
  9
$SPLINESEGS
 70
     8
  9
$ATTDIA
 70
     0
  9
$ATTREQ
 70
     1
  9
$HANDLING
 70
 22529
  9
$HANDSEED
  5
3F57
  9
$SURFTAB1
 70
     6
  9
$SURFTAB2
 70
     6
  9
$SURFTYPE
 70
     6
  9
$SURFU
 70
     6
  9
$SURFV
 70
     6
  9
$UCSNAME
  2

  9
$UCSORG
 10
0.0
 20
0.0
 30
0.0
  9
$UCSXDIR
 10
1.0
 20
0.0
 30
0.0
  9
$UCSYDIR
 10
0.0
 20
1.0
 30
0.0
  9
$PUCSNAME
  2

  9
$PUCSORG
 10
0.0
 20
0.0
 30
0.0
  9
$PUCSXDIR
 10
1.0
 20
0.0
 30
0.0
  9
$PUCSYDIR
 10
0.0
 20
1.0
 30
0.0
  9
$USERI1
 70
     0
  9
$USERI2
 70
     0
  9
$USERI3
 70
     0
  9
$USERI4
 70
     0
  9
$USERI5
 70
     0
  9
$USERR1
 40
0.0
  9
$USERR2
 40
0.0
  9
$USERR3
 40
0.0
  9
$USERR4
 40
0.0
  9
$USERR5
 40
0.0
  9
$WORLDVIEW
 70
     1
  9
$SHADEDGE
 70
     3
  9
$SHADEDIF
 70
    70
  9
$TILEMODE
 70
     1
  9
$MAXACTVP
 70
    48
  9
$PINSBASE
 10
0.0
 20
0.0
 30
0.0
  9
$PLIMCHECK
 70
     0
  9
$PEXTMIN
 10
26.66076962115562
 20
20.31135699206657
 30
-0.0015258207003583
  9
$PEXTMAX
 10
240.039213369355
 20
182.8886381005154
 30
0.0000000349246037
  9
$PLIMMIN
 10
-6.350006103515625
 20
-6.349999904632568
  9
$PLIMMAX
 10
273.0499877929687
 20
209.5499939918517
  9
$UNITMODE
 70
     0
  9
$VISRETAIN
 70
     1
  9
$PLINEGEN
 70
     0
  9
$PSLTSCALE
 70
     1
  9
$TREEDEPTH
 70
  3020
  9
$PICKSTYLE
 70
     0
  9
$CMLSTYLE
  2
STANDARD
  9
$CMLJUST
 70
     0
  9
$CMLSCALE
 40
20.0
  9
$PROXYGRAPHICS
 70
     1
  9
$MEASUREMENT
 70
     1
  0
ENDSEC
  0
SECTION
  2
CLASSES
  0
CLASS
  1
ACDBDICTIONARYWDFLT
  2
AcDbDictionaryWithDefault
  3
AutoCAD 2000
 90
        0
280
     0
281
     0
  0
CLASS
  1
ACDBPLACEHOLDER
  2
AcDbPlaceHolder
  3
AutoCAD 2000
 90
        0
280
     0
281
     0
  0
CLASS
  1
LAYOUT
  2
AcDbLayout
  3
AutoCAD 2000
 90
        0
280
     0
281
     0
  0
CLASS
  1
DICTIONARYVAR
  2
AcDbDictionaryVar
  3
AutoCAD 2000
 90
        0
280
     0
281
     0
  0
CLASS
  1
LONG_TRANSACTION
  2
AcDbLongTransaction
  3
AutoCAD 2000
 90
        0
280
     0
281
     0
  0
CLASS
  1
LWPOLYLINE
  2
AcDbPolyline
  3
AutoCAD 2000
 90
        0
280
     0
281
     1
  0
CLASS
  1
HATCH
  2
AcDbHatch
  3
AutoCAD 2000
 90
        0
280
     0
281
     1
  0
CLASS
  1
XRECORD
  2
AcDbXrecord
  3
AutoCAD 2000
 90
        0
280
     0
281
     0
  0
CLASS
  1
LONG_TRANSACTION
  2
AcDbLongTransaction
  3
AutoCAD 2000
 90
        0
280
     0
281
     0
  0
CLASS
  1
LWPOLYLINE
  2
AcDbPolyline
  3
AutoCAD 2000
 90
        0
280
     0
281
     1
  0
CLASS
  1
HATCH
  2
AcDbHatch
  3
AutoCAD 2000
 90
        0
280
     0
281
     1
  0
CLASS
  1
XRECORD
  2
AcDbXrecord
  3
AutoCAD 2000
 90
        0
280
     0
281
     0
  0
CLASS
  1
LONG_TRANSACTION
  2
AcDbLongTransaction
  3
AutoCAD 2000
 90
        0
280
     0
281
     0
  0
CLASS
  1
LWPOLYLINE
  2
AcDbPolyline
  3
AutoCAD 2000
 90
        0
280
     0
281
     1
  0
CLASS
  1
HATCH
  2
AcDbHatch
  3
AutoCAD 2000
 90
        0
280
     0
281
     1
  0
CLASS
  1
XRECORD
  2
AcDbXrecord
  3
AutoCAD 2000
 90
        0
280
     0
281
     0
  0
CLASS
  1
LONG_TRANSACTION
  2
AcDbLongTransaction
  3
AutoCAD 2000
 90
        0
280
     0
281
     0
  0
CLASS
  1
LWPOLYLINE
  2
AcDbPolyline
  3
AutoCAD 2000
 90
        0
280
     0
281
     1
  0
CLASS
  1
HATCH
  2
AcDbHatch
  3
AutoCAD 2000
 90
        0
280
     0
281
     1
  0
CLASS
  1
XRECORD
  2
AcDbXrecord
  3
AutoCAD 2000
 90
        0
280
     0
281
     0
  0
CLASS
  1
DIMASSOC
  2
AcDbDimAssoc
  3
"AcDbDimAssoc|Product Desc:     AcDim ARX App For Dimension|Company:          Autodesk, Inc.|WEB Address:      www.autodesk.com"
 90
        0
280
     0
281
     0
  0
CLASS
  1
LONG_TRANSACTION
  2
AcDbLongTransaction
  3
AutoCAD 2000
 90
        0
280
     0
281
     0
  0
CLASS
  1
LWPOLYLINE
  2
AcDbPolyline
  3
AutoCAD 2000
 90
        0
280
     0
281
     1
  0
CLASS
  1
HATCH
  2
AcDbHatch
  3
AutoCAD 2000
 90
        0
280
     0
281
     1
  0
CLASS
  1
XRECORD
  2
AcDbXrecord
  3
AutoCAD 2000
 90
        0
280
     0
281
     0
  0
CLASS
  1
LONG_TRANSACTION
  2
AcDbLongTransaction
  3
AutoCAD 2000
 90
        0
280
     0
281
     0
  0
CLASS
  1
LWPOLYLINE
  2
AcDbPolyline
  3
AutoCAD 2000
 90
        0
280
     0
281
     1
  0
CLASS
  1
HATCH
  2
AcDbHatch
  3
AutoCAD 2000
 90
        0
280
     0
281
     1
  0
CLASS
  1
XRECORD
  2
AcDbXrecord
  3
AutoCAD 2000
 90
        0
280
     0
281
     0
  0
CLASS
  1
LONG_TRANSACTION
  2
AcDbLongTransaction
  3
AutoCAD 2000
 90
        0
280
     0
281
     0
  0
CLASS
  1
LWPOLYLINE
  2
AcDbPolyline
  3
AutoCAD 2000
 90
        0
280
     0
281
     1
  0
CLASS
  1
HATCH
  2
AcDbHatch
  3
AutoCAD 2000
 90
        0
280
     0
281
     1
  0
CLASS
  1
XRECORD
  2
AcDbXrecord
  3
AutoCAD 2000
 90
        0
280
     0
281
     0
  0
CLASS
  1
LONG_TRANSACTION
  2
AcDbLongTransaction
  3
AutoCAD 2000
 90
        0
280
     0
281
     0
  0
CLASS
  1
LWPOLYLINE
  2
AcDbPolyline
  3
AutoCAD 2000
 90
        0
280
     0
281
     1
  0
CLASS
  1
HATCH
  2
AcDbHatch
  3
AutoCAD 2000
 90
        0
280
     0
281
     1
  0
CLASS
  1
XRECORD
  2
AcDbXrecord
  3
AutoCAD 2000
 90
        0
280
     0
281
     0
  0
CLASS
  1
LONG_TRANSACTION
  2
AcDbLongTransaction
  3
AutoCAD 2000
 90
        0
280
     0
281
     0
  0
CLASS
  1
LWPOLYLINE
  2
AcDbPolyline
  3
AutoCAD 2000
 90
        0
280
     0
281
     1
  0
CLASS
  1
HATCH
  2
AcDbHatch
  3
AutoCAD 2000
 90
        0
280
     0
281
     1
  0
CLASS
  1
XRECORD
  2
AcDbXrecord
  3
AutoCAD 2000
 90
        0
280
     0
281
     0
  0
CLASS
  1
LONG_TRANSACTION
  2
AcDbLongTransaction
  3
AutoCAD 2000
 90
        0
280
     0
281
     0
  0
CLASS
  1
LWPOLYLINE
  2
AcDbPolyline
  3
AutoCAD 2000
 90
        0
280
     0
281
     1
  0
CLASS
  1
HATCH
  2
AcDbHatch
  3
AutoCAD 2000
 90
        0
280
     0
281
     1
  0
CLASS
  1
XRECORD
  2
AcDbXrecord
  3
AutoCAD 2000
 90
        0
280
     0
281
     0
  0
CLASS
  1
LONG_TRANSACTION
  2
AcDbLongTransaction
  3
AutoCAD 2000
 90
        0
280
     0
281
     0
  0
CLASS
  1
LWPOLYLINE
  2
AcDbPolyline
  3
AutoCAD 2000
 90
        0
280
     0
281
     1
  0
CLASS
  1
HATCH
  2
AcDbHatch
  3
AutoCAD 2000
 90
        0
280
     0
281
     1
  0
CLASS
  1
XRECORD
  2
AcDbXrecord
  3
AutoCAD 2000
 90
        0
280
     0
281
     0
  0
CLASS
  1
LONG_TRANSACTION
  2
AcDbLongTransaction
  3
AutoCAD 2000
 90
        0
280
     0
281
     0
  0
CLASS
  1
LWPOLYLINE
  2
AcDbPolyline
  3
AutoCAD 2000
 90
        0
280
     0
281
     1
  0
CLASS
  1
HATCH
  2
AcDbHatch
  3
AutoCAD 2000
 90
        0
280
     0
281
     1
  0
CLASS
  1
XRECORD
  2
AcDbXrecord
  3
AutoCAD 2000
 90
        0
280
     0
281
     0
  0
ENDSEC
  0
SECTION
  2
TABLES
  0
TABLE
  2
VPORT
  5
8
330
0
100
AcDbSymbolTable
 70
     3
  0
VPORT
  5
3F32
330
8
100
AcDbSymbolTableRecord
100
AcDbViewportTableRecord
  2
*ACTIVE
 70
     0
 10
0.0
 20
0.0
 11
1.0
 21
1.0
 12
540.6282152238829
 22
405.5885105413689
 13
0.0
 23
0.0
 14
10.0
 24
10.0
 15
10.0
 25
10.0
 16
0.0
 26
0.0
 36
1.0
 17
0.0
 27
0.0
 37
0.0
 40
352.2132650571228
 41
1.568930041152263
 42
50.0
 43
0.0
 44
0.0
 50
0.0
 51
0.0
 71
     0
 72
   100
 73
     1
 74
     3
 75
     0
 76
     0
 77
     0
 78
     0
  0
ENDTAB
  0
TABLE
  2
LTYPE
  5
5
330
0
100
AcDbSymbolTable
 70
     5
  0
LTYPE
  5
14
330
5
100
AcDbSymbolTableRecord
100
AcDbLinetypeTableRecord
  2
BYBLOCK
 70
     0
  3

 72
    65
 73
     0
 40
0.0
  0
LTYPE
  5
15
330
5
100
AcDbSymbolTableRecord
100
AcDbLinetypeTableRecord
  2
BYLAYER
 70
     0
  3

 72
    65
 73
     0
 40
0.0
  0
LTYPE
  5
16
330
5
100
AcDbSymbolTableRecord
100
AcDbLinetypeTableRecord
  2
CONTINUOUS
 70
     0
  3
Solid line
 72
    65
 73
     0
 40
0.0
  0
LTYPE
  5
97
330
5
100
AcDbSymbolTableRecord
100
AcDbLinetypeTableRecord
  2
CENTERX2
 70
     0
  3
Center (2x) ________  __  ________  __  _____
 72
    65
 73
     4
 40
101.6
 49
63.5
 74
     0
 49
-12.7
 74
     0
 49
12.7
 74
     0
 49
-12.7
 74
     0
  0
LTYPE
  5
9D
330
5
100
AcDbSymbolTableRecord
100
AcDbLinetypeTableRecord
  2
PHANTOMX2
 70
     0
  3
Phantom (2x) ____________    ____    ____   _
 72
    65
 73
     6
 40
127.0
 49
63.5
 74
     0
 49
-12.7
 74
     0
 49
12.7
 74
     0
 49
-12.7
 74
     0
 49
12.7
 74
     0
 49
-12.7
 74
     0
  0
LTYPE
  5
BD
330
5
100
AcDbSymbolTableRecord
100
AcDbLinetypeTableRecord
  2
HIDDEN
 70
     0
  3
Hidden __ __ __ __ __ __ __ __ __ __ __ __ __ _
 72
    65
 73
     2
 40
0.375
 49
0.25
 74
     0
 49
-0.125
 74
     0
  0
LTYPE
  5
2980
330
5
100
AcDbSymbolTableRecord
100
AcDbLinetypeTableRecord
  2
DASHED
 70
     0
  3
-- -- -- -- -- -- -- -- -- -- -- -- -- -- --
 72
    65
 73
     2
 40
0.75
 49
0.5
 74
     0
 49
-0.25
 74
     0
  0
ENDTAB
  0
TABLE
  2
LAYER
  5
2
102
{ACAD_XDICTIONARY
360
AC
102
}
330
0
100
AcDbSymbolTable
 70
     9
  0
LAYER
  5
10
330
2
100
AcDbSymbolTableRecord
100
AcDbLayerTableRecord
  2
0
 70
     0
 62
     7
  6
CONTINUOUS
  0
LAYER
  5
86
330
2
100
AcDbSymbolTableRecord
100
AcDbLayerTableRecord
  2
DEFPOINTS
 70
     0
 62
     7
  6
CONTINUOUS
  0
LAYER
  5
87
330
2
100
AcDbSymbolTableRecord
100
AcDbLayerTableRecord
  2
10
 70
     0
 62
     4
  6
CONTINUOUS
  0
LAYER
  5
8D
330
2
100
AcDbSymbolTableRecord
100
AcDbLayerTableRecord
  2
11
 70
     0
 62
     7
  6
CONTINUOUS
  0
LAYER
  5
92
330
2
100
AcDbSymbolTableRecord
100
AcDbLayerTableRecord
  2
12
 70
     0
 62
     3
  6
CONTINUOUS
  0
LAYER
  5
98
330
2
100
AcDbSymbolTableRecord
100
AcDbLayerTableRecord
  2
16
 70
     0
 62
     4
  6
CENTERX2
  0
LAYER
  5
9E
330
2
100
AcDbSymbolTableRecord
100
AcDbLayerTableRecord
  2
18
 70
     0
 62
     1
  6
PHANTOMX2
  0
LAYER
  5
A3
330
2
100
AcDbSymbolTableRecord
100
AcDbLayerTableRecord
  2
19
 70
     0
 62
     7
  6
CONTINUOUS
  0
LAYER
  5
28E1
330
2
100
AcDbSymbolTableRecord
100
AcDbLayerTableRecord
  2
17
 70
     0
 62
     2
  6
CENTERX2
  0
ENDTAB
  0
TABLE
  2
STYLE
  5
3
330
0
100
AcDbSymbolTable
 70
     2
  0
STYLE
  5
11
330
3
100
AcDbSymbolTableRecord
100
AcDbTextStyleTableRecord
  2
STANDARD
 70
     0
 40
0.0
 41
1.0
 50
0.0
 71
     0
 42
2.5
  3
txt
  4

  0
STYLE
  5
BF
330
3
100
AcDbSymbolTableRecord
100
AcDbTextStyleTableRecord
  2
STANDARD1
 70
     0
 40
0.0
 41
0.7
 50
0.0
 71
     0
 42
4.0
  3
romans.shx
  4
extfont.shx
  0
ENDTAB
  0
TABLE
  2
VIEW
  5
6
330
0
100
AcDbSymbolTable
 70
     0
  0
ENDTAB
  0
TABLE
  2
UCS
  5
7
330
0
100
AcDbSymbolTable
 70
     0
  0
ENDTAB
  0
TABLE
  2
APPID
  5
9
330
0
100
AcDbSymbolTable
 70
     1
  0
APPID
  5
12
330
9
100
AcDbSymbolTableRecord
100
AcDbRegAppTableRecord
  2
ACAD
 70
     0
  0
ENDTAB
  0
TABLE
  2
DIMSTYLE
  5
A
330
0
100
AcDbSymbolTable
 70
     2
  0
DIMSTYLE
105
27
330
A
100
AcDbSymbolTableRecord
100
AcDbDimStyleTableRecord
  2
ISO-25
 70
     0
  3

  4

  5

  6

  7

 40
1.0
 41
2.5
 42
0.625
 43
3.75
 44
1.25
 45
0.0
 46
0.0
 47
0.0
 48
0.0
140
2.5
141
2.5
142
0.0
143
0.03937007874016
144
1.0
145
0.0
146
1.0
147
0.625
 71
     0
 72
     0
 73
     0
 74
     0
 75
     0
 76
     0
 77
     1
 78
     8
170
     0
171
     3
172
     1
173
     0
174
     0
175
     0
176
     0
177
     0
178
     0
270
     2
271
     2
272
     2
273
     2
274
     3
340
11
275
     0
280
     0
281
     0
282
     0
283
     0
284
     8
285
     0
286
     0
287
     3
288
     0
  0
DIMSTYLE
105
88
330
A
100
AcDbSymbolTableRecord
100
AcDbDimStyleTableRecord
  2
STANDARD
 70
     0
  3

  4

  5

  6

  7

 40
1.0
 41
0.18
 42
0.0625
 43
0.38
 44
0.18
 45
0.0
 46
0.0
 47
0.0
 48
0.0
140
0.18
141
0.09
142
0.0
143
25.4
144
1.0
145
0.0
146
1.0
147
0.09
 71
     0
 72
     0
 73
     1
 74
     1
 75
     0
 76
     0
 77
     0
 78
     0
170
     0
171
     2
172
     0
173
     0
174
     0
175
     0
176
     0
177
     0
178
     0
270
     2
271
     4
272
     4
273
     2
274
     2
340
11
275
     0
280
     0
281
     0
282
     0
283
     1
284
     0
285
     0
286
     0
287
     3
288
     0
  0
ENDTAB
  0
TABLE
  2
BLOCK_RECORD
  5
1
330
0
100
AcDbSymbolTable
 70
     1
  0
BLOCK_RECORD
  5
1F
102
{ACAD_XDICTIONARY
360
2892
102
}
330
1
100
AcDbSymbolTableRecord
100
AcDbBlockTableRecord
  2
*MODEL_SPACE
  0
BLOCK_RECORD
  5
55
102
{ACAD_XDICTIONARY
360
2894
102
}
330
1
100
AcDbSymbolTableRecord
100
AcDbBlockTableRecord
  2
*PAPER_SPACE
  0
ENDTAB
  0
ENDSEC
  0
SECTION
  2
BLOCKS
  0
BLOCK
  5
20
330
1F
100
AcDbEntity
  8
0
100
AcDbBlockBegin
  2
*MODEL_SPACE
 70
     0
 10
0.0
 20
0.0
 30
0.0
  3
*MODEL_SPACE
  1

  0
ENDBLK
  5
21
330
1F
100
AcDbEntity
  8
0
100
AcDbBlockEnd
  0
BLOCK
  5
57
330
55
100
AcDbEntity
 67
     1
  8
0
100
AcDbBlockBegin
  2
*PAPER_SPACE
 70
     0
 10
0.0
 20
0.0
 30
0.0
  3
*PAPER_SPACE
  1

  0
ENDBLK
  5
58
330
55
100
AcDbEntity
 67
     1
  8
0
100
AcDbBlockEnd
  0
ENDSEC
  0
SECTION
  2
ENTITIES
  0
LINE
  5
30DB
330
1F
100
AcDbEntity
  8
10
  6
CONTINUOUS
100
AcDbLine
 10
287.5048459823872
 20
331.401003296284
 30
0.0
 11
287.5048459823872
 21
466.4871417059
 31
0.0
  0
LINE
  5
30DD
330
1F
100
AcDbEntity
  8
10
  6
CONTINUOUS
100
AcDbLine
 10
559.0048459823872
 20
330.6010032962832
 30
0.0
 11
559.0048459823872
 21
480.6010032962832
 31
0.0
  0
LINE
  5
30DE
330
1F
100
AcDbEntity
  8
10
  6
CONTINUOUS
100
AcDbLine
 10
683.0048459823871
 20
348.6010032962841
 30
0.0
 11
683.0048459823871
 21
462.6010032962841
 31
0.0
  0
LINE
  5
30DF
330
1F
100
AcDbEntity
  8
10
  6
CONTINUOUS
100
AcDbLine
 10
585.2048459823874
 20
391.6010032962841
 30
0.0
 11
585.2048459823874
 21
460.6010032962841
 31
0.0
  0
LINE
  5
30E0
330
1F
100
AcDbEntity
  8
10
  6
CONTINUOUS
100
AcDbLine
 10
582.2048459823874
 20
391.6010032962841
 30
0.0
 11
582.2048459823874
 21
460.6010032962841
 31
0.0
  0
LINE
  5
30E1
330
1F
100
AcDbEntity
  8
10
  6
CONTINUOUS
100
AcDbLine
 10
587.0048459823872
 20
391.6010032962841
 30
0.0
 11
587.0048459823872
 21
460.6010032962841
 31
0.0
  0
LINE
  5
30E2
330
1F
100
AcDbEntity
  8
10
  6
CONTINUOUS
100
AcDbLine
 10
590.0048459823872
 20
391.6010032962841
 30
0.0
 11
590.0048459823872
 21
460.6010032962841
 31
0.0
  0
LINE
  5
30E3
330
1F
100
AcDbEntity
  8
10
  6
CONTINUOUS
100
AcDbLine
 10
591.8048459823878
 20
391.6010032962841
 30
0.0
 11
591.8048459823878
 21
460.6010032962841
 31
0.0
  0
LINE
  5
30E4
330
1F
100
AcDbEntity
  8
10
  6
CONTINUOUS
100
AcDbLine
 10
594.8048459823869
 20
391.6010032962841
 30
0.0
 11
594.8048459823869
 21
460.6010032962841
 31
0.0
  0
LINE
  5
30E5
330
1F
100
AcDbEntity
  8
10
  6
CONTINUOUS
100
AcDbLine
 10
596.6048459823871
 20
391.6010032962841
 30
0.0
 11
596.6048459823871
 21
460.6010032962841
 31
0.0
  0
LINE
  5
30E6
330
1F
100
AcDbEntity
  8
10
  6
CONTINUOUS
100
AcDbLine
 10
599.6048459823871
 20
391.6010032962841
 30
0.0
 11
599.6048459823871
 21
460.6010032962841
 31
0.0
  0
LINE
  5
30E7
330
1F
100
AcDbEntity
  8
10
  6
CONTINUOUS
100
AcDbLine
 10
601.4048459823873
 20
391.6010032962841
 30
0.0
 11
601.4048459823873
 21
460.6010032962841
 31
0.0
  0
LINE
  5
30E8
330
1F
100
AcDbEntity
  8
10
  6
CONTINUOUS
100
AcDbLine
 10
604.4048459823873
 20
391.6010032962841
 30
0.0
 11
604.4048459823873
 21
460.6010032962841
 31
0.0
  0
LINE
  5
30E9
330
1F
100
AcDbEntity
  8
10
  6
CONTINUOUS
100
AcDbLine
 10
609.2048459823875
 20
391.6010032962841
 30
0.0
 11
609.2048459823875
 21
460.6010032962841
 31
0.0
  0
LINE
  5
30EA
330
1F
100
AcDbEntity
  8
10
  6
CONTINUOUS
100
AcDbLine
 10
606.2048459823874
 20
391.6010032962841
 30
0.0
 11
606.2048459823874
 21
460.6010032962841
 31
0.0
  0
LINE
  5
30EB
330
1F
100
AcDbEntity
  8
10
  6
CONTINUOUS
100
AcDbLine
 10
580.4048459823873
 20
391.6010032962841
 30
0.0
 11
580.4048459823873
 21
460.6010032962841
 31
0.0
  0
LINE
  5
30EC
330
1F
100
AcDbEntity
  8
10
  6
CONTINUOUS
100
AcDbLine
 10
577.4048459823859
 20
391.6010032962841
 30
0.0
 11
577.4048459823872
 21
440.1010032962832
 31
0.0
  0
LINE
  5
30ED
330
1F
100
AcDbEntity
  8
10
  6
CONTINUOUS
100
AcDbLine
 10
558.5048459823872
 20
435.6010032962841
 30
0.0
 11
558.5048459823872
 21
330.6010032962841
 31
0.0
  0
LINE
  5
30EE
330
1F
100
AcDbEntity
  8
10
  6
CONTINUOUS
100
AcDbLine
 10
547.5048459823872
 20
330.6010032962841
 30
0.0
 11
547.5048459823872
 21
435.6010032962841
 31
0.0
  0
LINE
  5
30EF
330
1F
100
AcDbEntity
  8
10
  6
CONTINUOUS
100
AcDbLine
 10
619.5048459823872
 20
374.6010032962841
 30
0.0
 11
619.5048459823872
 21
436.6010032962841
 31
0.0
  0
LINE
  5
30F2
330
1F
100
AcDbEntity
  8
10
  6
CONTINUOUS
100
AcDbLine
 10
427.5048459823872
 20
331.401003296284
 30
0.0
 11
427.5048459823872
 21
435.601003296284
 31
0.0
  0
LINE
  5
30F4
330
1F
100
AcDbEntity
  8
10
  6
CONTINUOUS
100
AcDbLine
 10
619.5048459823872
 20
480.6010032962832
 30
0.0
 11
619.5048459823872
 21
330.6010032962841
 31
0.0
  0
LINE
  5
3103
330
1F
100
AcDbEntity
  8
10
  6
CONTINUOUS
100
AcDbLine
 10
345.5048459823872
 20
330.601003296284
 30
0.0
 11
426.7048459823874
 21
330.601003296284
 31
0.0
  0
LINE
  5
323E
330
1F
100
AcDbEntity
  8
10
  6
CONTINUOUS
100
AcDbLine
 10
345.5048459823872
 20
330.601003296284
 30
0.0
 11
345.5048459823872
 21
373.601003296284
 31
0.0
  0
LINE
  5
323F
330
1F
100
AcDbEntity
  8
10
  6
CONTINUOUS
100
AcDbLine
 10
345.4048459823873
 20
330.601003296284
 30
0.0
 11
345.4048459823873
 21
373.5010032962841
 31
0.0
  0
LINE
  5
3241
330
1F
100
AcDbEntity
  8
10
  6
CONTINUOUS
100
AcDbLine
 10
304.5048459823872
 20
330.601003296284
 30
0.0
 11
304.5048459823872
 21
373.601003296284
 31
0.0
  0
LINE
  5
3242
330
1F
100
AcDbEntity
  8
10
  6
CONTINUOUS
100
AcDbLine
 10
304.6048459823871
 20
373.5010032962841
 30
0.0
 11
304.6048459823871
 21
330.601003296284
 31
0.0
  0
LINE
  5
3248
330
1F
100
AcDbEntity
  8
12
 48
4.0
100
AcDbLine
 10
302.0048459823872
 20
336.601003296284
 30
0.0
 11
285.0048459823872
 21
336.601003296284
 31
0.0
  0
LINE
  5
3249
330
1F
100
AcDbEntity
  8
10
  6
HIDDEN
 48
6.0
100
AcDbLine
 10
288.5048459823872
 20
332.101003296284
 30
0.0
 11
290.0048459823872
 21
332.101003296284
 31
0.0
  0
LINE
  5
324A
330
1F
100
AcDbEntity
  8
10
  6
CONTINUOUS
100
AcDbLine
 10
288.3048459823869
 20
330.601003296284
 30
0.0
 11
304.5048459823872
 21
330.601003296284
 31
0.0
  0
ARC
  5
324B
330
1F
100
AcDbEntity
  8
10
  6
CONTINUOUS
100
AcDbCircle
 10
288.3048459823869
 20
331.401003296284
 30
0.0
 40
0.8000000000001755
100
AcDbArc
 50
180.0
 51
270.0
  0
ARC
  5
324C
330
1F
100
AcDbEntity
  8
10
  6
HIDDEN
 48
6.0
100
AcDbCircle
 10
288.5048459823872
 20
333.101003296284
 30
0.0
 40
1.000000000000001
100
AcDbArc
 50
180.0
 51
270.0
  0
LINE
  5
324D
330
1F
100
AcDbEntity
  8
12
 48
4.0
100
AcDbLine
 10
293.5048459823872
 20
345.101003296284
 30
0.0
 11
293.5048459823872
 21
328.101003296284
 31
0.0
  0
ARC
  5
324E
330
1F
100
AcDbEntity
  8
10
  6
HIDDEN
 48
6.0
100
AcDbCircle
 10
297.0048459823872
 20
331.601003296284
 30
0.0
 40
1.000000000000001
100
AcDbArc
 50
180.0
 51
270.0
  0
LINE
  5
324F
330
1F
100
AcDbEntity
  8
10
  6
HIDDEN
 48
6.0
100
AcDbLine
 10
296.0048459823872
 20
336.601003296284
 30
0.0
 11
296.0048459823872
 21
331.601003296284
 31
0.0
  0
ARC
  5
3250
330
1F
100
AcDbEntity
  8
10
  6
HIDDEN
 48
6.0
100
AcDbCircle
 10
293.5048459823872
 20
336.601003296284
 30
0.0
 40
2.499999999999994
100
AcDbArc
 50
0.0
 51
90.0
  0
LINE
  5
3251
330
1F
100
AcDbEntity
  8
10
  6
HIDDEN
 48
6.0
100
AcDbLine
 10
291.0048459823872
 20
336.601003296284
 30
0.0
 11
291.0048459823872
 21
333.101003296284
 31
0.0
  0
ARC
  5
3252
330
1F
100
AcDbEntity
  8
10
  6
HIDDEN
 48
6.0
100
AcDbCircle
 10
290.0048459823872
 20
333.101003296284
 30
0.0
 40
1.000000000000001
100
AcDbArc
 50
270.0
 51
0.0
  0
ARC
  5
3253
330
1F
100
AcDbEntity
  8
10
  6
HIDDEN
 48
6.0
100
AcDbCircle
 10
293.5048459823872
 20
336.601003296284
 30
0.0
 40
2.500000000000006
100
AcDbArc
 50
90.0
 51
180.0
  0
LINE
  5
3254
330
1F
100
AcDbEntity
  8
10
  6
CONTINUOUS
100
AcDbLine
 10
345.4048459823873
 20
330.601003296284
 30
0.0
 11
304.6048459823871
 21
330.601003296284
 31
0.0
  0
ARC
  5
3255
330
1F
100
AcDbEntity
  8
10
  6
CONTINUOUS
100
AcDbCircle
 10
311.0048459823872
 20
359.601003296284
 30
0.0
 40
1.000000000000001
100
AcDbArc
 50
90.0
 51
270.0
  0
ARC
  5
3256
330
1F
100
AcDbEntity
  8
10
  6
CONTINUOUS
100
AcDbCircle
 10
311.0048459823872
 20
355.601003296284
 30
0.0
 40
1.000000000000001
100
AcDbArc
 50
90.0
 51
270.0
  0
LINE
  5
3257
330
1F
100
AcDbEntity
  8
10
  6
CONTINUOUS
100
AcDbLine
 10
311.0048459823872
 20
354.601003296284
 30
0.0
 11
339.0048459823872
 21
354.601003296284
 31
0.0
  0
LINE
  5
3258
330
1F
100
AcDbEntity
  8
10
  6
CONTINUOUS
100
AcDbLine
 10
339.0048459823872
 20
356.601003296284
 30
0.0
 11
311.0048459823872
 21
356.601003296284
 31
0.0
  0
LINE
  5
3259
330
1F
100
AcDbEntity
  8
10
  6
CONTINUOUS
100
AcDbLine
 10
311.0048459823872
 20
358.601003296284
 30
0.0
 11
339.0048459823872
 21
358.601003296284
 31
0.0
  0
ARC
  5
325A
330
1F
100
AcDbEntity
  8
10
  6
CONTINUOUS
100
AcDbCircle
 10
339.0048459823872
 20
359.601003296284
 30
0.0
 40
1.000000000000001
100
AcDbArc
 50
270.0
 51
90.0
  0
ARC
  5
325B
330
1F
100
AcDbEntity
  8
10
  6
CONTINUOUS
100
AcDbCircle
 10
339.0048459823872
 20
363.601003296284
 30
0.0
 40
0.99999999999999
100
AcDbArc
 50
270.0
 51
90.0
  0
LINE
  5
325C
330
1F
100
AcDbEntity
  8
10
  6
CONTINUOUS
100
AcDbLine
 10
326.1595465207658
 20
369.601003296284
 30
0.0
 11
323.8501454440081
 21
369.601003296284
 31
0.0
  0
LINE
  5
325D
330
1F
100
AcDbEntity
  8
10
  6
CONTINUOUS
100
AcDbLine
 10
325.0048459823872
 20
367.601003296284
 30
0.0
 11
326.1595465207658
 21
369.601003296284
 31
0.0
  0
LINE
  5
325E
330
1F
100
AcDbEntity
  8
10
  6
CONTINUOUS
100
AcDbLine
 10
325.0048459823872
 20
367.601003296284
 30
0.0
 11
323.8501454440081
 21
369.601003296284
 31
0.0
  0
ARC
  5
325F
330
1F
100
AcDbEntity
  8
10
  6
CONTINUOUS
100
AcDbCircle
 10
339.0048459823872
 20
355.601003296284
 30
0.0
 40
1.000000000000001
100
AcDbArc
 50
270.0
 51
90.0
  0
ARC
  5
3260
330
1F
100
AcDbEntity
  8
10
  6
CONTINUOUS
100
AcDbCircle
 10
311.0048459823872
 20
363.601003296284
 30
0.0
 40
1.000000000000015
100
AcDbArc
 50
90.0
 51
270.0
  0
LINE
  5
3261
330
1F
100
AcDbEntity
  8
10
  6
CONTINUOUS
100
AcDbLine
 10
345.5048459823872
 20
373.601003296284
 30
0.0
 11
304.5048459823872
 21
373.601003296284
 31
0.0
  0
LINE
  5
3262
330
1F
100
AcDbEntity
  8
10
  6
CONTINUOUS
100
AcDbLine
 10
339.0048459823872
 20
360.601003296284
 30
0.0
 11
311.0048459823872
 21
360.601003296284
 31
0.0
  0
LINE
  5
3263
330
1F
100
AcDbEntity
  8
10
  6
CONTINUOUS
100
AcDbLine
 10
311.0048459823872
 20
362.6010032962831
 30
0.0
 11
339.0048459823872
 21
362.6010032962831
 31
0.0
  0
LINE
  5
3264
330
1F
100
AcDbEntity
  8
10
  6
CONTINUOUS
100
AcDbLine
 10
339.0048459823872
 20
364.601003296284
 30
0.0
 11
311.0048459823872
 21
364.601003296284
 31
0.0
  0
LINE
  5
3265
330
1F
100
AcDbEntity
  8
10
  6
CONTINUOUS
100
AcDbLine
 10
345.4048459823873
 20
373.5010032962841
 30
0.0
 11
304.6048459823871
 21
373.5010032962841
 31
0.0
  0
LINE
  5
36BF
330
1F
100
AcDbEntity
  8
10
  6
CONTINUOUS
100
AcDbLine
 10
559.0048459823872
 20
330.6010032962841
 30
0.0
 11
620.0048459823872
 21
330.6010032962841
 31
0.0
  0
LINE
  5
36C0
330
1F
100
AcDbEntity
  8
10
  6
CONTINUOUS
100
AcDbLine
 10
559.0048459823872
 20
330.6010032962832
 30
0.0
 11
620.0048459823872
 21
330.6010032962832
 31
0.0
  0
LINE
  5
36C1
330
1F
100
AcDbEntity
  8
10
  6
CONTINUOUS
100
AcDbLine
 10
559.0048459823872
 20
344.1010032962841
 30
0.0
 11
620.0048459823872
 21
344.1010032962841
 31
0.0
  0
LINE
  5
36D5
330
1F
100
AcDbEntity
  8
12
 48
4.0
100
AcDbLine
 10
430.0048459823872
 20
336.601003296284
 30
0.0
 11
413.0048459823872
 21
336.601003296284
 31
0.0
  0
LINE
  5
36D6
330
1F
100
AcDbEntity
  8
12
 48
4.0
100
AcDbLine
 10
421.5048459823872
 20
345.101003296284
 30
0.0
 11
421.5048459823872
 21
328.101003296284
 31
0.0
  0
ARC
  5
36D7
330
1F
100
AcDbEntity
  8
10
  6
HIDDEN
 48
6.0
100
AcDbCircle
 10
418.0048459823872
 20
331.601003296284
 30
0.0
 40
0.99999999999999
100
AcDbArc
 50
270.0
 51
0.0
  0
ARC
  5
36D8
330
1F
100
AcDbEntity
  8
10
  6
CONTINUOUS
100
AcDbCircle
 10
426.7048459823874
 20
331.401003296284
 30
0.0
 40
0.7999999999999452
100
AcDbArc
 50
270.0
 51
0.0
  0
POINT
  5
36D9
330
1F
100
AcDbEntity
  8
10
  6
DASHED
100
AcDbPoint
 10
427.5048459823872
 20
330.601003296284
 30
0.0
  0
ARC
  5
36DA
330
1F
100
AcDbEntity
  8
10
  6
HIDDEN
 48
6.0
100
AcDbCircle
 10
426.5048459823872
 20
333.101003296284
 30
0.0
 40
1.000000000000001
100
AcDbArc
 50
270.0
 51
0.0
  0
LINE
  5
36DB
330
1F
100
AcDbEntity
  8
10
  6
HIDDEN
 48
6.0
100
AcDbLine
 10
424.0048459823872
 20
336.601003296284
 30
0.0
 11
424.0048459823872
 21
333.101003296284
 31
0.0
  0
ARC
  5
36DC
330
1F
100
AcDbEntity
  8
10
  6
HIDDEN
 48
7.0
100
AcDbCircle
 10
425.0048459823881
 20
333.101003296284
 30
0.0
 40
1.000000000000001
100
AcDbArc
 50
180.0
 51
270.0
  0
LINE
  5
36DD
330
1F
100
AcDbEntity
  8
10
  6
HIDDEN
 48
6.0
100
AcDbLine
 10
425.0048459823881
 20
332.101003296284
 30
0.0
 11
426.5048459823872
 21
332.101003296284
 31
0.0
  0
LINE
  5
36DE
330
1F
100
AcDbEntity
  8
10
  6
HIDDEN
 48
6.0
100
AcDbLine
 10
419.0048459823872
 20
336.601003296284
 30
0.0
 11
419.0048459823872
 21
331.601003296284
 31
0.0
  0
ARC
  5
36DF
330
1F
100
AcDbEntity
  8
10
  6
HIDDEN
 48
6.0
100
AcDbCircle
 10
421.5048459823872
 20
336.601003296284
 30
0.0
 40
2.500000000000455
100
AcDbArc
 50
0.0
 51
90.0
  0
ARC
  5
36E0
330
1F
100
AcDbEntity
  8
10
  6
HIDDEN
 48
6.0
100
AcDbCircle
 10
421.5048459823872
 20
336.601003296284
 30
0.0
 40
2.500000000000006
100
AcDbArc
 50
90.0
 51
180.0
  0
POINT
  5
36E1
330
1F
100
AcDbEntity
  8
0
  6
CONTINUOUS
 62
     3
100
AcDbPoint
 10
421.5048459823872
 20
330.601003296284
 30
0.0
  0
LINE
  5
36E2
330
1F
100
AcDbEntity
  8
10
  6
CONTINUOUS
100
AcDbLine
 10
547.5048459823872
 20
330.6010032962841
 30
0.0
 11
558.5048459823872
 21
330.6010032962841
 31
0.0
  0
ARC
  5
36E9
330
1F
100
AcDbEntity
  8
10
  6
CONTINUOUS
100
AcDbCircle
 10
602.9048459823873
 20
391.6010032962841
 30
0.0
 40
1.499999999999992
100
AcDbArc
 50
180.0
 51
0.0
  0
ARC
  5
36EA
330
1F
100
AcDbEntity
  8
10
  6
CONTINUOUS
100
AcDbCircle
 10
607.7048459823884
 20
391.6010032962841
 30
0.0
 40
1.499999999999992
100
AcDbArc
 50
180.0
 51
0.0
  0
ARC
  5
36EB
330
1F
100
AcDbEntity
  8
10
  6
CONTINUOUS
100
AcDbCircle
 10
598.1048459823871
 20
391.6010032962841
 30
0.0
 40
1.499999999999992
100
AcDbArc
 50
180.0
 51
0.0
  0
ARC
  5
36EC
330
1F
100
AcDbEntity
  8
10
  6
CONTINUOUS
100
AcDbCircle
 10
593.3048459823869
 20
391.6010032962841
 30
0.0
 40
1.499999999999992
100
AcDbArc
 50
180.0
 51
0.0
  0
ARC
  5
36ED
330
1F
100
AcDbEntity
  8
10
  6
CONTINUOUS
100
AcDbCircle
 10
588.5048459823872
 20
391.6010032962841
 30
0.0
 40
1.500000000000004
100
AcDbArc
 50
180.0
 51
0.0
  0
ARC
  5
36EE
330
1F
100
AcDbEntity
  8
10
  6
CONTINUOUS
100
AcDbCircle
 10
583.7048459823875
 20
391.6010032962841
 30
0.0
 40
1.499999999999992
100
AcDbArc
 50
180.0
 51
0.0
  0
ARC
  5
36EF
330
1F
100
AcDbEntity
  8
10
  6
CONTINUOUS
100
AcDbCircle
 10
578.9048459823873
 20
391.6010032962841
 30
0.0
 40
1.499999999999992
100
AcDbArc
 50
180.0
 51
0.0
  0
LINE
  5
36F0
330
1F
100
AcDbEntity
  8
10
  6
CONTINUOUS
100
AcDbLine
 10
599.6048459823871
 20
415.1010032962832
 30
0.0
 11
596.6048459823871
 21
415.1010032962832
 31
0.0
  0
LINE
  5
36F1
330
1F
100
AcDbEntity
  8
10
  6
CONTINUOUS
100
AcDbLine
 10
599.6048459823871
 20
412.1010032962841
 30
0.0
 11
596.6048459823871
 21
412.1010032962841
 31
0.0
  0
LINE
  5
36F2
330
1F
100
AcDbEntity
  8
10
  6
CONTINUOUS
100
AcDbLine
 10
604.4048459823873
 20
415.1010032962832
 30
0.0
 11
601.4048459823873
 21
415.1010032962832
 31
0.0
  0
LINE
  5
36F3
330
1F
100
AcDbEntity
  8
10
  6
CONTINUOUS
100
AcDbLine
 10
609.2048459823875
 20
415.1010032962832
 30
0.0
 11
606.2048459823874
 21
415.1010032962832
 31
0.0
  0
LINE
  5
36F4
330
1F
100
AcDbEntity
  8
10
  6
CONTINUOUS
100
AcDbLine
 10
604.4048459823873
 20
412.1010032962841
 30
0.0
 11
601.4048459823873
 21
412.1010032962841
 31
0.0
  0
LINE
  5
36F5
330
1F
100
AcDbEntity
  8
10
  6
CONTINUOUS
100
AcDbLine
 10
609.2048459823875
 20
412.1010032962841
 30
0.0
 11
606.2048459823874
 21
412.1010032962841
 31
0.0
  0
LINE
  5
36F6
330
1F
100
AcDbEntity
  8
10
  6
CONTINUOUS
100
AcDbLine
 10
585.2048459823874
 20
415.1010032962832
 30
0.0
 11
582.2048459823874
 21
415.1010032962832
 31
0.0
  0
LINE
  5
36F7
330
1F
100
AcDbEntity
  8
10
  6
CONTINUOUS
100
AcDbLine
 10
585.2048459823874
 20
412.1010032962841
 30
0.0
 11
582.2048459823874
 21
412.1010032962841
 31
0.0
  0
LINE
  5
36F8
330
1F
100
AcDbEntity
  8
10
  6
CONTINUOUS
100
AcDbLine
 10
594.8048459823869
 20
415.1010032962832
 30
0.0
 11
591.8048459823869
 21
415.1010032962832
 31
0.0
  0
LINE
  5
36F9
330
1F
100
AcDbEntity
  8
10
  6
CONTINUOUS
100
AcDbLine
 10
590.0048459823872
 20
415.1010032962832
 30
0.0
 11
587.0048459823872
 21
415.1010032962832
 31
0.0
  0
LINE
  5
36FA
330
1F
100
AcDbEntity
  8
10
  6
CONTINUOUS
100
AcDbLine
 10
594.8048459823869
 20
412.1010032962841
 30
0.0
 11
591.8048459823869
 21
412.1010032962841
 31
0.0
  0
LINE
  5
36FB
330
1F
100
AcDbEntity
  8
10
  6
CONTINUOUS
100
AcDbLine
 10
590.0048459823872
 20
412.1010032962841
 30
0.0
 11
587.0048459823872
 21
412.1010032962841
 31
0.0
  0
LINE
  5
36FC
330
1F
100
AcDbEntity
  8
10
  6
CONTINUOUS
100
AcDbLine
 10
563.0048459823872
 20
432.6010032962841
 30
0.0
 11
563.0048459823872
 21
431.6010032962841
 31
0.0
  0
LINE
  5
36FD
330
1F
100
AcDbEntity
  8
10
  6
CONTINUOUS
100
AcDbLine
 10
563.0048459823872
 20
432.6010032962841
 30
0.0
 11
572.0048459823872
 21
432.6010032962841
 31
0.0
  0
LINE
  5
36FE
330
1F
100
AcDbEntity
  8
10
  6
CONTINUOUS
100
AcDbLine
 10
563.0048459823872
 20
431.6010032962841
 30
0.0
 11
571.0048459823872
 21
431.6010032962841
 31
0.0
  0
LINE
  5
36FF
330
1F
100
AcDbEntity
  8
10
  6
CONTINUOUS
100
AcDbLine
 10
580.4048459823873
 20
415.1010032962832
 30
0.0
 11
577.4048459823859
 21
415.1010032962832
 31
0.0
  0
LINE
  5
3700
330
1F
100
AcDbEntity
  8
10
  6
CONTINUOUS
100
AcDbLine
 10
580.4048459823873
 20
412.1010032962841
 30
0.0
 11
577.4048459823872
 21
412.1010032962841
 31
0.0
  0
LINE
  5
3701
330
1F
100
AcDbEntity
  8
10
  6
CONTINUOUS
100
AcDbLine
 10
563.0048459823872
 20
425.6010032962841
 30
0.0
 11
563.0048459823872
 21
424.6010032962841
 31
0.0
  0
LINE
  5
3702
330
1F
100
AcDbEntity
  8
10
  6
CONTINUOUS
100
AcDbLine
 10
563.0048459823872
 20
425.6010032962841
 30
0.0
 11
571.0048459823872
 21
425.6010032962841
 31
0.0
  0
LINE
  5
3703
330
1F
100
AcDbEntity
  8
10
  6
CONTINUOUS
100
AcDbLine
 10
563.0048459823872
 20
424.6010032962841
 30
0.0
 11
572.0048459823872
 21
424.6010032962841
 31
0.0
  0
LINE
  5
3704
330
1F
100
AcDbEntity
  8
10
  6
CONTINUOUS
100
AcDbLine
 10
572.0048459823872
 20
432.6010032962841
 30
0.0
 11
572.0048459823872
 21
424.6010032962841
 31
0.0
  0
LINE
  5
3705
330
1F
100
AcDbEntity
  8
10
  6
CONTINUOUS
100
AcDbLine
 10
571.0048459823872
 20
425.6010032962841
 30
0.0
 11
571.0048459823872
 21
431.6010032962841
 31
0.0
  0
LINE
  5
3706
330
1F
100
AcDbEntity
  8
10
  6
CONTINUOUS
100
AcDbLine
 10
683.5048459823881
 20
348.6010032962841
 30
0.0
 11
683.5048459823881
 21
330.6010032962841
 31
0.0
  0
LINE
  5
3707
330
1F
100
AcDbEntity
  8
10
 48
6.0
100
AcDbLine
 10
682.1548459823873
 20
361.1010032962841
 30
0.0
 11
682.1548459823873
 21
336.1010032962841
 31
0.0
  0
LINE
  5
3708
330
1F
100
AcDbEntity
  8
10
  6
CONTINUOUS
100
AcDbLine
 10
665.5048459823872
 20
346.6891937473091
 30
0.0
 11
665.5048459823872
 21
345.1010032962841
 31
0.0
  0
LINE
  5
3709
330
1F
100
AcDbEntity
  8
10
  6
CONTINUOUS
100
AcDbLine
 10
619.5048459823872
 20
330.6010032962841
 30
0.0
 11
619.5048459823872
 21
364.6010032962841
 31
0.0
  0
LINE
  5
370A
330
1F
100
AcDbEntity
  8
10
  6
CONTINUOUS
100
AcDbLine
 10
619.5048459823872
 20
330.6010032962832
 30
0.0
 11
619.5048459823872
 21
364.6010032962841
 31
0.0
  0
LINE
  5
370B
330
1F
100
AcDbEntity
  8
10
  6
CONTINUOUS
100
AcDbLine
 10
623.5048459823872
 20
338.5836320231732
 30
0.0
 11
623.5048459823872
 21
359.1010032962841
 31
0.0
  0
LINE
  5
370C
330
1F
100
AcDbEntity
  8
10
 48
6.0
100
AcDbLine
 10
622.1548490852799
 20
336.1010032962841
 30
0.0
 11
622.1548490852799
 21
361.1010032962841
 31
0.0
  0
LINE
  5
370D
330
1F
100
AcDbEntity
  8
10
 48
6.0
100
AcDbLine
 10
682.1548459823873
 20
336.1010032962841
 30
0.0
 11
622.1548490852799
 21
336.1010032962841
 31
0.0
  0
LINE
  5
370E
330
1F
100
AcDbEntity
  8
10
  6
CONTINUOUS
100
AcDbLine
 10
683.5048459823881
 20
330.6010032962841
 30
0.0
 11
663.5048459823872
 21
330.6010032962841
 31
0.0
  0
LINE
  5
370F
330
1F
100
AcDbEntity
  8
10
  6
CONTINUOUS
100
AcDbLine
 10
666.5048459823871
 20
344.1010032962841
 30
0.0
 11
677.0048459823872
 21
344.1010032962841
 31
0.0
  0
LINE
  5
3710
330
1F
100
AcDbEntity
  8
10
  6
CONTINUOUS
100
AcDbLine
 10
644.5048459823872
 20
330.6010032962841
 30
0.0
 11
619.5048459823872
 21
330.6010032962841
 31
0.0
  0
LINE
  5
3711
330
1F
100
AcDbEntity
  8
10
  6
CONTINUOUS
100
AcDbLine
 10
663.0048459823872
 20
331.1010032962841
 30
0.0
 11
663.0048459823872
 21
338.1010032962841
 31
0.0
  0
ARC
  5
3712
330
1F
100
AcDbEntity
  8
10
  6
CONTINUOUS
100
AcDbCircle
 10
663.5048459823872
 20
331.1010032962841
 30
0.0
 40
0.5000000000000151
100
AcDbArc
 50
180.0
 51
270.0
  0
LINE
  5
3713
330
1F
100
AcDbEntity
  8
10
  6
CONTINUOUS
100
AcDbLine
 10
660.3731403611866
 20
338.1003180636831
 30
0.0
 11
660.3644101820876
 21
338.100698709284
 31
0.0
  0
LINE
  5
3714
330
1F
100
AcDbEntity
  8
10
  6
CONTINUOUS
100
AcDbLine
 10
660.3644101820876
 20
338.100698709284
 30
0.0
 11
660.3556746622873
 21
338.1009271436831
 31
0.0
  0
LINE
  5
3715
330
1F
100
AcDbEntity
  8
10
  6
CONTINUOUS
100
AcDbLine
 10
660.3556746622873
 20
338.1009271436831
 30
0.0
 11
660.3469364714867
 21
338.1010032962841
 31
0.0
  0
LINE
  5
3716
330
1F
100
AcDbEntity
  8
10
  6
CONTINUOUS
100
AcDbLine
 10
665.5048459823872
 20
345.1010032962841
 30
0.0
 11
665.5048459823872
 21
339.5836320231741
 31
0.0
  0
ARC
  5
3717
330
1F
100
AcDbEntity
  8
10
  6
CONTINUOUS
100
AcDbCircle
 10
666.5048459823871
 20
345.1010032962841
 30
0.0
 40
1.000000000000001
100
AcDbArc
 50
180.0
 51
270.0
  0
ARC
  5
3718
330
1F
100
AcDbEntity
  8
10
  6
CONTINUOUS
100
AcDbCircle
 10
662.5048459823872
 20
338.1010032962841
 30
0.0
 40
0.4999999999999878
100
AcDbArc
 50
0.0
 51
90.0
  0
LINE
  5
3719
330
1F
100
AcDbEntity
  8
10
  6
CONTINUOUS
100
AcDbLine
 10
661.0048459823881
 20
332.1010032962841
 30
0.0
 11
661.0048459823881
 21
338.6010032962841
 31
0.0
  0
LINE
  5
371A
330
1F
100
AcDbEntity
  8
10
  6
CONTINUOUS
100
AcDbLine
 10
660.8738265341883
 20
336.6010032962841
 30
0.0
 11
660.8738265341883
 21
335.6010032962841
 31
0.0
  0
LINE
  5
371B
330
1F
100
AcDbEntity
  8
10
  6
CONTINUOUS
100
AcDbLine
 10
660.8738265341883
 20
334.1010032962841
 30
0.0
 11
660.8738265341883
 21
333.1010032962841
 31
0.0
  0
LINE
  5
371C
330
1F
100
AcDbEntity
  8
10
  6
CONTINUOUS
100
AcDbLine
 10
660.3993442507873
 20
338.1003180636831
 30
0.0
 11
660.5535879024866
 21
338.0678932246841
 31
0.0
  0
LINE
  5
371D
330
1F
100
AcDbEntity
  8
10
  6
CONTINUOUS
100
AcDbLine
 10
660.5535879024866
 20
338.0678932246841
 30
0.0
 11
660.6778813831872
 21
338.0010880691842
 31
0.0
  0
LINE
  5
371E
330
1F
100
AcDbEntity
  8
10
  6
CONTINUOUS
100
AcDbLine
 10
660.6778813831872
 20
338.0010880691842
 30
0.0
 11
660.7728182699868
 21
337.9134427855841
 31
0.0
  0
LINE
  5
371F
330
1F
100
AcDbEntity
  8
10
  6
CONTINUOUS
100
AcDbLine
 10
660.7728182699868
 20
337.9134427855841
 30
0.0
 11
660.8402469030882
 21
337.813411878384
 31
0.0
  0
LINE
  5
3720
330
1F
100
AcDbEntity
  8
10
  6
CONTINUOUS
100
AcDbLine
 10
660.8402469030882
 20
337.813411878384
 30
0.0
 11
660.8816977290874
 21
337.7072413366832
 31
0.0
  0
LINE
  5
3721
330
1F
100
AcDbEntity
  8
10
  6
CONTINUOUS
100
AcDbLine
 10
660.8816977290874
 20
337.7072413366832
 30
0.0
 11
660.8986590181869
 21
337.6010032962841
 31
0.0
  0
LINE
  5
3722
330
1F
100
AcDbEntity
  8
10
  6
CONTINUOUS
100
AcDbLine
 10
660.3731403611866
 20
338.1003180636831
 30
0.0
 11
660.5273840128868
 21
338.0678932246841
 31
0.0
  0
LINE
  5
3723
330
1F
100
AcDbEntity
  8
10
  6
CONTINUOUS
100
AcDbLine
 10
660.5273840128868
 20
338.0678932246841
 30
0.0
 11
660.6516774934882
 21
338.0010880691842
 31
0.0
  0
LINE
  5
3724
330
1F
100
AcDbEntity
  8
10
  6
CONTINUOUS
100
AcDbLine
 10
660.6516774934882
 20
338.0010880691842
 30
0.0
 11
660.7466143803869
 21
337.9134427855841
 31
0.0
  0
LINE
  5
3725
330
1F
100
AcDbEntity
  8
10
  6
CONTINUOUS
100
AcDbLine
 10
660.7466143803869
 20
337.9134427855841
 30
0.0
 11
660.8140430134869
 21
337.813411878384
 31
0.0
  0
LINE
  5
3726
330
1F
100
AcDbEntity
  8
10
  6
CONTINUOUS
100
AcDbLine
 10
660.8140430134869
 20
337.813411878384
 30
0.0
 11
660.855493839487
 21
337.7072413366832
 31
0.0
  0
LINE
  5
3727
330
1F
100
AcDbEntity
  8
10
  6
CONTINUOUS
100
AcDbLine
 10
660.855493839487
 20
337.7072413366832
 30
0.0
 11
660.8724551284869
 21
337.6010032962841
 31
0.0
  0
LINE
  5
3728
330
1F
100
AcDbEntity
  8
10
  6
CONTINUOUS
100
AcDbLine
 10
661.0048459823881
 20
332.1010032962841
 30
0.0
 11
660.9759623934872
 21
331.9377298398841
 31
0.0
  0
LINE
  5
3729
330
1F
100
AcDbEntity
  8
10
  6
CONTINUOUS
100
AcDbLine
 10
660.9759623934872
 20
331.9377298398841
 30
0.0
 11
660.9062025501873
 21
331.8097191495843
 31
0.0
  0
LINE
  5
372A
330
1F
100
AcDbEntity
  8
10
  6
CONTINUOUS
100
AcDbLine
 10
660.9062025501873
 20
331.8097191495843
 30
0.0
 11
660.8126156674873
 21
331.714813201184
 31
0.0
  0
LINE
  5
372B
330
1F
100
AcDbEntity
  8
10
  6
CONTINUOUS
100
AcDbLine
 10
660.8126156674873
 20
331.714813201184
 30
0.0
 11
660.705229332487
 21
331.649910682284
 31
0.0
  0
LINE
  5
372C
330
1F
100
AcDbEntity
  8
10
  6
CONTINUOUS
100
AcDbLine
 10
660.705229332487
 20
331.649910682284
 30
0.0
 11
660.5912577284873
 21
331.6127005436841
 31
0.0
  0
LINE
  5
372D
330
1F
100
AcDbEntity
  8
10
  6
CONTINUOUS
100
AcDbLine
 10
660.5912577284873
 20
331.6127005436841
 30
0.0
 11
660.477955919687
 21
331.6010032962841
 31
0.0
  0
LINE
  5
372E
330
1F
100
AcDbEntity
  8
10
  6
CONTINUOUS
100
AcDbLine
 10
661.0048459823881
 20
333.1010032962841
 30
0.0
 11
663.0048459823872
 21
333.1010032962841
 31
0.0
  0
LINE
  5
372F
330
1F
100
AcDbEntity
  8
10
  6
CONTINUOUS
100
AcDbLine
 10
645.0048459823872
 20
331.1010032962841
 30
0.0
 11
645.0048459823872
 21
338.1010032962841
 31
0.0
  0
ARC
  5
3730
330
1F
100
AcDbEntity
  8
10
  6
CONTINUOUS
100
AcDbCircle
 10
644.5048459823872
 20
331.1010032962841
 30
0.0
 40
0.4999999999999878
100
AcDbArc
 50
270.0
 51
0.0
  0
ARC
  5
3731
330
1F
100
AcDbEntity
  8
10
  6
CONTINUOUS
100
AcDbCircle
 10
645.5048459823871
 20
338.1010032962841
 30
0.0
 40
0.5000000000000023
100
AcDbArc
 50
90.0
 51
180.0
  0
LINE
  5
3732
330
1F
100
AcDbEntity
  8
10
  6
CONTINUOUS
100
AcDbLine
 10
647.0048459823872
 20
332.1010032962841
 30
0.0
 11
647.0337295712872
 21
331.9377298398841
 31
0.0
  0
LINE
  5
3733
330
1F
100
AcDbEntity
  8
10
  6
CONTINUOUS
100
AcDbLine
 10
647.0337295712872
 20
331.9377298398841
 30
0.0
 11
647.103489414487
 21
331.8097191495843
 31
0.0
  0
LINE
  5
3734
330
1F
100
AcDbEntity
  8
10
  6
CONTINUOUS
100
AcDbLine
 10
647.103489414487
 20
331.8097191495843
 30
0.0
 11
647.1970762972871
 21
331.714813201184
 31
0.0
  0
LINE
  5
3735
330
1F
100
AcDbEntity
  8
10
  6
CONTINUOUS
100
AcDbLine
 10
647.1970762972871
 20
331.714813201184
 30
0.0
 11
647.3044626321873
 21
331.649910682284
 31
0.0
  0
LINE
  5
3736
330
1F
100
AcDbEntity
  8
10
  6
CONTINUOUS
100
AcDbLine
 10
647.3044626321873
 20
331.649910682284
 30
0.0
 11
647.4184342362871
 21
331.6127005436841
 31
0.0
  0
LINE
  5
3737
330
1F
100
AcDbEntity
  8
10
  6
CONTINUOUS
100
AcDbLine
 10
647.4184342362871
 20
331.6127005436841
 30
0.0
 11
647.5317360449882
 21
331.6010032962841
 31
0.0
  0
LINE
  5
3738
330
1F
100
AcDbEntity
  8
10
  6
CONTINUOUS
100
AcDbLine
 10
647.135865430587
 20
336.6010032962841
 30
0.0
 11
647.135865430587
 21
335.6010032962841
 31
0.0
  0
LINE
  5
3739
330
1F
100
AcDbEntity
  8
10
  6
CONTINUOUS
100
AcDbLine
 10
647.135865430587
 20
334.1010032962841
 30
0.0
 11
647.135865430587
 21
333.1010032962841
 31
0.0
  0
LINE
  5
373A
330
1F
100
AcDbEntity
  8
10
  6
CONTINUOUS
100
AcDbLine
 10
647.6103477138869
 20
338.1003180636831
 30
0.0
 11
647.4561040621868
 21
338.0678932246841
 31
0.0
  0
LINE
  5
373B
330
1F
100
AcDbEntity
  8
10
  6
CONTINUOUS
100
AcDbLine
 10
647.4561040621868
 20
338.0678932246841
 30
0.0
 11
647.3318105815872
 21
338.0010880691842
 31
0.0
  0
LINE
  5
373C
330
1F
100
AcDbEntity
  8
10
  6
CONTINUOUS
100
AcDbLine
 10
647.3318105815872
 20
338.0010880691842
 30
0.0
 11
647.236873694687
 21
337.9134427855841
 31
0.0
  0
LINE
  5
373D
330
1F
100
AcDbEntity
  8
10
  6
CONTINUOUS
100
AcDbLine
 10
647.236873694687
 20
337.9134427855841
 30
0.0
 11
647.1694450615871
 21
337.813411878384
 31
0.0
  0
LINE
  5
373E
330
1F
100
AcDbEntity
  8
10
  6
CONTINUOUS
100
AcDbLine
 10
647.1694450615871
 20
337.813411878384
 30
0.0
 11
647.1279942355879
 21
337.7072413366832
 31
0.0
  0
LINE
  5
373F
330
1F
100
AcDbEntity
  8
10
  6
CONTINUOUS
100
AcDbLine
 10
647.1279942355879
 20
337.7072413366832
 30
0.0
 11
647.111032946587
 21
337.6010032962841
 31
0.0
  0
LINE
  5
3740
330
1F
100
AcDbEntity
  8
10
  6
CONTINUOUS
100
AcDbLine
 10
647.6365516035878
 20
338.1003180636831
 30
0.0
 11
647.4823079518871
 21
338.0678932246841
 31
0.0
  0
LINE
  5
3741
330
1F
100
AcDbEntity
  8
10
  6
CONTINUOUS
100
AcDbLine
 10
647.4823079518871
 20
338.0678932246841
 30
0.0
 11
647.3580144711871
 21
338.0010880691842
 31
0.0
  0
LINE
  5
3742
330
1F
100
AcDbEntity
  8
10
  6
CONTINUOUS
100
AcDbLine
 10
647.3580144711871
 20
338.0010880691842
 30
0.0
 11
647.263077584387
 21
337.9134427855841
 31
0.0
  0
LINE
  5
3743
330
1F
100
AcDbEntity
  8
10
  6
CONTINUOUS
100
AcDbLine
 10
647.263077584387
 20
337.9134427855841
 30
0.0
 11
647.1956489512869
 21
337.813411878384
 31
0.0
  0
LINE
  5
3744
330
1F
100
AcDbEntity
  8
10
  6
CONTINUOUS
100
AcDbLine
 10
647.1956489512869
 20
337.813411878384
 30
0.0
 11
647.1541981252869
 21
337.7072413366832
 31
0.0
  0
LINE
  5
3745
330
1F
100
AcDbEntity
  8
10
  6
CONTINUOUS
100
AcDbLine
 10
647.1541981252869
 20
337.7072413366832
 30
0.0
 11
647.1372368361869
 21
337.6010032962841
 31
0.0
  0
LINE
  5
3746
330
1F
100
AcDbEntity
  8
10
  6
CONTINUOUS
100
AcDbLine
 10
647.6365516035878
 20
338.1003180636831
 30
0.0
 11
647.6452817825877
 21
338.100698709284
 31
0.0
  0
LINE
  5
3747
330
1F
100
AcDbEntity
  8
10
  6
CONTINUOUS
100
AcDbLine
 10
647.6452817825877
 20
338.100698709284
 30
0.0
 11
647.654017302487
 21
338.1009271436831
 31
0.0
  0
LINE
  5
3748
330
1F
100
AcDbEntity
  8
10
  6
CONTINUOUS
100
AcDbLine
 10
647.654017302487
 20
338.1009271436831
 30
0.0
 11
647.6627554931872
 21
338.1010032962841
 31
0.0
  0
LINE
  5
3749
330
1F
100
AcDbEntity
  8
10
  6
CONTINUOUS
100
AcDbLine
 10
645.0048459823872
 20
333.1010032962841
 30
0.0
 11
647.0048459823872
 21
333.1010032962841
 31
0.0
  0
LINE
  5
374A
330
1F
100
AcDbEntity
  8
10
  6
CONTINUOUS
100
AcDbLine
 10
647.0048459823872
 20
332.1010032962841
 30
0.0
 11
647.0048459823872
 21
338.6010032962841
 31
0.0
  0
LINE
  5
374B
330
1F
100
AcDbEntity
  8
10
  6
CONTINUOUS
100
AcDbLine
 10
663.5048459823872
 20
330.6010032962841
 30
0.0
 11
644.5048459823872
 21
330.6010032962841
 31
0.0
  0
LINE
  5
374C
330
1F
100
AcDbEntity
  8
10
  6
CONTINUOUS
100
AcDbLine
 10
662.5048459823872
 20
338.6010032962841
 30
0.0
 11
645.5048459823871
 21
338.6010032962841
 31
0.0
  0
LINE
  5
374D
330
1F
100
AcDbEntity
  8
10
  6
CONTINUOUS
100
AcDbLine
 10
647.6627554931872
 20
338.1010032962841
 30
0.0
 11
660.3469364714867
 21
338.1010032962841
 31
0.0
  0
LINE
  5
374E
330
1F
100
AcDbEntity
  8
10
  6
CONTINUOUS
100
AcDbLine
 10
647.1372368361869
 20
336.6010032962841
 30
0.0
 11
660.8724551284869
 21
336.6010032962841
 31
0.0
  0
LINE
  5
374F
330
1F
100
AcDbEntity
  8
10
  6
CONTINUOUS
100
AcDbLine
 10
647.135865430587
 20
335.6010032962841
 30
0.0
 11
660.8724551284869
 21
335.6010032962841
 31
0.0
  0
LINE
  5
3750
330
1F
100
AcDbEntity
  8
10
  6
CONTINUOUS
100
AcDbLine
 10
647.1372368361869
 20
334.1010032962841
 30
0.0
 11
660.8724551284869
 21
334.1010032962841
 31
0.0
  0
LINE
  5
3751
330
1F
100
AcDbEntity
  8
10
  6
CONTINUOUS
100
AcDbLine
 10
647.135865430587
 20
333.1010032962841
 30
0.0
 11
660.8724551284869
 21
333.1010032962841
 31
0.0
  0
LINE
  5
3752
330
1F
100
AcDbEntity
  8
10
  6
CONTINUOUS
100
AcDbLine
 10
647.5317360449882
 20
331.6010032962841
 30
0.0
 11
660.477955919687
 21
331.6010032962841
 31
0.0
  0
LINE
  5
3753
330
1F
100
AcDbEntity
  8
10
  6
CONTINUOUS
100
AcDbLine
 10
621.5048459823872
 20
330.6010032962832
 30
0.0
 11
621.5048459823872
 21
344.1010032962841
 31
0.0
  0
LINE
  5
3754
330
1F
100
AcDbEntity
  8
10
  6
CONTINUOUS
100
AcDbLine
 10
619.5048459823872
 20
344.1010032962841
 30
0.0
 11
623.5048459823872
 21
344.1010032962841
 31
0.0
  0
LINE
  5
3755
330
1F
100
AcDbEntity
  8
10
  6
CONTINUOUS
100
AcDbLine
 10
619.5048459823872
 20
343.1010032962841
 30
0.0
 11
621.5048459823872
 21
343.1010032962841
 31
0.0
  0
LINE
  5
3756
330
1F
100
AcDbEntity
  8
10
  6
CONTINUOUS
100
AcDbLine
 10
678.5048459823872
 20
342.6010032962841
 30
0.0
 11
678.5048459823872
 21
330.6010032962841
 31
0.0
  0
ARC
  5
3757
330
1F
100
AcDbEntity
  8
10
  6
CONTINUOUS
100
AcDbCircle
 10
677.0048459823872
 20
342.6010032962841
 30
0.0
 40
1.499999999999992
100
AcDbArc
 50
0.0
 51
90.0
  0
LINE
  5
3758
330
1F
100
AcDbEntity
  8
10
 48
6.0
100
AcDbLine
 10
682.1548459823873
 20
361.1010032962841
 30
0.0
 11
622.1548490852799
 21
361.1010032962841
 31
0.0
  0
LINE
  5
3759
330
1F
100
AcDbEntity
  8
10
  6
CONTINUOUS
100
AcDbLine
 10
665.5048459823872
 20
346.6891937473091
 30
0.0
 11
626.0048459823872
 21
346.6891937473091
 31
0.0
  0
LINE
  5
375A
330
1F
100
AcDbEntity
  8
10
  6
CONTINUOUS
100
AcDbLine
 10
619.5048459823872
 20
374.6010032962841
 30
0.0
 11
618.5048459823872
 21
374.6010032962841
 31
0.0
  0
LINE
  5
375B
330
1F
100
AcDbEntity
  8
10
  6
CONTINUOUS
100
AcDbLine
 10
614.5048459823872
 20
373.1010032962841
 30
0.0
 11
612.0048459823881
 21
373.1010032962841
 31
0.0
  0
LINE
  5
375C
330
1F
100
AcDbEntity
  8
10
  6
CONTINUOUS
100
AcDbLine
 10
619.5048459823872
 20
364.6010032962841
 30
0.0
 11
618.5048459823872
 21
364.6010032962841
 31
0.0
  0
LINE
  5
375D
330
1F
100
AcDbEntity
  8
10
  6
CONTINUOUS
100
AcDbLine
 10
614.5048459823872
 20
366.1010032962841
 30
0.0
 11
612.0048459823881
 21
366.1010032962841
 31
0.0
  0
LINE
  5
375E
330
1F
100
AcDbEntity
  8
10
  6
CONTINUOUS
100
AcDbLine
 10
614.5048459823872
 20
373.1010032962841
 30
0.0
 11
614.5048459823872
 21
366.1010032962841
 31
0.0
  0
LINE
  5
375F
330
1F
100
AcDbEntity
  8
10
  6
CONTINUOUS
100
AcDbLine
 10
613.5048459823872
 20
373.1010032962841
 30
0.0
 11
613.5048459823872
 21
366.1010032962841
 31
0.0
  0
LINE
  5
3760
330
1F
100
AcDbEntity
  8
10
  6
CONTINUOUS
100
AcDbLine
 10
612.0048459823881
 20
373.1010032962841
 30
0.0
 11
612.0048459823881
 21
366.1010032962841
 31
0.0
  0
LINE
  5
3761
330
1F
100
AcDbEntity
  8
10
  6
CONTINUOUS
100
AcDbLine
 10
618.5048459823872
 20
364.6010032962841
 30
0.0
 11
618.5048459823872
 21
374.6010032962841
 31
0.0
  0
LINE
  5
3762
330
1F
100
AcDbEntity
  8
10
  6
CONTINUOUS
100
AcDbLine
 10
614.5048459823872
 20
373.3510032962832
 30
0.0
 11
614.5048459823872
 21
365.8510032962832
 31
0.0
  0
LINE
  5
3763
330
1F
100
AcDbEntity
  8
10
  6
CONTINUOUS
100
AcDbLine
 10
611.5048459823872
 20
373.3510032962832
 30
0.0
 11
611.5048459823872
 21
365.8510032962832
 31
0.0
  0
LINE
  5
3764
330
1F
100
AcDbEntity
  8
10
  6
CONTINUOUS
100
AcDbLine
 10
614.5048459823872
 20
373.3510032962832
 30
0.0
 11
611.5048459823872
 21
373.3510032962832
 31
0.0
  0
LINE
  5
3765
330
1F
100
AcDbEntity
  8
10
  6
CONTINUOUS
100
AcDbLine
 10
614.5048459823872
 20
365.8510032962832
 30
0.0
 11
611.5048459823872
 21
365.8510032962832
 31
0.0
  0
LINE
  5
3766
330
1F
100
AcDbEntity
  8
10
  6
CONTINUOUS
100
AcDbLine
 10
626.0048459823872
 20
359.1010032962841
 30
0.0
 11
623.5048459823872
 21
359.1010032962841
 31
0.0
  0
LINE
  5
3767
330
1F
100
AcDbEntity
  8
10
  6
CONTINUOUS
100
AcDbLine
 10
626.0048459823872
 20
346.6891937473091
 30
0.0
 11
626.0048459823872
 21
359.1010032962841
 31
0.0
  0
LINE
  5
3768
330
1F
100
AcDbEntity
  8
10
  6
CONTINUOUS
100
AcDbLine
 10
683.5048459823881
 20
348.6010032962841
 30
0.0
 11
683.0048459823871
 21
348.6010032962841
 31
0.0
  0
LINE
  5
3769
330
1F
100
AcDbEntity
  8
10
  6
CONTINUOUS
100
AcDbLine
 10
414.7048459823874
 20
480.6010032962831
 30
0.0
 11
300.3048459823878
 21
480.6010032962831
 31
0.0
  0
LINE
  5
376A
330
1F
100
AcDbEntity
  8
10
  6
CONTINUOUS
100
AcDbLine
 10
348.3048459823869
 20
480.6010032962831
 30
0.0
 11
414.7048459823874
 21
480.6010032962831
 31
0.0
  0
LINE
  5
376B
330
1F
100
AcDbEntity
  8
10
  6
CONTINUOUS
100
AcDbLine
 10
427.5048459823872
 20
435.600993296284
 30
0.0
 11
335.5048459823881
 21
435.600993296284
 31
0.0
  0
LINE
  5
376C
330
1F
100
AcDbEntity
  8
10
  6
CONTINUOUS
100
AcDbLine
 10
347.5048459823872
 20
435.601003296284
 30
0.0
 11
415.5048459823872
 21
435.601003296284
 31
0.0
  0
LINE
  5
376D
330
1F
100
AcDbEntity
  8
12
 48
4.0
100
AcDbLine
 10
293.5048459823872
 20
479.101003296284
 30
0.0
 11
293.5048459823872
 21
470.101003296284
 31
0.0
  0
LINE
  5
376E
330
1F
100
AcDbEntity
  8
10
  6
CONTINUOUS
100
AcDbLine
 10
287.5048459823872
 20
479.601003296284
 30
0.0
 11
287.5048459823872
 21
466.4871417059
 31
0.0
  0
LINE
  5
376F
330
1F
100
AcDbEntity
  8
10
  6
CONTINUOUS
100
AcDbLine
 10
299.5048459823872
 20
479.8010032962841
 30
0.0
 11
299.5048459823872
 21
472.6183745693941
 31
0.0
  0
LINE
  5
3770
330
1F
100
AcDbEntity
  8
10
  6
CONTINUOUS
100
AcDbLine
 10
335.5048459823881
 20
435.601003296284
 30
0.0
 11
335.5048459823881
 21
480.6010032962831
 31
0.0
  0
LINE
  5
3771
330
1F
100
AcDbEntity
  8
10
  6
CONTINUOUS
100
AcDbLine
 10
347.5048459823872
 20
479.8010032962841
 30
0.0
 11
347.5048459823872
 21
435.601003296284
 31
0.0
  0
LINE
  5
3772
330
1F
100
AcDbEntity
  8
10
  6
CONTINUOUS
100
AcDbLine
 10
343.5048459823872
 20
476.601003296284
 30
0.0
 11
343.5048459823872
 21
479.601003296284
 31
0.0
  0
LINE
  5
3773
330
1F
100
AcDbEntity
  8
12
 48
4.0
100
AcDbLine
 10
298.0048459823872
 20
474.601003296284
 30
0.0
 11
289.0048459823872
 21
474.601003296284
 31
0.0
  0
LINE
  5
3774
330
1F
100
AcDbEntity
  8
10
  6
CONTINUOUS
100
AcDbLine
 10
288.097790746305
 20
467.259882366932
 30
0.0
 11
297.2813031176949
 21
469.720597090527
 31
0.0
  0
ARC
  5
3775
330
1F
100
AcDbEntity
  8
10
  6
CONTINUOUS
100
AcDbCircle
 10
288.3048459823869
 20
466.4871417059
 30
0.0
 40
0.8000000000001577
100
AcDbArc
 50
105.0000000000212
 51
180.0
  0
POINT
  5
3776
330
1F
100
AcDbEntity
  8
10
  6
CONTINUOUS
100
AcDbPoint
 10
287.5048459823872
 20
467.101003296284
 30
0.0
  0
LINE
  5
3777
330
1F
100
AcDbEntity
  8
10
  6
CONTINUOUS
100
AcDbLine
 10
335.5048459823881
 20
475.601003296284
 30
0.0
 11
345.5048459823872
 21
475.601003296284
 31
0.0
  0
LINE
  5
3778
330
1F
100
AcDbEntity
  8
10
  6
CONTINUOUS
100
AcDbLine
 10
335.5048459823881
 20
476.601003296284
 30
0.0
 11
343.5048459823872
 21
476.601003296284
 31
0.0
  0
LINE
  5
3779
330
1F
100
AcDbEntity
  8
10
  6
CONTINUOUS
100
AcDbLine
 10
345.5048459823872
 20
435.601003296284
 30
0.0
 11
345.5048459823872
 21
475.601003296284
 31
0.0
  0
ARC
  5
377A
330
1F
100
AcDbEntity
  8
10
  6
CONTINUOUS
100
AcDbCircle
 10
296.5048459823872
 20
472.6183745693941
 30
0.0
 40
2.999999999999903
100
AcDbArc
 50
285.0000000000213
 51
0.0
  0
CIRCLE
  5
377B
330
1F
100
AcDbEntity
  8
10
  6
CONTINUOUS
100
AcDbCircle
 10
293.5048459823872
 20
474.601003296284
 30
0.0
 40
2.499999999999994
  0
LINE
  5
377C
330
1F
100
AcDbEntity
  8
10
  6
CONTINUOUS
100
AcDbLine
 10
300.3048459823878
 20
480.6010032962831
 30
0.0
 11
288.5048459823872
 21
480.6010032962831
 31
0.0
  0
ARC
  5
377D
330
1F
100
AcDbEntity
  8
10
  6
CONTINUOUS
100
AcDbCircle
 10
288.5048459823872
 20
479.601003296284
 30
0.0
 40
0.9999999999999772
100
AcDbArc
 50
90.0
 51
180.0
  0
ARC
  5
377E
330
1F
100
AcDbEntity
  8
10
  6
CONTINUOUS
100
AcDbCircle
 10
300.3048459823878
 20
479.8010032962841
 30
0.0
 40
0.79999999999992
100
AcDbArc
 50
90.0
 51
180.0
  0
POINT
  5
377F
330
1F
100
AcDbEntity
  8
10
  6
CONTINUOUS
100
AcDbPoint
 10
299.5048459823872
 20
480.6010032962831
 30
0.0
  0
LINE
  5
3780
330
1F
100
AcDbEntity
  8
10
  6
CONTINUOUS
100
AcDbLine
 10
335.5048459823881
 20
480.6010032962831
 30
0.0
 11
300.3048459823878
 21
480.6010032962831
 31
0.0
  0
ARC
  5
3781
330
1F
100
AcDbEntity
  8
10
  6
CONTINUOUS
100
AcDbCircle
 10
348.3048459823869
 20
479.8010032962841
 30
0.0
 40
0.79999999999992
100
AcDbArc
 50
90.0
 51
180.0
  0
ARC
  5
3782
330
1F
100
AcDbEntity
  8
10
  6
CONTINUOUS
100
AcDbCircle
 10
342.5048459823872
 20
479.601003296284
 30
0.0
 40
1.000000000000001
100
AcDbArc
 50
0.0
 51
90.0
  0
ARC
  5
3783
330
1F
100
AcDbEntity
  8
10
  6
CONTINUOUS
100
AcDbCircle
 10
335.5048459823881
 20
479.601003296284
 30
0.0
 40
1.000000000000001
100
AcDbArc
 50
0.0
 51
90.0
  0
LINE
  5
3784
330
1F
100
AcDbEntity
  8
10
  6
CONTINUOUS
100
AcDbLine
 10
342.5048459823872
 20
480.6010032962831
 30
0.0
 11
328.5048459823872
 21
480.6010032962831
 31
0.0
  0
LINE
  5
3785
330
1F
100
AcDbEntity
  8
10
  6
CONTINUOUS
100
AcDbLine
 10
336.5048459823872
 20
479.601003296284
 30
0.0
 11
343.5048459823872
 21
479.601003296284
 31
0.0
  0
LINE
  5
3786
330
1F
100
AcDbEntity
  8
10
  6
CONTINUOUS
100
AcDbLine
 10
335.5048459823881
 20
478.601003296284
 30
0.0
 11
338.841156455843
 21
478.601003296284
 31
0.0
  0
LINE
  5
3787
330
1F
100
AcDbEntity
  8
10
  6
CONTINUOUS
100
AcDbLine
 10
338.841156455843
 20
479.601003296284
 30
0.0
 11
338.841156455843
 21
478.601003296284
 31
0.0
  0
LINE
  5
3788
330
1F
100
AcDbEntity
  8
10
  6
CONTINUOUS
100
AcDbLine
 10
559.0048459823872
 20
480.6010032962832
 30
0.0
 11
620.0048459823872
 21
480.6010032962832
 31
0.0
  0
LINE
  5
3789
330
1F
100
AcDbEntity
  8
10
  6
CONTINUOUS
100
AcDbLine
 10
559.0048459823872
 20
467.1010032962832
 30
0.0
 11
620.0048459823872
 21
467.1010032962832
 31
0.0
  0
LINE
  5
378A
330
1F
100
AcDbEntity
  8
12
 48
4.0
100
AcDbLine
 10
421.5048459823872
 20
479.101003296284
 30
0.0
 11
421.5048459823872
 21
470.101003296284
 31
0.0
  0
LINE
  5
378B
330
1F
100
AcDbEntity
  8
10
  6
CONTINUOUS
100
AcDbLine
 10
415.5048459823872
 20
479.8010032962841
 30
0.0
 11
415.5048459823872
 21
435.601003296284
 31
0.0
  0
LINE
  5
378C
330
1F
100
AcDbEntity
  8
10
  6
CONTINUOUS
100
AcDbLine
 10
427.5048459823872
 20
479.601003296284
 30
0.0
 11
427.5048459823872
 21
466.4871417059011
 31
0.0
  0
LINE
  5
378D
330
1F
100
AcDbEntity
  8
10
  6
CONTINUOUS
100
AcDbLine
 10
415.5048459823872
 20
472.6183745693941
 30
0.0
 11
415.5048459823872
 21
479.8010032962841
 31
0.0
  0
LINE
  5
3790
330
1F
100
AcDbEntity
  8
10
  6
CONTINUOUS
100
AcDbLine
 10
368.2709324407872
 20
455.8015272669511
 30
0.0
 11
368.0289148334543
 21
454.9929271092168
 31
0.0
  0
LINE
  5
3791
330
1F
100
AcDbEntity
  8
10
  6
CONTINUOUS
100
AcDbLine
 10
368.2878409254537
 20
456.524159782951
 30
0.0
 11
368.2709324407872
 21
455.8015272669511
 31
0.0
  0
LINE
  5
3792
330
1F
100
AcDbEntity
  8
10
  6
CONTINUOUS
100
AcDbLine
 10
368.079126531654
 20
457.1388678336838
 30
0.0
 11
368.2878409254537
 21
456.524159782951
 31
0.0
  0
LINE
  5
3793
330
1F
100
AcDbEntity
  8
10
  6
CONTINUOUS
100
AcDbLine
 10
368.2709324407872
 20
470.362557862817
 30
0.0
 11
368.0289148334543
 21
469.5539577050169
 31
0.0
  0
LINE
  5
3794
330
1F
100
AcDbEntity
  8
10
  6
CONTINUOUS
100
AcDbLine
 10
368.2878409254537
 20
471.0851903787499
 30
0.0
 11
368.2709324407872
 21
470.362557862817
 31
0.0
  0
LINE
  5
3795
330
1F
100
AcDbEntity
  8
10
  6
CONTINUOUS
100
AcDbLine
 10
368.079126531654
 20
471.6998984294839
 30
0.0
 11
368.2878409254537
 21
471.0851903787499
 31
0.0
  0
LINE
  5
3796
330
1F
100
AcDbEntity
  8
10
  6
CONTINUOUS
100
AcDbLine
 10
366.058400589454
 20
466.8665650961499
 30
0.0
 11
365.0533357442538
 21
465.974390861751
 31
0.0
  0
CIRCLE
  5
3797
330
1F
100
AcDbEntity
  8
10
  6
CONTINUOUS
100
AcDbCircle
 10
360.8622481667873
 20
467.533231762817
 30
0.0
 40
1.666666666666638
  0
LINE
  5
3798
330
1F
100
AcDbEntity
  8
10
  6
CONTINUOUS
100
AcDbLine
 10
354.1553546475872
 20
466.382504713684
 30
0.0
 11
354.8189133608541
 21
467.2874678657499
 31
0.0
  0
LINE
  5
3799
330
1F
100
AcDbEntity
  8
10
  6
CONTINUOUS
100
AcDbLine
 10
365.0533357442538
 20
465.974390861751
 30
0.0
 11
363.9209268237871
 21
465.1295812192838
 31
0.0
  0
LINE
  5
379A
330
1F
100
AcDbEntity
  8
10
  6
CONTINUOUS
100
AcDbLine
 10
364.0967533479208
 20
458.0830006840171
 30
0.0
 11
365.212253783721
 21
458.2051778105499
 31
0.0
  0
LINE
  5
379B
330
1F
100
AcDbEntity
  8
10
  6
CONTINUOUS
100
AcDbLine
 10
360.1167001987871
 20
463.1242230006839
 30
0.0
 11
358.8415222245869
 21
462.6998984294839
 31
0.0
  0
LINE
  5
379C
330
1F
100
AcDbEntity
  8
10
  6
CONTINUOUS
100
AcDbLine
 10
361.4145312707871
 20
463.682513072084
 30
0.0
 11
360.1167001987871
 21
463.1242230006839
 31
0.0
  0
LINE
  5
379D
330
1F
100
AcDbEntity
  8
10
  6
CONTINUOUS
100
AcDbLine
 10
362.6955815001213
 20
464.357805282284
 30
0.0
 11
361.4145312707871
 21
463.682513072084
 31
0.0
  0
LINE
  5
379E
330
1F
100
AcDbEntity
  8
10
  6
CONTINUOUS
100
AcDbLine
 10
353.6955815001213
 20
465.5125058206841
 30
0.0
 11
354.1553546475872
 21
466.382504713684
 31
0.0
  0
LINE
  5
379F
330
1F
100
AcDbEntity
  8
10
  6
CONTINUOUS
100
AcDbLine
 10
353.4535638927202
 20
464.7039056628829
 30
0.0
 11
353.6955815001213
 21
465.5125058206841
 31
0.0
  0
LINE
  5
37A0
330
1F
100
AcDbEntity
  8
10
  6
CONTINUOUS
100
AcDbLine
 10
353.43665540812
 20
463.981273146951
 30
0.0
 11
353.4535638927202
 21
464.7039056628829
 31
0.0
  0
LINE
  5
37A1
330
1F
100
AcDbEntity
  8
10
  6
CONTINUOUS
100
AcDbLine
 10
353.6453698019201
 20
463.3665650961511
 30
0.0
 11
353.43665540812
 21
463.981273146951
 31
0.0
  0
LINE
  5
37A2
330
1F
100
AcDbEntity
  8
10
  6
CONTINUOUS
100
AcDbLine
 10
354.0733653928539
 20
462.8784591036169
 30
0.0
 11
353.6453698019201
 21
463.3665650961511
 31
0.0
  0
LINE
  5
37A3
330
1F
100
AcDbEntity
  8
10
  6
CONTINUOUS
100
AcDbLine
 10
354.707637751587
 20
462.531786022884
 30
0.0
 11
354.0733653928539
 21
462.8784591036169
 31
0.0
  0
LINE
  5
37A4
330
1F
100
AcDbEntity
  8
10
  6
CONTINUOUS
100
AcDbLine
 10
355.5289148334543
 20
462.3370793401509
 30
0.0
 11
354.707637751587
 21
462.531786022884
 31
0.0
  0
LINE
  5
37A5
330
1F
100
AcDbEntity
  8
10
  6
CONTINUOUS
100
AcDbLine
 10
356.5122425497868
 20
462.3002551193501
 30
0.0
 11
355.5289148334543
 21
462.3370793401509
 31
0.0
  0
LINE
  5
37A6
330
1F
100
AcDbEntity
  8
10
  6
CONTINUOUS
100
AcDbLine
 10
357.627742985587
 20
462.4224322458839
 30
0.0
 11
356.5122425497868
 21
462.3002551193501
 31
0.0
  0
LINE
  5
37A7
330
1F
100
AcDbEntity
  8
10
  6
CONTINUOUS
100
AcDbLine
 10
358.8415222245869
 20
462.6998984294839
 30
0.0
 11
357.627742985587
 21
462.4224322458839
 31
0.0
  0
LINE
  5
37A8
330
1F
100
AcDbEntity
  8
10
  6
CONTINUOUS
100
AcDbLine
 10
361.6077961347202
 20
457.3812099291499
 30
0.0
 11
362.8829741089214
 21
457.8055345003502
 31
0.0
  0
LINE
  5
37A9
330
1F
100
AcDbEntity
  8
10
  6
CONTINUOUS
100
AcDbLine
 10
360.3099650627202
 20
456.8229198578169
 30
0.0
 11
361.6077961347202
 21
457.3812099291499
 31
0.0
  0
LINE
  5
37AA
330
1F
100
AcDbEntity
  8
10
  6
CONTINUOUS
100
AcDbLine
 10
359.0289148334543
 20
456.1476276475509
 30
0.0
 11
360.3099650627202
 21
456.8229198578169
 31
0.0
  0
LINE
  5
37AB
330
1F
100
AcDbEntity
  8
10
  6
CONTINUOUS
100
AcDbLine
 10
356.6711605892539
 20
454.5310420681509
 30
0.0
 11
357.8035695097212
 21
455.3758517105511
 31
0.0
  0
LINE
  5
37AC
330
1F
100
AcDbEntity
  8
10
  6
CONTINUOUS
100
AcDbLine
 10
357.8035695097212
 20
455.3758517105511
 30
0.0
 11
359.0289148334543
 21
456.1476276475509
 31
0.0
  0
LINE
  5
37AD
330
1F
100
AcDbEntity
  8
10
  6
CONTINUOUS
100
AcDbLine
 10
363.9209268237871
 20
465.1295812192838
 30
0.0
 11
362.6955815001213
 21
464.357805282284
 31
0.0
  0
LINE
  5
37AE
330
1F
100
AcDbEntity
  8
10
  6
CONTINUOUS
100
AcDbLine
 10
362.8829741089214
 20
457.8055345003502
 30
0.0
 11
364.0967533479208
 21
458.0830006840171
 31
0.0
  0
LINE
  5
37AF
330
1F
100
AcDbEntity
  8
10
  6
CONTINUOUS
100
AcDbLine
 10
367.0168585819212
 20
457.9736469069509
 30
0.0
 11
367.6511309406544
 21
457.6269738262172
 31
0.0
  0
LINE
  5
37B0
330
1F
100
AcDbEntity
  8
10
  6
CONTINUOUS
100
AcDbLine
 10
366.1955815001204
 20
458.1683535897509
 30
0.0
 11
367.0168585819212
 21
457.9736469069509
 31
0.0
  0
LINE
  5
37B1
330
1F
100
AcDbEntity
  8
10
  6
CONTINUOUS
100
AcDbLine
 10
365.212253783721
 20
458.2051778105499
 30
0.0
 11
366.1955815001204
 21
458.1683535897509
 31
0.0
  0
LINE
  5
37B2
330
1F
100
AcDbEntity
  8
10
  6
CONTINUOUS
100
AcDbLine
 10
364.0967533479208
 20
472.6440312798169
 30
0.0
 11
365.212253783721
 21
472.7662084063499
 31
0.0
  0
LINE
  5
37B3
330
1F
100
AcDbEntity
  8
10
  6
CONTINUOUS
100
AcDbLine
 10
361.6077961347202
 20
471.942240525017
 30
0.0
 11
362.8829741089214
 21
472.3665650961511
 31
0.0
  0
LINE
  5
37B4
330
1F
100
AcDbEntity
  8
10
  6
CONTINUOUS
100
AcDbLine
 10
360.3099650627202
 20
471.383950453617
 30
0.0
 11
361.6077961347202
 21
471.942240525017
 31
0.0
  0
LINE
  5
37B5
330
1F
100
AcDbEntity
  8
10
  6
CONTINUOUS
100
AcDbLine
 10
359.0289148334543
 20
470.7086582434169
 30
0.0
 11
360.3099650627202
 21
471.383950453617
 31
0.0
  0
LINE
  5
37B6
330
1F
100
AcDbEntity
  8
10
  6
CONTINUOUS
100
AcDbLine
 10
356.6711605892539
 20
469.092072663951
 30
0.0
 11
357.8035695097212
 21
469.9368823064169
 31
0.0
  0
LINE
  5
37B7
330
1F
100
AcDbEntity
  8
10
  6
CONTINUOUS
100
AcDbLine
 10
355.6660957440537
 20
468.1998984294839
 30
0.0
 11
356.6711605892539
 21
469.092072663951
 31
0.0
  0
LINE
  5
37B8
330
1F
100
AcDbEntity
  8
10
  6
CONTINUOUS
100
AcDbLine
 10
354.8189133608541
 20
467.2874678657499
 30
0.0
 11
355.6660957440537
 21
468.1998984294839
 31
0.0
  0
LINE
  5
37B9
330
1F
100
AcDbEntity
  8
10
  6
CONTINUOUS
100
AcDbLine
 10
357.8035695097212
 20
469.9368823064169
 30
0.0
 11
359.0289148334543
 21
470.7086582434169
 31
0.0
  0
LINE
  5
37BA
330
1F
100
AcDbEntity
  8
10
  6
CONTINUOUS
100
AcDbLine
 10
362.8829741089214
 20
472.3665650961511
 30
0.0
 11
364.0967533479208
 21
472.6440312798169
 31
0.0
  0
LINE
  5
37BB
330
1F
100
AcDbEntity
  8
10
  6
CONTINUOUS
100
AcDbLine
 10
367.0168585819212
 20
472.5346775028169
 30
0.0
 11
367.6511309406544
 21
472.188004422084
 31
0.0
  0
LINE
  5
37BC
330
1F
100
AcDbEntity
  8
10
  6
CONTINUOUS
100
AcDbLine
 10
366.1955815001204
 20
472.729384185551
 30
0.0
 11
367.0168585819212
 21
472.5346775028169
 31
0.0
  0
LINE
  5
37BD
330
1F
100
AcDbEntity
  8
10
  6
CONTINUOUS
100
AcDbLine
 10
365.212253783721
 20
472.7662084063499
 30
0.0
 11
366.1955815001204
 21
472.729384185551
 31
0.0
  0
LINE
  5
37BE
330
1F
100
AcDbEntity
  8
10
  6
CONTINUOUS
100
AcDbLine
 10
366.9055829727201
 20
467.778995659951
 30
0.0
 11
366.058400589454
 21
466.8665650961499
 31
0.0
  0
LINE
  5
37BF
330
1F
100
AcDbEntity
  8
10
  6
CONTINUOUS
100
AcDbLine
 10
367.569141685921
 20
468.6839588120169
 30
0.0
 11
366.9055829727201
 21
467.778995659951
 31
0.0
  0
LINE
  5
37C0
330
1F
100
AcDbEntity
  8
10
  6
CONTINUOUS
100
AcDbLine
 10
367.6511309406544
 20
457.6269738262172
 30
0.0
 11
368.079126531654
 21
457.1388678336838
 31
0.0
  0
LINE
  5
37C1
330
1F
100
AcDbEntity
  8
10
  6
CONTINUOUS
100
AcDbLine
 10
367.6511309406544
 20
472.188004422084
 30
0.0
 11
368.079126531654
 21
471.6998984294839
 31
0.0
  0
LINE
  5
37C2
330
1F
100
AcDbEntity
  8
10
  6
CONTINUOUS
100
AcDbLine
 10
368.0289148334543
 20
469.5539577050169
 30
0.0
 11
367.569141685921
 21
468.6839588120169
 31
0.0
  0
LINE
  5
37C3
330
1F
100
AcDbEntity
  8
10
  6
CONTINUOUS
100
AcDbLine
 10
366.058400589454
 20
452.3055345003511
 30
0.0
 11
365.0533357442538
 21
451.413360265951
 31
0.0
  0
LINE
  5
37C4
330
1F
100
AcDbEntity
  8
10
  6
CONTINUOUS
100
AcDbLine
 10
353.6955815001213
 20
450.951475224884
 30
0.0
 11
354.1553546475872
 21
451.821474117884
 31
0.0
  0
LINE
  5
37C5
330
1F
100
AcDbEntity
  8
10
  6
CONTINUOUS
100
AcDbLine
 10
365.0533357442538
 20
451.413360265951
 30
0.0
 11
363.9209268237871
 21
450.568550623484
 31
0.0
  0
LINE
  5
37C6
330
1F
100
AcDbEntity
  8
10
  6
CONTINUOUS
100
AcDbLine
 10
360.1167001987871
 20
448.5631924048841
 30
0.0
 11
358.8415222245869
 21
448.1388678336839
 31
0.0
  0
LINE
  5
37C7
330
1F
100
AcDbEntity
  8
10
  6
CONTINUOUS
100
AcDbLine
 10
361.4145312707871
 20
449.1214824762842
 30
0.0
 11
360.1167001987871
 21
448.5631924048841
 31
0.0
  0
LINE
  5
37C8
330
1F
100
AcDbEntity
  8
10
  6
CONTINUOUS
100
AcDbLine
 10
362.6955815001213
 20
449.796774686484
 30
0.0
 11
361.4145312707871
 21
449.1214824762842
 31
0.0
  0
LINE
  5
37C9
330
1F
100
AcDbEntity
  8
10
  6
CONTINUOUS
100
AcDbLine
 10
353.4535638927202
 20
450.142875067084
 30
0.0
 11
353.6955815001213
 21
450.951475224884
 31
0.0
  0
LINE
  5
37CA
330
1F
100
AcDbEntity
  8
10
  6
CONTINUOUS
100
AcDbLine
 10
353.43665540812
 20
449.4202425511501
 30
0.0
 11
353.4535638927202
 21
450.142875067084
 31
0.0
  0
LINE
  5
37CB
330
1F
100
AcDbEntity
  8
10
  6
CONTINUOUS
100
AcDbLine
 10
353.6453698019201
 20
448.8055345003501
 30
0.0
 11
353.43665540812
 21
449.4202425511501
 31
0.0
  0
LINE
  5
37CC
330
1F
100
AcDbEntity
  8
10
  6
CONTINUOUS
100
AcDbLine
 10
354.0733653928539
 20
448.3174285078169
 30
0.0
 11
353.6453698019201
 21
448.8055345003501
 31
0.0
  0
LINE
  5
37CD
330
1F
100
AcDbEntity
  8
10
  6
CONTINUOUS
100
AcDbLine
 10
354.707637751587
 20
447.9707554270841
 30
0.0
 11
354.0733653928539
 21
448.3174285078169
 31
0.0
  0
LINE
  5
37CE
330
1F
100
AcDbEntity
  8
10
  6
CONTINUOUS
100
AcDbLine
 10
355.5289148334543
 20
447.7760487443511
 30
0.0
 11
354.707637751587
 21
447.9707554270841
 31
0.0
  0
LINE
  5
37CF
330
1F
100
AcDbEntity
  8
10
  6
CONTINUOUS
100
AcDbLine
 10
356.5122425497868
 20
447.7392245235501
 30
0.0
 11
355.5289148334543
 21
447.7760487443511
 31
0.0
  0
LINE
  5
37D0
330
1F
100
AcDbEntity
  8
10
  6
CONTINUOUS
100
AcDbLine
 10
357.627742985587
 20
447.861401650084
 30
0.0
 11
356.5122425497868
 21
447.7392245235501
 31
0.0
  0
LINE
  5
37D1
330
1F
100
AcDbEntity
  8
10
  6
CONTINUOUS
100
AcDbLine
 10
358.8415222245869
 20
448.1388678336839
 30
0.0
 11
357.627742985587
 21
447.861401650084
 31
0.0
  0
LINE
  5
37D2
330
1F
100
AcDbEntity
  8
10
  6
CONTINUOUS
100
AcDbLine
 10
363.9209268237871
 20
450.568550623484
 30
0.0
 11
362.6955815001213
 21
449.796774686484
 31
0.0
  0
LINE
  5
37D3
330
1F
100
AcDbEntity
  8
10
  6
CONTINUOUS
100
AcDbLine
 10
354.8189133608541
 20
452.726437269951
 30
0.0
 11
355.6660957440537
 21
453.6388678336838
 31
0.0
  0
LINE
  5
37D4
330
1F
100
AcDbEntity
  8
10
  6
CONTINUOUS
100
AcDbLine
 10
354.1553546475872
 20
451.821474117884
 30
0.0
 11
354.8189133608541
 21
452.726437269951
 31
0.0
  0
LINE
  5
37D5
330
1F
100
AcDbEntity
  8
10
  6
CONTINUOUS
100
AcDbLine
 10
366.9055829727201
 20
453.2179650640841
 30
0.0
 11
366.058400589454
 21
452.3055345003511
 31
0.0
  0
LINE
  5
37D6
330
1F
100
AcDbEntity
  8
10
  6
CONTINUOUS
100
AcDbLine
 10
367.569141685921
 20
454.1229282162171
 30
0.0
 11
366.9055829727201
 21
453.2179650640841
 31
0.0
  0
CIRCLE
  5
37D7
330
1F
100
AcDbEntity
  8
10
  6
CONTINUOUS
100
AcDbCircle
 10
360.8622481667873
 20
452.9722011670169
 30
0.0
 40
1.666666666666638
  0
LINE
  5
37D8
330
1F
100
AcDbEntity
  8
10
  6
CONTINUOUS
100
AcDbLine
 10
355.6660957440537
 20
453.6388678336838
 30
0.0
 11
356.6711605892539
 21
454.5310420681509
 31
0.0
  0
LINE
  5
37D9
330
1F
100
AcDbEntity
  8
10
  6
CONTINUOUS
100
AcDbLine
 10
368.0289148334543
 20
454.9929271092168
 30
0.0
 11
367.569141685921
 21
454.1229282162171
 31
0.0
  0
LINE
  5
37DA
330
1F
100
AcDbEntity
  8
12
 48
4.0
100
AcDbLine
 10
426.0048459823872
 20
474.601003296284
 30
0.0
 11
417.0048459823872
 21
474.601003296284
 31
0.0
  0
ARC
  5
37DB
330
1F
100
AcDbEntity
  8
10
  6
CONTINUOUS
100
AcDbCircle
 10
426.7048459823874
 20
466.4871417059011
 30
0.0
 40
0.8000000000001882
100
AcDbArc
 50
359.9999999999739
 51
74.99999999995186
  0
POINT
  5
37DC
330
1F
100
AcDbEntity
  8
10
  6
CONTINUOUS
100
AcDbPoint
 10
427.5048459823872
 20
467.101003296284
 30
0.0
  0
LINE
  5
37DD
330
1F
100
AcDbEntity
  8
10
  6
CONTINUOUS
100
AcDbLine
 10
426.9119012184703
 20
467.259882366932
 30
0.0
 11
417.728388847079
 21
469.720597090527
 31
0.0
  0
LINE
  5
37DE
330
1F
100
AcDbEntity
  8
10
  6
CONTINUOUS
100
AcDbLine
 10
427.5048459823872
 20
466.4871417059011
 30
0.0
 11
427.5048459823872
 21
434.924452145349
 31
0.0
  0
CIRCLE
  5
37DF
330
1F
100
AcDbEntity
  8
10
  6
CONTINUOUS
100
AcDbCircle
 10
421.5048459823872
 20
474.601003296284
 30
0.0
 40
2.499999999999994
  0
ARC
  5
37E0
330
1F
100
AcDbEntity
  8
10
  6
CONTINUOUS
100
AcDbCircle
 10
418.5048459823872
 20
472.6183745693941
 30
0.0
 40
3.000000000000006
100
AcDbArc
 50
180.0
 51
254.9999999999787
  0
ARC
  5
37E1
330
1F
100
AcDbEntity
  8
10
  6
CONTINUOUS
100
AcDbCircle
 10
414.7048459823874
 20
479.8010032962841
 30
0.0
 40
0.8000000000001755
100
AcDbArc
 50
0.0
 51
90.0
  0
ARC
  5
37E2
330
1F
100
AcDbEntity
  8
10
  6
CONTINUOUS
100
AcDbCircle
 10
414.7048459823874
 20
479.8010032962841
 30
0.0
 40
0.8000000000001755
100
AcDbArc
 50
0.0
 51
90.0
  0
LINE
  5
37E3
330
1F
100
AcDbEntity
  8
10
  6
CONTINUOUS
100
AcDbLine
 10
426.5048459823872
 20
480.6010032962831
 30
0.0
 11
414.7048459823874
 21
480.6010032962831
 31
0.0
  0
POINT
  5
37E4
330
1F
100
AcDbEntity
  8
10
  6
DASHED
100
AcDbPoint
 10
415.5048459823872
 20
480.6010032962831
 30
0.0
  0
ARC
  5
37E5
330
1F
100
AcDbEntity
  8
10
  6
CONTINUOUS
100
AcDbCircle
 10
426.5048459823872
 20
479.601003296284
 30
0.0
 40
1.000000000000001
100
AcDbArc
 50
0.0
 51
90.0
  0
LINE
  5
37E6
330
1F
100
AcDbEntity
  8
10
  6
CONTINUOUS
100
AcDbLine
 10
559.0048459823872
 20
480.6010032962832
 30
0.0
 11
559.0048459823872
 21
435.6010032962832
 31
0.0
  0
LINE
  5
37E7
330
1F
100
AcDbEntity
  8
10
  6
CONTINUOUS
100
AcDbLine
 10
547.5048459823872
 20
435.6010032962832
 30
0.0
 11
547.5048459823872
 21
479.8010032962841
 31
0.0
  0
LINE
  5
37E8
330
1F
100
AcDbEntity
  8
10
  6
CONTINUOUS
100
AcDbLine
 10
547.5048459823872
 20
435.6010032962841
 30
0.0
 11
558.5048459823872
 21
435.6010032962841
 31
0.0
  0
LINE
  5
37E9
330
1F
100
AcDbEntity
  8
10
  6
CONTINUOUS
100
AcDbLine
 10
547.5048459823872
 20
435.6010032962832
 30
0.0
 11
559.0048459823872
 21
435.6010032962832
 31
0.0
  0
ARC
  5
37EA
330
1F
100
AcDbEntity
  8
10
  6
CONTINUOUS
100
AcDbCircle
 10
598.1048459823871
 20
460.6010032962841
 30
0.0
 40
1.500000000000004
100
AcDbArc
 50
0.0
 51
180.0
  0
ARC
  5
37EB
330
1F
100
AcDbEntity
  8
10
  6
CONTINUOUS
100
AcDbCircle
 10
602.9048459823873
 20
460.6010032962841
 30
0.0
 40
1.499999999999992
100
AcDbArc
 50
0.0
 51
180.0
  0
ARC
  5
37EC
330
1F
100
AcDbEntity
  8
10
  6
CONTINUOUS
100
AcDbCircle
 10
607.7048459823884
 20
460.6010032962841
 30
0.0
 40
1.499999999999992
100
AcDbArc
 50
0.0
 51
180.0
  0
ARC
  5
37ED
330
1F
100
AcDbEntity
  8
10
  6
CONTINUOUS
100
AcDbCircle
 10
583.7048459823875
 20
460.6010032962841
 30
0.0
 40
1.500000000000004
100
AcDbArc
 50
0.0
 51
180.0
  0
ARC
  5
37EE
330
1F
100
AcDbEntity
  8
10
  6
CONTINUOUS
100
AcDbCircle
 10
593.3048459823869
 20
460.6010032962841
 30
0.0
 40
1.499999999999774
100
AcDbArc
 50
0.0
 51
180.0
  0
ARC
  5
37EF
330
1F
100
AcDbEntity
  8
10
  6
CONTINUOUS
100
AcDbCircle
 10
588.5048459823872
 20
460.6010032962841
 30
0.0
 40
1.499999999999992
100
AcDbArc
 50
0.0
 51
180.0
  0
LINE
  5
37F0
330
1F
100
AcDbEntity
  8
10
  6
CONTINUOUS
100
AcDbLine
 10
599.6048459823871
 20
440.1010032962832
 30
0.0
 11
596.6048459823871
 21
440.1010032962832
 31
0.0
  0
LINE
  5
37F1
330
1F
100
AcDbEntity
  8
10
  6
CONTINUOUS
100
AcDbLine
 10
599.6048459823871
 20
437.1010032962841
 30
0.0
 11
596.6048459823871
 21
437.1010032962841
 31
0.0
  0
LINE
  5
37F2
330
1F
100
AcDbEntity
  8
10
  6
CONTINUOUS
100
AcDbLine
 10
604.4048459823873
 20
440.1010032962832
 30
0.0
 11
601.4048459823873
 21
440.1010032962832
 31
0.0
  0
LINE
  5
37F3
330
1F
100
AcDbEntity
  8
10
  6
CONTINUOUS
100
AcDbLine
 10
604.4048459823873
 20
437.1010032962841
 30
0.0
 11
601.4048459823873
 21
437.1010032962841
 31
0.0
  0
LINE
  5
37F4
330
1F
100
AcDbEntity
  8
10
  6
CONTINUOUS
100
AcDbLine
 10
609.2048459823875
 20
440.1010032962832
 30
0.0
 11
606.2048459823874
 21
440.1010032962832
 31
0.0
  0
LINE
  5
37F5
330
1F
100
AcDbEntity
  8
10
  6
CONTINUOUS
100
AcDbLine
 10
609.2048459823875
 20
437.1010032962841
 30
0.0
 11
606.2048459823874
 21
437.1010032962841
 31
0.0
  0
LINE
  5
37F6
330
1F
100
AcDbEntity
  8
10
  6
CONTINUOUS
100
AcDbLine
 10
585.2048459823874
 20
437.1010032962841
 30
0.0
 11
582.2048459823874
 21
437.1010032962841
 31
0.0
  0
LINE
  5
37F7
330
1F
100
AcDbEntity
  8
10
  6
CONTINUOUS
100
AcDbLine
 10
585.2048459823874
 20
440.1010032962832
 30
0.0
 11
582.2048459823874
 21
440.1010032962832
 31
0.0
  0
LINE
  5
37F8
330
1F
100
AcDbEntity
  8
10
  6
CONTINUOUS
100
AcDbLine
 10
594.8048459823869
 20
440.1010032962832
 30
0.0
 11
591.8048459823869
 21
440.1010032962832
 31
0.0
  0
LINE
  5
37F9
330
1F
100
AcDbEntity
  8
10
  6
CONTINUOUS
100
AcDbLine
 10
594.8048459823869
 20
437.1010032962841
 30
0.0
 11
591.8048459823869
 21
437.1010032962841
 31
0.0
  0
LINE
  5
37FA
330
1F
100
AcDbEntity
  8
10
  6
CONTINUOUS
100
AcDbLine
 10
590.0048459823872
 20
440.1010032962832
 30
0.0
 11
587.0048459823872
 21
440.1010032962832
 31
0.0
  0
LINE
  5
37FB
330
1F
100
AcDbEntity
  8
10
  6
CONTINUOUS
100
AcDbLine
 10
590.0048459823872
 20
437.1010032962841
 30
0.0
 11
587.0048459823872
 21
437.1010032962841
 31
0.0
  0
ARC
  5
37FC
330
1F
100
AcDbEntity
  8
10
  6
CONTINUOUS
100
AcDbCircle
 10
578.9048459823873
 20
460.6010032962841
 30
0.0
 40
1.500000000000004
100
AcDbArc
 50
0.0
 51
180.0
  0
ARC
  5
37FD
330
1F
100
AcDbEntity
  8
10
  6
CONTINUOUS
100
AcDbCircle
 10
556.2048459823883
 20
465.7010032962831
 30
0.0
 40
0.3999999999999726
100
AcDbArc
 50
0.0
 51
180.0
  0
ARC
  5
37FE
330
1F
100
AcDbEntity
  8
10
  6
CONTINUOUS
100
AcDbCircle
 10
554.6048459823871
 20
465.7010032962831
 30
0.0
 40
0.3999999999999726
100
AcDbArc
 50
0.0
 51
180.0
  0
ARC
  5
37FF
330
1F
100
AcDbEntity
  8
10
  6
CONTINUOUS
100
AcDbCircle
 10
553.0048459823872
 20
465.7010032962831
 30
0.0
 40
0.3999999999999726
100
AcDbArc
 50
0.0
 51
180.0
  0
ARC
  5
3800
330
1F
100
AcDbEntity
  8
10
  6
CONTINUOUS
100
AcDbCircle
 10
554.6048459823871
 20
456.5010032962842
 30
0.0
 40
0.3999999999999852
100
AcDbArc
 50
180.0
 51
0.0
  0
ARC
  5
3801
330
1F
100
AcDbEntity
  8
10
  6
CONTINUOUS
100
AcDbCircle
 10
556.2048459823883
 20
456.5010032962842
 30
0.0
 40
0.400000000000088
100
AcDbArc
 50
180.0
 51
0.0
  0
ARC
  5
3802
330
1F
100
AcDbEntity
  8
10
  6
CONTINUOUS
100
AcDbCircle
 10
553.0048459823872
 20
456.5010032962842
 30
0.0
 40
0.3999999999999852
100
AcDbArc
 50
180.0
 51
0.0
  0
LINE
  5
3803
330
1F
100
AcDbEntity
  8
10
  6
CONTINUOUS
100
AcDbLine
 10
556.6048459823871
 20
465.7010032962831
 30
0.0
 11
556.6048459823871
 21
456.5010032962842
 31
0.0
  0
LINE
  5
3804
330
1F
100
AcDbEntity
  8
10
  6
CONTINUOUS
100
AcDbLine
 10
555.8048459823869
 20
465.7010032962831
 30
0.0
 11
555.8048459823869
 21
456.5010032962842
 31
0.0
  0
LINE
  5
3805
330
1F
100
AcDbEntity
  8
10
  6
CONTINUOUS
100
AcDbLine
 10
555.0048459823872
 20
465.7010032962831
 30
0.0
 11
555.0048459823872
 21
456.5010032962842
 31
0.0
  0
LINE
  5
3806
330
1F
100
AcDbEntity
  8
10
  6
CONTINUOUS
100
AcDbLine
 10
554.2048459823875
 20
465.7010032962831
 30
0.0
 11
554.2048459823875
 21
456.5010032962842
 31
0.0
  0
LINE
  5
3807
330
1F
100
AcDbEntity
  8
10
  6
CONTINUOUS
100
AcDbLine
 10
553.4048459823873
 20
465.7010032962831
 30
0.0
 11
553.4048459823873
 21
456.5010032962842
 31
0.0
  0
LINE
  5
3808
330
1F
100
AcDbEntity
  8
10
  6
CONTINUOUS
100
AcDbLine
 10
552.6048459823871
 20
465.7010032962831
 30
0.0
 11
552.6048459823871
 21
456.5010032962842
 31
0.0
  0
LINE
  5
3809
330
1F
100
AcDbEntity
  8
10
  6
CONTINUOUS
100
AcDbLine
 10
551.304845982387
 20
469.1010032962841
 30
0.0
 11
559.0048459823872
 21
469.1010032962841
 31
0.0
  0
LINE
  5
380A
330
1F
100
AcDbEntity
  8
10
  6
CONTINUOUS
100
AcDbLine
 10
580.4048459823873
 20
440.1010032962832
 30
0.0
 11
577.4048459823872
 21
440.1010032962832
 31
0.0
  0
LINE
  5
380B
330
1F
100
AcDbEntity
  8
10
  6
CONTINUOUS
100
AcDbLine
 10
580.4048459823873
 20
437.1010032962841
 30
0.0
 11
577.4048459823872
 21
437.1010032962841
 31
0.0
  0
LINE
  5
380C
330
1F
100
AcDbEntity
  8
10
  6
CONTINUOUS
100
AcDbLine
 10
551.304845982387
 20
453.1010032962832
 30
0.0
 11
559.0048459823872
 21
453.1010032962832
 31
0.0
  0
LINE
  5
380D
330
1F
100
AcDbEntity
  8
10
  6
CONTINUOUS
100
AcDbLine
 10
577.4048459823872
 20
440.1010032962832
 30
0.0
 11
577.4048459823872
 21
460.6010032962841
 31
0.0
  0
LINE
  5
380E
330
1F
100
AcDbEntity
  8
10
  6
CONTINUOUS
100
AcDbLine
 10
558.5048459823872
 20
469.1010032962841
 30
0.0
 11
558.5048459823872
 21
453.1010032962832
 31
0.0
  0
LINE
  5
380F
330
1F
100
AcDbEntity
  8
10
  6
CONTINUOUS
100
AcDbLine
 10
557.5048459823881
 20
469.1010032962841
 30
0.0
 11
557.5048459823881
 21
453.1010032962832
 31
0.0
  0
LINE
  5
3810
330
1F
100
AcDbEntity
  8
10
  6
CONTINUOUS
100
AcDbLine
 10
550.8048459823869
 20
468.6010032962841
 30
0.0
 11
550.8048459823869
 21
453.6010032962832
 31
0.0
  0
ARC
  5
3811
330
1F
100
AcDbEntity
  8
10
  6
CONTINUOUS
100
AcDbCircle
 10
551.304845982387
 20
453.6010032962832
 30
0.0
 40
0.5000000000000023
100
AcDbArc
 50
180.0
 51
270.0
  0
ARC
  5
3812
330
1F
100
AcDbEntity
  8
10
  6
CONTINUOUS
100
AcDbCircle
 10
551.304845982387
 20
468.6010032962841
 30
0.0
 40
0.5000000000000151
100
AcDbArc
 50
90.0
 51
180.0
  0
LINE
  5
3813
330
1F
100
AcDbEntity
  8
10
  6
CONTINUOUS
100
AcDbLine
 10
548.3048459823869
 20
480.6010032962832
 30
0.0
 11
559.0048459823872
 21
480.6010032962832
 31
0.0
  0
ARC
  5
3814
330
1F
100
AcDbEntity
  8
10
  6
CONTINUOUS
100
AcDbCircle
 10
548.3048459823869
 20
479.8010032962841
 30
0.0
 40
0.8000000000000227
100
AcDbArc
 50
90.0
 51
180.0
  0
LINE
  5
3815
330
1F
100
AcDbEntity
  8
10
  6
CONTINUOUS
100
AcDbLine
 10
619.5048459823872
 20
446.6010032962841
 30
0.0
 11
619.5048459823872
 21
480.6010032962832
 31
0.0
  0
LINE
  5
3816
330
1F
100
AcDbEntity
  8
10
  6
CONTINUOUS
100
AcDbLine
 10
683.5048459823881
 20
480.6010032962832
 30
0.0
 11
683.5048459823881
 21
462.6010032962841
 31
0.0
  0
LINE
  5
3817
330
1F
100
AcDbEntity
  8
10
  6
CONTINUOUS
100
AcDbLine
 10
678.5048459823872
 20
480.6010032962832
 30
0.0
 11
678.5048459823872
 21
468.6010032962841
 31
0.0
  0
LINE
  5
3818
330
1F
100
AcDbEntity
  8
10
  6
CONTINUOUS
100
AcDbLine
 10
666.5048459823871
 20
467.1010032962841
 30
0.0
 11
677.0048459823872
 21
467.1010032962841
 31
0.0
  0
LINE
  5
3819
330
1F
100
AcDbEntity
  8
10
  6
CONTINUOUS
100
AcDbLine
 10
665.5048459823872
 20
464.5128128452592
 30
0.0
 11
626.0048459823872
 21
464.5128128452592
 31
0.0
  0
LINE
  5
381A
330
1F
100
AcDbEntity
  8
10
  6
CONTINUOUS
100
AcDbLine
 10
665.5048459823872
 20
466.1010032962841
 30
0.0
 11
665.5048459823872
 21
471.6183745693942
 31
0.0
  0
ARC
  5
381B
330
1F
100
AcDbEntity
  8
10
  6
CONTINUOUS
100
AcDbCircle
 10
666.5048459823871
 20
466.1010032962841
 30
0.0
 40
1.000000000000001
100
AcDbArc
 50
90.0
 51
180.0
  0
LINE
  5
381C
330
1F
100
AcDbEntity
  8
10
  6
CONTINUOUS
100
AcDbLine
 10
665.5048459823872
 20
464.5128128452592
 30
0.0
 11
665.5048459823872
 21
466.1010032962841
 31
0.0
  0
LINE
  5
381D
330
1F
100
AcDbEntity
  8
10
  6
CONTINUOUS
100
AcDbLine
 10
619.5048459823872
 20
467.1010032962841
 30
0.0
 11
623.5048459823872
 21
467.1010032962841
 31
0.0
  0
LINE
  5
381E
330
1F
100
AcDbEntity
  8
10
  6
CONTINUOUS
100
AcDbLine
 10
618.5048459823872
 20
436.6010032962841
 30
0.0
 11
618.5048459823872
 21
446.6010032962841
 31
0.0
  0
LINE
  5
381F
330
1F
100
AcDbEntity
  8
10
  6
CONTINUOUS
100
AcDbLine
 10
619.5048459823872
 20
436.6010032962841
 30
0.0
 11
618.5048459823872
 21
436.6010032962841
 31
0.0
  0
LINE
  5
3820
330
1F
100
AcDbEntity
  8
10
  6
CONTINUOUS
100
AcDbLine
 10
619.5048459823872
 20
446.6010032962841
 30
0.0
 11
618.5048459823872
 21
446.6010032962841
 31
0.0
  0
LINE
  5
3821
330
1F
100
AcDbEntity
  8
10
  6
CONTINUOUS
100
AcDbLine
 10
614.5048459823872
 20
445.1010032962841
 30
0.0
 11
612.0048459823881
 21
445.1010032962841
 31
0.0
  0
LINE
  5
3822
330
1F
100
AcDbEntity
  8
10
  6
CONTINUOUS
100
AcDbLine
 10
614.5048459823872
 20
438.1010032962841
 30
0.0
 11
612.0048459823881
 21
438.1010032962841
 31
0.0
  0
LINE
  5
3823
330
1F
100
AcDbEntity
  8
10
  6
CONTINUOUS
100
AcDbLine
 10
614.5048459823872
 20
438.1010032962841
 30
0.0
 11
614.5048459823872
 21
445.1010032962841
 31
0.0
  0
LINE
  5
3824
330
1F
100
AcDbEntity
  8
10
  6
CONTINUOUS
100
AcDbLine
 10
613.5048459823872
 20
438.1010032962841
 30
0.0
 11
613.5048459823872
 21
445.1010032962841
 31
0.0
  0
LINE
  5
3825
330
1F
100
AcDbEntity
  8
10
  6
CONTINUOUS
100
AcDbLine
 10
612.0048459823881
 20
438.1010032962841
 30
0.0
 11
612.0048459823881
 21
445.1010032962841
 31
0.0
  0
LINE
  5
3826
330
1F
100
AcDbEntity
  8
10
  6
CONTINUOUS
100
AcDbLine
 10
614.5048459823872
 20
437.8510032962832
 30
0.0
 11
614.5048459823872
 21
445.3510032962841
 31
0.0
  0
LINE
  5
3827
330
1F
100
AcDbEntity
  8
10
  6
CONTINUOUS
100
AcDbLine
 10
611.5048459823872
 20
445.3510032962841
 30
0.0
 11
611.5048459823872
 21
437.8510032962832
 31
0.0
  0
LINE
  5
3828
330
1F
100
AcDbEntity
  8
10
  6
CONTINUOUS
100
AcDbLine
 10
614.5048459823872
 20
445.3510032962841
 30
0.0
 11
611.5048459823872
 21
445.3510032962841
 31
0.0
  0
LINE
  5
3829
330
1F
100
AcDbEntity
  8
10
  6
CONTINUOUS
100
AcDbLine
 10
614.5048459823872
 20
437.8510032962832
 30
0.0
 11
611.5048459823872
 21
437.8510032962832
 31
0.0
  0
LINE
  5
382A
330
1F
100
AcDbEntity
  8
10
  6
CONTINUOUS
100
AcDbLine
 10
626.0048459823872
 20
452.1010032962841
 30
0.0
 11
623.5048459823872
 21
452.1010032962841
 31
0.0
  0
LINE
  5
382B
330
1F
100
AcDbEntity
  8
10
  6
CONTINUOUS
100
AcDbLine
 10
623.5048459823872
 20
472.6183745693941
 30
0.0
 11
623.5048459823872
 21
452.1010032962841
 31
0.0
  0
LINE
  5
382C
330
1F
100
AcDbEntity
  8
10
  6
CONTINUOUS
100
AcDbLine
 10
626.0048459823872
 20
464.5128128452592
 30
0.0
 11
626.0048459823872
 21
452.1010032962841
 31
0.0
  0
LINE
  5
382D
330
1F
100
AcDbEntity
  8
10
  6
CONTINUOUS
100
AcDbLine
 10
683.5048459823881
 20
462.6010032962841
 30
0.0
 11
683.0048459823871
 21
462.6010032962841
 31
0.0
  0
ARC
  5
382E
330
1F
100
AcDbEntity
  8
10
  6
CONTINUOUS
100
AcDbCircle
 10
677.0048459823872
 20
468.6010032962841
 30
0.0
 40
1.499999999999992
100
AcDbArc
 50
270.0
 51
0.0
  0
LINE
  5
382F
330
1F
100
AcDbEntity
  8
10
  6
CONTINUOUS
100
AcDbLine
 10
683.5048459823881
 20
480.6010032962832
 30
0.0
 11
619.5048459823872
 21
480.6010032962832
 31
0.0
  0
MTEXT
  5
3838
330
1F
100
AcDbEntity
  8
19
100
AcDbMText
 10
696.5148459823881
 20
238.989988290958
 30
0.0
 40
10.0
 41
114.6344
 71
     4
 72
     5
  1
{\Fromans.shx;FR-E560-2.2K-NA}
  7
STANDARD1
1001
ACAD
1000
MTEXTBEGIN
1070
    73
1070
     1
1070
    44
1040
1.0
1070
    74
1070
     0
1000
MTEXTEND
  0
MTEXT
  5
3839
330
1F
100
AcDbEntity
  8
19
100
AcDbMText
 10
696.451188069907
 20
255.8378615366415
 30
0.0
 40
10.0
 41
150.0
 71
     4
 72
     5
  1
{\Fromans.shx;FR-E560-1.5K-NA }
  7
STANDARD1
1001
ACAD
1000
MTEXTBEGIN
1070
    73
1070
     1
1070
    44
1040
1.0
1070
    74
1070
     0
1000
MTEXTEND
  0
MTEXT
  5
383A
330
1F
100
AcDbEntity
  8
19
100
AcDbMText
 10
696.451188069907
 20
272.0844988994467
 30
0.0
 40
10.0
 41
150.0
 71
     4
 72
     5
  1
{\Fromans.shx;FR-E560-0.75K-NA}
  7
STANDARD1
1001
ACAD
1000
MTEXTBEGIN
1070
    73
1070
     1
1070
    44
1040
1.0
1070
    74
1070
     0
1000
MTEXTEND
  0
MTEXT
  5
383B
330
1F
100
AcDbEntity
  8
19
100
AcDbMText
 10
696.94390067417
 20
290.7480487245983
 30
0.0
 40
10.0
 41
150.0
 71
     4
 72
     5
  1
{\Fromans.shx;E56001}
  7
STANDARD1
1001
ACAD
1000
MTEXTBEGIN
1070
    73
1070
     1
1070
    44
1040
1.0
1070
    74
1070
     0
1000
MTEXTEND
  0
LWPOLYLINE
  5
3907
330
1F
100
AcDbEntity
  8
18
100
AcDbPolyline
 90
        4
 70
     1
 43
0.0
 10
277.5021684255589
 20
230.601003296284
 10
437.5021684255589
 20
230.601003296284
 10
437.5021684255589
 20
580.601003296284
 10
277.5021684255589
 20
580.601003296284
  0
LWPOLYLINE
  5
3E9C
330
1F
100
AcDbEntity
  8
18
100
AcDbPolyline
 90
        4
 70
     1
 43
0.0
 10
537.5021684255589
 20
230.601003296284
 10
683.5048459823881
 20
230.601003296284
 10
683.5048459823881
 20
580.601003296284
 10
537.5021684255589
 20
580.601003296284
  0
VIEWPORT
  5
71
330
55
100
AcDbEntity
 67
     1
  8
0
100
AcDbViewport
 10
133.3499908447265
 20
101.5999970436096
 30
0.0
 40
381.3957395593834
 41
218.2856291881582
 68
     1
 69
     1
1001
ACAD
1000
MVIEW
1002
{
1070
    16
1010
0.0
1020
0.0
1030
0.0
1010
0.0
1020
0.0
1030
1.0
1040
0.0
1040
218.2856291881582
1040
133.3499908447265
1040
101.5999970436096
1040
50.0
1040
0.0
1040
0.0
1070
     0
1070
   100
1070
     1
1070
     1
1070
     0
1070
     0
1070
     0
1070
     0
1040
0.0
1040
0.0
1040
0.0
1040
10.0
1040
10.0
1040
10.0
1040
10.0
1070
     0
1002
{
1002
}
1002
}
  0
VIEWPORT
  5
73
330
55
100
AcDbEntity
 67
     1
  8
0
100
AcDbViewport
 10
133.349993944168
 20
101.599993944168
 30
0.0
 40
213.3599903106689
 41
162.5599903106689
 68
     2
 69
     2
1001
ACAD
1000
MVIEW
1002
{
1070
    16
1010
0.0
1020
0.0
1030
0.0
1010
0.0
1020
0.0
1030
1.0
1040
0.0
1040
324.0677920111345
1040
210.0
1040
148.5
1040
50.0
1040
0.0
1040
0.0
1070
     0
1070
   100
1070
     1
1070
     3
1070
     0
1070
     0
1070
     0
1070
     0
1040
0.0
1040
0.0
1040
0.0
1040
10.0
1040
10.0
1040
10.0
1040
10.0
1070
     0
1002
{
1002
}
1002
}
  0
ENDSEC
  0
SECTION
  2
OBJECTS
  0
DICTIONARY
  5
C
330
0
100
AcDbDictionary
  3
ACAD_GROUP
350
D
  3
ACAD_LAYOUT
350
1A
  3
ACAD_MLINESTYLE
350
17
  3
ACAD_PLOTSETTINGS
350
19
  3
ACAD_PLOTSTYLENAME
350
E
  3
ACDBHEADERROUNDTRIPXREC
350
3F33
  3
ACDBVARIABLEDICTIONARY
350
5E
  0
DICTIONARY
  5
AC
330
2
100
AcDbDictionary
280
     1
  3
ACAD_LAYERFILTERS
360
AD
  3
ACAD_LAYERSTATES
360
C0
  0
DICTIONARY
  5
2892
330
1F
100
AcDbDictionary
280
     1
  3
ACAD_LAYOUTSELFREF
360
3F54
  0
DICTIONARY
  5
2894
330
55
100
AcDbDictionary
280
     1
  3
ACAD_LAYOUTSELFREF
360
3F56
  0
DICTIONARY
  5
D
102
{ACAD_REACTORS
330
C
102
}
330
C
100
AcDbDictionary
  0
DICTIONARY
  5
1A
102
{ACAD_REACTORS
330
C
102
}
330
C
100
AcDbDictionary
  0
DICTIONARY
  5
17
102
{ACAD_REACTORS
330
C
102
}
330
C
100
AcDbDictionary
  3
STANDARD
350
18
  0
DICTIONARY
  5
19
102
{ACAD_REACTORS
330
C
102
}
330
C
100
AcDbDictionary
  0
ACDBDICTIONARYWDFLT
  5
E
102
{ACAD_REACTORS
330
C
102
}
330
C
100
AcDbDictionary
281
     1
  3
Normal
350
F
100
AcDbDictionaryWithDefault
340
F
  0
DICTIONARY
  5
3F33
102
{ACAD_REACTORS
330
C
102
}
330
C
100
AcDbDictionary
  3
CEPSNTYPE
350
3F3D
  3
DIMSTYLEDATA
350
3F41
  3
FINGERPRINTGUID
350
3F3E
  3
HYPERLINKBASE
350
3F36
  3
INSUNITS
350
3F3C
  3
LAYOUTDICT
350
3F38
  3
LWETCUNION
350
3F3B
  3
PLOTSETDICT
350
3F39
  3
PLOTSTYLNAMDICT
350
3F3A
  3
PSVPSCALE
350
3F40
  3
PUCSBASE
350
3F44
  3
PUCSORGBACK
350
3F4A
  3
PUCSORGBOTTOM
350
3F46
  3
PUCSORGFRONT
350
3F49
  3
PUCSORGLEFT
350
3F47
  3
PUCSORGRIGHT
350
3F48
  3
PUCSORGTOP
350
3F45
  3
PUCSORTHOREF
350
3F42
  3
PUCSORTHOVIEW
350
3F43
  3
STYLESHEET
350
3F37
  3
TSTACKALIGN
350
3F34
  3
TSTACKSIZE
350
3F35
  3
UCSBASE
350
3F4D
  3
UCSORGBACK
350
3F53
  3
UCSORGBOTTOM
350
3F4F
  3
UCSORGFRONT
350
3F52
  3
UCSORGLEFT
350
3F50
  3
UCSORGRIGHT
350
3F51
  3
UCSORGTOP
350
3F4E
  3
UCSORTHOREF
350
3F4B
  3
UCSORTHOVIEW
350
3F4C
  3
VERSIONGUID
350
3F3F
  0
DICTIONARY
  5
5E
102
{ACAD_REACTORS
330
C
102
}
330
C
100
AcDbDictionary
  3
DIMASSOC
350
5F
  3
HIDETEXT
350
63
  0
DICTIONARY
  5
AD
102
{ACAD_REACTORS
330
AC
102
}
330
AC
100
AcDbDictionary
280
     1
  3
0
360
AE
  3
R1ク_ラ_
360
AF
  3
R2ク_ラ_
360
B0
  0
DICTIONARY
  5
C0
102
{ACAD_REACTORS
330
AC
102
}
330
AC
100
AcDbDictionary
  0
XRECORD
  5
3F54
102
{ACAD_REACTORS
330
2892
102
}
330
2892
100
AcDbXrecord
340
1F
  0
XRECORD
  5
3F56
102
{ACAD_REACTORS
330
2894
102
}
330
2894
100
AcDbXrecord
340
55
  0
MLINESTYLE
  5
18
102
{ACAD_REACTORS
330
17
102
}
330
17
100
AcDbMlineStyle
  2
STANDARD
 70
     0
  3

 62
   256
 51
90.0
 52
90.0
 71
     2
 49
0.5
 62
   256
  6
BYLAYER
 49
-0.5
 62
   256
  6
BYLAYER
  0
ACDBPLACEHOLDER
  5
F
102
{ACAD_REACTORS
330
E
102
}
330
E
100
AcDbPlaceHolder
280
     0
  0
XRECORD
  5
3F3D
102
{ACAD_REACTORS
330
3F33
102
}
330
3F33
100
AcDbXrecord
 90
        0
  0
XRECORD
  5
3F41
102
{ACAD_REACTORS
330
3F33
102
}
330
3F33
100
AcDbXrecord
1000
DSTYLE
1002
{
1070
   278
 70
    44
1002
}
  0
XRECORD
  5
3F3E
102
{ACAD_REACTORS
330
3F33
102
}
330
3F33
100
AcDbXrecord
  1
{FDEAD578-A652-11D2-9A35-0060089B3A3F}
  0
XRECORD
  5
3F36
102
{ACAD_REACTORS
330
3F33
102
}
330
3F33
100
AcDbXrecord
  1

  0
XRECORD
  5
3F3C
102
{ACAD_REACTORS
330
3F33
102
}
330
3F33
100
AcDbXrecord
 90
        4
  0
XRECORD
  5
3F38
102
{ACAD_REACTORS
330
3F33
102
}
330
3F33
100
AcDbXrecord
340
1A
  0
XRECORD
  5
3F3B
102
{ACAD_REACTORS
330
3F33
102
}
330
3F33
100
AcDbXrecord
 90
    10781
  0
XRECORD
  5
3F39
102
{ACAD_REACTORS
330
3F33
102
}
330
3F33
100
AcDbXrecord
340
19
  0
XRECORD
  5
3F3A
102
{ACAD_REACTORS
330
3F33
102
}
330
3F33
100
AcDbXrecord
340
E
  0
XRECORD
  5
3F40
102
{ACAD_REACTORS
330
3F33
102
}
330
3F33
100
AcDbXrecord
 40
0.0
  0
XRECORD
  5
3F44
102
{ACAD_REACTORS
330
3F33
102
}
330
3F33
100
AcDbXrecord
340
0
  0
XRECORD
  5
3F4A
102
{ACAD_REACTORS
330
3F33
102
}
330
3F33
100
AcDbXrecord
 10
0.0
 20
0.0
 30
0.0
  0
XRECORD
  5
3F46
102
{ACAD_REACTORS
330
3F33
102
}
330
3F33
100
AcDbXrecord
 10
0.0
 20
0.0
 30
0.0
  0
XRECORD
  5
3F49
102
{ACAD_REACTORS
330
3F33
102
}
330
3F33
100
AcDbXrecord
 10
0.0
 20
0.0
 30
0.0
  0
XRECORD
  5
3F47
102
{ACAD_REACTORS
330
3F33
102
}
330
3F33
100
AcDbXrecord
 10
0.0
 20
0.0
 30
0.0
  0
XRECORD
  5
3F48
102
{ACAD_REACTORS
330
3F33
102
}
330
3F33
100
AcDbXrecord
 10
0.0
 20
0.0
 30
0.0
  0
XRECORD
  5
3F45
102
{ACAD_REACTORS
330
3F33
102
}
330
3F33
100
AcDbXrecord
 10
0.0
 20
0.0
 30
0.0
  0
XRECORD
  5
3F42
102
{ACAD_REACTORS
330
3F33
102
}
330
3F33
100
AcDbXrecord
340
0
  0
XRECORD
  5
3F43
102
{ACAD_REACTORS
330
3F33
102
}
330
3F33
100
AcDbXrecord
 70
     0
  0
XRECORD
  5
3F37
102
{ACAD_REACTORS
330
3F33
102
}
330
3F33
100
AcDbXrecord
  1

  0
XRECORD
  5
3F34
102
{ACAD_REACTORS
330
3F33
102
}
330
3F33
100
AcDbXrecord
 90
        1
  0
XRECORD
  5
3F35
102
{ACAD_REACTORS
330
3F33
102
}
330
3F33
100
AcDbXrecord
 90
       70
  0
XRECORD
  5
3F4D
102
{ACAD_REACTORS
330
3F33
102
}
330
3F33
100
AcDbXrecord
340
0
  0
XRECORD
  5
3F53
102
{ACAD_REACTORS
330
3F33
102
}
330
3F33
100
AcDbXrecord
 10
0.0
 20
0.0
 30
0.0
  0
XRECORD
  5
3F4F
102
{ACAD_REACTORS
330
3F33
102
}
330
3F33
100
AcDbXrecord
 10
0.0
 20
0.0
 30
0.0
  0
XRECORD
  5
3F52
102
{ACAD_REACTORS
330
3F33
102
}
330
3F33
100
AcDbXrecord
 10
0.0
 20
0.0
 30
0.0
  0
XRECORD
  5
3F50
102
{ACAD_REACTORS
330
3F33
102
}
330
3F33
100
AcDbXrecord
 10
0.0
 20
0.0
 30
0.0
  0
XRECORD
  5
3F51
102
{ACAD_REACTORS
330
3F33
102
}
330
3F33
100
AcDbXrecord
 10
0.0
 20
0.0
 30
0.0
  0
XRECORD
  5
3F4E
102
{ACAD_REACTORS
330
3F33
102
}
330
3F33
100
AcDbXrecord
 10
0.0
 20
0.0
 30
0.0
  0
XRECORD
  5
3F4B
102
{ACAD_REACTORS
330
3F33
102
}
330
3F33
100
AcDbXrecord
340
0
  0
XRECORD
  5
3F4C
102
{ACAD_REACTORS
330
3F33
102
}
330
3F33
100
AcDbXrecord
 70
     0
  0
XRECORD
  5
3F3F
102
{ACAD_REACTORS
330
3F33
102
}
330
3F33
100
AcDbXrecord
  1
{20C95339-BF0C-4DA1-88A5-4C9196AAD5AB}
  0
DICTIONARYVAR
  5
5F
102
{ACAD_REACTORS
330
5E
102
}
330
5E
100
DictionaryVariables
280
     0
  1
2
  0
DICTIONARYVAR
  5
63
102
{ACAD_REACTORS
330
5E
102
}
330
5E
100
DictionaryVariables
280
     0
  1
1
  0
XRECORD
  5
AE
102
{ACAD_REACTORS
330
AD
102
}
330
AD
100
AcDbXrecord
  1
0
  1
0*
  1
*
  1
*
 70
     0
  1
*
  1
*
  0
XRECORD
  5
AF
102
{ACAD_REACTORS
330
AD
102
}
330
AD
100
AcDbXrecord
  1
R1クーラー
  1
0-1（R1クーラー*）
  1
*
  1
*
 70
     0
  1
*
  1
*
  0
XRECORD
  5
B0
102
{ACAD_REACTORS
330
AD
102
}
330
AD
100
AcDbXrecord
  1
R2クーラー
  1
0-1（R2クーラー*）
  1
*
  1
*
 70
     0
  1
*
  1
*
  0
ENDSEC
  0
EOF
