  0
SECTION
  2
HEADER
  9
$ACADVER
  1
AC1014
  9
$ACADMAINTVER
 70
     9
  9
$DWGCODEPAGE
  3
ANSI_932
  9
$INSBASE
 10
0.0
 20
0.0
 30
0.0
  9
$EXTMIN
 10
277.5021684255587
 20
230.601003296284
 30
0.0
  9
$EXTMAX
 10
889.1788350922253
 20
580.601003296284
 30
0.0
  9
$LIMMIN
 10
0.0
 20
0.0
  9
$LIMMAX
 10
420.0
 20
297.0
  9
$ORTHOMODE
 70
     0
  9
$REGENMODE
 70
     1
  9
$FILLMODE
 70
     1
  9
$QTEXTMODE
 70
     0
  9
$MIRRTEXT
 70
     1
  9
$DRAGMODE
 70
     2
  9
$LTSCALE
 40
1.0
  9
$OSMODE
 70
  3071
  9
$ATTMODE
 70
     1
  9
$TEXTSIZE
 40
2.5
  9
$TRACEWID
 40
1.0
  9
$TEXTSTYLE
  7
STANDARD
  9
$CLAYER
  8
0
  9
$CELTYPE
  6
BYLAYER
  9
$CECOLOR
 62
   256
  9
$CELTSCALE
 40
1.0
  9
$DELOBJ
 70
     1
  9
$DISPSILH
 70
     0
  9
$DIMSCALE
 40
1.0
  9
$DIMASZ
 40
2.5
  9
$DIMEXO
 40
0.625
  9
$DIMDLI
 40
3.75
  9
$DIMRND
 40
0.0
  9
$DIMDLE
 40
0.0
  9
$DIMEXE
 40
1.25
  9
$DIMTP
 40
0.0
  9
$DIMTM
 40
0.0
  9
$DIMTXT
 40
2.5
  9
$DIMCEN
 40
2.5
  9
$DIMTSZ
 40
0.0
  9
$DIMTOL
 70
     0
  9
$DIMLIM
 70
     0
  9
$DIMTIH
 70
     0
  9
$DIMTOH
 70
     0
  9
$DIMSE1
 70
     0
  9
$DIMSE2
 70
     0
  9
$DIMTAD
 70
     1
  9
$DIMZIN
 70
     8
  9
$DIMBLK
  1

  9
$DIMASO
 70
     1
  9
$DIMSHO
 70
     1
  9
$DIMPOST
  1

  9
$DIMAPOST
  1

  9
$DIMALT
 70
     0
  9
$DIMALTD
 70
     3
  9
$DIMALTF
 40
0.03937007874016
  9
$DIMLFAC
 40
1.0
  9
$DIMTOFL
 70
     1
  9
$DIMTVP
 40
0.0
  9
$DIMTIX
 70
     0
  9
$DIMSOXD
 70
     0
  9
$DIMSAH
 70
     0
  9
$DIMBLK1
  1

  9
$DIMBLK2
  1

  9
$DIMSTYLE
  2
ISO-25
  9
$DIMCLRD
 70
     0
  9
$DIMCLRE
 70
     0
  9
$DIMCLRT
 70
     0
  9
$DIMTFAC
 40
1.0
  9
$DIMGAP
 40
0.625
  9
$DIMJUST
 70
     0
  9
$DIMSD1
 70
     0
  9
$DIMSD2
 70
     0
  9
$DIMTOLJ
 70
     0
  9
$DIMTZIN
 70
     8
  9
$DIMALTZ
 70
     0
  9
$DIMALTTZ
 70
     0
  9
$DIMFIT
 70
     3
  9
$DIMUPT
 70
     0
  9
$DIMUNIT
 70
     2
  9
$DIMDEC
 70
     2
  9
$DIMTDEC
 70
     2
  9
$DIMALTU
 70
     2
  9
$DIMALTTD
 70
     3
  9
$DIMTXSTY
  7
STANDARD
  9
$DIMAUNIT
 70
     0
  9
$LUNITS
 70
     2
  9
$LUPREC
 70
     4
  9
$SKETCHINC
 40
1.0
  9
$FILLETRAD
 40
10.0
  9
$AUNITS
 70
     0
  9
$AUPREC
 70
     0
  9
$MENU
  1
.
  9
$ELEVATION
 40
0.0
  9
$PELEVATION
 40
0.0
  9
$THICKNESS
 40
0.0
  9
$LIMCHECK
 70
     0
  9
$BLIPMODE
 70
     0
  9
$CHAMFERA
 40
10.0
  9
$CHAMFERB
 40
10.0
  9
$CHAMFERC
 40
20.0
  9
$CHAMFERD
 40
0.0
  9
$SKPOLY
 70
     0
  9
$TDCREATE
 40
2455716.570724826
  9
$TDUPDATE
 40
2455796.755042488
  9
$TDINDWG
 40
0.0589836690
  9
$TDUSRTIMER
 40
0.0589836690
  9
$USRTIMER
 70
     1
  9
$ANGBASE
 50
0.0
  9
$ANGDIR
 70
     0
  9
$PDMODE
 70
     0
  9
$PDSIZE
 40
0.0
  9
$PLINEWID
 40
0.0
  9
$COORDS
 70
     2
  9
$SPLFRAME
 70
     0
  9
$SPLINETYPE
 70
     6
  9
$SPLINESEGS
 70
     8
  9
$ATTDIA
 70
     0
  9
$ATTREQ
 70
     1
  9
$HANDLING
 70
 22529
  9
$HANDSEED
  5
52C4
  9
$SURFTAB1
 70
     6
  9
$SURFTAB2
 70
     6
  9
$SURFTYPE
 70
     6
  9
$SURFU
 70
     6
  9
$SURFV
 70
     6
  9
$UCSNAME
  2

  9
$UCSORG
 10
0.0
 20
0.0
 30
0.0
  9
$UCSXDIR
 10
1.0
 20
0.0
 30
0.0
  9
$UCSYDIR
 10
0.0
 20
1.0
 30
0.0
  9
$PUCSNAME
  2

  9
$PUCSORG
 10
0.0
 20
0.0
 30
0.0
  9
$PUCSXDIR
 10
1.0
 20
0.0
 30
0.0
  9
$PUCSYDIR
 10
0.0
 20
1.0
 30
0.0
  9
$USERI1
 70
     0
  9
$USERI2
 70
     0
  9
$USERI3
 70
     0
  9
$USERI4
 70
     0
  9
$USERI5
 70
     0
  9
$USERR1
 40
0.0
  9
$USERR2
 40
0.0
  9
$USERR3
 40
0.0
  9
$USERR4
 40
0.0
  9
$USERR5
 40
0.0
  9
$WORLDVIEW
 70
     1
  9
$SHADEDGE
 70
     3
  9
$SHADEDIF
 70
    70
  9
$TILEMODE
 70
     1
  9
$MAXACTVP
 70
    48
  9
$PINSBASE
 10
0.0
 20
0.0
 30
0.0
  9
$PLIMCHECK
 70
     0
  9
$PEXTMIN
 10
26.66076962115562
 20
20.31135699206657
 30
-0.0015258207003583
  9
$PEXTMAX
 10
240.039213369355
 20
182.8886381005154
 30
0.0000000349246037
  9
$PLIMMIN
 10
-6.350006103515625
 20
-6.349999904632568
  9
$PLIMMAX
 10
273.0499877929687
 20
209.5499939918517
  9
$UNITMODE
 70
     0
  9
$VISRETAIN
 70
     1
  9
$PLINEGEN
 70
     0
  9
$PSLTSCALE
 70
     1
  9
$TREEDEPTH
 70
  3020
  9
$PICKSTYLE
 70
     0
  9
$CMLSTYLE
  2
STANDARD
  9
$CMLJUST
 70
     0
  9
$CMLSCALE
 40
20.0
  9
$PROXYGRAPHICS
 70
     1
  9
$MEASUREMENT
 70
     1
  0
ENDSEC
  0
SECTION
  2
CLASSES
  0
CLASS
  1
ACDBDICTIONARYWDFLT
  2
AcDbDictionaryWithDefault
  3
AutoCAD 2000
 90
        0
280
     0
281
     0
  0
CLASS
  1
ACDBPLACEHOLDER
  2
AcDbPlaceHolder
  3
AutoCAD 2000
 90
        0
280
     0
281
     0
  0
CLASS
  1
LAYOUT
  2
AcDbLayout
  3
AutoCAD 2000
 90
        0
280
     0
281
     0
  0
CLASS
  1
DICTIONARYVAR
  2
AcDbDictionaryVar
  3
AutoCAD 2000
 90
        0
280
     0
281
     0
  0
CLASS
  1
LONG_TRANSACTION
  2
AcDbLongTransaction
  3
AutoCAD 2000
 90
        0
280
     0
281
     0
  0
CLASS
  1
LWPOLYLINE
  2
AcDbPolyline
  3
AutoCAD 2000
 90
        0
280
     0
281
     1
  0
CLASS
  1
HATCH
  2
AcDbHatch
  3
AutoCAD 2000
 90
        0
280
     0
281
     1
  0
CLASS
  1
XRECORD
  2
AcDbXrecord
  3
AutoCAD 2000
 90
        0
280
     0
281
     0
  0
CLASS
  1
LONG_TRANSACTION
  2
AcDbLongTransaction
  3
AutoCAD 2000
 90
        0
280
     0
281
     0
  0
CLASS
  1
LWPOLYLINE
  2
AcDbPolyline
  3
AutoCAD 2000
 90
        0
280
     0
281
     1
  0
CLASS
  1
HATCH
  2
AcDbHatch
  3
AutoCAD 2000
 90
        0
280
     0
281
     1
  0
CLASS
  1
XRECORD
  2
AcDbXrecord
  3
AutoCAD 2000
 90
        0
280
     0
281
     0
  0
CLASS
  1
LONG_TRANSACTION
  2
AcDbLongTransaction
  3
AutoCAD 2000
 90
        0
280
     0
281
     0
  0
CLASS
  1
LWPOLYLINE
  2
AcDbPolyline
  3
AutoCAD 2000
 90
        0
280
     0
281
     1
  0
CLASS
  1
HATCH
  2
AcDbHatch
  3
AutoCAD 2000
 90
        0
280
     0
281
     1
  0
CLASS
  1
XRECORD
  2
AcDbXrecord
  3
AutoCAD 2000
 90
        0
280
     0
281
     0
  0
CLASS
  1
LONG_TRANSACTION
  2
AcDbLongTransaction
  3
AutoCAD 2000
 90
        0
280
     0
281
     0
  0
CLASS
  1
LWPOLYLINE
  2
AcDbPolyline
  3
AutoCAD 2000
 90
        0
280
     0
281
     1
  0
CLASS
  1
HATCH
  2
AcDbHatch
  3
AutoCAD 2000
 90
        0
280
     0
281
     1
  0
CLASS
  1
XRECORD
  2
AcDbXrecord
  3
AutoCAD 2000
 90
        0
280
     0
281
     0
  0
CLASS
  1
DIMASSOC
  2
AcDbDimAssoc
  3
"AcDbDimAssoc|Product Desc:     AcDim ARX App For Dimension|Company:          Autodesk, Inc.|WEB Address:      www.autodesk.com"
 90
        0
280
     0
281
     0
  0
CLASS
  1
LONG_TRANSACTION
  2
AcDbLongTransaction
  3
AutoCAD 2000
 90
        0
280
     0
281
     0
  0
CLASS
  1
LWPOLYLINE
  2
AcDbPolyline
  3
AutoCAD 2000
 90
        0
280
     0
281
     1
  0
CLASS
  1
HATCH
  2
AcDbHatch
  3
AutoCAD 2000
 90
        0
280
     0
281
     1
  0
CLASS
  1
XRECORD
  2
AcDbXrecord
  3
AutoCAD 2000
 90
        0
280
     0
281
     0
  0
CLASS
  1
IDBUFFER
  2
AcDbIdBuffer
  3
AutoCAD 2000
 90
        0
280
     0
281
     0
  0
CLASS
  1
LONG_TRANSACTION
  2
AcDbLongTransaction
  3
AutoCAD 2000
 90
        0
280
     0
281
     0
  0
CLASS
  1
LWPOLYLINE
  2
AcDbPolyline
  3
AutoCAD 2000
 90
        0
280
     0
281
     1
  0
CLASS
  1
HATCH
  2
AcDbHatch
  3
AutoCAD 2000
 90
        0
280
     0
281
     1
  0
CLASS
  1
XRECORD
  2
AcDbXrecord
  3
AutoCAD 2000
 90
        0
280
     0
281
     0
  0
CLASS
  1
LONG_TRANSACTION
  2
AcDbLongTransaction
  3
AutoCAD 2000
 90
        0
280
     0
281
     0
  0
CLASS
  1
LWPOLYLINE
  2
AcDbPolyline
  3
AutoCAD 2000
 90
        0
280
     0
281
     1
  0
CLASS
  1
HATCH
  2
AcDbHatch
  3
AutoCAD 2000
 90
        0
280
     0
281
     1
  0
CLASS
  1
XRECORD
  2
AcDbXrecord
  3
AutoCAD 2000
 90
        0
280
     0
281
     0
  0
CLASS
  1
LONG_TRANSACTION
  2
AcDbLongTransaction
  3
AutoCAD 2000
 90
        0
280
     0
281
     0
  0
CLASS
  1
LWPOLYLINE
  2
AcDbPolyline
  3
AutoCAD 2000
 90
        0
280
     0
281
     1
  0
CLASS
  1
HATCH
  2
AcDbHatch
  3
AutoCAD 2000
 90
        0
280
     0
281
     1
  0
CLASS
  1
XRECORD
  2
AcDbXrecord
  3
AutoCAD 2000
 90
        0
280
     0
281
     0
  0
CLASS
  1
LONG_TRANSACTION
  2
AcDbLongTransaction
  3
AutoCAD 2000
 90
        0
280
     0
281
     0
  0
CLASS
  1
LWPOLYLINE
  2
AcDbPolyline
  3
AutoCAD 2000
 90
        0
280
     0
281
     1
  0
CLASS
  1
HATCH
  2
AcDbHatch
  3
AutoCAD 2000
 90
        0
280
     0
281
     1
  0
CLASS
  1
XRECORD
  2
AcDbXrecord
  3
AutoCAD 2000
 90
        0
280
     0
281
     0
  0
CLASS
  1
LONG_TRANSACTION
  2
AcDbLongTransaction
  3
AutoCAD 2000
 90
        0
280
     0
281
     0
  0
CLASS
  1
LWPOLYLINE
  2
AcDbPolyline
  3
AutoCAD 2000
 90
        0
280
     0
281
     1
  0
CLASS
  1
HATCH
  2
AcDbHatch
  3
AutoCAD 2000
 90
        0
280
     0
281
     1
  0
CLASS
  1
XRECORD
  2
AcDbXrecord
  3
AutoCAD 2000
 90
        0
280
     0
281
     0
  0
CLASS
  1
LONG_TRANSACTION
  2
AcDbLongTransaction
  3
AutoCAD 2000
 90
        0
280
     0
281
     0
  0
CLASS
  1
LWPOLYLINE
  2
AcDbPolyline
  3
AutoCAD 2000
 90
        0
280
     0
281
     1
  0
CLASS
  1
HATCH
  2
AcDbHatch
  3
AutoCAD 2000
 90
        0
280
     0
281
     1
  0
CLASS
  1
XRECORD
  2
AcDbXrecord
  3
AutoCAD 2000
 90
        0
280
     0
281
     0
  0
CLASS
  1
LONG_TRANSACTION
  2
AcDbLongTransaction
  3
AutoCAD 2000
 90
        0
280
     0
281
     0
  0
CLASS
  1
LWPOLYLINE
  2
AcDbPolyline
  3
AutoCAD 2000
 90
        0
280
     0
281
     1
  0
CLASS
  1
HATCH
  2
AcDbHatch
  3
AutoCAD 2000
 90
        0
280
     0
281
     1
  0
CLASS
  1
XRECORD
  2
AcDbXrecord
  3
AutoCAD 2000
 90
        0
280
     0
281
     0
  0
ENDSEC
  0
SECTION
  2
TABLES
  0
TABLE
  2
VPORT
  5
8
330
0
100
AcDbSymbolTable
 70
     2
  0
VPORT
  5
529F
330
8
100
AcDbSymbolTableRecord
100
AcDbViewportTableRecord
  2
*ACTIVE
 70
     0
 10
0.0
 20
0.0
 11
1.0
 21
1.0
 12
583.3377294222677
 22
405.6088187715888
 13
0.0
 23
0.0
 14
10.0
 24
10.0
 15
10.0
 25
10.0
 16
0.0
 26
0.0
 36
1.0
 17
0.0
 27
0.0
 37
0.0
 40
391.4367203427861
 41
1.568930041152263
 42
50.0
 43
0.0
 44
0.0
 50
0.0
 51
0.0
 71
     0
 72
   100
 73
     1
 74
     3
 75
     0
 76
     0
 77
     0
 78
     0
  0
ENDTAB
  0
TABLE
  2
LTYPE
  5
5
330
0
100
AcDbSymbolTable
 70
     4
  0
LTYPE
  5
14
330
5
100
AcDbSymbolTableRecord
100
AcDbLinetypeTableRecord
  2
BYBLOCK
 70
     0
  3

 72
    65
 73
     0
 40
0.0
  0
LTYPE
  5
15
330
5
100
AcDbSymbolTableRecord
100
AcDbLinetypeTableRecord
  2
BYLAYER
 70
     0
  3

 72
    65
 73
     0
 40
0.0
  0
LTYPE
  5
16
330
5
100
AcDbSymbolTableRecord
100
AcDbLinetypeTableRecord
  2
CONTINUOUS
 70
     0
  3
Solid line
 72
    65
 73
     0
 40
0.0
  0
LTYPE
  5
97
330
5
100
AcDbSymbolTableRecord
100
AcDbLinetypeTableRecord
  2
CENTERX2
 70
     0
  3
Center (2x) ________  __  ________  __  _____
 72
    65
 73
     4
 40
101.6
 49
63.5
 74
     0
 49
-12.7
 74
     0
 49
12.7
 74
     0
 49
-12.7
 74
     0
  0
LTYPE
  5
9D
330
5
100
AcDbSymbolTableRecord
100
AcDbLinetypeTableRecord
  2
PHANTOMX2
 70
     0
  3
Phantom (2x) ____________    ____    ____   _
 72
    65
 73
     6
 40
127.0
 49
63.5
 74
     0
 49
-12.7
 74
     0
 49
12.7
 74
     0
 49
-12.7
 74
     0
 49
12.7
 74
     0
 49
-12.7
 74
     0
  0
LTYPE
  5
4CCB
330
5
100
AcDbSymbolTableRecord
100
AcDbLinetypeTableRecord
  2
CENTER
 70
     0
  3
____ _ ____ _ ____ _ ____ _ ____ _ ____ _ ____
 72
    65
 73
     4
 40
0.6
 49
0.375
 74
     0
 49
-0.075
 74
     0
 49
0.075
 74
     0
 49
-0.075
 74
     0
  0
ENDTAB
  0
TABLE
  2
LAYER
  5
2
102
{ACAD_XDICTIONARY
360
AC
102
}
330
0
100
AcDbSymbolTable
 70
     8
  0
LAYER
  5
10
330
2
100
AcDbSymbolTableRecord
100
AcDbLayerTableRecord
  2
0
 70
     0
 62
     7
  6
CONTINUOUS
  0
LAYER
  5
86
330
2
100
AcDbSymbolTableRecord
100
AcDbLayerTableRecord
  2
DEFPOINTS
 70
     0
 62
     7
  6
CONTINUOUS
  0
LAYER
  5
87
330
2
100
AcDbSymbolTableRecord
100
AcDbLayerTableRecord
  2
10
 70
     0
 62
     4
  6
CONTINUOUS
  0
LAYER
  5
92
330
2
100
AcDbSymbolTableRecord
100
AcDbLayerTableRecord
  2
12
 70
     0
 62
     3
  6
CONTINUOUS
  0
LAYER
  5
98
330
2
100
AcDbSymbolTableRecord
100
AcDbLayerTableRecord
  2
16
 70
     0
 62
     4
  6
CENTERX2
  0
LAYER
  5
9E
330
2
100
AcDbSymbolTableRecord
100
AcDbLayerTableRecord
  2
18
 70
     0
 62
     1
  6
PHANTOMX2
  0
LAYER
  5
A3
330
2
100
AcDbSymbolTableRecord
100
AcDbLayerTableRecord
  2
19
 70
     0
 62
     7
  6
CONTINUOUS
  0
LAYER
  5
28E1
330
2
100
AcDbSymbolTableRecord
100
AcDbLayerTableRecord
  2
17
 70
     0
 62
     2
  6
CENTERX2
  0
ENDTAB
  0
TABLE
  2
STYLE
  5
3
330
0
100
AcDbSymbolTable
 70
     2
  0
STYLE
  5
11
330
3
100
AcDbSymbolTableRecord
100
AcDbTextStyleTableRecord
  2
STANDARD
 70
     0
 40
0.0
 41
1.0
 50
0.0
 71
     0
 42
2.5
  3
txt
  4

  0
STYLE
  5
BF
330
3
100
AcDbSymbolTableRecord
100
AcDbTextStyleTableRecord
  2
STANDARD1
 70
     0
 40
0.0
 41
0.7
 50
0.0
 71
     0
 42
4.0
  3
romans.shx
  4
extfont.shx
  0
ENDTAB
  0
TABLE
  2
VIEW
  5
6
330
0
100
AcDbSymbolTable
 70
     0
  0
ENDTAB
  0
TABLE
  2
UCS
  5
7
330
0
100
AcDbSymbolTable
 70
     0
  0
ENDTAB
  0
TABLE
  2
APPID
  5
9
330
0
100
AcDbSymbolTable
 70
     5
  0
APPID
  5
12
330
9
100
AcDbSymbolTableRecord
100
AcDbRegAppTableRecord
  2
ACAD
 70
     0
  0
APPID
  5
3B40
330
9
100
AcDbSymbolTableRecord
100
AcDbRegAppTableRecord
  2
CONTENTTABDATA
 70
     0
  0
APPID
  5
3B41
330
9
100
AcDbSymbolTableRecord
100
AcDbRegAppTableRecord
  2
CONTENTCURRENTTAB
 70
     0
  0
APPID
  5
3B42
330
9
100
AcDbSymbolTableRecord
100
AcDbRegAppTableRecord
  2
CONTENTBLOCKICON
 70
     0
  0
APPID
  5
3B43
330
9
100
AcDbSymbolTableRecord
100
AcDbRegAppTableRecord
  2
CONTENTBLOCKDESCRIPTION
 70
     0
  0
ENDTAB
  0
TABLE
  2
DIMSTYLE
  5
A
330
0
100
AcDbSymbolTable
 70
     2
  0
DIMSTYLE
105
27
330
A
100
AcDbSymbolTableRecord
100
AcDbDimStyleTableRecord
  2
ISO-25
 70
     0
  3

  4

  5

  6

  7

 40
1.0
 41
2.5
 42
0.625
 43
3.75
 44
1.25
 45
0.0
 46
0.0
 47
0.0
 48
0.0
140
2.5
141
2.5
142
0.0
143
0.03937007874016
144
1.0
145
0.0
146
1.0
147
0.625
 71
     0
 72
     0
 73
     0
 74
     0
 75
     0
 76
     0
 77
     1
 78
     8
170
     0
171
     3
172
     1
173
     0
174
     0
175
     0
176
     0
177
     0
178
     0
270
     2
271
     2
272
     2
273
     2
274
     3
340
11
275
     0
280
     0
281
     0
282
     0
283
     0
284
     8
285
     0
286
     0
287
     3
288
     0
  0
DIMSTYLE
105
88
330
A
100
AcDbSymbolTableRecord
100
AcDbDimStyleTableRecord
  2
STANDARD
 70
     0
  3

  4

  5

  6

  7

 40
1.0
 41
0.18
 42
0.0625
 43
0.38
 44
0.18
 45
0.0
 46
0.0
 47
0.0
 48
0.0
140
0.18
141
0.09
142
0.0
143
25.4
144
1.0
145
0.0
146
1.0
147
0.09
 71
     0
 72
     0
 73
     1
 74
     1
 75
     0
 76
     0
 77
     0
 78
     0
170
     0
171
     2
172
     0
173
     0
174
     0
175
     0
176
     0
177
     0
178
     0
270
     2
271
     4
272
     4
273
     2
274
     2
340
11
275
     0
280
     0
281
     0
282
     0
283
     1
284
     0
285
     0
286
     0
287
     3
288
     0
  0
ENDTAB
  0
TABLE
  2
BLOCK_RECORD
  5
1
330
0
100
AcDbSymbolTable
 70
     1
  0
BLOCK_RECORD
  5
1F
102
{ACAD_XDICTIONARY
360
2892
102
}
330
1
100
AcDbSymbolTableRecord
100
AcDbBlockTableRecord
  2
*MODEL_SPACE
  0
BLOCK_RECORD
  5
55
102
{ACAD_XDICTIONARY
360
2894
102
}
330
1
100
AcDbSymbolTableRecord
100
AcDbBlockTableRecord
  2
*PAPER_SPACE
  0
ENDTAB
  0
ENDSEC
  0
SECTION
  2
BLOCKS
  0
BLOCK
  5
20
330
1F
100
AcDbEntity
  8
0
100
AcDbBlockBegin
  2
*MODEL_SPACE
 70
     0
 10
0.0
 20
0.0
 30
0.0
  3
*MODEL_SPACE
  1

  0
ENDBLK
  5
21
330
1F
100
AcDbEntity
  8
0
100
AcDbBlockEnd
  0
BLOCK
  5
57
330
55
100
AcDbEntity
 67
     1
  8
0
100
AcDbBlockBegin
  2
*PAPER_SPACE
 70
     0
 10
0.0
 20
0.0
 30
0.0
  3
*PAPER_SPACE
  1

  0
ENDBLK
  5
58
330
55
100
AcDbEntity
 67
     1
  8
0
100
AcDbBlockEnd
  0
ENDSEC
  0
SECTION
  2
ENTITIES
  0
MTEXT
  5
383A
330
1F
100
AcDbEntity
  8
19
100
AcDbMText
 10
788.5121684255588
 20
238.9899882909579
 30
0.0
 40
10.0
 41
150.0
 71
     4
 72
     5
  1
{\Fromans.shx;FR-E560-3.7K-NA}
  7
STANDARD1
1001
ACAD
1000
MTEXTBEGIN
1070
    73
1070
     1
1070
    44
1040
1.0
1070
    74
1070
     0
1000
MTEXTEND
  0
MTEXT
  5
383B
330
1F
100
AcDbEntity
  8
19
100
AcDbMText
 10
789.0048810298218
 20
257.6535381161095
 30
0.0
 40
10.0
 41
150.0
 71
     4
 72
     5
  1
{\Fromans.shx;E56002}
  7
STANDARD1
1001
ACAD
1000
MTEXTBEGIN
1070
    73
1070
     1
1070
    44
1040
1.0
1070
    74
1070
     0
1000
MTEXTEND
  0
LWPOLYLINE
  5
434B
330
1F
100
AcDbEntity
  8
18
100
AcDbPolyline
 90
        4
 70
     1
 43
0.0
 10
277.5021684255587
 20
230.601003296284
 10
517.5021684255588
 20
230.601003296284
 10
517.5021684255588
 20
580.601003296284
 10
277.5021684255587
 20
580.601003296284
  0
LINE
  5
4350
330
1F
100
AcDbEntity
  8
10
100
AcDbLine
 10
755.5021684255588
 20
464.5147914621406
 30
0.0
 11
709.0021684255588
 21
464.5147914621406
 31
0.0
  0
LINE
  5
4351
330
1F
100
AcDbEntity
  8
10
100
AcDbLine
 10
755.5021684255588
 20
346.6911723641906
 30
0.0
 11
709.0021684255588
 21
346.6911723641906
 31
0.0
  0
LINE
  5
4352
330
1F
100
AcDbEntity
  8
10
100
AcDbLine
 10
728.0021684255587
 20
330.6029819131654
 30
0.0
 11
702.502168425559
 21
330.6029819131654
 31
0.0
  0
LINE
  5
4353
330
1F
100
AcDbEntity
  8
10
100
AcDbLine
 10
775.5021684255588
 20
480.6029819131654
 30
0.0
 11
702.5021684255587
 21
480.6029819131654
 31
0.0
  0
LINE
  5
45D1
330
1F
100
AcDbEntity
  8
10
100
AcDbLine
 10
425.5021684255588
 20
330.6029819131655
 30
0.0
 11
506.7021684255586
 21
330.6029819131655
 31
0.0
  0
LINE
  5
45D2
330
1F
100
AcDbEntity
  8
10
100
AcDbLine
 10
507.5021684255588
 20
435.6029819131655
 30
0.0
 11
415.5021684255588
 21
435.6029819131655
 31
0.0
  0
LINE
  5
45D3
330
1F
100
AcDbEntity
  8
10
100
AcDbLine
 10
428.302168425559
 20
480.6029819131655
 30
0.0
 11
494.7021684255586
 21
480.6029819131655
 31
0.0
  0
LINE
  5
45D4
330
1F
100
AcDbEntity
  8
10
100
AcDbLine
 10
427.5021684255588
 20
435.6029819131655
 30
0.0
 11
495.5021684255588
 21
435.6029819131655
 31
0.0
  0
LINE
  5
45D6
330
1F
100
AcDbEntity
  8
10
100
AcDbLine
 10
494.7021684255586
 20
480.6029819131655
 30
0.0
 11
300.3021684255589
 21
480.6029819131655
 31
0.0
  0
LINE
  5
45D7
330
1F
100
AcDbEntity
  8
10
100
AcDbLine
 10
300.3021684255589
 20
330.6029819131655
 30
0.0
 11
368.302168425559
 21
330.6029819131655
 31
0.0
  0
LINE
  5
45D8
330
1F
100
AcDbEntity
  8
10
100
AcDbLine
 10
287.5021684255588
 20
344.7168435035486
 30
0.0
 11
287.5021684255588
 21
466.4891203227827
 31
0.0
  0
LINE
  5
45D9
330
1F
100
AcDbEntity
  8
12
  6
CENTER
100
AcDbLine
 10
302.0021684255588
 20
336.6029819131655
 30
0.0
 11
285.0021684255588
 21
336.6029819131655
 31
0.0
  0
ARC
  5
45DB
330
1F
100
AcDbEntity
  8
10
100
AcDbCircle
 10
296.5021684255588
 20
338.5856106400555
 30
0.0
 40
3.0
100
AcDbArc
 50
0.0
 51
75.0000000000024
  0
ARC
  5
45DC
330
1F
100
AcDbEntity
  8
10
100
AcDbCircle
 10
293.5021684255588
 20
336.6029819131655
 30
0.0
 40
2.5
100
AcDbArc
 50
0.0
 51
180.0
  0
LINE
  5
45DD
330
1F
100
AcDbEntity
  8
10
100
AcDbLine
 10
297.0021684255592
 20
330.6029819131655
 30
0.0
 11
300.3021684255589
 21
330.6029819131655
 31
0.0
  0
ARC
  5
45DF
330
1F
100
AcDbEntity
  8
10
100
AcDbCircle
 10
297.0021684255592
 20
331.6029819131655
 30
0.0
 40
1.0
100
AcDbArc
 50
180.0
 51
270.0
  0
POINT
  5
45E0
330
1F
100
AcDbEntity
  8
10
100
AcDbPoint
 10
299.5021684255588
 20
330.6029819131655
 30
0.0
  0
ARC
  5
45E1
330
1F
100
AcDbEntity
  8
10
100
AcDbCircle
 10
300.3021684255589
 20
331.4029819131657
 30
0.0
 40
0.7999999999999541
100
AcDbArc
 50
180.0
 51
270.0
  0
ARC
  5
45E2
330
1F
100
AcDbEntity
  8
10
100
AcDbCircle
 10
290.0021684255579
 20
333.1029819131655
 30
0.0
 40
1.0
100
AcDbArc
 50
270.0
 51
0.0
  0
LINE
  5
45E3
330
1F
100
AcDbEntity
  8
12
  6
CENTER
100
AcDbLine
 10
293.5021684255588
 20
345.1029819131655
 30
0.0
 11
293.5021684255588
 21
328.1029819131655
 31
0.0
  0
LINE
  5
45E4
330
1F
100
AcDbEntity
  8
10
100
AcDbLine
 10
291.0021684255579
 20
336.6029819131655
 30
0.0
 11
291.0021684255579
 21
333.1029819131655
 31
0.0
  0
LINE
  5
45E5
330
1F
100
AcDbEntity
  8
10
100
AcDbLine
 10
296.0021684255593
 20
336.6029819131655
 30
0.0
 11
296.0021684255593
 21
331.6029819131655
 31
0.0
  0
LINE
  5
45E6
330
1F
100
AcDbEntity
  8
10
100
AcDbLine
 10
299.5021684255588
 20
331.4029819131657
 30
0.0
 11
299.5021684255588
 21
338.5856106400555
 31
0.0
  0
ARC
  5
45E7
330
1F
100
AcDbEntity
  8
10
100
AcDbCircle
 10
288.3021684255589
 20
344.7168435035486
 30
0.0
 40
0.7999999999999541
100
AcDbArc
 50
180.0
 51
255.0000000000102
  0
POINT
  5
45E8
330
1F
100
AcDbEntity
  8
10
100
AcDbPoint
 10
287.5021684255588
 20
344.1029819131655
 30
0.0
  0
ARC
  5
45E9
330
1F
100
AcDbEntity
  8
10
100
AcDbCircle
 10
288.5021684255588
 20
333.1029819131655
 30
0.0
 40
1.0
100
AcDbArc
 50
180.0
 51
270.0
  0
LINE
  5
45EA
330
1F
100
AcDbEntity
  8
10
100
AcDbLine
 10
287.5021684255588
 20
333.1029819131655
 30
0.0
 11
287.5021684255588
 21
344.7168435035486
 31
0.0
  0
LINE
  5
45EB
330
1F
100
AcDbEntity
  8
10
100
AcDbLine
 10
288.5021684255588
 20
332.1029819131655
 30
0.0
 11
290.0021684255579
 21
332.1029819131655
 31
0.0
  0
LINE
  5
45EC
330
1F
100
AcDbEntity
  8
10
100
AcDbLine
 10
297.278625560866
 20
341.4833881189228
 30
0.0
 11
288.0951131894769
 21
343.9441028425177
 31
0.0
  0
LINE
  5
45ED
330
1F
100
AcDbEntity
  8
12
  6
CENTER
100
AcDbLine
 10
302.0021684255588
 20
474.6029819131655
 30
0.0
 11
285.0021684255588
 21
474.6029819131655
 31
0.0
  0
POINT
  5
45EE
330
1F
100
AcDbEntity
  8
10
100
AcDbPoint
 10
299.5021684255588
 20
480.6029819131655
 30
0.0
  0
ARC
  5
45EF
330
1F
100
AcDbEntity
  8
10
100
AcDbCircle
 10
296.5021684255588
 20
472.6203531862758
 30
0.0
 40
3.000000000000062
100
AcDbArc
 50
284.9999999999976
 51
0.0
  0
ARC
  5
45F0
330
1F
100
AcDbEntity
  8
10
100
AcDbCircle
 10
300.3021684255589
 20
479.8029819131655
 30
0.0
 40
0.8000000000001817
100
AcDbArc
 50
90.0
 51
180.0
  0
LINE
  5
45F1
330
1F
100
AcDbEntity
  8
10
100
AcDbLine
 10
299.5021684255588
 20
472.6203531862758
 30
0.0
 11
299.5021684255588
 21
479.8029819131655
 31
0.0
  0
CIRCLE
  5
45F2
330
1F
100
AcDbEntity
  8
10
100
AcDbCircle
 10
293.5021684255588
 20
474.6029819131655
 30
0.0
 40
2.5
  0
LINE
  5
45F3
330
1F
100
AcDbEntity
  8
12
  6
CENTER
100
AcDbLine
 10
293.5021684255588
 20
483.1029819131655
 30
0.0
 11
293.5021684255588
 21
466.1029819131655
 31
0.0
  0
ARC
  5
45F5
330
1F
100
AcDbEntity
  8
10
100
AcDbCircle
 10
288.5021684255588
 20
479.6029819131655
 30
0.0
 40
1.0
100
AcDbArc
 50
90.0
 51
180.0
  0
ARC
  5
45F6
330
1F
100
AcDbEntity
  8
10
100
AcDbCircle
 10
288.3021684255589
 20
466.4891203227827
 30
0.0
 40
0.8000000000002639
100
AcDbArc
 50
104.9999999999897
 51
180.0
  0
POINT
  5
45F7
330
1F
100
AcDbEntity
  8
10
100
AcDbPoint
 10
287.5021684255588
 20
467.1029819131655
 30
0.0
  0
LINE
  5
45F8
330
1F
100
AcDbEntity
  8
10
100
AcDbLine
 10
287.5021684255588
 20
466.4891203227827
 30
0.0
 11
287.5021684255588
 21
479.6029819131655
 31
0.0
  0
LINE
  5
45F9
330
1F
100
AcDbEntity
  8
10
100
AcDbLine
 10
300.3021684255589
 20
480.6029819131655
 30
0.0
 11
288.5021684255588
 21
480.6029819131655
 31
0.0
  0
LINE
  5
45FA
330
1F
100
AcDbEntity
  8
10
100
AcDbLine
 10
297.278625560866
 20
469.7225757074087
 30
0.0
 11
288.0951131894769
 21
467.2618609838138
 31
0.0
  0
LINE
  5
45FB
330
1F
100
AcDbEntity
  8
10
100
AcDbLine
 10
425.5021684255588
 20
373.6029819131655
 30
0.0
 11
384.5021684255588
 21
373.6029819131655
 31
0.0
  0
LINE
  5
45FC
330
1F
100
AcDbEntity
  8
10
100
AcDbLine
 10
415.5021684255588
 20
480.6029819131655
 30
0.0
 11
380.302168425559
 21
480.6029819131655
 31
0.0
  0
LINE
  5
45FD
330
1F
100
AcDbEntity
  8
10
100
AcDbLine
 10
425.4021684255589
 20
373.5029819131656
 30
0.0
 11
384.6021684255586
 21
373.5029819131656
 31
0.0
  0
LINE
  5
45FE
330
1F
100
AcDbEntity
  8
10
100
AcDbLine
 10
425.4021684255589
 20
330.6029819131655
 30
0.0
 11
384.6021684255586
 21
330.6029819131655
 31
0.0
  0
LINE
  5
45FF
330
1F
100
AcDbEntity
  8
10
100
AcDbLine
 10
367.302168425559
 20
330.6029819131655
 30
0.0
 11
367.302168425559
 21
467.3029819131655
 31
0.0
  0
LINE
  5
4600
330
1F
100
AcDbEntity
  8
10
100
AcDbLine
 10
367.5021684255588
 20
331.4029819131657
 30
0.0
 11
367.5021684255588
 21
466.4891203227827
 31
0.0
  0
LINE
  5
4601
330
1F
100
AcDbEntity
  8
10
100
AcDbLine
 10
384.5021684255588
 20
330.6029819131655
 30
0.0
 11
384.5021684255588
 21
373.6029819131655
 31
0.0
  0
LINE
  5
4602
330
1F
100
AcDbEntity
  8
10
100
AcDbLine
 10
384.6021684255586
 20
373.5029819131656
 30
0.0
 11
384.6021684255586
 21
330.6029819131655
 31
0.0
  0
LINE
  5
4603
330
1F
100
AcDbEntity
  8
10
100
AcDbLine
 10
368.302168425559
 20
330.6029819131655
 30
0.0
 11
384.5021684255588
 21
330.6029819131655
 31
0.0
  0
POINT
  5
4604
330
1F
100
AcDbEntity
  8
10
100
AcDbPoint
 10
367.5021684255588
 20
330.6029819131655
 30
0.0
  0
ARC
  5
4605
330
1F
100
AcDbEntity
  8
10
100
AcDbCircle
 10
368.302168425559
 20
331.4029819131657
 30
0.0
 40
0.7999999999999541
100
AcDbArc
 50
180.0
 51
270.0
  0
LINE
  5
4606
330
1F
100
AcDbEntity
  8
10
100
AcDbLine
 10
377.2268617518456
 20
469.9622954750708
 30
0.0
 11
367.302168425559
 21
467.3029819131655
 31
0.0
  0
LINE
  5
4607
330
1F
100
AcDbEntity
  8
10
100
AcDbLine
 10
368.095113189477
 20
467.2618609838138
 30
0.0
 11
377.278625560866
 21
469.7225757074087
 31
0.0
  0
POINT
  5
4608
330
1F
100
AcDbEntity
  8
10
100
AcDbPoint
 10
367.302168425559
 20
467.3029819131655
 30
0.0
  0
ARC
  5
4609
330
1F
100
AcDbEntity
  8
10
100
AcDbCircle
 10
368.302168425559
 20
466.4891203227827
 30
0.0
 40
0.8000000000002639
100
AcDbArc
 50
104.9999999999897
 51
180.0
  0
POINT
  5
460A
330
1F
100
AcDbEntity
  8
10
100
AcDbPoint
 10
367.5021684255588
 20
467.1029819131655
 30
0.0
  0
LINE
  5
460B
330
1F
100
AcDbEntity
  8
10
100
AcDbLine
 10
379.302168425559
 20
480.6029819131655
 30
0.0
 11
379.302168425559
 21
472.6668877886807
 31
0.0
  0
ARC
  5
460C
330
1F
100
AcDbEntity
  8
10
100
AcDbCircle
 10
380.302168425559
 20
479.8029819131655
 30
0.0
 40
0.8000000000001817
100
AcDbArc
 50
90.0
 51
180.0
  0
POINT
  5
460D
330
1F
100
AcDbEntity
  8
10
100
AcDbPoint
 10
379.5021684255588
 20
480.6029819131655
 30
0.0
  0
POINT
  5
460E
330
1F
100
AcDbEntity
  8
10
100
AcDbPoint
 10
379.5021684255588
 20
470.3183722223399
 30
0.0
  0
LINE
  5
460F
330
1F
100
AcDbEntity
  8
10
100
AcDbLine
 10
379.5021684255588
 20
479.8029819131655
 30
0.0
 11
379.5021684255588
 21
472.6203531862758
 31
0.0
  0
ARC
  5
4610
330
1F
100
AcDbEntity
  8
10
100
AcDbCircle
 10
376.5021684255588
 20
472.6668877886807
 30
0.0
 40
2.799999999999884
100
AcDbArc
 50
284.9999999999992
 51
0.0
  0
ARC
  5
4611
330
1F
100
AcDbEntity
  8
10
100
AcDbCircle
 10
376.5021684255588
 20
472.6203531862758
 30
0.0
 40
3.000000000000062
100
AcDbArc
 50
284.9999999999976
 51
0.0
  0
LINE
  5
4612
330
1F
100
AcDbEntity
  8
10
100
AcDbLine
 10
391.0021684255588
 20
354.6029819131655
 30
0.0
 11
419.0021684255588
 21
354.6029819131655
 31
0.0
  0
LINE
  5
4613
330
1F
100
AcDbEntity
  8
10
100
AcDbLine
 10
419.0021684255588
 20
356.6029819131655
 30
0.0
 11
391.0021684255588
 21
356.6029819131655
 31
0.0
  0
LINE
  5
4614
330
1F
100
AcDbEntity
  8
10
100
AcDbLine
 10
391.0021684255588
 20
358.6029819131655
 30
0.0
 11
419.0021684255588
 21
358.6029819131655
 31
0.0
  0
LINE
  5
4615
330
1F
100
AcDbEntity
  8
10
100
AcDbLine
 10
419.0021684255588
 20
360.6029819131655
 30
0.0
 11
391.0021684255588
 21
360.6029819131655
 31
0.0
  0
LINE
  5
4616
330
1F
100
AcDbEntity
  8
10
100
AcDbLine
 10
391.0021684255588
 20
362.6029819131655
 30
0.0
 11
419.0021684255588
 21
362.6029819131655
 31
0.0
  0
LINE
  5
4617
330
1F
100
AcDbEntity
  8
10
100
AcDbLine
 10
419.0021684255588
 20
364.6029819131655
 30
0.0
 11
391.0021684255588
 21
364.6029819131655
 31
0.0
  0
ARC
  5
4618
330
1F
100
AcDbEntity
  8
10
100
AcDbCircle
 10
391.0021684255588
 20
363.6029819131655
 30
0.0
 40
1.0
100
AcDbArc
 50
90.0
 51
270.0
  0
ARC
  5
4619
330
1F
100
AcDbEntity
  8
10
100
AcDbCircle
 10
391.0021684255588
 20
359.6029819131655
 30
0.0
 40
1.0
100
AcDbArc
 50
90.0
 51
270.0
  0
ARC
  5
461A
330
1F
100
AcDbEntity
  8
10
100
AcDbCircle
 10
391.0021684255588
 20
355.6029819131655
 30
0.0
 40
1.0
100
AcDbArc
 50
90.0
 51
270.0
  0
LINE
  5
461B
330
1F
100
AcDbEntity
  8
10
100
AcDbLine
 10
406.1568689639379
 20
369.6029819131655
 30
0.0
 11
403.8474678871798
 21
369.6029819131655
 31
0.0
  0
LINE
  5
461C
330
1F
100
AcDbEntity
  8
10
100
AcDbLine
 10
405.0021684255588
 20
367.6029819131655
 30
0.0
 11
406.1568689639379
 21
369.6029819131655
 31
0.0
  0
LINE
  5
461D
330
1F
100
AcDbEntity
  8
10
100
AcDbLine
 10
405.0021684255588
 20
367.6029819131655
 30
0.0
 11
403.8474678871798
 21
369.6029819131655
 31
0.0
  0
LINE
  5
461E
330
1F
100
AcDbEntity
  8
10
100
AcDbLine
 10
425.5021684255588
 20
330.6029819131655
 30
0.0
 11
425.5021684255588
 21
373.6029819131655
 31
0.0
  0
LINE
  5
461F
330
1F
100
AcDbEntity
  8
10
100
AcDbLine
 10
425.4021684255589
 20
330.6029819131655
 30
0.0
 11
425.4021684255589
 21
373.5029819131656
 31
0.0
  0
ARC
  5
462D
330
1F
100
AcDbEntity
  8
10
100
AcDbCircle
 10
419.0021684255588
 20
363.6029819131655
 30
0.0
 40
1.0
100
AcDbArc
 50
270.0
 51
90.0
  0
ARC
  5
462E
330
1F
100
AcDbEntity
  8
10
100
AcDbCircle
 10
419.0021684255588
 20
359.6029819131655
 30
0.0
 40
1.0
100
AcDbArc
 50
270.0
 51
90.0
  0
ARC
  5
462F
330
1F
100
AcDbEntity
  8
10
100
AcDbCircle
 10
419.0021684255588
 20
355.6029819131655
 30
0.0
 40
1.0
100
AcDbArc
 50
270.0
 51
90.0
  0
LINE
  5
4631
330
1F
100
AcDbEntity
  8
10
100
AcDbLine
 10
415.5021684255588
 20
478.6029819131655
 30
0.0
 11
418.8384788990141
 21
478.6029819131655
 31
0.0
  0
LINE
  5
4632
330
1F
100
AcDbEntity
  8
10
100
AcDbLine
 10
415.5021684255588
 20
476.6029819131655
 30
0.0
 11
423.5021684255588
 21
476.6029819131655
 31
0.0
  0
LINE
  5
4633
330
1F
100
AcDbEntity
  8
10
100
AcDbLine
 10
415.5021684255588
 20
475.6029819131655
 30
0.0
 11
425.5021684255588
 21
475.6029819131655
 31
0.0
  0
LINE
  5
4634
330
1F
100
AcDbEntity
  8
10
100
AcDbLine
 10
422.5021684255588
 20
480.6029819131655
 30
0.0
 11
408.5021684255588
 21
480.6029819131655
 31
0.0
  0
LINE
  5
4635
330
1F
100
AcDbEntity
  8
10
100
AcDbLine
 10
416.5021684255588
 20
479.6029819131655
 30
0.0
 11
423.5021684255588
 21
479.6029819131655
 31
0.0
  0
LINE
  5
4636
330
1F
100
AcDbEntity
  8
10
100
AcDbLine
 10
415.5021684255588
 20
435.6029819131655
 30
0.0
 11
415.5021684255588
 21
480.6029819131655
 31
0.0
  0
ARC
  5
4637
330
1F
100
AcDbEntity
  8
10
100
AcDbCircle
 10
415.5021684255588
 20
479.6029819131655
 30
0.0
 40
1.0
100
AcDbArc
 50
0.0
 51
90.0
  0
LINE
  5
4638
330
1F
100
AcDbEntity
  8
10
100
AcDbLine
 10
425.5021684255588
 20
435.6029819131655
 30
0.0
 11
425.5021684255588
 21
475.6029819131655
 31
0.0
  0
LINE
  5
4639
330
1F
100
AcDbEntity
  8
10
100
AcDbLine
 10
427.5021684255588
 20
479.8029819131655
 30
0.0
 11
427.5021684255588
 21
435.6029819131655
 31
0.0
  0
LINE
  5
463A
330
1F
100
AcDbEntity
  8
10
100
AcDbLine
 10
434.8162358040253
 20
452.7284158868329
 30
0.0
 11
435.6634181872255
 21
453.6408464505658
 31
0.0
  0
LINE
  5
463B
330
1F
100
AcDbEntity
  8
10
100
AcDbLine
 10
435.5262372766254
 20
447.7780273612325
 30
0.0
 11
434.7049601947587
 21
447.9727340439657
 31
0.0
  0
LINE
  5
463C
330
1F
100
AcDbEntity
  8
10
100
AcDbLine
 10
434.1526770907588
 20
451.8234527347657
 30
0.0
 11
434.8162358040253
 21
452.7284158868329
 31
0.0
  0
LINE
  5
463D
330
1F
100
AcDbEntity
  8
10
100
AcDbLine
 10
434.7049601947587
 20
447.9727340439657
 30
0.0
 11
434.0706878360254
 21
448.3194071246988
 31
0.0
  0
LINE
  5
463E
330
1F
100
AcDbEntity
  8
10
100
AcDbLine
 10
434.0706878360254
 20
448.3194071246988
 30
0.0
 11
433.6426922450923
 21
448.8075131172328
 31
0.0
  0
LINE
  5
463F
330
1F
100
AcDbEntity
  8
10
100
AcDbLine
 10
433.6426922450923
 20
448.8075131172328
 30
0.0
 11
433.4339778512921
 21
449.4222211680329
 31
0.0
  0
LINE
  5
4640
330
1F
100
AcDbEntity
  8
10
100
AcDbLine
 10
433.4339778512921
 20
449.4222211680329
 30
0.0
 11
433.4508863358922
 21
450.1448536839658
 31
0.0
  0
LINE
  5
4641
330
1F
100
AcDbEntity
  8
10
100
AcDbLine
 10
433.4508863358922
 20
450.1448536839658
 30
0.0
 11
433.692903943292
 21
450.9534538417657
 31
0.0
  0
LINE
  5
4642
330
1F
100
AcDbEntity
  8
10
100
AcDbLine
 10
433.692903943292
 20
450.9534538417657
 30
0.0
 11
434.1526770907588
 21
451.8234527347657
 31
0.0
  0
LINE
  5
4643
330
1F
100
AcDbEntity
  8
10
100
AcDbLine
 10
448.0764489748251
 20
457.1408464505658
 30
0.0
 11
448.2851633686254
 21
456.5261383998327
 31
0.0
  0
LINE
  5
4644
330
1F
100
AcDbEntity
  8
10
100
AcDbLine
 10
448.2851633686254
 20
456.5261383998327
 30
0.0
 11
448.2682548839587
 21
455.8035058838319
 31
0.0
  0
LINE
  5
4645
330
1F
100
AcDbEntity
  8
10
100
AcDbLine
 10
448.0262372766254
 20
454.9949057260995
 30
0.0
 11
447.5664641290922
 21
454.1249068330988
 31
0.0
  0
LINE
  5
4646
330
1F
100
AcDbEntity
  8
10
100
AcDbLine
 10
447.5664641290922
 20
454.1249068330988
 30
0.0
 11
446.9029054158921
 21
453.2199436809657
 31
0.0
  0
LINE
  5
4647
330
1F
100
AcDbEntity
  8
10
100
AcDbLine
 10
446.9029054158921
 20
453.2199436809657
 30
0.0
 11
446.0557230326257
 21
452.3075131172328
 31
0.0
  0
LINE
  5
4648
330
1F
100
AcDbEntity
  8
10
100
AcDbLine
 10
446.0557230326257
 20
452.3075131172328
 30
0.0
 11
445.0506581874254
 21
451.4153388828328
 31
0.0
  0
LINE
  5
4649
330
1F
100
AcDbEntity
  8
10
100
AcDbLine
 10
442.8802965520922
 20
457.8075131172328
 30
0.0
 11
444.0940757910919
 21
458.0849793008998
 31
0.0
  0
LINE
  5
464A
330
1F
100
AcDbEntity
  8
10
100
AcDbLine
 10
444.0940757910919
 20
458.0849793008998
 30
0.0
 11
445.2095762268921
 21
458.207156427433
 31
0.0
  0
LINE
  5
464B
330
1F
100
AcDbEntity
  8
10
100
AcDbLine
 10
445.2095762268921
 20
458.207156427433
 30
0.0
 11
446.192903943292
 21
458.1703322066326
 31
0.0
  0
LINE
  5
464C
330
1F
100
AcDbEntity
  8
10
100
AcDbLine
 10
446.192903943292
 20
458.1703322066326
 30
0.0
 11
447.014181025092
 21
457.9756255238327
 31
0.0
  0
LINE
  5
464D
330
1F
100
AcDbEntity
  8
10
100
AcDbLine
 10
447.014181025092
 20
457.9756255238327
 30
0.0
 11
447.6484533838254
 21
457.6289524430989
 31
0.0
  0
LINE
  5
464E
330
1F
100
AcDbEntity
  8
10
100
AcDbLine
 10
448.2682548839587
 20
455.8035058838319
 30
0.0
 11
448.0262372766254
 21
454.9949057260995
 31
0.0
  0
LINE
  5
464F
330
1F
100
AcDbEntity
  8
10
100
AcDbLine
 10
447.6484533838254
 20
457.6289524430989
 30
0.0
 11
448.0764489748251
 21
457.1408464505658
 31
0.0
  0
LINE
  5
4650
330
1F
100
AcDbEntity
  8
10
100
AcDbLine
 10
443.9182492669586
 20
450.5705292403657
 30
0.0
 11
442.692903943292
 21
449.7987533033657
 31
0.0
  0
LINE
  5
4651
330
1F
100
AcDbEntity
  8
10
100
AcDbLine
 10
445.0506581874254
 20
451.4153388828328
 30
0.0
 11
443.9182492669586
 21
450.5705292403657
 31
0.0
  0
LINE
  5
4652
330
1F
100
AcDbEntity
  8
10
100
AcDbLine
 10
436.6684830324256
 20
454.5330206850327
 30
0.0
 11
437.800891952892
 21
455.3778303274328
 31
0.0
  0
LINE
  5
4653
330
1F
100
AcDbEntity
  8
10
100
AcDbLine
 10
437.800891952892
 20
455.3778303274328
 30
0.0
 11
439.0262372766254
 21
456.1496062644327
 31
0.0
  0
LINE
  5
4654
330
1F
100
AcDbEntity
  8
10
100
AcDbLine
 10
439.0262372766254
 20
456.1496062644327
 30
0.0
 11
440.3072875058923
 21
456.8248984746998
 31
0.0
  0
LINE
  5
4655
330
1F
100
AcDbEntity
  8
10
100
AcDbLine
 10
440.3072875058923
 20
456.8248984746998
 30
0.0
 11
441.6051185778924
 21
457.3831885460328
 31
0.0
  0
LINE
  5
4656
330
1F
100
AcDbEntity
  8
10
100
AcDbLine
 10
435.6634181872255
 20
453.6408464505658
 30
0.0
 11
436.6684830324256
 21
454.5330206850327
 31
0.0
  0
LINE
  5
4657
330
1F
100
AcDbEntity
  8
10
100
AcDbLine
 10
441.4118537139588
 20
449.1234610931656
 30
0.0
 11
440.1140226419587
 21
448.5651710217658
 31
0.0
  0
LINE
  5
4658
330
1F
100
AcDbEntity
  8
10
100
AcDbLine
 10
440.1140226419587
 20
448.5651710217658
 30
0.0
 11
438.8388446677589
 21
448.1408464505658
 31
0.0
  0
LINE
  5
4659
330
1F
100
AcDbEntity
  8
10
100
AcDbLine
 10
438.8388446677589
 20
448.1408464505658
 30
0.0
 11
437.6250654287586
 21
447.8633802669657
 31
0.0
  0
LINE
  5
465A
330
1F
100
AcDbEntity
  8
10
100
AcDbLine
 10
437.6250654287586
 20
447.8633802669657
 30
0.0
 11
436.5095649929588
 21
447.7412031404327
 31
0.0
  0
LINE
  5
465B
330
1F
100
AcDbEntity
  8
10
100
AcDbLine
 10
436.5095649929588
 20
447.7412031404327
 30
0.0
 11
435.5262372766254
 21
447.7780273612325
 31
0.0
  0
CIRCLE
  5
465C
330
1F
100
AcDbEntity
  8
10
100
AcDbCircle
 10
440.8595706099584
 20
452.9741797838986
 30
0.0
 40
1.66666666666667
  0
LINE
  5
465D
330
1F
100
AcDbEntity
  8
10
100
AcDbLine
 10
442.692903943292
 20
449.7987533033657
 30
0.0
 11
441.4118537139588
 21
449.1234610931656
 31
0.0
  0
LINE
  5
465E
330
1F
100
AcDbEntity
  8
10
100
AcDbLine
 10
441.6051185778924
 20
457.3831885460328
 30
0.0
 11
442.8802965520922
 21
457.8075131172328
 31
0.0
  0
LINE
  5
465F
330
1F
100
AcDbEntity
  8
10
100
AcDbLine
 10
435.5262372766254
 20
462.3390579570314
 30
0.0
 11
434.7049601947587
 21
462.5337646397658
 31
0.0
  0
LINE
  5
4660
330
1F
100
AcDbEntity
  8
10
100
AcDbLine
 10
434.8162358040253
 20
467.2894464826327
 30
0.0
 11
435.6634181872255
 21
468.2018770463656
 31
0.0
  0
LINE
  5
4661
330
1F
100
AcDbEntity
  8
10
100
AcDbLine
 10
434.7049601947587
 20
462.5337646397658
 30
0.0
 11
434.0706878360254
 21
462.8804377204986
 31
0.0
  0
LINE
  5
4662
330
1F
100
AcDbEntity
  8
10
100
AcDbLine
 10
434.0706878360254
 20
462.8804377204986
 30
0.0
 11
433.6426922450923
 21
463.3685437130329
 31
0.0
  0
LINE
  5
4663
330
1F
100
AcDbEntity
  8
10
100
AcDbLine
 10
433.6426922450923
 20
463.3685437130329
 30
0.0
 11
433.4339778512921
 21
463.9832517638327
 31
0.0
  0
LINE
  5
4664
330
1F
100
AcDbEntity
  8
10
100
AcDbLine
 10
433.4339778512921
 20
463.9832517638327
 30
0.0
 11
433.4508863358922
 21
464.7058842797656
 31
0.0
  0
LINE
  5
4665
330
1F
100
AcDbEntity
  8
10
100
AcDbLine
 10
433.4508863358922
 20
464.7058842797656
 30
0.0
 11
433.692903943292
 21
465.5144844375658
 31
0.0
  0
LINE
  5
4666
330
1F
100
AcDbEntity
  8
10
100
AcDbLine
 10
433.692903943292
 20
465.5144844375658
 30
0.0
 11
434.1526770907588
 21
466.3844833305658
 31
0.0
  0
LINE
  5
4667
330
1F
100
AcDbEntity
  8
10
100
AcDbLine
 10
434.1526770907588
 20
466.3844833305658
 30
0.0
 11
434.8162358040253
 21
467.2894464826327
 31
0.0
  0
LINE
  5
4668
330
1F
100
AcDbEntity
  8
10
100
AcDbLine
 10
425.5021684255588
 20
475.6029819131655
 30
0.0
 11
425.5021684255588
 21
476.6029819131655
 31
0.0
  0
LINE
  5
4669
330
1F
100
AcDbEntity
  8
10
100
AcDbLine
 10
426.5021684255589
 20
468.6029819131655
 30
0.0
 11
426.5021684255589
 21
476.6029819131655
 31
0.0
  0
LINE
  5
466A
330
1F
100
AcDbEntity
  8
10
100
AcDbLine
 10
427.5021684255588
 20
476.6029819131655
 30
0.0
 11
426.5021684255589
 21
476.6029819131655
 31
0.0
  0
LINE
  5
466B
330
1F
100
AcDbEntity
  8
10
100
AcDbLine
 10
427.5021684255588
 20
475.6029819131655
 30
0.0
 11
426.5021684255589
 21
475.6029819131655
 31
0.0
  0
LINE
  5
466C
330
1F
100
AcDbEntity
  8
10
100
AcDbLine
 10
427.5021684255588
 20
469.6029819131655
 30
0.0
 11
426.5021684255589
 21
469.6029819131655
 31
0.0
  0
LINE
  5
466D
330
1F
100
AcDbEntity
  8
10
100
AcDbLine
 10
427.5021684255588
 20
468.6029819131655
 30
0.0
 11
426.5021684255589
 21
468.6029819131655
 31
0.0
  0
ARC
  5
466E
330
1F
100
AcDbEntity
  8
10
100
AcDbCircle
 10
428.302168425559
 20
479.8029819131655
 30
0.0
 40
0.7999999999999541
100
AcDbArc
 50
90.0
 51
180.0
  0
LINE
  5
466F
330
1F
100
AcDbEntity
  8
10
100
AcDbLine
 10
424.302168425559
 20
478.6029819131655
 30
0.0
 11
423.5021684255588
 21
478.6029819131655
 31
0.0
  0
LINE
  5
4670
330
1F
100
AcDbEntity
  8
10
100
AcDbLine
 10
424.302168425559
 20
476.6029819131655
 30
0.0
 11
424.302168425559
 21
480.6029819131655
 31
0.0
  0
LINE
  5
4671
330
1F
100
AcDbEntity
  8
10
100
AcDbLine
 10
423.5021684255588
 20
476.6029819131655
 30
0.0
 11
423.5021684255588
 21
479.6029819131655
 31
0.0
  0
LINE
  5
4672
330
1F
100
AcDbEntity
  8
10
100
AcDbLine
 10
418.8384788990141
 20
479.6029819131655
 30
0.0
 11
418.8384788990141
 21
478.6029819131655
 31
0.0
  0
ARC
  5
4673
330
1F
100
AcDbEntity
  8
10
100
AcDbCircle
 10
422.5021684255588
 20
479.6029819131655
 30
0.0
 40
1.0
100
AcDbArc
 50
0.0
 51
90.0
  0
LINE
  5
4674
330
1F
100
AcDbEntity
  8
10
100
AcDbLine
 10
425.5021684255588
 20
476.6029819131655
 30
0.0
 11
424.302168425559
 21
476.6029819131655
 31
0.0
  0
LINE
  5
4675
330
1F
100
AcDbEntity
  8
10
100
AcDbLine
 10
448.0764489748251
 20
471.7018770463656
 30
0.0
 11
448.2851633686254
 21
471.0871689956326
 31
0.0
  0
LINE
  5
4676
330
1F
100
AcDbEntity
  8
10
100
AcDbLine
 10
448.2851633686254
 20
471.0871689956326
 30
0.0
 11
448.2682548839587
 21
470.3645364796996
 31
0.0
  0
LINE
  5
4677
330
1F
100
AcDbEntity
  8
10
100
AcDbLine
 10
448.0262372766254
 20
469.5559363218989
 30
0.0
 11
447.5664641290922
 21
468.6859374288996
 31
0.0
  0
LINE
  5
4678
330
1F
100
AcDbEntity
  8
10
100
AcDbLine
 10
447.5664641290922
 20
468.6859374288996
 30
0.0
 11
446.9029054158921
 21
467.7809742768316
 31
0.0
  0
LINE
  5
4679
330
1F
100
AcDbEntity
  8
10
100
AcDbLine
 10
442.8802965520922
 20
472.3685437130328
 30
0.0
 11
444.0940757910919
 21
472.6460098966987
 31
0.0
  0
LINE
  5
467A
330
1F
100
AcDbEntity
  8
10
100
AcDbLine
 10
444.0940757910919
 20
472.6460098966987
 30
0.0
 11
445.2095762268921
 21
472.7681870232328
 31
0.0
  0
LINE
  5
467B
330
1F
100
AcDbEntity
  8
10
100
AcDbLine
 10
445.2095762268921
 20
472.7681870232328
 30
0.0
 11
446.192903943292
 21
472.7313628024329
 31
0.0
  0
LINE
  5
467C
330
1F
100
AcDbEntity
  8
10
100
AcDbLine
 10
446.192903943292
 20
472.7313628024329
 30
0.0
 11
447.014181025092
 21
472.5366561196989
 31
0.0
  0
LINE
  5
467D
330
1F
100
AcDbEntity
  8
10
100
AcDbLine
 10
447.014181025092
 20
472.5366561196989
 30
0.0
 11
447.6484533838254
 21
472.1899830389657
 31
0.0
  0
LINE
  5
467E
330
1F
100
AcDbEntity
  8
10
100
AcDbLine
 10
448.2682548839587
 20
470.3645364796996
 30
0.0
 11
448.0262372766254
 21
469.5559363218989
 31
0.0
  0
LINE
  5
467F
330
1F
100
AcDbEntity
  8
10
100
AcDbLine
 10
447.6484533838254
 20
472.1899830389657
 30
0.0
 11
448.0764489748251
 21
471.7018770463656
 31
0.0
  0
LINE
  5
4680
330
1F
100
AcDbEntity
  8
10
100
AcDbLine
 10
446.0557230326257
 20
466.8685437130328
 30
0.0
 11
445.0506581874254
 21
465.9763694786327
 31
0.0
  0
LINE
  5
4681
330
1F
100
AcDbEntity
  8
10
100
AcDbLine
 10
445.0506581874254
 20
465.9763694786327
 30
0.0
 11
443.9182492669586
 21
465.1315598361658
 31
0.0
  0
LINE
  5
4682
330
1F
100
AcDbEntity
  8
10
100
AcDbLine
 10
443.9182492669586
 20
465.1315598361658
 30
0.0
 11
442.692903943292
 21
464.3597838991658
 31
0.0
  0
LINE
  5
4683
330
1F
100
AcDbEntity
  8
10
100
AcDbLine
 10
446.9029054158921
 20
467.7809742768316
 30
0.0
 11
446.0557230326257
 21
466.8685437130328
 31
0.0
  0
LINE
  5
4684
330
1F
100
AcDbEntity
  8
10
100
AcDbLine
 10
436.6684830324256
 20
469.0940512808317
 30
0.0
 11
437.800891952892
 21
469.9388609232986
 31
0.0
  0
LINE
  5
4685
330
1F
100
AcDbEntity
  8
10
100
AcDbLine
 10
437.800891952892
 20
469.9388609232986
 30
0.0
 11
439.0262372766254
 21
470.7106368602989
 31
0.0
  0
LINE
  5
4686
330
1F
100
AcDbEntity
  8
10
100
AcDbLine
 10
439.0262372766254
 20
470.7106368602989
 30
0.0
 11
440.3072875058923
 21
471.3859290704987
 31
0.0
  0
LINE
  5
4687
330
1F
100
AcDbEntity
  8
10
100
AcDbLine
 10
440.3072875058923
 20
471.3859290704987
 30
0.0
 11
441.6051185778924
 21
471.9442191418997
 31
0.0
  0
LINE
  5
4688
330
1F
100
AcDbEntity
  8
10
100
AcDbLine
 10
435.6634181872255
 20
468.2018770463656
 30
0.0
 11
436.6684830324256
 21
469.0940512808317
 31
0.0
  0
LINE
  5
4689
330
1F
100
AcDbEntity
  8
10
100
AcDbLine
 10
441.4118537139588
 20
463.6844916889657
 30
0.0
 11
440.1140226419587
 21
463.1262016175656
 31
0.0
  0
LINE
  5
468A
330
1F
100
AcDbEntity
  8
10
100
AcDbLine
 10
440.1140226419587
 20
463.1262016175656
 30
0.0
 11
438.8388446677589
 21
462.7018770463656
 31
0.0
  0
LINE
  5
468B
330
1F
100
AcDbEntity
  8
10
100
AcDbLine
 10
438.8388446677589
 20
462.7018770463656
 30
0.0
 11
437.6250654287586
 21
462.4244108627659
 31
0.0
  0
LINE
  5
468C
330
1F
100
AcDbEntity
  8
10
100
AcDbLine
 10
437.6250654287586
 20
462.4244108627659
 30
0.0
 11
436.5095649929588
 21
462.3022337362325
 31
0.0
  0
LINE
  5
468D
330
1F
100
AcDbEntity
  8
10
100
AcDbLine
 10
436.5095649929588
 20
462.3022337362325
 30
0.0
 11
435.5262372766254
 21
462.3390579570314
 31
0.0
  0
CIRCLE
  5
468E
330
1F
100
AcDbEntity
  8
10
100
AcDbCircle
 10
440.8595706099584
 20
467.5352103796988
 30
0.0
 40
1.66666666666667
  0
LINE
  5
468F
330
1F
100
AcDbEntity
  8
10
100
AcDbLine
 10
442.692903943292
 20
464.3597838991658
 30
0.0
 11
441.4118537139588
 21
463.6844916889657
 31
0.0
  0
LINE
  5
4690
330
1F
100
AcDbEntity
  8
10
100
AcDbLine
 10
441.6051185778924
 20
471.9442191418997
 30
0.0
 11
442.8802965520922
 21
472.3685437130328
 31
0.0
  0
LINE
  5
469C
330
1F
100
AcDbEntity
  8
10
100
AcDbLine
 10
507.5021684255588
 20
331.4029819131657
 30
0.0
 11
507.5021684255588
 21
435.6029819131655
 31
0.0
  0
LINE
  5
46A2
330
1F
100
AcDbEntity
  8
12
  6
CENTER
100
AcDbLine
 10
493.0021684255589
 20
336.6029819131655
 30
0.0
 11
510.0021684255588
 21
336.6029819131655
 31
0.0
  0
ARC
  5
46A3
330
1F
100
AcDbEntity
  8
10
100
AcDbCircle
 10
501.5021684255589
 20
336.6029819131655
 30
0.0
 40
2.5
100
AcDbArc
 50
0.0
 51
180.0
  0
POINT
  5
46A4
330
1F
100
AcDbEntity
  8
10
100
AcDbPoint
 10
499.0021684255583
 20
330.6029819131655
 30
0.0
  0
POINT
  5
46A5
330
1F
100
AcDbEntity
  8
10
100
AcDbPoint
 10
495.5021684255588
 20
330.6029819131655
 30
0.0
  0
ARC
  5
46A6
330
1F
100
AcDbEntity
  8
10
100
AcDbCircle
 10
498.0021684255588
 20
331.6029819131655
 30
0.0
 40
1.0
100
AcDbArc
 50
270.0
 51
0.0
  0
LINE
  5
46A7
330
1F
100
AcDbEntity
  8
10
100
AcDbLine
 10
499.0021684255588
 20
336.6029819131655
 30
0.0
 11
499.0021684255588
 21
331.6029819131655
 31
0.0
  0
LINE
  5
46A9
330
1F
100
AcDbEntity
  8
10
100
AcDbLine
 10
506.5021684255588
 20
332.1029819131655
 30
0.0
 11
505.0021684255596
 21
332.1029819131655
 31
0.0
  0
POINT
  5
46AA
330
1F
100
AcDbEntity
  8
10
100
AcDbPoint
 10
501.5021684255589
 20
330.6029819131655
 30
0.0
  0
ARC
  5
46AB
330
1F
100
AcDbEntity
  8
10
100
AcDbCircle
 10
505.0021684255596
 20
333.1029819131655
 30
0.0
 40
1.0
100
AcDbArc
 50
180.0
 51
270.0
  0
ARC
  5
46AC
330
1F
100
AcDbEntity
  8
10
100
AcDbCircle
 10
506.5021684255588
 20
333.1029819131655
 30
0.0
 40
1.0
100
AcDbArc
 50
270.0
 51
0.0
  0
ARC
  5
46AD
330
1F
100
AcDbEntity
  8
10
100
AcDbCircle
 10
506.7021684255586
 20
331.4029819131657
 30
0.0
 40
0.8000000000001817
100
AcDbArc
 50
270.0
 51
0.0
  0
LINE
  5
46AE
330
1F
100
AcDbEntity
  8
10
100
AcDbLine
 10
505.0021684255596
 20
332.1029819131655
 30
0.0
 11
507.5021684255588
 21
332.1029819131655
 31
0.0
  0
LINE
  5
46AF
330
1F
100
AcDbEntity
  8
12
  6
CENTER
100
AcDbLine
 10
501.5021684255592
 20
345.1029819131655
 30
0.0
 11
501.5021684255592
 21
328.1029819131655
 31
0.0
  0
LINE
  5
46B0
330
1F
100
AcDbEntity
  8
10
100
AcDbLine
 10
504.0021684255596
 20
336.6029819131655
 30
0.0
 11
504.0021684255596
 21
333.1029819131655
 31
0.0
  0
LINE
  5
46B6
330
1F
100
AcDbEntity
  8
10
100
AcDbLine
 10
507.5021684255588
 20
435.6029819131655
 30
0.0
 11
507.5021684255588
 21
466.4891203227827
 31
0.0
  0
LINE
  5
46B7
330
1F
100
AcDbEntity
  8
10
100
AcDbLine
 10
495.5021684255588
 20
479.8029819131655
 30
0.0
 11
495.5021684255588
 21
435.6029819131655
 31
0.0
  0
LINE
  5
46B9
330
1F
100
AcDbEntity
  8
12
  6
CENTER
100
AcDbLine
 10
510.0021684255588
 20
474.6029819131655
 30
0.0
 11
493.0021684255589
 21
474.6029819131655
 31
0.0
  0
LINE
  5
46BA
330
1F
100
AcDbEntity
  8
10
100
AcDbLine
 10
506.5021684255588
 20
480.6029819131655
 30
0.0
 11
494.7021684255586
 21
480.6029819131655
 31
0.0
  0
CIRCLE
  5
46BB
330
1F
100
AcDbEntity
  8
10
100
AcDbCircle
 10
501.5021684255589
 20
474.6029819131655
 30
0.0
 40
2.5
  0
LINE
  5
46BC
330
1F
100
AcDbEntity
  8
10
100
AcDbLine
 10
506.9092236616405
 20
467.2618609838138
 30
0.0
 11
497.7257112902514
 21
469.7225757074087
 31
0.0
  0
POINT
  5
46BD
330
1F
100
AcDbEntity
  8
10
100
AcDbPoint
 10
495.5021684255588
 20
480.6029819131655
 30
0.0
  0
LINE
  5
46BE
330
1F
100
AcDbEntity
  8
10
100
AcDbLine
 10
495.5021684255588
 20
472.6203531862758
 30
0.0
 11
495.5021684255588
 21
479.8029819131655
 31
0.0
  0
ARC
  5
46BF
330
1F
100
AcDbEntity
  8
10
100
AcDbCircle
 10
494.7021684255586
 20
479.8029819131655
 30
0.0
 40
0.7999999999999541
100
AcDbArc
 50
0.0
 51
90.0
  0
ARC
  5
46C0
330
1F
100
AcDbEntity
  8
10
100
AcDbCircle
 10
498.5021684255588
 20
472.6203531862758
 30
0.0
 40
3.0
100
AcDbArc
 50
180.0
 51
255.0000000000007
  0
ARC
  5
46C1
330
1F
100
AcDbEntity
  8
10
100
AcDbCircle
 10
494.7021684255586
 20
479.8029819131655
 30
0.0
 40
0.8000000000001817
100
AcDbArc
 50
0.0
 51
90.0
  0
ARC
  5
46C3
330
1F
100
AcDbEntity
  8
10
100
AcDbCircle
 10
506.5021684255588
 20
479.6029819131655
 30
0.0
 40
1.0
100
AcDbArc
 50
0.0
 51
90.0
  0
POINT
  5
46C4
330
1F
100
AcDbEntity
  8
10
100
AcDbPoint
 10
507.5021684255588
 20
467.1029819131655
 30
0.0
  0
POINT
  5
46C5
330
1F
100
AcDbEntity
  8
10
100
AcDbPoint
 10
507.5021684255588
 20
467.1029819131655
 30
0.0
  0
ARC
  5
46C6
330
1F
100
AcDbEntity
  8
10
100
AcDbCircle
 10
506.7021684255586
 20
466.4891203227827
 30
0.0
 40
0.7999999999999541
100
AcDbArc
 50
0.0
 51
75.00000000001026
  0
LINE
  5
46C7
330
1F
100
AcDbEntity
  8
12
  6
CENTER
100
AcDbLine
 10
501.5021684255589
 20
483.1029819131655
 30
0.0
 11
501.5021684255589
 21
466.1029819131655
 31
0.0
  0
LINE
  5
46C8
330
1F
100
AcDbEntity
  8
10
100
AcDbLine
 10
507.5021684255588
 20
466.4891203227827
 30
0.0
 11
507.5021684255588
 21
479.6029819131655
 31
0.0
  0
LINE
  5
46CA
330
1F
100
AcDbEntity
  8
10
100
AcDbLine
 10
639.0021684255588
 20
480.6029819131654
 30
0.0
 11
703.0021684255587
 21
480.6029819131654
 31
0.0
  0
LINE
  5
46CB
330
1F
100
AcDbEntity
  8
10
100
AcDbLine
 10
639.002168425559
 20
467.1029819131653
 30
0.0
 11
703.002168425559
 21
467.1029819131653
 31
0.0
  0
LINE
  5
46CC
330
1F
100
AcDbEntity
  8
10
100
AcDbLine
 10
639.002168425559
 20
480.6029819131654
 30
0.0
 11
703.002168425559
 21
480.6029819131654
 31
0.0
  0
LINE
  5
46CE
330
1F
100
AcDbEntity
  8
10
100
AcDbLine
 10
639.002168425559
 20
344.1029819131654
 30
0.0
 11
703.002168425559
 21
344.1029819131654
 31
0.0
  0
LINE
  5
46CF
330
1F
100
AcDbEntity
  8
10
100
AcDbLine
 10
639.002168425559
 20
330.6029819131654
 30
0.0
 11
703.0021684255587
 21
330.6029819131654
 31
0.0
  0
LINE
  5
46D0
330
1F
100
AcDbEntity
  8
10
100
AcDbLine
 10
639.0021684255588
 20
330.6029819131654
 30
0.0
 11
639.0021684255588
 21
480.6029819131654
 31
0.0
  0
LINE
  5
46D1
330
1F
100
AcDbEntity
  8
10
100
AcDbLine
 10
639.002168425559
 20
330.6029819131654
 30
0.0
 11
639.002168425559
 21
480.6029819131654
 31
0.0
  0
LINE
  5
46D2
330
1F
100
AcDbEntity
  8
10
100
AcDbLine
 10
638.5021684255588
 20
435.6029819131654
 30
0.0
 11
638.5021684255588
 21
330.6029819131654
 31
0.0
  0
LINE
  5
46D3
330
1F
100
AcDbEntity
  8
10
100
AcDbLine
 10
627.5021684255587
 20
330.6029819131654
 30
0.0
 11
627.5021684255587
 21
435.6029819131654
 31
0.0
  0
LINE
  5
46D5
330
1F
100
AcDbEntity
  8
10
100
AcDbLine
 10
627.5021684255587
 20
330.6029819131654
 30
0.0
 11
638.5021684255588
 21
330.6029819131654
 31
0.0
  0
LINE
  5
46D6
330
1F
100
AcDbEntity
  8
10
100
AcDbLine
 10
639.002168425559
 20
346.6029819131654
 30
0.0
 11
638.5021684255588
 21
346.6029819131654
 31
0.0
  0
LINE
  5
46D7
330
1F
100
AcDbEntity
  8
10
100
AcDbLine
 10
639.002168425559
 20
333.3029819131654
 30
0.0
 11
638.5021684255588
 21
333.3029819131654
 31
0.0
  0
LINE
  5
46D8
330
1F
100
AcDbEntity
  8
10
100
AcDbLine
 10
639.002168425559
 20
331.8029819131654
 30
0.0
 11
638.5021684255588
 21
331.8029819131654
 31
0.0
  0
LINE
  5
46D9
330
1F
100
AcDbEntity
  8
10
100
AcDbLine
 10
634.202168425559
 20
465.7029819131655
 30
0.0
 11
634.202168425559
 21
456.5029819131654
 31
0.0
  0
LINE
  5
46DA
330
1F
100
AcDbEntity
  8
10
100
AcDbLine
 10
635.002168425559
 20
465.7029819131655
 30
0.0
 11
635.002168425559
 21
456.5029819131654
 31
0.0
  0
LINE
  5
46DB
330
1F
100
AcDbEntity
  8
10
100
AcDbLine
 10
635.8021684255589
 20
465.7029819131655
 30
0.0
 11
635.8021684255589
 21
456.5029819131654
 31
0.0
  0
LINE
  5
46DC
330
1F
100
AcDbEntity
  8
10
100
AcDbLine
 10
636.6021684255589
 20
465.7029819131655
 30
0.0
 11
636.6021684255589
 21
456.5029819131654
 31
0.0
  0
LINE
  5
46DD
330
1F
100
AcDbEntity
  8
10
100
AcDbLine
 10
637.502168425559
 20
469.1029819131654
 30
0.0
 11
637.502168425559
 21
453.1029819131654
 31
0.0
  0
LINE
  5
46DE
330
1F
100
AcDbEntity
  8
10
100
AcDbLine
 10
638.502168425559
 20
469.1029819131654
 30
0.0
 11
638.502168425559
 21
453.1029819131654
 31
0.0
  0
LINE
  5
46DF
330
1F
100
AcDbEntity
  8
10
100
AcDbLine
 10
639.002168425559
 20
480.6029819131654
 30
0.0
 11
639.002168425559
 21
435.6029819131654
 31
0.0
  0
LINE
  5
46E0
330
1F
100
AcDbEntity
  8
10
100
AcDbLine
 10
632.6021684255589
 20
465.7029819131655
 30
0.0
 11
632.6021684255589
 21
456.5029819131654
 31
0.0
  0
LINE
  5
46E1
330
1F
100
AcDbEntity
  8
10
100
AcDbLine
 10
633.4021684255591
 20
465.7029819131655
 30
0.0
 11
633.4021684255591
 21
456.5029819131654
 31
0.0
  0
LINE
  5
46E2
330
1F
100
AcDbEntity
  8
10
100
AcDbLine
 10
630.802168425559
 20
468.6029819131654
 30
0.0
 11
630.802168425559
 21
453.6029819131654
 31
0.0
  0
LINE
  5
46E3
330
1F
100
AcDbEntity
  8
10
100
AcDbLine
 10
627.502168425559
 20
435.6029819131654
 30
0.0
 11
627.502168425559
 21
479.8029819131654
 31
0.0
  0
LINE
  5
46E4
330
1F
100
AcDbEntity
  8
10
100
AcDbLine
 10
627.5021684255587
 20
435.6029819131654
 30
0.0
 11
638.5021684255588
 21
435.6029819131654
 31
0.0
  0
LINE
  5
46E5
330
1F
100
AcDbEntity
  8
10
100
AcDbLine
 10
627.502168425559
 20
435.6029819131654
 30
0.0
 11
639.002168425559
 21
435.6029819131654
 31
0.0
  0
LINE
  5
46E6
330
1F
100
AcDbEntity
  8
10
100
AcDbLine
 10
631.3021684255589
 20
453.1029819131654
 30
0.0
 11
639.002168425559
 21
453.1029819131654
 31
0.0
  0
ARC
  5
46E7
330
1F
100
AcDbEntity
  8
10
100
AcDbCircle
 10
636.2021684255591
 20
456.5029819131654
 30
0.0
 40
0.40000000000009
100
AcDbArc
 50
180.0
 51
0.0
  0
ARC
  5
46E8
330
1F
100
AcDbEntity
  8
10
100
AcDbCircle
 10
634.6021684255589
 20
456.5029819131654
 30
0.0
 40
0.3999999999999779
100
AcDbArc
 50
180.0
 51
0.0
  0
ARC
  5
46E9
330
1F
100
AcDbEntity
  8
10
100
AcDbCircle
 10
631.3021684255589
 20
453.6029819131654
 30
0.0
 40
0.5
100
AcDbArc
 50
180.0
 51
270.0
  0
ARC
  5
46EA
330
1F
100
AcDbEntity
  8
10
100
AcDbCircle
 10
633.002168425559
 20
456.5029819131654
 30
0.0
 40
0.3999999999999779
100
AcDbArc
 50
180.0
 51
0.0
  0
LINE
  5
46EB
330
1F
100
AcDbEntity
  8
10
100
AcDbLine
 10
652.002168425559
 20
432.6029819131654
 30
0.0
 11
652.002168425559
 21
424.6029819131654
 31
0.0
  0
LINE
  5
46EC
330
1F
100
AcDbEntity
  8
10
100
AcDbLine
 10
651.002168425559
 20
425.6029819131653
 30
0.0
 11
651.002168425559
 21
431.6029819131654
 31
0.0
  0
LINE
  5
46ED
330
1F
100
AcDbEntity
  8
10
100
AcDbLine
 10
638.5021684255588
 20
435.6029819131654
 30
0.0
 11
639.0021684255588
 21
435.6029819131654
 31
0.0
  0
LINE
  5
46EE
330
1F
100
AcDbEntity
  8
10
100
AcDbLine
 10
643.0021684255588
 20
425.6029819131653
 30
0.0
 11
643.0021684255588
 21
424.6029819131654
 31
0.0
  0
LINE
  5
46EF
330
1F
100
AcDbEntity
  8
10
100
AcDbLine
 10
643.002168425559
 20
432.6029819131654
 30
0.0
 11
643.002168425559
 21
431.6029819131654
 31
0.0
  0
LINE
  5
46F0
330
1F
100
AcDbEntity
  8
10
100
AcDbLine
 10
638.5021684255588
 20
424.6029819131654
 30
0.0
 11
639.002168425559
 21
424.6029819131654
 31
0.0
  0
LINE
  5
46F1
330
1F
100
AcDbEntity
  8
10
100
AcDbLine
 10
643.0021684255588
 20
425.6029819131653
 30
0.0
 11
651.002168425559
 21
425.6029819131653
 31
0.0
  0
LINE
  5
46F2
330
1F
100
AcDbEntity
  8
10
100
AcDbLine
 10
643.0021684255588
 20
424.6029819131654
 30
0.0
 11
652.002168425559
 21
424.6029819131654
 31
0.0
  0
LINE
  5
46F3
330
1F
100
AcDbEntity
  8
10
100
AcDbLine
 10
643.002168425559
 20
432.6029819131654
 30
0.0
 11
652.002168425559
 21
432.6029819131654
 31
0.0
  0
LINE
  5
46F4
330
1F
100
AcDbEntity
  8
10
100
AcDbLine
 10
643.002168425559
 20
431.6029819131654
 30
0.0
 11
651.002168425559
 21
431.6029819131654
 31
0.0
  0
LINE
  5
46F5
330
1F
100
AcDbEntity
  8
10
100
AcDbLine
 10
628.3021684255592
 20
480.6029819131654
 30
0.0
 11
639.002168425559
 21
480.6029819131654
 31
0.0
  0
LINE
  5
46F6
330
1F
100
AcDbEntity
  8
10
100
AcDbLine
 10
631.3021684255589
 20
469.1029819131654
 30
0.0
 11
639.002168425559
 21
469.1029819131654
 31
0.0
  0
ARC
  5
46F7
330
1F
100
AcDbEntity
  8
10
100
AcDbCircle
 10
634.6021684255589
 20
465.7029819131655
 30
0.0
 40
0.3999999999999779
100
AcDbArc
 50
0.0
 51
180.0
  0
ARC
  5
46F8
330
1F
100
AcDbEntity
  8
10
100
AcDbCircle
 10
636.2021684255591
 20
465.7029819131655
 30
0.0
 40
0.3999999999999779
100
AcDbArc
 50
0.0
 51
180.0
  0
ARC
  5
46F9
330
1F
100
AcDbEntity
  8
10
100
AcDbCircle
 10
631.3021684255589
 20
468.6029819131654
 30
0.0
 40
0.5
100
AcDbArc
 50
90.0
 51
180.0
  0
ARC
  5
46FA
330
1F
100
AcDbEntity
  8
10
100
AcDbCircle
 10
628.3021684255592
 20
479.8029819131654
 30
0.0
 40
0.800000000000012
100
AcDbArc
 50
90.0
 51
180.0
  0
ARC
  5
46FB
330
1F
100
AcDbEntity
  8
10
100
AcDbCircle
 10
633.002168425559
 20
465.7029819131655
 30
0.0
 40
0.3999999999999779
100
AcDbArc
 50
0.0
 51
180.0
  0
LINE
  5
46FC
330
1F
100
AcDbEntity
  8
10
100
AcDbLine
 10
689.2021684255588
 20
391.6029819131654
 30
0.0
 11
689.2021684255588
 21
460.6029819131654
 31
0.0
  0
LINE
  5
46FD
330
1F
100
AcDbEntity
  8
10
100
AcDbLine
 10
692.2021684255589
 20
391.6029819131654
 30
0.0
 11
692.2021684255589
 21
460.6029819131654
 31
0.0
  0
LINE
  5
46FE
330
1F
100
AcDbEntity
  8
10
100
AcDbLine
 10
687.4021684255589
 20
391.6029819131654
 30
0.0
 11
687.4021684255589
 21
460.6029819131654
 31
0.0
  0
LINE
  5
46FF
330
1F
100
AcDbEntity
  8
10
100
AcDbLine
 10
684.4021684255591
 20
391.6029819131654
 30
0.0
 11
684.4021684255591
 21
460.6029819131654
 31
0.0
  0
LINE
  5
4700
330
1F
100
AcDbEntity
  8
10
100
AcDbLine
 10
682.6021684255589
 20
391.6029819131654
 30
0.0
 11
682.6021684255589
 21
460.6029819131654
 31
0.0
  0
LINE
  5
4701
330
1F
100
AcDbEntity
  8
10
100
AcDbLine
 10
702.5021684255592
 20
374.6029819131654
 30
0.0
 11
702.5021684255592
 21
436.6029819131654
 31
0.0
  0
LINE
  5
4702
330
1F
100
AcDbEntity
  8
10
100
AcDbLine
 10
679.6021684255589
 20
391.6029819131654
 30
0.0
 11
679.6021684255589
 21
460.6029819131654
 31
0.0
  0
LINE
  5
4703
330
1F
100
AcDbEntity
  8
10
100
AcDbLine
 10
677.8021684255588
 20
391.6029819131654
 30
0.0
 11
677.8021684255588
 21
460.6029819131654
 31
0.0
  0
LINE
  5
4704
330
1F
100
AcDbEntity
  8
10
100
AcDbLine
 10
674.8021684255587
 20
391.6029819131654
 30
0.0
 11
674.8021684255587
 21
460.6029819131654
 31
0.0
  0
LINE
  5
4705
330
1F
100
AcDbEntity
  8
10
100
AcDbLine
 10
673.002168425559
 20
391.6029819131654
 30
0.0
 11
673.002168425559
 21
460.6029819131654
 31
0.0
  0
LINE
  5
4706
330
1F
100
AcDbEntity
  8
10
100
AcDbLine
 10
670.002168425559
 20
391.6029819131654
 30
0.0
 11
670.002168425559
 21
460.6029819131654
 31
0.0
  0
LINE
  5
4707
330
1F
100
AcDbEntity
  8
10
100
AcDbLine
 10
668.2021684255588
 20
391.6029819131654
 30
0.0
 11
668.2021684255588
 21
460.6029819131654
 31
0.0
  0
LINE
  5
4708
330
1F
100
AcDbEntity
  8
10
100
AcDbLine
 10
665.2021684255588
 20
391.6029819131654
 30
0.0
 11
665.2021684255588
 21
460.6029819131654
 31
0.0
  0
LINE
  5
4709
330
1F
100
AcDbEntity
  8
10
100
AcDbLine
 10
658.6021684255589
 20
391.6029819131654
 30
0.0
 11
658.6021684255589
 21
460.6029819131654
 31
0.0
  0
LINE
  5
470A
330
1F
100
AcDbEntity
  8
10
100
AcDbLine
 10
655.6021684255589
 20
391.6029819131654
 30
0.0
 11
655.6021684255589
 21
460.6029819131654
 31
0.0
  0
LINE
  5
470B
330
1F
100
AcDbEntity
  8
10
100
AcDbLine
 10
660.4021684255586
 20
391.6029819131654
 30
0.0
 11
660.4021684255586
 21
460.6029819131654
 31
0.0
  0
LINE
  5
470C
330
1F
100
AcDbEntity
  8
10
100
AcDbLine
 10
663.4021684255587
 20
391.6029819131654
 30
0.0
 11
663.4021684255587
 21
460.6029819131654
 31
0.0
  0
LINE
  5
470D
330
1F
100
AcDbEntity
  8
10
100
AcDbLine
 10
702.502168425559
 20
330.6029819131654
 30
0.0
 11
702.502168425559
 21
480.6029819131654
 31
0.0
  0
ARC
  5
470E
330
1F
100
AcDbEntity
  8
10
100
AcDbCircle
 10
685.9021684255589
 20
391.6029819131654
 30
0.0
 40
1.5
100
AcDbArc
 50
180.0
 51
0.0
  0
ARC
  5
4710
330
1F
100
AcDbEntity
  8
10
100
AcDbCircle
 10
666.7021684255588
 20
391.6029819131654
 30
0.0
 40
1.5
100
AcDbArc
 50
180.0
 51
0.0
  0
ARC
  5
4711
330
1F
100
AcDbEntity
  8
10
100
AcDbCircle
 10
661.9021684255586
 20
391.6029819131654
 30
0.0
 40
1.5
100
AcDbArc
 50
180.0
 51
0.0
  0
ARC
  5
4712
330
1F
100
AcDbEntity
  8
10
100
AcDbCircle
 10
657.1021684255589
 20
391.6029819131654
 30
0.0
 40
1.5
100
AcDbArc
 50
180.0
 51
0.0
  0
ARC
  5
4713
330
1F
100
AcDbEntity
  8
10
100
AcDbCircle
 10
676.3021684255587
 20
391.6029819131654
 30
0.0
 40
1.5
100
AcDbArc
 50
180.0
 51
0.0
  0
ARC
  5
4714
330
1F
100
AcDbEntity
  8
10
100
AcDbCircle
 10
671.502168425559
 20
391.6029819131654
 30
0.0
 40
1.5
100
AcDbArc
 50
180.0
 51
0.0
  0
ARC
  5
4715
330
1F
100
AcDbEntity
  8
10
100
AcDbCircle
 10
681.1021684255589
 20
391.6029819131654
 30
0.0
 40
1.5
100
AcDbArc
 50
180.0
 51
0.0
  0
LINE
  5
4716
330
1F
100
AcDbEntity
  8
10
100
AcDbLine
 10
706.5021684255587
 20
338.5856106400554
 30
0.0
 11
706.5021684255587
 21
359.1029819131654
 31
0.0
  0
LINE
  5
4717
330
1F
100
AcDbEntity
  8
10
100
AcDbLine
 10
709.0021684255588
 20
346.6911723641906
 30
0.0
 11
709.0021684255588
 21
359.1029819131654
 31
0.0
  0
LINE
  5
4718
330
1F
100
AcDbEntity
  8
10
100
AcDbLine
 10
702.5021684255592
 20
330.6029819131654
 30
0.0
 11
702.5021684255592
 21
364.6029819131654
 31
0.0
  0
LINE
  5
4719
330
1F
100
AcDbEntity
  8
10
100
AcDbLine
 10
704.5021684255588
 20
330.6029819131654
 30
0.0
 11
704.5021684255588
 21
344.1029819131654
 31
0.0
  0
LINE
  5
471A
330
1F
100
AcDbEntity
  8
10
100
AcDbLine
 10
702.5021684255587
 20
344.1029819131654
 30
0.0
 11
706.5021684255587
 21
344.1029819131654
 31
0.0
  0
LINE
  5
471B
330
1F
100
AcDbEntity
  8
10
100
AcDbLine
 10
704.5021684255588
 20
343.0910832735094
 30
0.0
 11
702.5021684255587
 21
343.0910832735094
 31
0.0
  0
LINE
  5
471C
330
1F
100
AcDbEntity
  8
10
100
AcDbLine
 10
702.5021684255592
 20
374.6029819131654
 30
0.0
 11
701.5021684255592
 21
374.6029819131654
 31
0.0
  0
LINE
  5
471D
330
1F
100
AcDbEntity
  8
10
100
AcDbLine
 10
702.5021684255592
 20
364.6029819131654
 30
0.0
 11
701.5021684255592
 21
364.6029819131654
 31
0.0
  0
ARC
  5
471E
330
1F
100
AcDbEntity
  8
10
100
AcDbCircle
 10
690.7021684255588
 20
391.6029819131654
 30
0.0
 40
1.5
100
AcDbArc
 50
180.0
 51
0.0
  0
LINE
  5
471F
330
1F
100
AcDbEntity
  8
10
100
AcDbLine
 10
697.5021684255588
 20
373.1029819131654
 30
0.0
 11
695.0021684255588
 21
373.1029819131654
 31
0.0
  0
LINE
  5
4720
330
1F
100
AcDbEntity
  8
10
100
AcDbLine
 10
697.502168425559
 20
373.3529819131654
 30
0.0
 11
694.502168425559
 21
373.3529819131654
 31
0.0
  0
LINE
  5
4721
330
1F
100
AcDbEntity
  8
10
100
AcDbLine
 10
697.5021684255588
 20
366.1029819131654
 30
0.0
 11
695.0021684255588
 21
366.1029819131654
 31
0.0
  0
LINE
  5
4722
330
1F
100
AcDbEntity
  8
10
100
AcDbLine
 10
697.502168425559
 20
365.8529819131654
 30
0.0
 11
694.502168425559
 21
365.8529819131654
 31
0.0
  0
LINE
  5
4723
330
1F
100
AcDbEntity
  8
10
100
AcDbLine
 10
695.0021684255588
 20
373.1029819131654
 30
0.0
 11
695.0021684255588
 21
366.1029819131654
 31
0.0
  0
LINE
  5
4724
330
1F
100
AcDbEntity
  8
10
100
AcDbLine
 10
696.5021684255588
 20
373.1029819131654
 30
0.0
 11
696.5021684255588
 21
366.1029819131654
 31
0.0
  0
LINE
  5
4725
330
1F
100
AcDbEntity
  8
10
100
AcDbLine
 10
697.5021684255588
 20
373.1029819131654
 30
0.0
 11
697.5021684255588
 21
366.1029819131654
 31
0.0
  0
LINE
  5
4726
330
1F
100
AcDbEntity
  8
10
100
AcDbLine
 10
697.502168425559
 20
373.3529819131654
 30
0.0
 11
697.502168425559
 21
365.8529819131654
 31
0.0
  0
LINE
  5
4727
330
1F
100
AcDbEntity
  8
10
100
AcDbLine
 10
694.502168425559
 20
373.3529819131654
 30
0.0
 11
694.502168425559
 21
365.8529819131654
 31
0.0
  0
LINE
  5
4728
330
1F
100
AcDbEntity
  8
10
100
AcDbLine
 10
701.5021684255592
 20
364.6029819131654
 30
0.0
 11
701.5021684255592
 21
374.6029819131654
 31
0.0
  0
LINE
  5
4729
330
1F
100
AcDbEntity
  8
10
100
AcDbLine
 10
709.0021684255588
 20
359.1029819131654
 30
0.0
 11
706.5021684255587
 21
359.1029819131654
 31
0.0
  0
ARC
  5
472A
330
1F
100
AcDbEntity
  8
10
100
AcDbCircle
 10
685.9021684255589
 20
460.6029819131654
 30
0.0
 40
1.5
100
AcDbArc
 50
0.0
 51
180.0
  0
LINE
  5
472B
330
1F
100
AcDbEntity
  8
10
100
AcDbLine
 10
687.4021684255589
 20
437.1029819131654
 30
0.0
 11
684.4021684255591
 21
437.1029819131654
 31
0.0
  0
LINE
  5
472C
330
1F
100
AcDbEntity
  8
10
100
AcDbLine
 10
687.4021684255589
 20
440.1029819131654
 30
0.0
 11
684.4021684255591
 21
440.1029819131654
 31
0.0
  0
LINE
  5
472D
330
1F
100
AcDbEntity
  8
10
100
AcDbLine
 10
687.4021684255589
 20
412.1029819131654
 30
0.0
 11
684.4021684255591
 21
412.1029819131654
 31
0.0
  0
LINE
  5
472E
330
1F
100
AcDbEntity
  8
10
100
AcDbLine
 10
687.4021684255589
 20
415.1029819131654
 30
0.0
 11
684.4021684255591
 21
415.1029819131654
 31
0.0
  0
LINE
  5
472F
330
1F
100
AcDbEntity
  8
10
100
AcDbLine
 10
668.2021684255588
 20
437.1029819131654
 30
0.0
 11
665.2021684255588
 21
437.1029819131654
 31
0.0
  0
LINE
  5
4730
330
1F
100
AcDbEntity
  8
10
100
AcDbLine
 10
668.2021684255588
 20
440.1029819131654
 30
0.0
 11
665.2021684255588
 21
440.1029819131654
 31
0.0
  0
LINE
  5
4731
330
1F
100
AcDbEntity
  8
10
100
AcDbLine
 10
663.4021684255587
 20
440.1029819131654
 30
0.0
 11
660.4021684255586
 21
440.1029819131654
 31
0.0
  0
LINE
  5
4732
330
1F
100
AcDbEntity
  8
10
100
AcDbLine
 10
663.4021684255587
 20
437.1029819131654
 30
0.0
 11
660.4021684255586
 21
437.1029819131654
 31
0.0
  0
LINE
  5
4733
330
1F
100
AcDbEntity
  8
10
100
AcDbLine
 10
658.6021684255589
 20
437.1029819131654
 30
0.0
 11
655.6021684255589
 21
437.1029819131654
 31
0.0
  0
LINE
  5
4734
330
1F
100
AcDbEntity
  8
10
100
AcDbLine
 10
658.6021684255589
 20
440.1029819131654
 30
0.0
 11
655.6021684255589
 21
440.1029819131654
 31
0.0
  0
LINE
  5
4735
330
1F
100
AcDbEntity
  8
10
100
AcDbLine
 10
668.2021684255588
 20
412.1029819131654
 30
0.0
 11
665.2021684255588
 21
412.1029819131654
 31
0.0
  0
LINE
  5
4736
330
1F
100
AcDbEntity
  8
10
100
AcDbLine
 10
668.2021684255588
 20
415.1029819131654
 30
0.0
 11
665.2021684255588
 21
415.1029819131654
 31
0.0
  0
LINE
  5
4737
330
1F
100
AcDbEntity
  8
10
100
AcDbLine
 10
663.4021684255587
 20
415.1029819131654
 30
0.0
 11
660.4021684255586
 21
415.1029819131654
 31
0.0
  0
LINE
  5
4738
330
1F
100
AcDbEntity
  8
10
100
AcDbLine
 10
663.4021684255587
 20
412.1029819131654
 30
0.0
 11
660.4021684255586
 21
412.1029819131654
 31
0.0
  0
LINE
  5
4739
330
1F
100
AcDbEntity
  8
10
100
AcDbLine
 10
658.6021684255589
 20
412.1029819131654
 30
0.0
 11
655.6021684255589
 21
412.1029819131654
 31
0.0
  0
LINE
  5
473A
330
1F
100
AcDbEntity
  8
10
100
AcDbLine
 10
658.6021684255589
 20
415.1029819131654
 30
0.0
 11
655.6021684255589
 21
415.1029819131654
 31
0.0
  0
LINE
  5
473B
330
1F
100
AcDbEntity
  8
10
100
AcDbLine
 10
677.8021684255588
 20
437.1029819131654
 30
0.0
 11
674.8021684255587
 21
437.1029819131654
 31
0.0
  0
LINE
  5
473C
330
1F
100
AcDbEntity
  8
10
100
AcDbLine
 10
677.8021684255588
 20
440.1029819131654
 30
0.0
 11
674.8021684255587
 21
440.1029819131654
 31
0.0
  0
LINE
  5
473D
330
1F
100
AcDbEntity
  8
10
100
AcDbLine
 10
673.0021684255587
 20
437.1029819131654
 30
0.0
 11
670.0021684255588
 21
437.1029819131654
 31
0.0
  0
LINE
  5
473E
330
1F
100
AcDbEntity
  8
10
100
AcDbLine
 10
673.0021684255587
 20
440.1029819131654
 30
0.0
 11
670.0021684255588
 21
440.1029819131654
 31
0.0
  0
LINE
  5
473F
330
1F
100
AcDbEntity
  8
10
100
AcDbLine
 10
677.8021684255588
 20
412.1029819131654
 30
0.0
 11
674.8021684255587
 21
412.1029819131654
 31
0.0
  0
LINE
  5
4740
330
1F
100
AcDbEntity
  8
10
100
AcDbLine
 10
677.8021684255588
 20
415.1029819131654
 30
0.0
 11
674.8021684255587
 21
415.1029819131654
 31
0.0
  0
LINE
  5
4741
330
1F
100
AcDbEntity
  8
10
100
AcDbLine
 10
673.0021684255587
 20
412.1029819131654
 30
0.0
 11
670.0021684255588
 21
412.1029819131654
 31
0.0
  0
LINE
  5
4742
330
1F
100
AcDbEntity
  8
10
100
AcDbLine
 10
673.0021684255587
 20
415.1029819131654
 30
0.0
 11
670.0021684255588
 21
415.1029819131654
 31
0.0
  0
LINE
  5
4743
330
1F
100
AcDbEntity
  8
10
100
AcDbLine
 10
682.6021684255589
 20
412.1029819131654
 30
0.0
 11
679.6021684255589
 21
412.1029819131654
 31
0.0
  0
LINE
  5
4744
330
1F
100
AcDbEntity
  8
10
100
AcDbLine
 10
682.6021684255589
 20
437.1029819131654
 30
0.0
 11
679.6021684255589
 21
437.1029819131654
 31
0.0
  0
LINE
  5
4745
330
1F
100
AcDbEntity
  8
10
100
AcDbLine
 10
682.6021684255589
 20
415.1029819131654
 30
0.0
 11
679.6021684255589
 21
415.1029819131654
 31
0.0
  0
LINE
  5
4746
330
1F
100
AcDbEntity
  8
10
100
AcDbLine
 10
682.6021684255589
 20
440.1029819131654
 30
0.0
 11
679.6021684255589
 21
440.1029819131654
 31
0.0
  0
ARC
  5
4747
330
1F
100
AcDbEntity
  8
10
100
AcDbCircle
 10
666.7021684255588
 20
460.6029819131654
 30
0.0
 40
1.5
100
AcDbArc
 50
0.0
 51
180.0
  0
ARC
  5
4748
330
1F
100
AcDbEntity
  8
10
100
AcDbCircle
 10
661.9021684255586
 20
460.6029819131654
 30
0.0
 40
1.5
100
AcDbArc
 50
0.0
 51
180.0
  0
ARC
  5
4749
330
1F
100
AcDbEntity
  8
10
100
AcDbCircle
 10
657.1021684255589
 20
460.6029819131654
 30
0.0
 40
1.5
100
AcDbArc
 50
0.0
 51
180.0
  0
ARC
  5
474A
330
1F
100
AcDbEntity
  8
10
100
AcDbCircle
 10
676.3021684255587
 20
460.6029819131654
 30
0.0
 40
1.5
100
AcDbArc
 50
0.0
 51
180.0
  0
ARC
  5
474B
330
1F
100
AcDbEntity
  8
10
100
AcDbCircle
 10
671.502168425559
 20
460.6029819131654
 30
0.0
 40
1.5
100
AcDbArc
 50
0.0
 51
180.0
  0
ARC
  5
474C
330
1F
100
AcDbEntity
  8
10
100
AcDbCircle
 10
681.1021684255589
 20
460.6029819131654
 30
0.0
 40
1.5
100
AcDbArc
 50
0.0
 51
180.0
  0
LINE
  5
474D
330
1F
100
AcDbEntity
  8
10
100
AcDbLine
 10
709.0021684255588
 20
464.5147914621406
 30
0.0
 11
709.0021684255588
 21
452.1029819131654
 31
0.0
  0
LINE
  5
474E
330
1F
100
AcDbEntity
  8
10
100
AcDbLine
 10
706.5021684255587
 20
472.6203531862757
 30
0.0
 11
706.5021684255587
 21
452.1029819131654
 31
0.0
  0
LINE
  5
474F
330
1F
100
AcDbEntity
  8
10
100
AcDbLine
 10
702.5021684255592
 20
446.6029819131654
 30
0.0
 11
702.5021684255592
 21
480.6029819131654
 31
0.0
  0
LINE
  5
4750
330
1F
100
AcDbEntity
  8
10
100
AcDbLine
 10
702.5021684255592
 20
436.6029819131654
 30
0.0
 11
701.5021684255592
 21
436.6029819131654
 31
0.0
  0
LINE
  5
4751
330
1F
100
AcDbEntity
  8
10
100
AcDbLine
 10
702.5021684255592
 20
446.6029819131654
 30
0.0
 11
701.5021684255592
 21
446.6029819131654
 31
0.0
  0
LINE
  5
4752
330
1F
100
AcDbEntity
  8
10
100
AcDbLine
 10
701.5021684255592
 20
436.6029819131654
 30
0.0
 11
701.5021684255592
 21
446.6029819131654
 31
0.0
  0
LINE
  5
4753
330
1F
100
AcDbEntity
  8
10
100
AcDbLine
 10
695.0021684255588
 20
438.1029819131653
 30
0.0
 11
695.0021684255588
 21
445.1029819131654
 31
0.0
  0
LINE
  5
4754
330
1F
100
AcDbEntity
  8
10
100
AcDbLine
 10
696.5021684255588
 20
438.1029819131653
 30
0.0
 11
696.5021684255588
 21
445.1029819131654
 31
0.0
  0
LINE
  5
4755
330
1F
100
AcDbEntity
  8
10
100
AcDbLine
 10
697.5021684255588
 20
438.1029819131653
 30
0.0
 11
695.0021684255588
 21
438.1029819131653
 31
0.0
  0
LINE
  5
4756
330
1F
100
AcDbEntity
  8
10
100
AcDbLine
 10
697.5021684255588
 20
438.1029819131653
 30
0.0
 11
697.5021684255588
 21
445.1029819131654
 31
0.0
  0
LINE
  5
4757
330
1F
100
AcDbEntity
  8
10
100
AcDbLine
 10
697.5021684255588
 20
445.1029819131654
 30
0.0
 11
695.0021684255588
 21
445.1029819131654
 31
0.0
  0
LINE
  5
4758
330
1F
100
AcDbEntity
  8
10
100
AcDbLine
 10
697.502168425559
 20
437.8529819131654
 30
0.0
 11
694.502168425559
 21
437.8529819131654
 31
0.0
  0
LINE
  5
4759
330
1F
100
AcDbEntity
  8
10
100
AcDbLine
 10
697.502168425559
 20
437.8529819131654
 30
0.0
 11
697.502168425559
 21
445.3529819131654
 31
0.0
  0
LINE
  5
475A
330
1F
100
AcDbEntity
  8
10
100
AcDbLine
 10
697.502168425559
 20
445.3529819131654
 30
0.0
 11
694.502168425559
 21
445.3529819131654
 31
0.0
  0
LINE
  5
475B
330
1F
100
AcDbEntity
  8
10
100
AcDbLine
 10
694.502168425559
 20
445.3529819131654
 30
0.0
 11
694.502168425559
 21
437.8529819131654
 31
0.0
  0
LINE
  5
475C
330
1F
100
AcDbEntity
  8
10
100
AcDbLine
 10
692.2021684255589
 20
437.1029819131654
 30
0.0
 11
689.2021684255588
 21
437.1029819131654
 31
0.0
  0
LINE
  5
475D
330
1F
100
AcDbEntity
  8
10
100
AcDbLine
 10
692.2021684255589
 20
440.1029819131654
 30
0.0
 11
689.2021684255588
 21
440.1029819131654
 31
0.0
  0
LINE
  5
475E
330
1F
100
AcDbEntity
  8
10
100
AcDbLine
 10
692.2021684255589
 20
412.1029819131654
 30
0.0
 11
689.2021684255588
 21
412.1029819131654
 31
0.0
  0
LINE
  5
475F
330
1F
100
AcDbEntity
  8
10
100
AcDbLine
 10
692.2021684255589
 20
415.1029819131654
 30
0.0
 11
689.2021684255588
 21
415.1029819131654
 31
0.0
  0
LINE
  5
4760
330
1F
100
AcDbEntity
  8
10
100
AcDbLine
 10
709.0021684255588
 20
452.1029819131654
 30
0.0
 11
706.5021684255587
 21
452.1029819131654
 31
0.0
  0
ARC
  5
4761
330
1F
100
AcDbEntity
  8
10
100
AcDbCircle
 10
690.7021684255588
 20
460.6029819131654
 30
0.0
 40
1.5
100
AcDbArc
 50
0.0
 51
180.0
  0
LINE
  5
4762
330
1F
100
AcDbEntity
  8
10
100
AcDbLine
 10
702.5021684255587
 20
467.1029819131653
 30
0.0
 11
706.5021684255587
 21
467.1029819131653
 31
0.0
  0
LINE
  5
4764
330
1F
100
AcDbEntity
  8
10
100
AcDbLine
 10
775.0021684255588
 20
348.6029819131654
 30
0.0
 11
775.0021684255588
 21
462.6029819131654
 31
0.0
  0
LINE
  5
4765
330
1F
100
AcDbEntity
  8
10
100
AcDbLine
 10
775.5021684255588
 20
330.6029819131654
 30
0.0
 11
752.0021684255588
 21
330.6029819131654
 31
0.0
  0
LINE
  5
4766
330
1F
100
AcDbEntity
  8
10
100
AcDbLine
 10
746.5021684255588
 20
342.1029819131654
 30
0.0
 11
733.5021684255588
 21
342.1029819131654
 31
0.0
  0
LINE
  5
4767
330
1F
100
AcDbEntity
  8
10
100
AcDbLine
 10
746.5021684255588
 20
339.1029819131654
 30
0.0
 11
733.5021684255588
 21
339.1029819131654
 31
0.0
  0
LINE
  5
4768
330
1F
100
AcDbEntity
  8
10
100
AcDbLine
 10
750.0021684255588
 20
335.1029819131654
 30
0.0
 11
730.0021684255588
 21
335.1029819131654
 31
0.0
  0
LINE
  5
4769
330
1F
100
AcDbEntity
  8
10
100
AcDbLine
 10
746.0021684255588
 20
339.2029819131655
 30
0.0
 11
734.0021684255588
 21
339.2029819131655
 31
0.0
  0
LINE
  5
476A
330
1F
100
AcDbEntity
  8
10
100
AcDbLine
 10
746.0021684255588
 20
342.1029819131654
 30
0.0
 11
734.0021684255588
 21
342.1029819131654
 31
0.0
  0
LINE
  5
476B
330
1F
100
AcDbEntity
  8
10
100
AcDbLine
 10
746.0021684255588
 20
340.2029819131655
 30
0.0
 11
734.0021684255588
 21
340.2029819131655
 31
0.0
  0
LINE
  5
476C
330
1F
100
AcDbEntity
  8
10
100
AcDbLine
 10
746.8021684255587
 20
339.2029819131655
 30
0.0
 11
733.2021684255588
 21
339.2029819131655
 31
0.0
  0
LINE
  5
476D
330
1F
100
AcDbEntity
  8
10
100
AcDbLine
 10
731.5021684255587
 20
334.6029819131654
 30
0.0
 11
748.5021684255587
 21
334.6029819131654
 31
0.0
  0
LINE
  5
476E
330
1F
100
AcDbEntity
  8
10
100
AcDbLine
 10
748.5021684255587
 20
331.6029819131654
 30
0.0
 11
731.5021684255587
 21
331.6029819131654
 31
0.0
  0
LINE
  5
476F
330
1F
100
AcDbEntity
  8
10
100
AcDbLine
 10
731.5021684255587
 20
333.6029819131654
 30
0.0
 11
748.5021684255587
 21
333.6029819131654
 31
0.0
  0
LINE
  5
4770
330
1F
100
AcDbEntity
  8
10
100
AcDbLine
 10
748.5021684255587
 20
332.0229819131654
 30
0.0
 11
731.5021684255587
 21
332.0229819131654
 31
0.0
  0
LINE
  5
4771
330
1F
100
AcDbEntity
  8
10
100
AcDbLine
 10
748.5021684255587
 20
333.1829819131655
 30
0.0
 11
731.5021684255587
 21
333.1829819131655
 31
0.0
  0
LINE
  5
4772
330
1F
100
AcDbEntity
  8
10
100
AcDbLine
 10
728.0021684255587
 20
330.6029819131654
 30
0.0
 11
752.0021684255588
 21
330.6029819131654
 31
0.0
  0
ARC
  5
4773
330
1F
100
AcDbEntity
  8
10
100
AcDbCircle
 10
733.5021684255588
 20
339.6029819131654
 30
0.0
 40
0.5
100
AcDbArc
 50
180.0
 51
270.0
  0
ARC
  5
4774
330
1F
100
AcDbEntity
  8
10
100
AcDbCircle
 10
733.5021684255588
 20
341.6029819131654
 30
0.0
 40
0.5
100
AcDbArc
 50
90.0
 51
180.0
  0
LINE
  5
4775
330
1F
100
AcDbEntity
  8
10
100
AcDbLine
 10
733.0021684255588
 20
339.6029819131654
 30
0.0
 11
733.0021684255588
 21
341.6029819131654
 31
0.0
  0
LINE
  5
4776
330
1F
100
AcDbEntity
  8
10
100
AcDbLine
 10
734.0021684255588
 20
342.1029819131654
 30
0.0
 11
734.0021684255588
 21
339.2029819131655
 31
0.0
  0
ARC
  5
4777
330
1F
100
AcDbEntity
  8
10
100
AcDbCircle
 10
728.0021684255587
 20
331.6029819131654
 30
0.0
 40
1.0
100
AcDbArc
 50
270.0
 51
0.0
  0
LINE
  5
4778
330
1F
100
AcDbEntity
  8
10
100
AcDbLine
 10
729.0021684255588
 20
331.6029819131654
 30
0.0
 11
729.0021684255588
 21
334.1029819131654
 31
0.0
  0
ARC
  5
4779
330
1F
100
AcDbEntity
  8
10
100
AcDbCircle
 10
731.5021684255587
 20
331.1029819131654
 30
0.0
 40
0.5
100
AcDbArc
 50
180.0
 51
270.0
  0
ARC
  5
477A
330
1F
100
AcDbEntity
  8
10
100
AcDbCircle
 10
731.5021684255587
 20
331.1029819131654
 30
0.0
 40
0.5
100
AcDbArc
 50
90.0
 51
180.0
  0
LINE
  5
477B
330
1F
100
AcDbEntity
  8
10
100
AcDbLine
 10
731.0021684255588
 20
332.6029819131654
 30
0.0
 11
729.0021684255588
 21
332.6029819131654
 31
0.0
  0
ARC
  5
477C
330
1F
100
AcDbEntity
  8
10
100
AcDbCircle
 10
731.5021684255587
 20
332.5229819131655
 30
0.0
 40
0.5
100
AcDbArc
 50
180.0
 51
270.0
  0
ARC
  5
477D
330
1F
100
AcDbEntity
  8
10
100
AcDbCircle
 10
731.5021684255587
 20
334.1029819131654
 30
0.0
 40
0.5
100
AcDbArc
 50
90.0
 51
180.0
  0
ARC
  5
477E
330
1F
100
AcDbEntity
  8
10
100
AcDbCircle
 10
731.5021684255587
 20
332.6829819131655
 30
0.0
 40
0.5
100
AcDbArc
 50
90.0
 51
180.0
  0
ARC
  5
477F
330
1F
100
AcDbEntity
  8
10
100
AcDbCircle
 10
731.5021684255587
 20
334.1029819131654
 30
0.0
 40
0.5
100
AcDbArc
 50
180.0
 51
270.0
  0
ARC
  5
4780
330
1F
100
AcDbEntity
  8
10
100
AcDbCircle
 10
730.0021684255588
 20
334.1029819131654
 30
0.0
 40
1.0
100
AcDbArc
 50
90.0
 51
180.0
  0
LINE
  5
4781
330
1F
100
AcDbEntity
  8
10
100
AcDbLine
 10
731.0021684255588
 20
331.1029819131654
 30
0.0
 11
731.0021684255588
 21
335.1029819131654
 31
0.0
  0
ARC
  5
4782
330
1F
100
AcDbEntity
  8
10
100
AcDbCircle
 10
752.0021684255588
 20
331.6029819131654
 30
0.0
 40
1.0
100
AcDbArc
 50
180.0
 51
270.0
  0
LINE
  5
4783
330
1F
100
AcDbEntity
  8
10
100
AcDbLine
 10
751.0021684255588
 20
331.6029819131654
 30
0.0
 11
751.0021684255588
 21
334.1029819131654
 31
0.0
  0
ARC
  5
4784
330
1F
100
AcDbEntity
  8
10
100
AcDbCircle
 10
746.5021684255588
 20
341.6029819131654
 30
0.0
 40
0.5
100
AcDbArc
 50
0.0
 51
90.0
  0
ARC
  5
4785
330
1F
100
AcDbEntity
  8
10
100
AcDbCircle
 10
746.5021684255588
 20
339.6029819131654
 30
0.0
 40
0.5
100
AcDbArc
 50
270.0
 51
0.0
  0
LINE
  5
4786
330
1F
100
AcDbEntity
  8
10
100
AcDbLine
 10
747.0021684255588
 20
339.6029819131654
 30
0.0
 11
747.0021684255588
 21
341.6029819131654
 31
0.0
  0
LINE
  5
4787
330
1F
100
AcDbEntity
  8
10
100
AcDbLine
 10
746.0021684255588
 20
342.1029819131654
 30
0.0
 11
746.0021684255588
 21
339.2029819131655
 31
0.0
  0
ARC
  5
4788
330
1F
100
AcDbEntity
  8
10
100
AcDbCircle
 10
748.5021684255587
 20
331.1029819131654
 30
0.0
 40
0.5
100
AcDbArc
 50
270.0
 51
0.0
  0
ARC
  5
4789
330
1F
100
AcDbEntity
  8
10
100
AcDbCircle
 10
748.5021684255587
 20
334.1029819131654
 30
0.0
 40
0.5
100
AcDbArc
 50
0.0
 51
90.0
  0
ARC
  5
478A
330
1F
100
AcDbEntity
  8
10
100
AcDbCircle
 10
748.5021684255587
 20
331.1029819131654
 30
0.0
 40
0.5
100
AcDbArc
 50
0.0
 51
90.0
  0
ARC
  5
478B
330
1F
100
AcDbEntity
  8
10
100
AcDbCircle
 10
748.5021684255587
 20
334.1029819131654
 30
0.0
 40
0.5
100
AcDbArc
 50
270.0
 51
0.0
  0
ARC
  5
478C
330
1F
100
AcDbEntity
  8
10
100
AcDbCircle
 10
748.5021684255587
 20
332.5229819131655
 30
0.0
 40
0.5
100
AcDbArc
 50
270.0
 51
0.0
  0
ARC
  5
478D
330
1F
100
AcDbEntity
  8
10
100
AcDbCircle
 10
748.5021684255587
 20
332.6829819131655
 30
0.0
 40
0.5
100
AcDbArc
 50
0.0
 51
90.0
  0
LINE
  5
478E
330
1F
100
AcDbEntity
  8
10
100
AcDbLine
 10
749.0021684255587
 20
331.1029819131654
 30
0.0
 11
749.0021684255587
 21
335.1029819131654
 31
0.0
  0
ARC
  5
478F
330
1F
100
AcDbEntity
  8
10
100
AcDbCircle
 10
750.0021684255588
 20
334.1029819131654
 30
0.0
 40
1.0
100
AcDbArc
 50
0.0
 51
90.0
  0
LINE
  5
4790
330
1F
100
AcDbEntity
  8
10
100
AcDbLine
 10
749.0021684255587
 20
332.6029819131654
 30
0.0
 11
751.0021684255588
 21
332.6029819131654
 31
0.0
  0
LINE
  5
4791
330
1F
100
AcDbEntity
  8
10
100
AcDbLine
 10
756.5021684255587
 20
344.1029819131654
 30
0.0
 11
769.0021684255587
 21
344.1029819131654
 31
0.0
  0
LINE
  5
4792
330
1F
100
AcDbEntity
  8
10
100
AcDbLine
 10
755.5021684255588
 20
345.1029819131654
 30
0.0
 11
755.5021684255588
 21
339.5856106400553
 31
0.0
  0
LINE
  5
4793
330
1F
100
AcDbEntity
  8
10
100
AcDbLine
 10
755.5021684255588
 20
346.6911723641906
 30
0.0
 11
755.5021684255588
 21
345.1029819131654
 31
0.0
  0
ARC
  5
4794
330
1F
100
AcDbEntity
  8
10
100
AcDbCircle
 10
756.5021684255587
 20
345.1029819131654
 30
0.0
 40
1.0
100
AcDbArc
 50
180.0
 51
270.0
  0
LINE
  5
4795
330
1F
100
AcDbEntity
  8
10
100
AcDbLine
 10
775.5021684255588
 20
348.6029819131654
 30
0.0
 11
775.0021684255588
 21
348.6029819131654
 31
0.0
  0
LINE
  5
4796
330
1F
100
AcDbEntity
  8
10
100
AcDbLine
 10
775.5021684255588
 20
348.6029819131654
 30
0.0
 11
775.5021684255588
 21
330.6029819131654
 31
0.0
  0
ARC
  5
4797
330
1F
100
AcDbEntity
  8
10
100
AcDbCircle
 10
769.0021684255587
 20
342.6029819131654
 30
0.0
 40
1.5
100
AcDbArc
 50
0.0
 51
90.0
  0
LINE
  5
4798
330
1F
100
AcDbEntity
  8
10
100
AcDbLine
 10
770.5021684255588
 20
342.6029819131654
 30
0.0
 11
770.5021684255588
 21
330.6029819131654
 31
0.0
  0
LINE
  5
4799
330
1F
100
AcDbEntity
  8
10
100
AcDbLine
 10
756.5021684255587
 20
467.1029819131653
 30
0.0
 11
769.0021684255587
 21
467.1029819131653
 31
0.0
  0
LINE
  5
479A
330
1F
100
AcDbEntity
  8
10
100
AcDbLine
 10
755.5021684255588
 20
464.5147914621406
 30
0.0
 11
755.5021684255588
 21
466.1029819131654
 31
0.0
  0
ARC
  5
479B
330
1F
100
AcDbEntity
  8
10
100
AcDbCircle
 10
756.5021684255587
 20
466.1029819131654
 30
0.0
 40
1.0
100
AcDbArc
 50
90.0
 51
180.0
  0
LINE
  5
479C
330
1F
100
AcDbEntity
  8
10
100
AcDbLine
 10
755.5021684255588
 20
466.1029819131654
 30
0.0
 11
755.5021684255588
 21
471.6203531862756
 31
0.0
  0
LINE
  5
479D
330
1F
100
AcDbEntity
  8
10
100
AcDbLine
 10
775.5021684255588
 20
462.6029819131654
 30
0.0
 11
775.0021684255588
 21
462.6029819131654
 31
0.0
  0
LINE
  5
479E
330
1F
100
AcDbEntity
  8
10
100
AcDbLine
 10
775.5021684255588
 20
480.6029819131654
 30
0.0
 11
775.5021684255588
 21
462.6029819131654
 31
0.0
  0
LINE
  5
479F
330
1F
100
AcDbEntity
  8
10
100
AcDbLine
 10
770.5021684255588
 20
480.6029819131654
 30
0.0
 11
770.5021684255588
 21
468.6029819131654
 31
0.0
  0
ARC
  5
47A0
330
1F
100
AcDbEntity
  8
10
100
AcDbCircle
 10
769.0021684255587
 20
468.6029819131654
 30
0.0
 40
1.5
100
AcDbArc
 50
270.0
 51
0.0
  0
LINE
  5
4B0A
330
1F
100
AcDbEntity
  8
10
100
AcDbLine
 10
771.9021684255588
 20
361.1029819131654
 30
0.0
 11
711.9021715284522
 21
361.1029819131654
 31
0.0
  0
LINE
  5
4B0B
330
1F
100
AcDbEntity
  8
10
100
AcDbLine
 10
771.9021684255588
 20
361.1029819131654
 30
0.0
 11
771.9021684255588
 21
336.1029819131654
 31
0.0
  0
LINE
  5
4B0C
330
1F
100
AcDbEntity
  8
10
100
AcDbLine
 10
771.9021684255588
 20
336.1029819131654
 30
0.0
 11
711.9021715284522
 21
336.1029819131654
 31
0.0
  0
LINE
  5
4B0D
330
1F
100
AcDbEntity
  8
10
100
AcDbLine
 10
711.9021715284522
 20
336.1029819131654
 30
0.0
 11
711.9021715284522
 21
361.1029819131654
 31
0.0
  0
LWPOLYLINE
  5
5204
330
1F
100
AcDbEntity
  8
18
100
AcDbPolyline
 90
        4
 70
     1
 43
0.0
 10
617.5021684255588
 20
230.601003296284
 10
775.5021684255588
 20
230.601003296284
 10
775.5021684255588
 20
580.601003296284
 10
617.5021684255588
 20
580.601003296284
  0
VIEWPORT
  5
71
330
55
100
AcDbEntity
 67
     1
  8
0
100
AcDbViewport
 10
133.3499908447265
 20
101.5999970436096
 30
0.0
 40
381.3957395593834
 41
218.2856291881582
 68
     1
 69
     1
1001
ACAD
1000
MVIEW
1002
{
1070
    16
1010
0.0
1020
0.0
1030
0.0
1010
0.0
1020
0.0
1030
1.0
1040
0.0
1040
218.2856291881582
1040
133.3499908447265
1040
101.5999970436096
1040
50.0
1040
0.0
1040
0.0
1070
     0
1070
   100
1070
     1
1070
     1
1070
     0
1070
     0
1070
     0
1070
     0
1040
0.0
1040
0.0
1040
0.0
1040
10.0
1040
10.0
1040
10.0
1040
10.0
1070
     0
1002
{
1002
}
1002
}
  0
VIEWPORT
  5
73
330
55
100
AcDbEntity
 67
     1
  8
0
100
AcDbViewport
 10
133.349993944168
 20
101.599993944168
 30
0.0
 40
213.3599903106689
 41
162.5599903106689
 68
     2
 69
     2
1001
ACAD
1000
MVIEW
1002
{
1070
    16
1010
0.0
1020
0.0
1030
0.0
1010
0.0
1020
0.0
1030
1.0
1040
0.0
1040
324.0677920111345
1040
210.0
1040
148.5
1040
50.0
1040
0.0
1040
0.0
1070
     0
1070
   100
1070
     1
1070
     3
1070
     0
1070
     0
1070
     0
1070
     0
1040
0.0
1040
0.0
1040
0.0
1040
10.0
1040
10.0
1040
10.0
1040
10.0
1070
     0
1002
{
1002
}
1002
}
  0
ENDSEC
  0
SECTION
  2
OBJECTS
  0
DICTIONARY
  5
C
330
0
100
AcDbDictionary
  3
ACAD_GROUP
350
D
  3
ACAD_LAYOUT
350
1A
  3
ACAD_MLINESTYLE
350
17
  3
ACAD_PLOTSETTINGS
350
19
  3
ACAD_PLOTSTYLENAME
350
E
  3
ACDBHEADERROUNDTRIPXREC
350
52A0
  3
ACDBVARIABLEDICTIONARY
350
5E
  0
DICTIONARY
  5
AC
330
2
100
AcDbDictionary
280
     1
  3
ACAD_LAYERFILTERS
360
AD
  3
ACAD_LAYERSTATES
360
C0
  0
DICTIONARY
  5
2892
330
1F
100
AcDbDictionary
280
     1
  3
ACAD_LAYOUTSELFREF
360
52C1
  0
DICTIONARY
  5
2894
330
55
100
AcDbDictionary
280
     1
  3
ACAD_LAYOUTSELFREF
360
52C3
  0
DICTIONARY
  5
D
102
{ACAD_REACTORS
330
C
102
}
330
C
100
AcDbDictionary
  3
*A1
350
3B44
  3
*A2
350
3B45
  3
*A3
350
3B46
  3
*A4
350
3B47
  3
*A5
350
4C59
  0
DICTIONARY
  5
1A
102
{ACAD_REACTORS
330
C
102
}
330
C
100
AcDbDictionary
  0
DICTIONARY
  5
17
102
{ACAD_REACTORS
330
C
102
}
330
C
100
AcDbDictionary
  3
STANDARD
350
18
  0
DICTIONARY
  5
19
102
{ACAD_REACTORS
330
C
102
}
330
C
100
AcDbDictionary
  0
ACDBDICTIONARYWDFLT
  5
E
102
{ACAD_REACTORS
330
C
102
}
330
C
100
AcDbDictionary
281
     1
  3
Normal
350
F
100
AcDbDictionaryWithDefault
340
F
  0
DICTIONARY
  5
52A0
102
{ACAD_REACTORS
330
C
102
}
330
C
100
AcDbDictionary
  3
CEPSNTYPE
350
52AA
  3
DIMSTYLEDATA
350
52AE
  3
FINGERPRINTGUID
350
52AB
  3
HYPERLINKBASE
350
52A3
  3
INSUNITS
350
52A9
  3
LAYOUTDICT
350
52A5
  3
LWETCUNION
350
52A8
  3
PLOTSETDICT
350
52A6
  3
PLOTSTYLNAMDICT
350
52A7
  3
PSVPSCALE
350
52AD
  3
PUCSBASE
350
52B1
  3
PUCSORGBACK
350
52B7
  3
PUCSORGBOTTOM
350
52B3
  3
PUCSORGFRONT
350
52B6
  3
PUCSORGLEFT
350
52B4
  3
PUCSORGRIGHT
350
52B5
  3
PUCSORGTOP
350
52B2
  3
PUCSORTHOREF
350
52AF
  3
PUCSORTHOVIEW
350
52B0
  3
STYLESHEET
350
52A4
  3
TSTACKALIGN
350
52A1
  3
TSTACKSIZE
350
52A2
  3
UCSBASE
350
52BA
  3
UCSORGBACK
350
52C0
  3
UCSORGBOTTOM
350
52BC
  3
UCSORGFRONT
350
52BF
  3
UCSORGLEFT
350
52BD
  3
UCSORGRIGHT
350
52BE
  3
UCSORGTOP
350
52BB
  3
UCSORTHOREF
350
52B8
  3
UCSORTHOVIEW
350
52B9
  3
VERSIONGUID
350
52AC
  0
DICTIONARY
  5
5E
102
{ACAD_REACTORS
330
C
102
}
330
C
100
AcDbDictionary
  3
DIMASSOC
350
5F
  3
HIDETEXT
350
63
  0
DICTIONARY
  5
AD
102
{ACAD_REACTORS
330
AC
102
}
330
AC
100
AcDbDictionary
280
     1
  3
0
360
AE
  3
R1ク_ラ_
360
AF
  3
R2ク_ラ_
360
B0
  0
DICTIONARY
  5
C0
102
{ACAD_REACTORS
330
AC
102
}
330
AC
100
AcDbDictionary
  0
XRECORD
  5
52C1
102
{ACAD_REACTORS
330
2892
102
}
330
2892
100
AcDbXrecord
340
1F
  0
XRECORD
  5
52C3
102
{ACAD_REACTORS
330
2894
102
}
330
2894
100
AcDbXrecord
340
55
  0
GROUP
  5
3B44
102
{ACAD_REACTORS
330
D
102
}
330
D
100
AcDbGroup
300

 70
     1
 71
     1
  0
GROUP
  5
3B45
102
{ACAD_REACTORS
330
D
102
}
330
D
100
AcDbGroup
300

 70
     3
 71
     1
  0
GROUP
  5
3B46
102
{ACAD_REACTORS
330
D
102
}
330
D
100
AcDbGroup
300

 70
     1
 71
     1
  0
GROUP
  5
3B47
102
{ACAD_REACTORS
330
D
102
}
330
D
100
AcDbGroup
300

 70
     1
 71
     1
  0
GROUP
  5
4C59
102
{ACAD_REACTORS
330
D
102
}
330
D
100
AcDbGroup
300

 70
     1
 71
     1
  0
MLINESTYLE
  5
18
102
{ACAD_REACTORS
330
17
102
}
330
17
100
AcDbMlineStyle
  2
STANDARD
 70
     0
  3

 62
   256
 51
90.0
 52
90.0
 71
     2
 49
0.5
 62
   256
  6
BYLAYER
 49
-0.5
 62
   256
  6
BYLAYER
  0
ACDBPLACEHOLDER
  5
F
102
{ACAD_REACTORS
330
E
102
}
330
E
100
AcDbPlaceHolder
280
     0
  0
XRECORD
  5
52AA
102
{ACAD_REACTORS
330
52A0
102
}
330
52A0
100
AcDbXrecord
 90
        0
  0
XRECORD
  5
52AE
102
{ACAD_REACTORS
330
52A0
102
}
330
52A0
100
AcDbXrecord
1000
DSTYLE
1002
{
1070
   278
 70
    44
1002
}
  0
XRECORD
  5
52AB
102
{ACAD_REACTORS
330
52A0
102
}
330
52A0
100
AcDbXrecord
  1
{FDEAD578-A652-11D2-9A35-0060089B3A3F}
  0
XRECORD
  5
52A3
102
{ACAD_REACTORS
330
52A0
102
}
330
52A0
100
AcDbXrecord
  1

  0
XRECORD
  5
52A9
102
{ACAD_REACTORS
330
52A0
102
}
330
52A0
100
AcDbXrecord
 90
        4
  0
XRECORD
  5
52A5
102
{ACAD_REACTORS
330
52A0
102
}
330
52A0
100
AcDbXrecord
340
1A
  0
XRECORD
  5
52A8
102
{ACAD_REACTORS
330
52A0
102
}
330
52A0
100
AcDbXrecord
 90
    10781
  0
XRECORD
  5
52A6
102
{ACAD_REACTORS
330
52A0
102
}
330
52A0
100
AcDbXrecord
340
19
  0
XRECORD
  5
52A7
102
{ACAD_REACTORS
330
52A0
102
}
330
52A0
100
AcDbXrecord
340
E
  0
XRECORD
  5
52AD
102
{ACAD_REACTORS
330
52A0
102
}
330
52A0
100
AcDbXrecord
 40
0.0
  0
XRECORD
  5
52B1
102
{ACAD_REACTORS
330
52A0
102
}
330
52A0
100
AcDbXrecord
340
0
  0
XRECORD
  5
52B7
102
{ACAD_REACTORS
330
52A0
102
}
330
52A0
100
AcDbXrecord
 10
0.0
 20
0.0
 30
0.0
  0
XRECORD
  5
52B3
102
{ACAD_REACTORS
330
52A0
102
}
330
52A0
100
AcDbXrecord
 10
0.0
 20
0.0
 30
0.0
  0
XRECORD
  5
52B6
102
{ACAD_REACTORS
330
52A0
102
}
330
52A0
100
AcDbXrecord
 10
0.0
 20
0.0
 30
0.0
  0
XRECORD
  5
52B4
102
{ACAD_REACTORS
330
52A0
102
}
330
52A0
100
AcDbXrecord
 10
0.0
 20
0.0
 30
0.0
  0
XRECORD
  5
52B5
102
{ACAD_REACTORS
330
52A0
102
}
330
52A0
100
AcDbXrecord
 10
0.0
 20
0.0
 30
0.0
  0
XRECORD
  5
52B2
102
{ACAD_REACTORS
330
52A0
102
}
330
52A0
100
AcDbXrecord
 10
0.0
 20
0.0
 30
0.0
  0
XRECORD
  5
52AF
102
{ACAD_REACTORS
330
52A0
102
}
330
52A0
100
AcDbXrecord
340
0
  0
XRECORD
  5
52B0
102
{ACAD_REACTORS
330
52A0
102
}
330
52A0
100
AcDbXrecord
 70
     0
  0
XRECORD
  5
52A4
102
{ACAD_REACTORS
330
52A0
102
}
330
52A0
100
AcDbXrecord
  1

  0
XRECORD
  5
52A1
102
{ACAD_REACTORS
330
52A0
102
}
330
52A0
100
AcDbXrecord
 90
        1
  0
XRECORD
  5
52A2
102
{ACAD_REACTORS
330
52A0
102
}
330
52A0
100
AcDbXrecord
 90
       70
  0
XRECORD
  5
52BA
102
{ACAD_REACTORS
330
52A0
102
}
330
52A0
100
AcDbXrecord
340
0
  0
XRECORD
  5
52C0
102
{ACAD_REACTORS
330
52A0
102
}
330
52A0
100
AcDbXrecord
 10
0.0
 20
0.0
 30
0.0
  0
XRECORD
  5
52BC
102
{ACAD_REACTORS
330
52A0
102
}
330
52A0
100
AcDbXrecord
 10
0.0
 20
0.0
 30
0.0
  0
XRECORD
  5
52BF
102
{ACAD_REACTORS
330
52A0
102
}
330
52A0
100
AcDbXrecord
 10
0.0
 20
0.0
 30
0.0
  0
XRECORD
  5
52BD
102
{ACAD_REACTORS
330
52A0
102
}
330
52A0
100
AcDbXrecord
 10
0.0
 20
0.0
 30
0.0
  0
XRECORD
  5
52BE
102
{ACAD_REACTORS
330
52A0
102
}
330
52A0
100
AcDbXrecord
 10
0.0
 20
0.0
 30
0.0
  0
XRECORD
  5
52BB
102
{ACAD_REACTORS
330
52A0
102
}
330
52A0
100
AcDbXrecord
 10
0.0
 20
0.0
 30
0.0
  0
XRECORD
  5
52B8
102
{ACAD_REACTORS
330
52A0
102
}
330
52A0
100
AcDbXrecord
340
0
  0
XRECORD
  5
52B9
102
{ACAD_REACTORS
330
52A0
102
}
330
52A0
100
AcDbXrecord
 70
     0
  0
XRECORD
  5
52AC
102
{ACAD_REACTORS
330
52A0
102
}
330
52A0
100
AcDbXrecord
  1
{66E94546-4008-4C25-B490-8283FB1EC5FA}
  0
DICTIONARYVAR
  5
5F
102
{ACAD_REACTORS
330
5E
102
}
330
5E
100
DictionaryVariables
280
     0
  1
2
  0
DICTIONARYVAR
  5
63
102
{ACAD_REACTORS
330
5E
102
}
330
5E
100
DictionaryVariables
280
     0
  1
1
  0
XRECORD
  5
AE
102
{ACAD_REACTORS
330
AD
102
}
330
AD
100
AcDbXrecord
  1
0
  1
0*
  1
*
  1
*
 70
     0
  1
*
  1
*
  0
XRECORD
  5
AF
102
{ACAD_REACTORS
330
AD
102
}
330
AD
100
AcDbXrecord
  1
R1クーラー
  1
0-1（R1クーラー*）
  1
*
  1
*
 70
     0
  1
*
  1
*
  0
XRECORD
  5
B0
102
{ACAD_REACTORS
330
AD
102
}
330
AD
100
AcDbXrecord
  1
R2クーラー
  1
0-1（R2クーラー*）
  1
*
  1
*
 70
     0
  1
*
  1
*
  0
ENDSEC
  0
EOF
