  0
SECTION
  2
HEADER
  9
$ACADVER
  1
AC1014
  9
$ACADMAINTVER
 70
     9
  9
$DWGCODEPAGE
  3
ANSI_932
  9
$INSBASE
 10
0.0
 20
0.0
 30
0.0
  9
$EXTMIN
 10
277.5021684255589
 20
230.601003296284
 30
0.0
  9
$EXTMAX
 10
1009.671547696488
 20
580.601003296284
 30
0.0
  9
$LIMMIN
 10
0.0
 20
0.0
  9
$LIMMAX
 10
420.0
 20
297.0
  9
$ORTHOMODE
 70
     0
  9
$REGENMODE
 70
     1
  9
$FILLMODE
 70
     1
  9
$QTEXTMODE
 70
     0
  9
$MIRRTEXT
 70
     1
  9
$DRAGMODE
 70
     2
  9
$LTSCALE
 40
1.0
  9
$OSMODE
 70
  3071
  9
$ATTMODE
 70
     1
  9
$TEXTSIZE
 40
2.5
  9
$TRACEWID
 40
1.0
  9
$TEXTSTYLE
  7
STANDARD
  9
$CLAYER
  8
0
  9
$CELTYPE
  6
BYLAYER
  9
$CECOLOR
 62
   256
  9
$CELTSCALE
 40
1.0
  9
$DELOBJ
 70
     1
  9
$DISPSILH
 70
     0
  9
$DIMSCALE
 40
1.0
  9
$DIMASZ
 40
2.5
  9
$DIMEXO
 40
0.625
  9
$DIMDLI
 40
3.75
  9
$DIMRND
 40
0.0
  9
$DIMDLE
 40
0.0
  9
$DIMEXE
 40
1.25
  9
$DIMTP
 40
0.0
  9
$DIMTM
 40
0.0
  9
$DIMTXT
 40
2.5
  9
$DIMCEN
 40
2.5
  9
$DIMTSZ
 40
0.0
  9
$DIMTOL
 70
     0
  9
$DIMLIM
 70
     0
  9
$DIMTIH
 70
     0
  9
$DIMTOH
 70
     0
  9
$DIMSE1
 70
     0
  9
$DIMSE2
 70
     0
  9
$DIMTAD
 70
     1
  9
$DIMZIN
 70
     8
  9
$DIMBLK
  1

  9
$DIMASO
 70
     1
  9
$DIMSHO
 70
     1
  9
$DIMPOST
  1

  9
$DIMAPOST
  1

  9
$DIMALT
 70
     0
  9
$DIMALTD
 70
     3
  9
$DIMALTF
 40
0.03937007874016
  9
$DIMLFAC
 40
1.0
  9
$DIMTOFL
 70
     1
  9
$DIMTVP
 40
0.0
  9
$DIMTIX
 70
     0
  9
$DIMSOXD
 70
     0
  9
$DIMSAH
 70
     0
  9
$DIMBLK1
  1

  9
$DIMBLK2
  1

  9
$DIMSTYLE
  2
ISO-25
  9
$DIMCLRD
 70
     0
  9
$DIMCLRE
 70
     0
  9
$DIMCLRT
 70
     0
  9
$DIMTFAC
 40
1.0
  9
$DIMGAP
 40
0.625
  9
$DIMJUST
 70
     0
  9
$DIMSD1
 70
     0
  9
$DIMSD2
 70
     0
  9
$DIMTOLJ
 70
     0
  9
$DIMTZIN
 70
     8
  9
$DIMALTZ
 70
     0
  9
$DIMALTTZ
 70
     0
  9
$DIMFIT
 70
     3
  9
$DIMUPT
 70
     0
  9
$DIMUNIT
 70
     2
  9
$DIMDEC
 70
     2
  9
$DIMTDEC
 70
     2
  9
$DIMALTU
 70
     2
  9
$DIMALTTD
 70
     3
  9
$DIMTXSTY
  7
STANDARD
  9
$DIMAUNIT
 70
     0
  9
$LUNITS
 70
     2
  9
$LUPREC
 70
     4
  9
$SKETCHINC
 40
1.0
  9
$FILLETRAD
 40
10.0
  9
$AUNITS
 70
     0
  9
$AUPREC
 70
     0
  9
$MENU
  1
.
  9
$ELEVATION
 40
0.0
  9
$PELEVATION
 40
0.0
  9
$THICKNESS
 40
0.0
  9
$LIMCHECK
 70
     0
  9
$BLIPMODE
 70
     0
  9
$CHAMFERA
 40
10.0
  9
$CHAMFERB
 40
10.0
  9
$CHAMFERC
 40
20.0
  9
$CHAMFERD
 40
0.0
  9
$SKPOLY
 70
     0
  9
$TDCREATE
 40
2455716.570724826
  9
$TDUPDATE
 40
2455796.755212488
  9
$TDINDWG
 40
0.0496602199
  9
$TDUSRTIMER
 40
0.0496602199
  9
$USRTIMER
 70
     1
  9
$ANGBASE
 50
0.0
  9
$ANGDIR
 70
     0
  9
$PDMODE
 70
     0
  9
$PDSIZE
 40
0.0
  9
$PLINEWID
 40
0.0
  9
$COORDS
 70
     2
  9
$SPLFRAME
 70
     0
  9
$SPLINETYPE
 70
     6
  9
$SPLINESEGS
 70
     8
  9
$ATTDIA
 70
     0
  9
$ATTREQ
 70
     1
  9
$HANDLING
 70
 22529
  9
$HANDSEED
  5
5C50
  9
$SURFTAB1
 70
     6
  9
$SURFTAB2
 70
     6
  9
$SURFTYPE
 70
     6
  9
$SURFU
 70
     6
  9
$SURFV
 70
     6
  9
$UCSNAME
  2

  9
$UCSORG
 10
0.0
 20
0.0
 30
0.0
  9
$UCSXDIR
 10
1.0
 20
0.0
 30
0.0
  9
$UCSYDIR
 10
0.0
 20
1.0
 30
0.0
  9
$PUCSNAME
  2

  9
$PUCSORG
 10
0.0
 20
0.0
 30
0.0
  9
$PUCSXDIR
 10
1.0
 20
0.0
 30
0.0
  9
$PUCSYDIR
 10
0.0
 20
1.0
 30
0.0
  9
$USERI1
 70
     0
  9
$USERI2
 70
     0
  9
$USERI3
 70
     0
  9
$USERI4
 70
     0
  9
$USERI5
 70
     0
  9
$USERR1
 40
0.0
  9
$USERR2
 40
0.0
  9
$USERR3
 40
0.0
  9
$USERR4
 40
0.0
  9
$USERR5
 40
0.0
  9
$WORLDVIEW
 70
     1
  9
$SHADEDGE
 70
     3
  9
$SHADEDIF
 70
    70
  9
$TILEMODE
 70
     1
  9
$MAXACTVP
 70
    48
  9
$PINSBASE
 10
0.0
 20
0.0
 30
0.0
  9
$PLIMCHECK
 70
     0
  9
$PEXTMIN
 10
26.66076962115562
 20
20.31135699206657
 30
-0.0015258207003583
  9
$PEXTMAX
 10
240.039213369355
 20
182.8886381005154
 30
0.0000000349246037
  9
$PLIMMIN
 10
-6.350006103515625
 20
-6.349999904632568
  9
$PLIMMAX
 10
273.0499877929687
 20
209.5499939918517
  9
$UNITMODE
 70
     0
  9
$VISRETAIN
 70
     1
  9
$PLINEGEN
 70
     0
  9
$PSLTSCALE
 70
     1
  9
$TREEDEPTH
 70
  3020
  9
$PICKSTYLE
 70
     0
  9
$CMLSTYLE
  2
STANDARD
  9
$CMLJUST
 70
     0
  9
$CMLSCALE
 40
20.0
  9
$PROXYGRAPHICS
 70
     1
  9
$MEASUREMENT
 70
     1
  0
ENDSEC
  0
SECTION
  2
CLASSES
  0
CLASS
  1
ACDBDICTIONARYWDFLT
  2
AcDbDictionaryWithDefault
  3
AutoCAD 2000
 90
        0
280
     0
281
     0
  0
CLASS
  1
ACDBPLACEHOLDER
  2
AcDbPlaceHolder
  3
AutoCAD 2000
 90
        0
280
     0
281
     0
  0
CLASS
  1
LAYOUT
  2
AcDbLayout
  3
AutoCAD 2000
 90
        0
280
     0
281
     0
  0
CLASS
  1
DICTIONARYVAR
  2
AcDbDictionaryVar
  3
AutoCAD 2000
 90
        0
280
     0
281
     0
  0
CLASS
  1
LONG_TRANSACTION
  2
AcDbLongTransaction
  3
AutoCAD 2000
 90
        0
280
     0
281
     0
  0
CLASS
  1
LWPOLYLINE
  2
AcDbPolyline
  3
AutoCAD 2000
 90
        0
280
     0
281
     1
  0
CLASS
  1
HATCH
  2
AcDbHatch
  3
AutoCAD 2000
 90
        0
280
     0
281
     1
  0
CLASS
  1
XRECORD
  2
AcDbXrecord
  3
AutoCAD 2000
 90
        0
280
     0
281
     0
  0
CLASS
  1
LONG_TRANSACTION
  2
AcDbLongTransaction
  3
AutoCAD 2000
 90
        0
280
     0
281
     0
  0
CLASS
  1
LWPOLYLINE
  2
AcDbPolyline
  3
AutoCAD 2000
 90
        0
280
     0
281
     1
  0
CLASS
  1
HATCH
  2
AcDbHatch
  3
AutoCAD 2000
 90
        0
280
     0
281
     1
  0
CLASS
  1
XRECORD
  2
AcDbXrecord
  3
AutoCAD 2000
 90
        0
280
     0
281
     0
  0
CLASS
  1
LONG_TRANSACTION
  2
AcDbLongTransaction
  3
AutoCAD 2000
 90
        0
280
     0
281
     0
  0
CLASS
  1
LWPOLYLINE
  2
AcDbPolyline
  3
AutoCAD 2000
 90
        0
280
     0
281
     1
  0
CLASS
  1
HATCH
  2
AcDbHatch
  3
AutoCAD 2000
 90
        0
280
     0
281
     1
  0
CLASS
  1
XRECORD
  2
AcDbXrecord
  3
AutoCAD 2000
 90
        0
280
     0
281
     0
  0
CLASS
  1
LONG_TRANSACTION
  2
AcDbLongTransaction
  3
AutoCAD 2000
 90
        0
280
     0
281
     0
  0
CLASS
  1
LWPOLYLINE
  2
AcDbPolyline
  3
AutoCAD 2000
 90
        0
280
     0
281
     1
  0
CLASS
  1
HATCH
  2
AcDbHatch
  3
AutoCAD 2000
 90
        0
280
     0
281
     1
  0
CLASS
  1
XRECORD
  2
AcDbXrecord
  3
AutoCAD 2000
 90
        0
280
     0
281
     0
  0
CLASS
  1
DIMASSOC
  2
AcDbDimAssoc
  3
"AcDbDimAssoc|Product Desc:     AcDim ARX App For Dimension|Company:          Autodesk, Inc.|WEB Address:      www.autodesk.com"
 90
        0
280
     0
281
     0
  0
CLASS
  1
LONG_TRANSACTION
  2
AcDbLongTransaction
  3
AutoCAD 2000
 90
        0
280
     0
281
     0
  0
CLASS
  1
LWPOLYLINE
  2
AcDbPolyline
  3
AutoCAD 2000
 90
        0
280
     0
281
     1
  0
CLASS
  1
HATCH
  2
AcDbHatch
  3
AutoCAD 2000
 90
        0
280
     0
281
     1
  0
CLASS
  1
XRECORD
  2
AcDbXrecord
  3
AutoCAD 2000
 90
        0
280
     0
281
     0
  0
CLASS
  1
IDBUFFER
  2
AcDbIdBuffer
  3
AutoCAD 2000
 90
        0
280
     0
281
     0
  0
CLASS
  1
LONG_TRANSACTION
  2
AcDbLongTransaction
  3
AutoCAD 2000
 90
        0
280
     0
281
     0
  0
CLASS
  1
LWPOLYLINE
  2
AcDbPolyline
  3
AutoCAD 2000
 90
        0
280
     0
281
     1
  0
CLASS
  1
HATCH
  2
AcDbHatch
  3
AutoCAD 2000
 90
        0
280
     0
281
     1
  0
CLASS
  1
XRECORD
  2
AcDbXrecord
  3
AutoCAD 2000
 90
        0
280
     0
281
     0
  0
CLASS
  1
LONG_TRANSACTION
  2
AcDbLongTransaction
  3
AutoCAD 2000
 90
        0
280
     0
281
     0
  0
CLASS
  1
LWPOLYLINE
  2
AcDbPolyline
  3
AutoCAD 2000
 90
        0
280
     0
281
     1
  0
CLASS
  1
HATCH
  2
AcDbHatch
  3
AutoCAD 2000
 90
        0
280
     0
281
     1
  0
CLASS
  1
XRECORD
  2
AcDbXrecord
  3
AutoCAD 2000
 90
        0
280
     0
281
     0
  0
CLASS
  1
LONG_TRANSACTION
  2
AcDbLongTransaction
  3
AutoCAD 2000
 90
        0
280
     0
281
     0
  0
CLASS
  1
LWPOLYLINE
  2
AcDbPolyline
  3
AutoCAD 2000
 90
        0
280
     0
281
     1
  0
CLASS
  1
HATCH
  2
AcDbHatch
  3
AutoCAD 2000
 90
        0
280
     0
281
     1
  0
CLASS
  1
XRECORD
  2
AcDbXrecord
  3
AutoCAD 2000
 90
        0
280
     0
281
     0
  0
CLASS
  1
LONG_TRANSACTION
  2
AcDbLongTransaction
  3
AutoCAD 2000
 90
        0
280
     0
281
     0
  0
CLASS
  1
LWPOLYLINE
  2
AcDbPolyline
  3
AutoCAD 2000
 90
        0
280
     0
281
     1
  0
CLASS
  1
HATCH
  2
AcDbHatch
  3
AutoCAD 2000
 90
        0
280
     0
281
     1
  0
CLASS
  1
XRECORD
  2
AcDbXrecord
  3
AutoCAD 2000
 90
        0
280
     0
281
     0
  0
CLASS
  1
LONG_TRANSACTION
  2
AcDbLongTransaction
  3
AutoCAD 2000
 90
        0
280
     0
281
     0
  0
CLASS
  1
LWPOLYLINE
  2
AcDbPolyline
  3
AutoCAD 2000
 90
        0
280
     0
281
     1
  0
CLASS
  1
HATCH
  2
AcDbHatch
  3
AutoCAD 2000
 90
        0
280
     0
281
     1
  0
CLASS
  1
XRECORD
  2
AcDbXrecord
  3
AutoCAD 2000
 90
        0
280
     0
281
     0
  0
CLASS
  1
LONG_TRANSACTION
  2
AcDbLongTransaction
  3
AutoCAD 2000
 90
        0
280
     0
281
     0
  0
CLASS
  1
LWPOLYLINE
  2
AcDbPolyline
  3
AutoCAD 2000
 90
        0
280
     0
281
     1
  0
CLASS
  1
HATCH
  2
AcDbHatch
  3
AutoCAD 2000
 90
        0
280
     0
281
     1
  0
CLASS
  1
XRECORD
  2
AcDbXrecord
  3
AutoCAD 2000
 90
        0
280
     0
281
     0
  0
CLASS
  1
LONG_TRANSACTION
  2
AcDbLongTransaction
  3
AutoCAD 2000
 90
        0
280
     0
281
     0
  0
CLASS
  1
LWPOLYLINE
  2
AcDbPolyline
  3
AutoCAD 2000
 90
        0
280
     0
281
     1
  0
CLASS
  1
HATCH
  2
AcDbHatch
  3
AutoCAD 2000
 90
        0
280
     0
281
     1
  0
CLASS
  1
XRECORD
  2
AcDbXrecord
  3
AutoCAD 2000
 90
        0
280
     0
281
     0
  0
CLASS
  1
LONG_TRANSACTION
  2
AcDbLongTransaction
  3
AutoCAD 2000
 90
        0
280
     0
281
     0
  0
CLASS
  1
LWPOLYLINE
  2
AcDbPolyline
  3
AutoCAD 2000
 90
        0
280
     0
281
     1
  0
CLASS
  1
HATCH
  2
AcDbHatch
  3
AutoCAD 2000
 90
        0
280
     0
281
     1
  0
CLASS
  1
XRECORD
  2
AcDbXrecord
  3
AutoCAD 2000
 90
        0
280
     0
281
     0
  0
ENDSEC
  0
SECTION
  2
TABLES
  0
TABLE
  2
VPORT
  5
8
330
0
100
AcDbSymbolTable
 70
     2
  0
VPORT
  5
5C2B
330
8
100
AcDbSymbolTableRecord
100
AcDbViewportTableRecord
  2
*ACTIVE
 70
     0
 10
0.0
 20
0.0
 11
1.0
 21
1.0
 12
643.586834462508
 22
405.6120851800795
 13
0.0
 23
0.0
 14
10.0
 24
10.0
 15
10.0
 25
10.0
 16
0.0
 26
0.0
 36
1.0
 17
0.0
 27
0.0
 37
0.0
 40
468.5907188564947
 41
1.568930041152263
 42
50.0
 43
0.0
 44
0.0
 50
0.0
 51
0.0
 71
     0
 72
   100
 73
     1
 74
     3
 75
     0
 76
     0
 77
     0
 78
     0
  0
ENDTAB
  0
TABLE
  2
LTYPE
  5
5
330
0
100
AcDbSymbolTable
 70
     4
  0
LTYPE
  5
14
330
5
100
AcDbSymbolTableRecord
100
AcDbLinetypeTableRecord
  2
BYBLOCK
 70
     0
  3

 72
    65
 73
     0
 40
0.0
  0
LTYPE
  5
15
330
5
100
AcDbSymbolTableRecord
100
AcDbLinetypeTableRecord
  2
BYLAYER
 70
     0
  3

 72
    65
 73
     0
 40
0.0
  0
LTYPE
  5
16
330
5
100
AcDbSymbolTableRecord
100
AcDbLinetypeTableRecord
  2
CONTINUOUS
 70
     0
  3
Solid line
 72
    65
 73
     0
 40
0.0
  0
LTYPE
  5
97
330
5
100
AcDbSymbolTableRecord
100
AcDbLinetypeTableRecord
  2
CENTERX2
 70
     0
  3
Center (2x) ________  __  ________  __  _____
 72
    65
 73
     4
 40
101.6
 49
63.5
 74
     0
 49
-12.7
 74
     0
 49
12.7
 74
     0
 49
-12.7
 74
     0
  0
LTYPE
  5
9D
330
5
100
AcDbSymbolTableRecord
100
AcDbLinetypeTableRecord
  2
PHANTOMX2
 70
     0
  3
Phantom (2x) ____________    ____    ____   _
 72
    65
 73
     6
 40
127.0
 49
63.5
 74
     0
 49
-12.7
 74
     0
 49
12.7
 74
     0
 49
-12.7
 74
     0
 49
12.7
 74
     0
 49
-12.7
 74
     0
  0
LTYPE
  5
3B25
330
5
100
AcDbSymbolTableRecord
100
AcDbLinetypeTableRecord
  2
CENTER
 70
     0
  3
Center ____ _ ____ _ ____ _ ____ _ ____ _ ____
 72
    65
 73
     4
 40
2.0
 49
1.25
 74
     0
 49
-0.25
 74
     0
 49
0.25
 74
     0
 49
-0.25
 74
     0
  0
ENDTAB
  0
TABLE
  2
LAYER
  5
2
102
{ACAD_XDICTIONARY
360
AC
102
}
330
0
100
AcDbSymbolTable
 70
     9
  0
LAYER
  5
10
330
2
100
AcDbSymbolTableRecord
100
AcDbLayerTableRecord
  2
0
 70
     0
 62
     7
  6
CONTINUOUS
  0
LAYER
  5
86
330
2
100
AcDbSymbolTableRecord
100
AcDbLayerTableRecord
  2
DEFPOINTS
 70
     0
 62
     7
  6
CONTINUOUS
  0
LAYER
  5
87
330
2
100
AcDbSymbolTableRecord
100
AcDbLayerTableRecord
  2
10
 70
     0
 62
     4
  6
CONTINUOUS
  0
LAYER
  5
8D
330
2
100
AcDbSymbolTableRecord
100
AcDbLayerTableRecord
  2
11
 70
     0
 62
     7
  6
CONTINUOUS
  0
LAYER
  5
92
330
2
100
AcDbSymbolTableRecord
100
AcDbLayerTableRecord
  2
12
 70
     0
 62
     3
  6
CONTINUOUS
  0
LAYER
  5
98
330
2
100
AcDbSymbolTableRecord
100
AcDbLayerTableRecord
  2
16
 70
     0
 62
     4
  6
CENTERX2
  0
LAYER
  5
9E
330
2
100
AcDbSymbolTableRecord
100
AcDbLayerTableRecord
  2
18
 70
     0
 62
     1
  6
PHANTOMX2
  0
LAYER
  5
A3
330
2
100
AcDbSymbolTableRecord
100
AcDbLayerTableRecord
  2
19
 70
     0
 62
     7
  6
CONTINUOUS
  0
LAYER
  5
28E1
330
2
100
AcDbSymbolTableRecord
100
AcDbLayerTableRecord
  2
17
 70
     0
 62
     2
  6
CENTERX2
  0
ENDTAB
  0
TABLE
  2
STYLE
  5
3
330
0
100
AcDbSymbolTable
 70
     2
  0
STYLE
  5
11
330
3
100
AcDbSymbolTableRecord
100
AcDbTextStyleTableRecord
  2
STANDARD
 70
     0
 40
0.0
 41
1.0
 50
0.0
 71
     0
 42
2.5
  3
txt
  4

  0
STYLE
  5
BF
330
3
100
AcDbSymbolTableRecord
100
AcDbTextStyleTableRecord
  2
STANDARD1
 70
     0
 40
0.0
 41
0.7
 50
0.0
 71
     0
 42
4.0
  3
romans.shx
  4
extfont.shx
  0
ENDTAB
  0
TABLE
  2
VIEW
  5
6
330
0
100
AcDbSymbolTable
 70
     0
  0
ENDTAB
  0
TABLE
  2
UCS
  5
7
330
0
100
AcDbSymbolTable
 70
     0
  0
ENDTAB
  0
TABLE
  2
APPID
  5
9
330
0
100
AcDbSymbolTable
 70
     5
  0
APPID
  5
12
330
9
100
AcDbSymbolTableRecord
100
AcDbRegAppTableRecord
  2
ACAD
 70
     0
  0
APPID
  5
3B40
330
9
100
AcDbSymbolTableRecord
100
AcDbRegAppTableRecord
  2
CONTENTTABDATA
 70
     0
  0
APPID
  5
3B41
330
9
100
AcDbSymbolTableRecord
100
AcDbRegAppTableRecord
  2
CONTENTCURRENTTAB
 70
     0
  0
APPID
  5
3B42
330
9
100
AcDbSymbolTableRecord
100
AcDbRegAppTableRecord
  2
CONTENTBLOCKICON
 70
     0
  0
APPID
  5
3B43
330
9
100
AcDbSymbolTableRecord
100
AcDbRegAppTableRecord
  2
CONTENTBLOCKDESCRIPTION
 70
     0
  0
ENDTAB
  0
TABLE
  2
DIMSTYLE
  5
A
330
0
100
AcDbSymbolTable
 70
     2
  0
DIMSTYLE
105
27
330
A
100
AcDbSymbolTableRecord
100
AcDbDimStyleTableRecord
  2
ISO-25
 70
     0
  3

  4

  5

  6

  7

 40
1.0
 41
2.5
 42
0.625
 43
3.75
 44
1.25
 45
0.0
 46
0.0
 47
0.0
 48
0.0
140
2.5
141
2.5
142
0.0
143
0.03937007874016
144
1.0
145
0.0
146
1.0
147
0.625
 71
     0
 72
     0
 73
     0
 74
     0
 75
     0
 76
     0
 77
     1
 78
     8
170
     0
171
     3
172
     1
173
     0
174
     0
175
     0
176
     0
177
     0
178
     0
270
     2
271
     2
272
     2
273
     2
274
     3
340
11
275
     0
280
     0
281
     0
282
     0
283
     0
284
     8
285
     0
286
     0
287
     3
288
     0
  0
DIMSTYLE
105
88
330
A
100
AcDbSymbolTableRecord
100
AcDbDimStyleTableRecord
  2
STANDARD
 70
     0
  3

  4

  5

  6

  7

 40
1.0
 41
0.18
 42
0.0625
 43
0.38
 44
0.18
 45
0.0
 46
0.0
 47
0.0
 48
0.0
140
0.18
141
0.09
142
0.0
143
25.4
144
1.0
145
0.0
146
1.0
147
0.09
 71
     0
 72
     0
 73
     1
 74
     1
 75
     0
 76
     0
 77
     0
 78
     0
170
     0
171
     2
172
     0
173
     0
174
     0
175
     0
176
     0
177
     0
178
     0
270
     2
271
     4
272
     4
273
     2
274
     2
340
11
275
     0
280
     0
281
     0
282
     0
283
     1
284
     0
285
     0
286
     0
287
     3
288
     0
  0
ENDTAB
  0
TABLE
  2
BLOCK_RECORD
  5
1
330
0
100
AcDbSymbolTable
 70
     1
  0
BLOCK_RECORD
  5
1F
102
{ACAD_XDICTIONARY
360
2892
102
}
330
1
100
AcDbSymbolTableRecord
100
AcDbBlockTableRecord
  2
*MODEL_SPACE
  0
BLOCK_RECORD
  5
55
102
{ACAD_XDICTIONARY
360
2894
102
}
330
1
100
AcDbSymbolTableRecord
100
AcDbBlockTableRecord
  2
*PAPER_SPACE
  0
ENDTAB
  0
ENDSEC
  0
SECTION
  2
BLOCKS
  0
BLOCK
  5
20
330
1F
100
AcDbEntity
  8
0
100
AcDbBlockBegin
  2
*MODEL_SPACE
 70
     0
 10
0.0
 20
0.0
 30
0.0
  3
*MODEL_SPACE
  1

  0
ENDBLK
  5
21
330
1F
100
AcDbEntity
  8
0
100
AcDbBlockEnd
  0
BLOCK
  5
57
330
55
100
AcDbEntity
 67
     1
  8
0
100
AcDbBlockBegin
  2
*PAPER_SPACE
 70
     0
 10
0.0
 20
0.0
 30
0.0
  3
*PAPER_SPACE
  1

  0
ENDBLK
  5
58
330
55
100
AcDbEntity
 67
     1
  8
0
100
AcDbBlockEnd
  0
ENDSEC
  0
SECTION
  2
ENTITIES
  0
MTEXT
  5
5245
330
1F
100
AcDbEntity
  8
19
100
AcDbMText
 10
908.5121684255588
 20
238.9899882909579
 30
0.0
 40
10.0
 41
150.0
 71
     4
 72
     5
  1
{\Fromans.shx;FR-E560-7.5K-NA}
  7
STANDARD1
1001
ACAD
1000
MTEXTBEGIN
1070
    73
1070
     1
1070
    44
1040
1.0
1070
    74
1070
     0
1000
MTEXTEND
  0
MTEXT
  5
5246
330
1F
100
AcDbEntity
  8
19
100
AcDbMText
 10
909.4975936340848
 20
276.317087941261
 30
0.0
 40
10.0
 41
150.0
 71
     4
 72
     5
  1
{\Fromans.shx;E56003}
  7
STANDARD1
1001
ACAD
1000
MTEXTBEGIN
1070
    73
1070
     1
1070
    44
1040
1.0
1070
    74
1070
     0
1000
MTEXTEND
  0
LINE
  5
5248
330
1F
100
AcDbEntity
  8
10
100
AcDbLine
 10
327.5021684255589
 20
344.7168435035486
 30
0.0
 11
327.5021684255589
 21
466.4891203227827
 31
0.0
  0
LINE
  5
5249
330
1F
100
AcDbEntity
  8
10
100
AcDbLine
 10
547.5021684255588
 20
331.4029819131657
 30
0.0
 11
547.5021684255588
 21
435.6029819131655
 31
0.0
  0
LINE
  5
524A
330
1F
100
AcDbEntity
  8
10
100
AcDbLine
 10
465.4021684255591
 20
330.6029819131655
 30
0.0
 11
465.4021684255591
 21
373.5029819131656
 31
0.0
  0
LINE
  5
524B
330
1F
100
AcDbEntity
  8
10
100
AcDbLine
 10
465.5021684255589
 20
330.6029819131655
 30
0.0
 11
465.5021684255589
 21
373.6029819131655
 31
0.0
  0
LINE
  5
524C
330
1F
100
AcDbEntity
  8
10
100
AcDbLine
 10
424.6021684255588
 20
373.5029819131656
 30
0.0
 11
424.6021684255588
 21
330.6029819131655
 31
0.0
  0
LINE
  5
524D
330
1F
100
AcDbEntity
  8
10
100
AcDbLine
 10
424.5021684255589
 20
330.6029819131655
 30
0.0
 11
424.5021684255589
 21
373.6029819131655
 31
0.0
  0
LINE
  5
524E
330
1F
100
AcDbEntity
  8
10
100
AcDbLine
 10
407.5021684255589
 20
331.4029819131657
 30
0.0
 11
407.5021684255589
 21
466.4891203227827
 31
0.0
  0
LINE
  5
524F
330
1F
100
AcDbEntity
  8
10
100
AcDbLine
 10
407.3021684255591
 20
330.6029819131655
 30
0.0
 11
407.3021684255591
 21
467.3029819131655
 31
0.0
  0
LINE
  5
5250
330
1F
100
AcDbEntity
  8
10
100
AcDbLine
 10
895.0021684255588
 20
348.601003296284
 30
0.0
 11
895.0021684255588
 21
462.601003296284
 31
0.0
  0
LINE
  5
5251
330
1F
100
AcDbEntity
  8
10
100
AcDbLine
 10
821.5021684255594
 20
364.601003296284
 30
0.0
 11
821.5021684255594
 21
374.601003296284
 31
0.0
  0
LINE
  5
5252
330
1F
100
AcDbEntity
  8
10
100
AcDbLine
 10
814.5021684255592
 20
373.351003296284
 30
0.0
 11
814.5021684255592
 21
365.851003296284
 31
0.0
  0
LINE
  5
5253
330
1F
100
AcDbEntity
  8
10
100
AcDbLine
 10
817.5021684255591
 20
373.351003296284
 30
0.0
 11
817.5021684255591
 21
365.851003296284
 31
0.0
  0
LINE
  5
5254
330
1F
100
AcDbEntity
  8
10
100
AcDbLine
 10
817.502168425559
 20
373.101003296284
 30
0.0
 11
817.502168425559
 21
366.101003296284
 31
0.0
  0
LINE
  5
5255
330
1F
100
AcDbEntity
  8
10
100
AcDbLine
 10
816.5021684255588
 20
373.101003296284
 30
0.0
 11
816.5021684255588
 21
366.101003296284
 31
0.0
  0
LINE
  5
5256
330
1F
100
AcDbEntity
  8
10
100
AcDbLine
 10
815.0021684255589
 20
373.101003296284
 30
0.0
 11
815.0021684255589
 21
366.101003296284
 31
0.0
  0
LINE
  5
5257
330
1F
100
AcDbEntity
  8
10
100
AcDbLine
 10
822.502168425559
 20
330.601003296284
 30
0.0
 11
822.502168425559
 21
480.601003296284
 31
0.0
  0
LINE
  5
5258
330
1F
100
AcDbEntity
  8
10
100
AcDbLine
 10
747.5021684255588
 20
330.601003296284
 30
0.0
 11
747.5021684255588
 21
435.601003296284
 31
0.0
  0
LINE
  5
5259
330
1F
100
AcDbEntity
  8
10
100
AcDbLine
 10
758.5021684255589
 20
435.601003296284
 30
0.0
 11
758.5021684255589
 21
330.601003296284
 31
0.0
  0
LINE
  5
525A
330
1F
100
AcDbEntity
  8
10
100
AcDbLine
 10
759.0021684255591
 20
330.601003296284
 30
0.0
 11
759.0021684255591
 21
480.601003296284
 31
0.0
  0
LINE
  5
525B
330
1F
100
AcDbEntity
  8
10
100
AcDbLine
 10
759.0021684255589
 20
330.601003296284
 30
0.0
 11
759.0021684255589
 21
480.601003296284
 31
0.0
  0
LINE
  5
5260
330
1F
100
AcDbEntity
  8
10
100
AcDbLine
 10
465.5021684255589
 20
330.6029819131655
 30
0.0
 11
546.7021684255587
 21
330.6029819131655
 31
0.0
  0
ARC
  5
5523
330
1F
100
AcDbEntity
  8
10
100
AcDbCircle
 10
408.3021684255591
 20
331.4029819131657
 30
0.0
 40
0.7999999999999541
100
AcDbArc
 50
180.0
 51
270.0
  0
LINE
  5
5524
330
1F
100
AcDbEntity
  8
10
100
AcDbLine
 10
340.3021684255591
 20
330.6029819131655
 30
0.0
 11
408.3021684255591
 21
330.6029819131655
 31
0.0
  0
LINE
  5
5525
330
1F
100
AcDbEntity
  8
12
  6
CENTER
100
AcDbLine
 10
342.0021684255589
 20
336.6029819131655
 30
0.0
 11
325.0021684255589
 21
336.6029819131655
 31
0.0
  0
LINE
  5
5526
330
1F
100
AcDbEntity
  8
12
  6
CENTER
100
AcDbLine
 10
333.5021684255589
 20
345.1029819131655
 30
0.0
 11
333.5021684255589
 21
328.1029819131655
 31
0.0
  0
LINE
  5
5527
330
1F
100
AcDbEntity
  8
10
100
AcDbLine
 10
327.5021684255589
 20
333.1029819131655
 30
0.0
 11
327.5021684255589
 21
344.7168435035486
 31
0.0
  0
ARC
  5
5528
330
1F
100
AcDbEntity
  8
10
100
AcDbCircle
 10
336.5021684255589
 20
338.5856106400555
 30
0.0
 40
3.0
100
AcDbArc
 50
0.0
 51
75.0000000000024
  0
LINE
  5
5529
330
1F
100
AcDbEntity
  8
10
100
AcDbLine
 10
328.5021684255589
 20
332.1029819131655
 30
0.0
 11
330.002168425558
 21
332.1029819131655
 31
0.0
  0
ARC
  5
552A
330
1F
100
AcDbEntity
  8
10
100
AcDbCircle
 10
328.5021684255589
 20
333.1029819131655
 30
0.0
 40
1.0
100
AcDbArc
 50
180.0
 51
270.0
  0
LINE
  5
552B
330
1F
100
AcDbEntity
  8
10
100
AcDbLine
 10
339.5021684255589
 20
331.4029819131657
 30
0.0
 11
339.5021684255589
 21
338.5856106400555
 31
0.0
  0
LINE
  5
552C
330
1F
100
AcDbEntity
  8
10
100
AcDbLine
 10
336.0021684255593
 20
336.6029819131655
 30
0.0
 11
336.0021684255593
 21
331.6029819131655
 31
0.0
  0
LINE
  5
552D
330
1F
100
AcDbEntity
  8
10
100
AcDbLine
 10
331.002168425558
 20
336.6029819131655
 30
0.0
 11
331.002168425558
 21
333.1029819131655
 31
0.0
  0
ARC
  5
552E
330
1F
100
AcDbEntity
  8
10
100
AcDbCircle
 10
330.002168425558
 20
333.1029819131655
 30
0.0
 40
1.0
100
AcDbArc
 50
270.0
 51
0.0
  0
ARC
  5
552F
330
1F
100
AcDbEntity
  8
10
100
AcDbCircle
 10
340.3021684255591
 20
331.4029819131657
 30
0.0
 40
0.7999999999999541
100
AcDbArc
 50
180.0
 51
270.0
  0
POINT
  5
5530
330
1F
100
AcDbEntity
  8
10
100
AcDbPoint
 10
339.5021684255589
 20
330.6029819131655
 30
0.0
  0
ARC
  5
5531
330
1F
100
AcDbEntity
  8
10
100
AcDbCircle
 10
337.0021684255593
 20
331.6029819131655
 30
0.0
 40
1.0
100
AcDbArc
 50
180.0
 51
270.0
  0
LINE
  5
5532
330
1F
100
AcDbEntity
  8
10
100
AcDbLine
 10
337.0021684255593
 20
330.6029819131655
 30
0.0
 11
340.3021684255591
 21
330.6029819131655
 31
0.0
  0
ARC
  5
5533
330
1F
100
AcDbEntity
  8
10
100
AcDbCircle
 10
333.5021684255589
 20
336.6029819131655
 30
0.0
 40
2.5
100
AcDbArc
 50
0.0
 51
180.0
  0
LINE
  5
5534
330
1F
100
AcDbEntity
  8
10
100
AcDbLine
 10
337.2786255608662
 20
341.4833881189228
 30
0.0
 11
328.0951131894771
 21
343.9441028425177
 31
0.0
  0
POINT
  5
5535
330
1F
100
AcDbEntity
  8
10
100
AcDbPoint
 10
327.5021684255589
 20
344.1029819131655
 30
0.0
  0
ARC
  5
5536
330
1F
100
AcDbEntity
  8
10
100
AcDbCircle
 10
328.3021684255591
 20
344.7168435035486
 30
0.0
 40
0.7999999999999541
100
AcDbArc
 50
180.0
 51
255.0000000000102
  0
POINT
  5
5537
330
1F
100
AcDbEntity
  8
10
100
AcDbPoint
 10
407.5021684255589
 20
330.6029819131655
 30
0.0
  0
LINE
  5
5538
330
1F
100
AcDbEntity
  8
10
100
AcDbLine
 10
465.4021684255591
 20
330.6029819131655
 30
0.0
 11
424.6021684255588
 21
330.6029819131655
 31
0.0
  0
LINE
  5
5539
330
1F
100
AcDbEntity
  8
10
100
AcDbLine
 10
459.002168425559
 20
364.6029819131655
 30
0.0
 11
431.0021684255588
 21
364.6029819131655
 31
0.0
  0
LINE
  5
553A
330
1F
100
AcDbEntity
  8
10
100
AcDbLine
 10
431.0021684255588
 20
362.6029819131655
 30
0.0
 11
459.002168425559
 21
362.6029819131655
 31
0.0
  0
LINE
  5
553B
330
1F
100
AcDbEntity
  8
10
100
AcDbLine
 10
459.002168425559
 20
360.6029819131655
 30
0.0
 11
431.0021684255588
 21
360.6029819131655
 31
0.0
  0
LINE
  5
553C
330
1F
100
AcDbEntity
  8
10
100
AcDbLine
 10
431.0021684255588
 20
358.6029819131655
 30
0.0
 11
459.002168425559
 21
358.6029819131655
 31
0.0
  0
LINE
  5
553D
330
1F
100
AcDbEntity
  8
10
100
AcDbLine
 10
459.002168425559
 20
356.6029819131655
 30
0.0
 11
431.0021684255588
 21
356.6029819131655
 31
0.0
  0
LINE
  5
553E
330
1F
100
AcDbEntity
  8
10
100
AcDbLine
 10
431.0021684255588
 20
354.6029819131655
 30
0.0
 11
459.002168425559
 21
354.6029819131655
 31
0.0
  0
LINE
  5
553F
330
1F
100
AcDbEntity
  8
10
100
AcDbLine
 10
408.3021684255591
 20
330.6029819131655
 30
0.0
 11
424.5021684255589
 21
330.6029819131655
 31
0.0
  0
ARC
  5
5540
330
1F
100
AcDbEntity
  8
10
100
AcDbCircle
 10
431.0021684255588
 20
355.6029819131655
 30
0.0
 40
1.0
100
AcDbArc
 50
90.0
 51
270.0
  0
ARC
  5
5541
330
1F
100
AcDbEntity
  8
10
100
AcDbCircle
 10
431.0021684255588
 20
359.6029819131655
 30
0.0
 40
1.0
100
AcDbArc
 50
90.0
 51
270.0
  0
ARC
  5
5542
330
1F
100
AcDbEntity
  8
10
100
AcDbCircle
 10
431.0021684255588
 20
363.6029819131655
 30
0.0
 40
1.0
100
AcDbArc
 50
90.0
 51
270.0
  0
LINE
  5
5543
330
1F
100
AcDbEntity
  8
10
100
AcDbLine
 10
445.0021684255589
 20
367.6029819131655
 30
0.0
 11
443.8474678871799
 21
369.6029819131655
 31
0.0
  0
LINE
  5
5544
330
1F
100
AcDbEntity
  8
10
100
AcDbLine
 10
445.0021684255589
 20
367.6029819131655
 30
0.0
 11
446.156868963938
 21
369.6029819131655
 31
0.0
  0
LINE
  5
5545
330
1F
100
AcDbEntity
  8
10
100
AcDbLine
 10
446.156868963938
 20
369.6029819131655
 30
0.0
 11
443.8474678871799
 21
369.6029819131655
 31
0.0
  0
ARC
  5
5546
330
1F
100
AcDbEntity
  8
10
100
AcDbCircle
 10
459.002168425559
 20
355.6029819131655
 30
0.0
 40
1.0
100
AcDbArc
 50
270.0
 51
90.0
  0
ARC
  5
5547
330
1F
100
AcDbEntity
  8
10
100
AcDbCircle
 10
459.002168425559
 20
359.6029819131655
 30
0.0
 40
1.0
100
AcDbArc
 50
270.0
 51
90.0
  0
ARC
  5
5548
330
1F
100
AcDbEntity
  8
10
100
AcDbCircle
 10
459.002168425559
 20
363.6029819131655
 30
0.0
 40
1.0
100
AcDbArc
 50
270.0
 51
90.0
  0
LINE
  5
55EB
330
1F
100
AcDbEntity
  8
10
100
AcDbLine
 10
759.0021684255591
 20
330.601003296284
 30
0.0
 11
823.0021684255589
 21
330.601003296284
 31
0.0
  0
LINE
  5
55EC
330
1F
100
AcDbEntity
  8
10
100
AcDbLine
 10
759.0021684255591
 20
344.101003296284
 30
0.0
 11
823.0021684255591
 21
344.101003296284
 31
0.0
  0
LINE
  5
55ED
330
1F
100
AcDbEntity
  8
12
  6
CENTER
100
AcDbLine
 10
533.0021684255589
 20
336.6029819131655
 30
0.0
 11
550.0021684255589
 21
336.6029819131655
 31
0.0
  0
ARC
  5
55EE
330
1F
100
AcDbEntity
  8
10
100
AcDbCircle
 10
541.5021684255589
 20
336.6029819131655
 30
0.0
 40
2.5
100
AcDbArc
 50
0.0
 51
180.0
  0
LINE
  5
55EF
330
1F
100
AcDbEntity
  8
12
  6
CENTER
100
AcDbLine
 10
541.5021684255593
 20
345.1029819131655
 30
0.0
 11
541.5021684255593
 21
328.1029819131655
 31
0.0
  0
POINT
  5
55F0
330
1F
100
AcDbEntity
  8
10
100
AcDbPoint
 10
541.5021684255589
 20
330.6029819131655
 30
0.0
  0
LINE
  5
55F1
330
1F
100
AcDbEntity
  8
10
100
AcDbLine
 10
539.0021684255589
 20
336.6029819131655
 30
0.0
 11
539.0021684255589
 21
331.6029819131655
 31
0.0
  0
ARC
  5
55F2
330
1F
100
AcDbEntity
  8
10
100
AcDbCircle
 10
538.0021684255589
 20
331.6029819131655
 30
0.0
 40
1.0
100
AcDbArc
 50
270.0
 51
0.0
  0
POINT
  5
55F3
330
1F
100
AcDbEntity
  8
10
100
AcDbPoint
 10
535.5021684255588
 20
330.6029819131655
 30
0.0
  0
POINT
  5
55F4
330
1F
100
AcDbEntity
  8
10
100
AcDbPoint
 10
539.0021684255584
 20
330.6029819131655
 30
0.0
  0
LINE
  5
55F8
330
1F
100
AcDbEntity
  8
10
100
AcDbLine
 10
544.0021684255598
 20
336.6029819131655
 30
0.0
 11
544.0021684255598
 21
333.1029819131655
 31
0.0
  0
LINE
  5
55F9
330
1F
100
AcDbEntity
  8
10
100
AcDbLine
 10
545.0021684255598
 20
332.1029819131655
 30
0.0
 11
547.5021684255588
 21
332.1029819131655
 31
0.0
  0
ARC
  5
55FA
330
1F
100
AcDbEntity
  8
10
100
AcDbCircle
 10
546.7021684255587
 20
331.4029819131657
 30
0.0
 40
0.8000000000001817
100
AcDbArc
 50
270.0
 51
0.0
  0
ARC
  5
55FB
330
1F
100
AcDbEntity
  8
10
100
AcDbCircle
 10
546.5021684255589
 20
333.1029819131655
 30
0.0
 40
1.0
100
AcDbArc
 50
270.0
 51
0.0
  0
ARC
  5
55FC
330
1F
100
AcDbEntity
  8
10
100
AcDbCircle
 10
545.0021684255598
 20
333.1029819131655
 30
0.0
 40
1.0
100
AcDbArc
 50
180.0
 51
270.0
  0
LINE
  5
55FD
330
1F
100
AcDbEntity
  8
10
100
AcDbLine
 10
546.5021684255589
 20
332.1029819131655
 30
0.0
 11
545.0021684255598
 21
332.1029819131655
 31
0.0
  0
LINE
  5
55FE
330
1F
100
AcDbEntity
  8
10
100
AcDbLine
 10
747.5021684255588
 20
330.601003296284
 30
0.0
 11
758.5021684255589
 21
330.601003296284
 31
0.0
  0
LINE
  5
55FF
330
1F
100
AcDbEntity
  8
10
100
AcDbLine
 10
759.0021684255591
 20
331.8010032962841
 30
0.0
 11
758.5021684255589
 21
331.8010032962841
 31
0.0
  0
LINE
  5
5600
330
1F
100
AcDbEntity
  8
10
100
AcDbLine
 10
759.0021684255591
 20
333.301003296284
 30
0.0
 11
758.5021684255589
 21
333.301003296284
 31
0.0
  0
LINE
  5
5601
330
1F
100
AcDbEntity
  8
10
100
AcDbLine
 10
759.0021684255591
 20
346.601003296284
 30
0.0
 11
758.5021684255589
 21
346.601003296284
 31
0.0
  0
LINE
  5
5602
330
1F
100
AcDbEntity
  8
10
100
AcDbLine
 10
891.9021684255589
 20
336.101003296284
 30
0.0
 11
831.9021715284522
 21
336.101003296284
 31
0.0
  0
LINE
  5
5603
330
1F
100
AcDbEntity
  8
10
100
AcDbLine
 10
891.9021684255589
 20
361.101003296284
 30
0.0
 11
831.9021715284522
 21
361.101003296284
 31
0.0
  0
ARC
  5
5604
330
1F
100
AcDbEntity
  8
10
100
AcDbCircle
 10
848.0021684255589
 20
331.601003296284
 30
0.0
 40
1.0
100
AcDbArc
 50
270.0
 51
0.0
  0
LINE
  5
5605
330
1F
100
AcDbEntity
  8
10
100
AcDbLine
 10
848.0021684255589
 20
330.601003296284
 30
0.0
 11
872.0021684255589
 21
330.601003296284
 31
0.0
  0
LINE
  5
5606
330
1F
100
AcDbEntity
  8
10
100
AcDbLine
 10
875.502168425559
 20
346.6891937473092
 30
0.0
 11
829.0021684255588
 21
346.6891937473092
 31
0.0
  0
LINE
  5
5607
330
1F
100
AcDbEntity
  8
10
100
AcDbLine
 10
817.5021684255591
 20
365.851003296284
 30
0.0
 11
814.5021684255592
 21
365.851003296284
 31
0.0
  0
LINE
  5
5608
330
1F
100
AcDbEntity
  8
10
100
AcDbLine
 10
817.502168425559
 20
366.101003296284
 30
0.0
 11
815.0021684255589
 21
366.101003296284
 31
0.0
  0
LINE
  5
5609
330
1F
100
AcDbEntity
  8
10
100
AcDbLine
 10
831.9021715284522
 20
336.101003296284
 30
0.0
 11
831.9021715284522
 21
361.101003296284
 31
0.0
  0
LINE
  5
560A
330
1F
100
AcDbEntity
  8
10
100
AcDbLine
 10
824.5021684255588
 20
330.601003296284
 30
0.0
 11
824.5021684255588
 21
344.101003296284
 31
0.0
  0
LINE
  5
560B
330
1F
100
AcDbEntity
  8
10
100
AcDbLine
 10
822.5021684255594
 20
330.601003296284
 30
0.0
 11
822.5021684255594
 21
364.601003296284
 31
0.0
  0
LINE
  5
560C
330
1F
100
AcDbEntity
  8
10
100
AcDbLine
 10
826.5021684255589
 20
338.583632023174
 30
0.0
 11
826.5021684255589
 21
359.101003296284
 31
0.0
  0
LINE
  5
560D
330
1F
100
AcDbEntity
  8
10
100
AcDbLine
 10
848.0021684255589
 20
330.601003296284
 30
0.0
 11
822.502168425559
 21
330.601003296284
 31
0.0
  0
LINE
  5
560E
330
1F
100
AcDbEntity
  8
10
100
AcDbLine
 10
829.0021684255588
 20
359.101003296284
 30
0.0
 11
826.5021684255589
 21
359.101003296284
 31
0.0
  0
LINE
  5
560F
330
1F
100
AcDbEntity
  8
10
100
AcDbLine
 10
822.5021684255594
 20
364.601003296284
 30
0.0
 11
821.5021684255594
 21
364.601003296284
 31
0.0
  0
LINE
  5
5610
330
1F
100
AcDbEntity
  8
10
100
AcDbLine
 10
824.5021684255588
 20
343.089104656628
 30
0.0
 11
822.5021684255588
 21
343.089104656628
 31
0.0
  0
LINE
  5
5611
330
1F
100
AcDbEntity
  8
10
100
AcDbLine
 10
822.5021684255588
 20
344.101003296284
 30
0.0
 11
826.5021684255589
 21
344.101003296284
 31
0.0
  0
LINE
  5
5612
330
1F
100
AcDbEntity
  8
10
100
AcDbLine
 10
829.0021684255588
 20
346.6891937473092
 30
0.0
 11
829.0021684255588
 21
359.101003296284
 31
0.0
  0
ARC
  5
5613
330
1F
100
AcDbEntity
  8
10
100
AcDbCircle
 10
876.5021684255589
 20
345.101003296284
 30
0.0
 40
1.0
100
AcDbArc
 50
180.0
 51
270.0
  0
LINE
  5
5614
330
1F
100
AcDbEntity
  8
10
100
AcDbLine
 10
895.5021684255589
 20
330.601003296284
 30
0.0
 11
872.0021684255589
 21
330.601003296284
 31
0.0
  0
LINE
  5
5615
330
1F
100
AcDbEntity
  8
10
100
AcDbLine
 10
875.502168425559
 20
345.101003296284
 30
0.0
 11
875.502168425559
 21
339.583632023174
 31
0.0
  0
LINE
  5
5616
330
1F
100
AcDbEntity
  8
10
100
AcDbLine
 10
866.0021684255589
 20
342.101003296284
 30
0.0
 11
866.0021684255589
 21
339.2010032962841
 31
0.0
  0
LINE
  5
5617
330
1F
100
AcDbEntity
  8
10
100
AcDbLine
 10
867.0021684255589
 20
339.601003296284
 30
0.0
 11
867.0021684255589
 21
341.601003296284
 31
0.0
  0
LINE
  5
5618
330
1F
100
AcDbEntity
  8
10
100
AcDbLine
 10
854.002168425559
 20
342.101003296284
 30
0.0
 11
854.002168425559
 21
339.2010032962841
 31
0.0
  0
LINE
  5
5619
330
1F
100
AcDbEntity
  8
10
100
AcDbLine
 10
853.0021684255588
 20
339.601003296284
 30
0.0
 11
853.0021684255588
 21
341.601003296284
 31
0.0
  0
LINE
  5
561A
330
1F
100
AcDbEntity
  8
10
100
AcDbLine
 10
868.5021684255589
 20
333.1810032962842
 30
0.0
 11
851.5021684255589
 21
333.1810032962842
 31
0.0
  0
LINE
  5
561B
330
1F
100
AcDbEntity
  8
10
100
AcDbLine
 10
868.5021684255589
 20
332.0210032962841
 30
0.0
 11
851.5021684255589
 21
332.0210032962841
 31
0.0
  0
LINE
  5
561C
330
1F
100
AcDbEntity
  8
10
100
AcDbLine
 10
851.5021684255589
 20
333.601003296284
 30
0.0
 11
868.5021684255589
 21
333.601003296284
 31
0.0
  0
LINE
  5
561D
330
1F
100
AcDbEntity
  8
10
100
AcDbLine
 10
868.5021684255589
 20
331.601003296284
 30
0.0
 11
851.5021684255589
 21
331.601003296284
 31
0.0
  0
LINE
  5
561E
330
1F
100
AcDbEntity
  8
10
100
AcDbLine
 10
851.5021684255589
 20
334.601003296284
 30
0.0
 11
868.5021684255589
 21
334.601003296284
 31
0.0
  0
LINE
  5
561F
330
1F
100
AcDbEntity
  8
10
100
AcDbLine
 10
866.8021684255588
 20
339.2010032962841
 30
0.0
 11
853.2021684255589
 21
339.2010032962841
 31
0.0
  0
LINE
  5
5620
330
1F
100
AcDbEntity
  8
10
100
AcDbLine
 10
866.0021684255589
 20
339.2010032962841
 30
0.0
 11
854.002168425559
 21
339.2010032962841
 31
0.0
  0
LINE
  5
5621
330
1F
100
AcDbEntity
  8
10
100
AcDbLine
 10
870.0021684255588
 20
335.101003296284
 30
0.0
 11
850.0021684255589
 21
335.101003296284
 31
0.0
  0
LINE
  5
5622
330
1F
100
AcDbEntity
  8
10
100
AcDbLine
 10
866.502168425559
 20
339.101003296284
 30
0.0
 11
853.5021684255589
 21
339.101003296284
 31
0.0
  0
LINE
  5
5623
330
1F
100
AcDbEntity
  8
10
100
AcDbLine
 10
851.0021684255589
 20
331.101003296284
 30
0.0
 11
851.0021684255589
 21
335.101003296284
 31
0.0
  0
ARC
  5
5624
330
1F
100
AcDbEntity
  8
10
100
AcDbCircle
 10
850.0021684255589
 20
334.101003296284
 30
0.0
 40
1.0
100
AcDbArc
 50
90.0
 51
180.0
  0
ARC
  5
5625
330
1F
100
AcDbEntity
  8
10
100
AcDbCircle
 10
851.5021684255589
 20
334.101003296284
 30
0.0
 40
0.5
100
AcDbArc
 50
180.0
 51
270.0
  0
ARC
  5
5626
330
1F
100
AcDbEntity
  8
10
100
AcDbCircle
 10
851.5021684255589
 20
332.6810032962841
 30
0.0
 40
0.5
100
AcDbArc
 50
90.0
 51
180.0
  0
ARC
  5
5627
330
1F
100
AcDbEntity
  8
10
100
AcDbCircle
 10
851.5021684255589
 20
334.101003296284
 30
0.0
 40
0.5
100
AcDbArc
 50
90.0
 51
180.0
  0
ARC
  5
5628
330
1F
100
AcDbEntity
  8
10
100
AcDbCircle
 10
851.5021684255589
 20
332.5210032962841
 30
0.0
 40
0.5
100
AcDbArc
 50
180.0
 51
270.0
  0
LINE
  5
5629
330
1F
100
AcDbEntity
  8
10
100
AcDbLine
 10
851.0021684255589
 20
332.601003296284
 30
0.0
 11
849.0021684255589
 21
332.601003296284
 31
0.0
  0
ARC
  5
562A
330
1F
100
AcDbEntity
  8
10
100
AcDbCircle
 10
851.5021684255589
 20
331.101003296284
 30
0.0
 40
0.5
100
AcDbArc
 50
90.0
 51
180.0
  0
ARC
  5
562B
330
1F
100
AcDbEntity
  8
10
100
AcDbCircle
 10
851.5021684255589
 20
331.101003296284
 30
0.0
 40
0.5
100
AcDbArc
 50
180.0
 51
270.0
  0
LINE
  5
562C
330
1F
100
AcDbEntity
  8
10
100
AcDbLine
 10
849.0021684255589
 20
331.601003296284
 30
0.0
 11
849.0021684255589
 21
334.101003296284
 31
0.0
  0
ARC
  5
562D
330
1F
100
AcDbEntity
  8
10
100
AcDbCircle
 10
853.5021684255589
 20
339.601003296284
 30
0.0
 40
0.5
100
AcDbArc
 50
180.0
 51
270.0
  0
LINE
  5
562E
330
1F
100
AcDbEntity
  8
10
100
AcDbLine
 10
869.0021684255588
 20
332.601003296284
 30
0.0
 11
871.002168425559
 21
332.601003296284
 31
0.0
  0
ARC
  5
562F
330
1F
100
AcDbEntity
  8
10
100
AcDbCircle
 10
870.0021684255588
 20
334.101003296284
 30
0.0
 40
1.0
100
AcDbArc
 50
0.0
 51
90.0
  0
LINE
  5
5630
330
1F
100
AcDbEntity
  8
10
100
AcDbLine
 10
869.0021684255588
 20
331.101003296284
 30
0.0
 11
869.0021684255588
 21
335.101003296284
 31
0.0
  0
ARC
  5
5631
330
1F
100
AcDbEntity
  8
10
100
AcDbCircle
 10
868.5021684255589
 20
332.6810032962841
 30
0.0
 40
0.5
100
AcDbArc
 50
0.0
 51
90.0
  0
ARC
  5
5632
330
1F
100
AcDbEntity
  8
10
100
AcDbCircle
 10
868.5021684255589
 20
332.5210032962841
 30
0.0
 40
0.5
100
AcDbArc
 50
270.0
 51
0.0
  0
ARC
  5
5633
330
1F
100
AcDbEntity
  8
10
100
AcDbCircle
 10
868.5021684255589
 20
334.101003296284
 30
0.0
 40
0.5
100
AcDbArc
 50
270.0
 51
0.0
  0
ARC
  5
5634
330
1F
100
AcDbEntity
  8
10
100
AcDbCircle
 10
868.5021684255589
 20
331.101003296284
 30
0.0
 40
0.5
100
AcDbArc
 50
0.0
 51
90.0
  0
ARC
  5
5635
330
1F
100
AcDbEntity
  8
10
100
AcDbCircle
 10
868.5021684255589
 20
334.101003296284
 30
0.0
 40
0.5
100
AcDbArc
 50
0.0
 51
90.0
  0
ARC
  5
5636
330
1F
100
AcDbEntity
  8
10
100
AcDbCircle
 10
868.5021684255589
 20
331.101003296284
 30
0.0
 40
0.5
100
AcDbArc
 50
270.0
 51
0.0
  0
ARC
  5
5637
330
1F
100
AcDbEntity
  8
10
100
AcDbCircle
 10
866.502168425559
 20
339.601003296284
 30
0.0
 40
0.5
100
AcDbArc
 50
270.0
 51
0.0
  0
LINE
  5
5638
330
1F
100
AcDbEntity
  8
10
100
AcDbLine
 10
871.002168425559
 20
331.601003296284
 30
0.0
 11
871.002168425559
 21
334.101003296284
 31
0.0
  0
ARC
  5
5639
330
1F
100
AcDbEntity
  8
10
100
AcDbCircle
 10
872.0021684255589
 20
331.601003296284
 30
0.0
 40
1.0
100
AcDbArc
 50
180.0
 51
270.0
  0
LINE
  5
563A
330
1F
100
AcDbEntity
  8
10
100
AcDbLine
 10
866.0021684255589
 20
340.2010032962841
 30
0.0
 11
854.002168425559
 21
340.2010032962841
 31
0.0
  0
LINE
  5
563B
330
1F
100
AcDbEntity
  8
10
100
AcDbLine
 10
866.0021684255589
 20
342.101003296284
 30
0.0
 11
854.002168425559
 21
342.101003296284
 31
0.0
  0
LINE
  5
563C
330
1F
100
AcDbEntity
  8
10
100
AcDbLine
 10
866.502168425559
 20
342.101003296284
 30
0.0
 11
853.5021684255589
 21
342.101003296284
 31
0.0
  0
ARC
  5
563D
330
1F
100
AcDbEntity
  8
10
100
AcDbCircle
 10
853.5021684255589
 20
341.601003296284
 30
0.0
 40
0.5
100
AcDbArc
 50
90.0
 51
180.0
  0
LINE
  5
563E
330
1F
100
AcDbEntity
  8
10
100
AcDbLine
 10
875.502168425559
 20
346.6891937473092
 30
0.0
 11
875.502168425559
 21
345.101003296284
 31
0.0
  0
ARC
  5
563F
330
1F
100
AcDbEntity
  8
10
100
AcDbCircle
 10
866.502168425559
 20
341.601003296284
 30
0.0
 40
0.5
100
AcDbArc
 50
0.0
 51
90.0
  0
LINE
  5
5640
330
1F
100
AcDbEntity
  8
10
100
AcDbLine
 10
891.9021684255589
 20
361.101003296284
 30
0.0
 11
891.9021684255589
 21
336.101003296284
 31
0.0
  0
LINE
  5
5641
330
1F
100
AcDbEntity
  8
10
100
AcDbLine
 10
890.5021684255588
 20
342.601003296284
 30
0.0
 11
890.5021684255588
 21
330.601003296284
 31
0.0
  0
LINE
  5
5642
330
1F
100
AcDbEntity
  8
10
100
AcDbLine
 10
895.5021684255589
 20
348.601003296284
 30
0.0
 11
895.5021684255589
 21
330.601003296284
 31
0.0
  0
ARC
  5
5643
330
1F
100
AcDbEntity
  8
10
100
AcDbCircle
 10
889.0021684255589
 20
342.601003296284
 30
0.0
 40
1.5
100
AcDbArc
 50
0.0
 51
90.0
  0
LINE
  5
5644
330
1F
100
AcDbEntity
  8
10
100
AcDbLine
 10
876.5021684255589
 20
344.101003296284
 30
0.0
 11
889.0021684255589
 21
344.101003296284
 31
0.0
  0
LINE
  5
5645
330
1F
100
AcDbEntity
  8
10
100
AcDbLine
 10
895.5021684255589
 20
348.601003296284
 30
0.0
 11
895.0021684255588
 21
348.601003296284
 31
0.0
  0
LINE
  5
5646
330
1F
100
AcDbEntity
  8
10
100
AcDbLine
 10
534.7021684255587
 20
480.6029819131655
 30
0.0
 11
340.3021684255591
 21
480.6029819131655
 31
0.0
  0
LINE
  5
5647
330
1F
100
AcDbEntity
  8
10
100
AcDbLine
 10
467.502168425559
 20
435.6029819131655
 30
0.0
 11
535.5021684255588
 21
435.6029819131655
 31
0.0
  0
LINE
  5
5648
330
1F
100
AcDbEntity
  8
10
100
AcDbLine
 10
468.3021684255591
 20
480.6029819131655
 30
0.0
 11
534.7021684255587
 21
480.6029819131655
 31
0.0
  0
LINE
  5
5649
330
1F
100
AcDbEntity
  8
10
100
AcDbLine
 10
547.5021684255588
 20
435.6029819131655
 30
0.0
 11
455.5021684255589
 21
435.6029819131655
 31
0.0
  0
ARC
  5
564A
330
1F
100
AcDbEntity
  8
10
100
AcDbCircle
 10
408.3021684255591
 20
466.4891203227827
 30
0.0
 40
0.8000000000002639
100
AcDbArc
 50
104.9999999999896
 51
180.0
  0
LINE
  5
564B
330
1F
100
AcDbEntity
  8
10
100
AcDbLine
 10
417.2268617518457
 20
469.9622954750708
 30
0.0
 11
407.3021684255591
 21
467.3029819131655
 31
0.0
  0
LINE
  5
564C
330
1F
100
AcDbEntity
  8
12
  6
CENTER
100
AcDbLine
 10
342.0021684255589
 20
474.6029819131655
 30
0.0
 11
325.0021684255589
 21
474.6029819131655
 31
0.0
  0
LINE
  5
564D
330
1F
100
AcDbEntity
  8
12
  6
CENTER
100
AcDbLine
 10
333.5021684255589
 20
483.1029819131655
 30
0.0
 11
333.5021684255589
 21
466.1029819131655
 31
0.0
  0
LINE
  5
564E
330
1F
100
AcDbEntity
  8
10
100
AcDbLine
 10
337.2786255608662
 20
469.7225757074087
 30
0.0
 11
328.0951131894771
 21
467.2618609838138
 31
0.0
  0
LINE
  5
564F
330
1F
100
AcDbEntity
  8
10
100
AcDbLine
 10
327.5021684255589
 20
466.4891203227827
 30
0.0
 11
327.5021684255589
 21
479.6029819131655
 31
0.0
  0
POINT
  5
5650
330
1F
100
AcDbEntity
  8
10
100
AcDbPoint
 10
327.5021684255589
 20
467.1029819131655
 30
0.0
  0
ARC
  5
5651
330
1F
100
AcDbEntity
  8
10
100
AcDbCircle
 10
328.3021684255591
 20
466.4891203227827
 30
0.0
 40
0.8000000000002639
100
AcDbArc
 50
104.9999999999896
 51
180.0
  0
LINE
  5
5652
330
1F
100
AcDbEntity
  8
10
100
AcDbLine
 10
340.3021684255591
 20
480.6029819131655
 30
0.0
 11
328.5021684255589
 21
480.6029819131655
 31
0.0
  0
ARC
  5
5653
330
1F
100
AcDbEntity
  8
10
100
AcDbCircle
 10
328.5021684255589
 20
479.6029819131655
 30
0.0
 40
1.0
100
AcDbArc
 50
90.0
 51
180.0
  0
CIRCLE
  5
5654
330
1F
100
AcDbEntity
  8
10
100
AcDbCircle
 10
333.5021684255589
 20
474.6029819131655
 30
0.0
 40
2.5
  0
LINE
  5
5655
330
1F
100
AcDbEntity
  8
10
100
AcDbLine
 10
339.5021684255589
 20
472.6203531862758
 30
0.0
 11
339.5021684255589
 21
479.8029819131655
 31
0.0
  0
ARC
  5
5656
330
1F
100
AcDbEntity
  8
10
100
AcDbCircle
 10
340.3021684255591
 20
479.8029819131655
 30
0.0
 40
0.8000000000001817
100
AcDbArc
 50
90.0
 51
180.0
  0
ARC
  5
5657
330
1F
100
AcDbEntity
  8
10
100
AcDbCircle
 10
336.5021684255589
 20
472.6203531862758
 30
0.0
 40
3.000000000000062
100
AcDbArc
 50
284.9999999999976
 51
0.0
  0
POINT
  5
5658
330
1F
100
AcDbEntity
  8
10
100
AcDbPoint
 10
339.5021684255589
 20
480.6029819131655
 30
0.0
  0
POINT
  5
5659
330
1F
100
AcDbEntity
  8
10
100
AcDbPoint
 10
407.5021684255589
 20
467.1029819131655
 30
0.0
  0
POINT
  5
565A
330
1F
100
AcDbEntity
  8
10
100
AcDbPoint
 10
407.3021684255591
 20
467.3029819131655
 30
0.0
  0
LINE
  5
565B
330
1F
100
AcDbEntity
  8
10
100
AcDbLine
 10
456.5021684255589
 20
479.6029819131655
 30
0.0
 11
463.502168425559
 21
479.6029819131655
 31
0.0
  0
LINE
  5
565C
330
1F
100
AcDbEntity
  8
10
100
AcDbLine
 10
462.502168425559
 20
480.6029819131655
 30
0.0
 11
448.5021684255589
 21
480.6029819131655
 31
0.0
  0
LINE
  5
565D
330
1F
100
AcDbEntity
  8
10
100
AcDbLine
 10
455.5021684255589
 20
475.6029819131655
 30
0.0
 11
465.5021684255589
 21
475.6029819131655
 31
0.0
  0
LINE
  5
565E
330
1F
100
AcDbEntity
  8
10
100
AcDbLine
 10
455.5021684255589
 20
476.6029819131655
 30
0.0
 11
463.502168425559
 21
476.6029819131655
 31
0.0
  0
LINE
  5
565F
330
1F
100
AcDbEntity
  8
10
100
AcDbLine
 10
465.4021684255591
 20
373.5029819131656
 30
0.0
 11
424.6021684255588
 21
373.5029819131656
 31
0.0
  0
LINE
  5
5660
330
1F
100
AcDbEntity
  8
10
100
AcDbLine
 10
465.5021684255589
 20
373.6029819131655
 30
0.0
 11
424.5021684255589
 21
373.6029819131655
 31
0.0
  0
LINE
  5
5661
330
1F
100
AcDbEntity
  8
10
100
AcDbLine
 10
455.5021684255589
 20
435.6029819131655
 30
0.0
 11
455.5021684255589
 21
480.6029819131655
 31
0.0
  0
LINE
  5
5662
330
1F
100
AcDbEntity
  8
10
100
AcDbLine
 10
455.5021684255589
 20
480.6029819131655
 30
0.0
 11
420.3021684255591
 21
480.6029819131655
 31
0.0
  0
LINE
  5
5663
330
1F
100
AcDbEntity
  8
10
100
AcDbLine
 10
408.0951131894771
 20
467.2618609838138
 30
0.0
 11
417.2786255608661
 21
469.7225757074087
 31
0.0
  0
ARC
  5
5664
330
1F
100
AcDbEntity
  8
10
100
AcDbCircle
 10
416.5021684255589
 20
472.6203531862758
 30
0.0
 40
3.000000000000062
100
AcDbArc
 50
284.9999999999976
 51
0.0
  0
ARC
  5
5665
330
1F
100
AcDbEntity
  8
10
100
AcDbCircle
 10
416.5021684255589
 20
472.6668877886807
 30
0.0
 40
2.799999999999884
100
AcDbArc
 50
284.9999999999992
 51
0.0
  0
LINE
  5
5666
330
1F
100
AcDbEntity
  8
10
100
AcDbLine
 10
419.5021684255589
 20
479.8029819131655
 30
0.0
 11
419.5021684255589
 21
472.6203531862758
 31
0.0
  0
POINT
  5
5667
330
1F
100
AcDbEntity
  8
10
100
AcDbPoint
 10
419.5021684255589
 20
470.3183722223399
 30
0.0
  0
POINT
  5
5668
330
1F
100
AcDbEntity
  8
10
100
AcDbPoint
 10
419.5021684255589
 20
480.6029819131655
 30
0.0
  0
ARC
  5
5669
330
1F
100
AcDbEntity
  8
10
100
AcDbCircle
 10
420.3021684255591
 20
479.8029819131655
 30
0.0
 40
0.8000000000001817
100
AcDbArc
 50
90.0
 51
180.0
  0
LINE
  5
566A
330
1F
100
AcDbEntity
  8
10
100
AcDbLine
 10
419.302168425559
 20
480.6029819131655
 30
0.0
 11
419.302168425559
 21
472.6668877886807
 31
0.0
  0
LINE
  5
566B
330
1F
100
AcDbEntity
  8
10
100
AcDbLine
 10
458.8384788990143
 20
479.6029819131655
 30
0.0
 11
458.8384788990143
 21
478.6029819131655
 31
0.0
  0
ARC
  5
566C
330
1F
100
AcDbEntity
  8
10
100
AcDbCircle
 10
455.5021684255589
 20
479.6029819131655
 30
0.0
 40
1.0
100
AcDbArc
 50
0.0
 51
90.0
  0
LINE
  5
566D
330
1F
100
AcDbEntity
  8
10
100
AcDbLine
 10
455.5021684255589
 20
478.6029819131655
 30
0.0
 11
458.8384788990143
 21
478.6029819131655
 31
0.0
  0
LINE
  5
566E
330
1F
100
AcDbEntity
  8
10
100
AcDbLine
 10
467.502168425559
 20
479.8029819131655
 30
0.0
 11
467.502168425559
 21
435.6029819131655
 31
0.0
  0
LINE
  5
566F
330
1F
100
AcDbEntity
  8
10
100
AcDbLine
 10
465.5021684255589
 20
435.6029819131655
 30
0.0
 11
465.5021684255589
 21
475.6029819131655
 31
0.0
  0
CIRCLE
  5
5674
330
1F
100
AcDbEntity
  8
10
100
AcDbCircle
 10
480.8595706099585
 20
467.5352103796988
 30
0.0
 40
1.66666666666667
  0
LINE
  5
5675
330
1F
100
AcDbEntity
  8
10
100
AcDbLine
 10
475.6634181872256
 20
468.2018770463656
 30
0.0
 11
476.6684830324257
 21
469.0940512808317
 31
0.0
  0
LINE
  5
5676
330
1F
100
AcDbEntity
  8
10
100
AcDbLine
 10
487.5664641290923
 20
468.6859374288996
 30
0.0
 11
486.9029054158922
 21
467.7809742768316
 31
0.0
  0
LINE
  5
5677
330
1F
100
AcDbEntity
  8
10
100
AcDbLine
 10
476.5095649929589
 20
462.3022337362325
 30
0.0
 11
475.5262372766255
 21
462.3390579570314
 31
0.0
  0
LINE
  5
5678
330
1F
100
AcDbEntity
  8
10
100
AcDbLine
 10
474.8162358040254
 20
467.2894464826327
 30
0.0
 11
475.6634181872256
 21
468.2018770463656
 31
0.0
  0
LINE
  5
5679
330
1F
100
AcDbEntity
  8
10
100
AcDbLine
 10
476.5095649929589
 20
447.7412031404327
 30
0.0
 11
475.5262372766255
 21
447.7780273612325
 31
0.0
  0
LINE
  5
567A
330
1F
100
AcDbEntity
  8
10
100
AcDbLine
 10
474.8162358040254
 20
452.7284158868329
 30
0.0
 11
475.6634181872256
 21
453.6408464505658
 31
0.0
  0
LINE
  5
567B
330
1F
100
AcDbEntity
  8
10
100
AcDbLine
 10
474.1526770907589
 20
466.3844833305658
 30
0.0
 11
474.8162358040254
 21
467.2894464826327
 31
0.0
  0
LINE
  5
567C
330
1F
100
AcDbEntity
  8
10
100
AcDbLine
 10
473.6929039432921
 20
465.5144844375658
 30
0.0
 11
474.1526770907589
 21
466.3844833305658
 31
0.0
  0
LINE
  5
567D
330
1F
100
AcDbEntity
  8
10
100
AcDbLine
 10
473.4508863358923
 20
464.7058842797656
 30
0.0
 11
473.6929039432921
 21
465.5144844375658
 31
0.0
  0
LINE
  5
567E
330
1F
100
AcDbEntity
  8
10
100
AcDbLine
 10
473.4339778512922
 20
463.9832517638327
 30
0.0
 11
473.4508863358923
 21
464.7058842797656
 31
0.0
  0
LINE
  5
567F
330
1F
100
AcDbEntity
  8
10
100
AcDbLine
 10
473.6426922450924
 20
463.3685437130329
 30
0.0
 11
473.4339778512922
 21
463.9832517638327
 31
0.0
  0
LINE
  5
5680
330
1F
100
AcDbEntity
  8
10
100
AcDbLine
 10
474.0706878360255
 20
462.8804377204986
 30
0.0
 11
473.6426922450924
 21
463.3685437130329
 31
0.0
  0
LINE
  5
5681
330
1F
100
AcDbEntity
  8
10
100
AcDbLine
 10
474.7049601947588
 20
462.5337646397658
 30
0.0
 11
474.0706878360255
 21
462.8804377204986
 31
0.0
  0
LINE
  5
5682
330
1F
100
AcDbEntity
  8
10
100
AcDbLine
 10
475.5262372766255
 20
462.3390579570314
 30
0.0
 11
474.7049601947588
 21
462.5337646397658
 31
0.0
  0
LINE
  5
5683
330
1F
100
AcDbEntity
  8
10
100
AcDbLine
 10
473.6929039432921
 20
450.9534538417657
 30
0.0
 11
474.1526770907589
 21
451.8234527347657
 31
0.0
  0
LINE
  5
5684
330
1F
100
AcDbEntity
  8
10
100
AcDbLine
 10
473.4508863358923
 20
450.1448536839658
 30
0.0
 11
473.6929039432921
 21
450.9534538417657
 31
0.0
  0
LINE
  5
5685
330
1F
100
AcDbEntity
  8
10
100
AcDbLine
 10
473.4339778512922
 20
449.4222211680329
 30
0.0
 11
473.4508863358923
 21
450.1448536839658
 31
0.0
  0
LINE
  5
5686
330
1F
100
AcDbEntity
  8
10
100
AcDbLine
 10
473.6426922450924
 20
448.8075131172328
 30
0.0
 11
473.4339778512922
 21
449.4222211680329
 31
0.0
  0
LINE
  5
5687
330
1F
100
AcDbEntity
  8
10
100
AcDbLine
 10
474.0706878360255
 20
448.3194071246988
 30
0.0
 11
473.6426922450924
 21
448.8075131172328
 31
0.0
  0
LINE
  5
5688
330
1F
100
AcDbEntity
  8
10
100
AcDbLine
 10
474.7049601947588
 20
447.9727340439657
 30
0.0
 11
474.0706878360255
 21
448.3194071246988
 31
0.0
  0
LINE
  5
5689
330
1F
100
AcDbEntity
  8
10
100
AcDbLine
 10
474.1526770907589
 20
451.8234527347657
 30
0.0
 11
474.8162358040254
 21
452.7284158868329
 31
0.0
  0
LINE
  5
568A
330
1F
100
AcDbEntity
  8
10
100
AcDbLine
 10
475.5262372766255
 20
447.7780273612325
 30
0.0
 11
474.7049601947588
 21
447.9727340439657
 31
0.0
  0
LINE
  5
568B
330
1F
100
AcDbEntity
  8
10
100
AcDbLine
 10
482.6929039432921
 20
464.3597838991658
 30
0.0
 11
481.4118537139589
 21
463.6844916889657
 31
0.0
  0
LINE
  5
568C
330
1F
100
AcDbEntity
  8
10
100
AcDbLine
 10
477.6250654287587
 20
462.4244108627659
 30
0.0
 11
476.5095649929589
 21
462.3022337362325
 31
0.0
  0
LINE
  5
568D
330
1F
100
AcDbEntity
  8
10
100
AcDbLine
 10
478.838844667759
 20
462.7018770463656
 30
0.0
 11
477.6250654287587
 21
462.4244108627659
 31
0.0
  0
LINE
  5
568E
330
1F
100
AcDbEntity
  8
10
100
AcDbLine
 10
480.1140226419589
 20
463.1262016175656
 30
0.0
 11
478.838844667759
 21
462.7018770463656
 31
0.0
  0
LINE
  5
568F
330
1F
100
AcDbEntity
  8
10
100
AcDbLine
 10
481.4118537139589
 20
463.6844916889657
 30
0.0
 11
480.1140226419589
 21
463.1262016175656
 31
0.0
  0
LINE
  5
5690
330
1F
100
AcDbEntity
  8
10
100
AcDbLine
 10
486.9029054158922
 20
467.7809742768316
 30
0.0
 11
486.0557230326258
 21
466.8685437130328
 31
0.0
  0
LINE
  5
5691
330
1F
100
AcDbEntity
  8
10
100
AcDbLine
 10
483.9182492669587
 20
465.1315598361658
 30
0.0
 11
482.6929039432921
 21
464.3597838991658
 31
0.0
  0
LINE
  5
5692
330
1F
100
AcDbEntity
  8
10
100
AcDbLine
 10
485.0506581874255
 20
465.9763694786327
 30
0.0
 11
483.9182492669587
 21
465.1315598361658
 31
0.0
  0
LINE
  5
5693
330
1F
100
AcDbEntity
  8
10
100
AcDbLine
 10
486.0557230326258
 20
466.8685437130328
 30
0.0
 11
485.0506581874255
 21
465.9763694786327
 31
0.0
  0
LINE
  5
5694
330
1F
100
AcDbEntity
  8
10
100
AcDbLine
 10
481.6051185778924
 20
457.3831885460328
 30
0.0
 11
482.8802965520922
 21
457.8075131172328
 31
0.0
  0
LINE
  5
5695
330
1F
100
AcDbEntity
  8
10
100
AcDbLine
 10
482.6929039432921
 20
449.7987533033657
 30
0.0
 11
481.4118537139589
 21
449.1234610931656
 31
0.0
  0
CIRCLE
  5
5696
330
1F
100
AcDbEntity
  8
10
100
AcDbCircle
 10
480.8595706099585
 20
452.9741797838986
 30
0.0
 40
1.66666666666667
  0
LINE
  5
5697
330
1F
100
AcDbEntity
  8
10
100
AcDbLine
 10
477.6250654287587
 20
447.8633802669657
 30
0.0
 11
476.5095649929589
 21
447.7412031404327
 31
0.0
  0
LINE
  5
5698
330
1F
100
AcDbEntity
  8
10
100
AcDbLine
 10
478.838844667759
 20
448.1408464505658
 30
0.0
 11
477.6250654287587
 21
447.8633802669657
 31
0.0
  0
LINE
  5
5699
330
1F
100
AcDbEntity
  8
10
100
AcDbLine
 10
480.1140226419589
 20
448.5651710217658
 30
0.0
 11
478.838844667759
 21
448.1408464505658
 31
0.0
  0
LINE
  5
569A
330
1F
100
AcDbEntity
  8
10
100
AcDbLine
 10
481.4118537139589
 20
449.1234610931656
 30
0.0
 11
480.1140226419589
 21
448.5651710217658
 31
0.0
  0
LINE
  5
569B
330
1F
100
AcDbEntity
  8
10
100
AcDbLine
 10
475.6634181872256
 20
453.6408464505658
 30
0.0
 11
476.6684830324257
 21
454.5330206850327
 31
0.0
  0
LINE
  5
569C
330
1F
100
AcDbEntity
  8
10
100
AcDbLine
 10
480.3072875058925
 20
456.8248984746998
 30
0.0
 11
481.6051185778924
 21
457.3831885460328
 31
0.0
  0
LINE
  5
569D
330
1F
100
AcDbEntity
  8
10
100
AcDbLine
 10
479.0262372766255
 20
456.1496062644327
 30
0.0
 11
480.3072875058925
 21
456.8248984746998
 31
0.0
  0
LINE
  5
569E
330
1F
100
AcDbEntity
  8
10
100
AcDbLine
 10
477.8008919528921
 20
455.3778303274328
 30
0.0
 11
479.0262372766255
 21
456.1496062644327
 31
0.0
  0
LINE
  5
569F
330
1F
100
AcDbEntity
  8
10
100
AcDbLine
 10
476.6684830324257
 20
454.5330206850327
 30
0.0
 11
477.8008919528921
 21
455.3778303274328
 31
0.0
  0
LINE
  5
56A0
330
1F
100
AcDbEntity
  8
10
100
AcDbLine
 10
485.0506581874255
 20
451.4153388828328
 30
0.0
 11
483.9182492669587
 21
450.5705292403657
 31
0.0
  0
LINE
  5
56A1
330
1F
100
AcDbEntity
  8
10
100
AcDbLine
 10
483.9182492669587
 20
450.5705292403657
 30
0.0
 11
482.6929039432921
 21
449.7987533033657
 31
0.0
  0
LINE
  5
56A2
330
1F
100
AcDbEntity
  8
10
100
AcDbLine
 10
487.6484533838255
 20
457.6289524430989
 30
0.0
 11
488.0764489748252
 21
457.1408464505658
 31
0.0
  0
LINE
  5
56A3
330
1F
100
AcDbEntity
  8
10
100
AcDbLine
 10
488.2682548839588
 20
455.8035058838319
 30
0.0
 11
488.0262372766255
 21
454.9949057260995
 31
0.0
  0
LINE
  5
56A4
330
1F
100
AcDbEntity
  8
10
100
AcDbLine
 10
487.014181025092
 20
457.9756255238327
 30
0.0
 11
487.6484533838255
 21
457.6289524430989
 31
0.0
  0
LINE
  5
56A5
330
1F
100
AcDbEntity
  8
10
100
AcDbLine
 10
486.1929039432921
 20
458.1703322066326
 30
0.0
 11
487.014181025092
 21
457.9756255238327
 31
0.0
  0
LINE
  5
56A6
330
1F
100
AcDbEntity
  8
10
100
AcDbLine
 10
485.2095762268922
 20
458.207156427433
 30
0.0
 11
486.1929039432921
 21
458.1703322066326
 31
0.0
  0
LINE
  5
56A7
330
1F
100
AcDbEntity
  8
10
100
AcDbLine
 10
484.094075791092
 20
458.0849793008998
 30
0.0
 11
485.2095762268922
 21
458.207156427433
 31
0.0
  0
LINE
  5
56A8
330
1F
100
AcDbEntity
  8
10
100
AcDbLine
 10
482.8802965520922
 20
457.8075131172328
 30
0.0
 11
484.094075791092
 21
458.0849793008998
 31
0.0
  0
LINE
  5
56A9
330
1F
100
AcDbEntity
  8
10
100
AcDbLine
 10
486.0557230326258
 20
452.3075131172328
 30
0.0
 11
485.0506581874255
 21
451.4153388828328
 31
0.0
  0
LINE
  5
56AA
330
1F
100
AcDbEntity
  8
10
100
AcDbLine
 10
486.9029054158922
 20
453.2199436809657
 30
0.0
 11
486.0557230326258
 21
452.3075131172328
 31
0.0
  0
LINE
  5
56AB
330
1F
100
AcDbEntity
  8
10
100
AcDbLine
 10
487.5664641290923
 20
454.1249068330988
 30
0.0
 11
486.9029054158922
 21
453.2199436809657
 31
0.0
  0
LINE
  5
56AC
330
1F
100
AcDbEntity
  8
10
100
AcDbLine
 10
488.0262372766255
 20
454.9949057260995
 30
0.0
 11
487.5664641290923
 21
454.1249068330988
 31
0.0
  0
LINE
  5
56AD
330
1F
100
AcDbEntity
  8
10
100
AcDbLine
 10
488.2851633686255
 20
456.5261383998327
 30
0.0
 11
488.2682548839588
 21
455.8035058838319
 31
0.0
  0
LINE
  5
56AE
330
1F
100
AcDbEntity
  8
10
100
AcDbLine
 10
488.0764489748252
 20
457.1408464505658
 30
0.0
 11
488.2851633686255
 21
456.5261383998327
 31
0.0
  0
LINE
  5
56AF
330
1F
100
AcDbEntity
  8
10
100
AcDbLine
 10
465.5021684255589
 20
476.6029819131655
 30
0.0
 11
464.3021684255591
 21
476.6029819131655
 31
0.0
  0
ARC
  5
56B0
330
1F
100
AcDbEntity
  8
10
100
AcDbCircle
 10
462.502168425559
 20
479.6029819131655
 30
0.0
 40
1.0
100
AcDbArc
 50
0.0
 51
90.0
  0
LINE
  5
56B1
330
1F
100
AcDbEntity
  8
10
100
AcDbLine
 10
463.502168425559
 20
476.6029819131655
 30
0.0
 11
463.502168425559
 21
479.6029819131655
 31
0.0
  0
LINE
  5
56B2
330
1F
100
AcDbEntity
  8
10
100
AcDbLine
 10
464.3021684255591
 20
476.6029819131655
 30
0.0
 11
464.3021684255591
 21
480.6029819131655
 31
0.0
  0
LINE
  5
56B3
330
1F
100
AcDbEntity
  8
10
100
AcDbLine
 10
464.3021684255591
 20
478.6029819131655
 30
0.0
 11
463.502168425559
 21
478.6029819131655
 31
0.0
  0
ARC
  5
56B4
330
1F
100
AcDbEntity
  8
10
100
AcDbCircle
 10
468.3021684255591
 20
479.8029819131655
 30
0.0
 40
0.7999999999999541
100
AcDbArc
 50
90.0
 51
180.0
  0
LINE
  5
56B5
330
1F
100
AcDbEntity
  8
10
100
AcDbLine
 10
467.502168425559
 20
468.6029819131655
 30
0.0
 11
466.502168425559
 21
468.6029819131655
 31
0.0
  0
LINE
  5
56B6
330
1F
100
AcDbEntity
  8
10
100
AcDbLine
 10
467.502168425559
 20
469.6029819131655
 30
0.0
 11
466.502168425559
 21
469.6029819131655
 31
0.0
  0
LINE
  5
56B7
330
1F
100
AcDbEntity
  8
10
100
AcDbLine
 10
467.502168425559
 20
475.6029819131655
 30
0.0
 11
466.502168425559
 21
475.6029819131655
 31
0.0
  0
LINE
  5
56B8
330
1F
100
AcDbEntity
  8
10
100
AcDbLine
 10
467.502168425559
 20
476.6029819131655
 30
0.0
 11
466.502168425559
 21
476.6029819131655
 31
0.0
  0
LINE
  5
56B9
330
1F
100
AcDbEntity
  8
10
100
AcDbLine
 10
466.502168425559
 20
468.6029819131655
 30
0.0
 11
466.502168425559
 21
476.6029819131655
 31
0.0
  0
LINE
  5
56BA
330
1F
100
AcDbEntity
  8
10
100
AcDbLine
 10
465.5021684255589
 20
475.6029819131655
 30
0.0
 11
465.5021684255589
 21
476.6029819131655
 31
0.0
  0
LINE
  5
56BB
330
1F
100
AcDbEntity
  8
10
100
AcDbLine
 10
481.6051185778924
 20
471.9442191418997
 30
0.0
 11
482.8802965520922
 21
472.3685437130328
 31
0.0
  0
LINE
  5
56BC
330
1F
100
AcDbEntity
  8
10
100
AcDbLine
 10
480.3072875058925
 20
471.3859290704987
 30
0.0
 11
481.6051185778924
 21
471.9442191418997
 31
0.0
  0
LINE
  5
56BD
330
1F
100
AcDbEntity
  8
10
100
AcDbLine
 10
479.0262372766255
 20
470.7106368602989
 30
0.0
 11
480.3072875058925
 21
471.3859290704987
 31
0.0
  0
LINE
  5
56BE
330
1F
100
AcDbEntity
  8
10
100
AcDbLine
 10
477.8008919528921
 20
469.9388609232986
 30
0.0
 11
479.0262372766255
 21
470.7106368602989
 31
0.0
  0
LINE
  5
56BF
330
1F
100
AcDbEntity
  8
10
100
AcDbLine
 10
476.6684830324257
 20
469.0940512808317
 30
0.0
 11
477.8008919528921
 21
469.9388609232986
 31
0.0
  0
LINE
  5
56C0
330
1F
100
AcDbEntity
  8
10
100
AcDbLine
 10
487.6484533838255
 20
472.1899830389657
 30
0.0
 11
488.0764489748252
 21
471.7018770463656
 31
0.0
  0
LINE
  5
56C1
330
1F
100
AcDbEntity
  8
10
100
AcDbLine
 10
488.2682548839588
 20
470.3645364796996
 30
0.0
 11
488.0262372766255
 21
469.5559363218989
 31
0.0
  0
LINE
  5
56C2
330
1F
100
AcDbEntity
  8
10
100
AcDbLine
 10
487.014181025092
 20
472.5366561196989
 30
0.0
 11
487.6484533838255
 21
472.1899830389657
 31
0.0
  0
LINE
  5
56C3
330
1F
100
AcDbEntity
  8
10
100
AcDbLine
 10
486.1929039432921
 20
472.7313628024329
 30
0.0
 11
487.014181025092
 21
472.5366561196989
 31
0.0
  0
LINE
  5
56C4
330
1F
100
AcDbEntity
  8
10
100
AcDbLine
 10
485.2095762268922
 20
472.7681870232328
 30
0.0
 11
486.1929039432921
 21
472.7313628024329
 31
0.0
  0
LINE
  5
56C5
330
1F
100
AcDbEntity
  8
10
100
AcDbLine
 10
484.094075791092
 20
472.6460098966987
 30
0.0
 11
485.2095762268922
 21
472.7681870232328
 31
0.0
  0
LINE
  5
56C6
330
1F
100
AcDbEntity
  8
10
100
AcDbLine
 10
482.8802965520922
 20
472.3685437130328
 30
0.0
 11
484.094075791092
 21
472.6460098966987
 31
0.0
  0
LINE
  5
56C7
330
1F
100
AcDbEntity
  8
10
100
AcDbLine
 10
488.0262372766255
 20
469.5559363218989
 30
0.0
 11
487.5664641290923
 21
468.6859374288996
 31
0.0
  0
LINE
  5
56C8
330
1F
100
AcDbEntity
  8
10
100
AcDbLine
 10
488.2851633686255
 20
471.0871689956326
 30
0.0
 11
488.2682548839588
 21
470.3645364796996
 31
0.0
  0
LINE
  5
56C9
330
1F
100
AcDbEntity
  8
10
100
AcDbLine
 10
488.0764489748252
 20
471.7018770463656
 30
0.0
 11
488.2851633686255
 21
471.0871689956326
 31
0.0
  0
LINE
  5
56CA
330
1F
100
AcDbEntity
  8
10
100
AcDbLine
 10
759.0021684255591
 20
480.601003296284
 30
0.0
 11
823.0021684255591
 21
480.601003296284
 31
0.0
  0
LINE
  5
56CB
330
1F
100
AcDbEntity
  8
10
100
AcDbLine
 10
759.0021684255591
 20
467.101003296284
 30
0.0
 11
823.0021684255591
 21
467.101003296284
 31
0.0
  0
LINE
  5
56CC
330
1F
100
AcDbEntity
  8
10
100
AcDbLine
 10
759.0021684255589
 20
480.601003296284
 30
0.0
 11
823.0021684255589
 21
480.601003296284
 31
0.0
  0
LINE
  5
56CD
330
1F
100
AcDbEntity
  8
10
100
AcDbLine
 10
535.5021684255588
 20
479.8029819131655
 30
0.0
 11
535.5021684255588
 21
435.6029819131655
 31
0.0
  0
LINE
  5
56CE
330
1F
100
AcDbEntity
  8
10
100
AcDbLine
 10
547.5021684255588
 20
435.6029819131655
 30
0.0
 11
547.5021684255588
 21
466.4891203227827
 31
0.0
  0
LINE
  5
56D3
330
1F
100
AcDbEntity
  8
12
  6
CENTER
100
AcDbLine
 10
550.0021684255589
 20
474.6029819131655
 30
0.0
 11
533.0021684255589
 21
474.6029819131655
 31
0.0
  0
CIRCLE
  5
56D4
330
1F
100
AcDbEntity
  8
10
100
AcDbCircle
 10
541.5021684255589
 20
474.6029819131655
 30
0.0
 40
2.5
  0
LINE
  5
56D5
330
1F
100
AcDbEntity
  8
10
100
AcDbLine
 10
546.5021684255589
 20
480.6029819131655
 30
0.0
 11
534.7021684255587
 21
480.6029819131655
 31
0.0
  0
LINE
  5
56D6
330
1F
100
AcDbEntity
  8
10
100
AcDbLine
 10
546.9092236616407
 20
467.2618609838138
 30
0.0
 11
537.7257112902516
 21
469.7225757074087
 31
0.0
  0
LINE
  5
56D7
330
1F
100
AcDbEntity
  8
12
  6
CENTER
100
AcDbLine
 10
541.5021684255589
 20
483.1029819131655
 30
0.0
 11
541.5021684255589
 21
466.1029819131655
 31
0.0
  0
ARC
  5
56D8
330
1F
100
AcDbEntity
  8
10
100
AcDbCircle
 10
534.7021684255587
 20
479.8029819131655
 30
0.0
 40
0.8000000000001817
100
AcDbArc
 50
0.0
 51
90.0
  0
ARC
  5
56D9
330
1F
100
AcDbEntity
  8
10
100
AcDbCircle
 10
538.5021684255589
 20
472.6203531862758
 30
0.0
 40
3.0
100
AcDbArc
 50
180.0
 51
255.0000000000007
  0
ARC
  5
56DA
330
1F
100
AcDbEntity
  8
10
100
AcDbCircle
 10
534.7021684255587
 20
479.8029819131655
 30
0.0
 40
0.7999999999999541
100
AcDbArc
 50
0.0
 51
90.0
  0
LINE
  5
56DB
330
1F
100
AcDbEntity
  8
10
100
AcDbLine
 10
535.5021684255588
 20
472.6203531862758
 30
0.0
 11
535.5021684255588
 21
479.8029819131655
 31
0.0
  0
POINT
  5
56DC
330
1F
100
AcDbEntity
  8
10
100
AcDbPoint
 10
535.5021684255588
 20
480.6029819131655
 30
0.0
  0
LINE
  5
56DD
330
1F
100
AcDbEntity
  8
10
100
AcDbLine
 10
547.5021684255588
 20
466.4891203227827
 30
0.0
 11
547.5021684255588
 21
479.6029819131655
 31
0.0
  0
ARC
  5
56DE
330
1F
100
AcDbEntity
  8
10
100
AcDbCircle
 10
546.7021684255587
 20
466.4891203227827
 30
0.0
 40
0.7999999999999541
100
AcDbArc
 50
0.0
 51
75.00000000001026
  0
POINT
  5
56DF
330
1F
100
AcDbEntity
  8
10
100
AcDbPoint
 10
547.5021684255588
 20
467.1029819131655
 30
0.0
  0
POINT
  5
56E0
330
1F
100
AcDbEntity
  8
10
100
AcDbPoint
 10
547.5021684255588
 20
467.1029819131655
 30
0.0
  0
ARC
  5
56E1
330
1F
100
AcDbEntity
  8
10
100
AcDbCircle
 10
546.5021684255589
 20
479.6029819131655
 30
0.0
 40
1.0
100
AcDbArc
 50
0.0
 51
90.0
  0
LINE
  5
56E2
330
1F
100
AcDbEntity
  8
10
100
AcDbLine
 10
783.4021684255588
 20
391.601003296284
 30
0.0
 11
783.4021684255588
 21
460.601003296284
 31
0.0
  0
LINE
  5
56E3
330
1F
100
AcDbEntity
  8
10
100
AcDbLine
 10
780.4021684255587
 20
391.601003296284
 30
0.0
 11
780.4021684255587
 21
460.601003296284
 31
0.0
  0
LINE
  5
56E4
330
1F
100
AcDbEntity
  8
10
100
AcDbLine
 10
775.602168425559
 20
391.601003296284
 30
0.0
 11
775.602168425559
 21
460.601003296284
 31
0.0
  0
LINE
  5
56E5
330
1F
100
AcDbEntity
  8
10
100
AcDbLine
 10
778.602168425559
 20
391.601003296284
 30
0.0
 11
778.602168425559
 21
460.601003296284
 31
0.0
  0
LINE
  5
56E6
330
1F
100
AcDbEntity
  8
10
100
AcDbLine
 10
785.2021684255589
 20
391.601003296284
 30
0.0
 11
785.2021684255589
 21
460.601003296284
 31
0.0
  0
LINE
  5
56E7
330
1F
100
AcDbEntity
  8
10
100
AcDbLine
 10
788.2021684255589
 20
391.601003296284
 30
0.0
 11
788.2021684255589
 21
460.601003296284
 31
0.0
  0
LINE
  5
56E8
330
1F
100
AcDbEntity
  8
10
100
AcDbLine
 10
790.0021684255591
 20
391.601003296284
 30
0.0
 11
790.0021684255591
 21
460.601003296284
 31
0.0
  0
LINE
  5
56E9
330
1F
100
AcDbEntity
  8
10
100
AcDbLine
 10
793.0021684255591
 20
391.601003296284
 30
0.0
 11
793.0021684255591
 21
460.601003296284
 31
0.0
  0
LINE
  5
56EA
330
1F
100
AcDbEntity
  8
10
100
AcDbLine
 10
747.5021684255591
 20
435.601003296284
 30
0.0
 11
747.5021684255591
 21
479.8010032962841
 31
0.0
  0
LINE
  5
56EB
330
1F
100
AcDbEntity
  8
10
100
AcDbLine
 10
759.0021684255591
 20
480.601003296284
 30
0.0
 11
759.0021684255591
 21
435.601003296284
 31
0.0
  0
LINE
  5
56EC
330
1F
100
AcDbEntity
  8
10
100
AcDbLine
 10
763.0021684255591
 20
431.601003296284
 30
0.0
 11
771.0021684255591
 21
431.601003296284
 31
0.0
  0
LINE
  5
56ED
330
1F
100
AcDbEntity
  8
10
100
AcDbLine
 10
763.0021684255591
 20
432.601003296284
 30
0.0
 11
772.0021684255591
 21
432.601003296284
 31
0.0
  0
LINE
  5
56EE
330
1F
100
AcDbEntity
  8
10
100
AcDbLine
 10
763.0021684255589
 20
424.601003296284
 30
0.0
 11
772.0021684255591
 21
424.601003296284
 31
0.0
  0
LINE
  5
56EF
330
1F
100
AcDbEntity
  8
10
100
AcDbLine
 10
763.0021684255589
 20
425.601003296284
 30
0.0
 11
771.0021684255591
 21
425.601003296284
 31
0.0
  0
LINE
  5
56F0
330
1F
100
AcDbEntity
  8
10
100
AcDbLine
 10
747.5021684255591
 20
435.601003296284
 30
0.0
 11
759.0021684255591
 21
435.601003296284
 31
0.0
  0
LINE
  5
56F1
330
1F
100
AcDbEntity
  8
10
100
AcDbLine
 10
747.5021684255588
 20
435.601003296284
 30
0.0
 11
758.5021684255589
 21
435.601003296284
 31
0.0
  0
LINE
  5
56F2
330
1F
100
AcDbEntity
  8
10
100
AcDbLine
 10
758.5021684255589
 20
424.601003296284
 30
0.0
 11
759.0021684255591
 21
424.601003296284
 31
0.0
  0
LINE
  5
56F3
330
1F
100
AcDbEntity
  8
10
100
AcDbLine
 10
763.0021684255591
 20
432.601003296284
 30
0.0
 11
763.0021684255591
 21
431.601003296284
 31
0.0
  0
LINE
  5
56F4
330
1F
100
AcDbEntity
  8
10
100
AcDbLine
 10
763.0021684255589
 20
425.601003296284
 30
0.0
 11
763.0021684255589
 21
424.601003296284
 31
0.0
  0
LINE
  5
56F5
330
1F
100
AcDbEntity
  8
10
100
AcDbLine
 10
758.5021684255589
 20
435.601003296284
 30
0.0
 11
759.0021684255589
 21
435.601003296284
 31
0.0
  0
ARC
  5
56F6
330
1F
100
AcDbEntity
  8
10
100
AcDbCircle
 10
781.9021684255588
 20
391.601003296284
 30
0.0
 40
1.5
100
AcDbArc
 50
180.0
 51
0.0
  0
ARC
  5
56F7
330
1F
100
AcDbEntity
  8
10
100
AcDbCircle
 10
777.1021684255591
 20
391.601003296284
 30
0.0
 40
1.5
100
AcDbArc
 50
180.0
 51
0.0
  0
ARC
  5
56F8
330
1F
100
AcDbEntity
  8
10
100
AcDbCircle
 10
791.5021684255592
 20
391.601003296284
 30
0.0
 40
1.5
100
AcDbArc
 50
180.0
 51
0.0
  0
ARC
  5
56F9
330
1F
100
AcDbEntity
  8
10
100
AcDbCircle
 10
786.702168425559
 20
391.601003296284
 30
0.0
 40
1.5
100
AcDbArc
 50
180.0
 51
0.0
  0
LINE
  5
56FA
330
1F
100
AcDbEntity
  8
10
100
AcDbLine
 10
783.4021684255588
 20
412.101003296284
 30
0.0
 11
780.4021684255587
 21
412.101003296284
 31
0.0
  0
LINE
  5
56FB
330
1F
100
AcDbEntity
  8
10
100
AcDbLine
 10
783.4021684255588
 20
415.101003296284
 30
0.0
 11
780.4021684255587
 21
415.101003296284
 31
0.0
  0
LINE
  5
56FC
330
1F
100
AcDbEntity
  8
10
100
AcDbLine
 10
778.602168425559
 20
415.101003296284
 30
0.0
 11
775.602168425559
 21
415.101003296284
 31
0.0
  0
LINE
  5
56FD
330
1F
100
AcDbEntity
  8
10
100
AcDbLine
 10
778.602168425559
 20
412.101003296284
 30
0.0
 11
775.602168425559
 21
412.101003296284
 31
0.0
  0
LINE
  5
56FE
330
1F
100
AcDbEntity
  8
10
100
AcDbLine
 10
771.0021684255591
 20
425.601003296284
 30
0.0
 11
771.0021684255591
 21
431.601003296284
 31
0.0
  0
LINE
  5
56FF
330
1F
100
AcDbEntity
  8
10
100
AcDbLine
 10
772.0021684255591
 20
432.601003296284
 30
0.0
 11
772.0021684255591
 21
424.601003296284
 31
0.0
  0
LINE
  5
5700
330
1F
100
AcDbEntity
  8
10
100
AcDbLine
 10
793.0021684255589
 20
415.101003296284
 30
0.0
 11
790.0021684255589
 21
415.101003296284
 31
0.0
  0
LINE
  5
5701
330
1F
100
AcDbEntity
  8
10
100
AcDbLine
 10
793.0021684255589
 20
412.101003296284
 30
0.0
 11
790.0021684255589
 21
412.101003296284
 31
0.0
  0
LINE
  5
5702
330
1F
100
AcDbEntity
  8
10
100
AcDbLine
 10
788.2021684255589
 20
415.101003296284
 30
0.0
 11
785.2021684255589
 21
415.101003296284
 31
0.0
  0
LINE
  5
5703
330
1F
100
AcDbEntity
  8
10
100
AcDbLine
 10
788.2021684255589
 20
412.101003296284
 30
0.0
 11
785.2021684255589
 21
412.101003296284
 31
0.0
  0
LINE
  5
5704
330
1F
100
AcDbEntity
  8
10
100
AcDbLine
 10
750.8021684255591
 20
468.601003296284
 30
0.0
 11
750.8021684255591
 21
453.601003296284
 31
0.0
  0
LINE
  5
5705
330
1F
100
AcDbEntity
  8
10
100
AcDbLine
 10
758.5021684255591
 20
469.101003296284
 30
0.0
 11
758.5021684255591
 21
453.101003296284
 31
0.0
  0
LINE
  5
5706
330
1F
100
AcDbEntity
  8
10
100
AcDbLine
 10
757.5021684255591
 20
469.101003296284
 30
0.0
 11
757.5021684255591
 21
453.101003296284
 31
0.0
  0
LINE
  5
5707
330
1F
100
AcDbEntity
  8
10
100
AcDbLine
 10
751.3021684255591
 20
453.101003296284
 30
0.0
 11
759.0021684255591
 21
453.101003296284
 31
0.0
  0
ARC
  5
5708
330
1F
100
AcDbEntity
  8
10
100
AcDbCircle
 10
753.0021684255591
 20
465.7010032962841
 30
0.0
 40
0.3999999999999779
100
AcDbArc
 50
0.0
 51
180.0
  0
ARC
  5
5709
330
1F
100
AcDbEntity
  8
10
100
AcDbCircle
 10
753.0021684255591
 20
456.5010032962841
 30
0.0
 40
0.3999999999999779
100
AcDbArc
 50
180.0
 51
0.0
  0
ARC
  5
570A
330
1F
100
AcDbEntity
  8
10
100
AcDbCircle
 10
751.3021684255591
 20
453.601003296284
 30
0.0
 40
0.5
100
AcDbArc
 50
180.0
 51
270.0
  0
LINE
  5
570B
330
1F
100
AcDbEntity
  8
10
100
AcDbLine
 10
753.4021684255592
 20
465.7010032962841
 30
0.0
 11
753.4021684255592
 21
456.5010032962841
 31
0.0
  0
LINE
  5
570C
330
1F
100
AcDbEntity
  8
10
100
AcDbLine
 10
752.602168425559
 20
465.7010032962841
 30
0.0
 11
752.602168425559
 21
456.5010032962841
 31
0.0
  0
ARC
  5
570D
330
1F
100
AcDbEntity
  8
10
100
AcDbCircle
 10
756.2021684255592
 20
465.7010032962841
 30
0.0
 40
0.3999999999999779
100
AcDbArc
 50
0.0
 51
180.0
  0
ARC
  5
570E
330
1F
100
AcDbEntity
  8
10
100
AcDbCircle
 10
754.602168425559
 20
465.7010032962841
 30
0.0
 40
0.3999999999999779
100
AcDbArc
 50
0.0
 51
180.0
  0
ARC
  5
570F
330
1F
100
AcDbEntity
  8
10
100
AcDbCircle
 10
754.602168425559
 20
456.5010032962841
 30
0.0
 40
0.3999999999999779
100
AcDbArc
 50
180.0
 51
0.0
  0
ARC
  5
5710
330
1F
100
AcDbEntity
  8
10
100
AcDbCircle
 10
756.2021684255592
 20
456.5010032962841
 30
0.0
 40
0.40000000000009
100
AcDbArc
 50
180.0
 51
0.0
  0
LINE
  5
5711
330
1F
100
AcDbEntity
  8
10
100
AcDbLine
 10
756.602168425559
 20
465.7010032962841
 30
0.0
 11
756.602168425559
 21
456.5010032962841
 31
0.0
  0
LINE
  5
5712
330
1F
100
AcDbEntity
  8
10
100
AcDbLine
 10
755.802168425559
 20
465.7010032962841
 30
0.0
 11
755.802168425559
 21
456.5010032962841
 31
0.0
  0
LINE
  5
5713
330
1F
100
AcDbEntity
  8
10
100
AcDbLine
 10
755.0021684255591
 20
465.7010032962841
 30
0.0
 11
755.0021684255591
 21
456.5010032962841
 31
0.0
  0
LINE
  5
5714
330
1F
100
AcDbEntity
  8
10
100
AcDbLine
 10
754.2021684255591
 20
465.7010032962841
 30
0.0
 11
754.2021684255591
 21
456.5010032962841
 31
0.0
  0
LINE
  5
5715
330
1F
100
AcDbEntity
  8
10
100
AcDbLine
 10
751.3021684255591
 20
469.101003296284
 30
0.0
 11
759.0021684255591
 21
469.101003296284
 31
0.0
  0
LINE
  5
5716
330
1F
100
AcDbEntity
  8
10
100
AcDbLine
 10
748.3021684255593
 20
480.601003296284
 30
0.0
 11
759.0021684255591
 21
480.601003296284
 31
0.0
  0
ARC
  5
5717
330
1F
100
AcDbEntity
  8
10
100
AcDbCircle
 10
748.3021684255593
 20
479.8010032962841
 30
0.0
 40
0.800000000000012
100
AcDbArc
 50
90.0
 51
180.0
  0
ARC
  5
5718
330
1F
100
AcDbEntity
  8
10
100
AcDbCircle
 10
751.3021684255591
 20
468.601003296284
 30
0.0
 40
0.5
100
AcDbArc
 50
90.0
 51
180.0
  0
ARC
  5
5719
330
1F
100
AcDbEntity
  8
10
100
AcDbCircle
 10
781.9021684255588
 20
460.601003296284
 30
0.0
 40
1.5
100
AcDbArc
 50
0.0
 51
180.0
  0
LINE
  5
571A
330
1F
100
AcDbEntity
  8
10
100
AcDbLine
 10
783.4021684255588
 20
437.101003296284
 30
0.0
 11
780.4021684255587
 21
437.101003296284
 31
0.0
  0
LINE
  5
571B
330
1F
100
AcDbEntity
  8
10
100
AcDbLine
 10
783.4021684255588
 20
440.101003296284
 30
0.0
 11
780.4021684255587
 21
440.101003296284
 31
0.0
  0
ARC
  5
571C
330
1F
100
AcDbEntity
  8
10
100
AcDbCircle
 10
777.1021684255591
 20
460.601003296284
 30
0.0
 40
1.5
100
AcDbArc
 50
0.0
 51
180.0
  0
LINE
  5
571D
330
1F
100
AcDbEntity
  8
10
100
AcDbLine
 10
778.602168425559
 20
440.101003296284
 30
0.0
 11
775.602168425559
 21
440.101003296284
 31
0.0
  0
LINE
  5
571E
330
1F
100
AcDbEntity
  8
10
100
AcDbLine
 10
778.602168425559
 20
437.101003296284
 30
0.0
 11
775.602168425559
 21
437.101003296284
 31
0.0
  0
ARC
  5
571F
330
1F
100
AcDbEntity
  8
10
100
AcDbCircle
 10
791.5021684255592
 20
460.601003296284
 30
0.0
 40
1.5
100
AcDbArc
 50
0.0
 51
180.0
  0
ARC
  5
5720
330
1F
100
AcDbEntity
  8
10
100
AcDbCircle
 10
786.702168425559
 20
460.601003296284
 30
0.0
 40
1.5
100
AcDbArc
 50
0.0
 51
180.0
  0
LINE
  5
5721
330
1F
100
AcDbEntity
  8
10
100
AcDbLine
 10
793.0021684255589
 20
440.101003296284
 30
0.0
 11
790.0021684255589
 21
440.101003296284
 31
0.0
  0
LINE
  5
5722
330
1F
100
AcDbEntity
  8
10
100
AcDbLine
 10
793.0021684255589
 20
437.101003296284
 30
0.0
 11
790.0021684255589
 21
437.101003296284
 31
0.0
  0
LINE
  5
5723
330
1F
100
AcDbEntity
  8
10
100
AcDbLine
 10
788.2021684255589
 20
440.101003296284
 30
0.0
 11
785.2021684255589
 21
440.101003296284
 31
0.0
  0
LINE
  5
5724
330
1F
100
AcDbEntity
  8
10
100
AcDbLine
 10
788.2021684255589
 20
437.101003296284
 30
0.0
 11
785.2021684255589
 21
437.101003296284
 31
0.0
  0
LINE
  5
5725
330
1F
100
AcDbEntity
  8
10
100
AcDbLine
 10
895.5021684255589
 20
480.601003296284
 30
0.0
 11
822.5021684255588
 21
480.601003296284
 31
0.0
  0
LINE
  5
5726
330
1F
100
AcDbEntity
  8
10
100
AcDbLine
 10
875.502168425559
 20
464.5128128452593
 30
0.0
 11
829.0021684255588
 21
464.5128128452593
 31
0.0
  0
LINE
  5
5727
330
1F
100
AcDbEntity
  8
10
100
AcDbLine
 10
794.8021684255588
 20
391.601003296284
 30
0.0
 11
794.8021684255588
 21
460.601003296284
 31
0.0
  0
LINE
  5
5728
330
1F
100
AcDbEntity
  8
10
100
AcDbLine
 10
797.8021684255589
 20
391.601003296284
 30
0.0
 11
797.8021684255589
 21
460.601003296284
 31
0.0
  0
LINE
  5
5729
330
1F
100
AcDbEntity
  8
10
100
AcDbLine
 10
799.602168425559
 20
391.601003296284
 30
0.0
 11
799.602168425559
 21
460.601003296284
 31
0.0
  0
LINE
  5
572A
330
1F
100
AcDbEntity
  8
10
100
AcDbLine
 10
822.5021684255594
 20
374.601003296284
 30
0.0
 11
822.5021684255594
 21
436.601003296284
 31
0.0
  0
LINE
  5
572B
330
1F
100
AcDbEntity
  8
10
100
AcDbLine
 10
802.602168425559
 20
391.601003296284
 30
0.0
 11
802.602168425559
 21
460.601003296284
 31
0.0
  0
LINE
  5
572C
330
1F
100
AcDbEntity
  8
10
100
AcDbLine
 10
804.4021684255593
 20
391.601003296284
 30
0.0
 11
804.4021684255593
 21
460.601003296284
 31
0.0
  0
LINE
  5
572D
330
1F
100
AcDbEntity
  8
10
100
AcDbLine
 10
807.402168425559
 20
391.601003296284
 30
0.0
 11
807.402168425559
 21
460.601003296284
 31
0.0
  0
LINE
  5
572E
330
1F
100
AcDbEntity
  8
10
100
AcDbLine
 10
812.2021684255589
 20
391.601003296284
 30
0.0
 11
812.2021684255589
 21
460.601003296284
 31
0.0
  0
LINE
  5
572F
330
1F
100
AcDbEntity
  8
10
100
AcDbLine
 10
809.2021684255589
 20
391.601003296284
 30
0.0
 11
809.2021684255589
 21
460.601003296284
 31
0.0
  0
ARC
  5
5730
330
1F
100
AcDbEntity
  8
10
100
AcDbCircle
 10
801.102168425559
 20
391.601003296284
 30
0.0
 40
1.5
100
AcDbArc
 50
180.0
 51
0.0
  0
ARC
  5
5731
330
1F
100
AcDbEntity
  8
10
100
AcDbCircle
 10
796.3021684255588
 20
391.601003296284
 30
0.0
 40
1.5
100
AcDbArc
 50
180.0
 51
0.0
  0
ARC
  5
5732
330
1F
100
AcDbEntity
  8
10
100
AcDbCircle
 10
805.902168425559
 20
391.601003296284
 30
0.0
 40
1.5
100
AcDbArc
 50
180.0
 51
0.0
  0
LINE
  5
5733
330
1F
100
AcDbEntity
  8
10
100
AcDbLine
 10
817.5021684255591
 20
373.351003296284
 30
0.0
 11
814.5021684255592
 21
373.351003296284
 31
0.0
  0
LINE
  5
5734
330
1F
100
AcDbEntity
  8
10
100
AcDbLine
 10
817.502168425559
 20
373.101003296284
 30
0.0
 11
815.0021684255589
 21
373.101003296284
 31
0.0
  0
ARC
  5
5735
330
1F
100
AcDbEntity
  8
10
100
AcDbCircle
 10
810.702168425559
 20
391.601003296284
 30
0.0
 40
1.5
100
AcDbArc
 50
180.0
 51
0.0
  0
LINE
  5
5736
330
1F
100
AcDbEntity
  8
10
100
AcDbLine
 10
802.602168425559
 20
415.101003296284
 30
0.0
 11
799.602168425559
 21
415.101003296284
 31
0.0
  0
LINE
  5
5737
330
1F
100
AcDbEntity
  8
10
100
AcDbLine
 10
802.602168425559
 20
412.101003296284
 30
0.0
 11
799.602168425559
 21
412.101003296284
 31
0.0
  0
LINE
  5
5738
330
1F
100
AcDbEntity
  8
10
100
AcDbLine
 10
797.8021684255589
 20
415.101003296284
 30
0.0
 11
794.8021684255588
 21
415.101003296284
 31
0.0
  0
LINE
  5
5739
330
1F
100
AcDbEntity
  8
10
100
AcDbLine
 10
797.8021684255589
 20
412.101003296284
 30
0.0
 11
794.8021684255588
 21
412.101003296284
 31
0.0
  0
LINE
  5
573A
330
1F
100
AcDbEntity
  8
10
100
AcDbLine
 10
807.402168425559
 20
415.101003296284
 30
0.0
 11
804.4021684255593
 21
415.101003296284
 31
0.0
  0
LINE
  5
573B
330
1F
100
AcDbEntity
  8
10
100
AcDbLine
 10
807.402168425559
 20
412.101003296284
 30
0.0
 11
804.4021684255593
 21
412.101003296284
 31
0.0
  0
LINE
  5
573C
330
1F
100
AcDbEntity
  8
10
100
AcDbLine
 10
812.2021684255589
 20
415.101003296284
 30
0.0
 11
809.2021684255589
 21
415.101003296284
 31
0.0
  0
LINE
  5
573D
330
1F
100
AcDbEntity
  8
10
100
AcDbLine
 10
812.2021684255589
 20
412.101003296284
 30
0.0
 11
809.2021684255589
 21
412.101003296284
 31
0.0
  0
LINE
  5
573E
330
1F
100
AcDbEntity
  8
10
100
AcDbLine
 10
822.5021684255594
 20
374.601003296284
 30
0.0
 11
821.5021684255594
 21
374.601003296284
 31
0.0
  0
ARC
  5
573F
330
1F
100
AcDbEntity
  8
10
100
AcDbCircle
 10
801.102168425559
 20
460.601003296284
 30
0.0
 40
1.5
100
AcDbArc
 50
0.0
 51
180.0
  0
ARC
  5
5740
330
1F
100
AcDbEntity
  8
10
100
AcDbCircle
 10
796.3021684255588
 20
460.601003296284
 30
0.0
 40
1.5
100
AcDbArc
 50
0.0
 51
180.0
  0
LINE
  5
5741
330
1F
100
AcDbEntity
  8
10
100
AcDbLine
 10
802.602168425559
 20
440.101003296284
 30
0.0
 11
799.602168425559
 21
440.101003296284
 31
0.0
  0
LINE
  5
5742
330
1F
100
AcDbEntity
  8
10
100
AcDbLine
 10
802.602168425559
 20
437.101003296284
 30
0.0
 11
799.602168425559
 21
437.101003296284
 31
0.0
  0
LINE
  5
5743
330
1F
100
AcDbEntity
  8
10
100
AcDbLine
 10
797.8021684255589
 20
440.101003296284
 30
0.0
 11
794.8021684255588
 21
440.101003296284
 31
0.0
  0
LINE
  5
5744
330
1F
100
AcDbEntity
  8
10
100
AcDbLine
 10
797.8021684255589
 20
437.101003296284
 30
0.0
 11
794.8021684255588
 21
437.101003296284
 31
0.0
  0
LINE
  5
5745
330
1F
100
AcDbEntity
  8
10
100
AcDbLine
 10
807.402168425559
 20
440.101003296284
 30
0.0
 11
804.4021684255593
 21
440.101003296284
 31
0.0
  0
LINE
  5
5746
330
1F
100
AcDbEntity
  8
10
100
AcDbLine
 10
807.402168425559
 20
437.101003296284
 30
0.0
 11
804.4021684255593
 21
437.101003296284
 31
0.0
  0
ARC
  5
5747
330
1F
100
AcDbEntity
  8
10
100
AcDbCircle
 10
805.902168425559
 20
460.601003296284
 30
0.0
 40
1.5
100
AcDbArc
 50
0.0
 51
180.0
  0
ARC
  5
5748
330
1F
100
AcDbEntity
  8
10
100
AcDbCircle
 10
810.702168425559
 20
460.601003296284
 30
0.0
 40
1.5
100
AcDbArc
 50
0.0
 51
180.0
  0
LINE
  5
5749
330
1F
100
AcDbEntity
  8
10
100
AcDbLine
 10
812.2021684255589
 20
440.101003296284
 30
0.0
 11
809.2021684255589
 21
440.101003296284
 31
0.0
  0
LINE
  5
574A
330
1F
100
AcDbEntity
  8
10
100
AcDbLine
 10
812.2021684255589
 20
437.101003296284
 30
0.0
 11
809.2021684255589
 21
437.101003296284
 31
0.0
  0
LINE
  5
574B
330
1F
100
AcDbEntity
  8
10
100
AcDbLine
 10
814.5021684255592
 20
445.351003296284
 30
0.0
 11
814.5021684255592
 21
437.851003296284
 31
0.0
  0
LINE
  5
574C
330
1F
100
AcDbEntity
  8
10
100
AcDbLine
 10
817.5021684255591
 20
445.351003296284
 30
0.0
 11
814.5021684255592
 21
445.351003296284
 31
0.0
  0
LINE
  5
574D
330
1F
100
AcDbEntity
  8
10
100
AcDbLine
 10
817.5021684255591
 20
437.851003296284
 30
0.0
 11
817.5021684255591
 21
445.351003296284
 31
0.0
  0
LINE
  5
574E
330
1F
100
AcDbEntity
  8
10
100
AcDbLine
 10
817.5021684255591
 20
437.851003296284
 30
0.0
 11
814.5021684255592
 21
437.851003296284
 31
0.0
  0
LINE
  5
574F
330
1F
100
AcDbEntity
  8
10
100
AcDbLine
 10
817.502168425559
 20
445.101003296284
 30
0.0
 11
815.0021684255589
 21
445.101003296284
 31
0.0
  0
LINE
  5
5750
330
1F
100
AcDbEntity
  8
10
100
AcDbLine
 10
817.502168425559
 20
438.101003296284
 30
0.0
 11
817.502168425559
 21
445.101003296284
 31
0.0
  0
LINE
  5
5751
330
1F
100
AcDbEntity
  8
10
100
AcDbLine
 10
817.502168425559
 20
438.101003296284
 30
0.0
 11
815.0021684255589
 21
438.101003296284
 31
0.0
  0
LINE
  5
5752
330
1F
100
AcDbEntity
  8
10
100
AcDbLine
 10
816.5021684255588
 20
438.101003296284
 30
0.0
 11
816.5021684255588
 21
445.101003296284
 31
0.0
  0
LINE
  5
5753
330
1F
100
AcDbEntity
  8
10
100
AcDbLine
 10
815.0021684255589
 20
438.101003296284
 30
0.0
 11
815.0021684255589
 21
445.101003296284
 31
0.0
  0
LINE
  5
5754
330
1F
100
AcDbEntity
  8
10
100
AcDbLine
 10
822.5021684255594
 20
446.601003296284
 30
0.0
 11
822.5021684255594
 21
480.601003296284
 31
0.0
  0
LINE
  5
5755
330
1F
100
AcDbEntity
  8
10
100
AcDbLine
 10
826.5021684255589
 20
472.6183745693942
 30
0.0
 11
826.5021684255589
 21
452.101003296284
 31
0.0
  0
LINE
  5
5756
330
1F
100
AcDbEntity
  8
10
100
AcDbLine
 10
822.5021684255588
 20
467.101003296284
 30
0.0
 11
826.5021684255589
 21
467.101003296284
 31
0.0
  0
LINE
  5
5757
330
1F
100
AcDbEntity
  8
10
100
AcDbLine
 10
829.0021684255588
 20
452.101003296284
 30
0.0
 11
826.5021684255589
 21
452.101003296284
 31
0.0
  0
LINE
  5
5758
330
1F
100
AcDbEntity
  8
10
100
AcDbLine
 10
821.5021684255594
 20
436.601003296284
 30
0.0
 11
821.5021684255594
 21
446.601003296284
 31
0.0
  0
LINE
  5
5759
330
1F
100
AcDbEntity
  8
10
100
AcDbLine
 10
822.5021684255594
 20
446.601003296284
 30
0.0
 11
821.5021684255594
 21
446.601003296284
 31
0.0
  0
LINE
  5
575A
330
1F
100
AcDbEntity
  8
10
100
AcDbLine
 10
822.5021684255594
 20
436.601003296284
 30
0.0
 11
821.5021684255594
 21
436.601003296284
 31
0.0
  0
LINE
  5
575B
330
1F
100
AcDbEntity
  8
10
100
AcDbLine
 10
829.0021684255588
 20
464.5128128452593
 30
0.0
 11
829.0021684255588
 21
452.101003296284
 31
0.0
  0
ARC
  5
575C
330
1F
100
AcDbEntity
  8
10
100
AcDbCircle
 10
876.5021684255589
 20
466.101003296284
 30
0.0
 40
1.0
100
AcDbArc
 50
90.0
 51
180.0
  0
LINE
  5
575D
330
1F
100
AcDbEntity
  8
10
100
AcDbLine
 10
875.502168425559
 20
466.101003296284
 30
0.0
 11
875.502168425559
 21
471.6183745693943
 31
0.0
  0
LINE
  5
575E
330
1F
100
AcDbEntity
  8
10
100
AcDbLine
 10
875.502168425559
 20
464.5128128452593
 30
0.0
 11
875.502168425559
 21
466.101003296284
 31
0.0
  0
ARC
  5
575F
330
1F
100
AcDbEntity
  8
10
100
AcDbCircle
 10
889.0021684255589
 20
468.601003296284
 30
0.0
 40
1.5
100
AcDbArc
 50
270.0
 51
0.0
  0
LINE
  5
5760
330
1F
100
AcDbEntity
  8
10
100
AcDbLine
 10
895.5021684255589
 20
480.601003296284
 30
0.0
 11
895.5021684255589
 21
462.601003296284
 31
0.0
  0
LINE
  5
5761
330
1F
100
AcDbEntity
  8
10
100
AcDbLine
 10
876.5021684255589
 20
467.101003296284
 30
0.0
 11
889.0021684255589
 21
467.101003296284
 31
0.0
  0
LINE
  5
5762
330
1F
100
AcDbEntity
  8
10
100
AcDbLine
 10
895.5021684255589
 20
462.601003296284
 30
0.0
 11
895.0021684255588
 21
462.601003296284
 31
0.0
  0
LINE
  5
5763
330
1F
100
AcDbEntity
  8
10
100
AcDbLine
 10
890.5021684255588
 20
480.601003296284
 30
0.0
 11
890.5021684255588
 21
468.601003296284
 31
0.0
  0
MTEXT
  5
576A
330
1F
100
AcDbEntity
  8
19
100
AcDbMText
 10
909.0048810298219
 20
257.6535381161095
 30
0.0
 40
10.0
 41
150.0
 71
     4
 72
     5
  1
{\Fromans.shx;FR-E560-5.5K-NA}
  7
STANDARD1
1001
ACAD
1000
MTEXTBEGIN
1070
    73
1070
     1
1070
    44
1040
1.0
1070
    74
1070
     0
1000
MTEXTEND
  0
LWPOLYLINE
  5
5772
330
1F
100
AcDbEntity
  8
18
100
AcDbPolyline
 90
        4
 70
     1
 43
0.0
 10
277.5021684255589
 20
230.601003296284
 10
597.5021684255588
 20
230.601003296284
 10
597.5021684255588
 20
580.601003296284
 10
277.5021684255589
 20
580.601003296284
  0
LWPOLYLINE
  5
5BDD
330
1F
100
AcDbEntity
  8
18
100
AcDbPolyline
 90
        4
 70
     1
 43
0.0
 10
697.5021684255588
 20
230.601003296284
 10
895.5021684255589
 20
230.601003296284
 10
895.5021684255589
 20
580.601003296284
 10
697.5021684255588
 20
580.601003296284
  0
VIEWPORT
  5
71
330
55
100
AcDbEntity
 67
     1
  8
0
100
AcDbViewport
 10
133.3499908447265
 20
101.5999970436096
 30
0.0
 40
381.3957395593834
 41
218.2856291881582
 68
     1
 69
     1
1001
ACAD
1000
MVIEW
1002
{
1070
    16
1010
0.0
1020
0.0
1030
0.0
1010
0.0
1020
0.0
1030
1.0
1040
0.0
1040
218.2856291881582
1040
133.3499908447265
1040
101.5999970436096
1040
50.0
1040
0.0
1040
0.0
1070
     0
1070
   100
1070
     1
1070
     1
1070
     0
1070
     0
1070
     0
1070
     0
1040
0.0
1040
0.0
1040
0.0
1040
10.0
1040
10.0
1040
10.0
1040
10.0
1070
     0
1002
{
1002
}
1002
}
  0
VIEWPORT
  5
73
330
55
100
AcDbEntity
 67
     1
  8
0
100
AcDbViewport
 10
133.349993944168
 20
101.599993944168
 30
0.0
 40
213.3599903106689
 41
162.5599903106689
 68
     2
 69
     2
1001
ACAD
1000
MVIEW
1002
{
1070
    16
1010
0.0
1020
0.0
1030
0.0
1010
0.0
1020
0.0
1030
1.0
1040
0.0
1040
324.0677920111345
1040
210.0
1040
148.5
1040
50.0
1040
0.0
1040
0.0
1070
     0
1070
   100
1070
     1
1070
     3
1070
     0
1070
     0
1070
     0
1070
     0
1040
0.0
1040
0.0
1040
0.0
1040
10.0
1040
10.0
1040
10.0
1040
10.0
1070
     0
1002
{
1002
}
1002
}
  0
ENDSEC
  0
SECTION
  2
OBJECTS
  0
DICTIONARY
  5
C
330
0
100
AcDbDictionary
  3
ACAD_GROUP
350
D
  3
ACAD_LAYOUT
350
1A
  3
ACAD_MLINESTYLE
350
17
  3
ACAD_PLOTSETTINGS
350
19
  3
ACAD_PLOTSTYLENAME
350
E
  3
ACDBHEADERROUNDTRIPXREC
350
5C2C
  3
ACDBVARIABLEDICTIONARY
350
5E
  0
DICTIONARY
  5
AC
330
2
100
AcDbDictionary
280
     1
  3
ACAD_LAYERFILTERS
360
AD
  3
ACAD_LAYERSTATES
360
C0
  0
DICTIONARY
  5
2892
330
1F
100
AcDbDictionary
280
     1
  3
ACAD_LAYOUTSELFREF
360
5C4D
  0
DICTIONARY
  5
2894
330
55
100
AcDbDictionary
280
     1
  3
ACAD_LAYOUTSELFREF
360
5C4F
  0
DICTIONARY
  5
D
102
{ACAD_REACTORS
330
C
102
}
330
C
100
AcDbDictionary
  3
*A1
350
3B44
  3
*A2
350
3B45
  3
*A3
350
3B46
  3
*A4
350
3B47
  3
*A5
350
4C59
  0
DICTIONARY
  5
1A
102
{ACAD_REACTORS
330
C
102
}
330
C
100
AcDbDictionary
  0
DICTIONARY
  5
17
102
{ACAD_REACTORS
330
C
102
}
330
C
100
AcDbDictionary
  3
STANDARD
350
18
  0
DICTIONARY
  5
19
102
{ACAD_REACTORS
330
C
102
}
330
C
100
AcDbDictionary
  0
ACDBDICTIONARYWDFLT
  5
E
102
{ACAD_REACTORS
330
C
102
}
330
C
100
AcDbDictionary
281
     1
  3
Normal
350
F
100
AcDbDictionaryWithDefault
340
F
  0
DICTIONARY
  5
5C2C
102
{ACAD_REACTORS
330
C
102
}
330
C
100
AcDbDictionary
  3
CEPSNTYPE
350
5C36
  3
DIMSTYLEDATA
350
5C3A
  3
FINGERPRINTGUID
350
5C37
  3
HYPERLINKBASE
350
5C2F
  3
INSUNITS
350
5C35
  3
LAYOUTDICT
350
5C31
  3
LWETCUNION
350
5C34
  3
PLOTSETDICT
350
5C32
  3
PLOTSTYLNAMDICT
350
5C33
  3
PSVPSCALE
350
5C39
  3
PUCSBASE
350
5C3D
  3
PUCSORGBACK
350
5C43
  3
PUCSORGBOTTOM
350
5C3F
  3
PUCSORGFRONT
350
5C42
  3
PUCSORGLEFT
350
5C40
  3
PUCSORGRIGHT
350
5C41
  3
PUCSORGTOP
350
5C3E
  3
PUCSORTHOREF
350
5C3B
  3
PUCSORTHOVIEW
350
5C3C
  3
STYLESHEET
350
5C30
  3
TSTACKALIGN
350
5C2D
  3
TSTACKSIZE
350
5C2E
  3
UCSBASE
350
5C46
  3
UCSORGBACK
350
5C4C
  3
UCSORGBOTTOM
350
5C48
  3
UCSORGFRONT
350
5C4B
  3
UCSORGLEFT
350
5C49
  3
UCSORGRIGHT
350
5C4A
  3
UCSORGTOP
350
5C47
  3
UCSORTHOREF
350
5C44
  3
UCSORTHOVIEW
350
5C45
  3
VERSIONGUID
350
5C38
  0
DICTIONARY
  5
5E
102
{ACAD_REACTORS
330
C
102
}
330
C
100
AcDbDictionary
  3
DIMASSOC
350
5F
  3
HIDETEXT
350
63
  0
DICTIONARY
  5
AD
102
{ACAD_REACTORS
330
AC
102
}
330
AC
100
AcDbDictionary
280
     1
  3
0
360
AE
  3
R1ク_ラ_
360
AF
  3
R2ク_ラ_
360
B0
  0
DICTIONARY
  5
C0
102
{ACAD_REACTORS
330
AC
102
}
330
AC
100
AcDbDictionary
  0
XRECORD
  5
5C4D
102
{ACAD_REACTORS
330
2892
102
}
330
2892
100
AcDbXrecord
340
1F
  0
XRECORD
  5
5C4F
102
{ACAD_REACTORS
330
2894
102
}
330
2894
100
AcDbXrecord
340
55
  0
GROUP
  5
3B44
102
{ACAD_REACTORS
330
D
102
}
330
D
100
AcDbGroup
300

 70
     1
 71
     1
  0
GROUP
  5
3B45
102
{ACAD_REACTORS
330
D
102
}
330
D
100
AcDbGroup
300

 70
     3
 71
     1
  0
GROUP
  5
3B46
102
{ACAD_REACTORS
330
D
102
}
330
D
100
AcDbGroup
300

 70
     1
 71
     1
  0
GROUP
  5
3B47
102
{ACAD_REACTORS
330
D
102
}
330
D
100
AcDbGroup
300

 70
     1
 71
     1
  0
GROUP
  5
4C59
102
{ACAD_REACTORS
330
D
102
}
330
D
100
AcDbGroup
300

 70
     1
 71
     1
  0
MLINESTYLE
  5
18
102
{ACAD_REACTORS
330
17
102
}
330
17
100
AcDbMlineStyle
  2
STANDARD
 70
     0
  3

 62
   256
 51
90.0
 52
90.0
 71
     2
 49
0.5
 62
   256
  6
BYLAYER
 49
-0.5
 62
   256
  6
BYLAYER
  0
ACDBPLACEHOLDER
  5
F
102
{ACAD_REACTORS
330
E
102
}
330
E
100
AcDbPlaceHolder
280
     0
  0
XRECORD
  5
5C36
102
{ACAD_REACTORS
330
5C2C
102
}
330
5C2C
100
AcDbXrecord
 90
        0
  0
XRECORD
  5
5C3A
102
{ACAD_REACTORS
330
5C2C
102
}
330
5C2C
100
AcDbXrecord
1000
DSTYLE
1002
{
1070
   278
 70
    44
1002
}
  0
XRECORD
  5
5C37
102
{ACAD_REACTORS
330
5C2C
102
}
330
5C2C
100
AcDbXrecord
  1
{FDEAD578-A652-11D2-9A35-0060089B3A3F}
  0
XRECORD
  5
5C2F
102
{ACAD_REACTORS
330
5C2C
102
}
330
5C2C
100
AcDbXrecord
  1

  0
XRECORD
  5
5C35
102
{ACAD_REACTORS
330
5C2C
102
}
330
5C2C
100
AcDbXrecord
 90
        4
  0
XRECORD
  5
5C31
102
{ACAD_REACTORS
330
5C2C
102
}
330
5C2C
100
AcDbXrecord
340
1A
  0
XRECORD
  5
5C34
102
{ACAD_REACTORS
330
5C2C
102
}
330
5C2C
100
AcDbXrecord
 90
    10781
  0
XRECORD
  5
5C32
102
{ACAD_REACTORS
330
5C2C
102
}
330
5C2C
100
AcDbXrecord
340
19
  0
XRECORD
  5
5C33
102
{ACAD_REACTORS
330
5C2C
102
}
330
5C2C
100
AcDbXrecord
340
E
  0
XRECORD
  5
5C39
102
{ACAD_REACTORS
330
5C2C
102
}
330
5C2C
100
AcDbXrecord
 40
0.0
  0
XRECORD
  5
5C3D
102
{ACAD_REACTORS
330
5C2C
102
}
330
5C2C
100
AcDbXrecord
340
0
  0
XRECORD
  5
5C43
102
{ACAD_REACTORS
330
5C2C
102
}
330
5C2C
100
AcDbXrecord
 10
0.0
 20
0.0
 30
0.0
  0
XRECORD
  5
5C3F
102
{ACAD_REACTORS
330
5C2C
102
}
330
5C2C
100
AcDbXrecord
 10
0.0
 20
0.0
 30
0.0
  0
XRECORD
  5
5C42
102
{ACAD_REACTORS
330
5C2C
102
}
330
5C2C
100
AcDbXrecord
 10
0.0
 20
0.0
 30
0.0
  0
XRECORD
  5
5C40
102
{ACAD_REACTORS
330
5C2C
102
}
330
5C2C
100
AcDbXrecord
 10
0.0
 20
0.0
 30
0.0
  0
XRECORD
  5
5C41
102
{ACAD_REACTORS
330
5C2C
102
}
330
5C2C
100
AcDbXrecord
 10
0.0
 20
0.0
 30
0.0
  0
XRECORD
  5
5C3E
102
{ACAD_REACTORS
330
5C2C
102
}
330
5C2C
100
AcDbXrecord
 10
0.0
 20
0.0
 30
0.0
  0
XRECORD
  5
5C3B
102
{ACAD_REACTORS
330
5C2C
102
}
330
5C2C
100
AcDbXrecord
340
0
  0
XRECORD
  5
5C3C
102
{ACAD_REACTORS
330
5C2C
102
}
330
5C2C
100
AcDbXrecord
 70
     0
  0
XRECORD
  5
5C30
102
{ACAD_REACTORS
330
5C2C
102
}
330
5C2C
100
AcDbXrecord
  1

  0
XRECORD
  5
5C2D
102
{ACAD_REACTORS
330
5C2C
102
}
330
5C2C
100
AcDbXrecord
 90
        1
  0
XRECORD
  5
5C2E
102
{ACAD_REACTORS
330
5C2C
102
}
330
5C2C
100
AcDbXrecord
 90
       70
  0
XRECORD
  5
5C46
102
{ACAD_REACTORS
330
5C2C
102
}
330
5C2C
100
AcDbXrecord
340
0
  0
XRECORD
  5
5C4C
102
{ACAD_REACTORS
330
5C2C
102
}
330
5C2C
100
AcDbXrecord
 10
0.0
 20
0.0
 30
0.0
  0
XRECORD
  5
5C48
102
{ACAD_REACTORS
330
5C2C
102
}
330
5C2C
100
AcDbXrecord
 10
0.0
 20
0.0
 30
0.0
  0
XRECORD
  5
5C4B
102
{ACAD_REACTORS
330
5C2C
102
}
330
5C2C
100
AcDbXrecord
 10
0.0
 20
0.0
 30
0.0
  0
XRECORD
  5
5C49
102
{ACAD_REACTORS
330
5C2C
102
}
330
5C2C
100
AcDbXrecord
 10
0.0
 20
0.0
 30
0.0
  0
XRECORD
  5
5C4A
102
{ACAD_REACTORS
330
5C2C
102
}
330
5C2C
100
AcDbXrecord
 10
0.0
 20
0.0
 30
0.0
  0
XRECORD
  5
5C47
102
{ACAD_REACTORS
330
5C2C
102
}
330
5C2C
100
AcDbXrecord
 10
0.0
 20
0.0
 30
0.0
  0
XRECORD
  5
5C44
102
{ACAD_REACTORS
330
5C2C
102
}
330
5C2C
100
AcDbXrecord
340
0
  0
XRECORD
  5
5C45
102
{ACAD_REACTORS
330
5C2C
102
}
330
5C2C
100
AcDbXrecord
 70
     0
  0
XRECORD
  5
5C38
102
{ACAD_REACTORS
330
5C2C
102
}
330
5C2C
100
AcDbXrecord
  1
{6CF81411-0CC3-4739-84DE-AFD94B92B3B7}
  0
DICTIONARYVAR
  5
5F
102
{ACAD_REACTORS
330
5E
102
}
330
5E
100
DictionaryVariables
280
     0
  1
2
  0
DICTIONARYVAR
  5
63
102
{ACAD_REACTORS
330
5E
102
}
330
5E
100
DictionaryVariables
280
     0
  1
1
  0
XRECORD
  5
AE
102
{ACAD_REACTORS
330
AD
102
}
330
AD
100
AcDbXrecord
  1
0
  1
0*
  1
*
  1
*
 70
     0
  1
*
  1
*
  0
XRECORD
  5
AF
102
{ACAD_REACTORS
330
AD
102
}
330
AD
100
AcDbXrecord
  1
R1クーラー
  1
0-1（R1クーラー*）
  1
*
  1
*
 70
     0
  1
*
  1
*
  0
XRECORD
  5
B0
102
{ACAD_REACTORS
330
AD
102
}
330
AD
100
AcDbXrecord
  1
R2クーラー
  1
0-1（R2クーラー*）
  1
*
  1
*
 70
     0
  1
*
  1
*
  0
ENDSEC
  0
EOF
