  0
SECTION
  2
HEADER
  9
$ACADVER
  1
AC1014
  9
$ACADMAINTVER
 70
     9
  9
$DWGCODEPAGE
  3
ANSI_932
  9
$INSBASE
 10
0.0
 20
0.0
 30
0.0
  9
$EXTMIN
 10
-0.032038567266909
 20
-3.990392406188675
 30
-0.000000000000013
  9
$EXTMAX
 10
285.3920950784916
 20
103.6833198163983
 30
0.0000000000000023
  9
$LIMMIN
 10
0.0
 20
0.0
  9
$LIMMAX
 10
420.0
 20
297.0
  9
$ORTHOMODE
 70
     0
  9
$REGENMODE
 70
     1
  9
$FILLMODE
 70
     1
  9
$QTEXTMODE
 70
     0
  9
$MIRRTEXT
 70
     1
  9
$DRAGMODE
 70
     2
  9
$LTSCALE
 40
1.0
  9
$OSMODE
 70
  3071
  9
$ATTMODE
 70
     1
  9
$TEXTSIZE
 40
2.5
  9
$TRACEWID
 40
1.0
  9
$TEXTSTYLE
  7
STANDARD
  9
$CLAYER
  8
0
  9
$CELTYPE
  6
BYLAYER
  9
$CECOLOR
 62
   256
  9
$CELTSCALE
 40
1.0
  9
$DELOBJ
 70
     1
  9
$DISPSILH
 70
     0
  9
$DIMSCALE
 40
1.0
  9
$DIMASZ
 40
2.5
  9
$DIMEXO
 40
0.625
  9
$DIMDLI
 40
3.75
  9
$DIMRND
 40
0.0
  9
$DIMDLE
 40
0.0
  9
$DIMEXE
 40
1.25
  9
$DIMTP
 40
0.0
  9
$DIMTM
 40
0.0
  9
$DIMTXT
 40
2.5
  9
$DIMCEN
 40
2.5
  9
$DIMTSZ
 40
0.0
  9
$DIMTOL
 70
     0
  9
$DIMLIM
 70
     0
  9
$DIMTIH
 70
     0
  9
$DIMTOH
 70
     0
  9
$DIMSE1
 70
     0
  9
$DIMSE2
 70
     0
  9
$DIMTAD
 70
     1
  9
$DIMZIN
 70
     8
  9
$DIMBLK
  1

  9
$DIMASO
 70
     1
  9
$DIMSHO
 70
     1
  9
$DIMPOST
  1

  9
$DIMAPOST
  1

  9
$DIMALT
 70
     0
  9
$DIMALTD
 70
     3
  9
$DIMALTF
 40
0.03937007874016
  9
$DIMLFAC
 40
1.0
  9
$DIMTOFL
 70
     1
  9
$DIMTVP
 40
0.0
  9
$DIMTIX
 70
     0
  9
$DIMSOXD
 70
     0
  9
$DIMSAH
 70
     0
  9
$DIMBLK1
  1

  9
$DIMBLK2
  1

  9
$DIMSTYLE
  2
ISO-25
  9
$DIMCLRD
 70
     0
  9
$DIMCLRE
 70
     0
  9
$DIMCLRT
 70
     0
  9
$DIMTFAC
 40
1.0
  9
$DIMGAP
 40
0.625
  9
$DIMJUST
 70
     0
  9
$DIMSD1
 70
     0
  9
$DIMSD2
 70
     0
  9
$DIMTOLJ
 70
     0
  9
$DIMTZIN
 70
     8
  9
$DIMALTZ
 70
     0
  9
$DIMALTTZ
 70
     0
  9
$DIMFIT
 70
     3
  9
$DIMUPT
 70
     0
  9
$DIMUNIT
 70
     2
  9
$DIMDEC
 70
     2
  9
$DIMTDEC
 70
     2
  9
$DIMALTU
 70
     2
  9
$DIMALTTD
 70
     3
  9
$DIMTXSTY
  7
STANDARD
  9
$DIMAUNIT
 70
     0
  9
$LUNITS
 70
     2
  9
$LUPREC
 70
     2
  9
$SKETCHINC
 40
1.0
  9
$FILLETRAD
 40
10.0
  9
$AUNITS
 70
     0
  9
$AUPREC
 70
     0
  9
$MENU
  1
.
  9
$ELEVATION
 40
0.0
  9
$PELEVATION
 40
0.0
  9
$THICKNESS
 40
0.0
  9
$LIMCHECK
 70
     0
  9
$BLIPMODE
 70
     0
  9
$CHAMFERA
 40
10.0
  9
$CHAMFERB
 40
10.0
  9
$CHAMFERC
 40
20.0
  9
$CHAMFERD
 40
0.0
  9
$SKPOLY
 70
     0
  9
$TDCREATE
 40
2454596.550355717
  9
$TDUPDATE
 40
2454755.713443460
  9
$TDINDWG
 40
0.0538831134
  9
$TDUSRTIMER
 40
0.0538829282
  9
$USRTIMER
 70
     1
  9
$ANGBASE
 50
0.0
  9
$ANGDIR
 70
     0
  9
$PDMODE
 70
     0
  9
$PDSIZE
 40
0.0
  9
$PLINEWID
 40
0.0
  9
$COORDS
 70
     0
  9
$SPLFRAME
 70
     0
  9
$SPLINETYPE
 70
     6
  9
$SPLINESEGS
 70
     8
  9
$ATTDIA
 70
     0
  9
$ATTREQ
 70
     1
  9
$HANDLING
 70
 22529
  9
$HANDSEED
  5
AF7
  9
$SURFTAB1
 70
     6
  9
$SURFTAB2
 70
     6
  9
$SURFTYPE
 70
     6
  9
$SURFU
 70
     6
  9
$SURFV
 70
     6
  9
$UCSNAME
  2

  9
$UCSORG
 10
0.0
 20
0.0
 30
0.0
  9
$UCSXDIR
 10
1.0
 20
0.0
 30
0.0
  9
$UCSYDIR
 10
0.0
 20
1.0
 30
0.0
  9
$PUCSNAME
  2

  9
$PUCSORG
 10
0.0
 20
0.0
 30
0.0
  9
$PUCSXDIR
 10
1.0
 20
0.0
 30
0.0
  9
$PUCSYDIR
 10
0.0
 20
1.0
 30
0.0
  9
$USERI1
 70
     0
  9
$USERI2
 70
     0
  9
$USERI3
 70
     0
  9
$USERI4
 70
     0
  9
$USERI5
 70
     0
  9
$USERR1
 40
0.0
  9
$USERR2
 40
0.0
  9
$USERR3
 40
0.0
  9
$USERR4
 40
0.0
  9
$USERR5
 40
0.0
  9
$WORLDVIEW
 70
     1
  9
$SHADEDGE
 70
     3
  9
$SHADEDIF
 70
    70
  9
$TILEMODE
 70
     1
  9
$MAXACTVP
 70
    48
  9
$PINSBASE
 10
0.0
 20
0.0
 30
0.0
  9
$PLIMCHECK
 70
     0
  9
$PEXTMIN
 10
28.5263154029846
 20
19.82258291244505
 30
0.0
  9
$PEXTMAX
 10
256.7368386268614
 20
178.4032462120055
 30
0.0
  9
$PLIMMIN
 10
-5.873748779296875
 20
-5.873749732971191
  9
$PLIMMAX
 10
291.1369018554686
 20
204.0995779037474
  9
$UNITMODE
 70
     0
  9
$VISRETAIN
 70
     1
  9
$PLINEGEN
 70
     0
  9
$PSLTSCALE
 70
     1
  9
$TREEDEPTH
 70
  3020
  9
$PICKSTYLE
 70
     1
  9
$CMLSTYLE
  2
STANDARD
  9
$CMLJUST
 70
     0
  9
$CMLSCALE
 40
20.0
  9
$PROXYGRAPHICS
 70
     1
  9
$MEASUREMENT
 70
     0
  0
ENDSEC
  0
SECTION
  2
CLASSES
  0
CLASS
  1
ACDBDICTIONARYWDFLT
  2
AcDbDictionaryWithDefault
  3
AutoCAD 2000
 90
        0
280
     0
281
     0
  0
CLASS
  1
ACDBPLACEHOLDER
  2
AcDbPlaceHolder
  3
AutoCAD 2000
 90
        0
280
     0
281
     0
  0
CLASS
  1
LAYOUT
  2
AcDbLayout
  3
AutoCAD 2000
 90
        0
280
     0
281
     0
  0
CLASS
  1
DICTIONARYVAR
  2
AcDbDictionaryVar
  3
AutoCAD 2000
 90
        0
280
     0
281
     0
  0
CLASS
  1
LONG_TRANSACTION
  2
AcDbLongTransaction
  3
AutoCAD 2000
 90
        0
280
     0
281
     0
  0
CLASS
  1
LWPOLYLINE
  2
AcDbPolyline
  3
AutoCAD 2000
 90
        0
280
     0
281
     1
  0
CLASS
  1
HATCH
  2
AcDbHatch
  3
AutoCAD 2000
 90
        0
280
     0
281
     1
  0
CLASS
  1
XRECORD
  2
AcDbXrecord
  3
AutoCAD 2000
 90
        0
280
     0
281
     0
  0
CLASS
  1
LONG_TRANSACTION
  2
AcDbLongTransaction
  3
AutoCAD 2000
 90
        0
280
     0
281
     0
  0
CLASS
  1
LWPOLYLINE
  2
AcDbPolyline
  3
AutoCAD 2000
 90
        0
280
     0
281
     1
  0
CLASS
  1
HATCH
  2
AcDbHatch
  3
AutoCAD 2000
 90
        0
280
     0
281
     1
  0
CLASS
  1
XRECORD
  2
AcDbXrecord
  3
AutoCAD 2000
 90
        0
280
     0
281
     0
  0
CLASS
  1
AMGSETTINGSOBJ
  2
AmgSettingsObj
  3
"AcadM|Product Description: AutoCAD Mechanical 2000|Company: Autodesk"
 90
        0
280
     0
281
     0
  0
CLASS
  1
ACME_DOCUMENT
  2
AcMeDbDoc
  3
AcMeServices
 90
        0
280
     0
281
     0
  0
CLASS
  1
ACMESCOPE
  2
AcMeScope
  3
AcMeServices
 90
        0
280
     0
281
     0
  0
CLASS
  1
ACMECOMMANDHISTORY
  2
AcMeCommandHistory
  3
AcMeServices
 90
        0
280
     0
281
     0
  0
CLASS
  1
ACIMSYSVARMAN
  2
AcImSysVarManager
  3
AcMeServices
 90
        0
280
     0
281
     0
  0
CLASS
  1
ACIMREALSYSVAR
  2
AcImRealSysVar
  3
AcMeServices
 90
        0
280
     0
281
     0
  0
CLASS
  1
ACIMINTSYSVAR
  2
AcImIntSysVar
  3
AcMeServices
 90
        0
280
     0
281
     0
  0
CLASS
  1
ACMEDRAWINGMAN
  2
AcMeDrawingMan
  3
AcMeServices
 90
        0
280
     0
281
     0
  0
CLASS
  1
ACMEVIEW
  2
AcMeView
  3
AcMeServices
 90
        0
280
     0
281
     0
  0
CLASS
  1
ACDBENTITYCACHE
  2
AcMeEntityCache
  3
AcMeServices
 90
        0
280
     0
281
     0
  0
CLASS
  1
GSMANAGER
  2
AcMeGSManager
  3
AcMeServices
 90
        0
280
     0
281
     0
  0
CLASS
  1
AMDTINTERNALREACTOR
  2
AmdtInternalReactor
  3
AcMeServices
 90
        0
280
     0
281
     0
  0
CLASS
  1
ACMESTATEMGR
  2
AcMeStateMgr
  3
AcMeServices
 90
        0
280
     0
281
     0
  0
CLASS
  1
ACGREFMASTER
  2
AcGrefMaster
  3
AcAttribServices
 90
        0
280
     0
281
     0
  0
CLASS
  1
AM_DRAWING_MGR
  2
AcDmDwgMgr
  3
AcMechDwgViewMgmt
 90
        0
280
     0
281
     0
  0
CLASS
  1
AM_DWG_DOCUMENT
  2
AcDmDwgDocument
  3
AcMechDwgViewMgmt
 90
        0
280
     0
281
     0
  0
CLASS
  1
AM_DWG_SHEET
  2
AcDmSheet
  3
AcMechDwgViewMgmt
 90
        0
280
     0
281
     0
  0
CLASS
  1
AM_VIEWDIMPARMAP
  2
AcDmViewDimParMap
  3
AcMechDwgViewMgmt
 90
        0
280
     0
281
     0
  0
CLASS
  1
AM_DWGMGR_NAME
  2
AcDmDwgMgrName
  3
AcMechDwgViewMgmt
 90
        0
280
     0
281
     0
  0
CLASS
  1
ACME_DATABASE
  2
AcMeDbDatabase
  3
AcMeServices
 90
        0
280
     0
281
     0
  0
CLASS
  1
ACRFINSADJUSTERMGR
  2
AcRfInsAdjusterMgr
  3
AcMeServices
 90
        0
280
     0
281
     0
  0
CLASS
  1
ACGREFACADMASTER
  2
AcGrefacadMaster
  3
AcGrefServices
 90
        0
280
     0
281
     0
  0
CLASS
  1
AMDTMENUSTATEMGR
  2
AmdtMenuStateMgr
  3
McadcomServices
 90
        0
280
     0
281
     0
  0
CLASS
  1
AMDTMCOMMENUSTATE
  2
AmdtMcomMenuState
  3
McadcomServices
 90
        0
280
     0
281
     0
  0
CLASS
  1
AMIMASTER
  2
AmiMaster
  3
AmiServices
 90
        0
280
     0
281
     0
  0
CLASS
  1
ASAPP
  2
AcAsAppObject
  3
AutoSurfServices
 90
        0
280
     0
281
     0
  0
CLASS
  1
IM_STATIC_MAN
  2
AcImStaticVarManager
  3
AcMeServices
 90
        0
280
     0
281
     0
  0
CLASS
  1
ACIMSTRSYSVAR
  2
AcImStrSysVar
  3
AcMeServices
 90
        0
280
     0
281
     0
  0
CLASS
  1
ACIMDBLSTATICVAR
  2
AcImDblStaticVar
  3
AcMeServices
 90
        0
280
     0
281
     0
  0
CLASS
  1
ACIMSTRSTATICVAR
  2
AcImStrStaticVar
  3
AcMeServices
 90
        0
280
     0
281
     0
  0
CLASS
  1
ACIMINTSTATICVAR
  2
AcImIntStaticVar
  3
AcMeServices
 90
        0
280
     0
281
     0
  0
CLASS
  1
ACASGREFMASTER
  2
AcAsGrefMaster
  3
AutoSurfResolverServices
 90
        0
280
     0
281
     0
  0
CLASS
  1
ACADGREFMODULE
  2
AcAdGrefModule
  3
AdGrefServices
 90
        0
280
     0
281
     0
  0
CLASS
  1
AMDTMAPISURFMOUDULE
  2
AmdtMApiSurfModule
  3
MApiSurfServices
 90
        0
280
     0
281
     0
  0
CLASS
  1
MAPIAMMOUDLE
  2
MApiAmModule
  3
MApiAmServices
 90
        0
280
     0
281
     0
  0
CLASS
  1
AMDTADMENUSTATE
  2
AmdtAdMenuState
  3
DesignerServices
 90
        0
280
     0
281
     0
  0
CLASS
  1
ADAPPL
  2
AcAdAppl
  3
DesignerServices
 90
        0
280
     0
281
     0
  0
CLASS
  1
DEPMGR
  2
AcAdDepMgr
  3
DesignerServices
 90
        0
280
     0
281
     0
  0
CLASS
  1
PARAMMGR
  2
AcAdParamMgr
  3
DesignerServices
 90
        0
280
     0
281
     0
  0
CLASS
  1
PARAMSCOPE
  2
AcAdParamScope
  3
DesignerServices
 90
        0
280
     0
281
     0
  0
CLASS
  1
NAMEDAPPL
  2
AcAdNamedAppl
  3
DesignerServices
 90
        0
280
     0
281
     0
  0
CLASS
  1
AMDTDMMENUSTATE
  2
AmdtDmMenuState
  3
AcMechDwgViewMgmt
 90
        0
280
     0
281
     0
  0
CLASS
  1
MAPIADMODULE
  2
MApiAdModule
  3
MApiAdServices
 90
        0
280
     0
281
     0
  0
CLASS
  1
AMDTAMMENUSTATE
  2
AmdtAmMenuState
  3
DesignerAssemblies
 90
        0
280
     0
281
     0
  0
CLASS
  1
ACAMPROJECT
  2
AcAmProject
  3
DesignerAssemblies
 90
        0
280
     0
281
     0
  0
CLASS
  1
ACAMGRCOMPDEF
  2
AcAmGrCompDef
  3
DesignerAssemblies
 90
        0
280
     0
281
     0
  0
CLASS
  1
ACCMCONTEXT
  2
AcCmContext
  3
DesignerAssemblies
 90
        0
280
     0
281
     0
  0
CLASS
  1
ACAMCOMPDEF
  2
AcAmCompDef
  3
DesignerAssemblies
 90
        0
280
     0
281
     0
  0
CLASS
  1
ACAMCOMPDEFMGR
  2
AcAmCompDefMgr
  3
DesignerAssemblies
 90
        0
280
     0
281
     0
  0
CLASS
  1
AMCONTEXTMGR
  2
AcAmContextMgr
  3
DesignerAssemblies
 90
        0
280
     0
281
     0
  0
CLASS
  1
ACAMCONTEXTMODELER
  2
AcAmContextModeler
  3
DesignerAssemblies
 90
        0
280
     0
281
     0
  0
CLASS
  1
ACMDATADICTIONARY
  2
AcmDataDictionary
  3
"AcmSymBB|Product Description: AutoCAD Mechanical 2000|Company: Autodesk"
 90
        0
280
     0
281
     0
  0
CLASS
  1
ACMDATAENTRYBLOCK
  2
AcmDataEntryBlock
  3
"AcmSymBB|Product Description: AutoCAD Mechanical 2000|Company: Autodesk"
 90
        0
280
     0
281
     0
  0
CLASS
  1
CATALOGSTATE
  2
AcAmCatalogState
  3
DesignerAssemblies
 90
        0
280
     0
281
     0
  0
CLASS
  1
ACAMGRCOMPDEFSET
  2
AcAmGrCompDefSet
  3
DesignerAssemblies
 90
        0
280
     0
281
     0
  0
CLASS
  1
AMDTBROWSERDBTAB
  2
AmdtBrowserDbTab
  3
McadcomServices
 90
        0
280
     0
281
     0
  0
CLASS
  1
CBROWSERAPPOBJECT
  2
CBrowserAppObject
  3
McadcomServices
 90
        0
280
     0
281
     0
  0
CLASS
  1
DM_PLACEHOLDER
  2
AcDmSelsetPlaceholder
  3
AcMechDwgViewMgmt
 90
        0
280
     0
281
     0
  0
CLASS
  1
AMGOBJPROPCFG
  2
AmgObjPropCfg
  3
"AmgLay|Product Description: AutoCAD Mechanical 2000|Company: Autodesk"
 90
        1
280
     0
281
     0
  0
CLASS
  1
ACAMGFILTERDAT
  2
AcAmgFilterDat
  3
"AcadM|Product Description: AutoCAD Mechanical 2000|Company: Autodesk"
 90
        0
280
     0
281
     0
  0
CLASS
  1
LAYER_INDEX
  2
AcDbLayerIndex
  3
AutoCAD 2000
 90
        0
280
     0
281
     0
  0
CLASS
  1
IDBUFFER
  2
AcDbIdBuffer
  3
AutoCAD 2000
 90
        0
280
     0
281
     0
  0
CLASS
  1
ACAD_PROXY_OBJECT_WRAPPER
  2
AcDbProxyObjectWrapper
  3
AutoCAD 2000
 90
        0
280
     0
281
     0
  0
CLASS
  1
LONG_TRANSACTION
  2
AcDbLongTransaction
  3
AutoCAD 2000
 90
        0
280
     0
281
     0
  0
CLASS
  1
LWPOLYLINE
  2
AcDbPolyline
  3
AutoCAD 2000
 90
        0
280
     0
281
     1
  0
CLASS
  1
HATCH
  2
AcDbHatch
  3
AutoCAD 2000
 90
        0
280
     0
281
     1
  0
CLASS
  1
XRECORD
  2
AcDbXrecord
  3
AutoCAD 2000
 90
        0
280
     0
281
     0
  0
CLASS
  1
LONG_TRANSACTION
  2
AcDbLongTransaction
  3
AutoCAD 2000
 90
        0
280
     0
281
     0
  0
CLASS
  1
LWPOLYLINE
  2
AcDbPolyline
  3
AutoCAD 2000
 90
        0
280
     0
281
     1
  0
CLASS
  1
HATCH
  2
AcDbHatch
  3
AutoCAD 2000
 90
        0
280
     0
281
     1
  0
CLASS
  1
XRECORD
  2
AcDbXrecord
  3
AutoCAD 2000
 90
        0
280
     0
281
     0
  0
CLASS
  1
LONG_TRANSACTION
  2
AcDbLongTransaction
  3
AutoCAD 2000
 90
        0
280
     0
281
     0
  0
CLASS
  1
LWPOLYLINE
  2
AcDbPolyline
  3
AutoCAD 2000
 90
        0
280
     0
281
     1
  0
CLASS
  1
HATCH
  2
AcDbHatch
  3
AutoCAD 2000
 90
        0
280
     0
281
     1
  0
CLASS
  1
XRECORD
  2
AcDbXrecord
  3
AutoCAD 2000
 90
        0
280
     0
281
     0
  0
CLASS
  1
LONG_TRANSACTION
  2
AcDbLongTransaction
  3
AutoCAD 2000
 90
        0
280
     0
281
     0
  0
CLASS
  1
LWPOLYLINE
  2
AcDbPolyline
  3
AutoCAD 2000
 90
        0
280
     0
281
     1
  0
CLASS
  1
HATCH
  2
AcDbHatch
  3
AutoCAD 2000
 90
        0
280
     0
281
     1
  0
CLASS
  1
XRECORD
  2
AcDbXrecord
  3
AutoCAD 2000
 90
        0
280
     0
281
     0
  0
CLASS
  1
LONG_TRANSACTION
  2
AcDbLongTransaction
  3
AutoCAD 2000
 90
        0
280
     0
281
     0
  0
CLASS
  1
LWPOLYLINE
  2
AcDbPolyline
  3
AutoCAD 2000
 90
        0
280
     0
281
     1
  0
CLASS
  1
HATCH
  2
AcDbHatch
  3
AutoCAD 2000
 90
        0
280
     0
281
     1
  0
CLASS
  1
XRECORD
  2
AcDbXrecord
  3
AutoCAD 2000
 90
        0
280
     0
281
     0
  0
CLASS
  1
LONG_TRANSACTION
  2
AcDbLongTransaction
  3
AutoCAD 2000
 90
        0
280
     0
281
     0
  0
CLASS
  1
LWPOLYLINE
  2
AcDbPolyline
  3
AutoCAD 2000
 90
        0
280
     0
281
     1
  0
CLASS
  1
HATCH
  2
AcDbHatch
  3
AutoCAD 2000
 90
        0
280
     0
281
     1
  0
CLASS
  1
XRECORD
  2
AcDbXrecord
  3
AutoCAD 2000
 90
        0
280
     0
281
     0
  0
CLASS
  1
LONG_TRANSACTION
  2
AcDbLongTransaction
  3
AutoCAD 2000
 90
        0
280
     0
281
     0
  0
CLASS
  1
LWPOLYLINE
  2
AcDbPolyline
  3
AutoCAD 2000
 90
        0
280
     0
281
     1
  0
CLASS
  1
HATCH
  2
AcDbHatch
  3
AutoCAD 2000
 90
        0
280
     0
281
     1
  0
CLASS
  1
XRECORD
  2
AcDbXrecord
  3
AutoCAD 2000
 90
        0
280
     0
281
     0
  0
ENDSEC
  0
SECTION
  2
TABLES
  0
TABLE
  2
VPORT
  5
8
330
0
100
AcDbSymbolTable
 70
     2
  0
VPORT
  5
AD4
330
8
100
AcDbSymbolTableRecord
100
AcDbViewportTableRecord
  2
*ACTIVE
 70
     0
 10
0.0
 20
0.0
 11
1.0
 21
1.0
 12
-998.2691383255767
 22
-502.7297107373414
 13
0.0
 23
0.0
 14
10.0
 24
10.0
 15
10.0
 25
10.0
 16
0.0
 26
0.0
 36
1.0
 17
1140.949166581189
 27
552.5761744424462
 37
0.0
 40
176.9522549412878
 41
1.621212121212121
 42
50.0
 43
0.0
 44
0.0
 50
0.0
 51
0.0
 71
     0
 72
   100
 73
     1
 74
     3
 75
     0
 76
     0
 77
     0
 78
     0
  0
ENDTAB
  0
TABLE
  2
LTYPE
  5
5
330
0
100
AcDbSymbolTable
 70
     8
  0
LTYPE
  5
14
330
5
100
AcDbSymbolTableRecord
100
AcDbLinetypeTableRecord
  2
BYBLOCK
 70
     0
  3

 72
    65
 73
     0
 40
0.0
  0
LTYPE
  5
15
330
5
100
AcDbSymbolTableRecord
100
AcDbLinetypeTableRecord
  2
BYLAYER
 70
     0
  3

 72
    65
 73
     0
 40
0.0
  0
LTYPE
  5
16
330
5
100
AcDbSymbolTableRecord
100
AcDbLinetypeTableRecord
  2
CONTINUOUS
 70
     0
  3
Solid line
 72
    65
 73
     0
 40
0.0
  0
LTYPE
  5
5C6
330
5
100
AcDbSymbolTableRecord
100
AcDbLinetypeTableRecord
  2
AM_ISO02W050
 70
     0
  3
__ __ __ __ __ __ __ __ __ __ __ __ __ __ __
 72
    65
 73
     2
 40
7.5
 49
6.0
 74
     0
 49
-1.5
 74
     0
  0
LTYPE
  5
5C7
330
5
100
AcDbSymbolTableRecord
100
AcDbLinetypeTableRecord
  2
AM_ISO08W050
 70
     0
  3
____ . ____ . ____ . ____ . ____ . ____ . ____
 72
    65
 73
     4
 40
18.0
 49
12.0
 74
     0
 49
-1.5
 74
     0
 49
3.0
 74
     0
 49
-1.5
 74
     0
  0
LTYPE
  5
5C8
330
5
100
AcDbSymbolTableRecord
100
AcDbLinetypeTableRecord
  2
AM_ISO09W050
 70
     0
  3
_____ . . _____ . . _____ . . ____ .. ____
 72
    65
 73
     6
 40
22.5
 49
12.0
 74
     0
 49
-1.5
 74
     0
 49
3.0
 74
     0
 49
-1.5
 74
     0
 49
3.0
 74
     0
 49
-1.5
 74
     0
  0
LTYPE
  5
5C9
330
5
100
AcDbSymbolTableRecord
100
AcDbLinetypeTableRecord
  2
AMCONSTR
 70
     0
  3
_______________________
 72
    65
 73
     2
 40
9999.0
 49
9999.0
 74
     0
 49
0.0
 74
     0
  0
LTYPE
  5
5CA
330
5
100
AcDbSymbolTableRecord
100
AcDbLinetypeTableRecord
  2
AM_ISO08W050X2
 70
     0
  3
__ . __ . __ . __ . __ . __
 72
    65
 73
     4
 40
9.0
 49
6.0
 74
     0
 49
-0.75
 74
     0
 49
1.5
 74
     0
 49
-0.75
 74
     0
  0
LTYPE
  5
5CB
330
5
100
AcDbSymbolTableRecord
100
AcDbLinetypeTableRecord
  2
AM_ISO02W050X2
 70
     0
  3
 _ _ _ _ _ _ _ _ _ _ _ _
 72
    65
 73
     2
 40
3.75
 49
3.0
 74
     0
 49
-0.75
 74
     0
  0
LTYPE
  5
5CE
330
5
100
AcDbSymbolTableRecord
100
AcDbLinetypeTableRecord
  2
AMZIGZAG
 70
     0
  3
/\/-/\/-/\/-/\/-/\/-/\/
 72
    65
 73
     2
 40
11.00009999999999
 49
0.0001
 74
     4
 75
   135
340
5CD
 46
0.04
 50
0.0
 44
0.0
 45
0.0
 49
-11.0
 74
     0
  0
ENDTAB
  0
TABLE
  2
LAYER
  5
2
102
{ACAD_XDICTIONARY
360
41
102
}
330
0
100
AcDbSymbolTable
 70
     7
  0
LAYER
  5
10
330
2
100
AcDbSymbolTableRecord
100
AcDbLayerTableRecord
  2
0
 70
     0
 62
     7
  6
CONTINUOUS
  0
LAYER
  5
35
330
2
100
AcDbSymbolTableRecord
100
AcDbLayerTableRecord
  2
10
 70
     0
 62
     4
  6
CONTINUOUS
  0
LAYER
  5
36
330
2
100
AcDbSymbolTableRecord
100
AcDbLayerTableRecord
  2
12
 70
     0
 62
     3
  6
CONTINUOUS
  0
LAYER
  5
37
330
2
100
AcDbSymbolTableRecord
100
AcDbLayerTableRecord
  2
16
 70
     0
 62
     4
  6
CONTINUOUS
  0
LAYER
  5
38
330
2
100
AcDbSymbolTableRecord
100
AcDbLayerTableRecord
  2
19
 70
     0
 62
     7
  6
CONTINUOUS
  0
LAYER
  5
636
330
2
100
AcDbSymbolTableRecord
100
AcDbLayerTableRecord
  2
DEFPOINTS
 70
     0
 62
     7
  6
CONTINUOUS
  0
LAYER
  5
A75
330
2
100
AcDbSymbolTableRecord
100
AcDbLayerTableRecord
  2
17
 70
     0
 62
     2
  6
CONTINUOUS
  0
ENDTAB
  0
TABLE
  2
STYLE
  5
3
330
0
100
AcDbSymbolTable
 70
     3
  0
STYLE
  5
11
330
3
100
AcDbSymbolTableRecord
100
AcDbTextStyleTableRecord
  2
STANDARD
 70
     0
 40
0.0
 41
1.0
 50
0.0
 71
     0
 42
2.5
  3
txt
  4

  0
STYLE
  5
3A
330
3
100
AcDbSymbolTableRecord
100
AcDbTextStyleTableRecord
  2
STANDARD1X3
 70
     0
 40
9.599999999999999
 41
0.7
 50
0.0
 71
     0
 42
9.599999999999999
  3
romans.shx
  4
extfont.shx
  0
STYLE
  5
5CD
330
3
100
AcDbSymbolTableRecord
100
AcDbTextStyleTableRecord
  2

 70
     1
 40
0.0
 41
1.0
 50
0.0
 71
     0
 42
2.5
  3
ltypeshp.shx
  4

  0
ENDTAB
  0
TABLE
  2
VIEW
  5
6
330
0
100
AcDbSymbolTable
 70
     0
  0
ENDTAB
  0
TABLE
  2
UCS
  5
7
330
0
100
AcDbSymbolTable
 70
     0
  0
ENDTAB
  0
TABLE
  2
APPID
  5
9
330
0
100
AcDbSymbolTable
 70
    17
  0
APPID
  5
12
330
9
100
AcDbSymbolTableRecord
100
AcDbRegAppTableRecord
  2
ACAD
 70
     0
  0
APPID
  5
3C
330
9
100
AcDbSymbolTableRecord
100
AcDbRegAppTableRecord
  2
ACAD_PSEXT
 70
     0
  0
APPID
  5
3D
330
9
100
AcDbSymbolTableRecord
100
AcDbRegAppTableRecord
  2
ACAD_DSTYLE_DIMEXT_LENGTH
 70
     0
  0
APPID
  5
3E
330
9
100
AcDbSymbolTableRecord
100
AcDbRegAppTableRecord
  2
ACAD_DSTYLE_DIMEXT_ENABLED
 70
     0
  0
APPID
  5
3F
330
9
100
AcDbSymbolTableRecord
100
AcDbRegAppTableRecord
  2
ACAD_DSTYLE_DIMJOGGED_JOGA
 70
     0
  0
APPID
  5
40
330
9
100
AcDbSymbolTableRecord
100
AcDbRegAppTableRecord
  2
ACAD_DSTYLE_DIMARC_LENGTH_
 70
     0
  0
APPID
  5
500
330
9
100
AcDbSymbolTableRecord
100
AcDbRegAppTableRecord
  2
GENIUS_GENDIM_13
 70
     0
  0
APPID
  5
501
330
9
100
AcDbSymbolTableRecord
100
AcDbRegAppTableRecord
  2
GENIUS_GENDTOL_13
 70
     0
  0
APPID
  5
502
330
9
100
AcDbSymbolTableRecord
100
AcDbRegAppTableRecord
  2
GENIUS_GE3DTOL_13
 70
     0
  0
APPID
  5
504
330
9
100
AcDbSymbolTableRecord
100
AcDbRegAppTableRecord
  2
MCAD_NO_VIS
 70
     0
  0
APPID
  5
505
330
9
100
AcDbSymbolTableRecord
100
AcDbRegAppTableRecord
  2
ACAD_TEMP_GRAPHIC
 70
     0
  0
APPID
  5
537
330
9
100
AcDbSymbolTableRecord
100
AcDbRegAppTableRecord
  2
AD_DRAW
 70
     0
  0
APPID
  5
53A
330
9
100
AcDbSymbolTableRecord
100
AcDbRegAppTableRecord
  2
ACATTRIBSERVICES
 70
     0
  0
APPID
  5
586
330
9
100
AcDbSymbolTableRecord
100
AcDbRegAppTableRecord
  2
ASURF_PCURVE_APPNAME
 70
     0
  0
APPID
  5
5B5
330
9
100
AcDbSymbolTableRecord
100
AcDbRegAppTableRecord
  2
DESIGNERASSEMBLIES
 70
     0
  0
APPID
  5
5BD
330
9
100
AcDbSymbolTableRecord
100
AcDbRegAppTableRecord
  2
ACADM_DIM_EDIT
 70
     0
  0
APPID
  5
5BE
330
9
100
AcDbSymbolTableRecord
100
AcDbRegAppTableRecord
  2
AMDT_DM_ADJ
 70
     0
  0
ENDTAB
  0
TABLE
  2
DIMSTYLE
  5
A
330
0
100
AcDbSymbolTable
 70
     1
  0
DIMSTYLE
105
27
330
A
100
AcDbSymbolTableRecord
100
AcDbDimStyleTableRecord
  2
ISO-25
 70
     0
  3

  4

  5

  6

  7

 40
1.0
 41
2.5
 42
0.625
 43
3.75
 44
1.25
 45
0.0
 46
0.0
 47
0.0
 48
0.0
140
2.5
141
2.5
142
0.0
143
0.03937007874016
144
1.0
145
0.0
146
1.0
147
0.625
 71
     0
 72
     0
 73
     0
 74
     0
 75
     0
 76
     0
 77
     1
 78
     8
170
     0
171
     3
172
     1
173
     0
174
     0
175
     0
176
     0
177
     0
178
     0
270
     2
271
     2
272
     2
273
     2
274
     3
340
11
275
     0
280
     0
281
     0
282
     0
283
     0
284
     8
285
     0
286
     0
287
     3
288
     0
  0
ENDTAB
  0
TABLE
  2
BLOCK_RECORD
  5
1
330
0
100
AcDbSymbolTable
 70
     2
  0
BLOCK_RECORD
  5
1F
102
{ACAD_XDICTIONARY
360
438
102
}
330
1
100
AcDbSymbolTableRecord
100
AcDbBlockTableRecord
  2
*MODEL_SPACE
  0
BLOCK_RECORD
  5
23
102
{ACAD_XDICTIONARY
360
43A
102
}
330
1
100
AcDbSymbolTableRecord
100
AcDbBlockTableRecord
  2
*PAPER_SPACE
  0
BLOCK_RECORD
  5
5AC
330
1
100
AcDbSymbolTableRecord
100
AcDbBlockTableRecord
  2
*U0
  0
BLOCK_RECORD
  5
990
330
1
100
AcDbSymbolTableRecord
100
AcDbBlockTableRecord
  2
*X1
  0
ENDTAB
  0
ENDSEC
  0
SECTION
  2
BLOCKS
  0
BLOCK
  5
20
330
1F
100
AcDbEntity
  8
0
100
AcDbBlockBegin
  2
*MODEL_SPACE
 70
     0
 10
0.0
 20
0.0
 30
0.0
  3
*MODEL_SPACE
  1

  0
ENDBLK
  5
21
330
1F
100
AcDbEntity
  8
0
100
AcDbBlockEnd
  0
BLOCK
  5
24
330
23
100
AcDbEntity
 67
     1
  8
0
100
AcDbBlockBegin
  2
*PAPER_SPACE
 70
     0
 10
0.0
 20
0.0
 30
0.0
  3
*PAPER_SPACE
  1

  0
ENDBLK
  5
25
330
23
100
AcDbEntity
 67
     1
  8
0
100
AcDbBlockEnd
  0
BLOCK
  5
5AD
330
5AC
100
AcDbEntity
  8
0
100
AcDbBlockBegin
  2
*U0
 70
     1
 10
0.0
 20
0.0
 30
0.0
  3
*U0
  1

  0
ENDBLK
  5
5AE
330
5AC
100
AcDbEntity
  8
0
100
AcDbBlockEnd
  0
BLOCK
  5
A05
330
990
100
AcDbEntity
  8
0
100
AcDbBlockBegin
  2
*X1
 70
     1
 10
0.0
 20
0.0
 30
0.0
  3
*X1
  1

  0
LINE
  5
991
330
990
100
AcDbEntity
  8
0
 62
     0
100
AcDbLine
 10
96.99999999999985
 20
98.17723966532611
 30
0.0
 11
96.17723966532594
 21
99.0
 31
0.0
  0
LINE
  5
992
330
990
100
AcDbEntity
  8
0
 62
     0
100
AcDbLine
 10
95.60569484413887
 20
97.99999999999997
 30
0.0
 11
94.60569484413879
 21
99.00000000000005
 31
0.0
  0
LINE
  5
993
330
990
100
AcDbEntity
  8
0
 62
     0
100
AcDbLine
 10
94.03415002295174
 20
98.0
 30
0.0
 11
93.03415002295167
 21
99.00000000000005
 31
0.0
  0
LINE
  5
994
330
990
100
AcDbEntity
  8
0
 62
     0
100
AcDbLine
 10
92.46260520176464
 20
98.0
 30
0.0
 11
91.46260520176465
 21
99.0
 31
0.0
  0
LINE
  5
995
330
990
100
AcDbEntity
  8
0
 62
     0
100
AcDbLine
 10
90.89106038057758
 20
97.99999999999997
 30
0.0
 11
89.89106038057743
 21
99.00000000000005
 31
0.0
  0
LINE
  5
996
330
990
100
AcDbEntity
  8
0
 62
     0
100
AcDbLine
 10
89.31951555939042
 20
98.0
 30
0.0
 11
88.31951555939037
 21
99.00000000000005
 31
0.0
  0
LINE
  5
997
330
990
100
AcDbEntity
  8
0
 62
     0
100
AcDbLine
 10
87.74797073820332
 20
98.0
 30
0.0
 11
86.74797073820332
 21
99.0
 31
0.0
  0
LINE
  5
998
330
990
100
AcDbEntity
  8
0
 62
     0
100
AcDbLine
 10
86.17642591701628
 20
97.99999999999997
 30
0.0
 11
85.17642591701614
 21
99.00000000000005
 31
0.0
  0
LINE
  5
999
330
990
100
AcDbEntity
  8
0
 62
     0
100
AcDbLine
 10
84.60488109582909
 20
98.0
 30
0.0
 11
83.60488109582908
 21
99.00000000000005
 31
0.0
  0
LINE
  5
99A
330
990
100
AcDbEntity
  8
0
 62
     0
100
AcDbLine
 10
83.03333627464203
 20
98.0
 30
0.0
 11
82.03333627464202
 21
99.0
 31
0.0
  0
LINE
  5
99B
330
990
100
AcDbEntity
  8
0
 62
     0
100
AcDbLine
 10
81.46179145345497
 20
97.99999999999997
 30
0.0
 11
80.46179145345485
 21
99.00000000000005
 31
0.0
  0
LINE
  5
99C
330
990
100
AcDbEntity
  8
0
 62
     0
100
AcDbLine
 10
79.8902466322678
 20
98.00000000000006
 30
0.0
 11
78.89024663226773
 21
99.00000000000012
 31
0.0
  0
LINE
  5
99D
330
990
100
AcDbEntity
  8
0
 62
     0
100
AcDbLine
 10
78.3187018110807
 20
98.00000000000006
 30
0.0
 11
77.3187018110807
 21
99.00000000000005
 31
0.0
  0
LINE
  5
99E
330
990
100
AcDbEntity
  8
0
 62
     0
100
AcDbLine
 10
76.74715698989365
 20
98.0
 30
0.0
 11
75.74715698989355
 21
99.00000000000012
 31
0.0
  0
LINE
  5
99F
330
990
100
AcDbEntity
  8
0
 62
     0
100
AcDbLine
 10
75.1756121687065
 20
98.00000000000006
 30
0.0
 11
74.17561216870648
 21
99.00000000000005
 31
0.0
  0
LINE
  5
9A0
330
990
100
AcDbEntity
  8
0
 62
     0
100
AcDbLine
 10
73.60406734751943
 20
98.0
 30
0.0
 11
72.60406734751938
 21
99.00000000000005
 31
0.0
  0
LINE
  5
9A1
330
990
100
AcDbEntity
  8
0
 62
     0
100
AcDbLine
 10
72.03252252633234
 20
98.0
 30
0.0
 11
71.03252252633223
 21
99.00000000000012
 31
0.0
  0
LINE
  5
9A2
330
990
100
AcDbEntity
  8
0
 62
     0
100
AcDbLine
 10
70.46097770514518
 20
98.00000000000006
 30
0.0
 11
69.46097770514518
 21
99.00000000000005
 31
0.0
  0
LINE
  5
9A3
330
990
100
AcDbEntity
  8
0
 62
     0
100
AcDbLine
 10
68.88943288395814
 20
98.0
 30
0.0
 11
67.88943288395808
 21
99.00000000000012
 31
0.0
  0
LINE
  5
9A4
330
990
100
AcDbEntity
  8
0
 62
     0
100
AcDbLine
 10
67.31788806277103
 20
98.00000000000006
 30
0.0
 11
66.31788806277092
 21
99.00000000000012
 31
0.0
  0
LINE
  5
9A5
330
990
100
AcDbEntity
  8
0
 62
     0
100
AcDbLine
 10
65.74634324158387
 20
98.00000000000006
 30
0.0
 11
64.74634324158387
 21
99.00000000000005
 31
0.0
  0
LINE
  5
9A6
330
990
100
AcDbEntity
  8
0
 62
     0
100
AcDbLine
 10
64.17479842039682
 20
98.0
 30
0.0
 11
63.17479842039671
 21
99.00000000000012
 31
0.0
  0
LINE
  5
9A7
330
990
100
AcDbEntity
  8
0
 62
     0
100
AcDbLine
 10
62.60325359920972
 20
98.00000000000006
 30
0.0
 11
61.6032535992096
 21
99.00000000000012
 31
0.0
  0
LINE
  5
9A8
330
990
100
AcDbEntity
  8
0
 62
     0
100
AcDbLine
 10
61.03170877802257
 20
98.00000000000006
 30
0.0
 11
60.03170877802257
 21
99.00000000000005
 31
0.0
  0
LINE
  5
9A9
330
990
100
AcDbEntity
  8
0
 62
     0
100
AcDbLine
 10
59.46016395683551
 20
98.0
 30
0.0
 11
58.46016395683539
 21
99.00000000000012
 31
0.0
  0
LINE
  5
9AA
330
990
100
AcDbEntity
  8
0
 62
     0
100
AcDbLine
 10
57.88861913564836
 20
98.00000000000006
 30
0.0
 11
56.8886191356483
 21
99.00000000000012
 31
0.0
  0
LINE
  5
9AB
330
990
100
AcDbEntity
  8
0
 62
     0
100
AcDbLine
 10
56.31707431446125
 20
98.00000000000006
 30
0.0
 11
55.31707431446125
 21
99.00000000000005
 31
0.0
  0
LINE
  5
9AC
330
990
100
AcDbEntity
  8
0
 62
     0
100
AcDbLine
 10
54.74552949327421
 20
98.0
 30
0.0
 11
53.7455294932741
 21
99.00000000000012
 31
0.0
  0
LINE
  5
9AD
330
990
100
AcDbEntity
  8
0
 62
     0
100
AcDbLine
 10
53.17398467208704
 20
98.00000000000006
 30
0.0
 11
52.17398467208699
 21
99.00000000000012
 31
0.0
  0
LINE
  5
9AE
330
990
100
AcDbEntity
  8
0
 62
     0
100
AcDbLine
 10
51.60243985089993
 20
98.00000000000006
 30
0.0
 11
50.60243985089993
 21
99.00000000000005
 31
0.0
  0
LINE
  5
9AF
330
990
100
AcDbEntity
  8
0
 62
     0
100
AcDbLine
 10
50.03089502971278
 20
98.00000000000013
 30
0.0
 11
49.03089502971289
 21
99.0
 31
0.0
  0
LINE
  5
9B0
330
990
100
AcDbEntity
  8
0
 62
     0
100
AcDbLine
 10
48.45935020852568
 20
98.00000000000013
 30
0.0
 11
47.45935020852573
 21
99.00000000000005
 31
0.0
  0
LINE
  5
9B1
330
990
100
AcDbEntity
  8
0
 62
     0
100
AcDbLine
 10
46.88780538733863
 20
98.00000000000006
 30
0.0
 11
45.88780538733867
 21
99.0
 31
0.0
  0
LINE
  5
9B2
330
990
100
AcDbEntity
  8
0
 62
     0
100
AcDbLine
 10
45.31626056615145
 20
98.00000000000013
 30
0.0
 11
44.31626056615158
 21
99.00000000000005
 31
0.0
  0
LINE
  5
9B3
330
990
100
AcDbEntity
  8
0
 62
     0
100
AcDbLine
 10
43.74471574496435
 20
98.00000000000013
 30
0.0
 11
42.74471574496442
 21
99.00000000000005
 31
0.0
  0
LINE
  5
9B4
330
990
100
AcDbEntity
  8
0
 62
     0
100
AcDbLine
 10
42.17317092377732
 20
98.00000000000006
 30
0.0
 11
41.17317092377738
 21
99.0
 31
0.0
  0
LINE
  5
9B5
330
990
100
AcDbEntity
  8
0
 62
     0
100
AcDbLine
 10
40.60162610259014
 20
98.00000000000013
 30
0.0
 11
39.60162610259027
 21
99.00000000000005
 31
0.0
  0
LINE
  5
9B6
330
990
100
AcDbEntity
  8
0
 62
     0
100
AcDbLine
 10
39.0300812814031
 20
98.00000000000006
 30
0.0
 11
38.0300812814031
 21
99.00000000000005
 31
0.0
  0
LINE
  5
9B7
330
990
100
AcDbEntity
  8
0
 62
     0
100
AcDbLine
 10
37.45853646021606
 20
98.0
 30
0.0
 11
36.45853646021606
 21
99.0
 31
0.0
  0
LINE
  5
9B8
330
990
100
AcDbEntity
  8
0
 62
     0
100
AcDbLine
 10
35.88699163902885
 20
98.00000000000013
 30
0.0
 11
34.88699163902889
 21
99.00000000000005
 31
0.0
  0
LINE
  5
9B9
330
990
100
AcDbEntity
  8
0
 62
     0
100
AcDbLine
 10
34.3154468178418
 20
98.00000000000006
 30
0.0
 11
33.3154468178418
 21
99.00000000000005
 31
0.0
  0
LINE
  5
9BA
330
990
100
AcDbEntity
  8
0
 62
     0
100
AcDbLine
 10
32.74390199665475
 20
98.0
 30
0.0
 11
31.74390199665463
 21
99.00000000000012
 31
0.0
  0
LINE
  5
9BB
330
990
100
AcDbEntity
  8
0
 62
     0
100
AcDbLine
 10
31.17235717546765
 20
98.00000000000006
 30
0.0
 11
30.17235717546759
 21
99.00000000000005
 31
0.0
  0
LINE
  5
9BC
330
990
100
AcDbEntity
  8
0
 62
     0
100
AcDbLine
 10
29.60081235428048
 20
98.00000000000006
 30
0.0
 11
28.60081235428048
 21
99.00000000000005
 31
0.0
  0
LINE
  5
9BD
330
990
100
AcDbEntity
  8
0
 62
     0
100
AcDbLine
 10
28.02926753309339
 20
98.00000000000013
 30
0.0
 11
27.02926753309331
 21
99.00000000000012
 31
0.0
  0
LINE
  5
9BE
330
990
100
AcDbEntity
  8
0
 62
     0
100
AcDbLine
 10
26.45772271190628
 20
98.00000000000006
 30
0.0
 11
25.45772271190628
 21
99.00000000000005
 31
0.0
  0
LINE
  5
9BF
330
990
100
AcDbEntity
  8
0
 62
     0
100
AcDbLine
 10
24.88617789071918
 20
98.00000000000006
 30
0.0
 11
23.88617789071918
 21
99.00000000000005
 31
0.0
  0
LINE
  5
9C0
330
990
100
AcDbEntity
  8
0
 62
     0
100
AcDbLine
 10
23.31463306953201
 20
98.00000000000013
 30
0.0
 11
22.31463306953212
 21
99.0
 31
0.0
  0
LINE
  5
9C1
330
990
100
AcDbEntity
  8
0
 62
     0
100
AcDbLine
 10
21.74308824834497
 20
98.00000000000006
 30
0.0
 11
20.74308824834497
 21
99.00000000000005
 31
0.0
  0
LINE
  5
9C2
330
990
100
AcDbEntity
  8
0
 62
     0
100
AcDbLine
 10
20.17154342715787
 20
98.00000000000006
 30
0.0
 11
19.17154342715787
 21
99.00000000000005
 31
0.0
  0
LINE
  5
9C3
330
990
100
AcDbEntity
  8
0
 62
     0
100
AcDbLine
 10
18.59999860597082
 20
98.0
 30
0.0
 11
17.59999860597082
 21
99.0
 31
0.0
  0
LINE
  5
9C4
330
990
100
AcDbEntity
  8
0
 62
     0
100
AcDbLine
 10
17.02845378478365
 20
98.00000000000006
 30
0.0
 11
16.02845378478365
 21
99.00000000000005
 31
0.0
  0
LINE
  5
9C5
330
990
100
AcDbEntity
  8
0
 62
     0
100
AcDbLine
 10
15.45690896359656
 20
98.00000000000006
 30
0.0
 11
14.45690896359656
 21
99.00000000000005
 31
0.0
  0
LINE
  5
9C6
330
990
100
AcDbEntity
  8
0
 62
     0
100
AcDbLine
 10
13.88536414240951
 20
98.0
 30
0.0
 11
12.88536414240951
 21
99.00000000000005
 31
0.0
  0
LINE
  5
9C7
330
990
100
AcDbEntity
  8
0
 62
     0
100
AcDbLine
 10
12.31381932122235
 20
98.00000000000006
 30
0.0
 11
11.31381932122235
 21
99.00000000000005
 31
0.0
  0
LINE
  5
9C8
330
990
100
AcDbEntity
  8
0
 62
     0
100
AcDbLine
 10
10.74227450003525
 20
98.00000000000006
 30
0.0
 11
9.74227450003525
 21
99.00000000000012
 31
0.0
  0
LINE
  5
9C9
330
990
100
AcDbEntity
  8
0
 62
     0
100
AcDbLine
 10
9.170729678848204
 20
98.0
 30
0.0
 11
8.170729678848204
 21
99.00000000000005
 31
0.0
  0
LINE
  5
9CA
330
990
100
AcDbEntity
  8
0
 62
     0
100
AcDbLine
 10
7.599184857661043
 20
98.00000000000006
 30
0.0
 11
7.000000000000397
 21
98.59918485766073
 31
0.0
  0
LINE
  5
9CB
330
990
100
AcDbEntity
  8
0
 62
     0
100
AcDbLine
 10
96.38449972664291
 20
97.9999999999999
 30
0.0
 11
96.99999999999977
 21
98.61550027335681
 31
0.0
  0
LINE
  5
9CC
330
990
100
AcDbEntity
  8
0
 62
     0
100
AcDbLine
 10
94.81295490545583
 20
97.99999999999997
 30
0.0
 11
95.81295490545583
 21
99.0
 31
0.0
  0
LINE
  5
9CD
330
990
100
AcDbEntity
  8
0
 62
     0
100
AcDbLine
 10
93.24141008426865
 20
97.9999999999999
 30
0.0
 11
94.2414100842687
 21
98.99999999999987
 31
0.0
  0
LINE
  5
9CE
330
990
100
AcDbEntity
  8
0
 62
     0
100
AcDbLine
 10
91.66986526308159
 20
97.99999999999997
 30
0.0
 11
92.66986526308159
 21
98.99999999999996
 31
0.0
  0
LINE
  5
9CF
330
990
100
AcDbEntity
  8
0
 62
     0
100
AcDbLine
 10
90.09832044189456
 20
97.99999999999997
 30
0.0
 11
91.09832044189454
 21
98.99999999999996
 31
0.0
  0
LINE
  5
9D0
330
990
100
AcDbEntity
  8
0
 62
     0
100
AcDbLine
 10
88.5267756207075
 20
98.0
 30
0.0
 11
89.5267756207075
 21
99.0
 31
0.0
  0
LINE
  5
9D1
330
990
100
AcDbEntity
  8
0
 62
     0
100
AcDbLine
 10
86.95523079952032
 20
97.9999999999999
 30
0.0
 11
87.95523079952031
 21
98.99999999999987
 31
0.0
  0
LINE
  5
9D2
330
990
100
AcDbEntity
  8
0
 62
     0
100
AcDbLine
 10
85.38368597833324
 20
97.99999999999997
 30
0.0
 11
86.38368597833332
 21
98.99999999999996
 31
0.0
  0
LINE
  5
9D3
330
990
100
AcDbEntity
  8
0
 62
     0
100
AcDbLine
 10
83.81214115714604
 20
97.9999999999999
 30
0.0
 11
84.81214115714619
 21
99.0
 31
0.0
  0
LINE
  5
9D4
330
990
100
AcDbEntity
  8
0
 62
     0
100
AcDbLine
 10
82.24059633595908
 20
98.0
 30
0.0
 11
83.24059633595901
 21
98.99999999999996
 31
0.0
  0
LINE
  5
9D5
330
990
100
AcDbEntity
  8
0
 62
     0
100
AcDbLine
 10
80.66905151477191
 20
97.9999999999999
 30
0.0
 11
81.66905151477198
 21
98.99999999999996
 31
0.0
  0
LINE
  5
9D6
330
990
100
AcDbEntity
  8
0
 62
     0
100
AcDbLine
 10
79.09750669358487
 20
97.99999999999997
 30
0.0
 11
80.09750669358487
 21
99.0
 31
0.0
  0
LINE
  5
9D7
330
990
100
AcDbEntity
  8
0
 62
     0
100
AcDbLine
 10
77.52596187239766
 20
97.9999999999999
 30
0.0
 11
78.52596187239777
 21
99.0
 31
0.0
  0
LINE
  5
9D8
330
990
100
AcDbEntity
  8
0
 62
     0
100
AcDbLine
 10
75.95441705121061
 20
97.99999999999997
 30
0.0
 11
76.95441705121061
 21
98.99999999999996
 31
0.0
  0
LINE
  5
9D9
330
990
100
AcDbEntity
  8
0
 62
     0
100
AcDbLine
 10
74.38287223002352
 20
97.99999999999997
 30
0.0
 11
75.38287223002356
 21
98.99999999999996
 31
0.0
  0
LINE
  5
9DA
330
990
100
AcDbEntity
  8
0
 62
     0
100
AcDbLine
 10
72.81132740883645
 20
98.0
 30
0.0
 11
73.81132740883645
 21
99.0
 31
0.0
  0
LINE
  5
9DB
330
990
100
AcDbEntity
  8
0
 62
     0
100
AcDbLine
 10
71.2397825876493
 20
97.9999999999999
 30
0.0
 11
72.2397825876493
 21
98.99999999999996
 31
0.0
  0
LINE
  5
9DC
330
990
100
AcDbEntity
  8
0
 62
     0
100
AcDbLine
 10
69.66823776646219
 20
97.99999999999997
 30
0.0
 11
70.66823776646225
 21
98.99999999999996
 31
0.0
  0
LINE
  5
9DD
330
990
100
AcDbEntity
  8
0
 62
     0
100
AcDbLine
 10
68.09669294527504
 20
97.9999999999999
 30
0.0
 11
69.09669294527515
 21
99.0
 31
0.0
  0
LINE
  5
9DE
330
990
100
AcDbEntity
  8
0
 62
     0
100
AcDbLine
 10
66.52514812408805
 20
98.0
 30
0.0
 11
67.52514812408799
 21
98.99999999999996
 31
0.0
  0
LINE
  5
9DF
330
990
100
AcDbEntity
  8
0
 62
     0
100
AcDbLine
 10
64.95360330290089
 20
97.99999999999997
 30
0.0
 11
65.95360330290096
 21
98.99999999999996
 31
0.0
  0
LINE
  5
9E0
330
990
100
AcDbEntity
  8
0
 62
     0
100
AcDbLine
 10
63.38205848171384
 20
97.99999999999997
 30
0.0
 11
64.38205848171384
 21
99.0
 31
0.0
  0
LINE
  5
9E1
330
990
100
AcDbEntity
  8
0
 62
     0
100
AcDbLine
 10
61.81051366052662
 20
97.9999999999999
 30
0.0
 11
62.81051366052675
 21
99.0
 31
0.0
  0
LINE
  5
9E2
330
990
100
AcDbEntity
  8
0
 62
     0
100
AcDbLine
 10
60.23896883933957
 20
97.99999999999997
 30
0.0
 11
61.23896883933958
 21
98.99999999999996
 31
0.0
  0
LINE
  5
9E3
330
990
100
AcDbEntity
  8
0
 62
     0
100
AcDbLine
 10
58.66742401815248
 20
97.99999999999997
 30
0.0
 11
59.66742401815253
 21
98.99999999999996
 31
0.0
  0
LINE
  5
9E4
330
990
100
AcDbEntity
  8
0
 62
     0
100
AcDbLine
 10
57.09587919696542
 20
98.0
 30
0.0
 11
58.09587919696543
 21
99.0
 31
0.0
  0
LINE
  5
9E5
330
990
100
AcDbEntity
  8
0
 62
     0
100
AcDbLine
 10
55.52433437577827
 20
97.99999999999997
 30
0.0
 11
56.52433437577824
 21
98.99999999999996
 31
0.0
  0
LINE
  5
9E6
330
990
100
AcDbEntity
  8
0
 62
     0
100
AcDbLine
 10
53.95278955459116
 20
97.99999999999997
 30
0.0
 11
54.95278955459122
 21
98.99999999999996
 31
0.0
  0
LINE
  5
9E7
330
990
100
AcDbEntity
  8
0
 62
     0
100
AcDbLine
 10
52.38124473340413
 20
98.0
 30
0.0
 11
53.3812447334041
 21
99.0
 31
0.0
  0
LINE
  5
9E8
330
990
100
AcDbEntity
  8
0
 62
     0
100
AcDbLine
 10
50.80969991221699
 20
98.0
 30
0.0
 11
51.80969991221695
 21
98.99999999999996
 31
0.0
  0
LINE
  5
9E9
330
990
100
AcDbEntity
  8
0
 62
     0
100
AcDbLine
 10
49.23815509102985
 20
97.99999999999997
 30
0.0
 11
50.2381550910299
 21
98.99999999999996
 31
0.0
  0
LINE
  5
9EA
330
990
100
AcDbEntity
  8
0
 62
     0
100
AcDbLine
 10
47.66661026984277
 20
97.99999999999997
 30
0.0
 11
48.66661026984282
 21
99.0
 31
0.0
  0
LINE
  5
9EB
330
990
100
AcDbEntity
  8
0
 62
     0
100
AcDbLine
 10
46.0950654486557
 20
98.0
 30
0.0
 11
47.0950654486557
 21
99.0
 31
0.0
  0
LINE
  5
9EC
330
990
100
AcDbEntity
  8
0
 62
     0
100
AcDbLine
 10
44.52352062746853
 20
97.99999999999997
 30
0.0
 11
45.52352062746853
 21
98.99999999999996
 31
0.0
  0
LINE
  5
9ED
330
990
100
AcDbEntity
  8
0
 62
     0
100
AcDbLine
 10
42.95197580628149
 20
97.99999999999997
 30
0.0
 11
43.95197580628148
 21
99.0
 31
0.0
  0
LINE
  5
9EE
330
990
100
AcDbEntity
  8
0
 62
     0
100
AcDbLine
 10
41.38043098509439
 20
98.0
 30
0.0
 11
42.38043098509439
 21
99.0
 31
0.0
  0
LINE
  5
9EF
330
990
100
AcDbEntity
  8
0
 62
     0
100
AcDbLine
 10
39.80888616390721
 20
97.99999999999997
 30
0.0
 11
40.80888616390722
 21
98.99999999999996
 31
0.0
  0
LINE
  5
9F0
330
990
100
AcDbEntity
  8
0
 62
     0
100
AcDbLine
 10
38.23734134272013
 20
97.99999999999997
 30
0.0
 11
39.23734134272018
 21
98.99999999999996
 31
0.0
  0
LINE
  5
9F1
330
990
100
AcDbEntity
  8
0
 62
     0
100
AcDbLine
 10
36.66579652153308
 20
98.0
 30
0.0
 11
37.66579652153308
 21
99.0
 31
0.0
  0
LINE
  5
9F2
330
990
100
AcDbEntity
  8
0
 62
     0
100
AcDbLine
 10
35.09425170034598
 20
98.0
 30
0.0
 11
36.09425170034592
 21
98.99999999999996
 31
0.0
  0
LINE
  5
9F3
330
990
100
AcDbEntity
  8
0
 62
     0
100
AcDbLine
 10
33.5227068791588
 20
97.99999999999997
 30
0.0
 11
34.52270687915886
 21
98.99999999999996
 31
0.0
  0
LINE
  5
9F4
330
990
100
AcDbEntity
  8
0
 62
     0
100
AcDbLine
 10
31.95116205797177
 20
97.99999999999997
 30
0.0
 11
32.95116205797177
 21
99.0
 31
0.0
  0
LINE
  5
9F5
330
990
100
AcDbEntity
  8
0
 62
     0
100
AcDbLine
 10
30.37961723678461
 20
97.99999999999997
 30
0.0
 11
31.37961723678461
 21
98.99999999999996
 31
0.0
  0
LINE
  5
9F6
330
990
100
AcDbEntity
  8
0
 62
     0
100
AcDbLine
 10
28.80807241559756
 20
98.0
 30
0.0
 11
29.80807241559753
 21
99.0
 31
0.0
  0
LINE
  5
9F7
330
990
100
AcDbEntity
  8
0
 62
     0
100
AcDbLine
 10
27.23652759441046
 20
97.99999999999997
 30
0.0
 11
28.23652759441046
 21
99.0
 31
0.0
  0
LINE
  5
9F8
330
990
100
AcDbEntity
  8
0
 62
     0
100
AcDbLine
 10
25.6649827732233
 20
97.99999999999997
 30
0.0
 11
26.6649827732233
 21
98.99999999999996
 31
0.0
  0
LINE
  5
9F9
330
990
100
AcDbEntity
  8
0
 62
     0
100
AcDbLine
 10
24.09343795203625
 20
98.0
 30
0.0
 11
25.09343795203625
 21
99.0
 31
0.0
  0
LINE
  5
9FA
330
990
100
AcDbEntity
  8
0
 62
     0
100
AcDbLine
 10
22.52189313084909
 20
97.99999999999997
 30
0.0
 11
23.52189313084914
 21
98.99999999999996
 31
0.0
  0
LINE
  5
9FB
330
990
100
AcDbEntity
  8
0
 62
     0
100
AcDbLine
 10
20.95034830966199
 20
97.99999999999997
 30
0.0
 11
21.95034830966199
 21
98.99999999999996
 31
0.0
  0
LINE
  5
9FC
330
990
100
AcDbEntity
  8
0
 62
     0
100
AcDbLine
 10
19.37880348847494
 20
98.0
 30
0.0
 11
20.37880348847493
 21
99.0
 31
0.0
  0
LINE
  5
9FD
330
990
100
AcDbEntity
  8
0
 62
     0
100
AcDbLine
 10
17.80725866728777
 20
97.99999999999997
 30
0.0
 11
18.80725866728784
 21
98.99999999999996
 31
0.0
  0
LINE
  5
9FE
330
990
100
AcDbEntity
  8
0
 62
     0
100
AcDbLine
 10
16.23571384610068
 20
97.99999999999997
 30
0.0
 11
17.23571384610067
 21
98.99999999999996
 31
0.0
  0
LINE
  5
9FF
330
990
100
AcDbEntity
  8
0
 62
     0
100
AcDbLine
 10
14.66416902491363
 20
98.0
 30
0.0
 11
15.66416902491361
 21
99.0
 31
0.0
  0
LINE
  5
A00
330
990
100
AcDbEntity
  8
0
 62
     0
100
AcDbLine
 10
13.09262420372647
 20
97.99999999999997
 30
0.0
 11
14.09262420372647
 21
98.99999999999996
 31
0.0
  0
LINE
  5
A01
330
990
100
AcDbEntity
  8
0
 62
     0
100
AcDbLine
 10
11.52107938253942
 20
98.0
 30
0.0
 11
12.52107938253937
 21
98.99999999999996
 31
0.0
  0
LINE
  5
A02
330
990
100
AcDbEntity
  8
0
 62
     0
100
AcDbLine
 10
9.949534561352322
 20
98.0
 30
0.0
 11
10.9495345613523
 21
99.0
 31
0.0
  0
LINE
  5
A03
330
990
100
AcDbEntity
  8
0
 62
     0
100
AcDbLine
 10
8.377989740165162
 20
97.99999999999997
 30
0.0
 11
9.377989740165162
 21
98.99999999999996
 31
0.0
  0
LINE
  5
A04
330
990
100
AcDbEntity
  8
0
 62
     0
100
AcDbLine
 10
7.000000000000227
 20
98.19355508102212
 30
0.0
 11
7.806444918978111
 21
99.0
 31
0.0
  0
ENDBLK
  5
A06
330
990
100
AcDbEntity
  8
0
100
AcDbBlockEnd
  0
ENDSEC
  0
SECTION
  2
ENTITIES
  0
MTEXT
  5
5EB
330
1F
100
AcDbEntity
  8
19
100
AcDbMText
 10
250.0394719824736
 20
13.32509196023806
 30
0.0
 40
5.0
 41
70.16
 71
     1
 72
     5
  1
HAL03\PFR-HAL-1.5K
  7
STANDARD1X3
1001
ACAD
1000
MTEXTBEGIN
1070
    73
1070
     1
1070
    44
1040
1.0
1070
    74
1070
     0
1000
MTEXTEND
1000
MTEXTBEGIN
1070
    73
1070
     1
1070
    44
1040
1.0
1070
    74
1070
     0
1000
MTEXTEND
1000
MTEXTBEGIN
1070
    73
1070
     1
1070
    44
1040
1.0
1070
    74
1070
     0
1000
MTEXTEND
1000
MTEXTBEGIN
1070
    73
1070
     1
1070
    44
1040
1.0
1070
    74
1070
     0
1000
MTEXTEND
1000
MTEXTBEGIN
1070
    73
1070
     1
1070
    44
1040
1.0
1070
    74
1070
     0
1000
MTEXTEND
1000
MTEXTBEGIN
1070
    73
1070
     1
1070
    44
1040
1.0
1070
    74
1070
     0
1000
MTEXTEND
1000
MTEXTBEGIN
1070
    73
1070
     1
1070
    44
1040
1.0
1070
    74
1070
     0
1000
MTEXTEND
  0
LINE
  5
78C
330
1F
100
AcDbEntity
  8
16
 48
15.0
100
AcDbLine
 10
52.0000000000001
 20
-3.239673323938518
 30
0.0
 11
52.0000000000001
 21
101.75
 31
0.0
  0
LINE
  5
78D
330
1F
100
AcDbEntity
  8
10
100
AcDbLine
 10
7.0
 20
57.0
 30
0.0
 11
7.0
 21
16.25
 31
0.0
  0
LINE
  5
78E
330
1F
100
AcDbEntity
  8
10
100
AcDbLine
 10
38.0
 20
16.25
 30
0.0
 11
38.0
 21
57.0
 31
0.0
  0
LINE
  5
78F
330
1F
100
AcDbEntity
  8
10
100
AcDbLine
 10
36.0000000000001
 20
57.0
 30
0.0
 11
36.0000000000001
 21
16.24999999999988
 31
0.0
  0
LINE
  5
790
330
1F
100
AcDbEntity
  8
10
100
AcDbLine
 10
66.0
 20
16.25
 30
0.0
 11
66.0
 21
57.0
 31
0.0
  0
LINE
  5
791
330
1F
100
AcDbEntity
  8
10
100
AcDbLine
 10
68.0
 20
57.0
 30
0.0
 11
68.0
 21
16.25
 31
0.0
  0
LINE
  5
792
330
1F
100
AcDbEntity
  8
10
100
AcDbLine
 10
97.0
 20
57.0
 30
0.0
 11
97.0
 21
16.25
 31
0.0
  0
LINE
  5
793
330
1F
100
AcDbEntity
  8
16
 48
7.0
100
AcDbLine
 10
195.1709829624034
 20
103.680027351009
 30
0.0
 11
195.1709829624034
 21
-3.967433917196386
 31
0.0
  0
LINE
  5
794
330
1F
100
AcDbEntity
  8
10
100
AcDbLine
 10
216.1709829624038
 20
16.25
 30
0.0
 11
216.1709829624038
 21
57.0
 31
0.0
  0
LINE
  5
795
330
1F
100
AcDbEntity
  8
10
100
AcDbLine
 10
174.1709829624038
 20
57.0
 30
0.0
 11
174.1709829624038
 21
16.25
 31
0.0
  0
LINE
  5
797
330
1F
100
AcDbEntity
  8
10
100
AcDbLine
 10
207.2709829624034
 20
0.0
 30
0.0
 11
225.6709829624035
 21
0.0
 31
0.0
  0
LINE
  5
798
330
1F
100
AcDbEntity
  8
10
100
AcDbLine
 10
225.6709829624035
 20
1.599999999999965
 30
0.0
 11
208.8709829624034
 21
1.599999999999965
 31
0.0
  0
LINE
  5
79A
330
1F
100
AcDbEntity
  8
10
100
AcDbLine
 10
7.0
 20
16.25
 30
0.0
 11
36.0000000000001
 21
16.25
 31
0.0
  0
LINE
  5
79B
330
1F
100
AcDbEntity
  8
10
100
AcDbLine
 10
0.0
 20
12.5
 30
0.0
 11
104.0
 21
12.5
 31
0.0
  0
LINE
  5
79C
330
1F
100
AcDbEntity
  8
10
100
AcDbLine
 10
0.0
 20
0.0
 30
0.0
 11
104.0
 21
0.0
 31
0.0
  0
LINE
  5
79D
330
1F
100
AcDbEntity
  8
10
100
AcDbLine
 10
0.0
 20
1.599999999999965
 30
0.0
 11
104.0
 21
1.599999999999965
 31
0.0
  0
LINE
  5
79E
330
1F
100
AcDbEntity
  8
10
100
AcDbLine
 10
0.0
 20
12.5
 30
0.0
 11
0.0
 21
0.0
 31
0.0
  0
LINE
  5
79F
330
1F
100
AcDbEntity
  8
12
 48
5.0
100
AcDbLine
 10
9.999999999999772
 20
4.599999999999965
 30
0.0
 11
9.999999999999772
 21
-3.0
 31
0.0
  0
LINE
  5
7A0
330
1F
100
AcDbEntity
  8
10
100
AcDbLine
 10
12.89999999999986
 20
1.599999999999965
 30
0.0
 11
12.89999999999986
 21
0.0
 31
0.0
  0
LINE
  5
7A1
330
1F
100
AcDbEntity
  8
10
100
AcDbLine
 10
7.099999999999795
 20
1.599999999999965
 30
0.0
 11
7.099999999999795
 21
0.0
 31
0.0
  0
LINE
  5
7A3
330
1F
100
AcDbEntity
  8
10
100
AcDbLine
 10
74.49999999999976
 20
15.0
 30
0.0
 11
59.5
 21
15.0
 31
0.0
  0
LINE
  5
7A4
330
1F
100
AcDbEntity
  8
10
100
AcDbLine
 10
66.0
 20
16.25
 30
0.0
 11
38.0
 21
16.25
 31
0.0
  0
LINE
  5
7A5
330
1F
100
AcDbEntity
  8
10
100
AcDbLine
 10
25.98371685740801
 20
9.799999999999952
 30
0.0
 11
22.0
 21
12.09999999999996
 31
0.0
  0
LINE
  5
7A6
330
1F
100
AcDbEntity
  8
12
 48
7.0
100
AcDbLine
 10
22.0
 20
13.47999999999996
 30
0.0
 11
22.0
 21
1.51999999999998
 31
0.0
  0
CIRCLE
  5
7A7
330
1F
100
AcDbEntity
  8
10
100
AcDbCircle
 10
22.0
 20
7.5
 30
0.0
 40
4.599999999999996
  0
LINE
  5
7A8
330
1F
100
AcDbEntity
  8
10
100
AcDbLine
 10
22.0
 20
12.09999999999996
 30
0.0
 11
18.01628314259187
 21
9.799999999999952
 31
0.0
  0
LINE
  5
7A9
330
1F
100
AcDbEntity
  8
10
100
AcDbLine
 10
22.0
 20
2.899999999999976
 30
0.0
 11
25.98371685740801
 21
5.199999999999987
 31
0.0
  0
LINE
  5
7AA
330
1F
100
AcDbEntity
  8
10
100
AcDbLine
 10
18.01628314259187
 20
5.199999999999987
 30
0.0
 11
22.0
 21
2.899999999999976
 31
0.0
  0
LINE
  5
7AB
330
1F
100
AcDbEntity
  8
12
 48
7.0
100
AcDbLine
 10
27.97999999999979
 20
7.5
 30
0.0
 11
16.01999999999986
 21
7.5
 31
0.0
  0
LINE
  5
7AC
330
1F
100
AcDbEntity
  8
10
100
AcDbLine
 10
25.98371685740801
 20
5.199999999999987
 30
0.0
 11
25.98371685740801
 21
9.799999999999952
 31
0.0
  0
LINE
  5
7AD
330
1F
100
AcDbEntity
  8
10
100
AcDbLine
 10
18.01628314259187
 20
9.799999999999952
 30
0.0
 11
18.01628314259187
 21
5.199999999999987
 31
0.0
  0
CIRCLE
  5
7AE
330
1F
100
AcDbEntity
  8
10
100
AcDbCircle
 10
22.0
 20
7.5
 30
0.0
 40
2.5
  0
LINE
  5
7AF
330
1F
100
AcDbEntity
  8
10
100
AcDbLine
 10
44.5
 20
15.0
 30
0.0
 11
29.5
 21
15.0
 31
0.0
  0
LINE
  5
7B0
330
1F
100
AcDbEntity
  8
10
100
AcDbLine
 10
15.0
 20
16.25
 30
0.0
 11
15.0
 21
12.5
 31
0.0
  0
LINE
  5
7B1
330
1F
100
AcDbEntity
  8
10
100
AcDbLine
 10
14.50000000000011
 20
12.5
 30
0.0
 11
14.50000000000011
 21
16.25
 31
0.0
  0
LINE
  5
7B2
330
1F
100
AcDbEntity
  8
10
100
AcDbLine
 10
29.00000000000011
 20
16.25
 30
0.0
 11
29.00000000000011
 21
12.5
 31
0.0
  0
LINE
  5
7B3
330
1F
100
AcDbEntity
  8
10
100
AcDbLine
 10
29.5
 20
15.0
 30
0.0
 11
29.5
 21
16.25
 31
0.0
  0
LINE
  5
7B4
330
1F
100
AcDbEntity
  8
10
100
AcDbLine
 10
45.0000000000001
 20
16.25
 30
0.0
 11
45.0000000000001
 21
12.5
 31
0.0
  0
LINE
  5
7B5
330
1F
100
AcDbEntity
  8
10
100
AcDbLine
 10
44.5
 20
16.25
 30
0.0
 11
44.5
 21
15.0
 31
0.0
  0
LINE
  5
7B6
330
1F
100
AcDbEntity
  8
10
100
AcDbLine
 10
59.0
 20
16.25
 30
0.0
 11
59.0
 21
12.5
 31
0.0
  0
LINE
  5
7B7
330
1F
100
AcDbEntity
  8
10
100
AcDbLine
 10
59.5
 20
15.0
 30
0.0
 11
59.5
 21
16.25
 31
0.0
  0
LINE
  5
7B8
330
1F
100
AcDbEntity
  8
10
100
AcDbLine
 10
104.0
 20
12.5
 30
0.0
 11
104.0
 21
1.599999999999965
 31
0.0
  0
LINE
  5
7B9
330
1F
100
AcDbEntity
  8
10
100
AcDbLine
 10
85.98371685740778
 20
9.799999999999952
 30
0.0
 11
82.0
 21
12.09999999999996
 31
0.0
  0
LINE
  5
7BA
330
1F
100
AcDbEntity
  8
10
100
AcDbLine
 10
82.0
 20
12.09999999999996
 30
0.0
 11
78.01628314259187
 21
9.799999999999952
 31
0.0
  0
CIRCLE
  5
7BB
330
1F
100
AcDbEntity
  8
10
100
AcDbCircle
 10
82.0
 20
7.5
 30
0.0
 40
4.599999999999996
  0
LINE
  5
7BC
330
1F
100
AcDbEntity
  8
12
 48
7.0
100
AcDbLine
 10
82.0
 20
13.47999999999996
 30
0.0
 11
82.0
 21
1.51999999999998
 31
0.0
  0
LINE
  5
7BD
330
1F
100
AcDbEntity
  8
10
100
AcDbLine
 10
82.0
 20
2.899999999999976
 30
0.0
 11
85.98371685740778
 21
5.199999999999987
 31
0.0
  0
LINE
  5
7BE
330
1F
100
AcDbEntity
  8
10
100
AcDbLine
 10
78.01628314259187
 20
5.199999999999987
 30
0.0
 11
82.0
 21
2.899999999999976
 31
0.0
  0
LINE
  5
7BF
330
1F
100
AcDbEntity
  8
12
 48
7.0
100
AcDbLine
 10
87.98000000000001
 20
7.5
 30
0.0
 11
76.01999999999998
 21
7.5
 31
0.0
  0
CIRCLE
  5
7C0
330
1F
100
AcDbEntity
  8
10
100
AcDbCircle
 10
82.0
 20
7.5
 30
0.0
 40
2.5
  0
LINE
  5
7C1
330
1F
100
AcDbEntity
  8
10
100
AcDbLine
 10
78.01628314259187
 20
9.799999999999952
 30
0.0
 11
78.01628314259187
 21
5.199999999999987
 31
0.0
  0
LINE
  5
7C2
330
1F
100
AcDbEntity
  8
10
100
AcDbLine
 10
85.98371685740778
 20
5.199999999999987
 30
0.0
 11
85.98371685740778
 21
9.799999999999952
 31
0.0
  0
LINE
  5
7C3
330
1F
100
AcDbEntity
  8
12
 48
5.0
100
AcDbLine
 10
94.0
 20
4.599999999999965
 30
0.0
 11
94.0
 21
-3.0
 31
0.0
  0
LINE
  5
7C4
330
1F
100
AcDbEntity
  8
10
100
AcDbLine
 10
91.09999999999979
 20
1.599999999999965
 30
0.0
 11
91.09999999999979
 21
0.0
 31
0.0
  0
LINE
  5
7C5
330
1F
100
AcDbEntity
  8
10
100
AcDbLine
 10
96.89999999999987
 20
1.599999999999965
 30
0.0
 11
96.89999999999987
 21
0.0
 31
0.0
  0
LINE
  5
7C6
330
1F
100
AcDbEntity
  8
10
100
AcDbLine
 10
104.0
 20
1.599999999999965
 30
0.0
 11
104.0
 21
0.0
 31
0.0
  0
LINE
  5
7C7
330
1F
100
AcDbEntity
  8
10
100
AcDbLine
 10
68.0
 20
16.25
 30
0.0
 11
97.0
 21
16.25
 31
0.0
  0
LINE
  5
7C8
330
1F
100
AcDbEntity
  8
10
100
AcDbLine
 10
75.0
 20
16.25
 30
0.0
 11
75.0
 21
12.5
 31
0.0
  0
LINE
  5
7C9
330
1F
100
AcDbEntity
  8
10
100
AcDbLine
 10
74.49999999999976
 20
16.25
 30
0.0
 11
74.49999999999976
 21
15.0
 31
0.0
  0
LINE
  5
7CA
330
1F
100
AcDbEntity
  8
10
100
AcDbLine
 10
89.0
 20
16.25
 30
0.0
 11
89.0
 21
12.5
 31
0.0
  0
LINE
  5
7CB
330
1F
100
AcDbEntity
  8
10
100
AcDbLine
 10
89.50000000000001
 20
16.25
 30
0.0
 11
89.50000000000001
 21
12.5
 31
0.0
  0
LINE
  5
7CC
330
1F
100
AcDbEntity
  8
10
100
AcDbLine
 10
181.4709829624034
 20
1.599999999999965
 30
0.0
 11
164.6709829624038
 21
1.599999999999965
 31
0.0
  0
LINE
  5
7CD
330
1F
100
AcDbEntity
  8
10
100
AcDbLine
 10
164.6709829624038
 20
0.0
 30
0.0
 11
183.0709829624036
 21
0.0
 31
0.0
  0
LINE
  5
7CE
330
1F
100
AcDbEntity
  8
10
100
AcDbLine
 10
164.6709829624038
 20
1.599999999999965
 30
0.0
 11
164.6709829624038
 21
0.0
 31
0.0
  0
ARC
  5
7CF
330
1F
100
AcDbEntity
  8
10
100
AcDbCircle
 10
206.2403378011135
 20
7.5
 30
0.0
 40
4.13064516129
100
AcDbArc
 50
284.4486313880868
 51
75.55136861190594
  0
LINE
  5
7D0
330
1F
100
AcDbEntity
  8
10
100
AcDbLine
 10
207.2709829624034
 20
12.5
 30
0.0
 11
207.2709829624034
 21
3.199999999999873
 31
0.0
  0
LINE
  5
7D1
330
1F
100
AcDbEntity
  8
10
100
AcDbLine
 10
183.0709829624036
 20
12.5
 30
0.0
 11
183.0709829624036
 21
3.199999999999873
 31
0.0
  0
LINE
  5
7D2
330
1F
100
AcDbEntity
  8
10
100
AcDbLine
 10
205.6709829624034
 20
16.25
 30
0.0
 11
205.6709829624034
 21
0.0
 31
0.0
  0
LINE
  5
7D3
330
1F
100
AcDbEntity
  8
10
100
AcDbLine
 10
185.1709829624031
 20
0.0
 30
0.0
 11
185.1709829624031
 21
16.25
 31
0.0
  0
LINE
  5
7D4
330
1F
100
AcDbEntity
  8
10
100
AcDbLine
 10
205.1709829624035
 20
16.25
 30
0.0
 11
205.1709829624035
 21
0.0
 31
0.0
  0
LINE
  5
7D5
330
1F
100
AcDbEntity
  8
10
100
AcDbLine
 10
184.6709829624036
 20
16.25
 30
0.0
 11
184.6709829624036
 21
0.0
 31
0.0
  0
LINE
  5
7D6
330
1F
100
AcDbEntity
  8
10
100
AcDbLine
 10
179.3709829624035
 20
11.54999999999994
 30
0.0
 11
179.3709829624035
 21
3.449999999999988
 31
0.0
  0
LINE
  5
7D7
330
1F
100
AcDbEntity
  8
10
100
AcDbLine
 10
182.5709829624036
 20
3.449999999999988
 30
0.0
 11
182.5709829624036
 21
11.54999999999994
 31
0.0
  0
LINE
  5
7D8
330
1F
100
AcDbEntity
  8
10
100
AcDbLine
 10
205.6709829624034
 20
0.0
 30
0.0
 11
184.6709829624036
 21
0.0
 31
0.0
  0
LINE
  5
7D9
330
1F
100
AcDbEntity
  8
12
 48
7.0
100
AcDbLine
 10
174.2709829624034
 20
7.5
 30
0.0
 11
213.0900457143256
 21
7.5
 31
0.0
  0
LINE
  5
7DA
330
1F
100
AcDbEntity
  8
12
 48
5.0
100
AcDbLine
 10
171.6709829624035
 20
4.450172563941007
 30
0.0
 11
171.6709829624035
 21
-2.807315930510069
 31
0.0
  0
ARC
  5
7DB
330
1F
100
AcDbEntity
  8
10
100
AcDbCircle
 10
181.4709829624034
 20
3.199999999999873
 30
0.0
 40
1.6
100
AcDbArc
 50
270.0
 51
0.0
  0
ARC
  5
7DC
330
1F
100
AcDbEntity
  8
10
100
AcDbCircle
 10
183.0709829624036
 20
1.599999999999965
 30
0.0
 40
1.6
100
AcDbArc
 50
270.0
 51
0.0
  0
LINE
  5
7DD
330
1F
100
AcDbEntity
  8
10
100
AcDbLine
 10
177.2709829624036
 20
5.5
 30
0.0
 11
182.5709829624036
 21
5.5
 31
0.0
  0
LINE
  5
7DE
330
1F
100
AcDbEntity
  8
10
100
AcDbLine
 10
182.5709829624036
 20
9.5
 30
0.0
 11
177.2709829624036
 21
9.5
 31
0.0
  0
LINE
  5
7DF
330
1F
100
AcDbEntity
  8
10
100
AcDbLine
 10
177.2709829624036
 20
9.5
 30
0.0
 11
177.2709829624036
 21
5.5
 31
0.0
  0
LINE
  5
7E0
330
1F
100
AcDbEntity
  8
10
100
AcDbLine
 10
179.3709829624035
 20
3.449999999999988
 30
0.0
 11
182.5709829624036
 21
3.449999999999988
 31
0.0
  0
LINE
  5
7E1
330
1F
100
AcDbEntity
  8
10
100
AcDbLine
 10
183.0709829624036
 20
3.5
 30
0.0
 11
182.5709829624036
 21
3.5
 31
0.0
  0
ARC
  5
7E2
330
1F
100
AcDbEntity
  8
10
100
AcDbCircle
 10
208.8709829624034
 20
3.199999999999873
 30
0.0
 40
1.6
100
AcDbArc
 50
180.0
 51
270.0
  0
ARC
  5
7E3
330
1F
100
AcDbEntity
  8
10
100
AcDbCircle
 10
207.2709829624034
 20
1.599999999999965
 30
0.0
 40
1.6
100
AcDbArc
 50
180.0
 51
269.9999999999934
  0
LINE
  5
7E4
330
1F
100
AcDbEntity
  8
10
100
AcDbLine
 10
174.1709829624038
 20
16.25
 30
0.0
 11
216.1709829624038
 21
16.25
 31
0.0
  0
LINE
  5
7E5
330
1F
100
AcDbEntity
  8
10
100
AcDbLine
 10
184.6709829624036
 20
12.5
 30
0.0
 11
183.0709829624036
 21
12.5
 31
0.0
  0
LINE
  5
7E6
330
1F
100
AcDbEntity
  8
10
100
AcDbLine
 10
182.5709829624036
 20
11.54999999999994
 30
0.0
 11
179.3709829624035
 21
11.54999999999994
 31
0.0
  0
LINE
  5
7E7
330
1F
100
AcDbEntity
  8
10
100
AcDbLine
 10
182.5709829624036
 20
11.5
 30
0.0
 11
183.0709829624036
 21
11.5
 31
0.0
  0
LINE
  5
7E8
330
1F
100
AcDbEntity
  8
10
100
AcDbLine
 10
207.2709829624034
 20
12.5
 30
0.0
 11
205.6709829624034
 21
12.5
 31
0.0
  0
LINE
  5
7E9
330
1F
100
AcDbEntity
  8
12
 48
5.0
100
AcDbLine
 10
218.6709829624037
 20
4.450172563941007
 30
0.0
 11
218.6709829624037
 21
-2.807315930510069
 31
0.0
  0
LINE
  5
7EA
330
1F
100
AcDbEntity
  8
10
100
AcDbLine
 10
225.6709829624035
 20
0.0
 30
0.0
 11
225.6709829624035
 21
1.599999999999965
 31
0.0
  0
ARC
  5
7EB
330
1F
100
AcDbEntity
  8
10
100
AcDbCircle
 10
230.268961458456
 20
48.4141155180912
 30
0.0
 40
24.81480715884353
100
AcDbArc
 50
84.33350974955404
 51
159.7572440375586
  0
ARC
  5
7EC
330
1F
100
AcDbEntity
  8
10
100
AcDbCircle
 10
235.0431474729116
 20
207.9369812896711
 30
0.0
 40
122.5934650851374
100
AcDbArc
 50
261.4687524941799
 51
268.7623818302238
  0
LINE
  5
7ED
330
1F
100
AcDbEntity
  8
10
100
AcDbLine
 10
217.0709829624036
 20
89.19999999999895
 30
0.0
 11
216.0709829624035
 21
89.19999999999895
 31
0.0
  0
ARC
  5
7EE
330
1F
100
AcDbEntity
  8
10
100
AcDbCircle
 10
231.5794668706788
 20
47.06687914919422
 30
0.0
 40
23.70821667748257
100
AcDbArc
 50
83.75577686046225
 51
155.2301859447944
  0
LWPOLYLINE
  5
7EF
330
1F
100
AcDbEntity
  8
10
100
AcDbPolyline
 90
        4
 70
     1
 43
0.0
 10
7.000000000000452
 20
99.0
 10
96.99999999999977
 20
98.99999999999987
 10
96.99999999999977
 20
98.0
 10
7.000000000000227
 20
98.0
  0
LINE
  5
7F0
330
1F
100
AcDbEntity
  8
10
100
AcDbLine
 10
5.000000000000452
 20
78.0
 30
0.0
 11
98.99999999999977
 21
78.0
 31
0.0
  0
INSERT
  5
7F1
330
1F
100
AcDbEntity
  8
10
  6
CONTINUOUS
100
AcDbBlockReference
  2
*X1
 10
0.0
 20
0.0
 30
0.0
1001
ACAD
1000
HATCH
1002
{
1070
    19
1000
ANSI37
1040
0.35
1040
0.0
1000
R14_HATCH_DATA
1000
7F1
1011
1.0
1021
0.0
1031
0.0
1011
0.0
1021
1.0
1031
0.0
1011
0.0
1021
0.0
1031
1.0
1040
0.0
1010
0.0
1020
0.0
1030
1.0
1000
ANSI37
1070
     0
1070
     0
1071
        2
1071
        7
1070
     0
1070
     1
1071
        4
1040
51.99999999999977
1040
98.0
1040
52.0000000000001
1040
99.0
1040
7.000000000000452
1040
99.0
1040
7.000000000000227
1040
98.0
1071
        0
1071
        7
1070
     0
1070
     1
1071
        4
1040
52.0000000000001
1040
99.0
1040
52.0000000000001
1040
98.0
1040
96.99999999999977
1040
98.0
1040
96.99999999999977
1040
99.0
1071
        0
1070
     0
1070
     1
1040
0.0
1040
0.35
1070
     0
1070
     2
1040
0.7853981633974483
1040
756.0439221839735
1040
3.317908287521787
1040
-0.7857724105935509
1040
0.7857724105935509
1070
     0
1040
2.356194490192344
1040
756.0439221839735
1040
3.317908287521787
1040
-0.7857724105935509
1040
-0.7857724105935509
1070
     0
1040
0.0808499920730229
1071
        2
1040
44.38906318233089
1040
98.4267989275446
1040
0.0
1040
55.30903207245035
1040
98.75019771021747
1040
0.0
1002
}
  0
LINE
  5
7F2
330
1F
100
AcDbEntity
  8
10
100
AcDbLine
 10
7.000000000000227
 20
98.0
 30
0.0
 11
96.99999999999977
 21
98.0
 31
0.0
  0
LINE
  5
7F5
330
1F
100
AcDbEntity
  8
10
100
AcDbLine
 10
36.0000000000001
 20
57.0
 30
0.0
 11
7.0
 21
57.0
 31
0.0
  0
LINE
  5
7F6
330
1F
100
AcDbEntity
  8
10
100
AcDbLine
 10
99.49999999999977
 20
78.0
 30
0.0
 11
4.5
 21
78.0
 31
0.0
  0
LINE
  5
7F7
330
1F
100
AcDbEntity
  8
10
100
AcDbLine
 10
99.49999999999977
 20
60.0
 30
0.0
 11
4.5
 21
60.0
 31
0.0
  0
LINE
  5
7F8
330
1F
100
AcDbEntity
  8
10
100
AcDbLine
 10
5.000000000000452
 20
78.0
 30
0.0
 11
5.000000000000452
 21
100.0
 31
0.0
  0
LINE
  5
7F9
330
1F
100
AcDbEntity
  8
10
100
AcDbLine
 10
4.5
 20
60.0
 30
0.0
 11
4.5
 21
78.0
 31
0.0
  0
LINE
  5
7FA
330
1F
100
AcDbEntity
  8
10
100
AcDbLine
 10
7.000000000000452
 20
98.0
 30
0.0
 11
7.000000000000452
 21
100.0
 31
0.0
  0
LINE
  5
7FB
330
1F
100
AcDbEntity
  8
10
100
AcDbLine
 10
5.000000000000226
 20
100.0
 30
0.0
 11
7.000000000000452
 21
100.0
 31
0.0
  0
LINE
  5
7FC
330
1F
100
AcDbEntity
  8
10
100
AcDbLine
 10
98.99999999999966
 20
78.0
 30
0.0
 11
98.99999999999966
 21
100.0
 31
0.0
  0
LINE
  5
7FD
330
1F
100
AcDbEntity
  8
17
 48
7.0
100
AcDbLine
 10
83.2500000000015
 20
85.85380964336218
 30
0.0
 11
83.2500000000015
 21
94.45380964336219
 31
0.0
  0
LINE
  5
7FE
330
1F
100
AcDbEntity
  8
17
 48
7.0
100
AcDbLine
 10
70.75000000000136
 20
85.85380964336218
 30
0.0
 11
70.75000000000136
 21
94.45380964336219
 31
0.0
  0
LINE
  5
7FF
330
1F
100
AcDbEntity
  8
17
 48
7.0
100
AcDbLine
 10
58.25000000000045
 20
85.85380964336218
 30
0.0
 11
58.25000000000045
 21
94.45380964336219
 31
0.0
  0
LINE
  5
800
330
1F
100
AcDbEntity
  8
17
 48
7.0
100
AcDbLine
 10
45.7500000000001
 20
85.85380964336218
 30
0.0
 11
45.7500000000001
 21
94.45380964336219
 31
0.0
  0
LINE
  5
801
330
1F
100
AcDbEntity
  8
17
 48
7.0
100
AcDbLine
 10
33.24999999999977
 20
85.85380964336218
 30
0.0
 11
33.24999999999977
 21
94.45380964336219
 31
0.0
  0
LINE
  5
802
330
1F
100
AcDbEntity
  8
17
 48
7.0
100
AcDbLine
 10
20.7499999999992
 20
85.85380964336218
 30
0.0
 11
20.7499999999992
 21
94.45380964336219
 31
0.0
  0
LINE
  5
803
330
1F
100
AcDbEntity
  8
10
100
AcDbLine
 10
59.0
 20
58.25
 30
0.0
 11
75.0
 21
58.25
 31
0.0
  0
LINE
  5
804
330
1F
100
AcDbEntity
  8
10
100
AcDbLine
 10
75.0
 20
58.5
 30
0.0
 11
59.0
 21
58.5
 31
0.0
  0
LINE
  5
807
330
1F
100
AcDbEntity
  8
10
100
AcDbLine
 10
38.0
 20
57.0
 30
0.0
 11
66.0
 21
57.0
 31
0.0
  0
LINE
  5
809
330
1F
100
AcDbEntity
  8
12
 48
7.0
100
AcDbLine
 10
22.0
 20
71.98000000000002
 30
0.0
 11
22.0
 21
60.01999999999998
 31
0.0
  0
LINE
  5
80A
330
1F
100
AcDbEntity
  8
10
100
AcDbLine
 10
29.00000000000011
 20
58.25
 30
0.0
 11
45.0000000000001
 21
58.25
 31
0.0
  0
LINE
  5
80B
330
1F
100
AcDbEntity
  8
10
100
AcDbLine
 10
45.0000000000001
 20
58.5
 30
0.0
 11
29.00000000000011
 21
58.5
 31
0.0
  0
CIRCLE
  5
80C
330
1F
100
AcDbEntity
  8
10
100
AcDbCircle
 10
22.0
 20
66.0
 30
0.0
 40
2.5
  0
CIRCLE
  5
80D
330
1F
100
AcDbEntity
  8
10
100
AcDbCircle
 10
22.0
 20
66.0
 30
0.0
 40
4.599999999999996
  0
LINE
  5
80E
330
1F
100
AcDbEntity
  8
10
100
AcDbLine
 10
18.01628314259187
 20
68.30000000000001
 30
0.0
 11
18.01628314259187
 21
63.69999999999999
 31
0.0
  0
LINE
  5
80F
330
1F
100
AcDbEntity
  8
10
100
AcDbLine
 10
25.98371685740801
 20
63.69999999999999
 30
0.0
 11
25.98371685740801
 21
68.30000000000001
 31
0.0
  0
LINE
  5
810
330
1F
100
AcDbEntity
  8
10
100
AcDbLine
 10
22.0
 20
61.39999999999997
 30
0.0
 11
25.98371685740801
 21
63.69999999999999
 31
0.0
  0
LINE
  5
811
330
1F
100
AcDbEntity
  8
10
100
AcDbLine
 10
15.0
 20
58.5
 30
0.0
 11
14.50000000000011
 21
58.5
 31
0.0
  0
LINE
  5
812
330
1F
100
AcDbEntity
  8
10
100
AcDbLine
 10
15.0
 20
60.0
 30
0.0
 11
15.0
 21
57.0
 31
0.0
  0
LINE
  5
813
330
1F
100
AcDbEntity
  8
10
100
AcDbLine
 10
14.50000000000011
 20
58.25
 30
0.0
 11
15.0
 21
58.25
 31
0.0
  0
LINE
  5
814
330
1F
100
AcDbEntity
  8
10
100
AcDbLine
 10
14.50000000000011
 20
57.0
 30
0.0
 11
14.50000000000011
 21
60.0
 31
0.0
  0
LINE
  5
815
330
1F
100
AcDbEntity
  8
10
100
AcDbLine
 10
18.01628314259187
 20
63.69999999999999
 30
0.0
 11
22.0
 21
61.39999999999997
 31
0.0
  0
LINE
  5
816
330
1F
100
AcDbEntity
  8
10
100
AcDbLine
 10
29.00000000000011
 20
60.0
 30
0.0
 11
29.00000000000011
 21
57.0
 31
0.0
  0
LINE
  5
817
330
1F
100
AcDbEntity
  8
10
100
AcDbLine
 10
29.5
 20
57.0
 30
0.0
 11
29.5
 21
58.25
 31
0.0
  0
LINE
  5
818
330
1F
100
AcDbEntity
  8
12
 48
7.0
100
AcDbLine
 10
27.97999999999979
 20
66.0
 30
0.0
 11
16.01999999999986
 21
66.0
 31
0.0
  0
LINE
  5
819
330
1F
100
AcDbEntity
  8
10
100
AcDbLine
 10
25.98371685740801
 20
68.30000000000001
 30
0.0
 11
22.0
 21
70.60000000000002
 31
0.0
  0
LINE
  5
81A
330
1F
100
AcDbEntity
  8
10
100
AcDbLine
 10
22.0
 20
70.60000000000002
 30
0.0
 11
18.01628314259187
 21
68.30000000000001
 31
0.0
  0
LINE
  5
81B
330
1F
100
AcDbEntity
  8
10
100
AcDbLine
 10
45.0000000000001
 20
60.0
 30
0.0
 11
45.0000000000001
 21
57.0
 31
0.0
  0
LINE
  5
81C
330
1F
100
AcDbEntity
  8
10
100
AcDbLine
 10
44.5
 20
58.25
 30
0.0
 11
44.5
 21
57.0
 31
0.0
  0
LINE
  5
81D
330
1F
100
AcDbEntity
  8
10
100
AcDbLine
 10
59.0
 20
60.0
 30
0.0
 11
59.0
 21
57.0
 31
0.0
  0
LINE
  5
81E
330
1F
100
AcDbEntity
  8
10
100
AcDbLine
 10
59.5
 20
57.0
 30
0.0
 11
59.5
 21
58.25
 31
0.0
  0
LINE
  5
821
330
1F
100
AcDbEntity
  8
12
 48
7.0
100
AcDbLine
 10
82.0
 20
71.98000000000002
 30
0.0
 11
82.0
 21
60.01999999999998
 31
0.0
  0
LINE
  5
822
330
1F
100
AcDbEntity
  8
10
100
AcDbLine
 10
99.49999999999977
 20
78.0
 30
0.0
 11
99.49999999999977
 21
60.0
 31
0.0
  0
LINE
  5
823
330
1F
100
AcDbEntity
  8
10
100
AcDbLine
 10
97.0
 20
57.0
 30
0.0
 11
68.0
 21
57.0
 31
0.0
  0
CIRCLE
  5
824
330
1F
100
AcDbEntity
  8
10
100
AcDbCircle
 10
82.0
 20
66.0
 30
0.0
 40
4.599999999999996
  0
CIRCLE
  5
825
330
1F
100
AcDbEntity
  8
10
100
AcDbCircle
 10
82.0
 20
66.0
 30
0.0
 40
2.5
  0
LINE
  5
826
330
1F
100
AcDbEntity
  8
10
100
AcDbLine
 10
85.98371685740778
 20
63.69999999999999
 30
0.0
 11
85.98371685740778
 21
68.30000000000001
 31
0.0
  0
LINE
  5
827
330
1F
100
AcDbEntity
  8
10
100
AcDbLine
 10
78.01628314259187
 20
68.30000000000001
 30
0.0
 11
78.01628314259187
 21
63.69999999999999
 31
0.0
  0
LINE
  5
828
330
1F
100
AcDbEntity
  8
10
100
AcDbLine
 10
75.0
 20
60.0
 30
0.0
 11
75.0
 21
57.0
 31
0.0
  0
LINE
  5
829
330
1F
100
AcDbEntity
  8
10
100
AcDbLine
 10
74.49999999999976
 20
58.25
 30
0.0
 11
74.49999999999976
 21
57.0
 31
0.0
  0
LINE
  5
82A
330
1F
100
AcDbEntity
  8
10
100
AcDbLine
 10
89.0
 20
58.25
 30
0.0
 11
89.50000000000001
 21
58.25
 31
0.0
  0
LINE
  5
82B
330
1F
100
AcDbEntity
  8
10
100
AcDbLine
 10
89.0
 20
60.0
 30
0.0
 11
89.0
 21
57.0
 31
0.0
  0
LINE
  5
82C
330
1F
100
AcDbEntity
  8
10
100
AcDbLine
 10
89.50000000000001
 20
58.5
 30
0.0
 11
89.0
 21
58.5
 31
0.0
  0
LINE
  5
82D
330
1F
100
AcDbEntity
  8
10
100
AcDbLine
 10
89.50000000000001
 20
57.0
 30
0.0
 11
89.50000000000001
 21
60.0
 31
0.0
  0
LINE
  5
82E
330
1F
100
AcDbEntity
  8
10
100
AcDbLine
 10
82.0
 20
61.39999999999997
 30
0.0
 11
85.98371685740778
 21
63.69999999999999
 31
0.0
  0
LINE
  5
82F
330
1F
100
AcDbEntity
  8
10
100
AcDbLine
 10
78.01628314259187
 20
63.69999999999999
 30
0.0
 11
82.0
 21
61.39999999999997
 31
0.0
  0
LINE
  5
830
330
1F
100
AcDbEntity
  8
12
 48
7.0
100
AcDbLine
 10
87.98000000000001
 20
66.0
 30
0.0
 11
76.01999999999998
 21
66.0
 31
0.0
  0
LINE
  5
831
330
1F
100
AcDbEntity
  8
10
100
AcDbLine
 10
85.98371685740778
 20
68.30000000000001
 30
0.0
 11
82.0
 21
70.60000000000002
 31
0.0
  0
LINE
  5
832
330
1F
100
AcDbEntity
  8
10
100
AcDbLine
 10
82.0
 20
70.60000000000002
 30
0.0
 11
78.01628314259187
 21
68.30000000000001
 31
0.0
  0
LINE
  5
833
330
1F
100
AcDbEntity
  8
10
100
AcDbLine
 10
26.14999999999918
 20
88.49999999999999
 30
0.0
 11
26.14999999999918
 21
98.0
 31
0.0
  0
LINE
  5
834
330
1F
100
AcDbEntity
  8
10
100
AcDbLine
 10
27.84999999999934
 20
98.0
 30
0.0
 11
27.84999999999934
 21
88.49999999999999
 31
0.0
  0
LINE
  5
835
330
1F
100
AcDbEntity
  8
10
100
AcDbLine
 10
38.64999999999918
 20
88.49999999999999
 30
0.0
 11
38.64999999999918
 21
98.0
 31
0.0
  0
LINE
  5
836
330
1F
100
AcDbEntity
  8
10
100
AcDbLine
 10
15.34999999999933
 20
98.0
 30
0.0
 11
15.34999999999933
 21
88.49999999999999
 31
0.0
  0
LINE
  5
837
330
1F
100
AcDbEntity
  8
10
100
AcDbLine
 10
24.74999999999953
 20
88.49999999999999
 30
0.0
 11
24.74999999999953
 21
89.0
 31
0.0
  0
LINE
  5
838
330
1F
100
AcDbEntity
  8
10
100
AcDbLine
 10
24.54999999999916
 20
89.0
 30
0.0
 11
24.54999999999916
 21
90.0
 31
0.0
  0
LINE
  5
839
330
1F
100
AcDbEntity
  8
10
100
AcDbLine
 10
21.64999999999918
 20
92.60000000000088
 30
0.0
 11
19.84999999999934
 21
92.60000000000088
 31
0.0
  0
LINE
  5
83A
330
1F
100
AcDbEntity
  8
10
100
AcDbLine
 10
16.74999999999931
 20
89.0
 30
0.0
 11
16.74999999999931
 21
88.49999999999999
 31
0.0
  0
LINE
  5
83B
330
1F
100
AcDbEntity
  8
10
100
AcDbLine
 10
16.94999999999923
 20
90.0
 30
0.0
 11
16.94999999999923
 21
89.0
 31
0.0
  0
ARC
  5
83C
330
1F
100
AcDbEntity
  8
10
100
AcDbCircle
 10
19.84999999999934
 20
90.0
 30
0.0
 40
2.600000000000997
100
AcDbArc
 50
90.0
 51
180.0
  0
ARC
  5
83D
330
1F
100
AcDbEntity
  8
10
100
AcDbCircle
 10
21.64999999999918
 20
90.0
 30
0.0
 40
2.6
100
AcDbArc
 50
0.0
 51
90.0
  0
LINE
  5
83E
330
1F
100
AcDbEntity
  8
10
100
AcDbLine
 10
24.74999999999953
 20
89.0
 30
0.0
 11
16.74999999999931
 21
89.0
 31
0.0
  0
LINE
  5
83F
330
1F
100
AcDbEntity
  8
10
100
AcDbLine
 10
24.54999999999916
 20
90.0
 30
0.0
 11
16.94999999999923
 21
90.0
 31
0.0
  0
LINE
  5
840
330
1F
100
AcDbEntity
  8
10
100
AcDbLine
 10
15.34999999999933
 20
88.49999999999999
 30
0.0
 11
26.14999999999918
 21
88.49999999999999
 31
0.0
  0
ARC
  5
841
330
1F
100
AcDbEntity
  8
10
100
AcDbCircle
 10
34.14999999999918
 20
90.0
 30
0.0
 40
2.6
100
AcDbArc
 50
0.0
 51
90.0
  0
LINE
  5
842
330
1F
100
AcDbEntity
  8
10
100
AcDbLine
 10
37.24999999999953
 20
88.49999999999999
 30
0.0
 11
37.24999999999953
 21
89.0
 31
0.0
  0
LINE
  5
843
330
1F
100
AcDbEntity
  8
10
100
AcDbLine
 10
37.04999999999916
 20
89.0
 30
0.0
 11
37.04999999999916
 21
90.0
 31
0.0
  0
LINE
  5
844
330
1F
100
AcDbEntity
  8
10
100
AcDbLine
 10
34.14999999999918
 20
92.60000000000088
 30
0.0
 11
32.34999999999934
 21
92.60000000000088
 31
0.0
  0
LINE
  5
845
330
1F
100
AcDbEntity
  8
10
100
AcDbLine
 10
29.24999999999954
 20
89.0
 30
0.0
 11
29.24999999999954
 21
88.49999999999999
 31
0.0
  0
LINE
  5
846
330
1F
100
AcDbEntity
  8
10
100
AcDbLine
 10
29.45000000000027
 20
90.0
 30
0.0
 11
29.45000000000027
 21
89.0
 31
0.0
  0
ARC
  5
847
330
1F
100
AcDbEntity
  8
10
100
AcDbCircle
 10
32.34999999999934
 20
90.0
 30
0.0
 40
2.600000000000997
100
AcDbArc
 50
90.0
 51
180.0
  0
LINE
  5
848
330
1F
100
AcDbEntity
  8
10
100
AcDbLine
 10
37.24999999999953
 20
89.0
 30
0.0
 11
29.24999999999954
 21
89.0
 31
0.0
  0
LINE
  5
849
330
1F
100
AcDbEntity
  8
10
100
AcDbLine
 10
37.04999999999916
 20
90.0
 30
0.0
 11
29.45000000000027
 21
90.0
 31
0.0
  0
LINE
  5
84A
330
1F
100
AcDbEntity
  8
10
100
AcDbLine
 10
27.84999999999934
 20
88.49999999999999
 30
0.0
 11
38.64999999999918
 21
88.49999999999999
 31
0.0
  0
LINE
  5
84B
330
1F
100
AcDbEntity
  8
10
100
AcDbLine
 10
15.34999999999933
 20
97.0
 30
0.0
 11
26.14999999999918
 21
97.0
 31
0.0
  0
LINE
  5
84C
330
1F
100
AcDbEntity
  8
10
100
AcDbLine
 10
27.84999999999934
 20
97.0
 30
0.0
 11
38.64999999999918
 21
97.0
 31
0.0
  0
LINE
  5
84D
330
1F
100
AcDbEntity
  8
10
100
AcDbLine
 10
63.65000000000043
 20
88.49999999999999
 30
0.0
 11
63.65000000000043
 21
98.0
 31
0.0
  0
LINE
  5
84E
330
1F
100
AcDbEntity
  8
10
100
AcDbLine
 10
52.85000000000025
 20
98.0
 30
0.0
 11
52.85000000000025
 21
88.49999999999999
 31
0.0
  0
LINE
  5
84F
330
1F
100
AcDbEntity
  8
10
100
AcDbLine
 10
51.14999999999986
 20
88.49999999999999
 30
0.0
 11
51.14999999999986
 21
98.0
 31
0.0
  0
LINE
  5
850
330
1F
100
AcDbEntity
  8
10
100
AcDbLine
 10
40.34999999999977
 20
98.0
 30
0.0
 11
40.34999999999977
 21
88.49999999999999
 31
0.0
  0
LINE
  5
851
330
1F
100
AcDbEntity
  8
10
100
AcDbLine
 10
49.5499999999996
 20
90.0
 30
0.0
 11
41.95000000000059
 21
90.0
 31
0.0
  0
LINE
  5
852
330
1F
100
AcDbEntity
  8
10
100
AcDbLine
 10
49.74999999999977
 20
89.0
 30
0.0
 11
41.74999999999977
 21
89.0
 31
0.0
  0
ARC
  5
853
330
1F
100
AcDbEntity
  8
10
100
AcDbCircle
 10
44.84999999999979
 20
90.0
 30
0.0
 40
2.600000000000997
100
AcDbArc
 50
90.0
 51
180.0
  0
LINE
  5
854
330
1F
100
AcDbEntity
  8
10
100
AcDbLine
 10
41.95000000000059
 20
90.0
 30
0.0
 11
41.95000000000059
 21
89.0
 31
0.0
  0
LINE
  5
855
330
1F
100
AcDbEntity
  8
10
100
AcDbLine
 10
41.74999999999977
 20
89.0
 30
0.0
 11
41.74999999999977
 21
88.49999999999999
 31
0.0
  0
LINE
  5
856
330
1F
100
AcDbEntity
  8
10
100
AcDbLine
 10
46.64999999999998
 20
92.60000000000088
 30
0.0
 11
44.84999999999979
 21
92.60000000000088
 31
0.0
  0
LINE
  5
857
330
1F
100
AcDbEntity
  8
10
100
AcDbLine
 10
49.5499999999996
 20
89.0
 30
0.0
 11
49.5499999999996
 21
90.0
 31
0.0
  0
LINE
  5
858
330
1F
100
AcDbEntity
  8
10
100
AcDbLine
 10
49.74999999999977
 20
88.49999999999999
 30
0.0
 11
49.74999999999977
 21
89.0
 31
0.0
  0
ARC
  5
859
330
1F
100
AcDbEntity
  8
10
100
AcDbCircle
 10
46.64999999999998
 20
90.0
 30
0.0
 40
2.6
100
AcDbArc
 50
0.0
 51
90.0
  0
LINE
  5
85A
330
1F
100
AcDbEntity
  8
10
100
AcDbLine
 10
40.34999999999977
 20
88.49999999999999
 30
0.0
 11
51.14999999999986
 21
88.49999999999999
 31
0.0
  0
LINE
  5
85B
330
1F
100
AcDbEntity
  8
10
100
AcDbLine
 10
62.04999999999984
 20
90.0
 30
0.0
 11
54.45000000000118
 21
90.0
 31
0.0
  0
LINE
  5
85C
330
1F
100
AcDbEntity
  8
10
100
AcDbLine
 10
62.25000000000045
 20
89.0
 30
0.0
 11
54.25000000000046
 21
89.0
 31
0.0
  0
ARC
  5
85D
330
1F
100
AcDbEntity
  8
10
100
AcDbCircle
 10
57.35000000000025
 20
90.0
 30
0.0
 40
2.600000000000997
100
AcDbArc
 50
90.0
 51
180.0
  0
LINE
  5
85E
330
1F
100
AcDbEntity
  8
10
100
AcDbLine
 10
54.45000000000118
 20
90.0
 30
0.0
 11
54.45000000000118
 21
89.0
 31
0.0
  0
LINE
  5
85F
330
1F
100
AcDbEntity
  8
10
100
AcDbLine
 10
54.25000000000046
 20
89.0
 30
0.0
 11
54.25000000000046
 21
88.49999999999999
 31
0.0
  0
LINE
  5
860
330
1F
100
AcDbEntity
  8
10
100
AcDbLine
 10
59.15000000000043
 20
92.60000000000088
 30
0.0
 11
57.35000000000025
 21
92.60000000000088
 31
0.0
  0
LINE
  5
861
330
1F
100
AcDbEntity
  8
10
100
AcDbLine
 10
62.04999999999984
 20
89.0
 30
0.0
 11
62.04999999999984
 21
90.0
 31
0.0
  0
LINE
  5
862
330
1F
100
AcDbEntity
  8
10
100
AcDbLine
 10
62.25000000000045
 20
88.49999999999999
 30
0.0
 11
62.25000000000045
 21
89.0
 31
0.0
  0
ARC
  5
863
330
1F
100
AcDbEntity
  8
10
100
AcDbCircle
 10
59.15000000000043
 20
90.0
 30
0.0
 40
2.6
100
AcDbArc
 50
0.0
 51
90.0
  0
LINE
  5
864
330
1F
100
AcDbEntity
  8
10
100
AcDbLine
 10
52.85000000000025
 20
88.49999999999999
 30
0.0
 11
63.65000000000043
 21
88.49999999999999
 31
0.0
  0
LINE
  5
865
330
1F
100
AcDbEntity
  8
10
100
AcDbLine
 10
40.34999999999977
 20
97.0
 30
0.0
 11
51.14999999999986
 21
97.0
 31
0.0
  0
LINE
  5
866
330
1F
100
AcDbEntity
  8
10
100
AcDbLine
 10
52.85000000000025
 20
97.0
 30
0.0
 11
63.65000000000043
 21
97.0
 31
0.0
  0
LINE
  5
867
330
1F
100
AcDbEntity
  8
10
100
AcDbLine
 10
88.65000000000135
 20
88.49999999999999
 30
0.0
 11
88.65000000000135
 21
98.0
 31
0.0
  0
LINE
  5
868
330
1F
100
AcDbEntity
  8
10
100
AcDbLine
 10
77.85000000000116
 20
98.0
 30
0.0
 11
77.85000000000116
 21
88.49999999999999
 31
0.0
  0
LINE
  5
869
330
1F
100
AcDbEntity
  8
10
100
AcDbLine
 10
76.15000000000076
 20
88.49999999999999
 30
0.0
 11
76.15000000000076
 21
98.0
 31
0.0
  0
LINE
  5
86A
330
1F
100
AcDbEntity
  8
10
100
AcDbLine
 10
65.35000000000072
 20
98.0
 30
0.0
 11
65.35000000000072
 21
88.49999999999999
 31
0.0
  0
LINE
  5
86B
330
1F
100
AcDbEntity
  8
10
100
AcDbLine
 10
74.55000000000075
 20
90.0
 30
0.0
 11
66.95000000000153
 21
90.0
 31
0.0
  0
LINE
  5
86C
330
1F
100
AcDbEntity
  8
10
100
AcDbLine
 10
74.75000000000091
 20
89.0
 30
0.0
 11
66.75000000000091
 21
89.0
 31
0.0
  0
ARC
  5
86D
330
1F
100
AcDbEntity
  8
10
100
AcDbCircle
 10
69.8500000000007
 20
90.0
 30
0.0
 40
2.600000000000997
100
AcDbArc
 50
90.0
 51
180.0
  0
LINE
  5
86E
330
1F
100
AcDbEntity
  8
10
100
AcDbLine
 10
66.95000000000153
 20
90.0
 30
0.0
 11
66.95000000000153
 21
89.0
 31
0.0
  0
LINE
  5
86F
330
1F
100
AcDbEntity
  8
10
100
AcDbLine
 10
66.75000000000091
 20
89.0
 30
0.0
 11
66.75000000000091
 21
88.49999999999999
 31
0.0
  0
LINE
  5
870
330
1F
100
AcDbEntity
  8
10
100
AcDbLine
 10
71.65000000000087
 20
92.60000000000088
 30
0.0
 11
69.8500000000007
 21
92.60000000000088
 31
0.0
  0
LINE
  5
871
330
1F
100
AcDbEntity
  8
10
100
AcDbLine
 10
74.55000000000075
 20
89.0
 30
0.0
 11
74.55000000000075
 21
90.0
 31
0.0
  0
LINE
  5
872
330
1F
100
AcDbEntity
  8
10
100
AcDbLine
 10
74.75000000000091
 20
88.49999999999999
 30
0.0
 11
74.75000000000091
 21
89.0
 31
0.0
  0
ARC
  5
873
330
1F
100
AcDbEntity
  8
10
100
AcDbCircle
 10
71.65000000000087
 20
90.0
 30
0.0
 40
2.6
100
AcDbArc
 50
0.0
 51
90.0
  0
LINE
  5
874
330
1F
100
AcDbEntity
  8
10
100
AcDbLine
 10
65.35000000000072
 20
88.49999999999999
 30
0.0
 11
76.15000000000076
 21
88.49999999999999
 31
0.0
  0
LINE
  5
875
330
1F
100
AcDbEntity
  8
10
100
AcDbLine
 10
87.0500000000012
 20
90.0
 30
0.0
 11
79.45000000000198
 21
90.0
 31
0.0
  0
LINE
  5
876
330
1F
100
AcDbEntity
  8
10
100
AcDbLine
 10
87.25000000000134
 20
89.0
 30
0.0
 11
79.25000000000125
 21
89.0
 31
0.0
  0
ARC
  5
877
330
1F
100
AcDbEntity
  8
10
100
AcDbCircle
 10
82.35000000000116
 20
90.0
 30
0.0
 40
2.600000000000997
100
AcDbArc
 50
90.0
 51
180.0
  0
LINE
  5
878
330
1F
100
AcDbEntity
  8
10
100
AcDbLine
 10
79.45000000000198
 20
90.0
 30
0.0
 11
79.45000000000198
 21
89.0
 31
0.0
  0
LINE
  5
879
330
1F
100
AcDbEntity
  8
10
100
AcDbLine
 10
79.25000000000125
 20
89.0
 30
0.0
 11
79.25000000000125
 21
88.49999999999999
 31
0.0
  0
LINE
  5
87A
330
1F
100
AcDbEntity
  8
10
100
AcDbLine
 10
84.15000000000123
 20
92.60000000000088
 30
0.0
 11
82.35000000000116
 21
92.60000000000088
 31
0.0
  0
LINE
  5
87B
330
1F
100
AcDbEntity
  8
10
100
AcDbLine
 10
87.0500000000012
 20
89.0
 30
0.0
 11
87.0500000000012
 21
90.0
 31
0.0
  0
LINE
  5
87C
330
1F
100
AcDbEntity
  8
10
100
AcDbLine
 10
87.25000000000134
 20
88.49999999999999
 30
0.0
 11
87.25000000000134
 21
89.0
 31
0.0
  0
ARC
  5
87D
330
1F
100
AcDbEntity
  8
10
100
AcDbCircle
 10
84.15000000000123
 20
90.0
 30
0.0
 40
2.6
100
AcDbArc
 50
0.0
 51
90.0
  0
LINE
  5
87E
330
1F
100
AcDbEntity
  8
10
100
AcDbLine
 10
77.85000000000116
 20
88.49999999999999
 30
0.0
 11
88.65000000000135
 21
88.49999999999999
 31
0.0
  0
LINE
  5
87F
330
1F
100
AcDbEntity
  8
10
100
AcDbLine
 10
65.35000000000072
 20
97.0
 30
0.0
 11
76.15000000000076
 21
97.0
 31
0.0
  0
LINE
  5
880
330
1F
100
AcDbEntity
  8
10
100
AcDbLine
 10
77.85000000000116
 20
97.0
 30
0.0
 11
88.65000000000135
 21
97.0
 31
0.0
  0
LINE
  5
881
330
1F
100
AcDbEntity
  8
10
100
AcDbLine
 10
96.99999999999977
 20
98.0
 30
0.0
 11
96.99999999999977
 21
100.0
 31
0.0
  0
LINE
  5
882
330
1F
100
AcDbEntity
  8
10
100
AcDbLine
 10
98.99999999999977
 20
100.0
 30
0.0
 11
96.99999999999977
 21
100.0
 31
0.0
  0
ARC
  5
883
330
1F
100
AcDbEntity
  8
10
100
AcDbCircle
 10
197.2709829624038
 20
84.80000000000098
 30
0.0
 40
2.299999999999998
100
AcDbArc
 50
0.0
 51
90.0
  0
ARC
  5
884
330
1F
100
AcDbEntity
  8
10
100
AcDbCircle
 10
194.8709829624035
 20
84.80000000000098
 30
0.0
 40
2.299999999999998
100
AcDbArc
 50
90.0
 51
180.0
  0
LINE
  5
885
330
1F
100
AcDbEntity
  8
10
100
AcDbLine
 10
202.4709829624045
 20
78.0
 30
0.0
 11
202.4709829624045
 21
98.0
 31
0.0
  0
LINE
  5
886
330
1F
100
AcDbEntity
  8
10
100
AcDbLine
 10
208.0709829624036
 20
98.0
 30
0.0
 11
208.0709829624036
 21
78.0
 31
0.0
  0
LINE
  5
887
330
1F
100
AcDbEntity
  8
10
100
AcDbLine
 10
210.0709829624036
 20
78.0
 30
0.0
 11
210.0709829624036
 21
100.0
 31
0.0
  0
LINE
  5
888
330
1F
100
AcDbEntity
  8
10
100
AcDbLine
 10
200.4709829624045
 20
100.0
 30
0.0
 11
200.4709829624045
 21
83.0
 31
0.0
  0
LINE
  5
889
330
1F
100
AcDbEntity
  8
10
100
AcDbLine
 10
189.6709829624048
 20
78.0
 30
0.0
 11
189.6709829624048
 21
98.0
 31
0.0
  0
LINE
  5
88A
330
1F
100
AcDbEntity
  8
10
100
AcDbLine
 10
184.0709829624034
 20
98.0
 30
0.0
 11
184.0709829624034
 21
78.0
 31
0.0
  0
LINE
  5
88B
330
1F
100
AcDbEntity
  8
10
100
AcDbLine
 10
191.6709829624045
 20
100.0
 30
0.0
 11
191.6709829624045
 21
83.0
 31
0.0
  0
LINE
  5
88C
330
1F
100
AcDbEntity
  8
10
100
AcDbLine
 10
216.0709829624035
 20
89.19999999999951
 30
0.0
 11
216.0709829624035
 21
86.69999999999895
 31
0.0
  0
LINE
  5
88D
330
1F
100
AcDbEntity
  8
10
100
AcDbLine
 10
214.0709829624034
 20
89.80000000000051
 30
0.0
 11
214.0709829624034
 21
86.09999999999798
 31
0.0
  0
LINE
  5
88E
330
1F
100
AcDbEntity
  8
10
100
AcDbLine
 10
182.0709829624036
 20
78.0
 30
0.0
 11
182.0709829624036
 21
100.0
 31
0.0
  0
LINE
  5
88F
330
1F
100
AcDbEntity
  8
10
100
AcDbLine
 10
200.1709829624031
 20
73.5
 30
0.0
 11
200.1709829624031
 21
57.0
 31
0.0
  0
LINE
  5
890
330
1F
100
AcDbEntity
  8
10
100
AcDbLine
 10
190.1709829624038
 20
57.0
 30
0.0
 11
190.1709829624038
 21
73.5
 31
0.0
  0
LINE
  5
891
330
1F
100
AcDbEntity
  8
10
100
AcDbLine
 10
189.6709829624038
 20
60.0
 30
0.0
 11
189.6709829624038
 21
73.5
 31
0.0
  0
LINE
  5
892
330
1F
100
AcDbEntity
  8
10
100
AcDbLine
 10
200.6709829624035
 20
57.0
 30
0.0
 11
200.6709829624035
 21
73.5
 31
0.0
  0
LINE
  5
893
330
1F
100
AcDbEntity
  8
10
100
AcDbLine
 10
188.0709829624036
 20
76.0
 30
0.0
 11
188.0709829624036
 21
60.0
 31
0.0
  0
LINE
  5
894
330
1F
100
AcDbEntity
  8
10
100
AcDbLine
 10
201.4709829624038
 20
73.5
 30
0.0
 11
201.4709829624038
 21
58.5
 31
0.0
  0
LINE
  5
895
330
1F
100
AcDbEntity
  8
10
100
AcDbLine
 10
200.1709829624031
 20
58.25
 30
0.0
 11
190.1709829624038
 21
58.25
 31
0.0
  0
LINE
  5
896
330
1F
100
AcDbEntity
  8
10
100
AcDbLine
 10
190.1709829624038
 20
58.5
 30
0.0
 11
200.1709829624031
 21
58.5
 31
0.0
  0
LINE
  5
897
330
1F
100
AcDbEntity
  8
12
 48
7.0
100
AcDbLine
 10
178.6709829624038
 20
66.0
 30
0.0
 11
207.0900457143258
 21
66.0
 31
0.0
  0
LINE
  5
898
330
1F
100
AcDbEntity
  8
10
100
AcDbLine
 10
216.1709829624038
 20
57.0
 30
0.0
 11
174.1709829624038
 21
57.0
 31
0.0
  0
LINE
  5
899
330
1F
100
AcDbEntity
  8
10
100
AcDbLine
 10
184.3709829624035
 20
70.05000000000001
 30
0.0
 11
184.3709829624035
 21
61.94999999999999
 31
0.0
  0
LINE
  5
89A
330
1F
100
AcDbEntity
  8
10
100
AcDbLine
 10
180.6709829624034
 20
64.0
 30
0.0
 11
180.6709829624034
 21
68.0
 31
0.0
  0
LINE
  5
89B
330
1F
100
AcDbEntity
  8
10
100
AcDbLine
 10
187.5709829624029
 20
61.94999999999999
 30
0.0
 11
187.5709829624029
 21
70.0
 31
0.0
  0
LINE
  5
89C
330
1F
100
AcDbEntity
  8
10
100
AcDbLine
 10
188.0709829624036
 20
62.0
 30
0.0
 11
187.5709829624029
 21
62.0
 31
0.0
  0
LINE
  5
89D
330
1F
100
AcDbEntity
  8
10
100
AcDbLine
 10
184.3709829624035
 20
61.94999999999999
 30
0.0
 11
187.5709829624029
 21
61.94999999999999
 31
0.0
  0
LINE
  5
89E
330
1F
100
AcDbEntity
  8
10
100
AcDbLine
 10
189.6709829624038
 20
57.0
 30
0.0
 11
189.6709829624038
 21
60.0
 31
0.0
  0
LINE
  5
89F
330
1F
100
AcDbEntity
  8
10
100
AcDbLine
 10
188.0709829624036
 20
60.0
 30
0.0
 11
189.6709829624038
 21
60.0
 31
0.0
  0
LINE
  5
8A0
330
1F
100
AcDbEntity
  8
10
100
AcDbLine
 10
187.5709829624029
 20
64.0
 30
0.0
 11
180.6709829624034
 21
64.0
 31
0.0
  0
LINE
  5
8A1
330
1F
100
AcDbEntity
  8
10
100
AcDbLine
 10
187.5709829624029
 20
70.0
 30
0.0
 11
188.0709829624036
 21
70.0
 31
0.0
  0
LINE
  5
8A2
330
1F
100
AcDbEntity
  8
10
100
AcDbLine
 10
187.5709829624029
 20
70.05000000000001
 30
0.0
 11
184.3709829624035
 21
70.05000000000001
 31
0.0
  0
LINE
  5
8A3
330
1F
100
AcDbEntity
  8
10
100
AcDbLine
 10
187.5709829624029
 20
68.0
 30
0.0
 11
180.6709829624034
 21
68.0
 31
0.0
  0
ARC
  5
8A4
330
1F
100
AcDbEntity
  8
10
100
AcDbCircle
 10
200.4403378011136
 20
66.0
 30
0.0
 40
4.13064516129
100
AcDbArc
 50
284.4486313880868
 51
75.55136861190594
  0
LINE
  5
8A5
330
1F
100
AcDbEntity
  8
10
100
AcDbLine
 10
201.4709829624038
 20
58.5
 30
0.0
 11
200.6709829624035
 21
58.5
 31
0.0
  0
ARC
  5
8A6
330
1F
100
AcDbEntity
  8
10
100
AcDbCircle
 10
191.6709829624034
 20
74.39999999999997
 30
0.0
 40
2.0
100
AcDbArc
 50
90.0
 51
180.0
  0
LINE
  5
8A7
330
1F
100
AcDbEntity
  8
10
100
AcDbLine
 10
201.4709829624038
 20
73.5
 30
0.0
 11
189.6709829624038
 21
73.5
 31
0.0
  0
LINE
  5
8A8
330
1F
100
AcDbEntity
  8
10
100
AcDbLine
 10
182.0709829624036
 20
78.0
 30
0.0
 11
210.0709829624036
 21
78.0
 31
0.0
  0
LINE
  5
8A9
330
1F
100
AcDbEntity
  8
10
100
AcDbLine
 10
189.6709829624038
 20
74.39999999999997
 30
0.0
 11
189.6709829624038
 21
73.5
 31
0.0
  0
ARC
  5
8AA
330
1F
100
AcDbEntity
  8
10
100
AcDbCircle
 10
190.0709829624036
 20
76.0
 30
0.0
 40
2.0
100
AcDbArc
 50
90.0
 51
179.9999999999966
  0
LINE
  5
8AB
330
1F
100
AcDbEntity
  8
17
 48
5.0
100
AcDbLine
 10
196.0709829624036
 20
85.0
 30
0.0
 11
196.0709829624036
 21
76.0
 31
0.0
  0
LINE
  5
8AC
330
1F
100
AcDbEntity
  8
10
100
AcDbLine
 10
198.2709829624034
 20
83.0
 30
0.0
 11
198.2709829624034
 21
78.0
 31
0.0
  0
LINE
  5
8AD
330
1F
100
AcDbEntity
  8
10
100
AcDbLine
 10
193.8709829624036
 20
83.0
 30
0.0
 11
193.8709829624036
 21
78.0
 31
0.0
  0
LINE
  5
8AE
330
1F
100
AcDbEntity
  8
10
100
AcDbLine
 10
203.0709829624036
 20
76.39999999999997
 30
0.0
 11
203.0709829624036
 21
78.0
 31
0.0
  0
LINE
  5
8AF
330
1F
100
AcDbEntity
  8
10
100
AcDbLine
 10
191.6709829624034
 20
76.39999999999997
 30
0.0
 11
203.0709829624036
 21
76.39999999999997
 31
0.0
  0
LINE
  5
8B0
330
1F
100
AcDbEntity
  8
10
100
AcDbLine
 10
199.5709829624036
 20
84.50000000000001
 30
0.0
 11
199.5709829624036
 21
84.80000000000098
 31
0.0
  0
LINE
  5
8B1
330
1F
100
AcDbEntity
  8
10
100
AcDbLine
 10
192.5709829624036
 20
84.80000000000098
 30
0.0
 11
192.5709829624036
 21
84.50000000000001
 31
0.0
  0
LINE
  5
8B2
330
1F
100
AcDbEntity
  8
10
100
AcDbLine
 10
200.0709829624036
 20
83.49999999999999
 30
0.0
 11
200.0709829624036
 21
83.0
 31
0.0
  0
LINE
  5
8B3
330
1F
100
AcDbEntity
  8
10
100
AcDbLine
 10
199.8709829624035
 20
83.49999999999999
 30
0.0
 11
199.8709829624035
 21
84.50000000000001
 31
0.0
  0
LINE
  5
8B4
330
1F
100
AcDbEntity
  8
10
100
AcDbLine
 10
192.0709829624036
 20
83.0
 30
0.0
 11
192.0709829624036
 21
83.49999999999999
 31
0.0
  0
LINE
  5
8B5
330
1F
100
AcDbEntity
  8
10
100
AcDbLine
 10
192.2709829624038
 20
84.50000000000001
 30
0.0
 11
192.2709829624038
 21
83.49999999999999
 31
0.0
  0
LINE
  5
8B6
330
1F
100
AcDbEntity
  8
10
100
AcDbLine
 10
199.8709829624035
 20
84.50000000000001
 30
0.0
 11
192.2709829624038
 21
84.50000000000001
 31
0.0
  0
LINE
  5
8B7
330
1F
100
AcDbEntity
  8
10
100
AcDbLine
 10
192.0709829624036
 20
83.49999999999999
 30
0.0
 11
200.0709829624036
 21
83.49999999999999
 31
0.0
  0
LINE
  5
8B8
330
1F
100
AcDbEntity
  8
10
100
AcDbLine
 10
191.6709829624045
 20
83.0
 30
0.0
 11
200.4709829624045
 21
83.0
 31
0.0
  0
LINE
  5
8B9
330
1F
100
AcDbEntity
  8
10
100
AcDbLine
 10
216.8565576510534
 20
86.69999999999895
 30
0.0
 11
216.0709829624035
 21
86.69999999999895
 31
0.0
  0
LINE
  5
8BA
330
1F
100
AcDbEntity
  8
10
100
AcDbLine
 10
216.0709829624035
 20
86.69999999999895
 30
0.0
 11
214.0709829624034
 21
86.69999999999895
 31
0.0
  0
LINE
  5
8BB
330
1F
100
AcDbEntity
  8
10
100
AcDbLine
 10
214.0709829624034
 20
86.09999999999798
 30
0.0
 11
210.0709829624036
 21
86.09999999999798
 31
0.0
  0
LINE
  5
8BC
330
1F
100
AcDbEntity
  8
10
100
AcDbLine
 10
182.0709829624036
 20
100.0
 30
0.0
 11
191.6709829624045
 21
100.0
 31
0.0
  0
LINE
  5
8BD
330
1F
100
AcDbEntity
  8
10
100
AcDbLine
 10
184.0709829624034
 20
96.0
 30
0.0
 11
189.6709829624048
 21
96.0
 31
0.0
  0
LINE
  5
8BE
330
1F
100
AcDbEntity
  8
10
100
AcDbLine
 10
189.6709829624048
 20
98.0
 30
0.0
 11
184.0709829624034
 21
98.0
 31
0.0
  0
LINE
  5
8BF
330
1F
100
AcDbEntity
  8
10
100
AcDbLine
 10
197.2709829624038
 20
87.10000000000098
 30
0.0
 11
194.8709829624035
 21
87.10000000000098
 31
0.0
  0
LINE
  5
8C0
330
1F
100
AcDbEntity
  8
10
100
AcDbLine
 10
214.0709829624034
 20
89.19999999999951
 30
0.0
 11
216.0709829624035
 21
89.19999999999951
 31
0.0
  0
LINE
  5
8C1
330
1F
100
AcDbEntity
  8
10
100
AcDbLine
 10
210.0709829624036
 20
89.80000000000051
 30
0.0
 11
214.0709829624034
 21
89.80000000000051
 31
0.0
  0
LINE
  5
8C2
330
1F
100
AcDbEntity
  8
10
100
AcDbLine
 10
202.4709829624045
 20
96.0
 30
0.0
 11
208.0709829624036
 21
96.0
 31
0.0
  0
LINE
  5
8C3
330
1F
100
AcDbEntity
  8
10
100
AcDbLine
 10
202.4709829624045
 20
98.0
 30
0.0
 11
208.0709829624036
 21
98.0
 31
0.0
  0
LINE
  5
8C4
330
1F
100
AcDbEntity
  8
10
100
AcDbLine
 10
210.0709829624036
 20
100.0
 30
0.0
 11
200.4709829624045
 21
100.0
 31
0.0
  0
LINE
  5
8C5
330
1F
100
AcDbEntity
  8
10
100
AcDbLine
 10
191.6709829624045
 20
98.0
 30
0.0
 11
200.4709829624045
 21
98.0
 31
0.0
  0
LINE
  5
8C6
330
1F
100
AcDbEntity
  8
10
100
AcDbLine
 10
191.6709829624045
 20
96.0
 30
0.0
 11
200.4709829624045
 21
96.0
 31
0.0
  0
ARC
  5
8C7
330
1F
100
AcDbEntity
  8
10
100
AcDbCircle
 10
232.1863975065834
 20
78.34283684796069
 30
0.0
 40
9.535497341103702
100
AcDbArc
 50
1.323626079056126
 51
86.5548348675124
  0
ARC
  5
8C8
330
1F
100
AcDbEntity
  8
10
100
AcDbCircle
 10
234.0095563742655
 20
78.34586522347587
 30
0.0
 40
7.712854035089962
100
AcDbArc
 50
271.103764708125
 51
1.613986653910504
  0
ARC
  5
8C9
330
1F
100
AcDbEntity
  8
10
100
AcDbCircle
 10
231.9923145982734
 20
77.89102013265306
 30
0.0
 40
7.491939380631738
100
AcDbArc
 50
4.435660453451096
 51
86.9168340586247
  0
ARC
  5
8CA
330
1F
100
AcDbEntity
  8
10
100
AcDbCircle
 10
233.24347657991
 20
79.3686138620031
 30
0.0
 40
6.282868188766085
100
AcDbArc
 50
265.2126329110785
 51
351.7810973729218
  0
ARC
  5
8CB
330
1F
100
AcDbEntity
  8
10
100
AcDbCircle
 10
235.2050247250272
 20
209.1007172145475
 30
0.0
 40
121.2642794033417
100
AcDbArc
 50
261.399643471263
 51
268.8444038907986
  0
VIEWPORT
  5
409
330
23
100
AcDbEntity
 67
     1
  8
0
100
AcDbViewport
 10
142.6315765380859
 20
99.1129140853882
 30
0.0
 40
314.2372683715819
 41
259.7433703258352
 68
     1
 69
     1
1001
ACAD
1000
MVIEW
1002
{
1070
    16
1010
0.0
1020
0.0
1030
0.0
1010
0.0
1020
0.0
1030
1.0
1040
0.0
1040
259.7433703258352
1040
142.6315765380859
1040
99.1129140853882
1040
50.0
1040
0.0
1040
0.0
1070
     0
1070
   100
1070
     1
1070
     1
1070
     0
1070
     0
1070
     0
1070
     0
1040
0.0
1040
0.0
1040
0.0
1040
10.0
1040
10.0
1040
10.0
1040
10.0
1070
     0
1002
{
1002
}
1002
}
  0
VIEWPORT
  5
40B
330
23
100
AcDbEntity
 67
     1
  8
0
100
AcDbViewport
 10
142.6315770149231
 20
99.11291456222535
 30
0.0
 40
228.2105232238769
 41
158.5806632995605
 68
     2
 69
     2
1001
ACAD
1000
MVIEW
1002
{
1070
    16
1010
0.0
1020
0.0
1030
0.0
1010
0.0
1020
0.0
1030
1.0
1040
0.0
1040
437.7797658097811
1040
303.2144175903108
1040
233.3590858733038
1040
50.0
1040
0.0
1040
0.0
1070
     0
1070
   100
1070
     1
1070
     3
1070
     0
1070
     0
1070
     0
1070
     0
1040
0.0
1040
0.0
1040
0.0
1040
10.0
1040
10.0
1040
10.0
1040
10.0
1070
     0
1002
{
1002
}
1002
}
  0
ENDSEC
  0
SECTION
  2
OBJECTS
  0
DICTIONARY
  5
C
330
0
100
AcDbDictionary
  3
ACAD_GROUP
350
D
  3
ACAD_LAYOUT
350
1A
  3
ACAD_MLINESTYLE
350
17
  3
ACAD_PLOTSETTINGS
350
19
  3
ACAD_PLOTSTYLENAME
350
A0C
  3
ACAMCATALOGSTATE
350
5BA
  3
ACASAPPOBJECT
350
53F
  3
ACASGREF_MASTER
350
587
  3
ACDBHEADERROUNDTRIPXREC
350
AD5
  3
ACDBVARIABLEDICTIONARY
350
A15
  3
ACDMSYSVARMGR
350
519
  3
ACGREF_MASTER
350
513
  3
ACGREFACAD_MASTER
350
53B
  3
ACMDICTIONARY
350
5B6
  3
ACME_BOM_MANAGER_NAME
350
50C
  3
ACME_COMMAND_HISTORY
350
507
  3
ACME_SCOPE_NAME
350
506
  3
ACMESTATEMGR
350
511
  3
ACMESYSVARMANAGER
350
508
  3
ACMSYSTEMVARIABLEMANAGER
350
5C4
  3
AD_APPL
350
59E
  3
AD_GREF_MODULE
350
588
  3
AD_MAPI_MODULE
350
5A0
  3
ADSYSVARMGR
350
590
  3
AMDTNAMEDDWGMGR
350
536
  3
AMG
350
4FD
  3
AMGSNAPSETTINGS
350
5D0
  3
AMI_MASTER
350
53E
  3
ASURF_STATIC_VARS
350
540
  3
AUTOCAD_ASSEMBLIES_PROJECT
350
5AB
  3
AUTOSURF_SYSVARS
350
541
  3
DESIGNER_ASSEMBLIES_SYSVARS
350
5A2
  3
DWGPROPS
350
5B9
  3
GREFAM_MODULE
350
58A
  3
MAPISURF_MODULE
350
589
1001
ACAD
1000
TREAT_AS_HARD
1070
     0
  0
DICTIONARY
  5
41
330
2
100
AcDbDictionary
  3
ACAD_LAYERFILTERS
350
3FF
  3
ACAD_LAYERSTATES
350
42
1001
ACAD
1000
TREAT_AS_HARD
1070
     1
  0
DICTIONARY
  5
438
330
1F
100
AcDbDictionary
  3
ACAD_LAYOUTSELFREF
350
AF5
1001
ACAD
1000
TREAT_AS_HARD
1070
     1
  0
DICTIONARY
  5
43A
330
23
100
AcDbDictionary
  3
ACAD_LAYOUTSELFREF
350
AF6
1001
ACAD
1000
TREAT_AS_HARD
1070
     1
  0
DICTIONARY
  5
D
102
{ACAD_REACTORS
330
C
102
}
330
C
100
AcDbDictionary
1001
ACAD
1000
TREAT_AS_HARD
1070
     0
  0
DICTIONARY
  5
1A
102
{ACAD_REACTORS
330
C
102
}
330
C
100
AcDbDictionary
1001
ACAD
1000
TREAT_AS_HARD
1070
     0
  0
DICTIONARY
  5
17
102
{ACAD_REACTORS
330
C
102
}
330
C
100
AcDbDictionary
  3
STANDARD
350
18
1001
ACAD
1000
TREAT_AS_HARD
1070
     0
  0
DICTIONARY
  5
19
102
{ACAD_REACTORS
330
C
102
}
330
C
100
AcDbDictionary
1001
ACAD
1000
TREAT_AS_HARD
1070
     0
  0
ACDBDICTIONARYWDFLT
  5
A0C
102
{ACAD_REACTORS
330
C
102
}
330
C
100
AcDbDictionary
281
     1
  3
Normal
350
A0D
100
AcDbDictionaryWithDefault
340
A0D
  0
ACAD_PROXY_OBJECT
  5
5BA
102
{ACAD_REACTORS
330
C
102
}
330
C
100
AcDbProxyObject
 90
      499
 91
      574
 93
      880
310
3FFFFFFFE00A0284402B0AE2E189C9917189B1C17189719182E32B733B4B732B2B934B733AE32B733B4B732B2B934B733AE26A2A2C5E34B58AE181C1898189A2FA6A2A2AF99222FC6F6483EAE39B4B5BCBAAE232916A420A62FA422A62FA1A0A22E4728C6B641B340ADC1AF400AA60
 94
        0
1001
ACAD
1000
AcadProxyRoundTripData
1071
      565
1071
   851991
1070
     0
  0
ACAD_PROXY_OBJECT
  5
53F
102
{ACAD_REACTORS
330
C
102
}
330
C
100
AcDbProxyObject
 90
      499
 91
      574
 93
       10
310
4046
 94
        0
1001
ACAD
1000
AcadProxyRoundTripData
1071
      537
1071
   851991
1070
     0
  0
ACAD_PROXY_OBJECT
  5
587
102
{ACAD_REACTORS
330
C
102
}
330
C
100
AcDbProxyObject
 90
      499
 91
      574
 93
       34
310
0100004043
 94
        0
1001
ACAD
1000
AcadProxyRoundTripData
1071
      543
1071
   851991
1070
     0
  0
DICTIONARY
  5
AD5
102
{ACAD_REACTORS
330
C
102
}
330
C
100
AcDbDictionary
  3
CEPSNTYPE
350
ADF
  3
FINGERPRINTGUID
350
AE0
  3
HYPERLINKBASE
350
AD8
  3
INSUNITS
350
ADE
  3
LAYOUTDICT
350
ADA
  3
LWETCUNION
350
ADD
  3
PLOTSETDICT
350
ADB
  3
PLOTSTYLNAMDICT
350
ADC
  3
PSVPSCALE
350
AE2
  3
PUCSBASE
350
AE5
  3
PUCSORGBACK
350
AEB
  3
PUCSORGBOTTOM
350
AE7
  3
PUCSORGFRONT
350
AEA
  3
PUCSORGLEFT
350
AE8
  3
PUCSORGRIGHT
350
AE9
  3
PUCSORGTOP
350
AE6
  3
PUCSORTHOREF
350
AE3
  3
PUCSORTHOVIEW
350
AE4
  3
STYLESHEET
350
AD9
  3
TSTACKALIGN
350
AD6
  3
TSTACKSIZE
350
AD7
  3
UCSBASE
350
AEE
  3
UCSORGBACK
350
AF4
  3
UCSORGBOTTOM
350
AF0
  3
UCSORGFRONT
350
AF3
  3
UCSORGLEFT
350
AF1
  3
UCSORGRIGHT
350
AF2
  3
UCSORGTOP
350
AEF
  3
UCSORTHOREF
350
AEC
  3
UCSORTHOVIEW
350
AED
  3
VERSIONGUID
350
AE1
  0
DICTIONARY
  5
A15
102
{ACAD_REACTORS
330
C
102
}
330
C
100
AcDbDictionary
  3
DIMASSOC
350
A16
  0
ACAD_PROXY_OBJECT
  5
519
102
{ACAD_REACTORS
330
C
102
}
330
C
100
AcDbProxyObject
 90
      499
 91
      574
 93
      240
310
4C51A482000000000000000000000000000000000000000000000000000000
330
51A
330
51B
330
51C
330
51D
330
51E
330
51F
330
520
330
523
330
524
330
525
330
526
330
527
330
528
330
529
330
52A
330
52B
330
52C
330
52D
330
52E
330
52F
330
530
330
531
330
532
330
533
330
534
330
535
 94
        0
1001
ACAD
1000
AcadProxyRoundTripData
1071
      516
1071
   851991
1070
     0
  0
ACAD_PROXY_OBJECT
  5
513
102
{ACAD_REACTORS
330
C
102
}
330
C
100
AcDbProxyObject
 90
      499
 91
      574
 93
       34
310
0400004283
 94
        0
1001
ACAD
1000
AcadProxyRoundTripData
1071
      525
1071
   851991
1070
     0
  0
ACAD_PROXY_OBJECT
  5
53B
102
{ACAD_REACTORS
330
C
102
}
330
C
100
AcDbProxyObject
 90
      499
 91
      574
 93
      114
310
04000041C000000000000000000000
 94
        0
1001
ACAD
1000
AcadProxyRoundTripData
1071
      533
1071
   851991
1070
     0
  0
DICTIONARY
  5
5B6
102
{ACAD_REACTORS
330
C
102
}
330
C
100
AcDbDictionary
  3
ACMBOMDATA
350
5B7
1001
ACAD
1000
TREAT_AS_HARD
1070
     0
  0
ACAD_PROXY_OBJECT
  5
50C
102
{ACAD_REACTORS
330
C
102
}
330
C
100
AcDbProxyObject
 90
      499
 91
      574
 93
       50
310
00000040400000
330
0
330
0
330
50D
 94
        0
1001
ACAD
1000
AcadProxyRoundTripData
1071
      519
1071
   851991
1070
     0
  0
ACAD_PROXY_OBJECT
  5
507
102
{ACAD_REACTORS
330
C
102
}
330
C
100
AcDbProxyObject
 90
      499
 91
      574
 93
      778
310
424050E414D4454524553455444424D4F4440805084E202D20554E444F014213880B4815539113C0507544F4F4C42415280504554E444F80504554E444F80504554E444F80504554E444F80504554E444F805054552415345805065341564541539D
 94
        0
1001
ACAD
1000
AcadProxyRoundTripData
1071
      515
1071
   851991
1070
     0
  0
ACAD_PROXY_OBJECT
  5
506
102
{ACAD_REACTORS
330
C
102
}
330
C
100
AcDbProxyObject
 90
      499
 91
      574
 93
     1242
310
06000044400000000000000000001840000400020000000000000000000000000000000000000000000000000000000000000000000000000000000000000000000000000000000000000000000000000000000000000000000000000000000000000000000000000000000000000000000000000000000000000000000000
310
00000000000000000000000000000000000000000000000000AAAAAAB0
360
509
360
50A
360
50B
360
50D
360
514
360
515
360
516
360
517
360
51A
360
51B
360
51C
360
51D
360
51E
360
51F
360
520
360
523
360
524
360
525
360
526
360
527
360
528
360
529
360
52A
360
52B
360
52C
360
52D
360
52E
360
52F
360
530
360
531
360
532
360
533
360
534
360
535
360
542
360
543
360
544
360
545
360
546
360
547
360
548
360
549
360
54A
360
54B
360
54C
360
54D
360
54E
360
54F
360
550
360
551
360
552
360
553
360
554
360
555
360
556
360
557
360
558
360
559
360
55A
360
55B
360
55C
360
55D
360
55E
360
55F
360
560
360
561
360
562
360
563
360
564
360
565
360
566
360
567
360
568
360
569
360
56A
360
56B
360
56C
360
56D
360
56E
360
56F
360
570
360
571
360
572
360
573
360
574
360
575
360
576
360
577
360
578
360
579
360
57A
360
57B
360
57C
360
57D
360
57E
360
57F
360
580
360
581
360
582
360
583
360
58C
360
58D
360
58E
360
58F
360
591
360
592
360
593
360
594
360
595
360
596
360
597
360
598
360
599
360
59A
360
59B
360
59C
360
59D
360
5A3
360
5A4
360
5A5
360
5A6
360
5A7
360
5A8
360
5A9
360
5AA
360
5AF
360
5B0
360
5B1
360
5B2
360
5B3
360
5B4
360
5C5
 94
        0
1001
ACAD
1000
AcadProxyRoundTripData
1071
      514
1071
   851991
1070
     0
  0
ACAD_PROXY_OBJECT
  5
511
102
{ACAD_REACTORS
330
C
102
}
330
C
100
AcDbProxyObject
 90
      499
 91
      574
 93
       50
310
06000041641280
 94
        0
1001
ACAD
1000
AcadProxyRoundTripData
1071
      524
1071
   851991
1070
     0
  0
ACAD_PROXY_OBJECT
  5
508
102
{ACAD_REACTORS
330
C
102
}
330
C
100
AcDbProxyObject
 90
      499
 91
      574
 93
       48
310
90342200000011
330
509
330
50A
330
50B
 94
        0
1001
ACAD
1000
AcadProxyRoundTripData
1071
      516
1071
   851991
1070
     0
  0
ACAD_PROXY_OBJECT
  5
5C4
102
{ACAD_REACTORS
330
C
102
}
330
C
100
AcDbProxyObject
 90
      499
 91
      574
 93
       32
310
9014220000
330
5C5
 94
        0
1001
ACAD
1000
AcadProxyRoundTripData
1071
      516
1071
   851991
1070
     0
  0
ACAD_PROXY_OBJECT
  5
59E
102
{ACAD_REACTORS
330
C
102
}
330
C
100
AcDbProxyObject
 90
      499
 91
      574
 93
       42
310
0006000043C6
330
58C
 94
        0
1001
ACAD
1000
AcadProxyRoundTripData
1071
      552
1071
   851991
1070
     0
  0
ACAD_PROXY_OBJECT
  5
588
102
{ACAD_REACTORS
330
C
102
}
330
C
100
AcDbProxyObject
 90
      499
 91
      574
 93
      114
310
000000438000000000000000000000
 94
        0
1001
ACAD
1000
AcadProxyRoundTripData
1071
      544
1071
   851991
1070
     0
  0
ACAD_PROXY_OBJECT
  5
5A0
102
{ACAD_REACTORS
330
C
102
}
330
C
100
AcDbProxyObject
 90
      499
 91
      574
 93
       34
310
05000044C3
 94
        0
1001
ACAD
1000
AcadProxyRoundTripData
1071
      554
1071
   851991
1070
     0
  0
ACAD_PROXY_OBJECT
  5
590
102
{ACAD_REACTORS
330
C
102
}
330
C
100
AcDbProxyObject
 90
      499
 91
      574
 93
      128
310
90D4420000000000000000000000000000
330
591
330
592
330
593
330
594
330
595
330
596
330
597
330
598
330
599
330
59A
330
59B
330
59C
330
59D
 94
        0
1001
ACAD
1000
AcadProxyRoundTripData
1071
      516
1071
   851991
1070
     0
  0
ACAD_PROXY_OBJECT
  5
536
102
{ACAD_REACTORS
330
C
102
}
330
C
100
AcDbProxyObject
 90
      499
 91
      574
 93
       42
310
000100005AC4
330
514
 94
        0
1001
ACAD
1000
AcadProxyRoundTripData
1071
      530
1071
   851991
1070
     0
  0
DICTIONARY
  5
4FD
102
{ACAD_REACTORS
330
C
102
}
330
C
100
AcDbDictionary
  3
ACMGSETTINGS
350
4FE
  3
AMGLAYCFG
350
5C3
1001
ACAD
1000
TREAT_AS_HARD
1070
     0
  0
DICTIONARY
  5
5D0
102
{ACAD_REACTORS
330
C
102
}
330
C
100
AcDbDictionary
  3
DIMENSION
350
5D5
  3
FEA
350
5D4
  3
HATCH__1_
350
5D1
  3
HATCH__2_
350
5D2
  3
SIMPLE_WELD
350
5D6
  3
SYMBOLS
350
5D3
1001
ACAD
1000
TREAT_AS_HARD
1070
     0
  0
ACAD_PROXY_OBJECT
  5
53E
102
{ACAD_REACTORS
330
C
102
}
330
C
100
AcDbProxyObject
 90
      499
 91
      574
 93
       34
310
0500004287
 94
        0
1001
ACAD
1000
AcadProxyRoundTripData
1071
      536
1071
   851991
1070
     0
  0
ACAD_PROXY_OBJECT
  5
540
102
{ACAD_REACTORS
330
C
102
}
330
C
100
AcDbProxyObject
 90
      499
 91
      574
 93
      424
310
585315020000000000000000000000000000000000000000000000000000000000000000000000000000000000000000000000000040
330
553
330
554
330
555
330
556
330
557
330
558
330
559
330
55A
330
55B
330
55C
330
55D
330
55E
330
55F
330
560
330
561
330
562
330
563
330
564
330
565
330
566
330
567
330
568
330
569
330
56A
330
56B
330
56C
330
56D
330
56E
330
56F
330
570
330
571
330
572
330
573
330
574
330
575
330
576
330
577
330
578
330
579
330
57A
330
57B
330
57C
330
57D
330
57E
330
57F
330
580
330
581
330
582
330
583
 94
        0
1001
ACAD
1000
AcadProxyRoundTripData
1071
      538
1071
   851991
1070
     0
  0
ACAD_PROXY_OBJECT
  5
5AB
102
{ACAD_REACTORS
330
C
102
}
330
C
100
AcDbProxyObject
 90
      499
 91
      574
 93
       74
310
0600004A400000000000
330
5B2
330
0
330
5B3
330
0
330
0
 94
        0
1001
ACAD
1000
AcadProxyRoundTripData
1071
      556
1071
   851991
1070
     0
  0
ACAD_PROXY_OBJECT
  5
541
102
{ACAD_REACTORS
330
C
102
}
330
C
100
AcDbProxyObject
 90
      499
 91
      574
 93
      168
310
4C511482000000000000000000000000000000000000
330
542
330
543
330
544
330
545
330
546
330
547
330
548
330
549
330
54A
330
54B
330
54C
330
54D
330
54E
330
54F
330
550
330
551
330
552
 94
        0
1001
ACAD
1000
AcadProxyRoundTripData
1071
      516
1071
   851991
1070
     0
  0
ACAD_PROXY_OBJECT
  5
5A2
102
{ACAD_REACTORS
330
C
102
}
330
C
100
AcDbProxyObject
 90
      499
 91
      574
 93
       88
310
908422000000000000000044
330
5A3
330
5A4
330
5A5
330
5A6
330
5A7
330
5A8
330
5A9
330
5AA
 94
        0
1001
ACAD
1000
AcadProxyRoundTripData
1071
      516
1071
   851991
1070
     0
  0
XRECORD
  5
5B9
102
{ACAD_REACTORS
330
C
102
}
330
C
100
AcDbXrecord
  1
DWGPROPS COOKIE
  2

  3

  4

  6

  7

  8

  9

300
AmdtFileType=84
301
=
302
=
303
=
304
=
305
=
306
=
307
=
308
=
309
=
 40
0.005163125
 41
2454596.550355717
 42
2454596.675773645
  1

 90
        1
  0
ACAD_PROXY_OBJECT
  5
58A
102
{ACAD_REACTORS
330
C
102
}
330
C
100
AcDbProxyObject
 90
      499
 91
      574
 93
        8
310
0593
 94
        0
1001
ACAD
1000
AcadProxyRoundTripData
1071
      546
1071
   851991
1070
     0
  0
ACAD_PROXY_OBJECT
  5
589
102
{ACAD_REACTORS
330
C
102
}
330
C
100
AcDbProxyObject
 90
      499
 91
      574
 93
        8
310
0400
 94
        0
1001
ACAD
1000
AcadProxyRoundTripData
1071
      545
1071
   851991
1070
     0
  0
DICTIONARY
  5
3FF
102
{ACAD_REACTORS
330
41
102
}
330
41
100
AcDbDictionary
1001
ACAD
1000
TREAT_AS_HARD
1070
     1
  0
DICTIONARY
  5
42
102
{ACAD_REACTORS
330
41
102
}
330
41
100
AcDbDictionary
1001
ACAD
1000
TREAT_AS_HARD
1070
     0
  0
XRECORD
  5
AF5
102
{ACAD_REACTORS
330
438
102
}
330
438
100
AcDbXrecord
340
1F
  0
XRECORD
  5
AF6
102
{ACAD_REACTORS
330
43A
102
}
330
43A
100
AcDbXrecord
340
23
  0
MLINESTYLE
  5
18
102
{ACAD_REACTORS
330
17
102
}
330
17
100
AcDbMlineStyle
  2
STANDARD
 70
     0
  3

 62
   256
 51
90.0
 52
90.0
 71
     2
 49
0.5
 62
   256
  6
BYLAYER
 49
-0.5
 62
   256
  6
BYLAYER
  0
ACDBPLACEHOLDER
  5
A0D
102
{ACAD_REACTORS
330
A0C
102
}
330
A0C
100
AcDbPlaceHolder
280
     0
  0
XRECORD
  5
ADF
102
{ACAD_REACTORS
330
AD5
102
}
330
AD5
100
AcDbXrecord
 90
        0
  0
XRECORD
  5
AE0
102
{ACAD_REACTORS
330
AD5
102
}
330
AD5
100
AcDbXrecord
  1
{7FEC8B4C-9430-41FA-A7BC-6BED02842A23}
  0
XRECORD
  5
AD8
102
{ACAD_REACTORS
330
AD5
102
}
330
AD5
100
AcDbXrecord
  1

  0
XRECORD
  5
ADE
102
{ACAD_REACTORS
330
AD5
102
}
330
AD5
100
AcDbXrecord
 90
        0
  0
XRECORD
  5
ADA
102
{ACAD_REACTORS
330
AD5
102
}
330
AD5
100
AcDbXrecord
340
1A
  0
XRECORD
  5
ADD
102
{ACAD_REACTORS
330
AD5
102
}
330
AD5
100
AcDbXrecord
 90
    10781
  0
XRECORD
  5
ADB
102
{ACAD_REACTORS
330
AD5
102
}
330
AD5
100
AcDbXrecord
340
19
  0
XRECORD
  5
ADC
102
{ACAD_REACTORS
330
AD5
102
}
330
AD5
100
AcDbXrecord
340
A0C
  0
XRECORD
  5
AE2
102
{ACAD_REACTORS
330
AD5
102
}
330
AD5
100
AcDbXrecord
 40
0.0
  0
XRECORD
  5
AE5
102
{ACAD_REACTORS
330
AD5
102
}
330
AD5
100
AcDbXrecord
340
0
  0
XRECORD
  5
AEB
102
{ACAD_REACTORS
330
AD5
102
}
330
AD5
100
AcDbXrecord
 10
0.0
 20
0.0
 30
0.0
  0
XRECORD
  5
AE7
102
{ACAD_REACTORS
330
AD5
102
}
330
AD5
100
AcDbXrecord
 10
0.0
 20
0.0
 30
0.0
  0
XRECORD
  5
AEA
102
{ACAD_REACTORS
330
AD5
102
}
330
AD5
100
AcDbXrecord
 10
0.0
 20
0.0
 30
0.0
  0
XRECORD
  5
AE8
102
{ACAD_REACTORS
330
AD5
102
}
330
AD5
100
AcDbXrecord
 10
0.0
 20
0.0
 30
0.0
  0
XRECORD
  5
AE9
102
{ACAD_REACTORS
330
AD5
102
}
330
AD5
100
AcDbXrecord
 10
0.0
 20
0.0
 30
0.0
  0
XRECORD
  5
AE6
102
{ACAD_REACTORS
330
AD5
102
}
330
AD5
100
AcDbXrecord
 10
0.0
 20
0.0
 30
0.0
  0
XRECORD
  5
AE3
102
{ACAD_REACTORS
330
AD5
102
}
330
AD5
100
AcDbXrecord
340
0
  0
XRECORD
  5
AE4
102
{ACAD_REACTORS
330
AD5
102
}
330
AD5
100
AcDbXrecord
 70
     0
  0
XRECORD
  5
AD9
102
{ACAD_REACTORS
330
AD5
102
}
330
AD5
100
AcDbXrecord
  1
monochrome.ctb
  0
XRECORD
  5
AD6
102
{ACAD_REACTORS
330
AD5
102
}
330
AD5
100
AcDbXrecord
 90
        1
  0
XRECORD
  5
AD7
102
{ACAD_REACTORS
330
AD5
102
}
330
AD5
100
AcDbXrecord
 90
       70
  0
XRECORD
  5
AEE
102
{ACAD_REACTORS
330
AD5
102
}
330
AD5
100
AcDbXrecord
340
0
  0
XRECORD
  5
AF4
102
{ACAD_REACTORS
330
AD5
102
}
330
AD5
100
AcDbXrecord
 10
0.0
 20
0.0
 30
0.0
  0
XRECORD
  5
AF0
102
{ACAD_REACTORS
330
AD5
102
}
330
AD5
100
AcDbXrecord
 10
0.0
 20
0.0
 30
0.0
  0
XRECORD
  5
AF3
102
{ACAD_REACTORS
330
AD5
102
}
330
AD5
100
AcDbXrecord
 10
0.0
 20
0.0
 30
0.0
  0
XRECORD
  5
AF1
102
{ACAD_REACTORS
330
AD5
102
}
330
AD5
100
AcDbXrecord
 10
0.0
 20
0.0
 30
0.0
  0
XRECORD
  5
AF2
102
{ACAD_REACTORS
330
AD5
102
}
330
AD5
100
AcDbXrecord
 10
0.0
 20
0.0
 30
0.0
  0
XRECORD
  5
AEF
102
{ACAD_REACTORS
330
AD5
102
}
330
AD5
100
AcDbXrecord
 10
0.0
 20
0.0
 30
0.0
  0
XRECORD
  5
AEC
102
{ACAD_REACTORS
330
AD5
102
}
330
AD5
100
AcDbXrecord
340
0
  0
XRECORD
  5
AED
102
{ACAD_REACTORS
330
AD5
102
}
330
AD5
100
AcDbXrecord
 70
     0
  0
XRECORD
  5
AE1
102
{ACAD_REACTORS
330
AD5
102
}
330
AD5
100
AcDbXrecord
  1
{D168714C-5805-4A2E-A84E-556868F79001}
  0
DICTIONARYVAR
  5
A16
102
{ACAD_REACTORS
330
A15
102
}
330
A15
100
DictionaryVariables
280
     0
  1
1
  0
ACAD_PROXY_OBJECT
  5
5B7
102
{ACAD_REACTORS
330
5B6
102
}
330
5B6
100
AcDbProxyObject
 90
      499
 91
      574
 93
      118
310
405010040CA904C415CD5B07571028
350
5B8
 94
        0
1001
ACAD
1000
AcadProxyRoundTripData
1071
      563
1071
   851991
1070
     0
  0
ACAD_PROXY_OBJECT
  5
509
330
0
100
AcDbProxyObject
 90
      499
 91
      574
 93
      156
310
00010143D050D351505391D5531054925390D490
330
506
 94
        0
1001
ACAD
1000
AcadProxyRoundTripData
1071
      517
1071
   851991
1070
     0
  0
ACAD_PROXY_OBJECT
  5
50A
330
0
100
AcDbProxyObject
 90
      499
 91
      574
 93
      148
310
000101439050D351531253915054925390D494
330
506
 94
        0
1001
ACAD
1000
AcadProxyRoundTripData
1071
      517
1071
   851991
1070
     0
  0
ACAD_PROXY_OBJECT
  5
50B
330
0
100
AcDbProxyObject
 90
      499
 91
      574
 93
      156
310
000101439050D35154D6535093D314D256915080
330
506
 94
        0
1001
ACAD
1000
AcadProxyRoundTripData
1071
      518
1071
   851991
1070
     0
  0
ACAD_PROXY_OBJECT
  5
50D
330
0
100
AcDbProxyObject
 90
      499
 91
      574
 93
      120
310
000101422565255A6557080C402B0000
330
506
330
0
330
0
 94
        0
1001
ACAD
1000
AcadProxyRoundTripData
1071
      520
1071
   851991
1070
     0
  0
ACAD_PROXY_OBJECT
  5
514
330
0
100
AcDbProxyObject
 90
      499
 91
      574
 93
      358
310
0001014124FEA55D00507362E332E302E31014124FEA55D00507362E332E302E3140501000041505391D311658
330
506
330
515
330
519
 94
        0
1001
ACAD
1000
AcadProxyRoundTripData
1071
      526
1071
   851991
1070
     0
  0
ACAD_PROXY_OBJECT
  5
515
330
0
100
AcDbProxyObject
 90
      499
 91
      574
 93
       48
310
00019014220011
330
506
330
516
 94
        0
1001
ACAD
1000
AcadProxyRoundTripData
1071
      527
1071
   851991
1070
     0
  0
ACAD_PROXY_OBJECT
  5
516
330
0
100
AcDbProxyObject
 90
      499
 91
      574
 93
       48
310
0001AA00000011
330
506
330
4F8
330
517
330
0
 94
        0
1001
ACAD
1000
AcadProxyRoundTripData
1071
      528
1071
   851991
1070
     0
  0
ACAD_PROXY_OBJECT
  5
517
330
0
100
AcDbProxyObject
 90
      499
 91
      574
 93
       28
310
0001AAA0
330
506
 94
        0
1001
ACAD
1000
AcadProxyRoundTripData
1071
      529
1071
   851991
1070
     0
  0
ACAD_PROXY_OBJECT
  5
51A
330
0
100
AcDbProxyObject
 90
      499
 91
      574
 93
      108
310
000101421053521310D05310D01F
330
506
 94
        0
1001
ACAD
1000
AcadProxyRoundTripData
1071
      518
1071
   851991
1070
     0
  0
ACAD_PROXY_OBJECT
  5
51B
330
0
100
AcDbProxyObject
 90
      499
 91
      574
 93
      124
310
00010142905354915554D15112535010
330
506
 94
        0
1001
ACAD
1000
AcadProxyRoundTripData
1071
      518
1071
   851991
1070
     0
  0
ACAD_PROXY_OBJECT
  5
51C
330
0
100
AcDbProxyObject
 90
      499
 91
      574
 93
      132
310
00010143105354D150D51253D391125360
330
506
 94
        0
1001
ACAD
1000
AcadProxyRoundTripData
1071
      518
1071
   851991
1070
     0
  0
ACAD_PROXY_OBJECT
  5
51D
330
0
100
AcDbProxyObject
 90
      499
 91
      574
 93
      124
310
00010142905355941093D49111549013
330
506
 94
        0
1001
ACAD
1000
AcadProxyRoundTripData
1071
      518
1071
   851991
1070
     0
  0
ACAD_PROXY_OBJECT
  5
51E
330
0
100
AcDbProxyObject
 90
      499
 91
      574
 93
      116
310
0001014290535115D1D0D3D313D4A0
330
506
 94
        0
1001
ACAD
1000
AcadProxyRoundTripData
1071
      518
1071
   851991
1070
     0
  0
ACAD_PROXY_OBJECT
  5
51F
330
0
100
AcDbProxyObject
 90
      499
 91
      574
 93
      148
310
00010143505355925155D49151949154D21010
330
506
 94
        0
1001
ACAD
1000
AcadProxyRoundTripData
1071
      518
1071
   851991
1070
     0
  0
ACAD_PROXY_OBJECT
  5
520
330
0
100
AcDbProxyObject
 90
      499
 91
      574
 93
      172
310
00010144105350539393D51154149154D1549591501A
330
506
 94
        0
1001
ACAD
1000
AcadProxyRoundTripData
1071
      518
1071
   851991
1070
     0
  0
ACAD_PROXY_OBJECT
  5
523
330
0
100
AcDbProxyObject
 90
      499
 91
      574
 93
      172
310
00010144105350555513D11253505494905391D1501A
330
506
 94
        0
1001
ACAD
1000
AcadProxyRoundTripData
1071
      518
1071
   851991
1070
     0
  0
ACAD_PROXY_OBJECT
  5
524
330
0
100
AcDbProxyObject
 90
      499
 91
      574
 93
      124
310
00010142D05351561514915191125364
330
506
 94
        0
1001
ACAD
1000
AcadProxyRoundTripData
1071
      518
1071
   851991
1070
     0
  0
ACAD_PROXY_OBJECT
  5
525
330
0
100
AcDbProxyObject
 90
      499
 91
      574
 93
      132
310
00010142D05355105410539393D5115010
330
506
 94
        0
1001
ACAD
1000
AcadProxyRoundTripData
1071
      518
1071
   851991
1070
     0
  0
ACAD_PROXY_OBJECT
  5
526
330
0
100
AcDbProxyObject
 90
      499
 91
      574
 93
      108
310
00010142105350555513D0D31015
330
506
 94
        0
1001
ACAD
1000
AcadProxyRoundTripData
1071
      518
1071
   851991
1070
     0
  0
ACAD_PROXY_OBJECT
  5
527
330
0
100
AcDbProxyObject
 90
      499
 91
      574
 93
      108
310
00010142105350D3119150551055
330
506
 94
        0
1001
ACAD
1000
AcadProxyRoundTripData
1071
      518
1071
   851991
1070
     0
  0
ACAD_PROXY_OBJECT
  5
528
330
0
100
AcDbProxyObject
 90
      499
 91
      574
 93
      108
310
00010142105350D315925155D3F5
330
506
 94
        0
1001
ACAD
1000
AcadProxyRoundTripData
1071
      518
1071
   851991
1070
     0
  0
ACAD_PROXY_OBJECT
  5
529
330
0
100
AcDbProxyObject
 90
      499
 91
      574
 93
      148
310
0001014350535212511156915493D112535011
330
506
 94
        0
1001
ACAD
1000
AcadProxyRoundTripData
1071
      518
1071
   851991
1070
     0
  0
ACAD_PROXY_OBJECT
  5
52A
330
0
100
AcDbProxyObject
 90
      499
 91
      574
 93
      124
310
00010142905352105510D21254D3D012
330
506
 94
        0
1001
ACAD
1000
AcadProxyRoundTripData
1071
      518
1071
   851991
1070
     0
  0
ACAD_PROXY_OBJECT
  5
52B
330
0
100
AcDbProxyObject
 90
      499
 91
      574
 93
      148
310
00010143905354D25391D31152105513105661
330
506
 94
        0
1001
ACAD
1000
AcadProxyRoundTripData
1071
      518
1071
   851991
1070
     0
  0
ACAD_PROXY_OBJECT
  5
52C
330
0
100
AcDbProxyObject
 90
      499
 91
      574
 93
      124
310
00010142D0535115D1D193111254D423
330
506
 94
        0
1001
ACAD
1000
AcadProxyRoundTripData
1071
      518
1071
   851991
1070
     0
  0
ACAD_PROXY_OBJECT
  5
52D
330
0
100
AcDbProxyObject
 90
      499
 91
      574
 93
      100
310
00010142105350555513D213A2
330
506
 94
        0
1001
ACAD
1000
AcadProxyRoundTripData
1071
      518
1071
   851991
1070
     0
  0
ACAD_PROXY_OBJECT
  5
52E
330
0
100
AcDbProxyObject
 90
      499
 91
      574
 93
      116
310
000101425053521390D3D553951014
330
506
 94
        0
1001
ACAD
1000
AcadProxyRoundTripData
1071
      518
1071
   851991
1070
     0
  0
ACAD_PROXY_OBJECT
  5
52F
330
0
100
AcDbProxyObject
 90
      499
 91
      574
 93
      108
310
0001014210535213941493D29010
330
506
 94
        0
1001
ACAD
1000
AcadProxyRoundTripData
1071
      518
1071
   851991
1070
     0
  0
ACAD_PROXY_OBJECT
  5
530
330
0
100
AcDbProxyObject
 90
      499
 91
      574
 93
      108
310
0001014210535213951654115070
330
506
 94
        0
1001
ACAD
1000
AcadProxyRoundTripData
1071
      518
1071
   851991
1070
     0
  0
ACAD_PROXY_OBJECT
  5
531
330
0
100
AcDbProxyObject
 90
      499
 91
      574
 93
      108
310
000101421053521395925155D0F0
330
506
 94
        0
1001
ACAD
1000
AcadProxyRoundTripData
1071
      518
1071
   851991
1070
     0
  0
ACAD_PROXY_OBJECT
  5
532
330
0
100
AcDbProxyObject
 90
      499
 91
      574
 93
      140
310
00010143505354D150D51253D390D3D41666
330
506
 94
        0
1001
ACAD
1000
AcadProxyRoundTripData
1071
      518
1071
   851991
1070
     0
  0
ACAD_PROXY_OBJECT
  5
533
330
0
100
AcDbProxyObject
 90
      499
 91
      574
 93
      108
310
00010142105350D3141493D29030
330
506
 94
        0
1001
ACAD
1000
AcadProxyRoundTripData
1071
      518
1071
   851991
1070
     0
  0
ACAD_PROXY_OBJECT
  5
534
330
0
100
AcDbProxyObject
 90
      499
 91
      574
 93
      212
310
00010143905350555513D2105510D21493D500000000000002E406
330
506
 94
        0
1001
ACAD
1000
AcadProxyRoundTripData
1071
      517
1071
   851991
1070
     0
  0
ACAD_PROXY_OBJECT
  5
535
330
0
100
AcDbProxyObject
 90
      499
 91
      574
 93
      156
310
00010143905350555513D2105510D21111551010
330
506
 94
        0
1001
ACAD
1000
AcadProxyRoundTripData
1071
      518
1071
   851991
1070
     0
  0
ACAD_PROXY_OBJECT
  5
542
330
0
100
AcDbProxyObject
 90
      499
 91
      574
 93
      116
310
000101425053541051D15311539192
330
506
 94
        0
1001
ACAD
1000
AcadProxyRoundTripData
1071
      518
1071
   851991
1070
     0
  0
ACAD_PROXY_OBJECT
  5
543
330
0
100
AcDbProxyObject
 90
      499
 91
      574
 93
      108
310
000101421053555312539154D051
330
506
 94
        0
1001
ACAD
1000
AcadProxyRoundTripData
1071
      518
1071
   851991
1070
     0
  0
ACAD_PROXY_OBJECT
  5
544
330
0
100
AcDbProxyObject
 90
      499
 91
      574
 93
      108
310
000101421053559312539154D031
330
506
 94
        0
1001
ACAD
1000
AcadProxyRoundTripData
1071
      518
1071
   851991
1070
     0
  0
ACAD_PROXY_OBJECT
  5
545
330
0
100
AcDbProxyObject
 90
      499
 91
      574
 93
      140
310
00010143105354D1911254D41353D1115015
330
506
 94
        0
1001
ACAD
1000
AcadProxyRoundTripData
1071
      518
1071
   851991
1070
     0
  0
ACAD_PROXY_OBJECT
  5
546
330
0
100
AcDbProxyObject
 90
      499
 91
      574
 93
      172
310
00010142505354119255105391C1C052DC9A6F104400
330
506
 94
        0
1001
ACAD
1000
AcadProxyRoundTripData
1071
      517
1071
   851991
1070
     0
  0
ACAD_PROXY_OBJECT
  5
547
330
0
100
AcDbProxyObject
 90
      499
 91
      574
 93
      164
310
000101421053559150D05551C000000000000E03F4
330
506
 94
        0
1001
ACAD
1000
AcadProxyRoundTripData
1071
      517
1071
   851991
1070
     0
  0
ACAD_PROXY_OBJECT
  5
548
330
0
100
AcDbProxyObject
 90
      499
 91
      574
 93
      180
310
00010142905350931153911513D307B14AE47E17A843F0
330
506
 94
        0
1001
ACAD
1000
AcadProxyRoundTripData
1071
      517
1071
   851991
1070
     0
  0
ACAD_PROXY_OBJECT
  5
549
330
0
100
AcDbProxyObject
 90
      499
 91
      574
 93
      172
310
0001014250535293D25391D05407B14AE47E17A843F3
330
506
 94
        0
1001
ACAD
1000
AcadProxyRoundTripData
1071
      517
1071
   851991
1070
     0
  0
ACAD_PROXY_OBJECT
  5
54A
330
0
100
AcDbProxyObject
 90
      499
 91
      574
 93
      172
310
000101425053541192551311538000000FC83D797413
330
506
 94
        0
1001
ACAD
1000
AcadProxyRoundTripData
1071
      517
1071
   851991
1070
     0
  0
ACAD_PROXY_OBJECT
  5
54B
330
0
100
AcDbProxyObject
 90
      499
 91
      574
 93
      156
310
00010141D053559150D4D18000000000000E03F9
330
506
 94
        0
1001
ACAD
1000
AcadProxyRoundTripData
1071
      517
1071
   851991
1070
     0
  0
ACAD_PROXY_OBJECT
  5
54C
330
0
100
AcDbProxyObject
 90
      499
 91
      574
 93
      156
310
00010141D05354D19513D309A9999999999993F9
330
506
 94
        0
1001
ACAD
1000
AcadProxyRoundTripData
1071
      517
1071
   851991
1070
     0
  0
ACAD_PROXY_OBJECT
  5
54D
330
0
100
AcDbProxyObject
 90
      499
 91
      574
 93
      172
310
000101425053541192551513D307B14AE47E17A843F3
330
506
 94
        0
1001
ACAD
1000
AcadProxyRoundTripData
1071
      517
1071
   851991
1070
     0
  0
ACAD_PROXY_OBJECT
  5
54E
330
0
100
AcDbProxyObject
 90
      499
 91
      574
 93
      188
310
00010142D05354D151D192551513D307B14AE47E17A843F0
330
506
 94
        0
1001
ACAD
1000
AcadProxyRoundTripData
1071
      517
1071
   851991
1070
     0
  0
ACAD_PROXY_OBJECT
  5
54F
330
0
100
AcDbProxyObject
 90
      499
 91
      574
 93
      148
310
000101419053541311538000000FC83D797414
330
506
 94
        0
1001
ACAD
1000
AcadProxyRoundTripData
1071
      517
1071
   851991
1070
     0
  0
ACAD_PROXY_OBJECT
  5
550
330
0
100
AcDbProxyObject
 90
      499
 91
      574
 93
      172
310
00010142505354105391D513D301C052DC9A6F104408
330
506
 94
        0
1001
ACAD
1000
AcadProxyRoundTripData
1071
      517
1071
   851991
1070
     0
  0
ACAD_PROXY_OBJECT
  5
551
330
0
100
AcDbProxyObject
 90
      499
 91
      574
 93
      132
310
0001014114D2569140000000000002440C
330
506
 94
        0
1001
ACAD
1000
AcadProxyRoundTripData
1071
      517
1071
   851991
1070
     0
  0
ACAD_PROXY_OBJECT
  5
552
330
0
100
AcDbProxyObject
 90
      499
 91
      574
 93
      156
310
00010142905351D4941491519256005034153470
330
506
 94
        0
1001
ACAD
1000
AcadProxyRoundTripData
1071
      539
1071
   851991
1070
     0
  0
ACAD_PROXY_OBJECT
  5
553
330
0
100
AcDbProxyObject
 90
      499
 91
      574
 93
      314
310
00014080509646973745363616C650000000000003C2FC000000000000F0BF0000003F20F5E5D045
330
506
 94
        0
1001
ACAD
1000
AcadProxyRoundTripData
1071
      540
1071
   851991
1070
     0
  0
ACAD_PROXY_OBJECT
  5
554
330
0
100
AcDbProxyObject
 90
      499
 91
      574
 93
      322
310
0001408050A65646175526F74617465060B51153EC87E4FC182D4454FB2119C0060B51153EC8465039
330
506
 94
        0
1001
ACAD
1000
AcadProxyRoundTripData
1071
      540
1071
   851991
1070
     0
  0
ACAD_PROXY_OBJECT
  5
555
330
0
100
AcDbProxyObject
 90
      499
 91
      574
 93
      314
310
00014080509656461755477697374060B51153EC846500000000FC83D797C10000003F20F5E5D050
330
506
 94
        0
1001
ACAD
1000
AcadProxyRoundTripData
1071
      540
1071
   851991
1070
     0
  0
ACAD_PROXY_OBJECT
  5
556
330
0
100
AcDbProxyObject
 90
      499
 91
      574
 93
      294
310
000140C050A656467654F75747075740144F3B7F635ECB74A140A4817D41BDB1E5B1A5B995
330
506
 94
        0
1001
ACAD
1000
AcadProxyRoundTripData
1071
      541
1071
   851991
1070
     0
  0
ACAD_PROXY_OBJECT
  5
557
330
0
100
AcDbProxyObject
 90
      499
 91
      574
 93
      154
310
0001404050B6564697450726576696577406407F
330
506
 94
        0
1001
ACAD
1000
AcadProxyRoundTripData
1071
      542
1071
   851991
1070
     0
  0
ACAD_PROXY_OBJECT
  5
558
330
0
100
AcDbProxyObject
 90
      499
 91
      574
 93
      170
310
0001404050A666C6F77556C696E657342A3A00C0001E
330
506
 94
        0
1001
ACAD
1000
AcadProxyRoundTripData
1071
      542
1071
   851991
1070
     0
  0
ACAD_PROXY_OBJECT
  5
559
330
0
100
AcDbProxyObject
 90
      499
 91
      574
 93
      170
310
0001404050A666C6F77566C696E657342A3A00C0001E
330
506
 94
        0
1001
ACAD
1000
AcadProxyRoundTripData
1071
      542
1071
   851991
1070
     0
  0
ACAD_PROXY_OBJECT
  5
55A
330
0
100
AcDbProxyObject
 90
      499
 91
      574
 93
      322
310
0001408050A666C7366456E645261640000000000003C2FC000000000000F0BF0000003F20F5E5D079
330
506
 94
        0
1001
ACAD
1000
AcadProxyRoundTripData
1071
      540
1071
   851991
1070
     0
  0
ACAD_PROXY_OBJECT
  5
55B
330
0
100
AcDbProxyObject
 90
      499
 91
      574
 93
      246
310
000140C05086A6E33644D6F64650143E3BA24EB8A134A4817D3585B9D585B0
330
506
 94
        0
1001
ACAD
1000
AcadProxyRoundTripData
1071
      541
1071
   851991
1070
     0
  0
ACAD_PROXY_OBJECT
  5
55C
330
0
100
AcDbProxyObject
 90
      499
 91
      574
 93
      294
310
000140C050A6A6E33644F75747075740144F3B7F635ECB74A140A4817D41BDB1E5B1A5B994
330
506
 94
        0
1001
ACAD
1000
AcadProxyRoundTripData
1071
      541
1071
   851991
1070
     0
  0
ACAD_PROXY_OBJECT
  5
55D
330
0
100
AcDbProxyObject
 90
      499
 91
      574
 93
      306
310
000140805086C656E675065726300000000002016D002D431CEBE2361A3F0000003F20F5E5D065
330
506
 94
        0
1001
ACAD
1000
AcadProxyRoundTripData
1071
      540
1071
   851991
1070
     0
  0
ACAD_PROXY_OBJECT
  5
55E
330
0
100
AcDbProxyObject
 90
      499
 91
      574
 93
      266
310
0001408050B6D61737344656E7369747942D431CEBE2361A3F0000003F20F5E5D07F
330
506
 94
        0
1001
ACAD
1000
AcadProxyRoundTripData
1071
      540
1071
   851991
1070
     0
  0
ACAD_PROXY_OBJECT
  5
55F
330
0
100
AcDbProxyObject
 90
      499
 91
      574
 93
      186
310
000140805096D617373546869636BA0000003F20F5E5D05A
330
506
 94
        0
1001
ACAD
1000
AcadProxyRoundTripData
1071
      540
1071
   851991
1070
     0
  0
ACAD_PROXY_OBJECT
  5
560
330
0
100
AcDbProxyObject
 90
      499
 91
      574
 93
      230
310
000140C05086D6173735479706501436F2AB64A14CA4817D4DA195B1B3
330
506
 94
        0
1001
ACAD
1000
AcadProxyRoundTripData
1071
      541
1071
   851991
1070
     0
  0
ACAD_PROXY_OBJECT
  5
561
330
0
100
AcDbProxyObject
 90
      499
 91
      574
 93
      242
310
000140805086F667366446973744000000FC83D797C10000003F20F5E5D075
330
506
 94
        0
1001
ACAD
1000
AcadProxyRoundTripData
1071
      540
1071
   851991
1070
     0
  0
ACAD_PROXY_OBJECT
  5
562
330
0
100
AcDbProxyObject
 90
      499
 91
      574
 93
      258
310
0001408050A7072696D52616469757342D431CEBE2361A3F0000003F20F5E5D050
330
506
 94
        0
1001
ACAD
1000
AcadProxyRoundTripData
1071
      540
1071
   851991
1070
     0
  0
ACAD_PROXY_OBJECT
  5
563
330
0
100
AcDbProxyObject
 90
      499
 91
      574
 93
      194
310
0001408050A7072696D546F70526164A0000003F20F5E5D040
330
506
 94
        0
1001
ACAD
1000
AcadProxyRoundTripData
1071
      540
1071
   851991
1070
     0
  0
ACAD_PROXY_OBJECT
  5
564
330
0
100
AcDbProxyObject
 90
      499
 91
      574
 93
      266
310
0001408050B7072696D5475626552616442D431CEBE2361A3F0000003F20F5E5D07F
330
506
 94
        0
1001
ACAD
1000
AcadProxyRoundTripData
1071
      540
1071
   851991
1070
     0
  0
ACAD_PROXY_OBJECT
  5
565
330
0
100
AcDbProxyObject
 90
      499
 91
      574
 93
      258
310
0001408050A7072696D4865696768744000000FC83D797C10000003F20F5E5D050
330
506
 94
        0
1001
ACAD
1000
AcadProxyRoundTripData
1071
      540
1071
   851991
1070
     0
  0
ACAD_PROXY_OBJECT
  5
566
330
0
100
AcDbProxyObject
 90
      499
 91
      574
 93
      250
310
000140805097072696D5374416E678182D4454FB2119C0060B51153EC8465010
330
506
 94
        0
1001
ACAD
1000
AcadProxyRoundTripData
1071
      540
1071
   851991
1070
     0
  0
ACAD_PROXY_OBJECT
  5
567
330
0
100
AcDbProxyObject
 90
      499
 91
      574
 93
      322
310
0001408050A7072696D456E64416E67060B51153EC846500182D4454FB2119C0060B51153EC8465039
330
506
 94
        0
1001
ACAD
1000
AcadProxyRoundTripData
1071
      540
1071
   851991
1070
     0
  0
ACAD_PROXY_OBJECT
  5
568
330
0
100
AcDbProxyObject
 90
      499
 91
      574
 93
      242
310
000140805087265765374416E678182D4454FB2119C0060B51153EC8465019
330
506
 94
        0
1001
ACAD
1000
AcadProxyRoundTripData
1071
      540
1071
   851991
1070
     0
  0
ACAD_PROXY_OBJECT
  5
569
330
0
100
AcDbProxyObject
 90
      499
 91
      574
 93
      314
310
00014080509726576456E64416E67060B51153EC846500182D4454FB2119C0060B51153EC8465010
330
506
 94
        0
1001
ACAD
1000
AcadProxyRoundTripData
1071
      540
1071
   851991
1070
     0
  0
ACAD_PROXY_OBJECT
  5
56A
330
0
100
AcDbProxyObject
 90
      499
 91
      574
 93
      194
310
0001404050C7266736655706174636865734290139C0C0002D
330
506
 94
        0
1001
ACAD
1000
AcadProxyRoundTripData
1071
      542
1071
   851991
1070
     0
  0
ACAD_PROXY_OBJECT
  5
56B
330
0
100
AcDbProxyObject
 90
      499
 91
      574
 93
      194
310
0001404050C7266736656706174636865734290139C0C0002D
330
506
 94
        0
1001
ACAD
1000
AcadProxyRoundTripData
1071
      542
1071
   851991
1070
     0
  0
ACAD_PROXY_OBJECT
  5
56C
330
0
100
AcDbProxyObject
 90
      499
 91
      574
 93
      246
310
000140C0508747562654D6F64650143E3BA24EB8A134A4817D3585B9D585B0
330
506
 94
        0
1001
ACAD
1000
AcadProxyRoundTripData
1071
      541
1071
   851991
1070
     0
  0
ACAD_PROXY_OBJECT
  5
56D
330
0
100
AcDbProxyObject
 90
      499
 91
      574
 93
      274
310
0001408050C747562654469616D6574657242D431CEBE2361A3F0000003F20F5E5D055
330
506
 94
        0
1001
ACAD
1000
AcadProxyRoundTripData
1071
      540
1071
   851991
1070
     0
  0
ACAD_PROXY_OBJECT
  5
56E
330
0
100
AcDbProxyObject
 90
      499
 91
      574
 93
      130
310
00014040509696E746572506F6C79A4057
330
506
 94
        0
1001
ACAD
1000
AcadProxyRoundTripData
1071
      542
1071
   851991
1070
     0
  0
ACAD_PROXY_OBJECT
  5
56F
330
0
100
AcDbProxyObject
 90
      499
 91
      574
 93
      162
310
0001404050D696E746572417567506F696E74A405C
330
506
 94
        0
1001
ACAD
1000
AcadProxyRoundTripData
1071
      542
1071
   851991
1070
     0
  0
ACAD_PROXY_OBJECT
  5
570
330
0
100
AcDbProxyObject
 90
      499
 91
      574
 93
      238
310
000140C0509696E7465727472696D014365EF257ECA108A4817D09BDD1A3
330
506
 94
        0
1001
ACAD
1000
AcadProxyRoundTripData
1071
      541
1071
   851991
1070
     0
  0
ACAD_PROXY_OBJECT
  5
571
330
0
100
AcDbProxyObject
 90
      499
 91
      574
 93
      230
310
000140C0509696E7465727479706501433136344A150A4817D51C9A5B5
330
506
 94
        0
1001
ACAD
1000
AcadProxyRoundTripData
1071
      541
1071
   851991
1070
     0
  0
ACAD_PROXY_OBJECT
  5
572
330
0
100
AcDbProxyObject
 90
      499
 91
      574
 93
      146
310
0001404050A636F726E65727472696D4064063
330
506
 94
        0
1001
ACAD
1000
AcadProxyRoundTripData
1071
      542
1071
   851991
1070
     0
  0
ACAD_PROXY_OBJECT
  5
573
330
0
100
AcDbProxyObject
 90
      499
 91
      574
 93
      130
310
000140405086F6673666B6565704064046
330
506
 94
        0
1001
ACAD
1000
AcadProxyRoundTripData
1071
      542
1071
   851991
1070
     0
  0
ACAD_PROXY_OBJECT
  5
574
330
0
100
AcDbProxyObject
 90
      499
 91
      574
 93
      146
310
0001404050A70726F6A4F757470757440A40E3
330
506
 94
        0
1001
ACAD
1000
AcadProxyRoundTripData
1071
      542
1071
   851991
1070
     0
  0
ACAD_PROXY_OBJECT
  5
575
330
0
100
AcDbProxyObject
 90
      499
 91
      574
 93
      270
310
000140C050D70726F6A446972656374696F6E014372F7AB6C0A124A4817DD92595DC
330
506
 94
        0
1001
ACAD
1000
AcadProxyRoundTripData
1071
      541
1071
   851991
1070
     0
  0
ACAD_PROXY_OBJECT
  5
576
330
0
100
AcDbProxyObject
 90
      499
 91
      574
 93
      130
310
0001404050870726F6A4B6565704064056
330
506
 94
        0
1001
ACAD
1000
AcadProxyRoundTripData
1071
      542
1071
   851991
1070
     0
  0
ACAD_PROXY_OBJECT
  5
577
330
0
100
AcDbProxyObject
 90
      499
 91
      574
 93
      278
310
000140C050B70726F6A53706163696E670144237164D2CA13CA4817D3DC1D1A5B585B1
330
506
 94
        0
1001
ACAD
1000
AcadProxyRoundTripData
1071
      541
1071
   851991
1070
     0
  0
ACAD_PROXY_OBJECT
  5
578
330
0
100
AcDbProxyObject
 90
      499
 91
      574
 93
      250
310
0001408050970726F6A54617065728182D4454FB21F9BF060B51153EC87E4FE5
330
506
 94
        0
1001
ACAD
1000
AcadProxyRoundTripData
1071
      540
1071
   851991
1070
     0
  0
ACAD_PROXY_OBJECT
  5
579
330
0
100
AcDbProxyObject
 90
      499
 91
      574
 93
      130
310
00014040508647261674B656570406406D
330
506
 94
        0
1001
ACAD
1000
AcadProxyRoundTripData
1071
      542
1071
   851991
1070
     0
  0
ACAD_PROXY_OBJECT
  5
57A
330
0
100
AcDbProxyObject
 90
      499
 91
      574
 93
      302
310
000140C050F647261674F7269656E746174696F6E0143E590243F0A138A4817D39BDC9B585B2
330
506
 94
        0
1001
ACAD
1000
AcadProxyRoundTripData
1071
      541
1071
   851991
1070
     0
  0
ACAD_PROXY_OBJECT
  5
57B
330
0
100
AcDbProxyObject
 90
      499
 91
      574
 93
      286
310
000140C050E647261675472616E736974696F6E0143A3B6A4DE0A10CA4817DCD0D85B195
330
506
 94
        0
1001
ACAD
1000
AcadProxyRoundTripData
1071
      541
1071
   851991
1070
     0
  0
ACAD_PROXY_OBJECT
  5
57C
330
0
100
AcDbProxyObject
 90
      499
 91
      574
 93
      318
310
000140C051061646A757374436F6E74696E7569747901442F746C2F778A14CA4817D4DB5BDBDD1A0
330
506
 94
        0
1001
ACAD
1000
AcadProxyRoundTripData
1071
      541
1071
   851991
1070
     0
  0
ACAD_PROXY_OBJECT
  5
57D
330
0
100
AcDbProxyObject
 90
      499
 91
      574
 93
      138
310
0001404050A61646A7573744B656570A4040
330
506
 94
        0
1001
ACAD
1000
AcadProxyRoundTripData
1071
      542
1071
   851991
1070
     0
  0
ACAD_PROXY_OBJECT
  5
57E
330
0
100
AcDbProxyObject
 90
      499
 91
      574
 93
      250
310
0001408050972756C65576964746842D431CEBE2361A3F0000003F20F5E5D040
330
506
 94
        0
1001
ACAD
1000
AcadProxyRoundTripData
1071
      540
1071
   851991
1070
     0
  0
ACAD_PROXY_OBJECT
  5
57F
330
0
100
AcDbProxyObject
 90
      499
 91
      574
 93
      274
310
0001408050C616E616C797A65447261667421D139D28615ED8FE060B51153EC8425000
330
506
 94
        0
1001
ACAD
1000
AcadProxyRoundTripData
1071
      540
1071
   851991
1070
     0
  0
ACAD_PROXY_OBJECT
  5
580
330
0
100
AcDbProxyObject
 90
      499
 91
      574
 93
      210
310
0001404050F616E616C797A654E756D4C696E65734163FDFC00006
330
506
 94
        0
1001
ACAD
1000
AcadProxyRoundTripData
1071
      542
1071
   851991
1070
     0
  0
ACAD_PROXY_OBJECT
  5
581
330
0
100
AcDbProxyObject
 90
      499
 91
      574
 93
      202
310
00014040512616E616C797A65526F746174654C696E6573A4040
330
506
 94
        0
1001
ACAD
1000
AcadProxyRoundTripData
1071
      542
1071
   851991
1070
     0
  0
ACAD_PROXY_OBJECT
  5
582
330
0
100
AcDbProxyObject
 90
      499
 91
      574
 93
      210
310
00014040513616E616C797A65446973706C61794C696E6573A4046
330
506
 94
        0
1001
ACAD
1000
AcadProxyRoundTripData
1071
      542
1071
   851991
1070
     0
  0
ACAD_PROXY_OBJECT
  5
583
330
0
100
AcDbProxyObject
 90
      499
 91
      574
 93
      258
310
00014040519616E616C797A655472616E736C7563656E7453757266616365A4042
330
506
 94
        0
1001
ACAD
1000
AcadProxyRoundTripData
1071
      542
1071
   851991
1070
     0
  0
ACAD_PROXY_OBJECT
  5
58C
330
0
100
AcDbProxyObject
 90
      499
 91
      574
 93
      698
310
0001000000009AA6A9AA4051E4D6F6E204F63742031332030303A33373A353920323030382028555443290141CD8B8D0B8C0B8C405184D6F6E204F63742031332030393A34313A333120323030380141CD8B8D0B8C0B8C40
330
506
330
58D
330
58E
330
590
330
0
 94
        0
1001
ACAD
1000
AcadProxyRoundTripData
1071
      548
1071
   851991
1070
     0
  0
ACAD_PROXY_OBJECT
  5
58D
330
0
100
AcDbProxyObject
 90
      499
 91
      574
 93
       70
310
0001AAA80820000003
330
506
330
58D
330
58D
 94
        0
1001
ACAD
1000
AcadProxyRoundTripData
1071
      549
1071
   851991
1070
     0
  0
ACAD_PROXY_OBJECT
  5
58E
330
0
100
AcDbProxyObject
 90
      499
 91
      574
 93
       48
310
00010000000011
330
506
330
0
330
58F
330
0
330
0
 94
        0
1001
ACAD
1000
AcadProxyRoundTripData
1071
      550
1071
   851991
1070
     0
  0
ACAD_PROXY_OBJECT
  5
58F
330
0
100
AcDbProxyObject
 90
      499
 91
      574
 93
       40
310
000100AAAA00
330
506
330
0
 94
        0
1001
ACAD
1000
AcadProxyRoundTripData
1071
      551
1071
   851991
1070
     0
  0
ACAD_PROXY_OBJECT
  5
591
330
0
100
AcDbProxyObject
 90
      499
 91
      574
 93
      124
310
00010142905350D3D39114D414D69050
330
506
 94
        0
1001
ACAD
1000
AcadProxyRoundTripData
1071
      518
1071
   851991
1070
     0
  0
ACAD_PROXY_OBJECT
  5
592
330
0
100
AcDbProxyObject
 90
      499
 91
      574
 93
      124
310
000101429053549553115353D1115010
330
506
 94
        0
1001
ACAD
1000
AcadProxyRoundTripData
1071
      518
1071
   851991
1070
     0
  0
ACAD_PROXY_OBJECT
  5
593
330
0
100
AcDbProxyObject
 90
      499
 91
      574
 93
      108
310
00010142105354D2D353D1115011
330
506
 94
        0
1001
ACAD
1000
AcadProxyRoundTripData
1071
      518
1071
   851991
1070
     0
  0
ACAD_PROXY_OBJECT
  5
594
330
0
100
AcDbProxyObject
 90
      499
 91
      574
 93
      140
310
000101435053511253511254D41353D11160
330
506
 94
        0
1001
ACAD
1000
AcadProxyRoundTripData
1071
      518
1071
   851991
1070
     0
  0
ACAD_PROXY_OBJECT
  5
595
330
0
100
AcDbProxyObject
 90
      499
 91
      574
 93
      180
310
00010142905354D2D05391D513D3000000000000010400
330
506
 94
        0
1001
ACAD
1000
AcadProxyRoundTripData
1071
      517
1071
   851991
1070
     0
  0
ACAD_PROXY_OBJECT
  5
596
330
0
100
AcDbProxyObject
 90
      499
 91
      574
 93
      164
310
00010142505354D2D4D516531140505434F4E542A1
330
506
 94
        0
1001
ACAD
1000
AcadProxyRoundTripData
1071
      539
1071
   851991
1070
     0
  0
ACAD_PROXY_OBJECT
  5
597
330
0
100
AcDbProxyObject
 90
      499
 91
      574
 93
      108
310
00010142105350D3511112535010
330
506
 94
        0
1001
ACAD
1000
AcadProxyRoundTripData
1071
      518
1071
   851991
1070
     0
  0
ACAD_PROXY_OBJECT
  5
598
330
0
100
AcDbProxyObject
 90
      499
 91
      574
 93
      108
310
00010142105350D3D35414D59010
330
506
 94
        0
1001
ACAD
1000
AcadProxyRoundTripData
1071
      518
1071
   851991
1070
     0
  0
ACAD_PROXY_OBJECT
  5
599
330
0
100
AcDbProxyObject
 90
      499
 91
      574
 93
      164
310
0001014290535410549514D4119600504CADFB0C21
330
506
 94
        0
1001
ACAD
1000
AcadProxyRoundTripData
1071
      539
1071
   851991
1070
     0
  0
ACAD_PROXY_OBJECT
  5
59A
330
0
100
AcDbProxyObject
 90
      499
 91
      574
 93
      220
310
0001014350535513D3D31093D11654119600508C2B0D9CEDEC3DEA83
330
506
 94
        0
1001
ACAD
1000
AcadProxyRoundTripData
1071
      539
1071
   851991
1070
     0
  0
ACAD_PROXY_OBJECT
  5
59B
330
0
100
AcDbProxyObject
 90
      499
 91
      574
 93
      116
310
000101425053511254D410D3D39014
330
506
 94
        0
1001
ACAD
1000
AcadProxyRoundTripData
1071
      518
1071
   851991
1070
     0
  0
ACAD_PROXY_OBJECT
  5
59C
330
0
100
AcDbProxyObject
 90
      499
 91
      574
 93
      108
310
00010142105350D3D39114D41010
330
506
 94
        0
1001
ACAD
1000
AcadProxyRoundTripData
1071
      518
1071
   851991
1070
     0
  0
ACAD_PROXY_OBJECT
  5
59D
330
0
100
AcDbProxyObject
 90
      499
 91
      574
 93
      124
310
0001014290535490511114D414D69191
330
506
 94
        0
1001
ACAD
1000
AcadProxyRoundTripData
1071
      518
1071
   851991
1070
     0
  0
ACAD_PROXY_OBJECT
  5
5A3
330
0
100
AcDbProxyObject
 90
      499
 91
      574
 93
      132
310
00010142D05050555513D4D3D315915016
330
506
 94
        0
1001
ACAD
1000
AcadProxyRoundTripData
1071
      518
1071
   851991
1070
     0
  0
ACAD_PROXY_OBJECT
  5
5A4
330
0
100
AcDbProxyObject
 90
      499
 91
      574
 93
      156
310
00010143905050555513D054D4D153509311501C
330
506
 94
        0
1001
ACAD
1000
AcadProxyRoundTripData
1071
      518
1071
   851991
1070
     0
  0
ACAD_PROXY_OBJECT
  5
5A5
330
0
100
AcDbProxyObject
 90
      499
 91
      574
 93
      148
310
00010143505055925155D49154D513D4915010
330
506
 94
        0
1001
ACAD
1000
AcadProxyRoundTripData
1071
      518
1071
   851991
1070
     0
  0
ACAD_PROXY_OBJECT
  5
5A6
330
0
100
AcDbProxyObject
 90
      499
 91
      574
 93
      124
310
00010142D050525394D15495105094E4
330
506
 94
        0
1001
ACAD
1000
AcadProxyRoundTripData
1071
      518
1071
   851991
1070
     0
  0
ACAD_PROXY_OBJECT
  5
5A7
330
0
100
AcDbProxyObject
 90
      499
 91
      574
 93
      148
310
00010143505054D0D153915554111055115010
330
506
 94
        0
1001
ACAD
1000
AcadProxyRoundTripData
1071
      518
1071
   851991
1070
     0
  0
ACAD_PROXY_OBJECT
  5
5A8
330
0
100
AcDbProxyObject
 90
      499
 91
      574
 93
      172
310
00010143105054D5509054D4D354119600503535542D
330
506
 94
        0
1001
ACAD
1000
AcadProxyRoundTripData
1071
      539
1071
   851991
1070
     0
  0
ACAD_PROXY_OBJECT
  5
5A9
330
0
100
AcDbProxyObject
 90
      499
 91
      574
 93
      172
310
00010142905054D0D15391541196005055343454E45D
330
506
 94
        0
1001
ACAD
1000
AcadProxyRoundTripData
1071
      539
1071
   851991
1070
     0
  0
ACAD_PROXY_OBJECT
  5
5AA
330
0
100
AcDbProxyObject
 90
      499
 91
      574
 93
      148
310
00010143505350555513D313D0D2D4D0D39014
330
506
 94
        0
1001
ACAD
1000
AcadProxyRoundTripData
1071
      518
1071
   851991
1070
     0
  0
ACAD_PROXY_OBJECT
  5
5AF
330
0
100
AcDbProxyObject
 90
      499
 91
      574
 93
       32
310
0001000045
330
506
340
5AC
330
5B1
330
5AC
 94
        0
1001
ACAD
1000
AcadProxyRoundTripData
1071
      557
1071
   851991
1070
     0
  0
ACAD_PROXY_OBJECT
  5
5B0
330
0
100
AcDbProxyObject
 90
      499
 91
      574
 93
       18
310
0001B8
330
506
 94
        0
1001
ACAD
1000
AcadProxyRoundTripData
1071
      558
1071
   851991
1070
     0
  0
ACAD_PROXY_OBJECT
  5
5B1
330
0
100
AcDbProxyObject
 90
      499
 91
      574
 93
      111
310
0001014150D5930C0D5050055400
330
506
330
5AF
330
5B0
 94
        0
1001
ACAD
1000
AcadProxyRoundTripData
1071
      559
1071
   851991
1070
     0
  0
ACAD_PROXY_OBJECT
  5
5B2
330
0
100
AcDbProxyObject
 90
      499
 91
      574
 93
       40
310
000100AAAA04
330
506
330
5B1
 94
        0
1001
ACAD
1000
AcadProxyRoundTripData
1071
      560
1071
   851991
1070
     0
  0
ACAD_PROXY_OBJECT
  5
5B3
330
0
100
AcDbProxyObject
 90
      499
 91
      574
 93
      108
310
0001901422000000000000AAAAAE
330
506
330
5B4
330
5B4
330
5B4
330
5B4
330
5B4
330
0
 94
        0
1001
ACAD
1000
AcadProxyRoundTripData
1071
      561
1071
   851991
1070
     0
  0
ACAD_PROXY_OBJECT
  5
5B4
330
0
100
AcDbProxyObject
 90
      499
 91
      574
 93
       51
310
00010000AAAA98
330
506
330
5B3
330
5B1
 94
        0
1001
ACAD
1000
AcadProxyRoundTripData
1071
      562
1071
   851991
1070
     0
  0
ACAD_PROXY_OBJECT
  5
5C5
330
0
100
AcDbProxyObject
 90
      499
 91
      574
 93
      140
310
00010142105350D55494D5110050349534F6
330
506
 94
        0
1001
ACAD
1000
AcadProxyRoundTripData
1071
      539
1071
   851991
1070
     0
  0
DICTIONARY
  5
4FE
102
{ACAD_REACTORS
330
4FD
102
}
330
4FD
100
AcDbDictionary
  3
DWGSETTINGS
350
4FF
1001
ACAD
1000
TREAT_AS_HARD
1070
     0
  0
ACAD_PROXY_OBJECT
  5
5C3
102
{ACAD_REACTORS
330
4FD
102
}
330
4FD
100
AcDbProxyObject
 90
      499
 91
      574
 93
    12938
310
41102491013041105357CC1074CA404C504414D5F31439329013241105357CC9054CA404CD04414D5F33419199013441105357CD103466404D504414D5F3540D199013641105357CD90248E404DD04414D5F37411199013841105357CE101466404E504414D5F397F641102324141505357CC4C1074CA408D10505414D5F31
310
3140D19902495041505357CC4C9074C902408C13905414D5F304E41D32902314E41505357CC5390E4CA408C93905414D5F324E41532902334E41505357CCD3906466408D13905414D5F344E40D19902354E41505357CD53903466408D93905414D5F364E40923902374E41505357CDD3904466408E13905414D5F384E40519
310
902394E41505357CE539FD90440CC9053906414D5F31304E41D3290334414E41905357CC4C5390346640D25413906414D5F31324E41D32409044B4C494E41505357D0D3101465094112539193D08414D5F50415245464111942D055241484D3541905357D093D49074C9094115925155D08414D5F56494557534051942D064
310
24548494E4441905357D253959FD90D415514905253105414D5F545240D194250348494441905357D212511074650940D59254D06414D5F56495341D324250650415244494D42505357D410549112535034650941949151911253509414D5F52454644494D4111942553411092139590139CFFFFFFFF415092139594D06424
310
548494E44CFFFFFFFF411093D48C9055241484D3540519411093D48CD055241484D3540923411093D48D5055241484D35CFFFFFFFF4110D0530C90134CFFFFFFFF4110D0530CD0134409234110D0530D5013441D324110D0530DD0134479464110D1539390137CFFFFFFFF4110D15395D0137CFFFFFFFF4110D312539044B4
310
C494ECFFFFFFFF4110D3D38C50130CFFFFFFFF4110D3D38C90131CFFFFFFFF4110D3D38CD0132CFFFFFFFF4110D3D38D10132CFFFFFFFF411111551050134CFFFFFFFF4111125051D0135CFFFFFFFF411112531250135CFFFFFFFF411112535410650415244494DCFFFFFFFF411112535490652454644494DCFFFFFFFF4111
310
91535390138CFFFFFFFF4151915354139013840CFFFFFFFF4151915354D41023441CFFFFFFFF4151915354D5102344140D1941519153559390132CFFFFFFFF4151915355951013240D194112105510D0138CFFFFFFFF411212511390133CFFFFFFFF4112125115D0133CFFFFFFFF411213125390134CFFFFFFFF411213D0D3
310
90137CFFFFFFFF411213D0D5D0137CFFFFFFFF4112539193D04494E464FCFFFFFFFF411311505110135CFFFFFFFF419397D0921395902394ECFFFFFFFF419397D0D3D38C502304ECFFFFFFFF419397D0D3D38C902314ECFFFFFFFF419397D0D3D38CD02324ECFFFFFFFF419397D0D3D38D102324ECFFFFFFFF419397D0D153
310
93902374ECFFFFFFFF419397D0D15395D02374ECFFFFFFFF419397D1125312502354ECFFFFFFFF419397D2105510D02384ECFFFFFFFF419397D2125113902334ECFFFFFFFF419397D2125115D02334ECFFFFFFFF419397D3115051102354ECFFFFFFFF419397D391D25410349504ECFFFFFFFF419397D412105390334414EC
310
FFFFFFFF419397D510D3D3902304ECFFFFFFFF419397D5121312502344ECFFFFFFFF419397D5131153902304ECFFFFFFFF419397D594131250332414ECFFFFFFFF411391D2541024950CFFFFFFFF411410530C9055241484D3540519411410530CD055241484D3540923411410530D5055241484D35CFFFFFFFF4114121053
310
9023441CFFFFFFFF411413D4D390135CFFFFFFFF411490D1D390137CFFFFFFFF411490D1D5D0137CFFFFFFFF4114D09492D0134CFFFFFFFF4114D150D510134CFFFFFFFF4114D6508CD013540923411354D6535013540923411510D3D390130CFFFFFFFF411512131250134CFFFFFFFF411512550C9055241484D354051941
310
1512550CD055241484D3540923411512550D5055241484D35CFFFFFFFF411513115390130CFFFFFFFF415514905253105545241494CCFFFFFFFF411514931250134CFFFFFFFF411516150C5013640D19411516150C9013640D19411516150CD0136CFFFFFFFF411516150D5013641D32411516150DD0136479464115925155
310
D0456494557CFFFFFFFF4115915112103484944CFFFFFFFF4115915115903564953CFFFFFFFF41159413125023241CFFFFFFFF411692569050134CFFFFFFFFAA9FD404FE4290E4C9074C906465054C904465034650248D014651E519FD80
340
16
340
16
340
16
340
5C6
340
16
340
16
340
16
340
5C7
340
16
340
16
340
5C7
340
5C8
340
16
340
16
340
16
340
16
340
5C6
340
16
340
16
340
16
340
5C7
340
16
340
16
340
5C7
340
5C8
340
16
340
5C9
340
16
340
16
340
16
340
16
340
16
340
5C6
340
16
340
16
340
16
340
15
340
15
340
15
340
15
340
15
340
15
340
15
340
15
340
15
340
5CA
340
15
340
15
340
15
340
15
340
15
340
15
340
15
340
15
340
15
340
15
340
15
340
15
340
15
340
16
340
15
340
15
340
15
340
15
340
5CB
340
15
340
15
340
5CA
340
15
340
15
340
15
340
15
340
15
340
15
340
15
340
15
340
5CA
340
15
340
15
340
15
340
5CB
340
15
340
15
340
15
340
15
340
15
340
15
340
15
340
15
340
15
340
15
340
15
340
15
340
15
340
15
340
5CA
340
15
340
15
340
15
340
15
340
15
340
15
340
15
340
15
340
15
340
15
340
15
340
15
340
15
340
15
340
15
340
15
340
15
340
15
340
15
340
15
340
15
340
15
340
5CE
 94
        0
1001
ACAD
1000
AcadProxyRoundTripData
1071
      570
1071
   851991
1070
     0
  0
ACAD_PROXY_OBJECT
  5
5D5
102
{ACAD_REACTORS
330
5D0
102
}
330
5D0
100
AcDbProxyObject
 90
      499
 91
      574
 93
      253
310
43D1444494D454E53494F4E2C414D44545F2A5F44494D404A9012A404A9012A9
 94
        0
1001
ACAD
1000
AcadProxyRoundTripData
1071
      571
1071
   851991
1070
     0
  0
ACAD_PROXY_OBJECT
  5
5D4
102
{ACAD_REACTORS
330
5D0
102
}
330
5D0
100
AcDbProxyObject
 90
      499
 91
      574
 93
      181
310
43D012A42D05357D191504B505357CA9012A404A9012AC
 94
        0
1001
ACAD
1000
AcadProxyRoundTripData
1071
      571
1071
   851991
1070
     0
  0
ACAD_PROXY_OBJECT
  5
5D1
102
{ACAD_REACTORS
330
5D0
102
}
330
5D0
100
AcDbProxyObject
 90
      499
 91
      574
 93
      133
310
43D054841544348404A9012A404A9012A9
 94
        0
1001
ACAD
1000
AcadProxyRoundTripData
1071
      571
1071
   851991
1070
     0
  0
ACAD_PROXY_OBJECT
  5
5D2
102
{ACAD_REACTORS
330
5D0
102
}
330
5D0
100
AcDbProxyObject
 90
      499
 91
      574
 93
      549
310
43D044C494E4549CE0B0E138B0A8B4E0B0A8B4E138B105357CE0B105357CE138B0A8B505357CE0B0A8B505357CE139012A404A910494E534552542C5354445041525432449
 94
        0
1001
ACAD
1000
AcadProxyRoundTripData
1071
      571
1071
   851991
1070
     0
  0
ACAD_PROXY_OBJECT
  5
5D6
102
{ACAD_REACTORS
330
5D0
102
}
330
5D0
100
AcDbProxyObject
 90
      499
 91
      574
 93
      181
310
43D0341524341105357CD5012A404C906494E534552545
 94
        0
1001
ACAD
1000
AcadProxyRoundTripData
1071
      571
1071
   851991
1070
     0
  0
ACAD_PROXY_OBJECT
  5
5D3
102
{ACAD_REACTORS
330
5D0
102
}
330
5D0
100
AcDbProxyObject
 90
      499
 91
      574
 93
     1053
310
43D7841434D46434652414D452C41434D444154554D5441524745542C41434D444154554D49442C41434D57454C4453594D2C41434D5355524653594D2C41434D4645415449442C41434D504152545245462C41434D42414C4C4F4F4E2C414D44544544474553594D2C414D47534352455743414C435441424C45404A9012A
310
404A9012AA
 94
        0
1001
ACAD
1000
AcadProxyRoundTripData
1071
      571
1071
   851991
1070
     0
  0
ACAD_PROXY_OBJECT
  5
5B8
102
{ACAD_REACTORS
330
5B7
102
}
330
5B7
100
AcDbProxyObject
 90
      499
 91
      574
 93
      187
310
057356C1D5C406406AA8FFFFFFFF0AE50543564C30354055
330
1F
330
0
330
5B1
 94
        0
1001
ACAD
1000
AcadProxyRoundTripData
1071
      564
1071
   851991
1070
     0
  0
ACAD_PROXY_OBJECT
  5
4FF
102
{ACAD_REACTORS
330
4FE
102
}
330
4FE
100
AcDbProxyObject
 90
      499
 91
      574
 93
     2270
310
4050B44574753455454494E4753A1286829C8E82A4A482B282A106660F8686AF86C608321A2A720A723A0A849A1ABE1C983E18999AA0C868A9C889282940000000000000488083A1A2A72224A0A9A0A8418983E19183E199820E868A9C8892A6A894000000000000010808321A2A72622A7250000000000000122020C868A9
310
C9E8C8C940000000000000488084A1A624A720A92920ACA0A8418983E19183E19982108698929C8AA8B2A082A0AB098929C8A84A22BA3AAA9A1A0A622A50A0E9882A6A89E849482A02608426A0A5A2AB24A2ABA7E8120CA0A68682988A0C00800010652455649534941501304154D0D0531150540CC4E8C50954494D455354
310
414D504A03D0A805197267341441ED115D1D4D15515125391D4D153911F5
 94
        0
1001
ACAD
1000
AcadProxyRoundTripData
1071
      512
1071
   851991
1070
     0
  0
ENDSEC
  0
EOF
