  0
SECTION
  2
HEADER
  9
$ACADVER
  1
AC1014
  9
$ACADMAINTVER
 70
     9
  9
$DWGCODEPAGE
  3
ANSI_932
  9
$INSBASE
 10
0.0
 20
0.0
 30
0.0
  9
$EXTMIN
 10
0.0905812889799336
 20
-7.98604651606297
 30
-0.0000000349181948
  9
$EXTMAX
 10
305.3306463835582
 20
118.6842850761611
 30
0.0000000814935747
  9
$LIMMIN
 10
0.0
 20
0.0
  9
$LIMMAX
 10
420.0
 20
297.0
  9
$ORTHOMODE
 70
     0
  9
$REGENMODE
 70
     1
  9
$FILLMODE
 70
     1
  9
$QTEXTMODE
 70
     0
  9
$MIRRTEXT
 70
     1
  9
$DRAGMODE
 70
     2
  9
$LTSCALE
 40
1.0
  9
$OSMODE
 70
  3071
  9
$ATTMODE
 70
     1
  9
$TEXTSIZE
 40
2.5
  9
$TRACEWID
 40
1.0
  9
$TEXTSTYLE
  7
STANDARD
  9
$CLAYER
  8
0
  9
$CELTYPE
  6
BYLAYER
  9
$CECOLOR
 62
   256
  9
$CELTSCALE
 40
1.0
  9
$DELOBJ
 70
     1
  9
$DISPSILH
 70
     0
  9
$DIMSCALE
 40
1.0
  9
$DIMASZ
 40
2.5
  9
$DIMEXO
 40
0.625
  9
$DIMDLI
 40
3.75
  9
$DIMRND
 40
0.0
  9
$DIMDLE
 40
0.0
  9
$DIMEXE
 40
1.25
  9
$DIMTP
 40
0.0
  9
$DIMTM
 40
0.0
  9
$DIMTXT
 40
2.5
  9
$DIMCEN
 40
2.5
  9
$DIMTSZ
 40
0.0
  9
$DIMTOL
 70
     0
  9
$DIMLIM
 70
     0
  9
$DIMTIH
 70
     0
  9
$DIMTOH
 70
     0
  9
$DIMSE1
 70
     0
  9
$DIMSE2
 70
     0
  9
$DIMTAD
 70
     1
  9
$DIMZIN
 70
     8
  9
$DIMBLK
  1

  9
$DIMASO
 70
     1
  9
$DIMSHO
 70
     1
  9
$DIMPOST
  1

  9
$DIMAPOST
  1

  9
$DIMALT
 70
     0
  9
$DIMALTD
 70
     3
  9
$DIMALTF
 40
0.03937007874016
  9
$DIMLFAC
 40
1.0
  9
$DIMTOFL
 70
     1
  9
$DIMTVP
 40
0.0
  9
$DIMTIX
 70
     0
  9
$DIMSOXD
 70
     0
  9
$DIMSAH
 70
     0
  9
$DIMBLK1
  1

  9
$DIMBLK2
  1

  9
$DIMSTYLE
  2
ISO-25
  9
$DIMCLRD
 70
     0
  9
$DIMCLRE
 70
     0
  9
$DIMCLRT
 70
     0
  9
$DIMTFAC
 40
1.0
  9
$DIMGAP
 40
0.625
  9
$DIMJUST
 70
     0
  9
$DIMSD1
 70
     0
  9
$DIMSD2
 70
     0
  9
$DIMTOLJ
 70
     0
  9
$DIMTZIN
 70
     8
  9
$DIMALTZ
 70
     0
  9
$DIMALTTZ
 70
     0
  9
$DIMFIT
 70
     3
  9
$DIMUPT
 70
     0
  9
$DIMUNIT
 70
     2
  9
$DIMDEC
 70
     2
  9
$DIMTDEC
 70
     2
  9
$DIMALTU
 70
     2
  9
$DIMALTTD
 70
     3
  9
$DIMTXSTY
  7
STANDARD
  9
$DIMAUNIT
 70
     0
  9
$LUNITS
 70
     2
  9
$LUPREC
 70
     2
  9
$SKETCHINC
 40
1.0
  9
$FILLETRAD
 40
10.0
  9
$AUNITS
 70
     0
  9
$AUPREC
 70
     0
  9
$MENU
  1
.
  9
$ELEVATION
 40
0.0
  9
$PELEVATION
 40
0.0
  9
$THICKNESS
 40
0.0
  9
$LIMCHECK
 70
     0
  9
$BLIPMODE
 70
     0
  9
$CHAMFERA
 40
10.0
  9
$CHAMFERB
 40
10.0
  9
$CHAMFERC
 40
20.0
  9
$CHAMFERD
 40
0.0
  9
$SKPOLY
 70
     0
  9
$TDCREATE
 40
2454596.550355717
  9
$TDUPDATE
 40
2454755.715508530
  9
$TDINDWG
 40
0.0573063194
  9
$TDUSRTIMER
 40
0.0573059606
  9
$USRTIMER
 70
     1
  9
$ANGBASE
 50
0.0
  9
$ANGDIR
 70
     0
  9
$PDMODE
 70
     0
  9
$PDSIZE
 40
0.0
  9
$PLINEWID
 40
0.0
  9
$COORDS
 70
     0
  9
$SPLFRAME
 70
     0
  9
$SPLINETYPE
 70
     6
  9
$SPLINESEGS
 70
     8
  9
$ATTDIA
 70
     0
  9
$ATTREQ
 70
     1
  9
$HANDLING
 70
 22529
  9
$HANDSEED
  5
ADA
  9
$SURFTAB1
 70
     6
  9
$SURFTAB2
 70
     6
  9
$SURFTYPE
 70
     6
  9
$SURFU
 70
     6
  9
$SURFV
 70
     6
  9
$UCSNAME
  2

  9
$UCSORG
 10
0.0
 20
0.0
 30
0.0
  9
$UCSXDIR
 10
1.0
 20
0.0
 30
0.0
  9
$UCSYDIR
 10
0.0
 20
1.0
 30
0.0
  9
$PUCSNAME
  2

  9
$PUCSORG
 10
0.0
 20
0.0
 30
0.0
  9
$PUCSXDIR
 10
1.0
 20
0.0
 30
0.0
  9
$PUCSYDIR
 10
0.0
 20
1.0
 30
0.0
  9
$USERI1
 70
     0
  9
$USERI2
 70
     0
  9
$USERI3
 70
     0
  9
$USERI4
 70
     0
  9
$USERI5
 70
     0
  9
$USERR1
 40
0.0
  9
$USERR2
 40
0.0
  9
$USERR3
 40
0.0
  9
$USERR4
 40
0.0
  9
$USERR5
 40
0.0
  9
$WORLDVIEW
 70
     1
  9
$SHADEDGE
 70
     3
  9
$SHADEDIF
 70
    70
  9
$TILEMODE
 70
     1
  9
$MAXACTVP
 70
    48
  9
$PINSBASE
 10
0.0
 20
0.0
 30
0.0
  9
$PLIMCHECK
 70
     0
  9
$PEXTMIN
 10
28.5263154029846
 20
19.82258291244505
 30
0.0
  9
$PEXTMAX
 10
256.7368386268614
 20
178.4032462120055
 30
0.0
  9
$PLIMMIN
 10
-5.873748779296875
 20
-5.873749732971191
  9
$PLIMMAX
 10
291.1369018554686
 20
204.0995779037474
  9
$UNITMODE
 70
     0
  9
$VISRETAIN
 70
     1
  9
$PLINEGEN
 70
     0
  9
$PSLTSCALE
 70
     1
  9
$TREEDEPTH
 70
  3020
  9
$PICKSTYLE
 70
     1
  9
$CMLSTYLE
  2
STANDARD
  9
$CMLJUST
 70
     0
  9
$CMLSCALE
 40
20.0
  9
$PROXYGRAPHICS
 70
     1
  9
$MEASUREMENT
 70
     0
  0
ENDSEC
  0
SECTION
  2
CLASSES
  0
CLASS
  1
ACDBDICTIONARYWDFLT
  2
AcDbDictionaryWithDefault
  3
AutoCAD 2000
 90
        0
280
     0
281
     0
  0
CLASS
  1
ACDBPLACEHOLDER
  2
AcDbPlaceHolder
  3
AutoCAD 2000
 90
        0
280
     0
281
     0
  0
CLASS
  1
LAYOUT
  2
AcDbLayout
  3
AutoCAD 2000
 90
        0
280
     0
281
     0
  0
CLASS
  1
DICTIONARYVAR
  2
AcDbDictionaryVar
  3
AutoCAD 2000
 90
        0
280
     0
281
     0
  0
CLASS
  1
LONG_TRANSACTION
  2
AcDbLongTransaction
  3
AutoCAD 2000
 90
        0
280
     0
281
     0
  0
CLASS
  1
LWPOLYLINE
  2
AcDbPolyline
  3
AutoCAD 2000
 90
        0
280
     0
281
     1
  0
CLASS
  1
HATCH
  2
AcDbHatch
  3
AutoCAD 2000
 90
        0
280
     0
281
     1
  0
CLASS
  1
XRECORD
  2
AcDbXrecord
  3
AutoCAD 2000
 90
        0
280
     0
281
     0
  0
CLASS
  1
LONG_TRANSACTION
  2
AcDbLongTransaction
  3
AutoCAD 2000
 90
        0
280
     0
281
     0
  0
CLASS
  1
LWPOLYLINE
  2
AcDbPolyline
  3
AutoCAD 2000
 90
        0
280
     0
281
     1
  0
CLASS
  1
HATCH
  2
AcDbHatch
  3
AutoCAD 2000
 90
        0
280
     0
281
     1
  0
CLASS
  1
XRECORD
  2
AcDbXrecord
  3
AutoCAD 2000
 90
        0
280
     0
281
     0
  0
CLASS
  1
AMGSETTINGSOBJ
  2
AmgSettingsObj
  3
"AcadM|Product Description: AutoCAD Mechanical 2000|Company: Autodesk"
 90
        0
280
     0
281
     0
  0
CLASS
  1
ACME_DOCUMENT
  2
AcMeDbDoc
  3
AcMeServices
 90
        0
280
     0
281
     0
  0
CLASS
  1
ACMESCOPE
  2
AcMeScope
  3
AcMeServices
 90
        0
280
     0
281
     0
  0
CLASS
  1
ACMECOMMANDHISTORY
  2
AcMeCommandHistory
  3
AcMeServices
 90
        0
280
     0
281
     0
  0
CLASS
  1
ACIMSYSVARMAN
  2
AcImSysVarManager
  3
AcMeServices
 90
        0
280
     0
281
     0
  0
CLASS
  1
ACIMREALSYSVAR
  2
AcImRealSysVar
  3
AcMeServices
 90
        0
280
     0
281
     0
  0
CLASS
  1
ACIMINTSYSVAR
  2
AcImIntSysVar
  3
AcMeServices
 90
        0
280
     0
281
     0
  0
CLASS
  1
ACMEDRAWINGMAN
  2
AcMeDrawingMan
  3
AcMeServices
 90
        0
280
     0
281
     0
  0
CLASS
  1
ACMEVIEW
  2
AcMeView
  3
AcMeServices
 90
        0
280
     0
281
     0
  0
CLASS
  1
ACDBENTITYCACHE
  2
AcMeEntityCache
  3
AcMeServices
 90
        0
280
     0
281
     0
  0
CLASS
  1
GSMANAGER
  2
AcMeGSManager
  3
AcMeServices
 90
        0
280
     0
281
     0
  0
CLASS
  1
AMDTINTERNALREACTOR
  2
AmdtInternalReactor
  3
AcMeServices
 90
        0
280
     0
281
     0
  0
CLASS
  1
ACMESTATEMGR
  2
AcMeStateMgr
  3
AcMeServices
 90
        0
280
     0
281
     0
  0
CLASS
  1
ACGREFMASTER
  2
AcGrefMaster
  3
AcAttribServices
 90
        0
280
     0
281
     0
  0
CLASS
  1
AM_DRAWING_MGR
  2
AcDmDwgMgr
  3
AcMechDwgViewMgmt
 90
        0
280
     0
281
     0
  0
CLASS
  1
AM_DWG_DOCUMENT
  2
AcDmDwgDocument
  3
AcMechDwgViewMgmt
 90
        0
280
     0
281
     0
  0
CLASS
  1
AM_DWG_SHEET
  2
AcDmSheet
  3
AcMechDwgViewMgmt
 90
        0
280
     0
281
     0
  0
CLASS
  1
AM_VIEWDIMPARMAP
  2
AcDmViewDimParMap
  3
AcMechDwgViewMgmt
 90
        0
280
     0
281
     0
  0
CLASS
  1
AM_DWGMGR_NAME
  2
AcDmDwgMgrName
  3
AcMechDwgViewMgmt
 90
        0
280
     0
281
     0
  0
CLASS
  1
ACME_DATABASE
  2
AcMeDbDatabase
  3
AcMeServices
 90
        0
280
     0
281
     0
  0
CLASS
  1
ACRFINSADJUSTERMGR
  2
AcRfInsAdjusterMgr
  3
AcMeServices
 90
        0
280
     0
281
     0
  0
CLASS
  1
ACGREFACADMASTER
  2
AcGrefacadMaster
  3
AcGrefServices
 90
        0
280
     0
281
     0
  0
CLASS
  1
AMDTMENUSTATEMGR
  2
AmdtMenuStateMgr
  3
McadcomServices
 90
        0
280
     0
281
     0
  0
CLASS
  1
AMDTMCOMMENUSTATE
  2
AmdtMcomMenuState
  3
McadcomServices
 90
        0
280
     0
281
     0
  0
CLASS
  1
AMIMASTER
  2
AmiMaster
  3
AmiServices
 90
        0
280
     0
281
     0
  0
CLASS
  1
ASAPP
  2
AcAsAppObject
  3
AutoSurfServices
 90
        0
280
     0
281
     0
  0
CLASS
  1
IM_STATIC_MAN
  2
AcImStaticVarManager
  3
AcMeServices
 90
        0
280
     0
281
     0
  0
CLASS
  1
ACIMSTRSYSVAR
  2
AcImStrSysVar
  3
AcMeServices
 90
        0
280
     0
281
     0
  0
CLASS
  1
ACIMDBLSTATICVAR
  2
AcImDblStaticVar
  3
AcMeServices
 90
        0
280
     0
281
     0
  0
CLASS
  1
ACIMSTRSTATICVAR
  2
AcImStrStaticVar
  3
AcMeServices
 90
        0
280
     0
281
     0
  0
CLASS
  1
ACIMINTSTATICVAR
  2
AcImIntStaticVar
  3
AcMeServices
 90
        0
280
     0
281
     0
  0
CLASS
  1
ACASGREFMASTER
  2
AcAsGrefMaster
  3
AutoSurfResolverServices
 90
        0
280
     0
281
     0
  0
CLASS
  1
ACADGREFMODULE
  2
AcAdGrefModule
  3
AdGrefServices
 90
        0
280
     0
281
     0
  0
CLASS
  1
AMDTMAPISURFMOUDULE
  2
AmdtMApiSurfModule
  3
MApiSurfServices
 90
        0
280
     0
281
     0
  0
CLASS
  1
MAPIAMMOUDLE
  2
MApiAmModule
  3
MApiAmServices
 90
        0
280
     0
281
     0
  0
CLASS
  1
AMDTADMENUSTATE
  2
AmdtAdMenuState
  3
DesignerServices
 90
        0
280
     0
281
     0
  0
CLASS
  1
ADAPPL
  2
AcAdAppl
  3
DesignerServices
 90
        0
280
     0
281
     0
  0
CLASS
  1
DEPMGR
  2
AcAdDepMgr
  3
DesignerServices
 90
        0
280
     0
281
     0
  0
CLASS
  1
PARAMMGR
  2
AcAdParamMgr
  3
DesignerServices
 90
        0
280
     0
281
     0
  0
CLASS
  1
PARAMSCOPE
  2
AcAdParamScope
  3
DesignerServices
 90
        0
280
     0
281
     0
  0
CLASS
  1
NAMEDAPPL
  2
AcAdNamedAppl
  3
DesignerServices
 90
        0
280
     0
281
     0
  0
CLASS
  1
AMDTDMMENUSTATE
  2
AmdtDmMenuState
  3
AcMechDwgViewMgmt
 90
        0
280
     0
281
     0
  0
CLASS
  1
MAPIADMODULE
  2
MApiAdModule
  3
MApiAdServices
 90
        0
280
     0
281
     0
  0
CLASS
  1
AMDTAMMENUSTATE
  2
AmdtAmMenuState
  3
DesignerAssemblies
 90
        0
280
     0
281
     0
  0
CLASS
  1
ACAMPROJECT
  2
AcAmProject
  3
DesignerAssemblies
 90
        0
280
     0
281
     0
  0
CLASS
  1
ACAMGRCOMPDEF
  2
AcAmGrCompDef
  3
DesignerAssemblies
 90
        0
280
     0
281
     0
  0
CLASS
  1
ACCMCONTEXT
  2
AcCmContext
  3
DesignerAssemblies
 90
        0
280
     0
281
     0
  0
CLASS
  1
ACAMCOMPDEF
  2
AcAmCompDef
  3
DesignerAssemblies
 90
        0
280
     0
281
     0
  0
CLASS
  1
ACAMCOMPDEFMGR
  2
AcAmCompDefMgr
  3
DesignerAssemblies
 90
        0
280
     0
281
     0
  0
CLASS
  1
AMCONTEXTMGR
  2
AcAmContextMgr
  3
DesignerAssemblies
 90
        0
280
     0
281
     0
  0
CLASS
  1
ACAMCONTEXTMODELER
  2
AcAmContextModeler
  3
DesignerAssemblies
 90
        0
280
     0
281
     0
  0
CLASS
  1
ACMDATADICTIONARY
  2
AcmDataDictionary
  3
"AcmSymBB|Product Description: AutoCAD Mechanical 2000|Company: Autodesk"
 90
        0
280
     0
281
     0
  0
CLASS
  1
ACMDATAENTRYBLOCK
  2
AcmDataEntryBlock
  3
"AcmSymBB|Product Description: AutoCAD Mechanical 2000|Company: Autodesk"
 90
        0
280
     0
281
     0
  0
CLASS
  1
CATALOGSTATE
  2
AcAmCatalogState
  3
DesignerAssemblies
 90
        0
280
     0
281
     0
  0
CLASS
  1
ACAMGRCOMPDEFSET
  2
AcAmGrCompDefSet
  3
DesignerAssemblies
 90
        0
280
     0
281
     0
  0
CLASS
  1
AMDTBROWSERDBTAB
  2
AmdtBrowserDbTab
  3
McadcomServices
 90
        0
280
     0
281
     0
  0
CLASS
  1
CBROWSERAPPOBJECT
  2
CBrowserAppObject
  3
McadcomServices
 90
        0
280
     0
281
     0
  0
CLASS
  1
DM_PLACEHOLDER
  2
AcDmSelsetPlaceholder
  3
AcMechDwgViewMgmt
 90
        0
280
     0
281
     0
  0
CLASS
  1
AMGOBJPROPCFG
  2
AmgObjPropCfg
  3
"AmgLay|Product Description: AutoCAD Mechanical 2000|Company: Autodesk"
 90
        1
280
     0
281
     0
  0
CLASS
  1
ACAMGFILTERDAT
  2
AcAmgFilterDat
  3
"AcadM|Product Description: AutoCAD Mechanical 2000|Company: Autodesk"
 90
        0
280
     0
281
     0
  0
CLASS
  1
LAYER_INDEX
  2
AcDbLayerIndex
  3
AutoCAD 2000
 90
        0
280
     0
281
     0
  0
CLASS
  1
IDBUFFER
  2
AcDbIdBuffer
  3
AutoCAD 2000
 90
        0
280
     0
281
     0
  0
CLASS
  1
ACAD_PROXY_OBJECT_WRAPPER
  2
AcDbProxyObjectWrapper
  3
AutoCAD 2000
 90
        0
280
     0
281
     0
  0
CLASS
  1
LONG_TRANSACTION
  2
AcDbLongTransaction
  3
AutoCAD 2000
 90
        0
280
     0
281
     0
  0
CLASS
  1
LWPOLYLINE
  2
AcDbPolyline
  3
AutoCAD 2000
 90
        0
280
     0
281
     1
  0
CLASS
  1
HATCH
  2
AcDbHatch
  3
AutoCAD 2000
 90
        0
280
     0
281
     1
  0
CLASS
  1
XRECORD
  2
AcDbXrecord
  3
AutoCAD 2000
 90
        0
280
     0
281
     0
  0
CLASS
  1
LONG_TRANSACTION
  2
AcDbLongTransaction
  3
AutoCAD 2000
 90
        0
280
     0
281
     0
  0
CLASS
  1
LWPOLYLINE
  2
AcDbPolyline
  3
AutoCAD 2000
 90
        0
280
     0
281
     1
  0
CLASS
  1
HATCH
  2
AcDbHatch
  3
AutoCAD 2000
 90
        0
280
     0
281
     1
  0
CLASS
  1
XRECORD
  2
AcDbXrecord
  3
AutoCAD 2000
 90
        0
280
     0
281
     0
  0
CLASS
  1
LONG_TRANSACTION
  2
AcDbLongTransaction
  3
AutoCAD 2000
 90
        0
280
     0
281
     0
  0
CLASS
  1
LWPOLYLINE
  2
AcDbPolyline
  3
AutoCAD 2000
 90
        0
280
     0
281
     1
  0
CLASS
  1
HATCH
  2
AcDbHatch
  3
AutoCAD 2000
 90
        0
280
     0
281
     1
  0
CLASS
  1
XRECORD
  2
AcDbXrecord
  3
AutoCAD 2000
 90
        0
280
     0
281
     0
  0
CLASS
  1
LONG_TRANSACTION
  2
AcDbLongTransaction
  3
AutoCAD 2000
 90
        0
280
     0
281
     0
  0
CLASS
  1
LWPOLYLINE
  2
AcDbPolyline
  3
AutoCAD 2000
 90
        0
280
     0
281
     1
  0
CLASS
  1
HATCH
  2
AcDbHatch
  3
AutoCAD 2000
 90
        0
280
     0
281
     1
  0
CLASS
  1
XRECORD
  2
AcDbXrecord
  3
AutoCAD 2000
 90
        0
280
     0
281
     0
  0
CLASS
  1
LONG_TRANSACTION
  2
AcDbLongTransaction
  3
AutoCAD 2000
 90
        0
280
     0
281
     0
  0
CLASS
  1
LWPOLYLINE
  2
AcDbPolyline
  3
AutoCAD 2000
 90
        0
280
     0
281
     1
  0
CLASS
  1
HATCH
  2
AcDbHatch
  3
AutoCAD 2000
 90
        0
280
     0
281
     1
  0
CLASS
  1
XRECORD
  2
AcDbXrecord
  3
AutoCAD 2000
 90
        0
280
     0
281
     0
  0
ENDSEC
  0
SECTION
  2
TABLES
  0
TABLE
  2
VPORT
  5
8
330
0
100
AcDbSymbolTable
 70
     3
  0
VPORT
  5
AB7
330
8
100
AcDbSymbolTableRecord
100
AcDbViewportTableRecord
  2
*ACTIVE
 70
     0
 10
0.0
 20
0.0
 11
1.0
 21
1.0
 12
-988.23855274492
 22
-497.2270551623971
 13
0.0
 23
0.0
 14
10.0
 24
10.0
 15
10.0
 25
10.0
 16
0.0
 26
0.0
 36
1.0
 17
1140.949166581189
 27
552.5761744424462
 37
0.0
 40
189.2373890287318
 41
1.621212121212121
 42
50.0
 43
0.0
 44
0.0
 50
0.0
 51
0.0
 71
     0
 72
   100
 73
     1
 74
     3
 75
     0
 76
     0
 77
     0
 78
     0
  0
ENDTAB
  0
TABLE
  2
LTYPE
  5
5
330
0
100
AcDbSymbolTable
 70
     8
  0
LTYPE
  5
14
330
5
100
AcDbSymbolTableRecord
100
AcDbLinetypeTableRecord
  2
BYBLOCK
 70
     0
  3

 72
    65
 73
     0
 40
0.0
  0
LTYPE
  5
15
330
5
100
AcDbSymbolTableRecord
100
AcDbLinetypeTableRecord
  2
BYLAYER
 70
     0
  3

 72
    65
 73
     0
 40
0.0
  0
LTYPE
  5
16
330
5
100
AcDbSymbolTableRecord
100
AcDbLinetypeTableRecord
  2
CONTINUOUS
 70
     0
  3
Solid line
 72
    65
 73
     0
 40
0.0
  0
LTYPE
  5
5C6
330
5
100
AcDbSymbolTableRecord
100
AcDbLinetypeTableRecord
  2
AM_ISO02W050
 70
     0
  3
__ __ __ __ __ __ __ __ __ __ __ __ __ __ __
 72
    65
 73
     2
 40
7.5
 49
6.0
 74
     0
 49
-1.5
 74
     0
  0
LTYPE
  5
5C7
330
5
100
AcDbSymbolTableRecord
100
AcDbLinetypeTableRecord
  2
AM_ISO08W050
 70
     0
  3
____ . ____ . ____ . ____ . ____ . ____ . ____
 72
    65
 73
     4
 40
18.0
 49
12.0
 74
     0
 49
-1.5
 74
     0
 49
3.0
 74
     0
 49
-1.5
 74
     0
  0
LTYPE
  5
5C8
330
5
100
AcDbSymbolTableRecord
100
AcDbLinetypeTableRecord
  2
AM_ISO09W050
 70
     0
  3
_____ . . _____ . . _____ . . ____ .. ____
 72
    65
 73
     6
 40
22.5
 49
12.0
 74
     0
 49
-1.5
 74
     0
 49
3.0
 74
     0
 49
-1.5
 74
     0
 49
3.0
 74
     0
 49
-1.5
 74
     0
  0
LTYPE
  5
5C9
330
5
100
AcDbSymbolTableRecord
100
AcDbLinetypeTableRecord
  2
AMCONSTR
 70
     0
  3
_______________________
 72
    65
 73
     2
 40
9999.0
 49
9999.0
 74
     0
 49
0.0
 74
     0
  0
LTYPE
  5
5CA
330
5
100
AcDbSymbolTableRecord
100
AcDbLinetypeTableRecord
  2
AM_ISO08W050X2
 70
     0
  3
__ . __ . __ . __ . __ . __
 72
    65
 73
     4
 40
9.0
 49
6.0
 74
     0
 49
-0.75
 74
     0
 49
1.5
 74
     0
 49
-0.75
 74
     0
  0
LTYPE
  5
5CB
330
5
100
AcDbSymbolTableRecord
100
AcDbLinetypeTableRecord
  2
AM_ISO02W050X2
 70
     0
  3
 _ _ _ _ _ _ _ _ _ _ _ _
 72
    65
 73
     2
 40
3.75
 49
3.0
 74
     0
 49
-0.75
 74
     0
  0
LTYPE
  5
5CE
330
5
100
AcDbSymbolTableRecord
100
AcDbLinetypeTableRecord
  2
AMZIGZAG
 70
     0
  3
/\/-/\/-/\/-/\/-/\/-/\/
 72
    65
 73
     2
 40
11.00009999999999
 49
0.0001
 74
     4
 75
   135
340
5CD
 46
0.04
 50
0.0
 44
0.0
 45
0.0
 49
-11.0
 74
     0
  0
ENDTAB
  0
TABLE
  2
LAYER
  5
2
102
{ACAD_XDICTIONARY
360
41
102
}
330
0
100
AcDbSymbolTable
 70
     7
  0
LAYER
  5
10
330
2
100
AcDbSymbolTableRecord
100
AcDbLayerTableRecord
  2
0
 70
     0
 62
     7
  6
CONTINUOUS
  0
LAYER
  5
35
330
2
100
AcDbSymbolTableRecord
100
AcDbLayerTableRecord
  2
10
 70
     0
 62
     4
  6
CONTINUOUS
  0
LAYER
  5
36
330
2
100
AcDbSymbolTableRecord
100
AcDbLayerTableRecord
  2
12
 70
     0
 62
     3
  6
CONTINUOUS
  0
LAYER
  5
37
330
2
100
AcDbSymbolTableRecord
100
AcDbLayerTableRecord
  2
16
 70
     0
 62
     4
  6
CONTINUOUS
  0
LAYER
  5
38
330
2
100
AcDbSymbolTableRecord
100
AcDbLayerTableRecord
  2
19
 70
     0
 62
     7
  6
CONTINUOUS
  0
LAYER
  5
642
330
2
100
AcDbSymbolTableRecord
100
AcDbLayerTableRecord
  2
DEFPOINTS
 70
     0
 62
     7
  6
CONTINUOUS
  0
LAYER
  5
A93
330
2
100
AcDbSymbolTableRecord
100
AcDbLayerTableRecord
  2
17
 70
     0
 62
     2
  6
CONTINUOUS
  0
ENDTAB
  0
TABLE
  2
STYLE
  5
3
330
0
100
AcDbSymbolTable
 70
     3
  0
STYLE
  5
11
330
3
100
AcDbSymbolTableRecord
100
AcDbTextStyleTableRecord
  2
STANDARD
 70
     0
 40
0.0
 41
1.0
 50
0.0
 71
     0
 42
2.5
  3
txt
  4

  0
STYLE
  5
3A
330
3
100
AcDbSymbolTableRecord
100
AcDbTextStyleTableRecord
  2
STANDARD1X3
 70
     0
 40
9.599999999999999
 41
0.7
 50
0.0
 71
     0
 42
9.599999999999999
  3
romans.shx
  4
extfont.shx
  0
STYLE
  5
5CD
330
3
100
AcDbSymbolTableRecord
100
AcDbTextStyleTableRecord
  2

 70
     1
 40
0.0
 41
1.0
 50
0.0
 71
     0
 42
2.5
  3
ltypeshp.shx
  4

  0
ENDTAB
  0
TABLE
  2
VIEW
  5
6
330
0
100
AcDbSymbolTable
 70
     0
  0
ENDTAB
  0
TABLE
  2
UCS
  5
7
330
0
100
AcDbSymbolTable
 70
     0
  0
ENDTAB
  0
TABLE
  2
APPID
  5
9
330
0
100
AcDbSymbolTable
 70
    17
  0
APPID
  5
12
330
9
100
AcDbSymbolTableRecord
100
AcDbRegAppTableRecord
  2
ACAD
 70
     0
  0
APPID
  5
3C
330
9
100
AcDbSymbolTableRecord
100
AcDbRegAppTableRecord
  2
ACAD_PSEXT
 70
     0
  0
APPID
  5
3D
330
9
100
AcDbSymbolTableRecord
100
AcDbRegAppTableRecord
  2
ACAD_DSTYLE_DIMEXT_LENGTH
 70
     0
  0
APPID
  5
3E
330
9
100
AcDbSymbolTableRecord
100
AcDbRegAppTableRecord
  2
ACAD_DSTYLE_DIMEXT_ENABLED
 70
     0
  0
APPID
  5
3F
330
9
100
AcDbSymbolTableRecord
100
AcDbRegAppTableRecord
  2
ACAD_DSTYLE_DIMJOGGED_JOGA
 70
     0
  0
APPID
  5
40
330
9
100
AcDbSymbolTableRecord
100
AcDbRegAppTableRecord
  2
ACAD_DSTYLE_DIMARC_LENGTH_
 70
     0
  0
APPID
  5
500
330
9
100
AcDbSymbolTableRecord
100
AcDbRegAppTableRecord
  2
GENIUS_GENDIM_13
 70
     0
  0
APPID
  5
501
330
9
100
AcDbSymbolTableRecord
100
AcDbRegAppTableRecord
  2
GENIUS_GENDTOL_13
 70
     0
  0
APPID
  5
502
330
9
100
AcDbSymbolTableRecord
100
AcDbRegAppTableRecord
  2
GENIUS_GE3DTOL_13
 70
     0
  0
APPID
  5
504
330
9
100
AcDbSymbolTableRecord
100
AcDbRegAppTableRecord
  2
MCAD_NO_VIS
 70
     0
  0
APPID
  5
505
330
9
100
AcDbSymbolTableRecord
100
AcDbRegAppTableRecord
  2
ACAD_TEMP_GRAPHIC
 70
     0
  0
APPID
  5
537
330
9
100
AcDbSymbolTableRecord
100
AcDbRegAppTableRecord
  2
AD_DRAW
 70
     0
  0
APPID
  5
53A
330
9
100
AcDbSymbolTableRecord
100
AcDbRegAppTableRecord
  2
ACATTRIBSERVICES
 70
     0
  0
APPID
  5
586
330
9
100
AcDbSymbolTableRecord
100
AcDbRegAppTableRecord
  2
ASURF_PCURVE_APPNAME
 70
     0
  0
APPID
  5
5B5
330
9
100
AcDbSymbolTableRecord
100
AcDbRegAppTableRecord
  2
DESIGNERASSEMBLIES
 70
     0
  0
APPID
  5
5BD
330
9
100
AcDbSymbolTableRecord
100
AcDbRegAppTableRecord
  2
ACADM_DIM_EDIT
 70
     0
  0
APPID
  5
5BE
330
9
100
AcDbSymbolTableRecord
100
AcDbRegAppTableRecord
  2
AMDT_DM_ADJ
 70
     0
  0
ENDTAB
  0
TABLE
  2
DIMSTYLE
  5
A
330
0
100
AcDbSymbolTable
 70
     1
  0
DIMSTYLE
105
27
330
A
100
AcDbSymbolTableRecord
100
AcDbDimStyleTableRecord
  2
ISO-25
 70
     0
  3

  4

  5

  6

  7

 40
1.0
 41
2.5
 42
0.625
 43
3.75
 44
1.25
 45
0.0
 46
0.0
 47
0.0
 48
0.0
140
2.5
141
2.5
142
0.0
143
0.03937007874016
144
1.0
145
0.0
146
1.0
147
0.625
 71
     0
 72
     0
 73
     0
 74
     0
 75
     0
 76
     0
 77
     1
 78
     8
170
     0
171
     3
172
     1
173
     0
174
     0
175
     0
176
     0
177
     0
178
     0
270
     2
271
     2
272
     2
273
     2
274
     3
340
11
275
     0
280
     0
281
     0
282
     0
283
     0
284
     8
285
     0
286
     0
287
     3
288
     0
  0
ENDTAB
  0
TABLE
  2
BLOCK_RECORD
  5
1
330
0
100
AcDbSymbolTable
 70
     2
  0
BLOCK_RECORD
  5
1F
102
{ACAD_XDICTIONARY
360
438
102
}
330
1
100
AcDbSymbolTableRecord
100
AcDbBlockTableRecord
  2
*MODEL_SPACE
  0
BLOCK_RECORD
  5
23
102
{ACAD_XDICTIONARY
360
43A
102
}
330
1
100
AcDbSymbolTableRecord
100
AcDbBlockTableRecord
  2
*PAPER_SPACE
  0
BLOCK_RECORD
  5
5AC
330
1
100
AcDbSymbolTableRecord
100
AcDbBlockTableRecord
  2
*U0
  0
BLOCK_RECORD
  5
9A5
330
1
100
AcDbSymbolTableRecord
100
AcDbBlockTableRecord
  2
*X1
  0
ENDTAB
  0
ENDSEC
  0
SECTION
  2
BLOCKS
  0
BLOCK
  5
20
330
1F
100
AcDbEntity
  8
0
100
AcDbBlockBegin
  2
*MODEL_SPACE
 70
     0
 10
0.0
 20
0.0
 30
0.0
  3
*MODEL_SPACE
  1

  0
ENDBLK
  5
21
330
1F
100
AcDbEntity
  8
0
100
AcDbBlockEnd
  0
BLOCK
  5
24
330
23
100
AcDbEntity
 67
     1
  8
0
100
AcDbBlockBegin
  2
*PAPER_SPACE
 70
     0
 10
0.0
 20
0.0
 30
0.0
  3
*PAPER_SPACE
  1

  0
ENDBLK
  5
25
330
23
100
AcDbEntity
 67
     1
  8
0
100
AcDbBlockEnd
  0
BLOCK
  5
5AD
330
5AC
100
AcDbEntity
  8
0
100
AcDbBlockBegin
  2
*U0
 70
     1
 10
0.0
 20
0.0
 30
0.0
  3
*U0
  1

  0
ENDBLK
  5
5AE
330
5AC
100
AcDbEntity
  8
0
100
AcDbBlockEnd
  0
BLOCK
  5
A23
330
9A5
100
AcDbEntity
  8
0
100
AcDbBlockBegin
  2
*X1
 70
     1
 10
0.0
 20
0.0
 30
0.0
  3
*X1
  1

  0
LINE
  5
9A6
330
9A5
100
AcDbEntity
  8
0
 62
     0
100
AcDbLine
 10
84.99999999999909
 20
112.6583336452664
 30
0.0
 11
84.65833364526657
 21
112.9999999999991
 31
0.0
  0
LINE
  5
9A7
330
9A5
100
AcDbEntity
  8
0
 62
     0
100
AcDbLine
 10
84.99999999999884
 20
111.5358016301331
 30
0.0
 11
83.53580163013271
 21
112.9999999999993
 31
0.0
  0
LINE
  5
9A8
330
9A5
100
AcDbEntity
  8
0
 62
     0
100
AcDbLine
 10
84.41326961499838
 20
111.0
 30
0.0
 11
82.41326961499931
 21
112.9999999999991
 31
0.0
  0
LINE
  5
9A9
330
9A5
100
AcDbEntity
  8
0
 62
     0
100
AcDbLine
 10
83.29073759986432
 20
111.0000000000002
 30
0.0
 11
81.29073759986523
 21
112.9999999999993
 31
0.0
  0
LINE
  5
9AA
330
9A5
100
AcDbEntity
  8
0
 62
     0
100
AcDbLine
 10
82.16820558473093
 20
111.0000000000002
 30
0.0
 11
80.16820558473183
 21
112.9999999999993
 31
0.0
  0
LINE
  5
9AB
330
9A5
100
AcDbEntity
  8
0
 62
     0
100
AcDbLine
 10
81.04567356959728
 20
111.0000000000002
 30
0.0
 11
79.0456735695982
 21
112.9999999999993
 31
0.0
  0
LINE
  5
9AC
330
9A5
100
AcDbEntity
  8
0
 62
     0
100
AcDbLine
 10
79.92314155446343
 20
111.0000000000002
 30
0.0
 11
77.92314155446433
 21
112.9999999999993
 31
0.0
  0
LINE
  5
9AD
330
9A5
100
AcDbEntity
  8
0
 62
     0
100
AcDbLine
 10
78.80060953933003
 20
111.0
 30
0.0
 11
76.80060953933093
 21
112.9999999999991
 31
0.0
  0
LINE
  5
9AE
330
9A5
100
AcDbEntity
  8
0
 62
     0
100
AcDbLine
 10
77.67807752419638
 20
111.0000000000002
 30
0.0
 11
75.67807752419731
 21
112.9999999999993
 31
0.0
  0
LINE
  5
9AF
330
9A5
100
AcDbEntity
  8
0
 62
     0
100
AcDbLine
 10
76.55554550906277
 20
111.0
 30
0.0
 11
74.55554550906367
 21
112.9999999999991
 31
0.0
  0
LINE
  5
9B0
330
9A5
100
AcDbEntity
  8
0
 62
     0
100
AcDbLine
 10
75.43301349392914
 20
111.0
 30
0.0
 11
73.43301349393005
 21
112.9999999999991
 31
0.0
  0
LINE
  5
9B1
330
9A5
100
AcDbEntity
  8
0
 62
     0
100
AcDbLine
 10
74.31048147879528
 20
111.0000000000002
 30
0.0
 11
72.31048147879619
 21
112.9999999999993
 31
0.0
  0
LINE
  5
9B2
330
9A5
100
AcDbEntity
  8
0
 62
     0
100
AcDbLine
 10
73.18794946366165
 20
111.0000000000002
 30
0.0
 11
71.18794946366256
 21
112.9999999999993
 31
0.0
  0
LINE
  5
9B3
330
9A5
100
AcDbEntity
  8
0
 62
     0
100
AcDbLine
 10
72.06541744852825
 20
111.0
 30
0.0
 11
70.06541744852916
 21
112.9999999999991
 31
0.0
  0
LINE
  5
9B4
330
9A5
100
AcDbEntity
  8
0
 62
     0
100
AcDbLine
 10
70.94288543339439
 20
111.0
 30
0.0
 11
68.94288543339531
 21
112.9999999999991
 31
0.0
  0
LINE
  5
9B5
330
9A5
100
AcDbEntity
  8
0
 62
     0
100
AcDbLine
 10
69.82035341826099
 20
111.0
 30
0.0
 11
67.82035341826167
 21
112.9999999999993
 31
0.0
  0
LINE
  5
9B6
330
9A5
100
AcDbEntity
  8
0
 62
     0
100
AcDbLine
 10
68.69782140312714
 20
111.0000000000002
 30
0.0
 11
66.69782140312804
 21
112.9999999999993
 31
0.0
  0
LINE
  5
9B7
330
9A5
100
AcDbEntity
  8
0
 62
     0
100
AcDbLine
 10
67.57528938799372
 20
111.0
 30
0.0
 11
65.57528938799464
 21
112.9999999999991
 31
0.0
  0
LINE
  5
9B8
330
9A5
100
AcDbEntity
  8
0
 62
     0
100
AcDbLine
 10
66.45275737285965
 20
111.0000000000002
 30
0.0
 11
64.45275737286056
 21
112.9999999999993
 31
0.0
  0
LINE
  5
9B9
330
9A5
100
AcDbEntity
  8
0
 62
     0
100
AcDbLine
 10
65.33022535772625
 20
111.0000000000002
 30
0.0
 11
63.33022535772716
 21
112.9999999999993
 31
0.0
  0
LINE
  5
9BA
330
9A5
100
AcDbEntity
  8
0
 62
     0
100
AcDbLine
 10
64.20769334259261
 20
111.0000000000002
 30
0.0
 11
62.20769334259353
 21
112.9999999999993
 31
0.0
  0
LINE
  5
9BB
330
9A5
100
AcDbEntity
  8
0
 62
     0
100
AcDbLine
 10
63.08516132745875
 20
111.0000000000002
 30
0.0
 11
61.08516132745966
 21
112.9999999999993
 31
0.0
  0
LINE
  5
9BC
330
9A5
100
AcDbEntity
  8
0
 62
     0
100
AcDbLine
 10
61.96262931232536
 20
111.0
 30
0.0
 11
59.96262931232627
 21
112.9999999999991
 31
0.0
  0
LINE
  5
9BD
330
9A5
100
AcDbEntity
  8
0
 62
     0
100
AcDbLine
 10
60.84009729719173
 20
111.0000000000002
 30
0.0
 11
58.84009729719264
 21
112.9999999999993
 31
0.0
  0
LINE
  5
9BE
330
9A5
100
AcDbEntity
  8
0
 62
     0
100
AcDbLine
 10
59.7175652820581
 20
111.0
 30
0.0
 11
57.71756528205902
 21
112.9999999999991
 31
0.0
  0
LINE
  5
9BF
330
9A5
100
AcDbEntity
  8
0
 62
     0
100
AcDbLine
 10
58.59503326692447
 20
111.0
 30
0.0
 11
56.59503326692494
 21
112.9999999999995
 31
0.0
  0
LINE
  5
9C0
330
9A5
100
AcDbEntity
  8
0
 62
     0
100
AcDbLine
 10
57.47250125179061
 20
111.0000000000002
 30
0.0
 11
55.47250125179154
 21
112.9999999999993
 31
0.0
  0
LINE
  5
9C1
330
9A5
100
AcDbEntity
  8
0
 62
     0
100
AcDbLine
 10
56.34996923665699
 20
111.0000000000002
 30
0.0
 11
54.3499692366579
 21
112.9999999999993
 31
0.0
  0
LINE
  5
9C2
330
9A5
100
AcDbEntity
  8
0
 62
     0
100
AcDbLine
 10
55.22743722152336
 20
111.0000000000002
 30
0.0
 11
53.22743722152427
 21
112.9999999999993
 31
0.0
  0
LINE
  5
9C3
330
9A5
100
AcDbEntity
  8
0
 62
     0
100
AcDbLine
 10
54.10490520638973
 20
111.0
 30
0.0
 11
52.10490520639064
 21
112.9999999999991
 31
0.0
  0
LINE
  5
9C4
330
9A5
100
AcDbEntity
  8
0
 62
     0
100
AcDbLine
 10
52.0
 20
111.9823731912563
 30
0.0
 11
50.98237319125701
 21
112.9999999999993
 31
0.0
  0
LINE
  5
9C5
330
9A5
100
AcDbEntity
  8
0
 62
     0
100
AcDbLine
 10
52.98237319125585
 20
111.0000000000002
 30
0.0
 11
52.0
 21
111.9823731912563
 31
0.0
  0
LINE
  5
9C6
330
9A5
100
AcDbEntity
  8
0
 62
     0
100
AcDbLine
 10
51.85984117612246
 20
111.0000000000002
 30
0.0
 11
49.85984117612338
 21
112.9999999999993
 31
0.0
  0
LINE
  5
9C7
330
9A5
100
AcDbEntity
  8
0
 62
     0
100
AcDbLine
 10
50.73730916098908
 20
111.0
 30
0.0
 11
48.73730916098998
 21
112.9999999999991
 31
0.0
  0
LINE
  5
9C8
330
9A5
100
AcDbEntity
  8
0
 62
     0
100
AcDbLine
 10
49.61477714585498
 20
111.0000000000002
 30
0.0
 11
47.61477714585589
 21
112.9999999999993
 31
0.0
  0
LINE
  5
9C9
330
9A5
100
AcDbEntity
  8
0
 62
     0
100
AcDbLine
 10
48.49224513072158
 20
111.0000000000002
 30
0.0
 11
46.49224513072249
 21
112.9999999999993
 31
0.0
  0
LINE
  5
9CA
330
9A5
100
AcDbEntity
  8
0
 62
     0
100
AcDbLine
 10
47.36971311558796
 20
111.0000000000002
 30
0.0
 11
45.36971311558885
 21
112.9999999999993
 31
0.0
  0
LINE
  5
9CB
330
9A5
100
AcDbEntity
  8
0
 62
     0
100
AcDbLine
 10
46.24718110045409
 20
111.0000000000002
 30
0.0
 11
44.24718110045501
 21
112.9999999999993
 31
0.0
  0
LINE
  5
9CC
330
9A5
100
AcDbEntity
  8
0
 62
     0
100
AcDbLine
 10
45.12464908532069
 20
111.0
 30
0.0
 11
43.1246490853216
 21
112.9999999999991
 31
0.0
  0
LINE
  5
9CD
330
9A5
100
AcDbEntity
  8
0
 62
     0
100
AcDbLine
 10
44.00211707018708
 20
111.0000000000002
 30
0.0
 11
42.00211707018797
 21
112.9999999999993
 31
0.0
  0
LINE
  5
9CE
330
9A5
100
AcDbEntity
  8
0
 62
     0
100
AcDbLine
 10
42.87958505505343
 20
111.0
 30
0.0
 11
40.87958505505435
 21
112.9999999999991
 31
0.0
  0
LINE
  5
9CF
330
9A5
100
AcDbEntity
  8
0
 62
     0
100
AcDbLine
 10
41.75705303991981
 20
111.0
 30
0.0
 11
39.75705303992025
 21
112.9999999999995
 31
0.0
  0
LINE
  5
9D0
330
9A5
100
AcDbEntity
  8
0
 62
     0
100
AcDbLine
 10
40.63452102478595
 20
111.0000000000002
 30
0.0
 11
38.63452102478685
 21
112.9999999999993
 31
0.0
  0
LINE
  5
9D1
330
9A5
100
AcDbEntity
  8
0
 62
     0
100
AcDbLine
 10
39.51198900965231
 20
111.0000000000002
 30
0.0
 11
37.51198900965322
 21
112.9999999999993
 31
0.0
  0
LINE
  5
9D2
330
9A5
100
AcDbEntity
  8
0
 62
     0
100
AcDbLine
 10
38.38945699451869
 20
111.0000000000002
 30
0.0
 11
36.3894569945196
 21
112.9999999999993
 31
0.0
  0
LINE
  5
9D3
330
9A5
100
AcDbEntity
  8
0
 62
     0
100
AcDbLine
 10
37.26692497938506
 20
111.0
 30
0.0
 11
35.26692497938597
 21
112.9999999999991
 31
0.0
  0
LINE
  5
9D4
330
9A5
100
AcDbEntity
  8
0
 62
     0
100
AcDbLine
 10
36.14439296425143
 20
111.0000000000002
 30
0.0
 11
34.14439296425234
 21
112.9999999999993
 31
0.0
  0
LINE
  5
9D5
330
9A5
100
AcDbEntity
  8
0
 62
     0
100
AcDbLine
 10
35.02186094911781
 20
111.0000000000002
 30
0.0
 11
33.02186094911871
 21
112.9999999999993
 31
0.0
  0
LINE
  5
9D6
330
9A5
100
AcDbEntity
  8
0
 62
     0
100
AcDbLine
 10
33.8993289339844
 20
111.0
 30
0.0
 11
31.8993289339853
 21
112.9999999999991
 31
0.0
  0
LINE
  5
9D7
330
9A5
100
AcDbEntity
  8
0
 62
     0
100
AcDbLine
 10
32.77679691885032
 20
111.0000000000002
 30
0.0
 11
30.77679691885123
 21
112.9999999999993
 31
0.0
  0
LINE
  5
9D8
330
9A5
100
AcDbEntity
  8
0
 62
     0
100
AcDbLine
 10
31.65426490371692
 20
111.0000000000002
 30
0.0
 11
29.65426490371783
 21
112.9999999999993
 31
0.0
  0
LINE
  5
9D9
330
9A5
100
AcDbEntity
  8
0
 62
     0
100
AcDbLine
 10
30.53173288858328
 20
111.0000000000002
 30
0.0
 11
28.53173288858419
 21
112.9999999999993
 31
0.0
  0
LINE
  5
9DA
330
9A5
100
AcDbEntity
  8
0
 62
     0
100
AcDbLine
 10
29.40920087344943
 20
111.0000000000002
 30
0.0
 11
27.40920087345034
 21
112.9999999999993
 31
0.0
  0
LINE
  5
9DB
330
9A5
100
AcDbEntity
  8
0
 62
     0
100
AcDbLine
 10
28.28666885831603
 20
111.0
 30
0.0
 11
26.28666885831694
 21
112.9999999999991
 31
0.0
  0
LINE
  5
9DC
330
9A5
100
AcDbEntity
  8
0
 62
     0
100
AcDbLine
 10
27.1641368431824
 20
111.0000000000002
 30
0.0
 11
25.1641368431833
 21
112.9999999999993
 31
0.0
  0
LINE
  5
9DD
330
9A5
100
AcDbEntity
  8
0
 62
     0
100
AcDbLine
 10
26.04160482804877
 20
111.0
 30
0.0
 11
24.04160482804968
 21
112.9999999999991
 31
0.0
  0
LINE
  5
9DE
330
9A5
100
AcDbEntity
  8
0
 62
     0
100
AcDbLine
 10
24.91907281291513
 20
111.0
 30
0.0
 11
22.91907281291604
 21
112.9999999999991
 31
0.0
  0
LINE
  5
9DF
330
9A5
100
AcDbEntity
  8
0
 62
     0
100
AcDbLine
 10
23.79654079778128
 20
111.0000000000002
 30
0.0
 11
21.79654079778219
 21
112.9999999999993
 31
0.0
  0
LINE
  5
9E0
330
9A5
100
AcDbEntity
  8
0
 62
     0
100
AcDbLine
 10
22.67400878264766
 20
111.0000000000002
 30
0.0
 11
20.67400878264856
 21
112.9999999999993
 31
0.0
  0
LINE
  5
9E1
330
9A5
100
AcDbEntity
  8
0
 62
     0
100
AcDbLine
 10
21.55147676751403
 20
111.0000000000002
 30
0.0
 11
19.55147676751494
 21
112.9999999999993
 31
0.0
  0
LINE
  5
9E2
330
9A5
100
AcDbEntity
  8
0
 62
     0
100
AcDbLine
 10
20.42894475238039
 20
111.0
 30
0.0
 11
18.99999999999977
 21
112.4289447523806
 31
0.0
  0
LINE
  5
9E3
330
9A5
100
AcDbEntity
  8
0
 62
     0
100
AcDbLine
 10
19.30641273724677
 20
111.0000000000002
 30
0.0
 11
19.0
 21
111.3064127372469
 31
0.0
  0
LINE
  5
9E4
330
9A5
100
AcDbEntity
  8
0
 62
     0
100
AcDbLine
 10
84.80617256859714
 20
111.0000000000004
 30
0.0
 11
84.99999999999891
 21
111.193827431402
 31
0.0
  0
LINE
  5
9E5
330
9A5
100
AcDbEntity
  8
0
 62
     0
100
AcDbLine
 10
83.6836405534636
 20
111.0000000000002
 30
0.0
 11
84.99999999999905
 21
112.3163594465354
 31
0.0
  0
LINE
  5
9E6
330
9A5
100
AcDbEntity
  8
0
 62
     0
100
AcDbLine
 10
82.5611085383298
 20
111.0000000000002
 30
0.0
 11
84.56110853832905
 21
112.9999999999995
 31
0.0
  0
LINE
  5
9E7
330
9A5
100
AcDbEntity
  8
0
 62
     0
100
AcDbLine
 10
81.43857652319628
 20
111.0
 30
0.0
 11
83.43857652319531
 21
112.9999999999992
 31
0.0
  0
LINE
  5
9E8
330
9A5
100
AcDbEntity
  8
0
 62
     0
100
AcDbLine
 10
80.31604450806247
 20
111.0000000000002
 30
0.0
 11
82.31604450806168
 21
112.9999999999994
 31
0.0
  0
LINE
  5
9E9
330
9A5
100
AcDbEntity
  8
0
 62
     0
100
AcDbLine
 10
79.19351249292906
 20
111.0000000000004
 30
0.0
 11
81.1935124929281
 21
112.9999999999995
 31
0.0
  0
LINE
  5
9EA
330
9A5
100
AcDbEntity
  8
0
 62
     0
100
AcDbLine
 10
78.07098047779527
 20
111.0000000000002
 30
0.0
 11
80.07098047779436
 21
112.9999999999993
 31
0.0
  0
LINE
  5
9EB
330
9A5
100
AcDbEntity
  8
0
 62
     0
100
AcDbLine
 10
76.94844846266176
 20
111.0000000000004
 30
0.0
 11
78.94844846266079
 21
112.9999999999994
 31
0.0
  0
LINE
  5
9EC
330
9A5
100
AcDbEntity
  8
0
 62
     0
100
AcDbLine
 10
75.82591644752795
 20
111.0000000000002
 30
0.0
 11
77.82591644752717
 21
112.9999999999994
 31
0.0
  0
LINE
  5
9ED
330
9A5
100
AcDbEntity
  8
0
 62
     0
100
AcDbLine
 10
74.70338443239454
 20
111.0000000000004
 30
0.0
 11
76.70338443239359
 21
112.9999999999995
 31
0.0
  0
LINE
  5
9EE
330
9A5
100
AcDbEntity
  8
0
 62
     0
100
AcDbLine
 10
73.58085241726076
 20
111.0000000000002
 30
0.0
 11
75.58085241725985
 21
112.9999999999993
 31
0.0
  0
LINE
  5
9EF
330
9A5
100
AcDbEntity
  8
0
 62
     0
100
AcDbLine
 10
72.45832040212724
 20
111.0000000000004
 30
0.0
 11
74.45832040212629
 21
112.9999999999994
 31
0.0
  0
LINE
  5
9F0
330
9A5
100
AcDbEntity
  8
0
 62
     0
100
AcDbLine
 10
71.33578838699344
 20
111.0000000000002
 30
0.0
 11
73.33578838699264
 21
112.9999999999994
 31
0.0
  0
LINE
  5
9F1
330
9A5
100
AcDbEntity
  8
0
 62
     0
100
AcDbLine
 10
70.21325637185964
 20
111.0000000000002
 30
0.0
 11
72.21325637185884
 21
112.9999999999995
 31
0.0
  0
LINE
  5
9F2
330
9A5
100
AcDbEntity
  8
0
 62
     0
100
AcDbLine
 10
69.09072435672612
 20
111.0
 30
0.0
 11
71.09072435672516
 21
112.9999999999992
 31
0.0
  0
LINE
  5
9F3
330
9A5
100
AcDbEntity
  8
0
 62
     0
100
AcDbLine
 10
67.96819234159233
 20
111.0000000000002
 30
0.0
 11
69.96819234159153
 21
112.9999999999994
 31
0.0
  0
LINE
  5
9F4
330
9A5
100
AcDbEntity
  8
0
 62
     0
100
AcDbLine
 10
66.84566032645893
 20
111.0000000000002
 30
0.0
 11
68.84566032645796
 21
112.9999999999992
 31
0.0
  0
LINE
  5
9F5
330
9A5
100
AcDbEntity
  8
0
 62
     0
100
AcDbLine
 10
65.72312831132513
 20
111.0000000000002
 30
0.0
 11
67.72312831132421
 21
112.9999999999993
 31
0.0
  0
LINE
  5
9F6
330
9A5
100
AcDbEntity
  8
0
 62
     0
100
AcDbLine
 10
64.60059629619161
 20
111.0
 30
0.0
 11
66.60059629619064
 21
112.9999999999992
 31
0.0
  0
LINE
  5
9F7
330
9A5
100
AcDbEntity
  8
0
 62
     0
100
AcDbLine
 10
63.47806428105782
 20
111.0000000000002
 30
0.0
 11
65.478064281057
 21
112.9999999999994
 31
0.0
  0
LINE
  5
9F8
330
9A5
100
AcDbEntity
  8
0
 62
     0
100
AcDbLine
 10
62.3555322659244
 20
111.0000000000004
 30
0.0
 11
64.35553226592343
 21
112.9999999999995
 31
0.0
  0
LINE
  5
9F9
330
9A5
100
AcDbEntity
  8
0
 62
     0
100
AcDbLine
 10
61.23300025079061
 20
111.0000000000002
 30
0.0
 11
63.2330002507897
 21
112.9999999999993
 31
0.0
  0
LINE
  5
9FA
330
9A5
100
AcDbEntity
  8
0
 62
     0
100
AcDbLine
 10
60.11046823565692
 20
111.0000000000002
 30
0.0
 11
62.11046823565613
 21
112.9999999999994
 31
0.0
  0
LINE
  5
9FB
330
9A5
100
AcDbEntity
  8
0
 62
     0
100
AcDbLine
 10
58.9879362205233
 20
111.0000000000002
 30
0.0
 11
60.98793622052233
 21
112.9999999999992
 31
0.0
  0
LINE
  5
9FC
330
9A5
100
AcDbEntity
  8
0
 62
     0
100
AcDbLine
 10
57.86540420538972
 20
111.0000000000002
 30
0.0
 11
59.86540420538881
 21
112.9999999999993
 31
0.0
  0
LINE
  5
9FD
330
9A5
100
AcDbEntity
  8
0
 62
     0
100
AcDbLine
 10
56.74287219025597
 20
111.0
 30
0.0
 11
58.74287219025501
 21
112.9999999999992
 31
0.0
  0
LINE
  5
9FE
330
9A5
100
AcDbEntity
  8
0
 62
     0
100
AcDbLine
 10
55.62034017512239
 20
111.0000000000002
 30
0.0
 11
57.62034017512161
 21
112.9999999999994
 31
0.0
  0
LINE
  5
9FF
330
9A5
100
AcDbEntity
  8
0
 62
     0
100
AcDbLine
 10
54.49780815998877
 20
111.0000000000002
 30
0.0
 11
56.49780815998781
 21
112.9999999999992
 31
0.0
  0
LINE
  5
A00
330
9A5
100
AcDbEntity
  8
0
 62
     0
100
AcDbLine
 10
53.37527614485496
 20
111.0000000000002
 30
0.0
 11
55.37527614485407
 21
112.9999999999993
 31
0.0
  0
LINE
  5
A01
330
9A5
100
AcDbEntity
  8
0
 62
     0
100
AcDbLine
 10
52.25274412972146
 20
111.0
 30
0.0
 11
54.2527441297205
 21
112.9999999999992
 31
0.0
  0
LINE
  5
A02
330
9A5
100
AcDbEntity
  8
0
 62
     0
100
AcDbLine
 10
52.00000000000006
 20
111.8697878854125
 30
0.0
 11
53.13021211458686
 21
112.9999999999994
 31
0.0
  0
LINE
  5
A03
330
9A5
100
AcDbEntity
  8
0
 62
     0
100
AcDbLine
 10
51.13021211458764
 20
111.0000000000002
 30
0.0
 11
52.00000000000006
 21
111.8697878854125
 31
0.0
  0
LINE
  5
A04
330
9A5
100
AcDbEntity
  8
0
 62
     0
100
AcDbLine
 10
52.00000000000017
 20
112.9923199005461
 30
0.0
 11
52.00768009945329
 21
112.9999999999992
 31
0.0
  0
LINE
  5
A05
330
9A5
100
AcDbEntity
  8
0
 62
     0
100
AcDbLine
 10
50.00768009945426
 20
111.0000000000002
 30
0.0
 11
52.00000000000017
 21
112.9923199005461
 31
0.0
  0
LINE
  5
A06
330
9A5
100
AcDbEntity
  8
0
 62
     0
100
AcDbLine
 10
48.88514808432046
 20
111.0000000000002
 30
0.0
 11
50.88514808431956
 21
112.9999999999993
 31
0.0
  0
LINE
  5
A07
330
9A5
100
AcDbEntity
  8
0
 62
     0
100
AcDbLine
 10
47.76261606918692
 20
111.0
 30
0.0
 11
49.76261606918598
 21
112.9999999999992
 31
0.0
  0
LINE
  5
A08
330
9A5
100
AcDbEntity
  8
0
 62
     0
100
AcDbLine
 10
46.64008405405314
 20
111.0000000000002
 30
0.0
 11
48.64008405405218
 21
112.9999999999992
 31
0.0
  0
LINE
  5
A09
330
9A5
100
AcDbEntity
  8
0
 62
     0
100
AcDbLine
 10
45.51755203891957
 20
111.0000000000002
 30
0.0
 11
47.51755203891867
 21
112.9999999999993
 31
0.0
  0
LINE
  5
A0A
330
9A5
100
AcDbEntity
  8
0
 62
     0
100
AcDbLine
 10
44.39502002378583
 20
111.0
 30
0.0
 11
46.39502002378486
 21
112.9999999999992
 31
0.0
  0
LINE
  5
A0B
330
9A5
100
AcDbEntity
  8
0
 62
     0
100
AcDbLine
 10
43.27248800865226
 20
111.0000000000002
 30
0.0
 11
45.27248800865145
 21
112.9999999999994
 31
0.0
  0
LINE
  5
A0C
330
9A5
100
AcDbEntity
  8
0
 62
     0
100
AcDbLine
 10
42.14995599351863
 20
111.0000000000002
 30
0.0
 11
44.14995599351763
 21
112.9999999999992
 31
0.0
  0
LINE
  5
A0D
330
9A5
100
AcDbEntity
  8
0
 62
     0
100
AcDbLine
 10
41.02742397838506
 20
111.0000000000002
 30
0.0
 11
43.02742397838414
 21
112.9999999999993
 31
0.0
  0
LINE
  5
A0E
330
9A5
100
AcDbEntity
  8
0
 62
     0
100
AcDbLine
 10
39.90489196325131
 20
111.0
 30
0.0
 11
41.90489196325034
 21
112.9999999999992
 31
0.0
  0
LINE
  5
A0F
330
9A5
100
AcDbEntity
  8
0
 62
     0
100
AcDbLine
 10
38.78235994811774
 20
111.0000000000002
 30
0.0
 11
40.78235994811693
 21
112.9999999999994
 31
0.0
  0
LINE
  5
A10
330
9A5
100
AcDbEntity
  8
0
 62
     0
100
AcDbLine
 10
37.65982793298411
 20
111.0000000000002
 30
0.0
 11
39.65982793298314
 21
112.9999999999992
 31
0.0
  0
LINE
  5
A11
330
9A5
100
AcDbEntity
  8
0
 62
     0
100
AcDbLine
 10
36.53729591785031
 20
111.0000000000002
 30
0.0
 11
38.5372959178494
 21
112.9999999999993
 31
0.0
  0
LINE
  5
A12
330
9A5
100
AcDbEntity
  8
0
 62
     0
100
AcDbLine
 10
35.4147639027168
 20
111.0
 30
0.0
 11
37.41476390271582
 21
112.9999999999992
 31
0.0
  0
LINE
  5
A13
330
9A5
100
AcDbEntity
  8
0
 62
     0
100
AcDbLine
 10
34.292231887583
 20
111.0000000000002
 30
0.0
 11
36.2922318875822
 21
112.9999999999994
 31
0.0
  0
LINE
  5
A14
330
9A5
100
AcDbEntity
  8
0
 62
     0
100
AcDbLine
 10
33.16969987244942
 20
111.0
 30
0.0
 11
35.16969987244852
 21
112.9999999999991
 31
0.0
  0
LINE
  5
A15
330
9A5
100
AcDbEntity
  8
0
 62
     0
100
AcDbLine
 10
32.04716785731568
 20
111.0
 30
0.0
 11
34.04716785731471
 21
112.9999999999992
 31
0.0
  0
LINE
  5
A16
330
9A5
100
AcDbEntity
  8
0
 62
     0
100
AcDbLine
 10
30.92463584218211
 20
111.0
 30
0.0
 11
32.92463584218131
 21
112.9999999999992
 31
0.0
  0
LINE
  5
A17
330
9A5
100
AcDbEntity
  8
0
 62
     0
100
AcDbLine
 10
29.80210382704846
 20
111.0000000000002
 30
0.0
 11
31.80210382704752
 21
112.9999999999992
 31
0.0
  0
LINE
  5
A18
330
9A5
100
AcDbEntity
  8
0
 62
     0
100
AcDbLine
 10
28.67957181191491
 20
111.0000000000002
 30
0.0
 11
30.679571811914
 21
112.9999999999993
 31
0.0
  0
LINE
  5
A19
330
9A5
100
AcDbEntity
  8
0
 62
     0
100
AcDbLine
 10
27.55703979678115
 20
111.0
 30
0.0
 11
29.5570397967802
 21
112.9999999999992
 31
0.0
  0
LINE
  5
A1A
330
9A5
100
AcDbEntity
  8
0
 62
     0
100
AcDbLine
 10
26.43450778164759
 20
111.0000000000002
 30
0.0
 11
28.4345077816468
 21
112.9999999999994
 31
0.0
  0
LINE
  5
A1B
330
9A5
100
AcDbEntity
  8
0
 62
     0
100
AcDbLine
 10
25.31197576651396
 20
111.0000000000002
 30
0.0
 11
27.311975766513
 21
112.9999999999992
 31
0.0
  0
LINE
  5
A1C
330
9A5
100
AcDbEntity
  8
0
 62
     0
100
AcDbLine
 10
24.18944375138039
 20
111.0000000000002
 30
0.0
 11
26.18944375137948
 21
112.9999999999993
 31
0.0
  0
LINE
  5
A1D
330
9A5
100
AcDbEntity
  8
0
 62
     0
100
AcDbLine
 10
23.06691173624665
 20
111.0
 30
0.0
 11
25.06691173624568
 21
112.9999999999992
 31
0.0
  0
LINE
  5
A1E
330
9A5
100
AcDbEntity
  8
0
 62
     0
100
AcDbLine
 10
21.94437972111307
 20
111.0000000000002
 30
0.0
 11
23.94437972111228
 21
112.9999999999994
 31
0.0
  0
LINE
  5
A1F
330
9A5
100
AcDbEntity
  8
0
 62
     0
100
AcDbLine
 10
20.82184770597927
 20
111.0
 30
0.0
 11
22.82184770597837
 21
112.9999999999991
 31
0.0
  0
LINE
  5
A20
330
9A5
100
AcDbEntity
  8
0
 62
     0
100
AcDbLine
 10
19.69931569084553
 20
111.0
 30
0.0
 11
21.69931569084456
 21
112.9999999999992
 31
0.0
  0
LINE
  5
A21
330
9A5
100
AcDbEntity
  8
0
 62
     0
100
AcDbLine
 10
19.00000000000022
 20
111.4232163242881
 30
0.0
 11
20.57678367571117
 21
112.9999999999992
 31
0.0
  0
LINE
  5
A22
330
9A5
100
AcDbEntity
  8
0
 62
     0
100
AcDbLine
 10
19.00000000000011
 20
112.5457483394219
 30
0.0
 11
19.45425166057735
 21
112.9999999999992
 31
0.0
  0
ENDBLK
  5
A24
330
9A5
100
AcDbEntity
  8
0
100
AcDbBlockEnd
  0
ENDSEC
  0
SECTION
  2
ENTITIES
  0
MTEXT
  5
5EB
330
1F
100
AcDbEntity
  8
19
100
AcDbMText
 10
269.9686973822977
 20
13.14721698284643
 30
0.0
 40
5.0
 41
70.16
 71
     1
 72
     5
  1
HAL04\PFR-HAL-2.2K
  7
STANDARD1X3
1001
ACAD
1000
MTEXTBEGIN
1070
    73
1070
     1
1070
    44
1040
1.0
1070
    74
1070
     0
1000
MTEXTEND
1000
MTEXTBEGIN
1070
    73
1070
     1
1070
    44
1040
1.0
1070
    74
1070
     0
1000
MTEXTEND
1000
MTEXTBEGIN
1070
    73
1070
     1
1070
    44
1040
1.0
1070
    74
1070
     0
1000
MTEXTEND
1000
MTEXTBEGIN
1070
    73
1070
     1
1070
    44
1040
1.0
1070
    74
1070
     0
1000
MTEXTEND
1000
MTEXTBEGIN
1070
    73
1070
     1
1070
    44
1040
1.0
1070
    74
1070
     0
1000
MTEXTEND
  0
LINE
  5
796
330
1F
100
AcDbEntity
  8
16
 48
15.0
100
AcDbLine
 10
214.7765502667313
 20
118.6800273510091
 30
0.0
 11
214.7765502667313
 21
-7.967433917196558
 31
0.0
  0
LINE
  5
797
330
1F
100
AcDbEntity
  8
10
100
AcDbLine
 10
192.5265502667312
 20
72.00000000000024
 30
0.0
 11
192.5265502667312
 21
18.25
 31
0.0
  0
LINE
  5
798
330
1F
100
AcDbEntity
  8
10
100
AcDbLine
 10
237.0265502667312
 20
18.25
 30
0.0
 11
237.0265502667312
 21
72.00000000000024
 31
0.0
  0
LINE
  5
79B
330
1F
100
AcDbEntity
  8
16
 48
15.0
100
AcDbLine
 10
53.86767589394617
 20
10.76032667606159
 30
0.0
 11
53.86767589394617
 21
115.7500000000002
 31
0.0
  0
LINE
  5
79C
330
1F
100
AcDbEntity
  8
10
100
AcDbLine
 10
0.1176758939461706
 20
72.00000000000024
 30
0.0
 11
0.1176758939461706
 21
18.25
 31
0.0
  0
LINE
  5
79D
330
1F
100
AcDbEntity
  8
10
100
AcDbLine
 10
37.11767589394617
 20
18.24999999999953
 30
0.0
 11
37.11767589394617
 21
72.00000000000024
 31
0.0
  0
LINE
  5
79E
330
1F
100
AcDbEntity
  8
10
100
AcDbLine
 10
35.61767589394617
 20
72.00000000000024
 30
0.0
 11
35.61767589394617
 21
18.25
 31
0.0
  0
LINE
  5
79F
330
1F
100
AcDbEntity
  8
10
100
AcDbLine
 10
70.61767589394617
 20
18.25
 30
0.0
 11
70.61767589394617
 21
72.00000000000024
 31
0.0
  0
LINE
  5
7A0
330
1F
100
AcDbEntity
  8
10
100
AcDbLine
 10
72.11767589394617
 20
72.00000000000024
 30
0.0
 11
72.11767589394617
 21
18.25
 31
0.0
  0
LINE
  5
7A1
330
1F
100
AcDbEntity
  8
10
100
AcDbLine
 10
107.6176758939461
 20
72.00000000000024
 30
0.0
 11
107.6176758939461
 21
18.25
 31
0.0
  0
LINE
  5
7A4
330
1F
100
AcDbEntity
  8
10
100
AcDbLine
 10
70.61767589394617
 20
18.25
 30
0.0
 11
37.11767589394617
 21
18.25
 31
0.0
  0
LINE
  5
7A6
330
1F
100
AcDbEntity
  8
10
100
AcDbLine
 10
1.86767589394617
 20
16.0
 30
0.0
 11
105.8676758939461
 21
16.0
 31
0.0
  0
LINE
  5
7A7
330
1F
100
AcDbEntity
  8
10
100
AcDbLine
 10
1.86767589394617
 20
0.0
 30
0.0
 11
105.8676758939461
 21
0.0
 31
0.0
  0
LINE
  5
7A8
330
1F
100
AcDbEntity
  8
10
100
AcDbLine
 10
1.86767589394617
 20
2.299999999999954
 30
0.0
 11
105.8676758939461
 21
2.299999999999954
 31
0.0
  0
LINE
  5
7A9
330
1F
100
AcDbEntity
  8
10
100
AcDbLine
 10
0.1176758939461706
 20
18.25
 30
0.0
 11
35.61767589394617
 21
18.25
 31
0.0
  0
LINE
  5
7AA
330
1F
100
AcDbEntity
  8
10
100
AcDbLine
 10
1.86767589394617
 20
16.0
 30
0.0
 11
1.86767589394617
 21
0.0
 31
0.0
  0
LINE
  5
7AB
330
1F
100
AcDbEntity
  8
12
 48
10.0
100
AcDbLine
 10
18.86767589394617
 20
14.98000000000001
 30
0.0
 11
18.86767589394617
 21
3.019999999999981
 31
0.0
  0
LINE
  5
7AC
330
1F
100
AcDbEntity
  8
10
100
AcDbLine
 10
18.86767589394617
 20
4.399999999999977
 30
0.0
 11
22.85139275135406
 21
6.700000000000045
 31
0.0
  0
LINE
  5
7AD
330
1F
100
AcDbEntity
  8
10
100
AcDbLine
 10
22.85139275135406
 20
6.700000000000045
 30
0.0
 11
22.85139275135406
 21
11.29999999999995
 31
0.0
  0
LINE
  5
7AE
330
1F
100
AcDbEntity
  8
10
100
AcDbLine
 10
14.88395903653804
 20
11.29999999999995
 30
0.0
 11
14.88395903653804
 21
6.700000000000045
 31
0.0
  0
LINE
  5
7AF
330
1F
100
AcDbEntity
  8
10
100
AcDbLine
 10
14.88395903653804
 20
6.700000000000045
 30
0.0
 11
18.86767589394617
 21
4.399999999999977
 31
0.0
  0
LINE
  5
7B0
330
1F
100
AcDbEntity
  8
12
 48
10.0
100
AcDbLine
 10
24.84767589394618
 20
9.0
 30
0.0
 11
12.88767589394637
 21
9.0
 31
0.0
  0
LINE
  5
7B1
330
1F
100
AcDbEntity
  8
10
100
AcDbLine
 10
18.86767589394617
 20
13.60000000000002
 30
0.0
 11
14.88395903653804
 21
11.29999999999995
 31
0.0
  0
CIRCLE
  5
7B2
330
1F
100
AcDbEntity
  8
10
100
AcDbCircle
 10
18.86767589394617
 20
9.0
 30
0.0
 40
4.599999999999996
  0
LINE
  5
7B3
330
1F
100
AcDbEntity
  8
10
100
AcDbLine
 10
22.85139275135406
 20
11.29999999999995
 30
0.0
 11
18.86767589394617
 21
13.60000000000002
 31
0.0
  0
CIRCLE
  5
7B4
330
1F
100
AcDbEntity
  8
10
100
AcDbCircle
 10
18.86767589394617
 20
9.0
 30
0.0
 40
2.5
  0
LINE
  5
7B5
330
1F
100
AcDbEntity
  8
10
100
AcDbLine
 10
34.76767589394626
 20
2.299999999999954
 30
0.0
 11
34.76767589394626
 21
0.0
 31
0.0
  0
LINE
  5
7B6
330
1F
100
AcDbEntity
  8
10
100
AcDbLine
 10
28.96767589394629
 20
2.299999999999954
 30
0.0
 11
28.96767589394629
 21
0.0
 31
0.0
  0
LINE
  5
7B7
330
1F
100
AcDbEntity
  8
12
 48
5.0
100
AcDbLine
 10
31.86767589394617
 20
4.600000000000022
 30
0.0
 11
31.86767589394617
 21
-3.0
 31
0.0
  0
LINE
  5
7B8
330
1F
100
AcDbEntity
  8
10
100
AcDbLine
 10
25.86767589394617
 20
18.25
 30
0.0
 11
25.86767589394617
 21
15.99999999999988
 31
0.0
  0
LINE
  5
7B9
330
1F
100
AcDbEntity
  8
10
100
AcDbLine
 10
11.86767589394617
 20
18.25
 30
0.0
 11
11.86767589394617
 21
15.99999999999988
 31
0.0
  0
LINE
  5
7BA
330
1F
100
AcDbEntity
  8
10
100
AcDbLine
 10
46.86767589394617
 20
18.25
 30
0.0
 11
46.86767589394617
 21
15.99999999999988
 31
0.0
  0
LINE
  5
7BB
330
1F
100
AcDbEntity
  8
10
100
AcDbLine
 10
43.86767589394617
 20
18.25
 30
0.0
 11
43.86767589394617
 21
17.0
 31
0.0
  0
LINE
  5
7BC
330
1F
100
AcDbEntity
  8
10
100
AcDbLine
 10
28.86767589394617
 20
17.0
 30
0.0
 11
28.86767589394617
 21
18.25
 31
0.0
  0
LINE
  5
7BD
330
1F
100
AcDbEntity
  8
10
100
AcDbLine
 10
43.86767589394617
 20
17.0
 30
0.0
 11
28.86767589394617
 21
17.0
 31
0.0
  0
LINE
  5
7BF
330
1F
100
AcDbEntity
  8
10
100
AcDbLine
 10
223.8765502667311
 20
-0.0000000000001137
 30
0.0
 11
250.2765502667313
 21
0.0
 31
0.0
  0
LINE
  5
7C0
330
1F
100
AcDbEntity
  8
10
100
AcDbLine
 10
250.2765502667313
 20
1.600000000000473
 30
0.0
 11
225.4765502667311
 21
1.600000000000022
 31
0.0
  0
LINE
  5
7C1
330
1F
100
AcDbEntity
  8
10
100
AcDbLine
 10
192.5265502667312
 20
18.24999999999953
 30
0.0
 11
237.0265502667312
 21
18.25
 31
0.0
  0
LINE
  5
7C2
330
1F
100
AcDbEntity
  8
12
 48
15.0
100
AcDbLine
 10
197.8765502667312
 20
9.0
 30
0.0
 11
228.6956130186533
 21
9.0
 31
0.0
  0
LINE
  5
7C4
330
1F
100
AcDbEntity
  8
10
100
AcDbLine
 10
72.11767589394617
 20
18.25
 30
0.0
 11
107.6176758939461
 21
18.24999999999953
 31
0.0
  0
LINE
  5
7C5
330
1F
100
AcDbEntity
  8
12
 48
10.0
100
AcDbLine
 10
94.84767589394618
 20
9.0
 30
0.0
 11
82.88767589394636
 21
9.0
 31
0.0
  0
CIRCLE
  5
7C6
330
1F
100
AcDbEntity
  8
10
100
AcDbCircle
 10
88.86767589394617
 20
9.0
 30
0.0
 40
4.599999999999996
  0
LINE
  5
7C7
330
1F
100
AcDbEntity
  8
12
 48
10.0
100
AcDbLine
 10
88.86767589394617
 20
14.98000000000001
 30
0.0
 11
88.86767589394617
 21
3.019999999999981
 31
0.0
  0
LINE
  5
7C8
330
1F
100
AcDbEntity
  8
10
100
AcDbLine
 10
78.76767589394626
 20
2.299999999999954
 30
0.0
 11
78.76767589394626
 21
0.0
 31
0.0
  0
LINE
  5
7C9
330
1F
100
AcDbEntity
  8
12
 48
5.0
100
AcDbLine
 10
75.86767589394617
 20
4.600000000000022
 30
0.0
 11
75.86767589394617
 21
-3.0
 31
0.0
  0
LINE
  5
7CA
330
1F
100
AcDbEntity
  8
10
100
AcDbLine
 10
72.96767589394629
 20
2.299999999999954
 30
0.0
 11
72.96767589394629
 21
0.0
 31
0.0
  0
LINE
  5
7CB
330
1F
100
AcDbEntity
  8
10
100
AcDbLine
 10
92.85139275135408
 20
6.700000000000045
 30
0.0
 11
92.85139275135408
 21
11.29999999999995
 31
0.0
  0
LINE
  5
7CC
330
1F
100
AcDbEntity
  8
10
100
AcDbLine
 10
84.88395903653804
 20
11.29999999999995
 30
0.0
 11
84.88395903653804
 21
6.700000000000045
 31
0.0
  0
LINE
  5
7CD
330
1F
100
AcDbEntity
  8
10
100
AcDbLine
 10
84.88395903653804
 20
6.700000000000045
 30
0.0
 11
88.86767589394617
 21
4.399999999999977
 31
0.0
  0
LINE
  5
7CE
330
1F
100
AcDbEntity
  8
10
100
AcDbLine
 10
88.86767589394617
 20
4.399999999999977
 30
0.0
 11
92.85139275135408
 21
6.700000000000045
 31
0.0
  0
LINE
  5
7CF
330
1F
100
AcDbEntity
  8
10
100
AcDbLine
 10
92.85139275135408
 20
11.29999999999995
 30
0.0
 11
88.86767589394617
 21
13.60000000000002
 31
0.0
  0
CIRCLE
  5
7D0
330
1F
100
AcDbEntity
  8
10
100
AcDbCircle
 10
88.86767589394617
 20
9.0
 30
0.0
 40
2.5
  0
LINE
  5
7D1
330
1F
100
AcDbEntity
  8
10
100
AcDbLine
 10
88.86767589394617
 20
13.60000000000002
 30
0.0
 11
84.88395903653804
 21
11.29999999999995
 31
0.0
  0
LINE
  5
7D2
330
1F
100
AcDbEntity
  8
10
100
AcDbLine
 10
78.86767589394617
 20
17.0
 30
0.0
 11
63.86767589394617
 21
17.0
 31
0.0
  0
LINE
  5
7D3
330
1F
100
AcDbEntity
  8
10
100
AcDbLine
 10
60.86767589394617
 20
18.25
 30
0.0
 11
60.86767589394617
 21
15.99999999999988
 31
0.0
  0
LINE
  5
7D4
330
1F
100
AcDbEntity
  8
10
100
AcDbLine
 10
63.86767589394617
 20
17.0
 30
0.0
 11
63.86767589394617
 21
18.25
 31
0.0
  0
LINE
  5
7D5
330
1F
100
AcDbEntity
  8
10
100
AcDbLine
 10
81.86767589394618
 20
18.25
 30
0.0
 11
81.86767589394618
 21
15.99999999999988
 31
0.0
  0
LINE
  5
7D6
330
1F
100
AcDbEntity
  8
10
100
AcDbLine
 10
78.86767589394617
 20
18.25
 30
0.0
 11
78.86767589394617
 21
17.0
 31
0.0
  0
LINE
  5
7D7
330
1F
100
AcDbEntity
  8
10
100
AcDbLine
 10
105.8676758939461
 20
16.0
 30
0.0
 11
105.8676758939461
 21
1.600000000000136
 31
0.0
  0
LINE
  5
7D8
330
1F
100
AcDbEntity
  8
10
100
AcDbLine
 10
105.8676758939461
 20
1.600000000000136
 30
0.0
 11
105.8676758939461
 21
0.0
 31
0.0
  0
LINE
  5
7D9
330
1F
100
AcDbEntity
  8
10
100
AcDbLine
 10
95.86767589394616
 20
18.25
 30
0.0
 11
95.86767589394616
 21
15.99999999999988
 31
0.0
  0
LINE
  5
7DA
330
1F
100
AcDbEntity
  8
10
100
AcDbLine
 10
204.0765502667313
 20
1.600000000000136
 30
0.0
 11
179.2765502667312
 21
1.600000000000136
 31
0.0
  0
LINE
  5
7DB
330
1F
100
AcDbEntity
  8
10
100
AcDbLine
 10
179.2765502667312
 20
0.0
 30
0.0
 11
205.6765502667311
 21
-0.0000000000001137
 31
0.0
  0
LINE
  5
7DC
330
1F
100
AcDbEntity
  8
10
100
AcDbLine
 10
179.2765502667312
 20
1.600000000000136
 30
0.0
 11
179.2765502667312
 21
0.0
 31
0.0
  0
LINE
  5
7DD
330
1F
100
AcDbEntity
  8
10
100
AcDbLine
 10
207.7765502667311
 20
0.0
 30
0.0
 11
207.7765502667311
 21
18.25
 31
0.0
  0
LINE
  5
7DE
330
1F
100
AcDbEntity
  8
10
100
AcDbLine
 10
207.2765502667311
 20
18.25
 30
0.0
 11
207.2765502667311
 21
0.0
 31
0.0
  0
LINE
  5
7DF
330
1F
100
AcDbEntity
  8
10
100
AcDbLine
 10
223.8765502667311
 20
16.0
 30
0.0
 11
223.8765502667311
 21
3.200000000000043
 31
0.0
  0
LINE
  5
7E0
330
1F
100
AcDbEntity
  8
10
100
AcDbLine
 10
222.2765502667311
 20
18.25
 30
0.0
 11
222.2765502667311
 21
0.0
 31
0.0
  0
LINE
  5
7E1
330
1F
100
AcDbEntity
  8
10
100
AcDbLine
 10
221.7765502667312
 20
18.25
 30
0.0
 11
221.7765502667312
 21
0.0
 31
0.0
  0
LINE
  5
7E2
330
1F
100
AcDbEntity
  8
10
100
AcDbLine
 10
205.6765502667311
 20
16.0
 30
0.0
 11
205.6765502667311
 21
3.200000000000043
 31
0.0
  0
LINE
  5
7E3
330
1F
100
AcDbEntity
  8
10
100
AcDbLine
 10
205.1765502667312
 20
13.04999999999995
 30
0.0
 11
201.9765502667311
 21
13.04999999999995
 31
0.0
  0
ARC
  5
7E4
330
1F
100
AcDbEntity
  8
10
100
AcDbCircle
 10
204.0765502667313
 20
3.200000000000043
 30
0.0
 40
1.6
100
AcDbArc
 50
270.0
 51
0.0
  0
LINE
  5
7E5
330
1F
100
AcDbEntity
  8
10
100
AcDbLine
 10
201.9765502667311
 20
4.950000000000041
 30
0.0
 11
205.1765502667312
 21
4.950000000000041
 31
0.0
  0
LINE
  5
7E6
330
1F
100
AcDbEntity
  8
10
100
AcDbLine
 10
199.8765502667312
 20
7.0
 30
0.0
 11
205.1765502667312
 21
7.0
 31
0.0
  0
LINE
  5
7E7
330
1F
100
AcDbEntity
  8
10
100
AcDbLine
 10
205.1765502667312
 20
11.0
 30
0.0
 11
199.8765502667312
 21
11.0
 31
0.0
  0
LINE
  5
7E8
330
1F
100
AcDbEntity
  8
12
 48
5.0
100
AcDbLine
 10
186.2765502667312
 20
4.935897720409229
 30
0.0
 11
186.2765502667312
 21
-3.321590774041737
 31
0.0
  0
LINE
  5
7E9
330
1F
100
AcDbEntity
  8
10
100
AcDbLine
 10
199.8765502667312
 20
11.0
 30
0.0
 11
199.8765502667312
 21
7.0
 31
0.0
  0
LINE
  5
7EA
330
1F
100
AcDbEntity
  8
10
100
AcDbLine
 10
201.9765502667311
 20
13.04999999999995
 30
0.0
 11
201.9765502667311
 21
4.950000000000041
 31
0.0
  0
LINE
  5
7EB
330
1F
100
AcDbEntity
  8
10
100
AcDbLine
 10
205.1765502667312
 20
4.950000000000041
 30
0.0
 11
205.1765502667312
 21
13.04999999999995
 31
0.0
  0
ARC
  5
7EC
330
1F
100
AcDbEntity
  8
10
100
AcDbCircle
 10
222.8459051054401
 20
9.0
 30
0.0
 40
4.13064516129
100
AcDbArc
 50
284.4486313880876
 51
75.55136861189962
  0
LINE
  5
7ED
330
1F
100
AcDbEntity
  8
10
100
AcDbLine
 10
205.1765502667312
 20
13.0
 30
0.0
 11
205.6765502667311
 21
13.0
 31
0.0
  0
ARC
  5
7EE
330
1F
100
AcDbEntity
  8
10
100
AcDbCircle
 10
225.4765502667311
 20
3.200000000000043
 30
0.0
 40
1.6
100
AcDbArc
 50
180.0
 51
270.0
  0
ARC
  5
7EF
330
1F
100
AcDbEntity
  8
10
100
AcDbCircle
 10
223.8765502667311
 20
1.600000000000136
 30
0.0
 40
1.6
100
AcDbArc
 50
180.0
 51
269.999999999987
  0
LINE
  5
7F0
330
1F
100
AcDbEntity
  8
10
100
AcDbLine
 10
205.6765502667311
 20
5.0
 30
0.0
 11
205.1765502667312
 21
5.0
 31
0.0
  0
ARC
  5
7F1
330
1F
100
AcDbEntity
  8
10
100
AcDbCircle
 10
205.6765502667311
 20
1.600000000000136
 30
0.0
 40
1.6
100
AcDbArc
 50
270.0
 51
0.0
  0
LINE
  5
7F2
330
1F
100
AcDbEntity
  8
10
100
AcDbLine
 10
221.7765502667312
 20
0.0
 30
0.0
 11
207.2765502667311
 21
0.0
 31
0.0
  0
LINE
  5
7F3
330
1F
100
AcDbEntity
  8
10
100
AcDbLine
 10
223.8765502667311
 20
16.0
 30
0.0
 11
222.2765502667311
 21
16.0
 31
0.0
  0
LINE
  5
7F4
330
1F
100
AcDbEntity
  8
10
100
AcDbLine
 10
207.2765502667311
 20
16.0
 30
0.0
 11
205.6765502667311
 21
16.0
 31
0.0
  0
LINE
  5
7F5
330
1F
100
AcDbEntity
  8
12
 48
5.0
100
AcDbLine
 10
243.2765502667312
 20
-2.807315930510299
 30
0.0
 11
243.2765502667312
 21
4.450172563940892
 31
0.0
  0
LINE
  5
7F6
330
1F
100
AcDbEntity
  8
10
100
AcDbLine
 10
250.2765502667313
 20
0.0
 30
0.0
 11
250.2765502667313
 21
1.600000000000136
 31
0.0
  0
LINE
  5
7F7
330
1F
100
AcDbEntity
  8
10
100
AcDbLine
 10
52.81767589394622
 20
104.9
 30
0.0
 11
46.91767589394635
 21
104.9
 31
0.0
  0
LINE
  5
7F8
330
1F
100
AcDbEntity
  8
10
100
AcDbLine
 10
46.86767589394617
 20
104.2
 30
0.0
 11
52.86767589394617
 21
104.2
 31
0.0
  0
LINE
  5
7F9
330
1F
100
AcDbEntity
  8
10
100
AcDbLine
 10
53.11767589394617
 20
103.7
 30
0.0
 11
46.61767589394616
 21
103.7
 31
0.0
  0
ARC
  5
7FA
330
1F
100
AcDbEntity
  8
10
100
AcDbCircle
 10
48.61767589394617
 20
105.4
 30
0.0
 40
1.5
100
AcDbArc
 50
90.0
 51
180.0
  0
LINE
  5
7FB
330
1F
100
AcDbEntity
  8
10
100
AcDbLine
 10
46.61767589394616
 20
110.0000000000002
 30
0.0
 11
53.11767589394617
 21
110.0000000000002
 31
0.0
  0
LINE
  5
7FC
330
1F
100
AcDbEntity
  8
10
100
AcDbLine
 10
37.11767589394617
 20
72.00000000000024
 30
0.0
 11
70.61767589394617
 21
72.00000000000024
 31
0.0
  0
LINE
  5
7FF
330
1F
100
AcDbEntity
  8
10
100
AcDbLine
 10
20.86767589394617
 20
112.9999999999993
 30
0.0
 11
86.86767589394525
 21
112.9999999999993
 31
0.0
  0
LINE
  5
800
330
1F
100
AcDbEntity
  8
10
100
AcDbLine
 10
20.86767589394617
 20
111.0000000000002
 30
0.0
 11
86.86767589394525
 21
111.0000000000002
 31
0.0
  0
LINE
  5
801
330
1F
100
AcDbEntity
  8
10
100
AcDbLine
 10
101.3676758939461
 20
98.20000000000003
 30
0.0
 11
6.36767589394617
 21
98.20000000000003
 31
0.0
  0
LINE
  5
802
330
1F
100
AcDbEntity
  8
10
100
AcDbLine
 10
101.3676758939461
 20
75.00000000000024
 30
0.0
 11
6.36767589394617
 21
75.00000000000024
 31
0.0
  0
INSERT
  5
803
330
1F
100
AcDbEntity
  8
10
  6
CONTINUOUS
100
AcDbBlockReference
  2
*X1
 10
1.86767589394617
 20
0.0
 30
0.0
1001
ACAD
1000
HATCH
1002
{
1070
    19
1000
ANSI37
1040
0.25
1040
0.0
1000
R14_HATCH_DATA
1000
803
1011
2.86767589394617
1021
0.0
1031
0.0
1011
1.86767589394617
1021
1.0
1031
0.0
1011
1.86767589394617
1021
0.0
1031
1.0
1040
0.0
1010
0.0
1020
0.0
1030
1.0
1000
ANSI37
1070
     0
1070
     0
1071
        2
1071
        7
1070
     0
1070
     1
1071
        4
1040
19.0
1040
112.9999999999993
1040
19.0
1040
111.0000000000002
1040
52.0
1040
111.0000000000002
1040
52.0
1040
112.9999999999993
1071
        0
1071
        7
1070
     0
1070
     1
1071
        4
1040
52.0
1040
112.9999999999993
1040
52.0
1040
111.0000000000002
1040
84.99999999999909
1040
111.0000000000002
1040
84.99999999999909
1040
112.9999999999993
1071
        0
1070
     0
1070
     1
1040
0.0
1040
0.25
1070
     0
1070
     2
1040
0.7853981633974483
1040
1845.862452836485
1040
-963.4595899596968
1040
-0.5612660075668221
1040
0.5612660075668221
1070
     0
1040
2.356194490192344
1040
1845.862452836485
1040
-963.4595899596968
1040
-0.5612660075668221
1040
-0.5612660075668221
1070
     0
1040
0.1243500819155142
1071
        2
1040
40.59391364209
1040
112.2100734999992
1040
0.0
1040
60.3743685516431
1040
112.2100734999992
1040
0.0
1002
}
  0
LINE
  5
805
330
1F
100
AcDbEntity
  8
12
 48
10.0
100
AcDbLine
 10
18.86767589394617
 20
89.18000000000006
 30
0.0
 11
18.86767589394617
 21
77.22000000000027
 31
0.0
  0
LINE
  5
806
330
1F
100
AcDbEntity
  8
10
100
AcDbLine
 10
18.86767589394617
 20
87.8000000000002
 30
0.0
 11
14.88395903653804
 21
85.50000000000023
 31
0.0
  0
CIRCLE
  5
807
330
1F
100
AcDbEntity
  8
10
100
AcDbCircle
 10
18.86767589394617
 20
83.20000000000005
 30
0.0
 40
4.599999999999996
  0
LINE
  5
808
330
1F
100
AcDbEntity
  8
10
100
AcDbLine
 10
22.85139275135406
 20
85.50000000000023
 30
0.0
 11
18.86767589394617
 21
87.8000000000002
 31
0.0
  0
LINE
  5
809
330
1F
100
AcDbEntity
  8
10
100
AcDbLine
 10
6.36767589394617
 20
75.00000000000024
 30
0.0
 11
6.36767589394617
 21
98.20000000000003
 31
0.0
  0
LINE
  5
80A
330
1F
100
AcDbEntity
  8
10
100
AcDbLine
 10
35.61767589394617
 20
72.00000000000024
 30
0.0
 11
0.1176758939461706
 21
72.00000000000024
 31
0.0
  0
LINE
  5
80B
330
1F
100
AcDbEntity
  8
10
100
AcDbLine
 10
25.86767589394617
 20
73.25000000000024
 30
0.0
 11
46.86767589394617
 21
73.25000000000024
 31
0.0
  0
LINE
  5
80C
330
1F
100
AcDbEntity
  8
10
100
AcDbLine
 10
46.86767589394617
 20
73.5000000000002
 30
0.0
 11
25.86767589394617
 21
73.5000000000002
 31
0.0
  0
LINE
  5
80D
330
1F
100
AcDbEntity
  8
10
100
AcDbLine
 10
25.86767589394617
 20
75.00000000000024
 30
0.0
 11
25.86767589394617
 21
72.00000000000024
 31
0.0
  0
LINE
  5
80E
330
1F
100
AcDbEntity
  8
10
100
AcDbLine
 10
18.86767589394617
 20
78.60000000000012
 30
0.0
 11
22.85139275135406
 21
80.90000000000008
 31
0.0
  0
LINE
  5
80F
330
1F
100
AcDbEntity
  8
10
100
AcDbLine
 10
22.85139275135406
 20
80.90000000000008
 30
0.0
 11
22.85139275135406
 21
85.50000000000023
 31
0.0
  0
LINE
  5
810
330
1F
100
AcDbEntity
  8
10
100
AcDbLine
 10
14.88395903653804
 20
85.50000000000023
 30
0.0
 11
14.88395903653804
 21
80.90000000000008
 31
0.0
  0
LINE
  5
811
330
1F
100
AcDbEntity
  8
10
100
AcDbLine
 10
11.86767589394617
 20
75.00000000000024
 30
0.0
 11
11.86767589394617
 21
72.00000000000024
 31
0.0
  0
LINE
  5
812
330
1F
100
AcDbEntity
  8
10
100
AcDbLine
 10
14.88395903653804
 20
80.90000000000008
 30
0.0
 11
18.86767589394617
 21
78.60000000000012
 31
0.0
  0
LINE
  5
813
330
1F
100
AcDbEntity
  8
12
 48
10.0
100
AcDbLine
 10
24.84767589394618
 20
83.20000000000005
 30
0.0
 11
12.88767589394637
 21
83.20000000000005
 31
0.0
  0
CIRCLE
  5
814
330
1F
100
AcDbEntity
  8
10
100
AcDbCircle
 10
18.86767589394617
 20
83.20000000000005
 30
0.0
 40
2.5
  0
LINE
  5
815
330
1F
100
AcDbEntity
  8
10
100
AcDbLine
 10
46.86767589394617
 20
75.00000000000024
 30
0.0
 11
46.86767589394617
 21
72.00000000000024
 31
0.0
  0
LINE
  5
816
330
1F
100
AcDbEntity
  8
10
100
AcDbLine
 10
43.86767589394617
 20
73.25000000000024
 30
0.0
 11
43.86767589394617
 21
72.00000000000024
 31
0.0
  0
LINE
  5
817
330
1F
100
AcDbEntity
  8
10
100
AcDbLine
 10
28.86767589394617
 20
72.00000000000024
 30
0.0
 11
28.86767589394617
 21
73.25000000000024
 31
0.0
  0
LINE
  5
81A
330
1F
100
AcDbEntity
  8
10
100
AcDbLine
 10
45.11767589394617
 20
111.0000000000002
 30
0.0
 11
45.11767589394617
 21
103.7
 31
0.0
  0
LINE
  5
81B
330
1F
100
AcDbEntity
  8
10
100
AcDbLine
 10
46.61767589394616
 20
103.7
 30
0.0
 11
46.61767589394616
 21
111.0000000000002
 31
0.0
  0
LINE
  5
81C
330
1F
100
AcDbEntity
  8
10
100
AcDbLine
 10
37.11767589394617
 20
111.0000000000002
 30
0.0
 11
37.11767589394617
 21
103.7
 31
0.0
  0
LINE
  5
81D
330
1F
100
AcDbEntity
  8
10
100
AcDbLine
 10
38.61767589394617
 20
103.7
 30
0.0
 11
38.61767589394617
 21
111.0000000000002
 31
0.0
  0
LINE
  5
81E
330
1F
100
AcDbEntity
  8
10
100
AcDbLine
 10
30.61767589394617
 20
103.7
 30
0.0
 11
30.61767589394617
 21
111.0000000000002
 31
0.0
  0
LINE
  5
81F
330
1F
100
AcDbEntity
  8
10
100
AcDbLine
 10
18.86767589394617
 20
98.20000000000003
 30
0.0
 11
18.86767589394617
 21
115.0000000000002
 31
0.0
  0
LINE
  5
820
330
1F
100
AcDbEntity
  8
10
100
AcDbLine
 10
47.11767589394617
 20
105.4
 30
0.0
 11
47.11767589394617
 21
104.9
 31
0.0
  0
LINE
  5
821
330
1F
100
AcDbEntity
  8
10
100
AcDbLine
 10
44.61767589394617
 20
104.9
 30
0.0
 11
44.61767589394617
 21
105.4
 31
0.0
  0
LINE
  5
822
330
1F
100
AcDbEntity
  8
10
100
AcDbLine
 10
39.11767589394617
 20
105.4
 30
0.0
 11
39.11767589394617
 21
104.9
 31
0.0
  0
LINE
  5
823
330
1F
100
AcDbEntity
  8
10
100
AcDbLine
 10
36.61767589394617
 20
104.9
 30
0.0
 11
36.61767589394617
 21
105.4
 31
0.0
  0
LINE
  5
824
330
1F
100
AcDbEntity
  8
10
100
AcDbLine
 10
44.8176758939462
 20
104.9
 30
0.0
 11
38.91767589394635
 21
104.9
 31
0.0
  0
LINE
  5
825
330
1F
100
AcDbEntity
  8
10
100
AcDbLine
 10
44.86767589394617
 20
104.2
 30
0.0
 11
44.86767589394617
 21
103.7
 31
0.0
  0
LINE
  5
826
330
1F
100
AcDbEntity
  8
10
100
AcDbLine
 10
38.86767589394617
 20
103.7
 30
0.0
 11
38.86767589394617
 21
104.2
 31
0.0
  0
LINE
  5
827
330
1F
100
AcDbEntity
  8
10
100
AcDbLine
 10
36.86767589394617
 20
104.2
 30
0.0
 11
36.86767589394617
 21
103.7
 31
0.0
  0
LINE
  5
828
330
1F
100
AcDbEntity
  8
10
100
AcDbLine
 10
38.86767589394617
 20
104.2
 30
0.0
 11
44.86767589394617
 21
104.2
 31
0.0
  0
LINE
  5
829
330
1F
100
AcDbEntity
  8
10
100
AcDbLine
 10
44.8176758939462
 20
104.2
 30
0.0
 11
44.8176758939462
 21
104.9
 31
0.0
  0
LINE
  5
82A
330
1F
100
AcDbEntity
  8
10
100
AcDbLine
 10
38.91767589394635
 20
104.9
 30
0.0
 11
38.91767589394635
 21
104.2
 31
0.0
  0
LINE
  5
82B
330
1F
100
AcDbEntity
  8
10
100
AcDbLine
 10
36.8176758939462
 20
104.2
 30
0.0
 11
36.8176758939462
 21
104.9
 31
0.0
  0
LINE
  5
82C
330
1F
100
AcDbEntity
  8
10
100
AcDbLine
 10
45.11767589394617
 20
103.7
 30
0.0
 11
38.61767589394617
 21
103.7
 31
0.0
  0
LINE
  5
82D
330
1F
100
AcDbEntity
  8
10
100
AcDbLine
 10
46.86767589394617
 20
103.7
 30
0.0
 11
46.86767589394617
 21
104.2
 31
0.0
  0
LINE
  5
82E
330
1F
100
AcDbEntity
  8
10
100
AcDbLine
 10
46.91767589394635
 20
104.9
 30
0.0
 11
46.91767589394635
 21
104.2
 31
0.0
  0
LINE
  5
82F
330
1F
100
AcDbEntity
  8
10
100
AcDbLine
 10
43.11767589394617
 20
106.9
 30
0.0
 11
40.61767589394617
 21
106.9
 31
0.0
  0
ARC
  5
830
330
1F
100
AcDbEntity
  8
10
100
AcDbCircle
 10
35.11767589394617
 20
105.4
 30
0.0
 40
1.5
100
AcDbArc
 50
0.0
 51
90.0
  0
ARC
  5
831
330
1F
100
AcDbEntity
  8
10
100
AcDbCircle
 10
40.61767589394617
 20
105.4
 30
0.0
 40
1.5
100
AcDbArc
 50
90.0
 51
180.0
  0
ARC
  5
832
330
1F
100
AcDbEntity
  8
10
100
AcDbCircle
 10
43.11767589394617
 20
105.4
 30
0.0
 40
1.5
100
AcDbArc
 50
0.0
 51
90.0
  0
LINE
  5
833
330
1F
100
AcDbEntity
  8
10
100
AcDbLine
 10
38.61767589394617
 20
110.0000000000002
 30
0.0
 11
45.11767589394617
 21
110.0000000000002
 31
0.0
  0
LINE
  5
834
330
1F
100
AcDbEntity
  8
10
100
AcDbLine
 10
31.11767589394617
 20
105.4
 30
0.0
 11
31.11767589394617
 21
104.9
 31
0.0
  0
LINE
  5
835
330
1F
100
AcDbEntity
  8
10
100
AcDbLine
 10
30.86767589394617
 20
103.7
 30
0.0
 11
30.86767589394617
 21
104.2
 31
0.0
  0
LINE
  5
836
330
1F
100
AcDbEntity
  8
10
100
AcDbLine
 10
30.91767589394635
 20
104.9
 30
0.0
 11
30.91767589394635
 21
104.2
 31
0.0
  0
ARC
  5
837
330
1F
100
AcDbEntity
  8
10
100
AcDbCircle
 10
32.61767589394617
 20
105.4
 30
0.0
 40
1.5
100
AcDbArc
 50
90.0
 51
180.0
  0
LINE
  5
838
330
1F
100
AcDbEntity
  8
10
100
AcDbLine
 10
35.11767589394617
 20
106.9
 30
0.0
 11
32.61767589394617
 21
106.9
 31
0.0
  0
LINE
  5
839
330
1F
100
AcDbEntity
  8
10
100
AcDbLine
 10
30.61767589394617
 20
110.0000000000002
 30
0.0
 11
37.11767589394617
 21
110.0000000000002
 31
0.0
  0
LINE
  5
83A
330
1F
100
AcDbEntity
  8
10
100
AcDbLine
 10
36.8176758939462
 20
104.9
 30
0.0
 11
30.91767589394635
 21
104.9
 31
0.0
  0
LINE
  5
83B
330
1F
100
AcDbEntity
  8
10
100
AcDbLine
 10
30.86767589394617
 20
104.2
 30
0.0
 11
36.86767589394617
 21
104.2
 31
0.0
  0
LINE
  5
83C
330
1F
100
AcDbEntity
  8
10
100
AcDbLine
 10
37.11767589394617
 20
103.7
 30
0.0
 11
30.61767589394617
 21
103.7
 31
0.0
  0
LINE
  5
83D
330
1F
100
AcDbEntity
  8
10
100
AcDbLine
 10
20.86767589394617
 20
115.0000000000002
 30
0.0
 11
18.86767589394617
 21
115.0000000000002
 31
0.0
  0
LINE
  5
83E
330
1F
100
AcDbEntity
  8
10
100
AcDbLine
 10
20.86767589394617
 20
112.9999999999993
 30
0.0
 11
20.86767589394617
 21
111.0000000000002
 31
0.0
  0
LINE
  5
83F
330
1F
100
AcDbEntity
  8
10
100
AcDbLine
 10
20.86767589394617
 20
112.9999999999993
 30
0.0
 11
20.86767589394617
 21
115.0000000000002
 31
0.0
  0
ARC
  5
840
330
1F
100
AcDbEntity
  8
10
100
AcDbCircle
 10
246.5477384656171
 20
66.00453091208328
 30
0.0
 40
20.83652909709098
100
AcDbArc
 50
103.4567689135893
 51
163.2773956387666
  0
LINE
  5
841
330
1F
100
AcDbEntity
  8
10
100
AcDbLine
 10
222.0765502667322
 20
111.0000000000002
 30
0.0
 11
227.6765502667312
 21
111.0000000000002
 31
0.0
  0
LINE
  5
842
330
1F
100
AcDbEntity
  8
10
100
AcDbLine
 10
222.0765502667322
 20
112.9999999999993
 30
0.0
 11
227.6765502667312
 21
112.9999999999993
 31
0.0
  0
LINE
  5
843
330
1F
100
AcDbEntity
  8
10
100
AcDbLine
 10
229.6765502667312
 20
115.0000000000002
 30
0.0
 11
220.0765502667322
 21
115.0000000000002
 31
0.0
  0
LINE
  5
844
330
1F
100
AcDbEntity
  8
10
100
AcDbLine
 10
237.0265502667312
 20
72.00000000000024
 30
0.0
 11
192.5265502667312
 21
72.00000000000024
 31
0.0
  0
LINE
  5
845
330
1F
100
AcDbEntity
  8
12
 48
15.0
100
AcDbLine
 10
196.2765502667312
 20
83.20000000000005
 30
0.0
 11
227.6956130186532
 21
83.20000000000005
 31
0.0
  0
LINE
  5
846
330
1F
100
AcDbEntity
  8
10
100
AcDbLine
 10
201.6765502667313
 20
98.20000000000003
 30
0.0
 11
229.6765502667312
 21
98.20000000000003
 31
0.0
  0
LINE
  5
848
330
1F
100
AcDbEntity
  8
10
100
AcDbLine
 10
101.3676758939461
 20
98.20000000000003
 30
0.0
 11
101.3676758939461
 21
75.00000000000024
 31
0.0
  0
LINE
  5
84A
330
1F
100
AcDbEntity
  8
12
 48
10.0
100
AcDbLine
 10
88.86767589394617
 20
89.18000000000006
 30
0.0
 11
88.86767589394617
 21
77.22000000000027
 31
0.0
  0
LINE
  5
84B
330
1F
100
AcDbEntity
  8
10
100
AcDbLine
 10
88.86767589394617
 20
87.8000000000002
 30
0.0
 11
84.88395903653804
 21
85.50000000000023
 31
0.0
  0
LINE
  5
84C
330
1F
100
AcDbEntity
  8
10
100
AcDbLine
 10
92.85139275135408
 20
85.50000000000023
 30
0.0
 11
88.86767589394617
 21
87.8000000000002
 31
0.0
  0
CIRCLE
  5
84D
330
1F
100
AcDbEntity
  8
10
100
AcDbCircle
 10
88.86767589394617
 20
83.20000000000005
 30
0.0
 40
4.599999999999996
  0
LINE
  5
84E
330
1F
100
AcDbEntity
  8
12
 48
10.0
100
AcDbLine
 10
94.84767589394618
 20
83.20000000000005
 30
0.0
 11
82.88767589394636
 21
83.20000000000005
 31
0.0
  0
LINE
  5
84F
330
1F
100
AcDbEntity
  8
10
100
AcDbLine
 10
107.6176758939461
 20
72.00000000000024
 30
0.0
 11
72.11767589394617
 21
72.00000000000024
 31
0.0
  0
LINE
  5
850
330
1F
100
AcDbEntity
  8
10
100
AcDbLine
 10
60.86767589394617
 20
73.25000000000024
 30
0.0
 11
81.86767589394618
 21
73.25000000000024
 31
0.0
  0
LINE
  5
851
330
1F
100
AcDbEntity
  8
10
100
AcDbLine
 10
81.86767589394618
 20
73.5000000000002
 30
0.0
 11
60.86767589394617
 21
73.5000000000002
 31
0.0
  0
LINE
  5
852
330
1F
100
AcDbEntity
  8
10
100
AcDbLine
 10
60.86767589394617
 20
75.00000000000024
 30
0.0
 11
60.86767589394617
 21
72.00000000000024
 31
0.0
  0
LINE
  5
853
330
1F
100
AcDbEntity
  8
10
100
AcDbLine
 10
63.86767589394617
 20
72.00000000000024
 30
0.0
 11
63.86767589394617
 21
73.25000000000024
 31
0.0
  0
LINE
  5
854
330
1F
100
AcDbEntity
  8
10
100
AcDbLine
 10
92.85139275135408
 20
80.90000000000008
 30
0.0
 11
92.85139275135408
 21
85.50000000000023
 31
0.0
  0
LINE
  5
855
330
1F
100
AcDbEntity
  8
10
100
AcDbLine
 10
81.86767589394618
 20
75.00000000000024
 30
0.0
 11
81.86767589394618
 21
72.00000000000024
 31
0.0
  0
LINE
  5
856
330
1F
100
AcDbEntity
  8
10
100
AcDbLine
 10
78.86767589394617
 20
73.25000000000024
 30
0.0
 11
78.86767589394617
 21
72.00000000000024
 31
0.0
  0
LINE
  5
857
330
1F
100
AcDbEntity
  8
10
100
AcDbLine
 10
84.88395903653804
 20
85.50000000000023
 30
0.0
 11
84.88395903653804
 21
80.90000000000008
 31
0.0
  0
LINE
  5
858
330
1F
100
AcDbEntity
  8
10
100
AcDbLine
 10
84.88395903653804
 20
80.90000000000008
 30
0.0
 11
88.86767589394617
 21
78.60000000000012
 31
0.0
  0
LINE
  5
859
330
1F
100
AcDbEntity
  8
10
100
AcDbLine
 10
88.86767589394617
 20
78.60000000000012
 30
0.0
 11
92.85139275135408
 21
80.90000000000008
 31
0.0
  0
CIRCLE
  5
85A
330
1F
100
AcDbEntity
  8
10
100
AcDbCircle
 10
88.86767589394617
 20
83.20000000000005
 30
0.0
 40
2.5
  0
LINE
  5
85B
330
1F
100
AcDbEntity
  8
10
100
AcDbLine
 10
95.86767589394616
 20
75.00000000000024
 30
0.0
 11
95.86767589394616
 21
72.00000000000024
 31
0.0
  0
LINE
  5
85C
330
1F
100
AcDbEntity
  8
10
100
AcDbLine
 10
77.11767589394617
 20
111.0000000000002
 30
0.0
 11
77.11767589394617
 21
103.7
 31
0.0
  0
LINE
  5
85D
330
1F
100
AcDbEntity
  8
10
100
AcDbLine
 10
70.61767589394617
 20
103.7
 30
0.0
 11
70.61767589394617
 21
111.0000000000002
 31
0.0
  0
LINE
  5
85E
330
1F
100
AcDbEntity
  8
10
100
AcDbLine
 10
61.11767589394526
 20
111.0000000000002
 30
0.0
 11
61.11767589394526
 21
103.7
 31
0.0
  0
LINE
  5
85F
330
1F
100
AcDbEntity
  8
10
100
AcDbLine
 10
69.11767589394526
 20
111.0000000000002
 30
0.0
 11
69.11767589394526
 21
103.7
 31
0.0
  0
LINE
  5
860
330
1F
100
AcDbEntity
  8
10
100
AcDbLine
 10
62.61767589394526
 20
103.7
 30
0.0
 11
62.61767589394526
 21
111.0000000000002
 31
0.0
  0
LINE
  5
861
330
1F
100
AcDbEntity
  8
10
100
AcDbLine
 10
88.86767589394526
 20
98.20000000000003
 30
0.0
 11
88.86767589394526
 21
115.0000000000002
 31
0.0
  0
LINE
  5
862
330
1F
100
AcDbEntity
  8
10
100
AcDbLine
 10
53.11767589394617
 20
111.0000000000002
 30
0.0
 11
53.11767589394617
 21
103.7
 31
0.0
  0
LINE
  5
863
330
1F
100
AcDbEntity
  8
10
100
AcDbLine
 10
54.61767589394526
 20
103.7
 30
0.0
 11
54.61767589394526
 21
111.0000000000002
 31
0.0
  0
LINE
  5
864
330
1F
100
AcDbEntity
  8
10
100
AcDbLine
 10
77.11767589394617
 20
103.7
 30
0.0
 11
70.61767589394617
 21
103.7
 31
0.0
  0
LINE
  5
865
330
1F
100
AcDbEntity
  8
10
100
AcDbLine
 10
70.61767589394617
 20
110.0000000000002
 30
0.0
 11
77.11767589394526
 21
110.0000000000002
 31
0.0
  0
LINE
  5
866
330
1F
100
AcDbEntity
  8
10
100
AcDbLine
 10
68.61767589394526
 20
104.9
 30
0.0
 11
68.61767589394526
 21
105.4
 31
0.0
  0
LINE
  5
867
330
1F
100
AcDbEntity
  8
10
100
AcDbLine
 10
63.11767589394526
 20
105.4
 30
0.0
 11
63.11767589394526
 21
104.9
 31
0.0
  0
LINE
  5
868
330
1F
100
AcDbEntity
  8
10
100
AcDbLine
 10
60.61767589394526
 20
104.9
 30
0.0
 11
60.61767589394617
 21
105.4
 31
0.0
  0
LINE
  5
869
330
1F
100
AcDbEntity
  8
10
100
AcDbLine
 10
68.8176758939462
 20
104.9
 30
0.0
 11
62.91767589394635
 21
104.9
 31
0.0
  0
LINE
  5
86A
330
1F
100
AcDbEntity
  8
10
100
AcDbLine
 10
68.86767589394526
 20
104.2
 30
0.0
 11
68.86767589394526
 21
103.7
 31
0.0
  0
LINE
  5
86B
330
1F
100
AcDbEntity
  8
10
100
AcDbLine
 10
62.86767589394526
 20
103.7
 30
0.0
 11
62.86767589394526
 21
104.2
 31
0.0
  0
LINE
  5
86C
330
1F
100
AcDbEntity
  8
10
100
AcDbLine
 10
60.86767589394526
 20
104.2
 30
0.0
 11
60.86767589394526
 21
103.7
 31
0.0
  0
LINE
  5
86D
330
1F
100
AcDbEntity
  8
10
100
AcDbLine
 10
69.11767589394526
 20
103.7
 30
0.0
 11
62.61767589394526
 21
103.7
 31
0.0
  0
LINE
  5
86E
330
1F
100
AcDbEntity
  8
10
100
AcDbLine
 10
62.86767589394526
 20
104.2
 30
0.0
 11
68.86767589394526
 21
104.2
 31
0.0
  0
LINE
  5
86F
330
1F
100
AcDbEntity
  8
10
100
AcDbLine
 10
62.91767589394635
 20
104.9
 30
0.0
 11
62.91767589394635
 21
104.2
 31
0.0
  0
LINE
  5
870
330
1F
100
AcDbEntity
  8
10
100
AcDbLine
 10
68.8176758939462
 20
104.2
 30
0.0
 11
68.8176758939462
 21
104.9
 31
0.0
  0
LINE
  5
871
330
1F
100
AcDbEntity
  8
10
100
AcDbLine
 10
60.81767589394621
 20
104.2
 30
0.0
 11
60.81767589394621
 21
104.9
 31
0.0
  0
ARC
  5
872
330
1F
100
AcDbEntity
  8
10
100
AcDbCircle
 10
67.11767589394526
 20
105.4
 30
0.0
 40
1.5
100
AcDbArc
 50
0.0
 51
89.99999999996092
  0
ARC
  5
873
330
1F
100
AcDbEntity
  8
10
100
AcDbCircle
 10
64.61767589394526
 20
105.4
 30
0.0
 40
1.5
100
AcDbArc
 50
89.99999999996092
 51
180.0
  0
LINE
  5
874
330
1F
100
AcDbEntity
  8
10
100
AcDbLine
 10
62.61767589394526
 20
110.0000000000002
 30
0.0
 11
69.11767589394526
 21
110.0000000000002
 31
0.0
  0
LINE
  5
875
330
1F
100
AcDbEntity
  8
10
100
AcDbLine
 10
67.11767589394617
 20
106.9
 30
0.0
 11
64.61767589394617
 21
106.9
 31
0.0
  0
LINE
  5
876
330
1F
100
AcDbEntity
  8
10
100
AcDbLine
 10
59.11767589394617
 20
106.9
 30
0.0
 11
56.61767589394617
 21
106.9
 31
0.0
  0
LINE
  5
877
330
1F
100
AcDbEntity
  8
10
100
AcDbLine
 10
55.11767589394617
 20
105.4
 30
0.0
 11
55.11767589394526
 21
104.9
 31
0.0
  0
LINE
  5
878
330
1F
100
AcDbEntity
  8
10
100
AcDbLine
 10
52.61767589394617
 20
104.9
 30
0.0
 11
52.61767589394617
 21
105.4
 31
0.0
  0
LINE
  5
879
330
1F
100
AcDbEntity
  8
10
100
AcDbLine
 10
54.86767589394526
 20
103.7
 30
0.0
 11
54.86767589394526
 21
104.2
 31
0.0
  0
LINE
  5
87A
330
1F
100
AcDbEntity
  8
10
100
AcDbLine
 10
52.86767589394617
 20
104.2
 30
0.0
 11
52.86767589394617
 21
103.7
 31
0.0
  0
LINE
  5
87B
330
1F
100
AcDbEntity
  8
10
100
AcDbLine
 10
54.91767589394635
 20
104.9
 30
0.0
 11
54.91767589394635
 21
104.2
 31
0.0
  0
LINE
  5
87C
330
1F
100
AcDbEntity
  8
10
100
AcDbLine
 10
52.81767589394622
 20
104.2
 30
0.0
 11
52.81767589394622
 21
104.9
 31
0.0
  0
ARC
  5
87D
330
1F
100
AcDbEntity
  8
10
100
AcDbCircle
 10
56.61767589394526
 20
105.4
 30
0.0
 40
1.5
100
AcDbArc
 50
89.99999999996092
 51
180.0
  0
ARC
  5
87E
330
1F
100
AcDbEntity
  8
10
100
AcDbCircle
 10
51.11767589394617
 20
105.4
 30
0.0
 40
1.5
100
AcDbArc
 50
0.0
 51
90.0
  0
LINE
  5
87F
330
1F
100
AcDbEntity
  8
10
100
AcDbLine
 10
51.11767589394617
 20
106.9
 30
0.0
 11
48.61767589394617
 21
106.9
 31
0.0
  0
LINE
  5
880
330
1F
100
AcDbEntity
  8
10
100
AcDbLine
 10
54.61767589394617
 20
110.0000000000002
 30
0.0
 11
61.11767589394526
 21
110.0000000000002
 31
0.0
  0
LINE
  5
881
330
1F
100
AcDbEntity
  8
10
100
AcDbLine
 10
54.86767589394526
 20
104.2
 30
0.0
 11
60.86767589394526
 21
104.2
 31
0.0
  0
LINE
  5
882
330
1F
100
AcDbEntity
  8
10
100
AcDbLine
 10
60.81767589394621
 20
104.9
 30
0.0
 11
54.91767589394635
 21
104.9
 31
0.0
  0
LINE
  5
883
330
1F
100
AcDbEntity
  8
10
100
AcDbLine
 10
61.11767589394526
 20
103.7
 30
0.0
 11
54.61767589394526
 21
103.7
 31
0.0
  0
ARC
  5
884
330
1F
100
AcDbEntity
  8
10
100
AcDbCircle
 10
59.11767589394526
 20
105.4
 30
0.0
 40
1.500000000000999
100
AcDbArc
 50
0.0
 51
89.99999999996092
  0
LINE
  5
885
330
1F
100
AcDbEntity
  8
10
100
AcDbLine
 10
76.61767589394526
 20
104.9
 30
0.0
 11
76.61767589394617
 21
105.4
 31
0.0
  0
LINE
  5
886
330
1F
100
AcDbEntity
  8
10
100
AcDbLine
 10
76.86767589394526
 20
104.2
 30
0.0
 11
76.86767589394526
 21
103.7
 31
0.0
  0
LINE
  5
887
330
1F
100
AcDbEntity
  8
10
100
AcDbLine
 10
76.81767589394621
 20
104.2
 30
0.0
 11
76.81767589394621
 21
104.9
 31
0.0
  0
ARC
  5
888
330
1F
100
AcDbEntity
  8
10
100
AcDbCircle
 10
75.11767589394526
 20
105.4
 30
0.0
 40
1.500000000000999
100
AcDbArc
 50
0.0
 51
89.99999999996092
  0
LINE
  5
889
330
1F
100
AcDbEntity
  8
10
100
AcDbLine
 10
75.11767589394617
 20
106.9
 30
0.0
 11
72.61767589394617
 21
106.9
 31
0.0
  0
LINE
  5
88A
330
1F
100
AcDbEntity
  8
10
100
AcDbLine
 10
71.11767589394617
 20
105.4
 30
0.0
 11
71.11767589394526
 21
104.9
 31
0.0
  0
LINE
  5
88B
330
1F
100
AcDbEntity
  8
10
100
AcDbLine
 10
70.86767589394526
 20
103.7
 30
0.0
 11
70.86767589394526
 21
104.2
 31
0.0
  0
LINE
  5
88C
330
1F
100
AcDbEntity
  8
10
100
AcDbLine
 10
70.91767589394635
 20
104.9
 30
0.0
 11
70.91767589394635
 21
104.2
 31
0.0
  0
LINE
  5
88D
330
1F
100
AcDbEntity
  8
10
100
AcDbLine
 10
76.81767589394621
 20
104.9
 30
0.0
 11
70.91767589394635
 21
104.9
 31
0.0
  0
LINE
  5
88E
330
1F
100
AcDbEntity
  8
10
100
AcDbLine
 10
70.86767589394526
 20
104.2
 30
0.0
 11
76.86767589394526
 21
104.2
 31
0.0
  0
ARC
  5
88F
330
1F
100
AcDbEntity
  8
10
100
AcDbCircle
 10
72.61767589394526
 20
105.4
 30
0.0
 40
1.5
100
AcDbArc
 50
89.99999999996092
 51
180.0
  0
LINE
  5
890
330
1F
100
AcDbEntity
  8
10
100
AcDbLine
 10
86.86767589394525
 20
111.0000000000002
 30
0.0
 11
86.86767589394525
 21
112.9999999999993
 31
0.0
  0
LINE
  5
891
330
1F
100
AcDbEntity
  8
10
100
AcDbLine
 10
86.86767589394525
 20
115.0000000000002
 30
0.0
 11
86.86767589394525
 21
112.9999999999993
 31
0.0
  0
LINE
  5
892
330
1F
100
AcDbEntity
  8
10
100
AcDbLine
 10
88.86767589394526
 20
115.0000000000002
 30
0.0
 11
86.86767589394525
 21
115.0000000000002
 31
0.0
  0
LINE
  5
893
330
1F
100
AcDbEntity
  8
10
100
AcDbLine
 10
221.77655026673
 20
90.69999999999913
 30
0.0
 11
221.7765502667312
 21
72.00000000000024
 31
0.0
  0
LINE
  5
894
330
1F
100
AcDbEntity
  8
10
100
AcDbLine
 10
207.7765502667311
 20
72.00000000000024
 30
0.0
 11
207.7765502667311
 21
90.69999999999913
 31
0.0
  0
LINE
  5
895
330
1F
100
AcDbEntity
  8
10
100
AcDbLine
 10
207.2765502667311
 20
75.00000000000024
 30
0.0
 11
207.2765502667311
 21
88.5000000000002
 31
0.0
  0
LINE
  5
896
330
1F
100
AcDbEntity
  8
10
100
AcDbLine
 10
222.2765502667311
 20
72.00000000000024
 30
0.0
 11
222.2765502667311
 21
90.69999999999913
 31
0.0
  0
LINE
  5
897
330
1F
100
AcDbEntity
  8
10
100
AcDbLine
 10
205.6765502667311
 20
96.20000000000004
 30
0.0
 11
205.6765502667311
 21
75.00000000000024
 31
0.0
  0
LINE
  5
898
330
1F
100
AcDbEntity
  8
10
100
AcDbLine
 10
223.0765502667312
 20
90.70000000000003
 30
0.0
 11
223.0765502667312
 21
73.5000000000002
 31
0.0
  0
LINE
  5
899
330
1F
100
AcDbEntity
  8
10
100
AcDbLine
 10
205.1765502667312
 20
79.15000000000009
 30
0.0
 11
205.1765502667312
 21
87.20000000000004
 31
0.0
  0
ARC
  5
89A
330
1F
100
AcDbEntity
  8
10
100
AcDbCircle
 10
222.0459051054412
 20
83.20000000000005
 30
0.0
 40
4.13064516129
100
AcDbArc
 50
284.4486313880876
 51
75.55136861189962
  0
LINE
  5
89B
330
1F
100
AcDbEntity
  8
10
100
AcDbLine
 10
201.9765502667311
 20
87.2500000000002
 30
0.0
 11
201.9765502667311
 21
79.15000000000009
 31
0.0
  0
LINE
  5
89C
330
1F
100
AcDbEntity
  8
10
100
AcDbLine
 10
201.9765502667311
 20
79.15000000000009
 30
0.0
 11
205.1765502667312
 21
79.15000000000009
 31
0.0
  0
LINE
  5
89D
330
1F
100
AcDbEntity
  8
10
100
AcDbLine
 10
205.1765502667312
 20
85.20000000000004
 30
0.0
 11
198.2765502667313
 21
85.20000000000004
 31
0.0
  0
LINE
  5
89E
330
1F
100
AcDbEntity
  8
10
100
AcDbLine
 10
205.1765502667312
 20
81.20000000000004
 30
0.0
 11
198.2765502667313
 21
81.20000000000004
 31
0.0
  0
LINE
  5
89F
330
1F
100
AcDbEntity
  8
10
100
AcDbLine
 10
198.2765502667313
 20
81.20000000000004
 30
0.0
 11
198.2765502667313
 21
85.20000000000004
 31
0.0
  0
LINE
  5
8A0
330
1F
100
AcDbEntity
  8
10
100
AcDbLine
 10
223.0765502667312
 20
73.5000000000002
 30
0.0
 11
222.2765502667311
 21
73.5000000000002
 31
0.0
  0
LINE
  5
8A1
330
1F
100
AcDbEntity
  8
10
100
AcDbLine
 10
205.6765502667311
 20
79.20000000000005
 30
0.0
 11
205.1765502667312
 21
79.20000000000005
 31
0.0
  0
LINE
  5
8A2
330
1F
100
AcDbEntity
  8
10
100
AcDbLine
 10
207.2765502667311
 20
72.00000000000024
 30
0.0
 11
207.2765502667311
 21
75.00000000000024
 31
0.0
  0
LINE
  5
8A3
330
1F
100
AcDbEntity
  8
10
100
AcDbLine
 10
205.6765502667311
 20
75.00000000000024
 30
0.0
 11
207.2765502667311
 21
75.00000000000024
 31
0.0
  0
LINE
  5
8A4
330
1F
100
AcDbEntity
  8
10
100
AcDbLine
 10
221.7765502667312
 20
73.25000000000024
 30
0.0
 11
207.7765502667311
 21
73.25000000000024
 31
0.0
  0
LINE
  5
8A5
330
1F
100
AcDbEntity
  8
10
100
AcDbLine
 10
207.7765502667311
 20
73.5000000000002
 30
0.0
 11
221.7765502667312
 21
73.5000000000002
 31
0.0
  0
LINE
  5
8A6
330
1F
100
AcDbEntity
  8
10
100
AcDbLine
 10
203.6765502667311
 20
112.9999999999993
 30
0.0
 11
203.6765502667311
 21
98.20000000000003
 31
0.0
  0
LINE
  5
8A7
330
1F
100
AcDbEntity
  8
10
100
AcDbLine
 10
201.6765502667313
 20
98.20000000000003
 30
0.0
 11
201.6765502667313
 21
115.0000000000002
 31
0.0
  0
LINE
  5
8A8
330
1F
100
AcDbEntity
  8
10
100
AcDbLine
 10
222.0765502667322
 20
98.20000000000003
 30
0.0
 11
222.0765502667322
 21
112.9999999999993
 31
0.0
  0
LINE
  5
8A9
330
1F
100
AcDbEntity
  8
10
100
AcDbLine
 10
220.0765502667322
 20
115.0000000000002
 30
0.0
 11
220.0765502667322
 21
103.2
 31
0.0
  0
LINE
  5
8AA
330
1F
100
AcDbEntity
  8
10
100
AcDbLine
 10
209.2765502667322
 20
98.20000000000003
 30
0.0
 11
209.2765502667322
 21
112.9999999999993
 31
0.0
  0
LINE
  5
8AB
330
1F
100
AcDbEntity
  8
10
100
AcDbLine
 10
211.2765502667322
 20
115.0000000000002
 30
0.0
 11
211.2765502667322
 21
103.2
 31
0.0
  0
LINE
  5
8AC
330
1F
100
AcDbEntity
  8
10
100
AcDbLine
 10
205.1765502667312
 20
87.2500000000002
 30
0.0
 11
201.9765502667311
 21
87.2500000000002
 31
0.0
  0
LINE
  5
8AD
330
1F
100
AcDbEntity
  8
10
100
AcDbLine
 10
220.6765502667303
 20
96.60000000000014
 30
0.0
 11
220.6765502667303
 21
98.20000000000003
 31
0.0
  0
LINE
  5
8AE
330
1F
100
AcDbEntity
  8
10
100
AcDbLine
 10
219.1765502667312
 20
104.7
 30
0.0
 11
219.1765502667312
 21
105.000000000001
 31
0.0
  0
LINE
  5
8AF
330
1F
100
AcDbEntity
  8
10
100
AcDbLine
 10
219.6765502667312
 20
103.7
 30
0.0
 11
219.6765502667312
 21
103.2
 31
0.0
  0
LINE
  5
8B0
330
1F
100
AcDbEntity
  8
10
100
AcDbLine
 10
219.4765502667311
 20
103.7
 30
0.0
 11
219.4765502667311
 21
104.7
 31
0.0
  0
LINE
  5
8B1
330
1F
100
AcDbEntity
  8
10
100
AcDbLine
 10
205.1765502667312
 20
87.20000000000004
 30
0.0
 11
205.6765502667311
 21
87.20000000000004
 31
0.0
  0
LINE
  5
8B2
330
1F
100
AcDbEntity
  8
17
 48
5.0
100
AcDbLine
 10
215.6765502667312
 20
108.7057510498562
 30
0.0
 11
215.6765502667312
 21
94.70575104985618
 31
0.0
  0
LINE
  5
8B3
330
1F
100
AcDbEntity
  8
10
100
AcDbLine
 10
212.1765502667313
 20
105.000000000001
 30
0.0
 11
212.1765502667313
 21
104.7
 31
0.0
  0
LINE
  5
8B4
330
1F
100
AcDbEntity
  8
10
100
AcDbLine
 10
211.6765502667312
 20
103.2
 30
0.0
 11
211.6765502667312
 21
103.7
 31
0.0
  0
LINE
  5
8B5
330
1F
100
AcDbEntity
  8
10
100
AcDbLine
 10
211.8765502667312
 20
104.7
 30
0.0
 11
211.8765502667312
 21
103.7
 31
0.0
  0
ARC
  5
8B6
330
1F
100
AcDbEntity
  8
10
100
AcDbCircle
 10
214.4765502667311
 20
105.000000000001
 30
0.0
 40
2.299999999999998
100
AcDbArc
 50
90.0
 51
180.0
  0
ARC
  5
8B7
330
1F
100
AcDbEntity
  8
10
100
AcDbCircle
 10
209.27655026673
 20
94.60000000000013
 30
0.0
 40
2.0
100
AcDbArc
 50
90.0
 51
180.0
  0
LINE
  5
8B8
330
1F
100
AcDbEntity
  8
10
100
AcDbLine
 10
207.2765502667311
 20
94.60000000000013
 30
0.0
 11
207.2765502667311
 21
88.5000000000002
 31
0.0
  0
ARC
  5
8B9
330
1F
100
AcDbEntity
  8
10
100
AcDbCircle
 10
207.6765502667303
 20
96.20000000000004
 30
0.0
 40
2.0
100
AcDbArc
 50
90.0
 51
180.0
  0
LINE
  5
8BA
330
1F
100
AcDbEntity
  8
10
100
AcDbLine
 10
213.4765502667311
 20
103.2
 30
0.0
 11
213.4765502667311
 21
98.20000000000003
 31
0.0
  0
LINE
  5
8BB
330
1F
100
AcDbEntity
  8
10
100
AcDbLine
 10
216.8765502667312
 20
107.3000000000012
 30
0.0
 11
214.4765502667311
 21
107.3000000000012
 31
0.0
  0
LINE
  5
8BC
330
1F
100
AcDbEntity
  8
10
100
AcDbLine
 10
217.8765502667311
 20
103.2
 30
0.0
 11
217.8765502667311
 21
98.20000000000003
 31
0.0
  0
ARC
  5
8BD
330
1F
100
AcDbEntity
  8
10
100
AcDbCircle
 10
216.8765502667312
 20
105.000000000001
 30
0.0
 40
2.299999999999998
100
AcDbArc
 50
0.0
 51
90.0
  0
LINE
  5
8BE
330
1F
100
AcDbEntity
  8
10
100
AcDbLine
 10
219.4765502667311
 20
104.7
 30
0.0
 11
211.8765502667312
 21
104.7
 31
0.0
  0
LINE
  5
8BF
330
1F
100
AcDbEntity
  8
10
100
AcDbLine
 10
211.6765502667312
 20
103.7
 30
0.0
 11
219.6765502667312
 21
103.7
 31
0.0
  0
LINE
  5
8C0
330
1F
100
AcDbEntity
  8
10
100
AcDbLine
 10
211.2765502667322
 20
103.2
 30
0.0
 11
220.0765502667322
 21
103.2
 31
0.0
  0
LINE
  5
8C1
330
1F
100
AcDbEntity
  8
10
100
AcDbLine
 10
223.0765502667312
 20
90.70000000000003
 30
0.0
 11
207.2765502667311
 21
90.70000000000003
 31
0.0
  0
LINE
  5
8C2
330
1F
100
AcDbEntity
  8
10
100
AcDbLine
 10
209.27655026673
 20
96.60000000000014
 30
0.0
 11
220.6765502667303
 21
96.60000000000014
 31
0.0
  0
LINE
  5
8C3
330
1F
100
AcDbEntity
  8
10
100
AcDbLine
 10
203.6765502667311
 20
111.0000000000002
 30
0.0
 11
209.2765502667322
 21
111.0000000000002
 31
0.0
  0
LINE
  5
8C4
330
1F
100
AcDbEntity
  8
10
100
AcDbLine
 10
209.2765502667322
 20
112.9999999999993
 30
0.0
 11
203.6765502667311
 21
112.9999999999993
 31
0.0
  0
LINE
  5
8C5
330
1F
100
AcDbEntity
  8
10
100
AcDbLine
 10
201.6765502667313
 20
115.0000000000002
 30
0.0
 11
211.2765502667322
 21
115.0000000000002
 31
0.0
  0
LINE
  5
8C6
330
1F
100
AcDbEntity
  8
10
100
AcDbLine
 10
211.2765502667322
 20
112.9999999999993
 30
0.0
 11
220.0765502667322
 21
112.9999999999993
 31
0.0
  0
LINE
  5
8C7
330
1F
100
AcDbEntity
  8
10
100
AcDbLine
 10
211.2765502667322
 20
111.0000000000002
 30
0.0
 11
220.0765502667322
 21
111.0000000000002
 31
0.0
  0
ARC
  5
8C8
330
1F
100
AcDbEntity
  8
10
100
AcDbCircle
 10
239.655490703636
 20
102.2610678048328
 30
0.0
 40
16.12207154574242
100
AcDbArc
 50
277.2813714027583
 51
328.9598228066739
  0
ARC
  5
8C9
330
1F
100
AcDbEntity
  8
10
100
AcDbCircle
 10
239.7564843932212
 20
101.5766122155552
 30
0.0
 40
17.91765035831717
100
AcDbArc
 50
278.0984227124597
 51
334.8008869697337
  0
ARC
  5
8CA
330
1F
100
AcDbEntity
  8
10
100
AcDbCircle
 10
246.5477384656171
 20
66.00453091208328
 30
0.0
 40
18.33652909709098
100
AcDbArc
 50
103.4567689135893
 51
160.915115765795
  0
ARC
  5
8CB
330
1F
100
AcDbEntity
  8
10
100
AcDbCircle
 10
240.8624755581221
 20
91.9298620461782
 30
0.0
 40
16.74235487688223
100
AcDbArc
 50
25.53893466573505
 51
88.33151791622265
  0
LINE
  5
8CC
330
1F
100
AcDbEntity
  8
10
100
AcDbLine
 10
227.6765502667312
 20
112.9999999999993
 30
0.0
 11
227.6765502667312
 21
98.20000000000003
 31
0.0
  0
LINE
  5
8CD
330
1F
100
AcDbEntity
  8
10
100
AcDbLine
 10
229.6765502667301
 20
98.20000000000003
 30
0.0
 11
229.6765502667312
 21
115.0000000000002
 31
0.0
  0
ARC
  5
8CE
330
1F
100
AcDbEntity
  8
10
100
AcDbCircle
 10
240.8314008425833
 20
91.33063761988116
 30
0.0
 40
14.8599430879127
100
AcDbArc
 50
31.73980817112844
 51
89.34667940600581
  0
ARC
  5
8CF
330
1F
100
AcDbEntity
  8
10
100
AcDbCircle
 10
262.168590850489
 20
256.2865517610162
 30
0.0
 40
151.5822028994938
100
AcDbArc
 50
260.2361563804957
 51
261.9726745362604
  0
LINE
  5
8D0
330
1F
100
AcDbEntity
  8
10
100
AcDbLine
 10
236.462124955381
 20
106.899999999999
 30
0.0
 11
235.6765502667312
 21
106.899999999999
 31
0.0
  0
LINE
  5
8D1
330
1F
100
AcDbEntity
  8
10
100
AcDbLine
 10
233.6765502667312
 20
110.0000000000002
 30
0.0
 11
233.6765502667312
 21
106.2999999999979
 31
0.0
  0
LINE
  5
8D2
330
1F
100
AcDbEntity
  8
10
100
AcDbLine
 10
233.6765502667312
 20
109.399999999999
 30
0.0
 11
235.6765502667312
 21
109.399999999999
 31
0.0
  0
LINE
  5
8D3
330
1F
100
AcDbEntity
  8
10
100
AcDbLine
 10
236.6765502667312
 20
109.399999999999
 30
0.0
 11
235.6765502667312
 21
109.399999999999
 31
0.0
  0
LINE
  5
8D4
330
1F
100
AcDbEntity
  8
10
100
AcDbLine
 10
235.6765502667312
 20
106.899999999999
 30
0.0
 11
233.6765502667312
 21
106.899999999999
 31
0.0
  0
LINE
  5
8D5
330
1F
100
AcDbEntity
  8
10
100
AcDbLine
 10
235.6765502667312
 20
109.399999999999
 30
0.0
 11
235.6765502667312
 21
106.899999999999
 31
0.0
  0
ARC
  5
8D6
330
1F
100
AcDbEntity
  8
10
100
AcDbCircle
 10
262.168590850489
 20
256.2865517610162
 30
0.0
 40
149.082202899494
100
AcDbArc
 50
260.1544301043579
 51
261.9726745362604
  0
LINE
  5
8D7
330
1F
100
AcDbEntity
  8
10
100
AcDbLine
 10
229.6765502667312
 20
110.0000000000002
 30
0.0
 11
233.6765502667312
 21
110.0000000000002
 31
0.0
  0
LINE
  5
8D8
330
1F
100
AcDbEntity
  8
10
100
AcDbLine
 10
233.6765502667312
 20
106.2999999999979
 30
0.0
 11
229.6765502667312
 21
106.2999999999979
 31
0.0
  0
LINE
  5
8D9
330
1F
100
AcDbEntity
  8
10
100
AcDbLine
 10
253.4689772526179
 20
99.14789871674521
 30
0.0
 11
253.4689772526179
 21
93.94789871674515
 31
0.0
  0
LINE
  5
8DA
330
1F
100
AcDbEntity
  8
10
100
AcDbLine
 10
255.9689772526171
 20
99.14789871674521
 30
0.0
 11
255.9689772526171
 21
93.94789871674515
 31
0.0
  0
VIEWPORT
  5
409
330
23
100
AcDbEntity
 67
     1
  8
0
100
AcDbViewport
 10
142.6315765380859
 20
99.1129140853882
 30
0.0
 40
314.2372683715819
 41
259.7433703258352
 68
     1
 69
     1
1001
ACAD
1000
MVIEW
1002
{
1070
    16
1010
0.0
1020
0.0
1030
0.0
1010
0.0
1020
0.0
1030
1.0
1040
0.0
1040
259.7433703258352
1040
142.6315765380859
1040
99.1129140853882
1040
50.0
1040
0.0
1040
0.0
1070
     0
1070
   100
1070
     1
1070
     1
1070
     0
1070
     0
1070
     0
1070
     0
1040
0.0
1040
0.0
1040
0.0
1040
10.0
1040
10.0
1040
10.0
1040
10.0
1070
     0
1002
{
1002
}
1002
}
  0
VIEWPORT
  5
40B
330
23
100
AcDbEntity
 67
     1
  8
0
100
AcDbViewport
 10
142.6315770149231
 20
99.11291456222535
 30
0.0
 40
228.2105232238769
 41
158.5806632995605
 68
     2
 69
     2
1001
ACAD
1000
MVIEW
1002
{
1070
    16
1010
0.0
1020
0.0
1030
0.0
1010
0.0
1020
0.0
1030
1.0
1040
0.0
1040
437.7797658097811
1040
303.2144175903108
1040
233.3590858733038
1040
50.0
1040
0.0
1040
0.0
1070
     0
1070
   100
1070
     1
1070
     3
1070
     0
1070
     0
1070
     0
1070
     0
1040
0.0
1040
0.0
1040
0.0
1040
10.0
1040
10.0
1040
10.0
1040
10.0
1070
     0
1002
{
1002
}
1002
}
  0
ENDSEC
  0
SECTION
  2
OBJECTS
  0
DICTIONARY
  5
C
330
0
100
AcDbDictionary
  3
ACAD_GROUP
350
D
  3
ACAD_LAYOUT
350
1A
  3
ACAD_MLINESTYLE
350
17
  3
ACAD_PLOTSETTINGS
350
19
  3
ACAD_PLOTSTYLENAME
350
A2A
  3
ACAMCATALOGSTATE
350
5BA
  3
ACASAPPOBJECT
350
53F
  3
ACASGREF_MASTER
350
587
  3
ACDBHEADERROUNDTRIPXREC
350
AB8
  3
ACDBVARIABLEDICTIONARY
350
A33
  3
ACDMSYSVARMGR
350
519
  3
ACGREF_MASTER
350
513
  3
ACGREFACAD_MASTER
350
53B
  3
ACMDICTIONARY
350
5B6
  3
ACME_BOM_MANAGER_NAME
350
50C
  3
ACME_COMMAND_HISTORY
350
507
  3
ACME_SCOPE_NAME
350
506
  3
ACMESTATEMGR
350
511
  3
ACMESYSVARMANAGER
350
508
  3
ACMSYSTEMVARIABLEMANAGER
350
5C4
  3
AD_APPL
350
59E
  3
AD_GREF_MODULE
350
588
  3
AD_MAPI_MODULE
350
5A0
  3
ADSYSVARMGR
350
590
  3
AMDTNAMEDDWGMGR
350
536
  3
AMG
350
4FD
  3
AMGSNAPSETTINGS
350
5D0
  3
AMI_MASTER
350
53E
  3
ASURF_STATIC_VARS
350
540
  3
AUTOCAD_ASSEMBLIES_PROJECT
350
5AB
  3
AUTOSURF_SYSVARS
350
541
  3
DESIGNER_ASSEMBLIES_SYSVARS
350
5A2
  3
DWGPROPS
350
5B9
  3
GREFAM_MODULE
350
58A
  3
MAPISURF_MODULE
350
589
1001
ACAD
1000
TREAT_AS_HARD
1070
     0
  0
DICTIONARY
  5
41
330
2
100
AcDbDictionary
  3
ACAD_LAYERFILTERS
350
3FF
  3
ACAD_LAYERSTATES
350
42
1001
ACAD
1000
TREAT_AS_HARD
1070
     1
  0
DICTIONARY
  5
438
330
1F
100
AcDbDictionary
  3
ACAD_LAYOUTSELFREF
350
AD8
1001
ACAD
1000
TREAT_AS_HARD
1070
     1
  0
DICTIONARY
  5
43A
330
23
100
AcDbDictionary
  3
ACAD_LAYOUTSELFREF
350
AD9
1001
ACAD
1000
TREAT_AS_HARD
1070
     1
  0
DICTIONARY
  5
D
102
{ACAD_REACTORS
330
C
102
}
330
C
100
AcDbDictionary
1001
ACAD
1000
TREAT_AS_HARD
1070
     0
  0
DICTIONARY
  5
1A
102
{ACAD_REACTORS
330
C
102
}
330
C
100
AcDbDictionary
1001
ACAD
1000
TREAT_AS_HARD
1070
     0
  0
DICTIONARY
  5
17
102
{ACAD_REACTORS
330
C
102
}
330
C
100
AcDbDictionary
  3
STANDARD
350
18
1001
ACAD
1000
TREAT_AS_HARD
1070
     0
  0
DICTIONARY
  5
19
102
{ACAD_REACTORS
330
C
102
}
330
C
100
AcDbDictionary
1001
ACAD
1000
TREAT_AS_HARD
1070
     0
  0
ACDBDICTIONARYWDFLT
  5
A2A
102
{ACAD_REACTORS
330
C
102
}
330
C
100
AcDbDictionary
281
     1
  3
Normal
350
A2B
100
AcDbDictionaryWithDefault
340
A2B
  0
ACAD_PROXY_OBJECT
  5
5BA
102
{ACAD_REACTORS
330
C
102
}
330
C
100
AcDbProxyObject
 90
      499
 91
      574
 93
      880
310
3FFFFFFFE00A0284402B0AE2E189C9917189B1C17189719182E32B733B4B732B2B934B733AE32B733B4B732B2B934B733AE26A2A2C5E34B58AE181C1898189A2FA6A2A2AF99222FC6F6483EAE39B4B5BCBAAE232916A420A62FA422A62FA1A0A22E4728C6B641B340ADC1AF400AA65
 94
        0
1001
ACAD
1000
AcadProxyRoundTripData
1071
      565
1071
   851991
1070
     0
  0
ACAD_PROXY_OBJECT
  5
53F
102
{ACAD_REACTORS
330
C
102
}
330
C
100
AcDbProxyObject
 90
      499
 91
      574
 93
       10
310
4044
 94
        0
1001
ACAD
1000
AcadProxyRoundTripData
1071
      537
1071
   851991
1070
     0
  0
ACAD_PROXY_OBJECT
  5
587
102
{ACAD_REACTORS
330
C
102
}
330
C
100
AcDbProxyObject
 90
      499
 91
      574
 93
       34
310
0100004067
 94
        0
1001
ACAD
1000
AcadProxyRoundTripData
1071
      543
1071
   851991
1070
     0
  0
DICTIONARY
  5
AB8
102
{ACAD_REACTORS
330
C
102
}
330
C
100
AcDbDictionary
  3
CEPSNTYPE
350
AC2
  3
FINGERPRINTGUID
350
AC3
  3
HYPERLINKBASE
350
ABB
  3
INSUNITS
350
AC1
  3
LAYOUTDICT
350
ABD
  3
LWETCUNION
350
AC0
  3
PLOTSETDICT
350
ABE
  3
PLOTSTYLNAMDICT
350
ABF
  3
PSVPSCALE
350
AC5
  3
PUCSBASE
350
AC8
  3
PUCSORGBACK
350
ACE
  3
PUCSORGBOTTOM
350
ACA
  3
PUCSORGFRONT
350
ACD
  3
PUCSORGLEFT
350
ACB
  3
PUCSORGRIGHT
350
ACC
  3
PUCSORGTOP
350
AC9
  3
PUCSORTHOREF
350
AC6
  3
PUCSORTHOVIEW
350
AC7
  3
STYLESHEET
350
ABC
  3
TSTACKALIGN
350
AB9
  3
TSTACKSIZE
350
ABA
  3
UCSBASE
350
AD1
  3
UCSORGBACK
350
AD7
  3
UCSORGBOTTOM
350
AD3
  3
UCSORGFRONT
350
AD6
  3
UCSORGLEFT
350
AD4
  3
UCSORGRIGHT
350
AD5
  3
UCSORGTOP
350
AD2
  3
UCSORTHOREF
350
ACF
  3
UCSORTHOVIEW
350
AD0
  3
VERSIONGUID
350
AC4
  0
DICTIONARY
  5
A33
102
{ACAD_REACTORS
330
C
102
}
330
C
100
AcDbDictionary
  3
DIMASSOC
350
A34
  0
ACAD_PROXY_OBJECT
  5
519
102
{ACAD_REACTORS
330
C
102
}
330
C
100
AcDbProxyObject
 90
      499
 91
      574
 93
      240
310
4C51A48200000000000000000000000000000000000000000000000000004C
330
51A
330
51B
330
51C
330
51D
330
51E
330
51F
330
520
330
523
330
524
330
525
330
526
330
527
330
528
330
529
330
52A
330
52B
330
52C
330
52D
330
52E
330
52F
330
530
330
531
330
532
330
533
330
534
330
535
 94
        0
1001
ACAD
1000
AcadProxyRoundTripData
1071
      516
1071
   851991
1070
     0
  0
ACAD_PROXY_OBJECT
  5
513
102
{ACAD_REACTORS
330
C
102
}
330
C
100
AcDbProxyObject
 90
      499
 91
      574
 93
       34
310
04000042A7
 94
        0
1001
ACAD
1000
AcadProxyRoundTripData
1071
      525
1071
   851991
1070
     0
  0
ACAD_PROXY_OBJECT
  5
53B
102
{ACAD_REACTORS
330
C
102
}
330
C
100
AcDbProxyObject
 90
      499
 91
      574
 93
      114
310
04000041C000000000000000000000
 94
        0
1001
ACAD
1000
AcadProxyRoundTripData
1071
      533
1071
   851991
1070
     0
  0
DICTIONARY
  5
5B6
102
{ACAD_REACTORS
330
C
102
}
330
C
100
AcDbDictionary
  3
ACMBOMDATA
350
5B7
1001
ACAD
1000
TREAT_AS_HARD
1070
     0
  0
ACAD_PROXY_OBJECT
  5
50C
102
{ACAD_REACTORS
330
C
102
}
330
C
100
AcDbProxyObject
 90
      499
 91
      574
 93
       50
310
00000040400025
330
0
330
0
330
50D
 94
        0
1001
ACAD
1000
AcadProxyRoundTripData
1071
      519
1071
   851991
1070
     0
  0
ACAD_PROXY_OBJECT
  5
507
102
{ACAD_REACTORS
330
C
102
}
330
C
100
AcDbProxyObject
 90
      499
 91
      574
 93
      778
310
424050E414D4454524553455444424D4F4440805084E202D20554E444F014213880B4815539113C0507544F4F4C42415280504554E444F80504554E444F80504554E444F80504554E444F80504554E444F80505455241534580506534156454153A4
 94
        0
1001
ACAD
1000
AcadProxyRoundTripData
1071
      515
1071
   851991
1070
     0
  0
ACAD_PROXY_OBJECT
  5
506
102
{ACAD_REACTORS
330
C
102
}
330
C
100
AcDbProxyObject
 90
      499
 91
      574
 93
     1242
310
06000044400000000000000000001840000400020000000000000000000000000000000000000000000000000000000000000000000000000000000000000000000000000000000000000000000000000000000000000000000000000000000000000000000000000000000000000000000000000000000000000000000000
310
00000000000000000000000000000000000000000000000000AAAAAAB2
360
509
360
50A
360
50B
360
50D
360
514
360
515
360
516
360
517
360
51A
360
51B
360
51C
360
51D
360
51E
360
51F
360
520
360
523
360
524
360
525
360
526
360
527
360
528
360
529
360
52A
360
52B
360
52C
360
52D
360
52E
360
52F
360
530
360
531
360
532
360
533
360
534
360
535
360
542
360
543
360
544
360
545
360
546
360
547
360
548
360
549
360
54A
360
54B
360
54C
360
54D
360
54E
360
54F
360
550
360
551
360
552
360
553
360
554
360
555
360
556
360
557
360
558
360
559
360
55A
360
55B
360
55C
360
55D
360
55E
360
55F
360
560
360
561
360
562
360
563
360
564
360
565
360
566
360
567
360
568
360
569
360
56A
360
56B
360
56C
360
56D
360
56E
360
56F
360
570
360
571
360
572
360
573
360
574
360
575
360
576
360
577
360
578
360
579
360
57A
360
57B
360
57C
360
57D
360
57E
360
57F
360
580
360
581
360
582
360
583
360
58C
360
58D
360
58E
360
58F
360
591
360
592
360
593
360
594
360
595
360
596
360
597
360
598
360
599
360
59A
360
59B
360
59C
360
59D
360
5A3
360
5A4
360
5A5
360
5A6
360
5A7
360
5A8
360
5A9
360
5AA
360
5AF
360
5B0
360
5B1
360
5B2
360
5B3
360
5B4
360
5C5
 94
        0
1001
ACAD
1000
AcadProxyRoundTripData
1071
      514
1071
   851991
1070
     0
  0
ACAD_PROXY_OBJECT
  5
511
102
{ACAD_REACTORS
330
C
102
}
330
C
100
AcDbProxyObject
 90
      499
 91
      574
 93
       50
310
060000416412A5
 94
        0
1001
ACAD
1000
AcadProxyRoundTripData
1071
      524
1071
   851991
1070
     0
  0
ACAD_PROXY_OBJECT
  5
508
102
{ACAD_REACTORS
330
C
102
}
330
C
100
AcDbProxyObject
 90
      499
 91
      574
 93
       48
310
90342200000011
330
509
330
50A
330
50B
 94
        0
1001
ACAD
1000
AcadProxyRoundTripData
1071
      516
1071
   851991
1070
     0
  0
ACAD_PROXY_OBJECT
  5
5C4
102
{ACAD_REACTORS
330
C
102
}
330
C
100
AcDbProxyObject
 90
      499
 91
      574
 93
       32
310
9014220000
330
5C5
 94
        0
1001
ACAD
1000
AcadProxyRoundTripData
1071
      516
1071
   851991
1070
     0
  0
ACAD_PROXY_OBJECT
  5
59E
102
{ACAD_REACTORS
330
C
102
}
330
C
100
AcDbProxyObject
 90
      499
 91
      574
 93
       42
310
0006000043C1
330
58C
 94
        0
1001
ACAD
1000
AcadProxyRoundTripData
1071
      552
1071
   851991
1070
     0
  0
ACAD_PROXY_OBJECT
  5
588
102
{ACAD_REACTORS
330
C
102
}
330
C
100
AcDbProxyObject
 90
      499
 91
      574
 93
      114
310
000000438000000000000000000036
 94
        0
1001
ACAD
1000
AcadProxyRoundTripData
1071
      544
1071
   851991
1070
     0
  0
ACAD_PROXY_OBJECT
  5
5A0
102
{ACAD_REACTORS
330
C
102
}
330
C
100
AcDbProxyObject
 90
      499
 91
      574
 93
       34
310
05000044E7
 94
        0
1001
ACAD
1000
AcadProxyRoundTripData
1071
      554
1071
   851991
1070
     0
  0
ACAD_PROXY_OBJECT
  5
590
102
{ACAD_REACTORS
330
C
102
}
330
C
100
AcDbProxyObject
 90
      499
 91
      574
 93
      128
310
90D4420000000000000000000000000000
330
591
330
592
330
593
330
594
330
595
330
596
330
597
330
598
330
599
330
59A
330
59B
330
59C
330
59D
 94
        0
1001
ACAD
1000
AcadProxyRoundTripData
1071
      516
1071
   851991
1070
     0
  0
ACAD_PROXY_OBJECT
  5
536
102
{ACAD_REACTORS
330
C
102
}
330
C
100
AcDbProxyObject
 90
      499
 91
      574
 93
       42
310
000100005AC1
330
514
 94
        0
1001
ACAD
1000
AcadProxyRoundTripData
1071
      530
1071
   851991
1070
     0
  0
DICTIONARY
  5
4FD
102
{ACAD_REACTORS
330
C
102
}
330
C
100
AcDbDictionary
  3
ACMGSETTINGS
350
4FE
  3
AMGLAYCFG
350
5C3
1001
ACAD
1000
TREAT_AS_HARD
1070
     0
  0
DICTIONARY
  5
5D0
102
{ACAD_REACTORS
330
C
102
}
330
C
100
AcDbDictionary
  3
DIMENSION
350
5D5
  3
FEA
350
5D4
  3
HATCH__1_
350
5D1
  3
HATCH__2_
350
5D2
  3
SIMPLE_WELD
350
5D6
  3
SYMBOLS
350
5D3
1001
ACAD
1000
TREAT_AS_HARD
1070
     0
  0
ACAD_PROXY_OBJECT
  5
53E
102
{ACAD_REACTORS
330
C
102
}
330
C
100
AcDbProxyObject
 90
      499
 91
      574
 93
       34
310
05000042A7
 94
        0
1001
ACAD
1000
AcadProxyRoundTripData
1071
      536
1071
   851991
1070
     0
  0
ACAD_PROXY_OBJECT
  5
540
102
{ACAD_REACTORS
330
C
102
}
330
C
100
AcDbProxyObject
 90
      499
 91
      574
 93
      424
310
585315020000000000000000000000000000000000000000000000000000000000000000000000000000000000000000000000000000
330
553
330
554
330
555
330
556
330
557
330
558
330
559
330
55A
330
55B
330
55C
330
55D
330
55E
330
55F
330
560
330
561
330
562
330
563
330
564
330
565
330
566
330
567
330
568
330
569
330
56A
330
56B
330
56C
330
56D
330
56E
330
56F
330
570
330
571
330
572
330
573
330
574
330
575
330
576
330
577
330
578
330
579
330
57A
330
57B
330
57C
330
57D
330
57E
330
57F
330
580
330
581
330
582
330
583
 94
        0
1001
ACAD
1000
AcadProxyRoundTripData
1071
      538
1071
   851991
1070
     0
  0
ACAD_PROXY_OBJECT
  5
5AB
102
{ACAD_REACTORS
330
C
102
}
330
C
100
AcDbProxyObject
 90
      499
 91
      574
 93
       74
310
0600004A400000000010
330
5B2
330
0
330
5B3
330
0
330
0
 94
        0
1001
ACAD
1000
AcadProxyRoundTripData
1071
      556
1071
   851991
1070
     0
  0
ACAD_PROXY_OBJECT
  5
541
102
{ACAD_REACTORS
330
C
102
}
330
C
100
AcDbProxyObject
 90
      499
 91
      574
 93
      168
310
4C511482000000000000000000000000000000000000
330
542
330
543
330
544
330
545
330
546
330
547
330
548
330
549
330
54A
330
54B
330
54C
330
54D
330
54E
330
54F
330
550
330
551
330
552
 94
        0
1001
ACAD
1000
AcadProxyRoundTripData
1071
      516
1071
   851991
1070
     0
  0
ACAD_PROXY_OBJECT
  5
5A2
102
{ACAD_REACTORS
330
C
102
}
330
C
100
AcDbProxyObject
 90
      499
 91
      574
 93
       88
310
908422000000000000000061
330
5A3
330
5A4
330
5A5
330
5A6
330
5A7
330
5A8
330
5A9
330
5AA
 94
        0
1001
ACAD
1000
AcadProxyRoundTripData
1071
      516
1071
   851991
1070
     0
  0
XRECORD
  5
5B9
102
{ACAD_REACTORS
330
C
102
}
330
C
100
AcDbXrecord
  1
DWGPROPS COOKIE
  2

  3

  4

  6

  7

  8

  9

300
AmdtFileType=84
301
=
302
=
303
=
304
=
305
=
306
=
307
=
308
=
309
=
 40
0.005163125
 41
2454596.550355717
 42
2454596.675773645
  1

 90
        1
  0
ACAD_PROXY_OBJECT
  5
58A
102
{ACAD_REACTORS
330
C
102
}
330
C
100
AcDbProxyObject
 90
      499
 91
      574
 93
        8
310
0500
 94
        0
1001
ACAD
1000
AcadProxyRoundTripData
1071
      546
1071
   851991
1070
     0
  0
ACAD_PROXY_OBJECT
  5
589
102
{ACAD_REACTORS
330
C
102
}
330
C
100
AcDbProxyObject
 90
      499
 91
      574
 93
        8
310
0405
 94
        0
1001
ACAD
1000
AcadProxyRoundTripData
1071
      545
1071
   851991
1070
     0
  0
DICTIONARY
  5
3FF
102
{ACAD_REACTORS
330
41
102
}
330
41
100
AcDbDictionary
1001
ACAD
1000
TREAT_AS_HARD
1070
     1
  0
DICTIONARY
  5
42
102
{ACAD_REACTORS
330
41
102
}
330
41
100
AcDbDictionary
1001
ACAD
1000
TREAT_AS_HARD
1070
     0
  0
XRECORD
  5
AD8
102
{ACAD_REACTORS
330
438
102
}
330
438
100
AcDbXrecord
340
1F
  0
XRECORD
  5
AD9
102
{ACAD_REACTORS
330
43A
102
}
330
43A
100
AcDbXrecord
340
23
  0
MLINESTYLE
  5
18
102
{ACAD_REACTORS
330
17
102
}
330
17
100
AcDbMlineStyle
  2
STANDARD
 70
     0
  3

 62
   256
 51
90.0
 52
90.0
 71
     2
 49
0.5
 62
   256
  6
BYLAYER
 49
-0.5
 62
   256
  6
BYLAYER
  0
ACDBPLACEHOLDER
  5
A2B
102
{ACAD_REACTORS
330
A2A
102
}
330
A2A
100
AcDbPlaceHolder
280
     0
  0
XRECORD
  5
AC2
102
{ACAD_REACTORS
330
AB8
102
}
330
AB8
100
AcDbXrecord
 90
        0
  0
XRECORD
  5
AC3
102
{ACAD_REACTORS
330
AB8
102
}
330
AB8
100
AcDbXrecord
  1
{25AA3202-FA22-42A3-983E-E2A6E23162B2}
  0
XRECORD
  5
ABB
102
{ACAD_REACTORS
330
AB8
102
}
330
AB8
100
AcDbXrecord
  1

  0
XRECORD
  5
AC1
102
{ACAD_REACTORS
330
AB8
102
}
330
AB8
100
AcDbXrecord
 90
        0
  0
XRECORD
  5
ABD
102
{ACAD_REACTORS
330
AB8
102
}
330
AB8
100
AcDbXrecord
340
1A
  0
XRECORD
  5
AC0
102
{ACAD_REACTORS
330
AB8
102
}
330
AB8
100
AcDbXrecord
 90
    10781
  0
XRECORD
  5
ABE
102
{ACAD_REACTORS
330
AB8
102
}
330
AB8
100
AcDbXrecord
340
19
  0
XRECORD
  5
ABF
102
{ACAD_REACTORS
330
AB8
102
}
330
AB8
100
AcDbXrecord
340
A2A
  0
XRECORD
  5
AC5
102
{ACAD_REACTORS
330
AB8
102
}
330
AB8
100
AcDbXrecord
 40
0.0
  0
XRECORD
  5
AC8
102
{ACAD_REACTORS
330
AB8
102
}
330
AB8
100
AcDbXrecord
340
0
  0
XRECORD
  5
ACE
102
{ACAD_REACTORS
330
AB8
102
}
330
AB8
100
AcDbXrecord
 10
0.0
 20
0.0
 30
0.0
  0
XRECORD
  5
ACA
102
{ACAD_REACTORS
330
AB8
102
}
330
AB8
100
AcDbXrecord
 10
0.0
 20
0.0
 30
0.0
  0
XRECORD
  5
ACD
102
{ACAD_REACTORS
330
AB8
102
}
330
AB8
100
AcDbXrecord
 10
0.0
 20
0.0
 30
0.0
  0
XRECORD
  5
ACB
102
{ACAD_REACTORS
330
AB8
102
}
330
AB8
100
AcDbXrecord
 10
0.0
 20
0.0
 30
0.0
  0
XRECORD
  5
ACC
102
{ACAD_REACTORS
330
AB8
102
}
330
AB8
100
AcDbXrecord
 10
0.0
 20
0.0
 30
0.0
  0
XRECORD
  5
AC9
102
{ACAD_REACTORS
330
AB8
102
}
330
AB8
100
AcDbXrecord
 10
0.0
 20
0.0
 30
0.0
  0
XRECORD
  5
AC6
102
{ACAD_REACTORS
330
AB8
102
}
330
AB8
100
AcDbXrecord
340
0
  0
XRECORD
  5
AC7
102
{ACAD_REACTORS
330
AB8
102
}
330
AB8
100
AcDbXrecord
 70
     0
  0
XRECORD
  5
ABC
102
{ACAD_REACTORS
330
AB8
102
}
330
AB8
100
AcDbXrecord
  1
monochrome.ctb
  0
XRECORD
  5
AB9
102
{ACAD_REACTORS
330
AB8
102
}
330
AB8
100
AcDbXrecord
 90
        1
  0
XRECORD
  5
ABA
102
{ACAD_REACTORS
330
AB8
102
}
330
AB8
100
AcDbXrecord
 90
       70
  0
XRECORD
  5
AD1
102
{ACAD_REACTORS
330
AB8
102
}
330
AB8
100
AcDbXrecord
340
0
  0
XRECORD
  5
AD7
102
{ACAD_REACTORS
330
AB8
102
}
330
AB8
100
AcDbXrecord
 10
0.0
 20
0.0
 30
0.0
  0
XRECORD
  5
AD3
102
{ACAD_REACTORS
330
AB8
102
}
330
AB8
100
AcDbXrecord
 10
0.0
 20
0.0
 30
0.0
  0
XRECORD
  5
AD6
102
{ACAD_REACTORS
330
AB8
102
}
330
AB8
100
AcDbXrecord
 10
0.0
 20
0.0
 30
0.0
  0
XRECORD
  5
AD4
102
{ACAD_REACTORS
330
AB8
102
}
330
AB8
100
AcDbXrecord
 10
0.0
 20
0.0
 30
0.0
  0
XRECORD
  5
AD5
102
{ACAD_REACTORS
330
AB8
102
}
330
AB8
100
AcDbXrecord
 10
0.0
 20
0.0
 30
0.0
  0
XRECORD
  5
AD2
102
{ACAD_REACTORS
330
AB8
102
}
330
AB8
100
AcDbXrecord
 10
0.0
 20
0.0
 30
0.0
  0
XRECORD
  5
ACF
102
{ACAD_REACTORS
330
AB8
102
}
330
AB8
100
AcDbXrecord
340
0
  0
XRECORD
  5
AD0
102
{ACAD_REACTORS
330
AB8
102
}
330
AB8
100
AcDbXrecord
 70
     0
  0
XRECORD
  5
AC4
102
{ACAD_REACTORS
330
AB8
102
}
330
AB8
100
AcDbXrecord
  1
{2E4CA536-2E8F-4179-B283-4540E7D19EAB}
  0
DICTIONARYVAR
  5
A34
102
{ACAD_REACTORS
330
A33
102
}
330
A33
100
DictionaryVariables
280
     0
  1
1
  0
ACAD_PROXY_OBJECT
  5
5B7
102
{ACAD_REACTORS
330
5B6
102
}
330
5B6
100
AcDbProxyObject
 90
      499
 91
      574
 93
      118
310
405010040CA904C415CD5B0757102A
350
5B8
 94
        0
1001
ACAD
1000
AcadProxyRoundTripData
1071
      563
1071
   851991
1070
     0
  0
ACAD_PROXY_OBJECT
  5
509
330
0
100
AcDbProxyObject
 90
      499
 91
      574
 93
      156
310
00010143D050D351505391D5531054925390D492
330
506
 94
        0
1001
ACAD
1000
AcadProxyRoundTripData
1071
      517
1071
   851991
1070
     0
  0
ACAD_PROXY_OBJECT
  5
50A
330
0
100
AcDbProxyObject
 90
      499
 91
      574
 93
      148
310
000101439050D351531253915054925390D490
330
506
 94
        0
1001
ACAD
1000
AcadProxyRoundTripData
1071
      517
1071
   851991
1070
     0
  0
ACAD_PROXY_OBJECT
  5
50B
330
0
100
AcDbProxyObject
 90
      499
 91
      574
 93
      156
310
000101439050D35154D6535093D314D256915082
330
506
 94
        0
1001
ACAD
1000
AcadProxyRoundTripData
1071
      518
1071
   851991
1070
     0
  0
ACAD_PROXY_OBJECT
  5
50D
330
0
100
AcDbProxyObject
 90
      499
 91
      574
 93
      120
310
000101422565255A6557080C402B002D
330
506
330
0
330
0
 94
        0
1001
ACAD
1000
AcadProxyRoundTripData
1071
      520
1071
   851991
1070
     0
  0
ACAD_PROXY_OBJECT
  5
514
330
0
100
AcDbProxyObject
 90
      499
 91
      574
 93
      358
310
0001014124FEA55D00507362E332E302E31014124FEA55D00507362E332E302E3140501000041505391D311658
330
506
330
515
330
519
 94
        0
1001
ACAD
1000
AcadProxyRoundTripData
1071
      526
1071
   851991
1070
     0
  0
ACAD_PROXY_OBJECT
  5
515
330
0
100
AcDbProxyObject
 90
      499
 91
      574
 93
       48
310
00019014220011
330
506
330
516
 94
        0
1001
ACAD
1000
AcadProxyRoundTripData
1071
      527
1071
   851991
1070
     0
  0
ACAD_PROXY_OBJECT
  5
516
330
0
100
AcDbProxyObject
 90
      499
 91
      574
 93
       48
310
0001AA00000011
330
506
330
4F8
330
517
330
0
 94
        0
1001
ACAD
1000
AcadProxyRoundTripData
1071
      528
1071
   851991
1070
     0
  0
ACAD_PROXY_OBJECT
  5
517
330
0
100
AcDbProxyObject
 90
      499
 91
      574
 93
       28
310
0001AAA4
330
506
 94
        0
1001
ACAD
1000
AcadProxyRoundTripData
1071
      529
1071
   851991
1070
     0
  0
ACAD_PROXY_OBJECT
  5
51A
330
0
100
AcDbProxyObject
 90
      499
 91
      574
 93
      108
310
000101421053521310D05310D013
330
506
 94
        0
1001
ACAD
1000
AcadProxyRoundTripData
1071
      518
1071
   851991
1070
     0
  0
ACAD_PROXY_OBJECT
  5
51B
330
0
100
AcDbProxyObject
 90
      499
 91
      574
 93
      124
310
00010142905354915554D15112535013
330
506
 94
        0
1001
ACAD
1000
AcadProxyRoundTripData
1071
      518
1071
   851991
1070
     0
  0
ACAD_PROXY_OBJECT
  5
51C
330
0
100
AcDbProxyObject
 90
      499
 91
      574
 93
      132
310
00010143105354D150D51253D391125362
330
506
 94
        0
1001
ACAD
1000
AcadProxyRoundTripData
1071
      518
1071
   851991
1070
     0
  0
ACAD_PROXY_OBJECT
  5
51D
330
0
100
AcDbProxyObject
 90
      499
 91
      574
 93
      124
310
00010142905355941093D49111549014
330
506
 94
        0
1001
ACAD
1000
AcadProxyRoundTripData
1071
      518
1071
   851991
1070
     0
  0
ACAD_PROXY_OBJECT
  5
51E
330
0
100
AcDbProxyObject
 90
      499
 91
      574
 93
      116
310
0001014290535115D1D0D3D313D4A1
330
506
 94
        0
1001
ACAD
1000
AcadProxyRoundTripData
1071
      518
1071
   851991
1070
     0
  0
ACAD_PROXY_OBJECT
  5
51F
330
0
100
AcDbProxyObject
 90
      499
 91
      574
 93
      148
310
00010143505355925155D49151949154D21015
330
506
 94
        0
1001
ACAD
1000
AcadProxyRoundTripData
1071
      518
1071
   851991
1070
     0
  0
ACAD_PROXY_OBJECT
  5
520
330
0
100
AcDbProxyObject
 90
      499
 91
      574
 93
      172
310
00010144105350539393D51154149154D15495915010
330
506
 94
        0
1001
ACAD
1000
AcadProxyRoundTripData
1071
      518
1071
   851991
1070
     0
  0
ACAD_PROXY_OBJECT
  5
523
330
0
100
AcDbProxyObject
 90
      499
 91
      574
 93
      172
310
00010144105350555513D11253505494905391D15010
330
506
 94
        0
1001
ACAD
1000
AcadProxyRoundTripData
1071
      518
1071
   851991
1070
     0
  0
ACAD_PROXY_OBJECT
  5
524
330
0
100
AcDbProxyObject
 90
      499
 91
      574
 93
      124
310
00010142D05351561514915191125360
330
506
 94
        0
1001
ACAD
1000
AcadProxyRoundTripData
1071
      518
1071
   851991
1070
     0
  0
ACAD_PROXY_OBJECT
  5
525
330
0
100
AcDbProxyObject
 90
      499
 91
      574
 93
      132
310
00010142D05355105410539393D5115013
330
506
 94
        0
1001
ACAD
1000
AcadProxyRoundTripData
1071
      518
1071
   851991
1070
     0
  0
ACAD_PROXY_OBJECT
  5
526
330
0
100
AcDbProxyObject
 90
      499
 91
      574
 93
      108
310
00010142105350555513D0D31013
330
506
 94
        0
1001
ACAD
1000
AcadProxyRoundTripData
1071
      518
1071
   851991
1070
     0
  0
ACAD_PROXY_OBJECT
  5
527
330
0
100
AcDbProxyObject
 90
      499
 91
      574
 93
      108
310
00010142105350D3119150551053
330
506
 94
        0
1001
ACAD
1000
AcadProxyRoundTripData
1071
      518
1071
   851991
1070
     0
  0
ACAD_PROXY_OBJECT
  5
528
330
0
100
AcDbProxyObject
 90
      499
 91
      574
 93
      108
310
00010142105350D315925155D3F3
330
506
 94
        0
1001
ACAD
1000
AcadProxyRoundTripData
1071
      518
1071
   851991
1070
     0
  0
ACAD_PROXY_OBJECT
  5
529
330
0
100
AcDbProxyObject
 90
      499
 91
      574
 93
      148
310
0001014350535212511156915493D112535010
330
506
 94
        0
1001
ACAD
1000
AcadProxyRoundTripData
1071
      518
1071
   851991
1070
     0
  0
ACAD_PROXY_OBJECT
  5
52A
330
0
100
AcDbProxyObject
 90
      499
 91
      574
 93
      124
310
00010142905352105510D21254D3D013
330
506
 94
        0
1001
ACAD
1000
AcadProxyRoundTripData
1071
      518
1071
   851991
1070
     0
  0
ACAD_PROXY_OBJECT
  5
52B
330
0
100
AcDbProxyObject
 90
      499
 91
      574
 93
      148
310
00010143905354D25391D31152105513105660
330
506
 94
        0
1001
ACAD
1000
AcadProxyRoundTripData
1071
      518
1071
   851991
1070
     0
  0
ACAD_PROXY_OBJECT
  5
52C
330
0
100
AcDbProxyObject
 90
      499
 91
      574
 93
      124
310
00010142D0535115D1D193111254D424
330
506
 94
        0
1001
ACAD
1000
AcadProxyRoundTripData
1071
      518
1071
   851991
1070
     0
  0
ACAD_PROXY_OBJECT
  5
52D
330
0
100
AcDbProxyObject
 90
      499
 91
      574
 93
      100
310
00010142105350555513D213A5
330
506
 94
        0
1001
ACAD
1000
AcadProxyRoundTripData
1071
      518
1071
   851991
1070
     0
  0
ACAD_PROXY_OBJECT
  5
52E
330
0
100
AcDbProxyObject
 90
      499
 91
      574
 93
      116
310
000101425053521390D3D553951013
330
506
 94
        0
1001
ACAD
1000
AcadProxyRoundTripData
1071
      518
1071
   851991
1070
     0
  0
ACAD_PROXY_OBJECT
  5
52F
330
0
100
AcDbProxyObject
 90
      499
 91
      574
 93
      108
310
0001014210535213941493D29010
330
506
 94
        0
1001
ACAD
1000
AcadProxyRoundTripData
1071
      518
1071
   851991
1070
     0
  0
ACAD_PROXY_OBJECT
  5
530
330
0
100
AcDbProxyObject
 90
      499
 91
      574
 93
      108
310
0001014210535213951654115070
330
506
 94
        0
1001
ACAD
1000
AcadProxyRoundTripData
1071
      518
1071
   851991
1070
     0
  0
ACAD_PROXY_OBJECT
  5
531
330
0
100
AcDbProxyObject
 90
      499
 91
      574
 93
      108
310
000101421053521395925155D0F0
330
506
 94
        0
1001
ACAD
1000
AcadProxyRoundTripData
1071
      518
1071
   851991
1070
     0
  0
ACAD_PROXY_OBJECT
  5
532
330
0
100
AcDbProxyObject
 90
      499
 91
      574
 93
      140
310
00010143505354D150D51253D390D3D41665
330
506
 94
        0
1001
ACAD
1000
AcadProxyRoundTripData
1071
      518
1071
   851991
1070
     0
  0
ACAD_PROXY_OBJECT
  5
533
330
0
100
AcDbProxyObject
 90
      499
 91
      574
 93
      108
310
00010142105350D3141493D29030
330
506
 94
        0
1001
ACAD
1000
AcadProxyRoundTripData
1071
      518
1071
   851991
1070
     0
  0
ACAD_PROXY_OBJECT
  5
534
330
0
100
AcDbProxyObject
 90
      499
 91
      574
 93
      212
310
00010143905350555513D2105510D21493D500000000000002E400
330
506
 94
        0
1001
ACAD
1000
AcadProxyRoundTripData
1071
      517
1071
   851991
1070
     0
  0
ACAD_PROXY_OBJECT
  5
535
330
0
100
AcDbProxyObject
 90
      499
 91
      574
 93
      156
310
00010143905350555513D2105510D21111551010
330
506
 94
        0
1001
ACAD
1000
AcadProxyRoundTripData
1071
      518
1071
   851991
1070
     0
  0
ACAD_PROXY_OBJECT
  5
542
330
0
100
AcDbProxyObject
 90
      499
 91
      574
 93
      116
310
000101425053541051D15311539191
330
506
 94
        0
1001
ACAD
1000
AcadProxyRoundTripData
1071
      518
1071
   851991
1070
     0
  0
ACAD_PROXY_OBJECT
  5
543
330
0
100
AcDbProxyObject
 90
      499
 91
      574
 93
      108
310
000101421053555312539154D053
330
506
 94
        0
1001
ACAD
1000
AcadProxyRoundTripData
1071
      518
1071
   851991
1070
     0
  0
ACAD_PROXY_OBJECT
  5
544
330
0
100
AcDbProxyObject
 90
      499
 91
      574
 93
      108
310
000101421053559312539154D033
330
506
 94
        0
1001
ACAD
1000
AcadProxyRoundTripData
1071
      518
1071
   851991
1070
     0
  0
ACAD_PROXY_OBJECT
  5
545
330
0
100
AcDbProxyObject
 90
      499
 91
      574
 93
      140
310
00010143105354D1911254D41353D111501A
330
506
 94
        0
1001
ACAD
1000
AcadProxyRoundTripData
1071
      518
1071
   851991
1070
     0
  0
ACAD_PROXY_OBJECT
  5
546
330
0
100
AcDbProxyObject
 90
      499
 91
      574
 93
      172
310
00010142505354119255105391C1C052DC9A6F104403
330
506
 94
        0
1001
ACAD
1000
AcadProxyRoundTripData
1071
      517
1071
   851991
1070
     0
  0
ACAD_PROXY_OBJECT
  5
547
330
0
100
AcDbProxyObject
 90
      499
 91
      574
 93
      164
310
000101421053559150D05551C000000000000E03F8
330
506
 94
        0
1001
ACAD
1000
AcadProxyRoundTripData
1071
      517
1071
   851991
1070
     0
  0
ACAD_PROXY_OBJECT
  5
548
330
0
100
AcDbProxyObject
 90
      499
 91
      574
 93
      180
310
00010142905350931153911513D307B14AE47E17A843F3
330
506
 94
        0
1001
ACAD
1000
AcadProxyRoundTripData
1071
      517
1071
   851991
1070
     0
  0
ACAD_PROXY_OBJECT
  5
549
330
0
100
AcDbProxyObject
 90
      499
 91
      574
 93
      172
310
0001014250535293D25391D05407B14AE47E17A843F8
330
506
 94
        0
1001
ACAD
1000
AcadProxyRoundTripData
1071
      517
1071
   851991
1070
     0
  0
ACAD_PROXY_OBJECT
  5
54A
330
0
100
AcDbProxyObject
 90
      499
 91
      574
 93
      172
310
000101425053541192551311538000000FC83D797418
330
506
 94
        0
1001
ACAD
1000
AcadProxyRoundTripData
1071
      517
1071
   851991
1070
     0
  0
ACAD_PROXY_OBJECT
  5
54B
330
0
100
AcDbProxyObject
 90
      499
 91
      574
 93
      156
310
00010141D053559150D4D18000000000000E03F8
330
506
 94
        0
1001
ACAD
1000
AcadProxyRoundTripData
1071
      517
1071
   851991
1070
     0
  0
ACAD_PROXY_OBJECT
  5
54C
330
0
100
AcDbProxyObject
 90
      499
 91
      574
 93
      156
310
00010141D05354D19513D309A9999999999993F8
330
506
 94
        0
1001
ACAD
1000
AcadProxyRoundTripData
1071
      517
1071
   851991
1070
     0
  0
ACAD_PROXY_OBJECT
  5
54D
330
0
100
AcDbProxyObject
 90
      499
 91
      574
 93
      172
310
000101425053541192551513D307B14AE47E17A843F8
330
506
 94
        0
1001
ACAD
1000
AcadProxyRoundTripData
1071
      517
1071
   851991
1070
     0
  0
ACAD_PROXY_OBJECT
  5
54E
330
0
100
AcDbProxyObject
 90
      499
 91
      574
 93
      188
310
00010142D05354D151D192551513D307B14AE47E17A843F0
330
506
 94
        0
1001
ACAD
1000
AcadProxyRoundTripData
1071
      517
1071
   851991
1070
     0
  0
ACAD_PROXY_OBJECT
  5
54F
330
0
100
AcDbProxyObject
 90
      499
 91
      574
 93
      148
310
000101419053541311538000000FC83D79741F
330
506
 94
        0
1001
ACAD
1000
AcadProxyRoundTripData
1071
      517
1071
   851991
1070
     0
  0
ACAD_PROXY_OBJECT
  5
550
330
0
100
AcDbProxyObject
 90
      499
 91
      574
 93
      172
310
00010142505354105391D513D301C052DC9A6F104402
330
506
 94
        0
1001
ACAD
1000
AcadProxyRoundTripData
1071
      517
1071
   851991
1070
     0
  0
ACAD_PROXY_OBJECT
  5
551
330
0
100
AcDbProxyObject
 90
      499
 91
      574
 93
      132
310
0001014114D25691400000000000024404
330
506
 94
        0
1001
ACAD
1000
AcadProxyRoundTripData
1071
      517
1071
   851991
1070
     0
  0
ACAD_PROXY_OBJECT
  5
552
330
0
100
AcDbProxyObject
 90
      499
 91
      574
 93
      156
310
00010142905351D4941491519256005034153470
330
506
 94
        0
1001
ACAD
1000
AcadProxyRoundTripData
1071
      539
1071
   851991
1070
     0
  0
ACAD_PROXY_OBJECT
  5
553
330
0
100
AcDbProxyObject
 90
      499
 91
      574
 93
      314
310
00014080509646973745363616C650000000000003C2FC000000000000F0BF0000003F20F5E5D050
330
506
 94
        0
1001
ACAD
1000
AcadProxyRoundTripData
1071
      540
1071
   851991
1070
     0
  0
ACAD_PROXY_OBJECT
  5
554
330
0
100
AcDbProxyObject
 90
      499
 91
      574
 93
      322
310
0001408050A65646175526F74617465060B51153EC87E4FC182D4454FB2119C0060B51153EC8465004
330
506
 94
        0
1001
ACAD
1000
AcadProxyRoundTripData
1071
      540
1071
   851991
1070
     0
  0
ACAD_PROXY_OBJECT
  5
555
330
0
100
AcDbProxyObject
 90
      499
 91
      574
 93
      314
310
00014080509656461755477697374060B51153EC846500000000FC83D797C10000003F20F5E5D050
330
506
 94
        0
1001
ACAD
1000
AcadProxyRoundTripData
1071
      540
1071
   851991
1070
     0
  0
ACAD_PROXY_OBJECT
  5
556
330
0
100
AcDbProxyObject
 90
      499
 91
      574
 93
      294
310
000140C050A656467654F75747075740144F3B7F635ECB74A140A4817D41BDB1E5B1A5B994
330
506
 94
        0
1001
ACAD
1000
AcadProxyRoundTripData
1071
      541
1071
   851991
1070
     0
  0
ACAD_PROXY_OBJECT
  5
557
330
0
100
AcDbProxyObject
 90
      499
 91
      574
 93
      154
310
0001404050B65646974507265766965774064040
330
506
 94
        0
1001
ACAD
1000
AcadProxyRoundTripData
1071
      542
1071
   851991
1070
     0
  0
ACAD_PROXY_OBJECT
  5
558
330
0
100
AcDbProxyObject
 90
      499
 91
      574
 93
      170
310
0001404050A666C6F77556C696E657342A3A00C00003
330
506
 94
        0
1001
ACAD
1000
AcadProxyRoundTripData
1071
      542
1071
   851991
1070
     0
  0
ACAD_PROXY_OBJECT
  5
559
330
0
100
AcDbProxyObject
 90
      499
 91
      574
 93
      170
310
0001404050A666C6F77566C696E657342A3A00C00003
330
506
 94
        0
1001
ACAD
1000
AcadProxyRoundTripData
1071
      542
1071
   851991
1070
     0
  0
ACAD_PROXY_OBJECT
  5
55A
330
0
100
AcDbProxyObject
 90
      499
 91
      574
 93
      322
310
0001408050A666C7366456E645261640000000000003C2FC000000000000F0BF0000003F20F5E5D044
330
506
 94
        0
1001
ACAD
1000
AcadProxyRoundTripData
1071
      540
1071
   851991
1070
     0
  0
ACAD_PROXY_OBJECT
  5
55B
330
0
100
AcDbProxyObject
 90
      499
 91
      574
 93
      246
310
000140C05086A6E33644D6F64650143E3BA24EB8A134A4817D3585B9D585B1
330
506
 94
        0
1001
ACAD
1000
AcadProxyRoundTripData
1071
      541
1071
   851991
1070
     0
  0
ACAD_PROXY_OBJECT
  5
55C
330
0
100
AcDbProxyObject
 90
      499
 91
      574
 93
      294
310
000140C050A6A6E33644F75747075740144F3B7F635ECB74A140A4817D41BDB1E5B1A5B995
330
506
 94
        0
1001
ACAD
1000
AcadProxyRoundTripData
1071
      541
1071
   851991
1070
     0
  0
ACAD_PROXY_OBJECT
  5
55D
330
0
100
AcDbProxyObject
 90
      499
 91
      574
 93
      306
310
000140805086C656E675065726300000000002016D002D431CEBE2361A3F0000003F20F5E5D046
330
506
 94
        0
1001
ACAD
1000
AcadProxyRoundTripData
1071
      540
1071
   851991
1070
     0
  0
ACAD_PROXY_OBJECT
  5
55E
330
0
100
AcDbProxyObject
 90
      499
 91
      574
 93
      266
310
0001408050B6D61737344656E7369747942D431CEBE2361A3F0000003F20F5E5D04B
330
506
 94
        0
1001
ACAD
1000
AcadProxyRoundTripData
1071
      540
1071
   851991
1070
     0
  0
ACAD_PROXY_OBJECT
  5
55F
330
0
100
AcDbProxyObject
 90
      499
 91
      574
 93
      186
310
000140805096D617373546869636BA0000003F20F5E5D07D
330
506
 94
        0
1001
ACAD
1000
AcadProxyRoundTripData
1071
      540
1071
   851991
1070
     0
  0
ACAD_PROXY_OBJECT
  5
560
330
0
100
AcDbProxyObject
 90
      499
 91
      574
 93
      230
310
000140C05086D6173735479706501436F2AB64A14CA4817D4DA195B1B1
330
506
 94
        0
1001
ACAD
1000
AcadProxyRoundTripData
1071
      541
1071
   851991
1070
     0
  0
ACAD_PROXY_OBJECT
  5
561
330
0
100
AcDbProxyObject
 90
      499
 91
      574
 93
      242
310
000140805086F667366446973744000000FC83D797C10000003F20F5E5D065
330
506
 94
        0
1001
ACAD
1000
AcadProxyRoundTripData
1071
      540
1071
   851991
1070
     0
  0
ACAD_PROXY_OBJECT
  5
562
330
0
100
AcDbProxyObject
 90
      499
 91
      574
 93
      258
310
0001408050A7072696D52616469757342D431CEBE2361A3F0000003F20F5E5D050
330
506
 94
        0
1001
ACAD
1000
AcadProxyRoundTripData
1071
      540
1071
   851991
1070
     0
  0
ACAD_PROXY_OBJECT
  5
563
330
0
100
AcDbProxyObject
 90
      499
 91
      574
 93
      194
310
0001408050A7072696D546F70526164A0000003F20F5E5D07F
330
506
 94
        0
1001
ACAD
1000
AcadProxyRoundTripData
1071
      540
1071
   851991
1070
     0
  0
ACAD_PROXY_OBJECT
  5
564
330
0
100
AcDbProxyObject
 90
      499
 91
      574
 93
      266
310
0001408050B7072696D5475626552616442D431CEBE2361A3F0000003F20F5E5D04B
330
506
 94
        0
1001
ACAD
1000
AcadProxyRoundTripData
1071
      540
1071
   851991
1070
     0
  0
ACAD_PROXY_OBJECT
  5
565
330
0
100
AcDbProxyObject
 90
      499
 91
      574
 93
      258
310
0001408050A7072696D4865696768744000000FC83D797C10000003F20F5E5D046
330
506
 94
        0
1001
ACAD
1000
AcadProxyRoundTripData
1071
      540
1071
   851991
1070
     0
  0
ACAD_PROXY_OBJECT
  5
566
330
0
100
AcDbProxyObject
 90
      499
 91
      574
 93
      250
310
000140805097072696D5374416E678182D4454FB2119C0060B51153EC8465000
330
506
 94
        0
1001
ACAD
1000
AcadProxyRoundTripData
1071
      540
1071
   851991
1070
     0
  0
ACAD_PROXY_OBJECT
  5
567
330
0
100
AcDbProxyObject
 90
      499
 91
      574
 93
      322
310
0001408050A7072696D456E64416E67060B51153EC846500182D4454FB2119C0060B51153EC8465004
330
506
 94
        0
1001
ACAD
1000
AcadProxyRoundTripData
1071
      540
1071
   851991
1070
     0
  0
ACAD_PROXY_OBJECT
  5
568
330
0
100
AcDbProxyObject
 90
      499
 91
      574
 93
      242
310
000140805087265765374416E678182D4454FB2119C0060B51153EC8465000
330
506
 94
        0
1001
ACAD
1000
AcadProxyRoundTripData
1071
      540
1071
   851991
1070
     0
  0
ACAD_PROXY_OBJECT
  5
569
330
0
100
AcDbProxyObject
 90
      499
 91
      574
 93
      314
310
00014080509726576456E64416E67060B51153EC846500182D4454FB2119C0060B51153EC8465021
330
506
 94
        0
1001
ACAD
1000
AcadProxyRoundTripData
1071
      540
1071
   851991
1070
     0
  0
ACAD_PROXY_OBJECT
  5
56A
330
0
100
AcDbProxyObject
 90
      499
 91
      574
 93
      194
310
0001404050C7266736655706174636865734290139C0C0003D
330
506
 94
        0
1001
ACAD
1000
AcadProxyRoundTripData
1071
      542
1071
   851991
1070
     0
  0
ACAD_PROXY_OBJECT
  5
56B
330
0
100
AcDbProxyObject
 90
      499
 91
      574
 93
      194
310
0001404050C7266736656706174636865734290139C0C0003D
330
506
 94
        0
1001
ACAD
1000
AcadProxyRoundTripData
1071
      542
1071
   851991
1070
     0
  0
ACAD_PROXY_OBJECT
  5
56C
330
0
100
AcDbProxyObject
 90
      499
 91
      574
 93
      246
310
000140C0508747562654D6F64650143E3BA24EB8A134A4817D3585B9D585B0
330
506
 94
        0
1001
ACAD
1000
AcadProxyRoundTripData
1071
      541
1071
   851991
1070
     0
  0
ACAD_PROXY_OBJECT
  5
56D
330
0
100
AcDbProxyObject
 90
      499
 91
      574
 93
      274
310
0001408050C747562654469616D6574657242D431CEBE2361A3F0000003F20F5E5D071
330
506
 94
        0
1001
ACAD
1000
AcadProxyRoundTripData
1071
      540
1071
   851991
1070
     0
  0
ACAD_PROXY_OBJECT
  5
56E
330
0
100
AcDbProxyObject
 90
      499
 91
      574
 93
      130
310
00014040509696E746572506F6C79A4056
330
506
 94
        0
1001
ACAD
1000
AcadProxyRoundTripData
1071
      542
1071
   851991
1070
     0
  0
ACAD_PROXY_OBJECT
  5
56F
330
0
100
AcDbProxyObject
 90
      499
 91
      574
 93
      162
310
0001404050D696E746572417567506F696E74A406C
330
506
 94
        0
1001
ACAD
1000
AcadProxyRoundTripData
1071
      542
1071
   851991
1070
     0
  0
ACAD_PROXY_OBJECT
  5
570
330
0
100
AcDbProxyObject
 90
      499
 91
      574
 93
      238
310
000140C0509696E7465727472696D014365EF257ECA108A4817D09BDD1A1
330
506
 94
        0
1001
ACAD
1000
AcadProxyRoundTripData
1071
      541
1071
   851991
1070
     0
  0
ACAD_PROXY_OBJECT
  5
571
330
0
100
AcDbProxyObject
 90
      499
 91
      574
 93
      230
310
000140C0509696E7465727479706501433136344A150A4817D51C9A5B5
330
506
 94
        0
1001
ACAD
1000
AcadProxyRoundTripData
1071
      541
1071
   851991
1070
     0
  0
ACAD_PROXY_OBJECT
  5
572
330
0
100
AcDbProxyObject
 90
      499
 91
      574
 93
      146
310
0001404050A636F726E65727472696D4064060
330
506
 94
        0
1001
ACAD
1000
AcadProxyRoundTripData
1071
      542
1071
   851991
1070
     0
  0
ACAD_PROXY_OBJECT
  5
573
330
0
100
AcDbProxyObject
 90
      499
 91
      574
 93
      130
310
000140405086F6673666B656570406404A
330
506
 94
        0
1001
ACAD
1000
AcadProxyRoundTripData
1071
      542
1071
   851991
1070
     0
  0
ACAD_PROXY_OBJECT
  5
574
330
0
100
AcDbProxyObject
 90
      499
 91
      574
 93
      146
310
0001404050A70726F6A4F757470757440A40E0
330
506
 94
        0
1001
ACAD
1000
AcadProxyRoundTripData
1071
      542
1071
   851991
1070
     0
  0
ACAD_PROXY_OBJECT
  5
575
330
0
100
AcDbProxyObject
 90
      499
 91
      574
 93
      270
310
000140C050D70726F6A446972656374696F6E014372F7AB6C0A124A4817DD92595DD
330
506
 94
        0
1001
ACAD
1000
AcadProxyRoundTripData
1071
      541
1071
   851991
1070
     0
  0
ACAD_PROXY_OBJECT
  5
576
330
0
100
AcDbProxyObject
 90
      499
 91
      574
 93
      130
310
0001404050870726F6A4B6565704064070
330
506
 94
        0
1001
ACAD
1000
AcadProxyRoundTripData
1071
      542
1071
   851991
1070
     0
  0
ACAD_PROXY_OBJECT
  5
577
330
0
100
AcDbProxyObject
 90
      499
 91
      574
 93
      278
310
000140C050B70726F6A53706163696E670144237164D2CA13CA4817D3DC1D1A5B585B1
330
506
 94
        0
1001
ACAD
1000
AcadProxyRoundTripData
1071
      541
1071
   851991
1070
     0
  0
ACAD_PROXY_OBJECT
  5
578
330
0
100
AcDbProxyObject
 90
      499
 91
      574
 93
      250
310
0001408050970726F6A54617065728182D4454FB21F9BF060B51153EC87E4FFD
330
506
 94
        0
1001
ACAD
1000
AcadProxyRoundTripData
1071
      540
1071
   851991
1070
     0
  0
ACAD_PROXY_OBJECT
  5
579
330
0
100
AcDbProxyObject
 90
      499
 91
      574
 93
      130
310
00014040508647261674B6565704064057
330
506
 94
        0
1001
ACAD
1000
AcadProxyRoundTripData
1071
      542
1071
   851991
1070
     0
  0
ACAD_PROXY_OBJECT
  5
57A
330
0
100
AcDbProxyObject
 90
      499
 91
      574
 93
      302
310
000140C050F647261674F7269656E746174696F6E0143E590243F0A138A4817D39BDC9B585B1
330
506
 94
        0
1001
ACAD
1000
AcadProxyRoundTripData
1071
      541
1071
   851991
1070
     0
  0
ACAD_PROXY_OBJECT
  5
57B
330
0
100
AcDbProxyObject
 90
      499
 91
      574
 93
      286
310
000140C050E647261675472616E736974696F6E0143A3B6A4DE0A10CA4817DCD0D85B195
330
506
 94
        0
1001
ACAD
1000
AcadProxyRoundTripData
1071
      541
1071
   851991
1070
     0
  0
ACAD_PROXY_OBJECT
  5
57C
330
0
100
AcDbProxyObject
 90
      499
 91
      574
 93
      318
310
000140C051061646A757374436F6E74696E7569747901442F746C2F778A14CA4817D4DB5BDBDD1A1
330
506
 94
        0
1001
ACAD
1000
AcadProxyRoundTripData
1071
      541
1071
   851991
1070
     0
  0
ACAD_PROXY_OBJECT
  5
57D
330
0
100
AcDbProxyObject
 90
      499
 91
      574
 93
      138
310
0001404050A61646A7573744B656570A405C
330
506
 94
        0
1001
ACAD
1000
AcadProxyRoundTripData
1071
      542
1071
   851991
1070
     0
  0
ACAD_PROXY_OBJECT
  5
57E
330
0
100
AcDbProxyObject
 90
      499
 91
      574
 93
      250
310
0001408050972756C65576964746842D431CEBE2361A3F0000003F20F5E5D048
330
506
 94
        0
1001
ACAD
1000
AcadProxyRoundTripData
1071
      540
1071
   851991
1070
     0
  0
ACAD_PROXY_OBJECT
  5
57F
330
0
100
AcDbProxyObject
 90
      499
 91
      574
 93
      274
310
0001408050C616E616C797A65447261667421D139D28615ED8FE060B51153EC8425003
330
506
 94
        0
1001
ACAD
1000
AcadProxyRoundTripData
1071
      540
1071
   851991
1070
     0
  0
ACAD_PROXY_OBJECT
  5
580
330
0
100
AcDbProxyObject
 90
      499
 91
      574
 93
      210
310
0001404050F616E616C797A654E756D4C696E65734163FDFC00026
330
506
 94
        0
1001
ACAD
1000
AcadProxyRoundTripData
1071
      542
1071
   851991
1070
     0
  0
ACAD_PROXY_OBJECT
  5
581
330
0
100
AcDbProxyObject
 90
      499
 91
      574
 93
      202
310
00014040512616E616C797A65526F746174654C696E6573A4040
330
506
 94
        0
1001
ACAD
1000
AcadProxyRoundTripData
1071
      542
1071
   851991
1070
     0
  0
ACAD_PROXY_OBJECT
  5
582
330
0
100
AcDbProxyObject
 90
      499
 91
      574
 93
      210
310
00014040513616E616C797A65446973706C61794C696E6573A4066
330
506
 94
        0
1001
ACAD
1000
AcadProxyRoundTripData
1071
      542
1071
   851991
1070
     0
  0
ACAD_PROXY_OBJECT
  5
583
330
0
100
AcDbProxyObject
 90
      499
 91
      574
 93
      258
310
00014040519616E616C797A655472616E736C7563656E7453757266616365A4043
330
506
 94
        0
1001
ACAD
1000
AcadProxyRoundTripData
1071
      542
1071
   851991
1070
     0
  0
ACAD_PROXY_OBJECT
  5
58C
330
0
100
AcDbProxyObject
 90
      499
 91
      574
 93
      698
310
0001000000009AA6A9AA4051E4D6F6E204F63742031332030303A33373A353920323030382028555443290141CD8B8D0B8C0B8C405184D6F6E204F63742031332030393A34313A333120323030380141CD8B8D0B8C0B8C4A
330
506
330
58D
330
58E
330
590
330
0
 94
        0
1001
ACAD
1000
AcadProxyRoundTripData
1071
      548
1071
   851991
1070
     0
  0
ACAD_PROXY_OBJECT
  5
58D
330
0
100
AcDbProxyObject
 90
      499
 91
      574
 93
       70
310
0001AAA80820000000
330
506
330
58D
330
58D
 94
        0
1001
ACAD
1000
AcadProxyRoundTripData
1071
      549
1071
   851991
1070
     0
  0
ACAD_PROXY_OBJECT
  5
58E
330
0
100
AcDbProxyObject
 90
      499
 91
      574
 93
       48
310
00010000000011
330
506
330
0
330
58F
330
0
330
0
 94
        0
1001
ACAD
1000
AcadProxyRoundTripData
1071
      550
1071
   851991
1070
     0
  0
ACAD_PROXY_OBJECT
  5
58F
330
0
100
AcDbProxyObject
 90
      499
 91
      574
 93
       40
310
000100AAAA04
330
506
330
0
 94
        0
1001
ACAD
1000
AcadProxyRoundTripData
1071
      551
1071
   851991
1070
     0
  0
ACAD_PROXY_OBJECT
  5
591
330
0
100
AcDbProxyObject
 90
      499
 91
      574
 93
      124
310
00010142905350D3D39114D414D69051
330
506
 94
        0
1001
ACAD
1000
AcadProxyRoundTripData
1071
      518
1071
   851991
1070
     0
  0
ACAD_PROXY_OBJECT
  5
592
330
0
100
AcDbProxyObject
 90
      499
 91
      574
 93
      124
310
000101429053549553115353D1115011
330
506
 94
        0
1001
ACAD
1000
AcadProxyRoundTripData
1071
      518
1071
   851991
1070
     0
  0
ACAD_PROXY_OBJECT
  5
593
330
0
100
AcDbProxyObject
 90
      499
 91
      574
 93
      108
310
00010142105354D2D353D1115013
330
506
 94
        0
1001
ACAD
1000
AcadProxyRoundTripData
1071
      518
1071
   851991
1070
     0
  0
ACAD_PROXY_OBJECT
  5
594
330
0
100
AcDbProxyObject
 90
      499
 91
      574
 93
      140
310
000101435053511253511254D41353D11160
330
506
 94
        0
1001
ACAD
1000
AcadProxyRoundTripData
1071
      518
1071
   851991
1070
     0
  0
ACAD_PROXY_OBJECT
  5
595
330
0
100
AcDbProxyObject
 90
      499
 91
      574
 93
      180
310
00010142905354D2D05391D513D300000000000001040C
330
506
 94
        0
1001
ACAD
1000
AcadProxyRoundTripData
1071
      517
1071
   851991
1070
     0
  0
ACAD_PROXY_OBJECT
  5
596
330
0
100
AcDbProxyObject
 90
      499
 91
      574
 93
      164
310
00010142505354D2D4D516531140505434F4E542AB
330
506
 94
        0
1001
ACAD
1000
AcadProxyRoundTripData
1071
      539
1071
   851991
1070
     0
  0
ACAD_PROXY_OBJECT
  5
597
330
0
100
AcDbProxyObject
 90
      499
 91
      574
 93
      108
310
00010142105350D3511112535016
330
506
 94
        0
1001
ACAD
1000
AcadProxyRoundTripData
1071
      518
1071
   851991
1070
     0
  0
ACAD_PROXY_OBJECT
  5
598
330
0
100
AcDbProxyObject
 90
      499
 91
      574
 93
      108
310
00010142105350D3D35414D59016
330
506
 94
        0
1001
ACAD
1000
AcadProxyRoundTripData
1071
      518
1071
   851991
1070
     0
  0
ACAD_PROXY_OBJECT
  5
599
330
0
100
AcDbProxyObject
 90
      499
 91
      574
 93
      164
310
0001014290535410549514D4119600504CADFB0C2B
330
506
 94
        0
1001
ACAD
1000
AcadProxyRoundTripData
1071
      539
1071
   851991
1070
     0
  0
ACAD_PROXY_OBJECT
  5
59A
330
0
100
AcDbProxyObject
 90
      499
 91
      574
 93
      220
310
0001014350535513D3D31093D11654119600508C2B0D9CEDEC3DEA83
330
506
 94
        0
1001
ACAD
1000
AcadProxyRoundTripData
1071
      539
1071
   851991
1070
     0
  0
ACAD_PROXY_OBJECT
  5
59B
330
0
100
AcDbProxyObject
 90
      499
 91
      574
 93
      116
310
000101425053511254D410D3D39011
330
506
 94
        0
1001
ACAD
1000
AcadProxyRoundTripData
1071
      518
1071
   851991
1070
     0
  0
ACAD_PROXY_OBJECT
  5
59C
330
0
100
AcDbProxyObject
 90
      499
 91
      574
 93
      108
310
00010142105350D3D39114D41016
330
506
 94
        0
1001
ACAD
1000
AcadProxyRoundTripData
1071
      518
1071
   851991
1070
     0
  0
ACAD_PROXY_OBJECT
  5
59D
330
0
100
AcDbProxyObject
 90
      499
 91
      574
 93
      124
310
0001014290535490511114D414D69190
330
506
 94
        0
1001
ACAD
1000
AcadProxyRoundTripData
1071
      518
1071
   851991
1070
     0
  0
ACAD_PROXY_OBJECT
  5
5A3
330
0
100
AcDbProxyObject
 90
      499
 91
      574
 93
      132
310
00010142D05050555513D4D3D315915013
330
506
 94
        0
1001
ACAD
1000
AcadProxyRoundTripData
1071
      518
1071
   851991
1070
     0
  0
ACAD_PROXY_OBJECT
  5
5A4
330
0
100
AcDbProxyObject
 90
      499
 91
      574
 93
      156
310
00010143905050555513D054D4D1535093115015
330
506
 94
        0
1001
ACAD
1000
AcadProxyRoundTripData
1071
      518
1071
   851991
1070
     0
  0
ACAD_PROXY_OBJECT
  5
5A5
330
0
100
AcDbProxyObject
 90
      499
 91
      574
 93
      148
310
00010143505055925155D49154D513D4915015
330
506
 94
        0
1001
ACAD
1000
AcadProxyRoundTripData
1071
      518
1071
   851991
1070
     0
  0
ACAD_PROXY_OBJECT
  5
5A6
330
0
100
AcDbProxyObject
 90
      499
 91
      574
 93
      124
310
00010142D050525394D15495105094E5
330
506
 94
        0
1001
ACAD
1000
AcadProxyRoundTripData
1071
      518
1071
   851991
1070
     0
  0
ACAD_PROXY_OBJECT
  5
5A7
330
0
100
AcDbProxyObject
 90
      499
 91
      574
 93
      148
310
00010143505054D0D153915554111055115015
330
506
 94
        0
1001
ACAD
1000
AcadProxyRoundTripData
1071
      518
1071
   851991
1070
     0
  0
ACAD_PROXY_OBJECT
  5
5A8
330
0
100
AcDbProxyObject
 90
      499
 91
      574
 93
      172
310
00010143105054D5509054D4D3541196005035355425
330
506
 94
        0
1001
ACAD
1000
AcadProxyRoundTripData
1071
      539
1071
   851991
1070
     0
  0
ACAD_PROXY_OBJECT
  5
5A9
330
0
100
AcDbProxyObject
 90
      499
 91
      574
 93
      172
310
00010142905054D0D15391541196005055343454E455
330
506
 94
        0
1001
ACAD
1000
AcadProxyRoundTripData
1071
      539
1071
   851991
1070
     0
  0
ACAD_PROXY_OBJECT
  5
5AA
330
0
100
AcDbProxyObject
 90
      499
 91
      574
 93
      148
310
00010143505350555513D313D0D2D4D0D39016
330
506
 94
        0
1001
ACAD
1000
AcadProxyRoundTripData
1071
      518
1071
   851991
1070
     0
  0
ACAD_PROXY_OBJECT
  5
5AF
330
0
100
AcDbProxyObject
 90
      499
 91
      574
 93
       32
310
00010000A7
330
506
340
5AC
330
5B1
330
5AC
 94
        0
1001
ACAD
1000
AcadProxyRoundTripData
1071
      557
1071
   851991
1070
     0
  0
ACAD_PROXY_OBJECT
  5
5B0
330
0
100
AcDbProxyObject
 90
      499
 91
      574
 93
       18
310
000188
330
506
 94
        0
1001
ACAD
1000
AcadProxyRoundTripData
1071
      558
1071
   851991
1070
     0
  0
ACAD_PROXY_OBJECT
  5
5B1
330
0
100
AcDbProxyObject
 90
      499
 91
      574
 93
      111
310
0001014150D5930C0D5050055400
330
506
330
5AF
330
5B0
 94
        0
1001
ACAD
1000
AcadProxyRoundTripData
1071
      559
1071
   851991
1070
     0
  0
ACAD_PROXY_OBJECT
  5
5B2
330
0
100
AcDbProxyObject
 90
      499
 91
      574
 93
       40
310
000100AAAA00
330
506
330
5B1
 94
        0
1001
ACAD
1000
AcadProxyRoundTripData
1071
      560
1071
   851991
1070
     0
  0
ACAD_PROXY_OBJECT
  5
5B3
330
0
100
AcDbProxyObject
 90
      499
 91
      574
 93
      108
310
0001901422000000000000AAAAA0
330
506
330
5B4
330
5B4
330
5B4
330
5B4
330
5B4
330
0
 94
        0
1001
ACAD
1000
AcadProxyRoundTripData
1071
      561
1071
   851991
1070
     0
  0
ACAD_PROXY_OBJECT
  5
5B4
330
0
100
AcDbProxyObject
 90
      499
 91
      574
 93
       51
310
00010000AAAA84
330
506
330
5B3
330
5B1
 94
        0
1001
ACAD
1000
AcadProxyRoundTripData
1071
      562
1071
   851991
1070
     0
  0
ACAD_PROXY_OBJECT
  5
5C5
330
0
100
AcDbProxyObject
 90
      499
 91
      574
 93
      140
310
00010142105350D55494D5110050349534F8
330
506
 94
        0
1001
ACAD
1000
AcadProxyRoundTripData
1071
      539
1071
   851991
1070
     0
  0
DICTIONARY
  5
4FE
102
{ACAD_REACTORS
330
4FD
102
}
330
4FD
100
AcDbDictionary
  3
DWGSETTINGS
350
4FF
1001
ACAD
1000
TREAT_AS_HARD
1070
     0
  0
ACAD_PROXY_OBJECT
  5
5C3
102
{ACAD_REACTORS
330
4FD
102
}
330
4FD
100
AcDbProxyObject
 90
      499
 91
      574
 93
    12938
310
41102491013041105357CC1074CA404C504414D5F31439329013241105357CC9054CA404CD04414D5F33419199013441105357CD103466404D504414D5F3540D199013641105357CD90248E404DD04414D5F37411199013841105357CE101466404E504414D5F397F641102324141505357CC4C1074CA408D10505414D5F31
310
3140D19902495041505357CC4C9074C902408C13905414D5F304E41D32902314E41505357CC5390E4CA408C93905414D5F324E41532902334E41505357CCD3906466408D13905414D5F344E40D19902354E41505357CD53903466408D93905414D5F364E40923902374E41505357CDD3904466408E13905414D5F384E40519
310
902394E41505357CE539FD90440CC9053906414D5F31304E41D3290334414E41905357CC4C5390346640D25413906414D5F31324E41D32409044B4C494E41505357D0D3101465094112539193D08414D5F50415245464111942D055241484D3541905357D093D49074C9094115925155D08414D5F56494557534051942D064
310
24548494E4441905357D253959FD90D415514905253105414D5F545240D194250348494441905357D212511074650940D59254D06414D5F56495341D324250650415244494D42505357D410549112535034650941949151911253509414D5F52454644494D4111942553411092139590139CFFFFFFFF415092139594D06424
310
548494E44CFFFFFFFF411093D48C9055241484D3540519411093D48CD055241484D3540923411093D48D5055241484D35CFFFFFFFF4110D0530C90134CFFFFFFFF4110D0530CD0134409234110D0530D5013441D324110D0530DD0134479464110D1539390137CFFFFFFFF4110D15395D0137CFFFFFFFF4110D312539044B4
310
C494ECFFFFFFFF4110D3D38C50130CFFFFFFFF4110D3D38C90131CFFFFFFFF4110D3D38CD0132CFFFFFFFF4110D3D38D10132CFFFFFFFF411111551050134CFFFFFFFF4111125051D0135CFFFFFFFF411112531250135CFFFFFFFF411112535410650415244494DCFFFFFFFF411112535490652454644494DCFFFFFFFF4111
310
91535390138CFFFFFFFF4151915354139013840CFFFFFFFF4151915354D41023441CFFFFFFFF4151915354D5102344140D1941519153559390132CFFFFFFFF4151915355951013240D194112105510D0138CFFFFFFFF411212511390133CFFFFFFFF4112125115D0133CFFFFFFFF411213125390134CFFFFFFFF411213D0D3
310
90137CFFFFFFFF411213D0D5D0137CFFFFFFFF4112539193D04494E464FCFFFFFFFF411311505110135CFFFFFFFF419397D0921395902394ECFFFFFFFF419397D0D3D38C502304ECFFFFFFFF419397D0D3D38C902314ECFFFFFFFF419397D0D3D38CD02324ECFFFFFFFF419397D0D3D38D102324ECFFFFFFFF419397D0D153
310
93902374ECFFFFFFFF419397D0D15395D02374ECFFFFFFFF419397D1125312502354ECFFFFFFFF419397D2105510D02384ECFFFFFFFF419397D2125113902334ECFFFFFFFF419397D2125115D02334ECFFFFFFFF419397D3115051102354ECFFFFFFFF419397D391D25410349504ECFFFFFFFF419397D412105390334414EC
310
FFFFFFFF419397D510D3D3902304ECFFFFFFFF419397D5121312502344ECFFFFFFFF419397D5131153902304ECFFFFFFFF419397D594131250332414ECFFFFFFFF411391D2541024950CFFFFFFFF411410530C9055241484D3540519411410530CD055241484D3540923411410530D5055241484D35CFFFFFFFF4114121053
310
9023441CFFFFFFFF411413D4D390135CFFFFFFFF411490D1D390137CFFFFFFFF411490D1D5D0137CFFFFFFFF4114D09492D0134CFFFFFFFF4114D150D510134CFFFFFFFF4114D6508CD013540923411354D6535013540923411510D3D390130CFFFFFFFF411512131250134CFFFFFFFF411512550C9055241484D354051941
310
1512550CD055241484D3540923411512550D5055241484D35CFFFFFFFF411513115390130CFFFFFFFF415514905253105545241494CCFFFFFFFF411514931250134CFFFFFFFF411516150C5013640D19411516150C9013640D19411516150CD0136CFFFFFFFF411516150D5013641D32411516150DD0136479464115925155
310
D0456494557CFFFFFFFF4115915112103484944CFFFFFFFF4115915115903564953CFFFFFFFF41159413125023241CFFFFFFFF411692569050134CFFFFFFFFAA9FD404FE4290E4C9074C906465054C904465034650248D014651E519FD80
340
16
340
16
340
16
340
5C6
340
16
340
16
340
16
340
5C7
340
16
340
16
340
5C7
340
5C8
340
16
340
16
340
16
340
16
340
5C6
340
16
340
16
340
16
340
5C7
340
16
340
16
340
5C7
340
5C8
340
16
340
5C9
340
16
340
16
340
16
340
16
340
16
340
5C6
340
16
340
16
340
16
340
15
340
15
340
15
340
15
340
15
340
15
340
15
340
15
340
15
340
5CA
340
15
340
15
340
15
340
15
340
15
340
15
340
15
340
15
340
15
340
15
340
15
340
15
340
15
340
16
340
15
340
15
340
15
340
15
340
5CB
340
15
340
15
340
5CA
340
15
340
15
340
15
340
15
340
15
340
15
340
15
340
15
340
5CA
340
15
340
15
340
15
340
5CB
340
15
340
15
340
15
340
15
340
15
340
15
340
15
340
15
340
15
340
15
340
15
340
15
340
15
340
15
340
5CA
340
15
340
15
340
15
340
15
340
15
340
15
340
15
340
15
340
15
340
15
340
15
340
15
340
15
340
15
340
15
340
15
340
15
340
15
340
15
340
15
340
15
340
15
340
5CE
 94
        0
1001
ACAD
1000
AcadProxyRoundTripData
1071
      570
1071
   851991
1070
     0
  0
ACAD_PROXY_OBJECT
  5
5D5
102
{ACAD_REACTORS
330
5D0
102
}
330
5D0
100
AcDbProxyObject
 90
      499
 91
      574
 93
      253
310
43D1444494D454E53494F4E2C414D44545F2A5F44494D404A9012A404A9012AE
 94
        0
1001
ACAD
1000
AcadProxyRoundTripData
1071
      571
1071
   851991
1070
     0
  0
ACAD_PROXY_OBJECT
  5
5D4
102
{ACAD_REACTORS
330
5D0
102
}
330
5D0
100
AcDbProxyObject
 90
      499
 91
      574
 93
      181
310
43D012A42D05357D191504B505357CA9012A404A9012AC
 94
        0
1001
ACAD
1000
AcadProxyRoundTripData
1071
      571
1071
   851991
1070
     0
  0
ACAD_PROXY_OBJECT
  5
5D1
102
{ACAD_REACTORS
330
5D0
102
}
330
5D0
100
AcDbProxyObject
 90
      499
 91
      574
 93
      133
310
43D054841544348404A9012A404A9012A8
 94
        0
1001
ACAD
1000
AcadProxyRoundTripData
1071
      571
1071
   851991
1070
     0
  0
ACAD_PROXY_OBJECT
  5
5D2
102
{ACAD_REACTORS
330
5D0
102
}
330
5D0
100
AcDbProxyObject
 90
      499
 91
      574
 93
      549
310
43D044C494E4549CE0B0E138B0A8B4E0B0A8B4E138B105357CE0B105357CE138B0A8B505357CE0B0A8B505357CE139012A404A910494E534552542C535444504152543244C
 94
        0
1001
ACAD
1000
AcadProxyRoundTripData
1071
      571
1071
   851991
1070
     0
  0
ACAD_PROXY_OBJECT
  5
5D6
102
{ACAD_REACTORS
330
5D0
102
}
330
5D0
100
AcDbProxyObject
 90
      499
 91
      574
 93
      181
310
43D0341524341105357CD5012A404C906494E534552540
 94
        0
1001
ACAD
1000
AcadProxyRoundTripData
1071
      571
1071
   851991
1070
     0
  0
ACAD_PROXY_OBJECT
  5
5D3
102
{ACAD_REACTORS
330
5D0
102
}
330
5D0
100
AcDbProxyObject
 90
      499
 91
      574
 93
     1053
310
43D7841434D46434652414D452C41434D444154554D5441524745542C41434D444154554D49442C41434D57454C4453594D2C41434D5355524653594D2C41434D4645415449442C41434D504152545245462C41434D42414C4C4F4F4E2C414D44544544474553594D2C414D47534352455743414C435441424C45404A9012A
310
404A9012A8
 94
        0
1001
ACAD
1000
AcadProxyRoundTripData
1071
      571
1071
   851991
1070
     0
  0
ACAD_PROXY_OBJECT
  5
5B8
102
{ACAD_REACTORS
330
5B7
102
}
330
5B7
100
AcDbProxyObject
 90
      499
 91
      574
 93
      187
310
057356C1D5C406406AA8FFFFFFFF0AE50543564C30354051
330
1F
330
0
330
5B1
 94
        0
1001
ACAD
1000
AcadProxyRoundTripData
1071
      564
1071
   851991
1070
     0
  0
ACAD_PROXY_OBJECT
  5
4FF
102
{ACAD_REACTORS
330
4FE
102
}
330
4FE
100
AcDbProxyObject
 90
      499
 91
      574
 93
     2270
310
4050B44574753455454494E4753A1286829C8E82A4A482B282A106660F8686AF86C608321A2A720A723A0A849A1ABE1C983E18999AA0C868A9C889282940000000000000488083A1A2A72224A0A9A0A8418983E19183E199820E868A9C8892A6A894000000000000010808321A2A72622A7250000000000000122020C868A9
310
C9E8C8C940000000000000488084A1A624A720A92920ACA0A8418983E19183E19982108698929C8AA8B2A082A0AB098929C8A84A22BA3AAA9A1A0A622A50A0E9882A6A89E849482A02608426A0A5A2AB24A2ABA7E8120CA0A68682988A0C00800010652455649534941501304154D0D0531150540CC4E8C50954494D455354
310
414D504A03D0A805197267341441ED115D1D4D15515125391D4D153911F5
 94
        0
1001
ACAD
1000
AcadProxyRoundTripData
1071
      512
1071
   851991
1070
     0
  0
ENDSEC
  0
EOF
