  0
SECTION
  2
HEADER
  9
$ACADVER
  1
AC1014
  9
$ACADMAINTVER
 70
     9
  9
$DWGCODEPAGE
  3
ANSI_932
  9
$INSBASE
 10
0.0
 20
0.0
 30
0.0
  9
$EXTMIN
 10
40.07354838782169
 20
28.08847118319068
 30
-0.0000000349181948
  9
$EXTMAX
 10
401.4276132609552
 20
180.8574834664556
 30
0.0000000814935746
  9
$LIMMIN
 10
0.0
 20
0.0
  9
$LIMMAX
 10
420.0
 20
297.0
  9
$ORTHOMODE
 70
     0
  9
$REGENMODE
 70
     1
  9
$FILLMODE
 70
     1
  9
$QTEXTMODE
 70
     0
  9
$MIRRTEXT
 70
     1
  9
$DRAGMODE
 70
     2
  9
$LTSCALE
 40
1.0
  9
$OSMODE
 70
  2983
  9
$ATTMODE
 70
     1
  9
$TEXTSIZE
 40
2.5
  9
$TRACEWID
 40
1.0
  9
$TEXTSTYLE
  7
STANDARD
  9
$CLAYER
  8
0
  9
$CELTYPE
  6
BYLAYER
  9
$CECOLOR
 62
   256
  9
$CELTSCALE
 40
1.0
  9
$DELOBJ
 70
     1
  9
$DISPSILH
 70
     0
  9
$DIMSCALE
 40
1.0
  9
$DIMASZ
 40
2.5
  9
$DIMEXO
 40
0.625
  9
$DIMDLI
 40
3.75
  9
$DIMRND
 40
0.0
  9
$DIMDLE
 40
0.0
  9
$DIMEXE
 40
1.25
  9
$DIMTP
 40
0.0
  9
$DIMTM
 40
0.0
  9
$DIMTXT
 40
2.5
  9
$DIMCEN
 40
2.5
  9
$DIMTSZ
 40
0.0
  9
$DIMTOL
 70
     0
  9
$DIMLIM
 70
     0
  9
$DIMTIH
 70
     0
  9
$DIMTOH
 70
     0
  9
$DIMSE1
 70
     0
  9
$DIMSE2
 70
     0
  9
$DIMTAD
 70
     1
  9
$DIMZIN
 70
     8
  9
$DIMBLK
  1

  9
$DIMASO
 70
     1
  9
$DIMSHO
 70
     1
  9
$DIMPOST
  1

  9
$DIMAPOST
  1

  9
$DIMALT
 70
     0
  9
$DIMALTD
 70
     3
  9
$DIMALTF
 40
0.03937007874016
  9
$DIMLFAC
 40
1.0
  9
$DIMTOFL
 70
     1
  9
$DIMTVP
 40
0.0
  9
$DIMTIX
 70
     0
  9
$DIMSOXD
 70
     0
  9
$DIMSAH
 70
     0
  9
$DIMBLK1
  1

  9
$DIMBLK2
  1

  9
$DIMSTYLE
  2
ISO-25
  9
$DIMCLRD
 70
     0
  9
$DIMCLRE
 70
     0
  9
$DIMCLRT
 70
     0
  9
$DIMTFAC
 40
1.0
  9
$DIMGAP
 40
0.625
  9
$DIMJUST
 70
     0
  9
$DIMSD1
 70
     0
  9
$DIMSD2
 70
     0
  9
$DIMTOLJ
 70
     0
  9
$DIMTZIN
 70
     8
  9
$DIMALTZ
 70
     0
  9
$DIMALTTZ
 70
     0
  9
$DIMFIT
 70
     3
  9
$DIMUPT
 70
     0
  9
$DIMUNIT
 70
     2
  9
$DIMDEC
 70
     2
  9
$DIMTDEC
 70
     2
  9
$DIMALTU
 70
     2
  9
$DIMALTTD
 70
     3
  9
$DIMTXSTY
  7
STANDARD
  9
$DIMAUNIT
 70
     0
  9
$LUNITS
 70
     2
  9
$LUPREC
 70
     2
  9
$SKETCHINC
 40
1.0
  9
$FILLETRAD
 40
10.0
  9
$AUNITS
 70
     0
  9
$AUPREC
 70
     0
  9
$MENU
  1
.
  9
$ELEVATION
 40
0.0
  9
$PELEVATION
 40
0.0
  9
$THICKNESS
 40
0.0
  9
$LIMCHECK
 70
     0
  9
$BLIPMODE
 70
     0
  9
$CHAMFERA
 40
10.0
  9
$CHAMFERB
 40
10.0
  9
$CHAMFERC
 40
20.0
  9
$CHAMFERD
 40
0.0
  9
$SKPOLY
 70
     0
  9
$TDCREATE
 40
2454596.550355717
  9
$TDUPDATE
 40
2454890.562001585
  9
$TDINDWG
 40
0.0843558681
  9
$TDUSRTIMER
 40
0.0843553125
  9
$USRTIMER
 70
     1
  9
$ANGBASE
 50
0.0
  9
$ANGDIR
 70
     0
  9
$PDMODE
 70
     0
  9
$PDSIZE
 40
0.0
  9
$PLINEWID
 40
0.0
  9
$COORDS
 70
     0
  9
$SPLFRAME
 70
     0
  9
$SPLINETYPE
 70
     6
  9
$SPLINESEGS
 70
     8
  9
$ATTDIA
 70
     0
  9
$ATTREQ
 70
     1
  9
$HANDLING
 70
 22529
  9
$HANDSEED
  5
13D6
  9
$SURFTAB1
 70
     6
  9
$SURFTAB2
 70
     6
  9
$SURFTYPE
 70
     6
  9
$SURFU
 70
     6
  9
$SURFV
 70
     6
  9
$UCSNAME
  2

  9
$UCSORG
 10
0.0
 20
0.0
 30
0.0
  9
$UCSXDIR
 10
1.0
 20
0.0
 30
0.0
  9
$UCSYDIR
 10
0.0
 20
1.0
 30
0.0
  9
$PUCSNAME
  2

  9
$PUCSORG
 10
0.0
 20
0.0
 30
0.0
  9
$PUCSXDIR
 10
1.0
 20
0.0
 30
0.0
  9
$PUCSYDIR
 10
0.0
 20
1.0
 30
0.0
  9
$USERI1
 70
     0
  9
$USERI2
 70
     0
  9
$USERI3
 70
     0
  9
$USERI4
 70
     0
  9
$USERI5
 70
     0
  9
$USERR1
 40
0.0
  9
$USERR2
 40
0.0
  9
$USERR3
 40
0.0
  9
$USERR4
 40
0.0
  9
$USERR5
 40
0.0
  9
$WORLDVIEW
 70
     1
  9
$SHADEDGE
 70
     3
  9
$SHADEDIF
 70
    70
  9
$TILEMODE
 70
     1
  9
$MAXACTVP
 70
    48
  9
$PINSBASE
 10
0.0
 20
0.0
 30
0.0
  9
$PLIMCHECK
 70
     0
  9
$PEXTMIN
 10
28.5263154029846
 20
19.82258291244505
 30
0.0
  9
$PEXTMAX
 10
256.7368386268614
 20
178.4032462120055
 30
0.0
  9
$PLIMMIN
 10
-5.873748779296875
 20
-5.873749732971191
  9
$PLIMMAX
 10
291.1369018554686
 20
204.0995779037474
  9
$UNITMODE
 70
     0
  9
$VISRETAIN
 70
     1
  9
$PLINEGEN
 70
     0
  9
$PSLTSCALE
 70
     1
  9
$TREEDEPTH
 70
  3020
  9
$PICKSTYLE
 70
     1
  9
$CMLSTYLE
  2
STANDARD
  9
$CMLJUST
 70
     0
  9
$CMLSCALE
 40
20.0
  9
$PROXYGRAPHICS
 70
     1
  9
$MEASUREMENT
 70
     0
  0
ENDSEC
  0
SECTION
  2
CLASSES
  0
CLASS
  1
ACDBDICTIONARYWDFLT
  2
AcDbDictionaryWithDefault
  3
AutoCAD 2000
 90
        0
280
     0
281
     0
  0
CLASS
  1
ACDBPLACEHOLDER
  2
AcDbPlaceHolder
  3
AutoCAD 2000
 90
        0
280
     0
281
     0
  0
CLASS
  1
LAYOUT
  2
AcDbLayout
  3
AutoCAD 2000
 90
        0
280
     0
281
     0
  0
CLASS
  1
DICTIONARYVAR
  2
AcDbDictionaryVar
  3
AutoCAD 2000
 90
        0
280
     0
281
     0
  0
CLASS
  1
LONG_TRANSACTION
  2
AcDbLongTransaction
  3
AutoCAD 2000
 90
        0
280
     0
281
     0
  0
CLASS
  1
LWPOLYLINE
  2
AcDbPolyline
  3
AutoCAD 2000
 90
        0
280
     0
281
     1
  0
CLASS
  1
HATCH
  2
AcDbHatch
  3
AutoCAD 2000
 90
        0
280
     0
281
     1
  0
CLASS
  1
XRECORD
  2
AcDbXrecord
  3
AutoCAD 2000
 90
        0
280
     0
281
     0
  0
CLASS
  1
LONG_TRANSACTION
  2
AcDbLongTransaction
  3
AutoCAD 2000
 90
        0
280
     0
281
     0
  0
CLASS
  1
LWPOLYLINE
  2
AcDbPolyline
  3
AutoCAD 2000
 90
        0
280
     0
281
     1
  0
CLASS
  1
HATCH
  2
AcDbHatch
  3
AutoCAD 2000
 90
        0
280
     0
281
     1
  0
CLASS
  1
XRECORD
  2
AcDbXrecord
  3
AutoCAD 2000
 90
        0
280
     0
281
     0
  0
CLASS
  1
AMGSETTINGSOBJ
  2
AmgSettingsObj
  3
"AcadM|Product Description: AutoCAD Mechanical 2000|Company: Autodesk"
 90
        0
280
     0
281
     0
  0
CLASS
  1
ACME_DOCUMENT
  2
AcMeDbDoc
  3
AcMeServices
 90
        0
280
     0
281
     0
  0
CLASS
  1
ACMESCOPE
  2
AcMeScope
  3
AcMeServices
 90
        0
280
     0
281
     0
  0
CLASS
  1
ACMECOMMANDHISTORY
  2
AcMeCommandHistory
  3
AcMeServices
 90
        0
280
     0
281
     0
  0
CLASS
  1
ACIMSYSVARMAN
  2
AcImSysVarManager
  3
AcMeServices
 90
        0
280
     0
281
     0
  0
CLASS
  1
ACIMREALSYSVAR
  2
AcImRealSysVar
  3
AcMeServices
 90
        0
280
     0
281
     0
  0
CLASS
  1
ACIMINTSYSVAR
  2
AcImIntSysVar
  3
AcMeServices
 90
        0
280
     0
281
     0
  0
CLASS
  1
ACMEDRAWINGMAN
  2
AcMeDrawingMan
  3
AcMeServices
 90
        0
280
     0
281
     0
  0
CLASS
  1
ACMEVIEW
  2
AcMeView
  3
AcMeServices
 90
        0
280
     0
281
     0
  0
CLASS
  1
ACDBENTITYCACHE
  2
AcMeEntityCache
  3
AcMeServices
 90
        0
280
     0
281
     0
  0
CLASS
  1
GSMANAGER
  2
AcMeGSManager
  3
AcMeServices
 90
        0
280
     0
281
     0
  0
CLASS
  1
AMDTINTERNALREACTOR
  2
AmdtInternalReactor
  3
AcMeServices
 90
        0
280
     0
281
     0
  0
CLASS
  1
ACMESTATEMGR
  2
AcMeStateMgr
  3
AcMeServices
 90
        0
280
     0
281
     0
  0
CLASS
  1
ACGREFMASTER
  2
AcGrefMaster
  3
AcAttribServices
 90
        0
280
     0
281
     0
  0
CLASS
  1
AM_DRAWING_MGR
  2
AcDmDwgMgr
  3
AcMechDwgViewMgmt
 90
        0
280
     0
281
     0
  0
CLASS
  1
AM_DWG_DOCUMENT
  2
AcDmDwgDocument
  3
AcMechDwgViewMgmt
 90
        0
280
     0
281
     0
  0
CLASS
  1
AM_DWG_SHEET
  2
AcDmSheet
  3
AcMechDwgViewMgmt
 90
        0
280
     0
281
     0
  0
CLASS
  1
AM_VIEWDIMPARMAP
  2
AcDmViewDimParMap
  3
AcMechDwgViewMgmt
 90
        0
280
     0
281
     0
  0
CLASS
  1
AM_DWGMGR_NAME
  2
AcDmDwgMgrName
  3
AcMechDwgViewMgmt
 90
        0
280
     0
281
     0
  0
CLASS
  1
ACME_DATABASE
  2
AcMeDbDatabase
  3
AcMeServices
 90
        0
280
     0
281
     0
  0
CLASS
  1
ACRFINSADJUSTERMGR
  2
AcRfInsAdjusterMgr
  3
AcMeServices
 90
        0
280
     0
281
     0
  0
CLASS
  1
ACGREFACADMASTER
  2
AcGrefacadMaster
  3
AcGrefServices
 90
        0
280
     0
281
     0
  0
CLASS
  1
AMDTMENUSTATEMGR
  2
AmdtMenuStateMgr
  3
McadcomServices
 90
        0
280
     0
281
     0
  0
CLASS
  1
AMDTMCOMMENUSTATE
  2
AmdtMcomMenuState
  3
McadcomServices
 90
        0
280
     0
281
     0
  0
CLASS
  1
AMIMASTER
  2
AmiMaster
  3
AmiServices
 90
        0
280
     0
281
     0
  0
CLASS
  1
ASAPP
  2
AcAsAppObject
  3
AutoSurfServices
 90
        0
280
     0
281
     0
  0
CLASS
  1
IM_STATIC_MAN
  2
AcImStaticVarManager
  3
AcMeServices
 90
        0
280
     0
281
     0
  0
CLASS
  1
ACIMSTRSYSVAR
  2
AcImStrSysVar
  3
AcMeServices
 90
        0
280
     0
281
     0
  0
CLASS
  1
ACIMDBLSTATICVAR
  2
AcImDblStaticVar
  3
AcMeServices
 90
        0
280
     0
281
     0
  0
CLASS
  1
ACIMSTRSTATICVAR
  2
AcImStrStaticVar
  3
AcMeServices
 90
        0
280
     0
281
     0
  0
CLASS
  1
ACIMINTSTATICVAR
  2
AcImIntStaticVar
  3
AcMeServices
 90
        0
280
     0
281
     0
  0
CLASS
  1
ACASGREFMASTER
  2
AcAsGrefMaster
  3
AutoSurfResolverServices
 90
        0
280
     0
281
     0
  0
CLASS
  1
ACADGREFMODULE
  2
AcAdGrefModule
  3
AdGrefServices
 90
        0
280
     0
281
     0
  0
CLASS
  1
AMDTMAPISURFMOUDULE
  2
AmdtMApiSurfModule
  3
MApiSurfServices
 90
        0
280
     0
281
     0
  0
CLASS
  1
MAPIAMMOUDLE
  2
MApiAmModule
  3
MApiAmServices
 90
        0
280
     0
281
     0
  0
CLASS
  1
AMDTADMENUSTATE
  2
AmdtAdMenuState
  3
DesignerServices
 90
        0
280
     0
281
     0
  0
CLASS
  1
ADAPPL
  2
AcAdAppl
  3
DesignerServices
 90
        0
280
     0
281
     0
  0
CLASS
  1
DEPMGR
  2
AcAdDepMgr
  3
DesignerServices
 90
        0
280
     0
281
     0
  0
CLASS
  1
PARAMMGR
  2
AcAdParamMgr
  3
DesignerServices
 90
        0
280
     0
281
     0
  0
CLASS
  1
PARAMSCOPE
  2
AcAdParamScope
  3
DesignerServices
 90
        0
280
     0
281
     0
  0
CLASS
  1
NAMEDAPPL
  2
AcAdNamedAppl
  3
DesignerServices
 90
        0
280
     0
281
     0
  0
CLASS
  1
AMDTDMMENUSTATE
  2
AmdtDmMenuState
  3
AcMechDwgViewMgmt
 90
        0
280
     0
281
     0
  0
CLASS
  1
MAPIADMODULE
  2
MApiAdModule
  3
MApiAdServices
 90
        0
280
     0
281
     0
  0
CLASS
  1
AMDTAMMENUSTATE
  2
AmdtAmMenuState
  3
DesignerAssemblies
 90
        0
280
     0
281
     0
  0
CLASS
  1
ACAMPROJECT
  2
AcAmProject
  3
DesignerAssemblies
 90
        0
280
     0
281
     0
  0
CLASS
  1
ACAMGRCOMPDEF
  2
AcAmGrCompDef
  3
DesignerAssemblies
 90
        0
280
     0
281
     0
  0
CLASS
  1
ACCMCONTEXT
  2
AcCmContext
  3
DesignerAssemblies
 90
        0
280
     0
281
     0
  0
CLASS
  1
ACAMCOMPDEF
  2
AcAmCompDef
  3
DesignerAssemblies
 90
        0
280
     0
281
     0
  0
CLASS
  1
ACAMCOMPDEFMGR
  2
AcAmCompDefMgr
  3
DesignerAssemblies
 90
        0
280
     0
281
     0
  0
CLASS
  1
AMCONTEXTMGR
  2
AcAmContextMgr
  3
DesignerAssemblies
 90
        0
280
     0
281
     0
  0
CLASS
  1
ACAMCONTEXTMODELER
  2
AcAmContextModeler
  3
DesignerAssemblies
 90
        0
280
     0
281
     0
  0
CLASS
  1
ACMDATADICTIONARY
  2
AcmDataDictionary
  3
"AcmSymBB|Product Description: AutoCAD Mechanical 2000|Company: Autodesk"
 90
        0
280
     0
281
     0
  0
CLASS
  1
ACMDATAENTRYBLOCK
  2
AcmDataEntryBlock
  3
"AcmSymBB|Product Description: AutoCAD Mechanical 2000|Company: Autodesk"
 90
        0
280
     0
281
     0
  0
CLASS
  1
CATALOGSTATE
  2
AcAmCatalogState
  3
DesignerAssemblies
 90
        0
280
     0
281
     0
  0
CLASS
  1
ACAMGRCOMPDEFSET
  2
AcAmGrCompDefSet
  3
DesignerAssemblies
 90
        0
280
     0
281
     0
  0
CLASS
  1
AMDTBROWSERDBTAB
  2
AmdtBrowserDbTab
  3
McadcomServices
 90
        0
280
     0
281
     0
  0
CLASS
  1
CBROWSERAPPOBJECT
  2
CBrowserAppObject
  3
McadcomServices
 90
        0
280
     0
281
     0
  0
CLASS
  1
DM_PLACEHOLDER
  2
AcDmSelsetPlaceholder
  3
AcMechDwgViewMgmt
 90
        0
280
     0
281
     0
  0
CLASS
  1
AMGOBJPROPCFG
  2
AmgObjPropCfg
  3
"AmgLay|Product Description: AutoCAD Mechanical 2000|Company: Autodesk"
 90
        1
280
     0
281
     0
  0
CLASS
  1
ACAMGFILTERDAT
  2
AcAmgFilterDat
  3
"AcadM|Product Description: AutoCAD Mechanical 2000|Company: Autodesk"
 90
        0
280
     0
281
     0
  0
CLASS
  1
LAYER_INDEX
  2
AcDbLayerIndex
  3
AutoCAD 2000
 90
        0
280
     0
281
     0
  0
CLASS
  1
IDBUFFER
  2
AcDbIdBuffer
  3
AutoCAD 2000
 90
        0
280
     0
281
     0
  0
CLASS
  1
ACAD_PROXY_OBJECT_WRAPPER
  2
AcDbProxyObjectWrapper
  3
AutoCAD 2000
 90
        0
280
     0
281
     0
  0
CLASS
  1
LONG_TRANSACTION
  2
AcDbLongTransaction
  3
AutoCAD 2000
 90
        0
280
     0
281
     0
  0
CLASS
  1
LWPOLYLINE
  2
AcDbPolyline
  3
AutoCAD 2000
 90
        0
280
     0
281
     1
  0
CLASS
  1
HATCH
  2
AcDbHatch
  3
AutoCAD 2000
 90
        0
280
     0
281
     1
  0
CLASS
  1
XRECORD
  2
AcDbXrecord
  3
AutoCAD 2000
 90
        0
280
     0
281
     0
  0
CLASS
  1
LONG_TRANSACTION
  2
AcDbLongTransaction
  3
AutoCAD 2000
 90
        0
280
     0
281
     0
  0
CLASS
  1
LWPOLYLINE
  2
AcDbPolyline
  3
AutoCAD 2000
 90
        0
280
     0
281
     1
  0
CLASS
  1
HATCH
  2
AcDbHatch
  3
AutoCAD 2000
 90
        0
280
     0
281
     1
  0
CLASS
  1
XRECORD
  2
AcDbXrecord
  3
AutoCAD 2000
 90
        0
280
     0
281
     0
  0
CLASS
  1
LONG_TRANSACTION
  2
AcDbLongTransaction
  3
AutoCAD 2000
 90
        0
280
     0
281
     0
  0
CLASS
  1
LWPOLYLINE
  2
AcDbPolyline
  3
AutoCAD 2000
 90
        0
280
     0
281
     1
  0
CLASS
  1
HATCH
  2
AcDbHatch
  3
AutoCAD 2000
 90
        0
280
     0
281
     1
  0
CLASS
  1
XRECORD
  2
AcDbXrecord
  3
AutoCAD 2000
 90
        0
280
     0
281
     0
  0
CLASS
  1
LONG_TRANSACTION
  2
AcDbLongTransaction
  3
AutoCAD 2000
 90
        0
280
     0
281
     0
  0
CLASS
  1
LWPOLYLINE
  2
AcDbPolyline
  3
AutoCAD 2000
 90
        0
280
     0
281
     1
  0
CLASS
  1
HATCH
  2
AcDbHatch
  3
AutoCAD 2000
 90
        0
280
     0
281
     1
  0
CLASS
  1
XRECORD
  2
AcDbXrecord
  3
AutoCAD 2000
 90
        0
280
     0
281
     0
  0
CLASS
  1
LONG_TRANSACTION
  2
AcDbLongTransaction
  3
AutoCAD 2000
 90
        0
280
     0
281
     0
  0
CLASS
  1
LWPOLYLINE
  2
AcDbPolyline
  3
AutoCAD 2000
 90
        0
280
     0
281
     1
  0
CLASS
  1
HATCH
  2
AcDbHatch
  3
AutoCAD 2000
 90
        0
280
     0
281
     1
  0
CLASS
  1
XRECORD
  2
AcDbXrecord
  3
AutoCAD 2000
 90
        0
280
     0
281
     0
  0
CLASS
  1
LONG_TRANSACTION
  2
AcDbLongTransaction
  3
AutoCAD 2000
 90
        0
280
     0
281
     0
  0
CLASS
  1
LWPOLYLINE
  2
AcDbPolyline
  3
AutoCAD 2000
 90
        0
280
     0
281
     1
  0
CLASS
  1
HATCH
  2
AcDbHatch
  3
AutoCAD 2000
 90
        0
280
     0
281
     1
  0
CLASS
  1
XRECORD
  2
AcDbXrecord
  3
AutoCAD 2000
 90
        0
280
     0
281
     0
  0
CLASS
  1
LONG_TRANSACTION
  2
AcDbLongTransaction
  3
AutoCAD 2000
 90
        0
280
     0
281
     0
  0
CLASS
  1
LWPOLYLINE
  2
AcDbPolyline
  3
AutoCAD 2000
 90
        0
280
     0
281
     1
  0
CLASS
  1
HATCH
  2
AcDbHatch
  3
AutoCAD 2000
 90
        0
280
     0
281
     1
  0
CLASS
  1
XRECORD
  2
AcDbXrecord
  3
AutoCAD 2000
 90
        0
280
     0
281
     0
  0
CLASS
  1
LONG_TRANSACTION
  2
AcDbLongTransaction
  3
AutoCAD 2000
 90
        0
280
     0
281
     0
  0
CLASS
  1
LWPOLYLINE
  2
AcDbPolyline
  3
AutoCAD 2000
 90
        0
280
     0
281
     1
  0
CLASS
  1
HATCH
  2
AcDbHatch
  3
AutoCAD 2000
 90
        0
280
     0
281
     1
  0
CLASS
  1
XRECORD
  2
AcDbXrecord
  3
AutoCAD 2000
 90
        0
280
     0
281
     0
  0
CLASS
  1
LONG_TRANSACTION
  2
AcDbLongTransaction
  3
AutoCAD 2000
 90
        0
280
     0
281
     0
  0
CLASS
  1
LWPOLYLINE
  2
AcDbPolyline
  3
AutoCAD 2000
 90
        0
280
     0
281
     1
  0
CLASS
  1
HATCH
  2
AcDbHatch
  3
AutoCAD 2000
 90
        0
280
     0
281
     1
  0
CLASS
  1
XRECORD
  2
AcDbXrecord
  3
AutoCAD 2000
 90
        0
280
     0
281
     0
  0
CLASS
  1
LONG_TRANSACTION
  2
AcDbLongTransaction
  3
AutoCAD 2000
 90
        0
280
     0
281
     0
  0
CLASS
  1
LWPOLYLINE
  2
AcDbPolyline
  3
AutoCAD 2000
 90
        0
280
     0
281
     1
  0
CLASS
  1
HATCH
  2
AcDbHatch
  3
AutoCAD 2000
 90
        0
280
     0
281
     1
  0
CLASS
  1
XRECORD
  2
AcDbXrecord
  3
AutoCAD 2000
 90
        0
280
     0
281
     0
  0
CLASS
  1
LONG_TRANSACTION
  2
AcDbLongTransaction
  3
AutoCAD 2000
 90
        0
280
     0
281
     0
  0
CLASS
  1
LWPOLYLINE
  2
AcDbPolyline
  3
AutoCAD 2000
 90
        0
280
     0
281
     1
  0
CLASS
  1
HATCH
  2
AcDbHatch
  3
AutoCAD 2000
 90
        0
280
     0
281
     1
  0
CLASS
  1
XRECORD
  2
AcDbXrecord
  3
AutoCAD 2000
 90
        0
280
     0
281
     0
  0
CLASS
  1
LONG_TRANSACTION
  2
AcDbLongTransaction
  3
AutoCAD 2000
 90
        0
280
     0
281
     0
  0
CLASS
  1
LWPOLYLINE
  2
AcDbPolyline
  3
AutoCAD 2000
 90
        0
280
     0
281
     1
  0
CLASS
  1
HATCH
  2
AcDbHatch
  3
AutoCAD 2000
 90
        0
280
     0
281
     1
  0
CLASS
  1
XRECORD
  2
AcDbXrecord
  3
AutoCAD 2000
 90
        0
280
     0
281
     0
  0
CLASS
  1
LONG_TRANSACTION
  2
AcDbLongTransaction
  3
AutoCAD 2000
 90
        0
280
     0
281
     0
  0
CLASS
  1
LWPOLYLINE
  2
AcDbPolyline
  3
AutoCAD 2000
 90
        0
280
     0
281
     1
  0
CLASS
  1
HATCH
  2
AcDbHatch
  3
AutoCAD 2000
 90
        0
280
     0
281
     1
  0
CLASS
  1
XRECORD
  2
AcDbXrecord
  3
AutoCAD 2000
 90
        0
280
     0
281
     0
  0
CLASS
  1
LONG_TRANSACTION
  2
AcDbLongTransaction
  3
AutoCAD 2000
 90
        0
280
     0
281
     0
  0
CLASS
  1
LWPOLYLINE
  2
AcDbPolyline
  3
AutoCAD 2000
 90
        0
280
     0
281
     1
  0
CLASS
  1
HATCH
  2
AcDbHatch
  3
AutoCAD 2000
 90
        0
280
     0
281
     1
  0
CLASS
  1
XRECORD
  2
AcDbXrecord
  3
AutoCAD 2000
 90
        0
280
     0
281
     0
  0
CLASS
  1
LONG_TRANSACTION
  2
AcDbLongTransaction
  3
AutoCAD 2000
 90
        0
280
     0
281
     0
  0
CLASS
  1
LWPOLYLINE
  2
AcDbPolyline
  3
AutoCAD 2000
 90
        0
280
     0
281
     1
  0
CLASS
  1
HATCH
  2
AcDbHatch
  3
AutoCAD 2000
 90
        0
280
     0
281
     1
  0
CLASS
  1
XRECORD
  2
AcDbXrecord
  3
AutoCAD 2000
 90
        0
280
     0
281
     0
  0
ENDSEC
  0
SECTION
  2
TABLES
  0
TABLE
  2
VPORT
  5
8
330
0
100
AcDbSymbolTable
 70
     3
  0
VPORT
  5
13B3
330
8
100
AcDbSymbolTableRecord
100
AcDbViewportTableRecord
  2
*ACTIVE
 70
     0
 10
0.0
 20
0.0
 11
1.0
 21
1.0
 12
-920.1985857568004
 22
-448.1031971176231
 13
0.0
 23
0.0
 14
10.0
 24
10.0
 15
10.0
 25
10.0
 16
0.0
 26
0.0
 36
1.0
 17
1140.949166581189
 27
552.5761744424462
 37
0.0
 40
271.2832097492938
 41
1.340220385674931
 42
50.0
 43
0.0
 44
0.0
 50
0.0
 51
0.0
 71
     0
 72
   100
 73
     1
 74
     3
 75
     0
 76
     0
 77
     0
 78
     0
  0
ENDTAB
  0
TABLE
  2
LTYPE
  5
5
330
0
100
AcDbSymbolTable
 70
    10
  0
LTYPE
  5
14
330
5
100
AcDbSymbolTableRecord
100
AcDbLinetypeTableRecord
  2
BYBLOCK
 70
     0
  3

 72
    65
 73
     0
 40
0.0
  0
LTYPE
  5
15
330
5
100
AcDbSymbolTableRecord
100
AcDbLinetypeTableRecord
  2
BYLAYER
 70
     0
  3

 72
    65
 73
     0
 40
0.0
  0
LTYPE
  5
16
330
5
100
AcDbSymbolTableRecord
100
AcDbLinetypeTableRecord
  2
CONTINUOUS
 70
     0
  3
Solid line
 72
    65
 73
     0
 40
0.0
  0
LTYPE
  5
5C6
330
5
100
AcDbSymbolTableRecord
100
AcDbLinetypeTableRecord
  2
AM_ISO02W050
 70
     0
  3
__ __ __ __ __ __ __ __ __ __ __ __ __ __ __
 72
    65
 73
     2
 40
7.5
 49
6.0
 74
     0
 49
-1.5
 74
     0
  0
LTYPE
  5
5C7
330
5
100
AcDbSymbolTableRecord
100
AcDbLinetypeTableRecord
  2
AM_ISO08W050
 70
     0
  3
____ . ____ . ____ . ____ . ____ . ____ . ____
 72
    65
 73
     4
 40
18.0
 49
12.0
 74
     0
 49
-1.5
 74
     0
 49
3.0
 74
     0
 49
-1.5
 74
     0
  0
LTYPE
  5
5C8
330
5
100
AcDbSymbolTableRecord
100
AcDbLinetypeTableRecord
  2
AM_ISO09W050
 70
     0
  3
_____ . . _____ . . _____ . . ____ .. ____
 72
    65
 73
     6
 40
22.5
 49
12.0
 74
     0
 49
-1.5
 74
     0
 49
3.0
 74
     0
 49
-1.5
 74
     0
 49
3.0
 74
     0
 49
-1.5
 74
     0
  0
LTYPE
  5
5C9
330
5
100
AcDbSymbolTableRecord
100
AcDbLinetypeTableRecord
  2
AMCONSTR
 70
     0
  3
_______________________
 72
    65
 73
     2
 40
9999.0
 49
9999.0
 74
     0
 49
0.0
 74
     0
  0
LTYPE
  5
5CA
330
5
100
AcDbSymbolTableRecord
100
AcDbLinetypeTableRecord
  2
AM_ISO08W050X2
 70
     0
  3
__ . __ . __ . __ . __ . __
 72
    65
 73
     4
 40
9.0
 49
6.0
 74
     0
 49
-0.75
 74
     0
 49
1.5
 74
     0
 49
-0.75
 74
     0
  0
LTYPE
  5
5CB
330
5
100
AcDbSymbolTableRecord
100
AcDbLinetypeTableRecord
  2
AM_ISO02W050X2
 70
     0
  3
 _ _ _ _ _ _ _ _ _ _ _ _
 72
    65
 73
     2
 40
3.75
 49
3.0
 74
     0
 49
-0.75
 74
     0
  0
LTYPE
  5
5CE
330
5
100
AcDbSymbolTableRecord
100
AcDbLinetypeTableRecord
  2
AMZIGZAG
 70
     0
  3
/\/-/\/-/\/-/\/-/\/-/\/
 72
    65
 73
     2
 40
11.00009999999999
 49
0.0001
 74
     4
 75
   135
340
5CD
 46
0.04
 50
0.0
 44
0.0
 45
0.0
 49
-11.0
 74
     0
  0
LTYPE
  5
BFF
330
5
100
AcDbSymbolTableRecord
100
AcDbLinetypeTableRecord
  2
CENTER
 70
     0
  3
Center ____ _ ____ _ ____ _ ____ _ ____ _ ____
 72
    65
 73
     4
 40
2.0
 49
1.25
 74
     0
 49
-0.25
 74
     0
 49
0.25
 74
     0
 49
-0.25
 74
     0
  0
LTYPE
  5
C9F
330
5
100
AcDbSymbolTableRecord
100
AcDbLinetypeTableRecord
  2
PHANTOM2
 70
     0
  3
Phantom (.5x) ___ _ _ ___ _ _ ___ _ _ ___ _ _
 72
    65
 73
     6
 40
1.25
 49
0.625
 74
     0
 49
-0.125
 74
     0
 49
0.125
 74
     0
 49
-0.125
 74
     0
 49
0.125
 74
     0
 49
-0.125
 74
     0
  0
ENDTAB
  0
TABLE
  2
LAYER
  5
2
102
{ACAD_XDICTIONARY
360
41
102
}
330
0
100
AcDbSymbolTable
 70
     8
  0
LAYER
  5
10
330
2
100
AcDbSymbolTableRecord
100
AcDbLayerTableRecord
  2
0
 70
     0
 62
     7
  6
CONTINUOUS
  0
LAYER
  5
35
330
2
100
AcDbSymbolTableRecord
100
AcDbLayerTableRecord
  2
10
 70
     0
 62
     4
  6
CONTINUOUS
  0
LAYER
  5
36
330
2
100
AcDbSymbolTableRecord
100
AcDbLayerTableRecord
  2
12
 70
     0
 62
     3
  6
CENTER
  0
LAYER
  5
37
330
2
100
AcDbSymbolTableRecord
100
AcDbLayerTableRecord
  2
16
 70
     0
 62
     4
  6
CENTER
  0
LAYER
  5
38
330
2
100
AcDbSymbolTableRecord
100
AcDbLayerTableRecord
  2
19
 70
     0
 62
     7
  6
CONTINUOUS
  0
LAYER
  5
636
330
2
100
AcDbSymbolTableRecord
100
AcDbLayerTableRecord
  2
DEFPOINTS
 70
     0
 62
     7
  6
CONTINUOUS
  0
LAYER
  5
B79
330
2
100
AcDbSymbolTableRecord
100
AcDbLayerTableRecord
  2
17
 70
     0
 62
     2
  6
CENTER
  0
ENDTAB
  0
TABLE
  2
STYLE
  5
3
330
0
100
AcDbSymbolTable
 70
     3
  0
STYLE
  5
11
330
3
100
AcDbSymbolTableRecord
100
AcDbTextStyleTableRecord
  2
STANDARD
 70
     0
 40
0.0
 41
1.0
 50
0.0
 71
     0
 42
2.5
  3
txt
  4

  0
STYLE
  5
3A
330
3
100
AcDbSymbolTableRecord
100
AcDbTextStyleTableRecord
  2
STANDARD1X3
 70
     0
 40
9.599999999999999
 41
0.7
 50
0.0
 71
     0
 42
9.599999999999999
  3
romans.shx
  4
extfont.shx
  0
STYLE
  5
5CD
330
3
100
AcDbSymbolTableRecord
100
AcDbTextStyleTableRecord
  2

 70
     1
 40
0.0
 41
1.0
 50
0.0
 71
     0
 42
2.5
  3
ltypeshp.shx
  4

  0
ENDTAB
  0
TABLE
  2
VIEW
  5
6
330
0
100
AcDbSymbolTable
 70
     0
  0
ENDTAB
  0
TABLE
  2
UCS
  5
7
330
0
100
AcDbSymbolTable
 70
     0
  0
ENDTAB
  0
TABLE
  2
APPID
  5
9
330
0
100
AcDbSymbolTable
 70
    24
  0
APPID
  5
12
330
9
100
AcDbSymbolTableRecord
100
AcDbRegAppTableRecord
  2
ACAD
 70
     0
  0
APPID
  5
3C
330
9
100
AcDbSymbolTableRecord
100
AcDbRegAppTableRecord
  2
ACAD_PSEXT
 70
     0
  0
APPID
  5
3D
330
9
100
AcDbSymbolTableRecord
100
AcDbRegAppTableRecord
  2
ACAD_DSTYLE_DIMEXT_LENGTH
 70
     0
  0
APPID
  5
3E
330
9
100
AcDbSymbolTableRecord
100
AcDbRegAppTableRecord
  2
ACAD_DSTYLE_DIMEXT_ENABLED
 70
     0
  0
APPID
  5
3F
330
9
100
AcDbSymbolTableRecord
100
AcDbRegAppTableRecord
  2
ACAD_DSTYLE_DIMJOGGED_JOGA
 70
     0
  0
APPID
  5
40
330
9
100
AcDbSymbolTableRecord
100
AcDbRegAppTableRecord
  2
ACAD_DSTYLE_DIMARC_LENGTH_
 70
     0
  0
APPID
  5
500
330
9
100
AcDbSymbolTableRecord
100
AcDbRegAppTableRecord
  2
GENIUS_GENDIM_13
 70
     0
  0
APPID
  5
501
330
9
100
AcDbSymbolTableRecord
100
AcDbRegAppTableRecord
  2
GENIUS_GENDTOL_13
 70
     0
  0
APPID
  5
502
330
9
100
AcDbSymbolTableRecord
100
AcDbRegAppTableRecord
  2
GENIUS_GE3DTOL_13
 70
     0
  0
APPID
  5
504
330
9
100
AcDbSymbolTableRecord
100
AcDbRegAppTableRecord
  2
MCAD_NO_VIS
 70
     0
  0
APPID
  5
505
330
9
100
AcDbSymbolTableRecord
100
AcDbRegAppTableRecord
  2
ACAD_TEMP_GRAPHIC
 70
     0
  0
APPID
  5
537
330
9
100
AcDbSymbolTableRecord
100
AcDbRegAppTableRecord
  2
AD_DRAW
 70
     0
  0
APPID
  5
53A
330
9
100
AcDbSymbolTableRecord
100
AcDbRegAppTableRecord
  2
ACATTRIBSERVICES
 70
     0
  0
APPID
  5
586
330
9
100
AcDbSymbolTableRecord
100
AcDbRegAppTableRecord
  2
ASURF_PCURVE_APPNAME
 70
     0
  0
APPID
  5
5B5
330
9
100
AcDbSymbolTableRecord
100
AcDbRegAppTableRecord
  2
DESIGNERASSEMBLIES
 70
     0
  0
APPID
  5
5BD
330
9
100
AcDbSymbolTableRecord
100
AcDbRegAppTableRecord
  2
ACADM_DIM_EDIT
 70
     0
  0
APPID
  5
5BE
330
9
100
AcDbSymbolTableRecord
100
AcDbRegAppTableRecord
  2
AMDT_DM_ADJ
 70
     0
  0
APPID
  5
642
330
9
100
AcDbSymbolTableRecord
100
AcDbRegAppTableRecord
  2
ACAECLAYERSTANDARD
 70
     0
  0
APPID
  5
CBD
330
9
100
AcDbSymbolTableRecord
100
AcDbRegAppTableRecord
  2
GENIUS_GENODEF_13
 70
     0
  0
APPID
  5
CBE
330
9
100
AcDbSymbolTableRecord
100
AcDbRegAppTableRecord
  2
GENIUS_GENOREF_13
 70
     0
  0
APPID
  5
CBF
330
9
100
AcDbSymbolTableRecord
100
AcDbRegAppTableRecord
  2
GENIUS_GENOBJ-N-CEN_13
 70
     0
  0
APPID
  5
CC0
330
9
100
AcDbSymbolTableRecord
100
AcDbRegAppTableRecord
  2
GENIUS_GENREC_14
 70
     0
  0
APPID
  5
CC1
330
9
100
AcDbSymbolTableRecord
100
AcDbRegAppTableRecord
  2
GENIUS_GENOBJ-N-REC_13
 70
     0
  0
APPID
  5
CC2
330
9
100
AcDbSymbolTableRecord
100
AcDbRegAppTableRecord
  2
GENIUS_GENOBJ-N-FIL_13
 70
     0
  0
ENDTAB
  0
TABLE
  2
DIMSTYLE
  5
A
330
0
100
AcDbSymbolTable
 70
     2
  0
DIMSTYLE
105
27
330
A
100
AcDbSymbolTableRecord
100
AcDbDimStyleTableRecord
  2
ISO-25
 70
     0
  3

  4

  5

  6

  7

 40
1.0
 41
2.5
 42
0.625
 43
3.75
 44
1.25
 45
0.0
 46
0.0
 47
0.0
 48
0.0
140
2.5
141
2.5
142
0.0
143
0.03937007874016
144
1.0
145
0.0
146
1.0
147
0.625
 71
     0
 72
     0
 73
     0
 74
     0
 75
     0
 76
     0
 77
     1
 78
     8
170
     0
171
     3
172
     1
173
     0
174
     0
175
     0
176
     0
177
     0
178
     0
270
     2
271
     2
272
     2
273
     2
274
     3
340
11
275
     0
280
     0
281
     0
282
     0
283
     0
284
     8
285
     0
286
     0
287
     3
288
     0
  0
DIMSTYLE
105
CBC
330
A
100
AcDbSymbolTableRecord
100
AcDbDimStyleTableRecord
  2
AM_JIS
 70
     0
  3

  4
"
  5
OPEN30
  6
OPEN30
  7
OPEN30
 40
1.0
 41
2.5
 42
1.0
 43
10.0
 44
1.0
 45
0.0
 46
0.0
 47
0.1
 48
0.1
140
3.5
141
0.0
142
0.0
143
0.0393701
144
1.0
145
0.0
146
0.71
147
1.5
 71
     0
 72
     0
 73
     0
 74
     0
 75
     0
 76
     0
 77
     3
 78
     8
170
     0
171
     2
172
     1
173
     0
174
     0
175
     0
176
   256
177
   256
178
     2
270
     2
271
     2
272
     3
273
     2
274
     4
340
11
275
     0
280
     0
281
     0
282
     0
283
     0
284
     0
285
     0
286
     0
287
     3
288
     0
  0
ENDTAB
  0
TABLE
  2
BLOCK_RECORD
  5
1
330
0
100
AcDbSymbolTable
 70
     2
  0
BLOCK_RECORD
  5
1F
102
{ACAD_XDICTIONARY
360
438
102
}
330
1
100
AcDbSymbolTableRecord
100
AcDbBlockTableRecord
  2
*MODEL_SPACE
  0
BLOCK_RECORD
  5
23
102
{ACAD_XDICTIONARY
360
43A
102
}
330
1
100
AcDbSymbolTableRecord
100
AcDbBlockTableRecord
  2
*PAPER_SPACE
  0
BLOCK_RECORD
  5
5AC
330
1
100
AcDbSymbolTableRecord
100
AcDbBlockTableRecord
  2
*U0
  0
BLOCK_RECORD
  5
C99
330
1
100
AcDbSymbolTableRecord
100
AcDbBlockTableRecord
  2
_OPEN30
  0
ENDTAB
  0
ENDSEC
  0
SECTION
  2
BLOCKS
  0
BLOCK
  5
20
330
1F
100
AcDbEntity
  8
0
100
AcDbBlockBegin
  2
*MODEL_SPACE
 70
     0
 10
0.0
 20
0.0
 30
0.0
  3
*MODEL_SPACE
  1

  0
ENDBLK
  5
21
330
1F
100
AcDbEntity
  8
0
100
AcDbBlockEnd
  0
BLOCK
  5
24
330
23
100
AcDbEntity
 67
     1
  8
0
100
AcDbBlockBegin
  2
*PAPER_SPACE
 70
     0
 10
0.0
 20
0.0
 30
0.0
  3
*PAPER_SPACE
  1

  0
ENDBLK
  5
25
330
23
100
AcDbEntity
 67
     1
  8
0
100
AcDbBlockEnd
  0
BLOCK
  5
5AD
330
5AC
100
AcDbEntity
  8
0
100
AcDbBlockBegin
  2
*U0
 70
     1
 10
0.0
 20
0.0
 30
0.0
  3
*U0
  1

  0
ENDBLK
  5
5AE
330
5AC
100
AcDbEntity
  8
0
100
AcDbBlockEnd
  0
BLOCK
  5
C9D
330
C99
100
AcDbEntity
  8
0
100
AcDbBlockBegin
  2
_OPEN30
 70
     0
 10
0.0
 20
0.0
 30
0.0
  3
_OPEN30
  1

1001
ACAD
1000
RTMaterial
1005
0
  0
LINE
  5
C9A
330
C99
100
AcDbEntity
  8
0
 62
     0
100
AcDbLine
 10
-1.0
 20
0.26794919
 30
0.0
 11
0.0
 21
0.0
 31
0.0
1001
ACAD
1000
RTMaterial
1005
0
  0
LINE
  5
C9B
330
C99
100
AcDbEntity
  8
0
 62
     0
100
AcDbLine
 10
0.0
 20
0.0
 30
0.0
 11
-1.0
 21
-0.26794919
 31
0.0
1001
ACAD
1000
RTMaterial
1005
0
  0
LINE
  5
C9C
330
C99
100
AcDbEntity
  8
0
 62
     0
100
AcDbLine
 10
0.0
 20
0.0
 30
0.0
 11
-1.0
 21
0.0
 31
0.0
1001
ACAD
1000
RTMaterial
1005
0
  0
ENDBLK
  5
C9E
330
C99
100
AcDbEntity
  8
0
100
AcDbBlockEnd
1001
ACAD
1000
RTMaterial
1005
0
  0
ENDSEC
  0
SECTION
  2
ENTITIES
  0
MTEXT
  5
ABA
330
1F
100
AcDbEntity
  8
19
100
AcDbMText
 10
362.3974954104048
 20
46.3407519488179
 30
0.0
 40
5.0
 41
70.16
 71
     1
 72
     5
  1
HALH06\PFR-HAL-H5.5K
  7
STANDARD1X3
1001
ACAD
1000
MTEXTBEGIN
1070
    73
1070
     1
1070
    44
1040
1.0
1070
    74
1070
     0
1000
MTEXTEND
  0
LINE
  5
F91
330
1F
100
AcDbEntity
  8
16
100
AcDbLine
 10
120.1008176138298
 20
28.09482127417989
 30
0.0
 11
120.1008176138417
 21
180.8504283626889
 31
0.0
1001
GENIUS_GENODEF_13
1002
{
1000
HIER
1070
     0
1002
}
1002
{
1000
MANEDIT
1070
     0
1002
}
1002
{
1000
NOSEL
1070
     0
1002
}
1002
{
1000
BEHIND
1070
     0
1002
}
1002
{
1000
REACTOR
1002
}
1001
GENIUS_GENOBJ-N-CEN_13
1002
{
1000
OWNER
1000
GEN
1002
}
  0
LINE
  5
F92
330
1F
100
AcDbEntity
  8
10
100
AcDbLine
 10
280.8210934576219
 20
33.83309218837842
 30
0.0
 11
260.3210934576231
 21
33.8330921883847
 31
0.0
  0
LINE
  5
F93
330
1F
100
AcDbEntity
  8
10
100
AcDbLine
 10
260.3210934576231
 20
31.83309218838358
 30
0.0
 11
280.8210934576214
 21
31.83309218837842
 31
0.0
  0
LINE
  5
F94
330
1F
100
AcDbEntity
  8
10
100
AcDbLine
 10
260.3210934576231
 20
33.83309218838359
 30
0.0
 11
260.3210934576231
 21
31.83309218838358
 31
0.0
  0
LINE
  5
F95
330
1F
100
AcDbEntity
  8
16
100
AcDbLine
 10
296.3210934576127
 20
30.49795383184917
 30
0.0
 11
296.3210934576332
 21
179.1167502791231
 31
0.0
1001
GENIUS_GENODEF_13
1002
{
1000
HIER
1070
     0
1002
}
1002
{
1000
MANEDIT
1070
     0
1002
}
1002
{
1000
NOSEL
1070
     0
1002
}
1002
{
1000
BEHIND
1070
     0
1002
}
1002
{
1000
REACTOR
1002
}
1001
GENIUS_GENOBJ-N-CEN_13
1002
{
1000
OWNER
1000
GEN
1002
}
  0
LINE
  5
F96
330
1F
100
AcDbEntity
  8
10
100
AcDbLine
 10
283.3210934576149
 20
54.33309218838309
 30
0.0
 11
283.3210934576149
 21
32.83309218838295
 31
0.0
  0
LINE
  5
F97
330
1F
100
AcDbEntity
  8
10
100
AcDbLine
 10
281.3210934576259
 20
52.83309218837862
 30
0.0
 11
281.321093457622
 21
34.33309218837835
 31
0.0
  0
LINE
  5
F98
330
1F
100
AcDbEntity
  8
10
100
AcDbLine
 10
283.3210934576221
 20
34.33309218837807
 30
0.0
 11
283.3210934576149
 21
50.83309218838582
 31
0.0
  0
ARC
  5
F99
330
1F
100
AcDbEntity
  8
10
100
AcDbCircle
 10
280.8210934576221
 20
34.33309218837842
 30
0.0
 40
2.5
100
AcDbArc
 50
269.9999999999837
 51
359.999999999992
1001
GENIUS_GENODEF_13
1002
{
1000
HIER
1070
     0
1002
}
1002
{
1000
MANEDIT
1070
     0
1002
}
1002
{
1000
NOSEL
1070
     0
1002
}
1002
{
1000
BEHIND
1070
     0
1002
}
1002
{
1000
REACTOR
1002
}
1001
GENIUS_GENOBJ-N-FIL_13
1002
{
1000
OWNER
1000
GEN
1002
}
  0
ARC
  5
F9A
330
1F
100
AcDbEntity
  8
10
100
AcDbCircle
 10
280.8210934576219
 20
34.33309218837842
 30
0.0
 40
0.5
100
AcDbArc
 50
269.9999999999837
 51
359.999999999992
1001
GENIUS_GENODEF_13
1002
{
1000
HIER
1070
     0
1002
}
1002
{
1000
MANEDIT
1070
     0
1002
}
1002
{
1000
NOSEL
1070
     0
1002
}
1002
{
1000
BEHIND
1070
     0
1002
}
1002
{
1000
REACTOR
1002
}
1001
GENIUS_GENOBJ-N-FIL_13
1002
{
1000
OWNER
1000
GEN
1002
}
  0
LINE
  5
F9B
330
1F
100
AcDbEntity
  8
10
100
AcDbLine
 10
283.3210934576149
 20
32.83309218838295
 30
0.0
 11
284.3210934576149
 21
32.83309218838306
 31
0.0
  0
LINE
  5
F9C
330
1F
100
AcDbEntity
  8
10
100
AcDbLine
 10
283.3210934576149
 20
52.83309218837859
 30
0.0
 11
281.3210934576259
 21
52.83309218837862
 31
0.0
  0
LINE
  5
F9D
330
1F
100
AcDbEntity
  8
10
100
AcDbLine
 10
309.3210934576167
 20
54.33309218836859
 30
0.0
 11
309.321093457614
 21
32.83309218836858
 31
0.0
  0
LINE
  5
F9E
330
1F
100
AcDbEntity
  8
10
100
AcDbLine
 10
309.3210934576149
 20
34.33309218836047
 30
0.0
 11
309.3210934576172
 21
50.83309218836857
 31
0.0
  0
LINE
  5
F9F
330
1F
100
AcDbEntity
  8
10
100
AcDbLine
 10
311.3210934576176
 20
52.8330921883639
 30
0.0
 11
311.3210934576138
 21
34.33309218836055
 31
0.0
  0
LINE
  5
FA0
330
1F
100
AcDbEntity
  8
10
100
AcDbLine
 10
332.3210934576145
 20
31.83309218837286
 30
0.0
 11
311.8210934576137
 21
31.83309218836047
 31
0.0
  0
LINE
  5
FA1
330
1F
100
AcDbEntity
  8
10
100
AcDbLine
 10
311.8210934576138
 20
33.83309218836047
 30
0.0
 11
332.3210934576148
 21
33.83309218837286
 31
0.0
  0
LINE
  5
FA2
330
1F
100
AcDbEntity
  8
10
100
AcDbLine
 10
309.321093457614
 20
32.83309218836858
 30
0.0
 11
308.3210934576149
 21
32.83309218836854
 31
0.0
  0
ARC
  5
FA3
330
1F
100
AcDbEntity
  8
10
100
AcDbCircle
 10
311.8210934576137
 20
34.33309218836047
 30
0.0
 40
2.5
100
AcDbArc
 50
179.9999999999918
 51
270.0
1001
GENIUS_GENODEF_13
1002
{
1000
HIER
1070
     0
1002
}
1002
{
1000
MANEDIT
1070
     0
1002
}
1002
{
1000
NOSEL
1070
     0
1002
}
1002
{
1000
BEHIND
1070
     0
1002
}
1002
{
1000
REACTOR
1002
}
1001
GENIUS_GENOBJ-N-FIL_13
1002
{
1000
OWNER
1000
GEN
1002
}
  0
ARC
  5
FA4
330
1F
100
AcDbEntity
  8
10
100
AcDbCircle
 10
311.8210934576138
 20
34.33309218836047
 30
0.0
 40
0.5
100
AcDbArc
 50
179.9999999999918
 51
270.0
1001
GENIUS_GENODEF_13
1002
{
1000
HIER
1070
     0
1002
}
1002
{
1000
MANEDIT
1070
     0
1002
}
1002
{
1000
NOSEL
1070
     0
1002
}
1002
{
1000
BEHIND
1070
     0
1002
}
1002
{
1000
REACTOR
1002
}
1001
GENIUS_GENOBJ-N-FIL_13
1002
{
1000
OWNER
1000
GEN
1002
}
  0
LINE
  5
FA5
330
1F
100
AcDbEntity
  8
10
100
AcDbLine
 10
332.3210934576148
 20
33.83309218837286
 30
0.0
 11
332.3210934576145
 21
31.83309218837286
 31
0.0
  0
LINE
  5
FA6
330
1F
100
AcDbEntity
  8
10
100
AcDbLine
 10
309.3210934576166
 20
52.83309218836392
 30
0.0
 11
311.3210934576176
 21
52.8330921883639
 31
0.0
  0
LINE
  5
FA7
330
1F
100
AcDbEntity
  8
10
100
AcDbLine
 10
309.3210934576243
 20
143.8330921883685
 30
0.0
 11
309.3210934576215
 21
122.3330921883686
 31
0.0
  0
LINE
  5
FA8
330
1F
100
AcDbEntity
  8
10
100
AcDbLine
 10
283.3210934576149
 20
143.833092188383
 30
0.0
 11
283.3210934576149
 21
122.3330921883861
 31
0.0
  0
LINE
  5
FA9
330
1F
100
AcDbEntity
  8
10
100
AcDbLine
 10
309.3210934576243
 20
127.8330921883686
 30
0.0
 11
309.3210934576243
 21
143.8330921883685
 31
0.0
1001
GENIUS_GENREC_14
1002
{
1000
PYDIR
1011
309.3210934576243
1021
127.8330921883686
1031
0.0
1002
}
1002
{
1000
PXDIR
1011
311.3210934576225
1021
143.8330921883685
1031
0.0
1002
}
1002
{
1000
PORI
1011
309.3210934576243
1021
143.8330921883685
1031
0.0
1002
}
1002
{
1000
PINS
1011
309.3210934576243
1021
143.8330921883685
1031
0.0
1002
}
1002
{
1000
PINS2
1011
311.3210934575914
1021
127.8330921883686
1031
0.0
1002
}
1002
{
1000
C
1070
     1
1002
}
1001
GENIUS_GENODEF_13
1002
{
1000
HIER
1070
     0
1002
}
1002
{
1000
MANEDIT
1070
     0
1002
}
1002
{
1000
NOSEL
1070
     0
1002
}
1002
{
1000
BEHIND
1070
     0
1002
}
1002
{
1000
REACTOR
1002
}
1001
GENIUS_GENOBJ-N-REC_13
1002
{
1000
OWNER
1000
GEN
1002
}
  0
LINE
  5
FAA
330
1F
100
AcDbEntity
  8
10
100
AcDbLine
 10
311.3210934576225
 20
143.8330921883685
 30
0.0
 11
311.3210934575875
 21
125.8330921883794
 31
0.0
1001
GENIUS_GENREC_14
1002
{
1000
PYDIR
1011
309.3210934576243
1021
127.8330921883686
1031
0.0
1002
}
1002
{
1000
PXDIR
1011
311.3210934576225
1021
143.8330921883685
1031
0.0
1002
}
1002
{
1000
PORI
1011
309.3210934576243
1021
143.8330921883685
1031
0.0
1002
}
1002
{
1000
PINS
1011
309.3210934576243
1021
143.8330921883685
1031
0.0
1002
}
1002
{
1000
PINS2
1011
311.3210934575875
1021
125.8330921883794
1031
0.0
1002
}
1002
{
1000
C
1070
     1
1002
}
1001
GENIUS_GENODEF_13
1002
{
1000
HIER
1070
     0
1002
}
1002
{
1000
MANEDIT
1070
     0
1002
}
1002
{
1000
NOSEL
1070
     0
1002
}
1002
{
1000
BEHIND
1070
     0
1002
}
1002
{
1000
REACTOR
1002
}
1001
GENIUS_GENOBJ-N-REC_13
1002
{
1000
OWNER
1000
GEN
1002
}
  0
LINE
  5
FAB
330
1F
100
AcDbEntity
  8
10
100
AcDbLine
 10
281.3210934576186
 20
146.3330921883831
 30
0.0
 11
281.3210934576182
 21
125.8330921883794
 31
0.0
  0
LINE
  5
FAC
330
1F
100
AcDbEntity
  8
10
100
AcDbLine
 10
283.3210934576149
 20
129.3330921884421
 30
0.0
 11
283.3210934576169
 21
146.3330921883831
 31
0.0
  0
LINE
  5
FAD
330
1F
100
AcDbEntity
  8
10
100
AcDbLine
 10
281.3210934576182
 20
125.8330921883794
 30
0.0
 11
283.3210934576149
 21
125.8330921883794
 31
0.0
  0
LINE
  5
FAE
330
1F
100
AcDbEntity
  8
10
100
AcDbLine
 10
311.3210934575875
 20
125.8330921883794
 30
0.0
 11
309.3210934576243
 21
125.8330921883794
 31
0.0
1001
GENIUS_GENREC_14
1002
{
1000
PYDIR
1011
309.3210934576243
1021
125.8330921883794
1031
0.0
1002
}
1002
{
1000
PXDIR
1011
311.3210934576225
1021
143.8330921883685
1031
0.0
1002
}
1002
{
1000
PORI
1011
309.3210934576243
1021
143.8330921883685
1031
0.0
1002
}
1002
{
1000
PINS
1011
309.3210934576243
1021
143.8330921883685
1031
0.0
1002
}
1002
{
1000
PINS2
1011
311.3210934575875
1021
125.8330921883794
1031
0.0
1002
}
1002
{
1000
C
1070
     1
1002
}
1001
GENIUS_GENODEF_13
1002
{
1000
HIER
1070
     0
1002
}
1002
{
1000
MANEDIT
1070
     0
1002
}
1002
{
1000
NOSEL
1070
     0
1002
}
1002
{
1000
BEHIND
1070
     0
1002
}
1002
{
1000
REACTOR
1002
}
1001
GENIUS_GENOBJ-N-REC_13
1002
{
1000
OWNER
1000
GEN
1002
}
  0
LINE
  5
FAF
330
1F
100
AcDbEntity
  8
10
100
AcDbLine
 10
306.3210934576188
 20
148.8330921883828
 30
0.0
 11
283.8210934576187
 21
148.8330921883831
 31
0.0
  0
LINE
  5
FB0
330
1F
100
AcDbEntity
  8
10
100
AcDbLine
 10
283.8210934576169
 20
146.8330921883831
 30
0.0
 11
306.3210934576188
 21
146.8330921883828
 31
0.0
  0
ARC
  5
FB1
330
1F
100
AcDbEntity
  8
10
100
AcDbCircle
 10
283.8210934576187
 20
146.3330921883831
 30
0.0
 40
2.5
100
AcDbArc
 50
90.0
 51
180.0
1001
GENIUS_GENODEF_13
1002
{
1000
HIER
1070
     0
1002
}
1002
{
1000
MANEDIT
1070
     0
1002
}
1002
{
1000
NOSEL
1070
     0
1002
}
1002
{
1000
BEHIND
1070
     0
1002
}
1002
{
1000
REACTOR
1002
}
1001
GENIUS_GENOBJ-N-FIL_13
1002
{
1000
OWNER
1000
GEN
1002
}
  0
LINE
  5
FB2
330
1F
100
AcDbEntity
  8
10
100
AcDbLine
 10
304.8916784576187
 20
144.6330921883827
 30
0.0
 11
301.7505084576189
 21
144.6330921883827
 31
0.0
1001
GENIUS_GENOREF_13
1005
0
1005
0
1005
0
1005
0
1005
0
  0
LINE
  5
FB3
330
1F
100
AcDbEntity
  8
10
100
AcDbLine
 10
305.3210934576187
 20
145.0625071883827
 30
0.0
 11
301.3210934576187
 21
145.0625071883827
 31
0.0
1001
GENIUS_GENOREF_13
1005
0
1005
0
1005
0
1005
0
1005
0
  0
LINE
  5
FB4
330
1F
100
AcDbEntity
  8
10
100
AcDbLine
 10
284.3210934576285
 20
143.833092188383
 30
0.0
 11
283.3210934576149
 21
143.833092188383
 31
0.0
  0
LINE
  5
FB5
330
1F
100
AcDbEntity
  8
10
100
AcDbLine
 10
301.7505084576187
 20
144.6330921883827
 30
0.0
 11
301.7505084576187
 21
146.8330921883828
 31
0.0
1001
GENIUS_GENOREF_13
1005
0
1005
0
1005
0
1005
0
1005
0
  0
LINE
  5
FB6
330
1F
100
AcDbEntity
  8
10
100
AcDbLine
 10
301.3210934576187
 20
146.8330921883828
 30
0.0
 11
301.3210934576187
 21
145.0625071883827
 31
0.0
1001
GENIUS_GENOREF_13
1005
0
1005
0
1005
0
1005
0
1005
0
  0
LINE
  5
FB7
330
1F
100
AcDbEntity
  8
10
100
AcDbLine
 10
301.3210934576187
 20
145.0625071883827
 30
0.0
 11
301.7505084576189
 21
144.6330921883827
 31
0.0
1001
GENIUS_GENOREF_13
1005
0
1005
0
1005
0
1005
0
1005
0
  0
ARC
  5
FB8
330
1F
100
AcDbEntity
  8
10
100
AcDbCircle
 10
283.8210934576169
 20
146.3330921883831
 30
0.0
 40
0.5
100
AcDbArc
 50
90.0
 51
179.9999999999934
1001
GENIUS_GENODEF_13
1002
{
1000
HIER
1070
     0
1002
}
1002
{
1000
MANEDIT
1070
     0
1002
}
1002
{
1000
NOSEL
1070
     0
1002
}
1002
{
1000
BEHIND
1070
     0
1002
}
1002
{
1000
REACTOR
1002
}
1001
GENIUS_GENOBJ-N-FIL_13
1002
{
1000
OWNER
1000
GEN
1002
}
  0
LINE
  5
FB9
330
1F
100
AcDbEntity
  8
10
100
AcDbLine
 10
305.3210934576187
 20
146.8330921883828
 30
0.0
 11
305.3210934576187
 21
145.0625071883827
 31
0.0
1001
GENIUS_GENOREF_13
1005
0
1005
0
1005
0
1005
0
1005
0
  0
LINE
  5
FBA
330
1F
100
AcDbEntity
  8
10
100
AcDbLine
 10
304.8916784576187
 20
144.6330921883827
 30
0.0
 11
304.8916784576187
 21
146.8330921883828
 31
0.0
1001
GENIUS_GENOREF_13
1005
0
1005
0
1005
0
1005
0
1005
0
  0
LINE
  5
FBB
330
1F
100
AcDbEntity
  8
10
100
AcDbLine
 10
305.3210934576187
 20
145.0625071883827
 30
0.0
 11
304.8916784576187
 21
144.6330921883827
 31
0.0
1001
GENIUS_GENOREF_13
1005
0
1005
0
1005
0
1005
0
1005
0
  0
LINE
  5
FBC
330
1F
100
AcDbEntity
  8
10
100
AcDbLine
 10
302.7571232233528
 20
158.6330921883828
 30
0.0
 11
299.521093457619
 21
158.6330921883828
 31
0.0
1001
GENIUS_GENOREF_13
1005
0
1005
0
1005
0
  0
LINE
  5
FBD
330
1F
100
AcDbEntity
  8
10
100
AcDbLine
 10
299.321093457619
 20
156.8330921883828
 30
0.0
 11
307.321093457619
 21
156.8330921883828
 31
0.0
1001
GENIUS_GENOREF_13
1005
0
1005
0
  0
LINE
  5
FBE
330
1F
100
AcDbEntity
  8
10
100
AcDbLine
 10
307.321093457619
 20
157.6330921883828
 30
0.0
 11
299.321093457619
 21
157.6330921883828
 31
0.0
1001
GENIUS_GENOREF_13
1005
0
1005
0
  0
ARC
  5
FBF
330
1F
100
AcDbEntity
  8
10
100
AcDbCircle
 10
303.3210934576191
 20
155.2330921883828
 30
0.0
 40
6.5
100
AcDbArc
 50
61.82726586813521
 51
118.1727341318647
1001
GENIUS_GENOREF_13
1005
0
1005
0
1005
0
1005
0
1005
0
  0
LINE
  5
FC0
330
1F
100
AcDbEntity
  8
10
100
AcDbLine
 10
299.521093457619
 20
158.6330921883828
 30
0.0
 11
299.521093457619
 21
157.6330921883828
 31
0.0
1001
GENIUS_GENOREF_13
1005
0
1005
0
1005
0
  0
LINE
  5
FC1
330
1F
100
AcDbEntity
  8
10
100
AcDbLine
 10
299.321093457619
 20
157.6330921883828
 30
0.0
 11
299.321093457619
 21
156.8330921883828
 31
0.0
1001
GENIUS_GENOREF_13
1005
0
1005
0
  0
LINE
  5
FC2
330
1F
100
AcDbEntity
  8
10
100
AcDbLine
 10
299.321093457619
 20
158.6330921883828
 30
0.0
 11
299.521093457619
 21
158.6330921883828
 31
0.0
1001
GENIUS_GENOREF_13
1005
0
1005
0
1005
0
1005
0
1005
0
  0
ARC
  5
FC3
330
1F
100
AcDbEntity
  8
10
100
AcDbCircle
 10
301.0076500022594
 20
159.5525805121143
 30
0.0
 40
1.6
100
AcDbArc
 50
118.1727341318647
 51
175.0
1001
GENIUS_GENOREF_13
1005
0
1005
0
1005
0
1005
0
1005
0
  0
LINE
  5
FC4
330
1F
100
AcDbEntity
  8
10
100
AcDbLine
 10
299.4137384853127
 20
159.6920297005106
 30
0.0
 11
299.321093457619
 21
158.6330921883828
 31
0.0
1001
GENIUS_GENOREF_13
1005
0
1005
0
1005
0
1005
0
1005
0
  0
LINE
  5
FC5
330
1F
100
AcDbEntity
  8
10
100
AcDbLine
 10
307.121093457619
 20
158.6330921883828
 30
0.0
 11
303.1571232233528
 21
158.6330921883828
 31
0.0
1001
GENIUS_GENOREF_13
1005
0
1005
0
1005
0
  0
ARC
  5
FC6
330
1F
100
AcDbEntity
  8
10
100
AcDbCircle
 10
305.6345369129787
 20
159.5525805121143
 30
0.0
 40
1.6
100
AcDbArc
 50
4.999999999999778
 51
61.82726586813521
1001
GENIUS_GENOREF_13
1005
0
1005
0
1005
0
1005
0
1005
0
  0
LINE
  5
FC7
330
1F
100
AcDbEntity
  8
10
100
AcDbLine
 10
303.521093457619
 20
157.6330921883828
 30
0.0
 11
303.1571232233528
 21
158.6330921883828
 31
0.0
1001
GENIUS_GENOREF_13
1005
0
1005
0
1005
0
  0
LINE
  5
FC8
330
1F
100
AcDbEntity
  8
10
100
AcDbLine
 10
303.121093457619
 20
157.6330921883828
 30
0.0
 11
302.7571232233528
 21
158.6330921883828
 31
0.0
1001
GENIUS_GENOREF_13
1005
0
1005
0
1005
0
  0
LINE
  5
FC9
330
1F
100
AcDbEntity
  8
10
100
AcDbLine
 10
302.7571232233528
 20
158.6330921883828
 30
0.0
 11
303.1571232233528
 21
158.6330921883828
 31
0.0
1001
GENIUS_GENOREF_13
1005
0
1005
0
1005
0
1005
0
1005
0
  0
LINE
  5
FCA
330
1F
100
AcDbEntity
  8
10
100
AcDbLine
 10
307.121093457619
 20
157.6330921883828
 30
0.0
 11
307.121093457619
 21
158.6330921883828
 31
0.0
1001
GENIUS_GENOREF_13
1005
0
1005
0
1005
0
  0
LINE
  5
FCB
330
1F
100
AcDbEntity
  8
10
100
AcDbLine
 10
307.321093457619
 20
156.8330921883828
 30
0.0
 11
307.321093457619
 21
157.6330921883828
 31
0.0
1001
GENIUS_GENOREF_13
1005
0
1005
0
  0
LINE
  5
FCC
330
1F
100
AcDbEntity
  8
10
100
AcDbLine
 10
307.121093457619
 20
158.6330921883828
 30
0.0
 11
307.321093457619
 21
158.6330921883828
 31
0.0
1001
GENIUS_GENOREF_13
1005
0
1005
0
1005
0
1005
0
1005
0
  0
LINE
  5
FCD
330
1F
100
AcDbEntity
  8
10
100
AcDbLine
 10
307.2284484299255
 20
159.6920297005106
 30
0.0
 11
307.321093457619
 21
158.6330921883828
 31
0.0
1001
GENIUS_GENOREF_13
1005
0
1005
0
1005
0
1005
0
1005
0
  0
LINE
  5
FCE
330
1F
100
AcDbEntity
  8
10
100
AcDbLine
 10
306.3210934576188
 20
146.8330921883828
 30
0.0
 11
306.3210934576188
 21
148.8330921883828
 31
0.0
  0
LINE
  5
FCF
330
1F
100
AcDbEntity
  8
10
100
AcDbLine
 10
308.3210934576149
 20
143.8330921883685
 30
0.0
 11
309.3210934576243
 21
143.8330921883685
 31
0.0
  0
LINE
  5
FD0
330
1F
100
AcDbEntity
  8
10
100
AcDbLine
 10
309.3210934576243
 20
143.8330921883685
 30
0.0
 11
311.3210934576225
 21
143.8330921883685
 31
0.0
1001
GENIUS_GENREC_14
1002
{
1000
PYDIR
1011
309.3210934576243
1021
127.8330921883686
1031
0.0
1002
}
1002
{
1000
PXDIR
1011
311.3210934576225
1021
143.8330921883685
1031
0.0
1002
}
1002
{
1000
PORI
1011
309.3210934576243
1021
143.8330921883685
1031
0.0
1002
}
1002
{
1000
PINS
1011
309.3210934576243
1021
143.8330921883685
1031
0.0
1002
}
1002
{
1000
PINS2
1011
311.3210934575914
1021
127.8330921883686
1031
0.0
1002
}
1002
{
1000
C
1070
     1
1002
}
1001
GENIUS_GENODEF_13
1002
{
1000
HIER
1070
     0
1002
}
1002
{
1000
MANEDIT
1070
     0
1002
}
1002
{
1000
NOSEL
1070
     0
1002
}
1002
{
1000
BEHIND
1070
     0
1002
}
1002
{
1000
REACTOR
1002
}
1001
GENIUS_GENOBJ-N-REC_13
1002
{
1000
OWNER
1000
GEN
1002
}
  0
ARC
  5
FD1
330
1F
100
AcDbEntity
  8
10
100
AcDbCircle
 10
283.1995519560104
 20
42.83309218837956
 30
0.0
 40
6.678458498386547
100
AcDbArc
 50
162.3830311595543
 51
197.6169688404454
  0
LINE
  5
FD2
330
1F
100
AcDbEntity
  8
10
100
AcDbLine
 10
273.3505084576155
 20
40.83309218837956
 30
0.0
 11
272.9210934576155
 21
41.26250718837956
 31
0.0
  0
ARC
  5
FD3
330
1F
100
AcDbEntity
  8
10
100
AcDbCircle
 10
273.0426349592373
 20
42.83309218837956
 30
0.0
 40
6.678458498386565
100
AcDbArc
 50
342.3830311595545
 51
17.61696884044563
  0
LINE
  5
FD4
330
1F
100
AcDbEntity
  8
10
100
AcDbLine
 10
276.5210934576238
 20
39.33309218837956
 30
0.0
 11
276.5210934576238
 21
46.33309218837957
 31
0.0
  0
LINE
  5
FD5
330
1F
100
AcDbEntity
  8
10
100
AcDbLine
 10
281.3210934576238
 20
38.33309218837955
 30
0.0
 11
281.3210934576238
 21
47.33309218837955
 31
0.0
  0
LINE
  5
FD6
330
1F
100
AcDbEntity
  8
10
100
AcDbLine
 10
280.5210934576238
 20
38.33309218837955
 30
0.0
 11
280.5210934576238
 21
47.33309218837955
 31
0.0
  0
LINE
  5
FD7
330
1F
100
AcDbEntity
  8
10
100
AcDbLine
 10
279.7210934576239
 20
39.33309218837956
 30
0.0
 11
279.7210934576239
 21
46.33309218837957
 31
0.0
  0
LINE
  5
FD8
330
1F
100
AcDbEntity
  8
10
100
AcDbLine
 10
276.5210934576238
 20
40.83309218837956
 30
0.0
 11
273.3505084576155
 21
40.83309218837956
 31
0.0
  0
LINE
  5
FD9
330
1F
100
AcDbEntity
  8
10
100
AcDbLine
 10
279.4078809365885
 20
38.7905921883796
 30
0.0
 11
276.8343059786592
 21
38.7905921883796
 31
0.0
  0
LINE
  5
FDA
330
1F
100
AcDbEntity
  8
10
100
AcDbLine
 10
279.4078809365885
 20
40.81184218837956
 30
0.0
 11
276.8343059786592
 21
40.81184218837956
 31
0.0
  0
LINE
  5
FDB
330
1F
100
AcDbEntity
  8
10
100
AcDbLine
 10
276.8343059786592
 20
38.7905921883796
 30
0.0
 11
276.5210934576238
 21
39.33309218837956
 31
0.0
  0
ARC
  5
FDC
330
1F
100
AcDbEntity
  8
10
100
AcDbCircle
 10
278.3081627776108
 20
39.80121718837954
 30
0.0
 40
1.787069319986959
100
AcDbArc
 50
145.5615305952048
 51
205.5615305954577
  0
LINE
  5
FDD
330
1F
100
AcDbEntity
  8
10
100
AcDbLine
 10
279.7210934576239
 20
39.33309218837956
 30
0.0
 11
279.7210934576239
 21
38.33309218837955
 31
0.0
  0
LINE
  5
FDE
330
1F
100
AcDbEntity
  8
10
100
AcDbLine
 10
280.5210934576238
 20
38.33309218837955
 30
0.0
 11
281.3210934576238
 21
38.33309218837955
 31
0.0
  0
LINE
  5
FDF
330
1F
100
AcDbEntity
  8
10
100
AcDbLine
 10
279.7210934576239
 20
38.33309218837955
 30
0.0
 11
280.5210934576238
 21
38.33309218837955
 31
0.0
  0
LINE
  5
FE0
330
1F
100
AcDbEntity
  8
10
100
AcDbLine
 10
279.4078809365885
 20
38.7905921883796
 30
0.0
 11
279.7210934576239
 21
39.33309218837956
 31
0.0
  0
ARC
  5
FE1
330
1F
100
AcDbEntity
  8
10
100
AcDbCircle
 10
277.9340241376369
 20
39.80121718837954
 30
0.0
 40
1.787069319986959
100
AcDbArc
 50
334.4384694045422
 51
34.4384694047955
  0
LINE
  5
FE2
330
1F
100
AcDbEntity
  8
10
100
AcDbLine
 10
276.5210934576238
 20
44.83309218837955
 30
0.0
 11
273.3505084576155
 21
44.83309218837955
 31
0.0
  0
LINE
  5
FE3
330
1F
100
AcDbEntity
  8
10
100
AcDbLine
 10
272.9210934576155
 20
41.26250718837956
 30
0.0
 11
272.9210934576155
 21
44.40367718837956
 31
0.0
  0
LINE
  5
FE4
330
1F
100
AcDbEntity
  8
10
100
AcDbLine
 10
273.3505084576155
 20
44.83309218837955
 30
0.0
 11
272.9210934576155
 21
44.40367718837956
 31
0.0
  0
LINE
  5
FE5
330
1F
100
AcDbEntity
  8
10
100
AcDbLine
 10
279.4078809365884
 20
44.85434218837958
 30
0.0
 11
276.8343059786592
 21
44.85434218837958
 31
0.0
  0
LINE
  5
FE6
330
1F
100
AcDbEntity
  8
10
100
AcDbLine
 10
279.4078809365884
 20
46.87559218837957
 30
0.0
 11
276.8343059786592
 21
46.87559218837957
 31
0.0
  0
LINE
  5
FE7
330
1F
100
AcDbEntity
  8
10
100
AcDbLine
 10
276.8343059786592
 20
46.87559218837957
 30
0.0
 11
276.5210934576238
 21
46.33309218837957
 31
0.0
  0
ARC
  5
FE8
330
1F
100
AcDbEntity
  8
10
100
AcDbCircle
 10
278.3081627776142
 20
45.86496718837958
 30
0.0
 40
1.787069319990415
100
AcDbArc
 50
154.4384694047329
 51
214.4384694047322
  0
LINE
  5
FE9
330
1F
100
AcDbEntity
  8
10
100
AcDbLine
 10
279.7210934576239
 20
47.33309218837955
 30
0.0
 11
279.7210934576239
 21
46.33309218837957
 31
0.0
  0
LINE
  5
FEA
330
1F
100
AcDbEntity
  8
10
100
AcDbLine
 10
281.3210934576238
 20
47.33309218837955
 30
0.0
 11
280.5210934576238
 21
47.33309218837955
 31
0.0
  0
LINE
  5
FEB
330
1F
100
AcDbEntity
  8
10
100
AcDbLine
 10
280.5210934576238
 20
47.33309218837955
 30
0.0
 11
279.7210934576239
 21
47.33309218837955
 31
0.0
  0
LINE
  5
FEC
330
1F
100
AcDbEntity
  8
10
100
AcDbLine
 10
279.4078809365884
 20
46.87559218837957
 30
0.0
 11
279.7210934576239
 21
46.33309218837957
 31
0.0
  0
ARC
  5
FED
330
1F
100
AcDbEntity
  8
10
100
AcDbCircle
 10
277.9340241376369
 20
45.86496718837843
 30
0.0
 40
1.787069319986959
100
AcDbArc
 50
325.5615305952353
 51
25.56153059567824
  0
LINE
  5
FEE
330
1F
100
AcDbEntity
  8
10
100
AcDbLine
 10
312.9210934576155
 20
38.33309218837955
 30
0.0
 11
312.9210934576155
 21
47.33309218837955
 31
0.0
  0
LINE
  5
FEF
330
1F
100
AcDbEntity
  8
10
100
AcDbLine
 10
311.3210934576156
 20
47.33309218837955
 30
0.0
 11
311.3210934576156
 21
38.33309218837955
 31
0.0
  0
LINE
  5
FF0
330
1F
100
AcDbEntity
  8
10
100
AcDbLine
 10
312.1210934576156
 20
38.33309218837955
 30
0.0
 11
312.1210934576156
 21
47.33309218837955
 31
0.0
  0
ARC
  5
FF1
330
1F
100
AcDbEntity
  8
10
100
AcDbCircle
 10
309.5210934576155
 20
42.83309218837954
 30
0.0
 40
6.5
100
AcDbArc
 50
331.8272658681352
 51
28.17273413186479
  0
ARC
  5
FF2
330
1F
100
AcDbEntity
  8
10
100
AcDbCircle
 10
313.8405817813471
 20
40.51964873301986
 30
0.0
 40
1.6
100
AcDbArc
 50
274.9999999999997
 51
331.8272658681352
  0
LINE
  5
FF3
330
1F
100
AcDbEntity
  8
10
100
AcDbLine
 10
312.1210934576156
 20
38.33309218837955
 30
0.0
 11
312.9210934576155
 21
38.33309218837955
 31
0.0
  0
LINE
  5
FF4
330
1F
100
AcDbEntity
  8
10
100
AcDbLine
 10
311.3210934576156
 20
38.33309218837955
 30
0.0
 11
312.1210934576156
 21
38.33309218837955
 31
0.0
  0
LINE
  5
FF5
330
1F
100
AcDbEntity
  8
10
100
AcDbLine
 10
313.9800309697434
 20
38.92573721607311
 30
0.0
 11
312.9210934576155
 21
38.83309218837956
 31
0.0
  0
ARC
  5
FF6
330
1F
100
AcDbEntity
  8
10
100
AcDbCircle
 10
313.8405817813471
 20
45.14653564373921
 30
0.0
 40
1.6
100
AcDbArc
 50
28.17273413186479
 51
85.00000000000023
  0
LINE
  5
FF7
330
1F
100
AcDbEntity
  8
10
100
AcDbLine
 10
313.9800309697434
 20
46.74044716068606
 30
0.0
 11
312.9210934576155
 21
46.83309218837956
 31
0.0
  0
LINE
  5
FF8
330
1F
100
AcDbEntity
  8
10
100
AcDbLine
 10
312.9210934576155
 20
47.33309218837955
 30
0.0
 11
312.1210934576156
 21
47.33309218837955
 31
0.0
  0
LINE
  5
FF9
330
1F
100
AcDbEntity
  8
10
100
AcDbLine
 10
312.1210934576156
 20
47.33309218837955
 30
0.0
 11
311.3210934576156
 21
47.33309218837955
 31
0.0
  0
ARC
  5
FFA
330
1F
100
AcDbEntity
  8
10
100
AcDbCircle
 10
283.1995519559979
 20
133.8330921883794
 30
0.0
 40
6.678458498386547
100
AcDbArc
 50
162.3830311595543
 51
197.6169688404454
  0
LINE
  5
FFB
330
1F
100
AcDbEntity
  8
10
100
AcDbLine
 10
273.3505084576031
 20
131.8330921883794
 30
0.0
 11
272.921093457603
 21
132.2625071883794
 31
0.0
  0
ARC
  5
FFC
330
1F
100
AcDbEntity
  8
10
100
AcDbCircle
 10
273.0426349592248
 20
133.8330921883794
 30
0.0
 40
6.678458498386565
100
AcDbArc
 50
342.3830311595545
 51
17.61696884044563
  0
LINE
  5
FFD
330
1F
100
AcDbEntity
  8
10
100
AcDbLine
 10
276.5210934576113
 20
130.3330921883794
 30
0.0
 11
276.5210934576113
 21
137.3330921883794
 31
0.0
  0
LINE
  5
FFE
330
1F
100
AcDbEntity
  8
10
100
AcDbLine
 10
281.3210934576114
 20
129.3330921883794
 30
0.0
 11
281.3210934576114
 21
138.3330921883794
 31
0.0
  0
LINE
  5
FFF
330
1F
100
AcDbEntity
  8
10
100
AcDbLine
 10
280.5210934576113
 20
129.3330921883794
 30
0.0
 11
280.5210934576113
 21
138.3330921883794
 31
0.0
  0
LINE
  5
1000
330
1F
100
AcDbEntity
  8
10
100
AcDbLine
 10
279.7210934576114
 20
130.3330921883794
 30
0.0
 11
279.7210934576114
 21
137.3330921883794
 31
0.0
  0
LINE
  5
1001
330
1F
100
AcDbEntity
  8
10
100
AcDbLine
 10
276.5210934576113
 20
131.8330921883794
 30
0.0
 11
273.3505084576031
 21
131.8330921883794
 31
0.0
  0
LINE
  5
1002
330
1F
100
AcDbEntity
  8
10
100
AcDbLine
 10
279.407880936576
 20
129.7905921883795
 30
0.0
 11
276.8343059786467
 21
129.7905921883795
 31
0.0
  0
LINE
  5
1003
330
1F
100
AcDbEntity
  8
10
100
AcDbLine
 10
279.407880936576
 20
131.8118421883794
 30
0.0
 11
276.8343059786467
 21
131.8118421883794
 31
0.0
  0
LINE
  5
1004
330
1F
100
AcDbEntity
  8
10
100
AcDbLine
 10
276.8343059786467
 20
129.7905921883795
 30
0.0
 11
276.5210934576113
 21
130.3330921883794
 31
0.0
  0
ARC
  5
1005
330
1F
100
AcDbEntity
  8
10
100
AcDbCircle
 10
278.3081627775983
 20
130.8012171883794
 30
0.0
 40
1.787069319986959
100
AcDbArc
 50
145.5615305952048
 51
205.5615305954577
  0
LINE
  5
1006
330
1F
100
AcDbEntity
  8
10
100
AcDbLine
 10
279.7210934576114
 20
130.3330921883794
 30
0.0
 11
279.7210934576114
 21
129.3330921883794
 31
0.0
  0
LINE
  5
1007
330
1F
100
AcDbEntity
  8
10
100
AcDbLine
 10
280.5210934576113
 20
129.3330921883794
 30
0.0
 11
281.3210934576114
 21
129.3330921883794
 31
0.0
  0
LINE
  5
1008
330
1F
100
AcDbEntity
  8
10
100
AcDbLine
 10
279.7210934576114
 20
129.3330921883794
 30
0.0
 11
280.5210934576113
 21
129.3330921883794
 31
0.0
  0
LINE
  5
1009
330
1F
100
AcDbEntity
  8
10
100
AcDbLine
 10
279.407880936576
 20
129.7905921883795
 30
0.0
 11
279.7210934576114
 21
130.3330921883794
 31
0.0
  0
ARC
  5
100A
330
1F
100
AcDbEntity
  8
10
100
AcDbCircle
 10
277.9340241376244
 20
130.8012171883794
 30
0.0
 40
1.787069319986959
100
AcDbArc
 50
334.4384694045422
 51
34.4384694047955
  0
LINE
  5
100B
330
1F
100
AcDbEntity
  8
10
100
AcDbLine
 10
276.5210934576113
 20
135.8330921883794
 30
0.0
 11
273.3505084576031
 21
135.8330921883794
 31
0.0
  0
LINE
  5
100C
330
1F
100
AcDbEntity
  8
10
100
AcDbLine
 10
272.921093457603
 20
132.2625071883794
 30
0.0
 11
272.921093457603
 21
135.4036771883794
 31
0.0
  0
LINE
  5
100D
330
1F
100
AcDbEntity
  8
10
100
AcDbLine
 10
273.3505084576031
 20
135.8330921883794
 30
0.0
 11
272.921093457603
 21
135.4036771883794
 31
0.0
  0
LINE
  5
100E
330
1F
100
AcDbEntity
  8
10
100
AcDbLine
 10
279.407880936576
 20
135.8543421883794
 30
0.0
 11
276.8343059786467
 21
135.8543421883794
 31
0.0
  0
LINE
  5
100F
330
1F
100
AcDbEntity
  8
10
100
AcDbLine
 10
279.407880936576
 20
137.8755921883794
 30
0.0
 11
276.8343059786467
 21
137.8755921883794
 31
0.0
  0
LINE
  5
1010
330
1F
100
AcDbEntity
  8
10
100
AcDbLine
 10
276.8343059786467
 20
137.8755921883794
 30
0.0
 11
276.5210934576113
 21
137.3330921883794
 31
0.0
  0
ARC
  5
1011
330
1F
100
AcDbEntity
  8
10
100
AcDbCircle
 10
278.3081627776018
 20
136.8649671883794
 30
0.0
 40
1.787069319990415
100
AcDbArc
 50
154.4384694047329
 51
214.4384694047322
  0
LINE
  5
1012
330
1F
100
AcDbEntity
  8
10
100
AcDbLine
 10
279.7210934576114
 20
138.3330921883794
 30
0.0
 11
279.7210934576114
 21
137.3330921883794
 31
0.0
  0
LINE
  5
1013
330
1F
100
AcDbEntity
  8
10
100
AcDbLine
 10
281.3210934576114
 20
138.3330921883794
 30
0.0
 11
280.5210934576113
 21
138.3330921883794
 31
0.0
  0
LINE
  5
1014
330
1F
100
AcDbEntity
  8
10
100
AcDbLine
 10
280.5210934576113
 20
138.3330921883794
 30
0.0
 11
279.7210934576114
 21
138.3330921883794
 31
0.0
  0
LINE
  5
1015
330
1F
100
AcDbEntity
  8
10
100
AcDbLine
 10
279.407880936576
 20
137.8755921883794
 30
0.0
 11
279.7210934576114
 21
137.3330921883794
 31
0.0
  0
ARC
  5
1016
330
1F
100
AcDbEntity
  8
10
100
AcDbCircle
 10
277.9340241376244
 20
136.8649671883783
 30
0.0
 40
1.787069319986959
100
AcDbArc
 50
325.5615305952353
 51
25.56153059567824
  0
LINE
  5
1017
330
1F
100
AcDbEntity
  8
10
100
AcDbLine
 10
312.9210934576032
 20
129.3330921883794
 30
0.0
 11
312.9210934576032
 21
138.3330921883794
 31
0.0
  0
LINE
  5
1018
330
1F
100
AcDbEntity
  8
10
100
AcDbLine
 10
311.3210934576031
 20
138.3330921883794
 30
0.0
 11
311.3210934576031
 21
129.3330921883794
 31
0.0
  0
LINE
  5
1019
330
1F
100
AcDbEntity
  8
10
100
AcDbLine
 10
312.1210934576032
 20
129.3330921883794
 30
0.0
 11
312.1210934576032
 21
138.3330921883794
 31
0.0
  0
ARC
  5
101A
330
1F
100
AcDbEntity
  8
10
100
AcDbCircle
 10
309.5210934576031
 20
133.8330921883794
 30
0.0
 40
6.5
100
AcDbArc
 50
331.8272658681352
 51
28.17273413186479
  0
ARC
  5
101B
330
1F
100
AcDbEntity
  8
10
100
AcDbCircle
 10
313.8405817813346
 20
131.5196487330197
 30
0.0
 40
1.6
100
AcDbArc
 50
274.9999999999997
 51
331.8272658681352
  0
LINE
  5
101C
330
1F
100
AcDbEntity
  8
10
100
AcDbLine
 10
312.1210934576032
 20
129.3330921883794
 30
0.0
 11
312.9210934576032
 21
129.3330921883794
 31
0.0
  0
LINE
  5
101D
330
1F
100
AcDbEntity
  8
10
100
AcDbLine
 10
311.3210934576031
 20
129.3330921883794
 30
0.0
 11
312.1210934576032
 21
129.3330921883794
 31
0.0
  0
LINE
  5
101E
330
1F
100
AcDbEntity
  8
10
100
AcDbLine
 10
313.9800309697309
 20
129.925737216073
 30
0.0
 11
312.9210934576032
 21
129.8330921883794
 31
0.0
  0
ARC
  5
101F
330
1F
100
AcDbEntity
  8
10
100
AcDbCircle
 10
313.8405817813346
 20
136.1465356437391
 30
0.0
 40
1.6
100
AcDbArc
 50
28.17273413186479
 51
85.00000000000023
  0
LINE
  5
1020
330
1F
100
AcDbEntity
  8
10
100
AcDbLine
 10
313.9800309697309
 20
137.7404471606859
 30
0.0
 11
312.9210934576032
 21
137.8330921883794
 31
0.0
  0
LINE
  5
1021
330
1F
100
AcDbEntity
  8
10
100
AcDbLine
 10
312.9210934576032
 20
138.3330921883794
 30
0.0
 11
312.1210934576032
 21
138.3330921883794
 31
0.0
  0
LINE
  5
1022
330
1F
100
AcDbEntity
  8
10
100
AcDbLine
 10
312.1210934576032
 20
138.3330921883794
 30
0.0
 11
311.3210934576031
 21
138.3330921883794
 31
0.0
  0
ARC
  5
1023
330
1F
100
AcDbEntity
  8
10
100
AcDbCircle
 10
127.9142610691995
 20
159.5525805121107
 30
0.0
 40
1.6
100
AcDbArc
 50
4.999999999999778
 51
61.82726586813612
  0
ARC
  5
1024
330
1F
100
AcDbEntity
  8
10
100
AcDbCircle
 10
123.2873741584801
 20
159.5525805121107
 30
0.0
 40
1.6
100
AcDbArc
 50
118.1727341318638
 51
175.0000000000001
  0
ARC
  5
1025
330
1F
100
AcDbEntity
  8
10
100
AcDbCircle
 10
125.6008176138398
 20
155.2330921883792
 30
0.0
 40
6.5
100
AcDbArc
 50
61.82726586813612
 51
118.1727341318638
  0
LINE
  5
1026
330
1F
100
AcDbEntity
  8
10
100
AcDbLine
 10
125.0368473795736
 20
158.6330921883792
 30
0.0
 11
125.4368473795736
 21
158.6330921883792
 31
0.0
  0
LINE
  5
1027
330
1F
100
AcDbEntity
  8
10
100
AcDbLine
 10
125.4008176138398
 20
157.6330921883792
 30
0.0
 11
125.0368473795736
 21
158.6330921883792
 31
0.0
  0
LINE
  5
1028
330
1F
100
AcDbEntity
  8
10
100
AcDbLine
 10
129.6008176138398
 20
157.6330921883792
 30
0.0
 11
121.6008176138398
 21
157.6330921883792
 31
0.0
  0
LINE
  5
1029
330
1F
100
AcDbEntity
  8
10
100
AcDbLine
 10
121.6008176138398
 20
156.8330921883792
 30
0.0
 11
129.6008176138398
 21
156.8330921883792
 31
0.0
  0
LINE
  5
102A
330
1F
100
AcDbEntity
  8
10
100
AcDbLine
 10
121.6934626415333
 20
159.692029700507
 30
0.0
 11
121.6008176138398
 21
158.6330921883792
 31
0.0
  0
LINE
  5
102B
330
1F
100
AcDbEntity
  8
10
100
AcDbLine
 10
121.6008176138398
 20
158.6330921883792
 30
0.0
 11
121.8008176138398
 21
158.6330921883792
 31
0.0
  0
LINE
  5
102C
330
1F
100
AcDbEntity
  8
10
100
AcDbLine
 10
121.6008176138398
 20
157.6330921883792
 30
0.0
 11
121.6008176138398
 21
156.8330921883792
 31
0.0
  0
LINE
  5
102D
330
1F
100
AcDbEntity
  8
10
100
AcDbLine
 10
121.8008176138398
 20
158.6330921883792
 30
0.0
 11
121.8008176138398
 21
157.6330921883792
 31
0.0
  0
LINE
  5
102E
330
1F
100
AcDbEntity
  8
10
100
AcDbLine
 10
125.0368473795736
 20
158.6330921883792
 30
0.0
 11
121.8008176138398
 21
158.6330921883792
 31
0.0
  0
LINE
  5
102F
330
1F
100
AcDbEntity
  8
10
100
AcDbLine
 10
129.5081725861463
 20
159.692029700507
 30
0.0
 11
129.6008176138398
 21
158.6330921883792
 31
0.0
  0
LINE
  5
1030
330
1F
100
AcDbEntity
  8
10
100
AcDbLine
 10
129.4008176138398
 20
158.6330921883792
 30
0.0
 11
129.6008176138398
 21
158.6330921883792
 31
0.0
  0
LINE
  5
1031
330
1F
100
AcDbEntity
  8
10
100
AcDbLine
 10
129.6008176138398
 20
156.8330921883792
 30
0.0
 11
129.6008176138398
 21
157.6330921883792
 31
0.0
  0
LINE
  5
1032
330
1F
100
AcDbEntity
  8
10
100
AcDbLine
 10
129.4008176138398
 20
157.6330921883792
 30
0.0
 11
129.4008176138398
 21
158.6330921883792
 31
0.0
  0
LINE
  5
1033
330
1F
100
AcDbEntity
  8
10
100
AcDbLine
 10
125.8008176138398
 20
157.6330921883792
 30
0.0
 11
125.4368473795736
 21
158.6330921883792
 31
0.0
  0
LINE
  5
1034
330
1F
100
AcDbEntity
  8
10
100
AcDbLine
 10
129.4008176138398
 20
158.6330921883792
 30
0.0
 11
125.4368473795736
 21
158.6330921883792
 31
0.0
  0
ARC
  5
1035
330
1F
100
AcDbEntity
  8
10
100
AcDbCircle
 10
170.1008176138398
 20
155.2330921883792
 30
0.0
 40
6.5
100
AcDbArc
 50
61.82726586813612
 51
118.1727341318638
  0
LINE
  5
1036
330
1F
100
AcDbEntity
  8
10
100
AcDbLine
 10
174.1008176138398
 20
157.6330921883792
 30
0.0
 11
166.1008176138398
 21
157.6330921883792
 31
0.0
  0
LINE
  5
1037
330
1F
100
AcDbEntity
  8
10
100
AcDbLine
 10
166.1008176138398
 20
156.8330921883792
 30
0.0
 11
174.1008176138398
 21
156.8330921883792
 31
0.0
  0
LINE
  5
1038
330
1F
100
AcDbEntity
  8
10
100
AcDbLine
 10
169.5368473795736
 20
158.6330921883792
 30
0.0
 11
166.3008176138397
 21
158.6330921883792
 31
0.0
  0
ARC
  5
1039
330
1F
100
AcDbEntity
  8
10
100
AcDbCircle
 10
167.7873741584801
 20
159.5525805121107
 30
0.0
 40
1.6
100
AcDbArc
 50
118.1727341318638
 51
175.0000000000001
  0
LINE
  5
103A
330
1F
100
AcDbEntity
  8
10
100
AcDbLine
 10
166.1934626415332
 20
159.692029700507
 30
0.0
 11
166.1008176138398
 21
158.6330921883792
 31
0.0
  0
LINE
  5
103B
330
1F
100
AcDbEntity
  8
10
100
AcDbLine
 10
166.1008176138398
 20
158.6330921883792
 30
0.0
 11
166.3008176138397
 21
158.6330921883792
 31
0.0
  0
LINE
  5
103C
330
1F
100
AcDbEntity
  8
10
100
AcDbLine
 10
166.1008176138398
 20
157.6330921883792
 30
0.0
 11
166.1008176138398
 21
156.8330921883792
 31
0.0
  0
LINE
  5
103D
330
1F
100
AcDbEntity
  8
10
100
AcDbLine
 10
166.3008176138397
 20
158.6330921883792
 30
0.0
 11
166.3008176138397
 21
157.6330921883792
 31
0.0
  0
ARC
  5
103E
330
1F
100
AcDbEntity
  8
10
100
AcDbCircle
 10
172.4142610691994
 20
159.5525805121107
 30
0.0
 40
1.6
100
AcDbArc
 50
4.999999999999778
 51
61.82726586813612
  0
LINE
  5
103F
330
1F
100
AcDbEntity
  8
10
100
AcDbLine
 10
173.9008176138398
 20
158.6330921883792
 30
0.0
 11
169.9368473795735
 21
158.6330921883792
 31
0.0
  0
LINE
  5
1040
330
1F
100
AcDbEntity
  8
10
100
AcDbLine
 10
169.5368473795736
 20
158.6330921883792
 30
0.0
 11
169.9368473795735
 21
158.6330921883792
 31
0.0
  0
LINE
  5
1041
330
1F
100
AcDbEntity
  8
10
100
AcDbLine
 10
169.9008176138398
 20
157.6330921883792
 30
0.0
 11
169.5368473795736
 21
158.6330921883792
 31
0.0
  0
LINE
  5
1042
330
1F
100
AcDbEntity
  8
10
100
AcDbLine
 10
170.3008176138397
 20
157.6330921883792
 30
0.0
 11
169.9368473795735
 21
158.6330921883792
 31
0.0
  0
LINE
  5
1043
330
1F
100
AcDbEntity
  8
10
100
AcDbLine
 10
174.0081725861462
 20
159.692029700507
 30
0.0
 11
174.1008176138398
 21
158.6330921883792
 31
0.0
  0
LINE
  5
1044
330
1F
100
AcDbEntity
  8
10
100
AcDbLine
 10
173.9008176138398
 20
158.6330921883792
 30
0.0
 11
174.1008176138398
 21
158.6330921883792
 31
0.0
  0
LINE
  5
1045
330
1F
100
AcDbEntity
  8
10
100
AcDbLine
 10
174.1008176138398
 20
156.8330921883792
 30
0.0
 11
174.1008176138398
 21
157.6330921883792
 31
0.0
  0
LINE
  5
1046
330
1F
100
AcDbEntity
  8
10
100
AcDbLine
 10
173.9008176138398
 20
157.6330921883792
 30
0.0
 11
173.9008176138398
 21
158.6330921883792
 31
0.0
  0
LINE
  5
1047
330
1F
100
AcDbEntity
  8
10
100
AcDbLine
 10
74.02581761383929
 20
158.6330921883792
 30
0.0
 11
70.06184737957308
 21
158.6330921883792
 31
0.0
  0
ARC
  5
1048
330
1F
100
AcDbEntity
  8
10
100
AcDbCircle
 10
72.53926106919895
 20
159.5525805121108
 30
0.0
 40
1.6
100
AcDbArc
 50
4.999999999999778
 51
61.82726586813612
  0
LINE
  5
1049
330
1F
100
AcDbEntity
  8
10
100
AcDbLine
 10
74.22581761383928
 20
157.6330921883792
 30
0.0
 11
66.22581761383926
 21
157.6330921883792
 31
0.0
  0
LINE
  5
104A
330
1F
100
AcDbEntity
  8
10
100
AcDbLine
 10
66.22581761383926
 20
156.8330921883792
 30
0.0
 11
74.22581761383928
 21
156.8330921883792
 31
0.0
  0
ARC
  5
104B
330
1F
100
AcDbEntity
  8
10
100
AcDbCircle
 10
67.91237415847959
 20
159.5525805121108
 30
0.0
 40
1.6
100
AcDbArc
 50
118.1727341318638
 51
175.0000000000001
  0
ARC
  5
104C
330
1F
100
AcDbEntity
  8
10
100
AcDbCircle
 10
70.22581761383928
 20
155.2330921883792
 30
0.0
 40
6.5
100
AcDbArc
 50
61.82726586813612
 51
118.1727341318638
  0
LINE
  5
104D
330
1F
100
AcDbEntity
  8
10
100
AcDbLine
 10
69.66184737957306
 20
158.6330921883792
 30
0.0
 11
66.42581761383927
 21
158.6330921883792
 31
0.0
  0
LINE
  5
104E
330
1F
100
AcDbEntity
  8
10
100
AcDbLine
 10
66.31846264153279
 20
159.692029700507
 30
0.0
 11
66.22581761383926
 21
158.6330921883792
 31
0.0
  0
LINE
  5
104F
330
1F
100
AcDbEntity
  8
10
100
AcDbLine
 10
66.22581761383926
 20
158.6330921883792
 30
0.0
 11
66.42581761383927
 21
158.6330921883792
 31
0.0
  0
LINE
  5
1050
330
1F
100
AcDbEntity
  8
10
100
AcDbLine
 10
66.22581761383926
 20
157.6330921883792
 30
0.0
 11
66.22581761383926
 21
156.8330921883792
 31
0.0
  0
LINE
  5
1051
330
1F
100
AcDbEntity
  8
10
100
AcDbLine
 10
66.42581761383927
 20
158.6330921883792
 30
0.0
 11
66.42581761383927
 21
157.6330921883792
 31
0.0
  0
LINE
  5
1052
330
1F
100
AcDbEntity
  8
10
100
AcDbLine
 10
69.66184737957306
 20
158.6330921883792
 30
0.0
 11
70.06184737957308
 21
158.6330921883792
 31
0.0
  0
LINE
  5
1053
330
1F
100
AcDbEntity
  8
10
100
AcDbLine
 10
70.02581761383929
 20
157.6330921883792
 30
0.0
 11
69.66184737957306
 21
158.6330921883792
 31
0.0
  0
LINE
  5
1054
330
1F
100
AcDbEntity
  8
10
100
AcDbLine
 10
70.42581761383925
 20
157.6330921883792
 30
0.0
 11
70.06184737957308
 21
158.6330921883792
 31
0.0
  0
LINE
  5
1055
330
1F
100
AcDbEntity
  8
10
100
AcDbLine
 10
74.13317258614575
 20
159.692029700507
 30
0.0
 11
74.22581761383928
 21
158.6330921883792
 31
0.0
  0
LINE
  5
1056
330
1F
100
AcDbEntity
  8
10
100
AcDbLine
 10
74.02581761383929
 20
158.6330921883792
 30
0.0
 11
74.22581761383928
 21
158.6330921883792
 31
0.0
  0
LINE
  5
1057
330
1F
100
AcDbEntity
  8
10
100
AcDbLine
 10
74.22581761383928
 20
156.8330921883792
 30
0.0
 11
74.22581761383928
 21
157.6330921883792
 31
0.0
  0
LINE
  5
1058
330
1F
100
AcDbEntity
  8
10
100
AcDbLine
 10
74.02581761383929
 20
157.6330921883792
 30
0.0
 11
74.02581761383929
 21
158.6330921883792
 31
0.0
  0
ARC
  5
1059
330
1F
100
AcDbEntity
  8
10
100
AcDbCircle
 10
112.2873741584801
 20
159.5525805121108
 30
0.0
 40
1.6
100
AcDbArc
 50
118.1727341318638
 51
175.0000000000001
  0
LINE
  5
105A
330
1F
100
AcDbEntity
  8
10
100
AcDbLine
 10
118.6008176138398
 20
157.6330921883792
 30
0.0
 11
110.6008176138398
 21
157.6330921883792
 31
0.0
  0
LINE
  5
105B
330
1F
100
AcDbEntity
  8
10
100
AcDbLine
 10
110.6008176138398
 20
156.8330921883792
 30
0.0
 11
118.6008176138398
 21
156.8330921883792
 31
0.0
  0
LINE
  5
105C
330
1F
100
AcDbEntity
  8
10
100
AcDbLine
 10
114.0368473795736
 20
158.6330921883792
 30
0.0
 11
110.8008176138398
 21
158.6330921883792
 31
0.0
  0
LINE
  5
105D
330
1F
100
AcDbEntity
  8
10
100
AcDbLine
 10
110.6934626415333
 20
159.692029700507
 30
0.0
 11
110.6008176138398
 21
158.6330921883792
 31
0.0
  0
LINE
  5
105E
330
1F
100
AcDbEntity
  8
10
100
AcDbLine
 10
110.6008176138398
 20
158.6330921883792
 30
0.0
 11
110.8008176138398
 21
158.6330921883792
 31
0.0
  0
LINE
  5
105F
330
1F
100
AcDbEntity
  8
10
100
AcDbLine
 10
110.6008176138398
 20
157.6330921883792
 30
0.0
 11
110.6008176138398
 21
156.8330921883792
 31
0.0
  0
LINE
  5
1060
330
1F
100
AcDbEntity
  8
10
100
AcDbLine
 10
110.8008176138398
 20
158.6330921883792
 30
0.0
 11
110.8008176138398
 21
157.6330921883792
 31
0.0
  0
ARC
  5
1061
330
1F
100
AcDbEntity
  8
10
100
AcDbCircle
 10
116.9142610691995
 20
159.5525805121108
 30
0.0
 40
1.6
100
AcDbArc
 50
4.999999999999778
 51
61.82726586813612
  0
ARC
  5
1062
330
1F
100
AcDbEntity
  8
10
100
AcDbCircle
 10
114.6008176138398
 20
155.2330921883792
 30
0.0
 40
6.5
100
AcDbArc
 50
61.82726586813612
 51
118.1727341318638
  0
LINE
  5
1063
330
1F
100
AcDbEntity
  8
10
100
AcDbLine
 10
118.4008176138398
 20
158.6330921883792
 30
0.0
 11
114.4368473795736
 21
158.6330921883792
 31
0.0
  0
LINE
  5
1064
330
1F
100
AcDbEntity
  8
10
100
AcDbLine
 10
114.0368473795736
 20
158.6330921883792
 30
0.0
 11
114.4368473795736
 21
158.6330921883792
 31
0.0
  0
LINE
  5
1065
330
1F
100
AcDbEntity
  8
10
100
AcDbLine
 10
114.4008176138398
 20
157.6330921883792
 30
0.0
 11
114.0368473795736
 21
158.6330921883792
 31
0.0
  0
LINE
  5
1066
330
1F
100
AcDbEntity
  8
10
100
AcDbLine
 10
114.8008176138398
 20
157.6330921883792
 30
0.0
 11
114.4368473795736
 21
158.6330921883792
 31
0.0
  0
LINE
  5
1067
330
1F
100
AcDbEntity
  8
10
100
AcDbLine
 10
118.5081725861463
 20
159.692029700507
 30
0.0
 11
118.6008176138398
 21
158.6330921883792
 31
0.0
  0
LINE
  5
1068
330
1F
100
AcDbEntity
  8
10
100
AcDbLine
 10
118.4008176138398
 20
158.6330921883792
 30
0.0
 11
118.6008176138398
 21
158.6330921883792
 31
0.0
  0
LINE
  5
1069
330
1F
100
AcDbEntity
  8
10
100
AcDbLine
 10
118.6008176138398
 20
156.8330921883792
 30
0.0
 11
118.6008176138398
 21
157.6330921883792
 31
0.0
  0
LINE
  5
106A
330
1F
100
AcDbEntity
  8
10
100
AcDbLine
 10
118.4008176138398
 20
157.6330921883792
 30
0.0
 11
118.4008176138398
 21
158.6330921883792
 31
0.0
  0
LINE
  5
106B
330
1F
100
AcDbEntity
  8
10
100
AcDbLine
 10
285.7505084576188
 20
144.6330921883828
 30
0.0
 11
285.7505084576191
 21
146.8330921883828
 31
0.0
  0
LINE
  5
106C
330
1F
100
AcDbEntity
  8
10
100
AcDbLine
 10
285.3210934576191
 20
146.8330921883828
 30
0.0
 11
285.3210934576188
 21
145.0625071883828
 31
0.0
  0
LINE
  5
106D
330
1F
100
AcDbEntity
  8
10
100
AcDbLine
 10
289.3210934576191
 20
146.8330921883828
 30
0.0
 11
289.3210934576188
 21
145.0625071883828
 31
0.0
  0
LINE
  5
106E
330
1F
100
AcDbEntity
  8
10
100
AcDbLine
 10
288.8916784576188
 20
144.6330921883828
 30
0.0
 11
288.8916784576191
 21
146.8330921883828
 31
0.0
  0
LINE
  5
106F
330
1F
100
AcDbEntity
  8
10
100
AcDbLine
 10
288.8916784576188
 20
144.6330921883828
 30
0.0
 11
285.7505084576188
 21
144.6330921883828
 31
0.0
  0
LINE
  5
1070
330
1F
100
AcDbEntity
  8
10
100
AcDbLine
 10
289.3210934576188
 20
145.0625071883828
 30
0.0
 11
285.3210934576188
 21
145.0625071883828
 31
0.0
  0
LINE
  5
1071
330
1F
100
AcDbEntity
  8
10
100
AcDbLine
 10
285.3210934576188
 20
145.0625071883828
 30
0.0
 11
285.7505084576188
 21
144.6330921883828
 31
0.0
  0
LINE
  5
1072
330
1F
100
AcDbEntity
  8
10
100
AcDbLine
 10
289.3210934576188
 20
145.0625071883828
 30
0.0
 11
288.8916784576188
 21
144.6330921883828
 31
0.0
  0
LINE
  5
1073
330
1F
100
AcDbEntity
  8
10
100
AcDbLine
 10
312.3210934576189
 20
161.3330921883792
 30
0.0
 11
317.4358367045598
 21
161.3330921883791
 31
0.0
  0
ARC
  5
1074
330
1F
100
AcDbEntity
  8
10
100
AcDbCircle
 10
317.4358367045598
 20
151.3330921883791
 30
0.0
 40
10.00000000000002
100
AcDbArc
 50
339.5595808309897
 51
90.0
  0
LINE
  5
1075
330
1F
100
AcDbEntity
  8
10
100
AcDbLine
 10
326.8061952743885
 20
147.8407605499406
 30
0.0
 11
317.2994899996581
 21
122.333092188371
 31
0.0
  0
LINE
  5
1076
330
1F
100
AcDbEntity
  8
10
100
AcDbLine
 10
157.6008176138404
 20
54.33309218837928
 30
0.0
 11
157.6008176138404
 21
53.83309218837928
 31
0.0
  0
LINE
  5
1077
330
1F
100
AcDbEntity
  8
10
100
AcDbLine
 10
157.6008176138404
 20
122.8330921883792
 30
0.0
 11
157.6008176138404
 21
122.3330921883792
 31
0.0
  0
LINE
  5
1078
330
1F
100
AcDbEntity
  8
10
100
AcDbLine
 10
82.6008176141414
 20
54.33309218837901
 30
0.0
 11
82.60081761414374
 21
53.83309218837927
 31
0.0
  0
LINE
  5
1079
330
1F
100
AcDbEntity
  8
10
100
AcDbLine
 10
132.6008176138318
 20
54.333092188379
 30
0.0
 11
132.6008176138318
 21
53.83309218837927
 31
0.0
  0
LINE
  5
107A
330
1F
100
AcDbEntity
  8
10
100
AcDbLine
 10
107.6008176138318
 20
54.333092188379
 30
0.0
 11
107.6008176138318
 21
53.83309218837927
 31
0.0
  0
LINE
  5
107B
330
1F
100
AcDbEntity
  8
10
100
AcDbLine
 10
132.6008176138371
 20
122.8330921883792
 30
0.0
 11
132.6008176138371
 21
122.3330921883789
 31
0.0
  0
LINE
  5
107C
330
1F
100
AcDbEntity
  8
10
100
AcDbLine
 10
107.6008176138371
 20
122.3330921883789
 30
0.0
 11
107.6008176138371
 21
122.8330921883792
 31
0.0
  0
LINE
  5
107D
330
1F
100
AcDbEntity
  8
10
100
AcDbLine
 10
82.60081761382187
 20
122.8330921883792
 30
0.0
 11
82.60081761382421
 21
122.3330921883789
 31
0.0
  0
LINE
  5
108B
330
1F
100
AcDbEntity
  8
10
100
AcDbLine
 10
280.3210934576189
 20
172.3330921883828
 30
0.0
 11
290.8210934576189
 21
172.3330921883828
 31
0.0
  0
ARC
  5
108C
330
1F
100
AcDbEntity
  8
10
100
AcDbCircle
 10
280.3210934576189
 20
170.3330921883828
 30
0.0
 40
2.0
100
AcDbArc
 50
90.0
 51
180.0
  0
ARC
  5
108D
330
1F
100
AcDbEntity
  8
10
100
AcDbCircle
 10
310.3210934576189
 20
170.3330921883828
 30
0.0
 40
2.0
100
AcDbArc
 50
0.0
 51
90.0
  0
LINE
  5
1095
330
1F
100
AcDbEntity
  8
10
100
AcDbLine
 10
310.3210934576189
 20
172.3330921883828
 30
0.0
 11
299.8210934576189
 21
172.3330921883828
 31
0.0
  0
LINE
  5
10A8
330
1F
100
AcDbEntity
  8
10
100
AcDbLine
 10
299.8210934576189
 20
156.8330921883828
 30
0.0
 11
290.8210934576189
 21
156.8330921883828
 31
0.0
  0
LINE
  5
10BF
330
1F
100
AcDbEntity
  8
10
100
AcDbLine
 10
100.8508176138392
 20
166.2330921883793
 30
0.0
 11
106.8508176138392
 21
166.2330921883793
 31
0.0
  0
LINE
  5
10C0
330
1F
100
AcDbEntity
  8
10
100
AcDbLine
 10
108.8508176138393
 20
167.3330921883792
 30
0.0
 11
98.85081761383929
 21
167.3330921883792
 31
0.0
  0
LINE
  5
10C1
330
1F
100
AcDbEntity
  8
10
100
AcDbLine
 10
98.85081761383929
 20
161.3330921883792
 30
0.0
 11
108.8508176138393
 21
161.3330921883792
 31
0.0
  0
LINE
  5
10CA
330
1F
100
AcDbEntity
  8
10
100
AcDbLine
 10
110.3508176138392
 20
158.8330921883792
 30
0.0
 11
74.3508176138393
 21
158.8330921883792
 31
0.0
  0
LINE
  5
10E3
330
1F
100
AcDbEntity
  8
10
100
AcDbLine
 10
74.3508176138393
 20
156.8330921883792
 30
0.0
 11
74.3508176138393
 21
148.8330921883792
 31
0.0
  0
LINE
  5
10F8
330
1F
100
AcDbEntity
  8
10
100
AcDbLine
 10
89.3508176138393
 20
166.2330921883793
 30
0.0
 11
95.3508176138393
 21
166.2330921883793
 31
0.0
  0
LINE
  5
10F9
330
1F
100
AcDbEntity
  8
10
100
AcDbLine
 10
97.35081761383931
 20
167.3330921883792
 30
0.0
 11
87.35081761383929
 21
167.3330921883792
 31
0.0
  0
LINE
  5
10FA
330
1F
100
AcDbEntity
  8
10
100
AcDbLine
 10
87.35081761383929
 20
161.3330921883792
 30
0.0
 11
97.35081761383931
 21
161.3330921883792
 31
0.0
  0
LINE
  5
110F
330
1F
100
AcDbEntity
  8
10
100
AcDbLine
 10
77.8508176138393
 20
166.2330921883793
 30
0.0
 11
83.85081761383929
 21
166.2330921883793
 31
0.0
  0
LINE
  5
1110
330
1F
100
AcDbEntity
  8
10
100
AcDbLine
 10
75.85081761383929
 20
161.3330921883792
 30
0.0
 11
85.8508176138393
 21
161.3330921883792
 31
0.0
  0
LINE
  5
1111
330
1F
100
AcDbEntity
  8
10
100
AcDbLine
 10
85.8508176138393
 20
167.3330921883792
 30
0.0
 11
75.85081761383929
 21
167.3330921883792
 31
0.0
  0
LINE
  5
1112
330
1F
100
AcDbEntity
  8
10
100
AcDbLine
 10
80.8508176138393
 20
163.1330921883793
 30
0.0
 11
81.8508176138393
 21
162.1330921883792
 31
0.0
  0
LINE
  5
1113
330
1F
100
AcDbEntity
  8
10
100
AcDbLine
 10
80.8508176138393
 20
162.1330921883792
 30
0.0
 11
79.8508176138393
 21
163.1330921883793
 31
0.0
  0
ARC
  5
1114
330
1F
100
AcDbEntity
  8
10
100
AcDbCircle
 10
77.8508176138393
 20
165.2330921883793
 30
0.0
 40
1.0
100
AcDbArc
 50
90.0
 51
180.0
  0
ARC
  5
1115
330
1F
100
AcDbEntity
  8
10
100
AcDbCircle
 10
89.3508176138393
 20
165.2330921883793
 30
0.0
 40
1.0
100
AcDbArc
 50
90.0
 51
180.0
  0
ARC
  5
1116
330
1F
100
AcDbEntity
  8
10
100
AcDbCircle
 10
83.85081761383929
 20
165.2330921883793
 30
0.0
 40
1.0
100
AcDbArc
 50
0.0
 51
90.0
  0
ARC
  5
1117
330
1F
100
AcDbEntity
  8
10
100
AcDbCircle
 10
95.3508176138393
 20
165.2330921883793
 30
0.0
 40
1.0
100
AcDbArc
 50
0.0
 51
90.0
  0
LINE
  5
1118
330
1F
100
AcDbEntity
  8
10
100
AcDbLine
 10
92.35081761383929
 20
163.1330921883793
 30
0.0
 11
93.3508176138393
 21
162.1330921883792
 31
0.0
  0
LINE
  5
1119
330
1F
100
AcDbEntity
  8
10
100
AcDbLine
 10
92.35081761383929
 20
162.1330921883792
 30
0.0
 11
91.35081761383929
 21
163.1330921883793
 31
0.0
  0
LINE
  5
111A
330
1F
100
AcDbEntity
  8
10
100
AcDbLine
 10
103.8508176138392
 20
162.1330921883792
 30
0.0
 11
102.8508176138392
 21
163.1330921883793
 31
0.0
  0
LINE
  5
111B
330
1F
100
AcDbEntity
  8
10
100
AcDbLine
 10
103.8508176138392
 20
163.1330921883793
 30
0.0
 11
104.8508176138392
 21
162.1330921883792
 31
0.0
  0
ARC
  5
111C
330
1F
100
AcDbEntity
  8
10
100
AcDbCircle
 10
100.8508176138392
 20
165.2330921883793
 30
0.0
 40
1.0
100
AcDbArc
 50
90.0
 51
180.0
  0
LINE
  5
1123
330
1F
100
AcDbEntity
  8
10
100
AcDbLine
 10
110.3508176138392
 20
156.8330921883792
 30
0.0
 11
110.3508176138392
 21
148.8330921883792
 31
0.0
  0
ARC
  5
1124
330
1F
100
AcDbEntity
  8
10
100
AcDbCircle
 10
106.8508176138392
 20
165.2330921883793
 30
0.0
 40
1.0
100
AcDbArc
 50
0.0
 51
90.0
  0
LINE
  5
113B
330
1F
100
AcDbEntity
  8
10
100
AcDbLine
 10
156.3508176138393
 20
166.2330921883793
 30
0.0
 11
162.3508176138392
 21
166.2330921883793
 31
0.0
  0
LINE
  5
113C
330
1F
100
AcDbEntity
  8
10
100
AcDbLine
 10
164.3508176138392
 20
167.3330921883792
 30
0.0
 11
154.3508176138393
 21
167.3330921883792
 31
0.0
  0
LINE
  5
113D
330
1F
100
AcDbEntity
  8
10
100
AcDbLine
 10
154.3508176138393
 20
161.3330921883792
 30
0.0
 11
164.3508176138392
 21
161.3330921883792
 31
0.0
  0
LINE
  5
1146
330
1F
100
AcDbEntity
  8
10
100
AcDbLine
 10
165.8508176138393
 20
158.8330921883792
 30
0.0
 11
129.8508176138392
 21
158.8330921883792
 31
0.0
  0
LINE
  5
115F
330
1F
100
AcDbEntity
  8
10
100
AcDbLine
 10
129.8508176138392
 20
156.8330921883792
 30
0.0
 11
129.8508176138392
 21
148.8330921883792
 31
0.0
  0
LINE
  5
1174
330
1F
100
AcDbEntity
  8
10
100
AcDbLine
 10
144.8508176138392
 20
166.2330921883793
 30
0.0
 11
150.8508176138392
 21
166.2330921883793
 31
0.0
  0
LINE
  5
1175
330
1F
100
AcDbEntity
  8
10
100
AcDbLine
 10
152.8508176138393
 20
167.3330921883792
 30
0.0
 11
142.8508176138393
 21
167.3330921883792
 31
0.0
  0
LINE
  5
1176
330
1F
100
AcDbEntity
  8
10
100
AcDbLine
 10
142.8508176138393
 20
161.3330921883792
 30
0.0
 11
152.8508176138393
 21
161.3330921883792
 31
0.0
  0
LINE
  5
118B
330
1F
100
AcDbEntity
  8
10
100
AcDbLine
 10
133.3508176138392
 20
166.2330921883793
 30
0.0
 11
139.3508176138392
 21
166.2330921883793
 31
0.0
  0
LINE
  5
118C
330
1F
100
AcDbEntity
  8
10
100
AcDbLine
 10
131.3508176138393
 20
161.3330921883792
 30
0.0
 11
141.3508176138392
 21
161.3330921883792
 31
0.0
  0
LINE
  5
118D
330
1F
100
AcDbEntity
  8
10
100
AcDbLine
 10
141.3508176138392
 20
167.3330921883792
 30
0.0
 11
131.3508176138393
 21
167.3330921883792
 31
0.0
  0
LINE
  5
118E
330
1F
100
AcDbEntity
  8
10
100
AcDbLine
 10
136.3508176138392
 20
163.1330921883793
 30
0.0
 11
137.3508176138392
 21
162.1330921883792
 31
0.0
  0
LINE
  5
118F
330
1F
100
AcDbEntity
  8
10
100
AcDbLine
 10
136.3508176138392
 20
162.1330921883792
 30
0.0
 11
135.3508176138392
 21
163.1330921883793
 31
0.0
  0
ARC
  5
1190
330
1F
100
AcDbEntity
  8
10
100
AcDbCircle
 10
133.3508176138392
 20
165.2330921883793
 30
0.0
 40
1.0
100
AcDbArc
 50
90.0
 51
180.0
  0
ARC
  5
1191
330
1F
100
AcDbEntity
  8
10
100
AcDbCircle
 10
144.8508176138392
 20
165.2330921883793
 30
0.0
 40
1.0
100
AcDbArc
 50
90.0
 51
180.0
  0
ARC
  5
1192
330
1F
100
AcDbEntity
  8
10
100
AcDbCircle
 10
139.3508176138392
 20
165.2330921883793
 30
0.0
 40
1.0
100
AcDbArc
 50
0.0
 51
90.0
  0
ARC
  5
1193
330
1F
100
AcDbEntity
  8
10
100
AcDbCircle
 10
150.8508176138392
 20
165.2330921883793
 30
0.0
 40
1.0
100
AcDbArc
 50
0.0
 51
90.0
  0
LINE
  5
1194
330
1F
100
AcDbEntity
  8
10
100
AcDbLine
 10
147.8508176138392
 20
163.1330921883793
 30
0.0
 11
148.8508176138392
 21
162.1330921883792
 31
0.0
  0
LINE
  5
1195
330
1F
100
AcDbEntity
  8
10
100
AcDbLine
 10
147.8508176138392
 20
162.1330921883792
 30
0.0
 11
146.8508176138392
 21
163.1330921883793
 31
0.0
  0
LINE
  5
1196
330
1F
100
AcDbEntity
  8
10
100
AcDbLine
 10
159.3508176138392
 20
162.1330921883792
 30
0.0
 11
158.3508176138392
 21
163.1330921883793
 31
0.0
  0
LINE
  5
1197
330
1F
100
AcDbEntity
  8
10
100
AcDbLine
 10
159.3508176138392
 20
163.1330921883793
 30
0.0
 11
160.3508176138392
 21
162.1330921883792
 31
0.0
  0
ARC
  5
1198
330
1F
100
AcDbEntity
  8
10
100
AcDbCircle
 10
156.3508176138393
 20
165.2330921883793
 30
0.0
 40
1.0
100
AcDbArc
 50
90.0
 51
180.0
  0
LINE
  5
119F
330
1F
100
AcDbEntity
  8
10
100
AcDbLine
 10
165.8508176138393
 20
156.8330921883792
 30
0.0
 11
165.8508176138393
 21
148.8330921883792
 31
0.0
  0
ARC
  5
11A0
330
1F
100
AcDbEntity
  8
10
100
AcDbCircle
 10
162.3508176138392
 20
165.2330921883793
 30
0.0
 40
1.0
100
AcDbArc
 50
0.0
 51
90.0
  0
LINE
  5
11A1
330
1F
100
AcDbEntity
  8
10
100
AcDbLine
 10
296.3210934576253
 20
122.333092188384
 30
0.0
 11
321.3210934576255
 21
122.3330921883686
 31
0.0
  0
LINE
  5
11A2
330
1F
100
AcDbEntity
  8
10
100
AcDbLine
 10
321.3210934576255
 20
122.3330921883686
 30
0.0
 11
321.3210934576252
 21
120.8330921883685
 31
0.0
  0
LINE
  5
11A3
330
1F
100
AcDbEntity
  8
10
100
AcDbLine
 10
321.3210934576252
 20
120.8330921883685
 30
0.0
 11
296.3210934576252
 21
120.833092188384
 31
0.0
  0
LINE
  5
11A4
330
1F
100
AcDbEntity
  8
10
100
AcDbLine
 10
284.3210934576258
 20
123.8330921883829
 30
0.0
 11
308.3210934576125
 21
123.8330921883685
 31
0.0
  0
LINE
  5
11A5
330
1F
100
AcDbEntity
  8
10
100
AcDbLine
 10
308.3210934576123
 20
122.8330921883684
 30
0.0
 11
284.3210934576256
 21
122.8330921883829
 31
0.0
  0
LINE
  5
11A6
330
1F
100
AcDbEntity
  8
10
100
AcDbLine
 10
303.821093457615
 20
143.833092188383
 30
0.0
 11
308.3210934576149
 21
143.8330921883685
 31
0.0
  0
LINE
  5
11A7
330
1F
100
AcDbEntity
  8
10
100
AcDbLine
 10
308.3210934576149
 20
143.8330921883685
 30
0.0
 11
308.3210934576123
 21
122.3330921883686
 31
0.0
  0
LINE
  5
11A8
330
1F
100
AcDbEntity
  8
10
100
AcDbLine
 10
303.821093457628
 20
143.833092188383
 30
0.0
 11
284.3210934576285
 21
143.833092188383
 31
0.0
  0
LINE
  5
11A9
330
1F
100
AcDbEntity
  8
10
100
AcDbLine
 10
284.3210934576285
 20
143.833092188383
 30
0.0
 11
284.3210934576255
 21
122.3330921883855
 31
0.0
  0
LINE
  5
11AA
330
1F
100
AcDbEntity
  8
12
100
AcDbLine
 10
323.8210934576129
 20
35.34447216237217
 30
0.0
 11
323.8210934576127
 21
30.4686677524478
 31
0.0
  0
LINE
  5
11AB
330
1F
100
AcDbEntity
  8
10
100
AcDbLine
 10
303.8210934576137
 20
32.83309218838306
 30
0.0
 11
284.3210934576149
 21
32.83309218838306
 31
0.0
  0
LINE
  5
11AC
330
1F
100
AcDbEntity
  8
10
100
AcDbLine
 10
284.3210934576149
 20
32.83309218838306
 30
0.0
 11
284.3210934576182
 21
54.33309218838309
 31
0.0
  0
LINE
  5
11AD
330
1F
100
AcDbEntity
  8
10
100
AcDbLine
 10
303.8210934576137
 20
32.83309218838306
 30
0.0
 11
308.3210934576046
 21
32.83309218836858
 31
0.0
  0
LINE
  5
11AE
330
1F
100
AcDbEntity
  8
10
100
AcDbLine
 10
308.3210934576046
 20
32.83309218836858
 30
0.0
 11
308.3210934576074
 21
54.33309218836859
 31
0.0
  0
LINE
  5
11AF
330
1F
100
AcDbEntity
  8
10
100
AcDbLine
 10
296.3210934576162
 20
55.83309218838427
 30
0.0
 11
321.3210934576215
 21
55.83309218836857
 31
0.0
  0
LINE
  5
11B0
330
1F
100
AcDbEntity
  8
10
100
AcDbLine
 10
321.3210934576215
 20
55.83309218836857
 30
0.0
 11
321.3210934576214
 21
54.33309218836859
 31
0.0
  0
LINE
  5
11B1
330
1F
100
AcDbEntity
  8
10
100
AcDbLine
 10
321.3210934576214
 20
54.33309218836859
 30
0.0
 11
296.3210934576159
 21
54.33309218838413
 31
0.0
  0
LINE
  5
11B2
330
1F
100
AcDbEntity
  8
10
100
AcDbLine
 10
308.3210934576149
 20
52.83309218836858
 30
0.0
 11
284.3210934576189
 21
52.83309218838306
 31
0.0
  0
LINE
  5
11B3
330
1F
100
AcDbEntity
  8
10
100
AcDbLine
 10
284.3210934576181
 20
53.83309218838306
 30
0.0
 11
308.3210934576074
 21
53.83309218836857
 31
0.0
  0
LINE
  5
11B4
330
1F
100
AcDbEntity
  8
10
100
AcDbLine
 10
321.3210934576252
 20
120.8330921883685
 30
0.0
 11
321.3210934576218
 21
55.83309218836857
 31
0.0
  0
LINE
  5
11B5
330
1F
100
AcDbEntity
  8
12
100
AcDbLine
 10
268.8210934576128
 20
35.19015864417047
 30
0.0
 11
268.8210934576128
 21
30.53413790044992
 31
0.0
  0
LINE
  5
11B6
330
1F
100
AcDbEntity
  8
10
100
AcDbLine
 10
271.3210934576229
 20
120.8330921883882
 30
0.0
 11
271.321093457616
 21
55.83309218838826
 31
0.0
  0
LINE
  5
11B7
330
1F
100
AcDbEntity
  8
10
100
AcDbLine
 10
296.3210934576162
 20
55.83309218838427
 30
0.0
 11
271.321093457616
 21
55.83309218838826
 31
0.0
  0
LINE
  5
11B8
330
1F
100
AcDbEntity
  8
10
100
AcDbLine
 10
271.321093457616
 20
55.83309218838826
 30
0.0
 11
271.3210934576158
 21
54.33309218838309
 31
0.0
  0
LINE
  5
11B9
330
1F
100
AcDbEntity
  8
10
100
AcDbLine
 10
271.3210934576158
 20
54.33309218838309
 30
0.0
 11
296.3210934576159
 21
54.33309218838413
 31
0.0
  0
LINE
  5
11BA
330
1F
100
AcDbEntity
  8
10
100
AcDbLine
 10
296.3210934576253
 20
122.333092188384
 30
0.0
 11
271.3210934576232
 21
122.3330921883883
 31
0.0
  0
LINE
  5
11BB
330
1F
100
AcDbEntity
  8
10
100
AcDbLine
 10
271.3210934576232
 20
122.3330921883883
 30
0.0
 11
271.3210934576229
 21
120.8330921883882
 31
0.0
  0
LINE
  5
11BC
330
1F
100
AcDbEntity
  8
10
100
AcDbLine
 10
271.3210934576229
 20
120.8330921883882
 30
0.0
 11
296.3210934576252
 21
120.833092188384
 31
0.0
  0
LINE
  5
11BD
330
1F
100
AcDbEntity
  8
12
100
AcDbLine
 10
163.265365729516
 20
42.83309218837956
 30
0.0
 11
176.9362694981707
 21
42.83309218837956
 31
0.0
  0
LINE
  5
11BE
330
1F
100
AcDbEntity
  8
10
100
AcDbLine
 10
166.6008176138434
 20
40.81236624621586
 30
0.0
 11
170.1008176138434
 21
38.79164030405218
 31
0.0
  0
LINE
  5
11BF
330
1F
100
AcDbEntity
  8
10
100
AcDbLine
 10
170.1008176138434
 20
38.79164030405218
 30
0.0
 11
173.6008176138434
 21
40.81236624621576
 31
0.0
  0
LINE
  5
11C0
330
1F
100
AcDbEntity
  8
10
100
AcDbLine
 10
173.6008176138434
 20
40.81236624621576
 30
0.0
 11
173.6008176138434
 21
44.85381813054325
 31
0.0
  0
LINE
  5
11C1
330
1F
100
AcDbEntity
  8
10
100
AcDbLine
 10
173.6008176138434
 20
44.85381813054325
 30
0.0
 11
170.1008176138434
 21
46.87454407270691
 31
0.0
  0
LINE
  5
11C2
330
1F
100
AcDbEntity
  8
10
100
AcDbLine
 10
170.1008176138434
 20
46.87454407270691
 30
0.0
 11
166.6008176138434
 21
44.8538181305433
 31
0.0
  0
LINE
  5
11C3
330
1F
100
AcDbEntity
  8
10
100
AcDbLine
 10
166.6008176138434
 20
44.8538181305433
 30
0.0
 11
166.6008176138434
 21
40.81236624621586
 31
0.0
  0
CIRCLE
  5
11C4
330
1F
100
AcDbEntity
  8
10
100
AcDbCircle
 10
170.1008176138434
 20
42.83309218837956
 30
0.0
 40
3.5
  0
LINE
  5
11C5
330
1F
100
AcDbEntity
  8
12
100
AcDbLine
 10
170.1008176138434
 20
49.66854407270691
 30
0.0
 11
170.1008176138434
 21
35.9976403040522
 31
0.0
  0
CIRCLE
  5
11C7
330
1F
100
AcDbEntity
  8
10
100
AcDbCircle
 10
170.1008176138434
 20
42.83309218837956
 30
0.0
 40
1.999999999999999
  0
LINE
  5
11C8
330
1F
100
AcDbEntity
  8
12
100
AcDbLine
 10
165.3068176138434
 20
42.83309218837956
 30
0.0
 11
174.8948176138434
 21
42.83309218837956
 31
0.0
  0
LINE
  5
11C9
330
1F
100
AcDbEntity
  8
12
100
AcDbLine
 10
170.1008176138434
 20
47.62709218837955
 30
0.0
 11
170.1008176138434
 21
38.03909218837956
 31
0.0
  0
CIRCLE
  5
11CA
330
1F
100
AcDbEntity
  8
10
100
AcDbCircle
 10
170.1008176138434
 20
42.83309218837956
 30
0.0
 40
4.5
  0
LINE
  5
11CB
330
1F
100
AcDbEntity
  8
12
100
AcDbLine
 10
162.8068176138434
 20
42.83309218837956
 30
0.0
 11
177.3948176138434
 21
42.83309218837956
 31
0.0
  0
LINE
  5
11CC
330
1F
100
AcDbEntity
  8
12
100
AcDbLine
 10
170.1008176138434
 20
50.12709218837957
 30
0.0
 11
170.1008176138434
 21
35.53909218837956
 31
0.0
  0
LINE
  5
11CD
330
1F
100
AcDbEntity
  8
12
100
AcDbLine
 10
113.265365729504
 20
42.83309218837956
 30
0.0
 11
126.9362694981587
 21
42.83309218837956
 31
0.0
  0
LINE
  5
11CE
330
1F
100
AcDbEntity
  8
10
100
AcDbLine
 10
116.6008176138313
 20
40.81236624621586
 30
0.0
 11
120.1008176138313
 21
38.79164030405218
 31
0.0
  0
LINE
  5
11CF
330
1F
100
AcDbEntity
  8
10
100
AcDbLine
 10
120.1008176138313
 20
38.79164030405218
 30
0.0
 11
123.6008176138313
 21
40.81236624621576
 31
0.0
  0
LINE
  5
11D0
330
1F
100
AcDbEntity
  8
10
100
AcDbLine
 10
123.6008176138313
 20
40.81236624621576
 30
0.0
 11
123.6008176138313
 21
44.85381813054325
 31
0.0
  0
LINE
  5
11D1
330
1F
100
AcDbEntity
  8
10
100
AcDbLine
 10
123.6008176138313
 20
44.85381813054325
 30
0.0
 11
120.1008176138314
 21
46.87454407270691
 31
0.0
  0
LINE
  5
11D2
330
1F
100
AcDbEntity
  8
10
100
AcDbLine
 10
120.1008176138314
 20
46.87454407270691
 30
0.0
 11
116.6008176138313
 21
44.8538181305433
 31
0.0
  0
LINE
  5
11D3
330
1F
100
AcDbEntity
  8
10
100
AcDbLine
 10
116.6008176138313
 20
44.8538181305433
 30
0.0
 11
116.6008176138313
 21
40.81236624621586
 31
0.0
  0
CIRCLE
  5
11D4
330
1F
100
AcDbEntity
  8
10
100
AcDbCircle
 10
120.1008176138313
 20
42.83309218837956
 30
0.0
 40
3.5
  0
LINE
  5
11D5
330
1F
100
AcDbEntity
  8
12
100
AcDbLine
 10
120.1008176138313
 20
49.66854407270691
 30
0.0
 11
120.1008176138313
 21
35.9976403040522
 31
0.0
  0
CIRCLE
  5
11D7
330
1F
100
AcDbEntity
  8
10
100
AcDbCircle
 10
120.1008176138313
 20
42.83309218837956
 30
0.0
 40
1.999999999999999
  0
LINE
  5
11D8
330
1F
100
AcDbEntity
  8
12
100
AcDbLine
 10
115.3068176138313
 20
42.83309218837956
 30
0.0
 11
124.8948176138313
 21
42.83309218837956
 31
0.0
  0
LINE
  5
11D9
330
1F
100
AcDbEntity
  8
12
100
AcDbLine
 10
120.1008176138313
 20
47.62709218837955
 30
0.0
 11
120.1008176138313
 21
38.03909218837956
 31
0.0
  0
CIRCLE
  5
11DA
330
1F
100
AcDbEntity
  8
10
100
AcDbCircle
 10
120.1008176138313
 20
42.83309218837956
 30
0.0
 40
4.5
  0
LINE
  5
11DB
330
1F
100
AcDbEntity
  8
12
100
AcDbLine
 10
112.8068176138313
 20
42.83309218837956
 30
0.0
 11
127.3948176138313
 21
42.83309218837956
 31
0.0
  0
LINE
  5
11DC
330
1F
100
AcDbEntity
  8
12
100
AcDbLine
 10
120.1008176138313
 20
50.12709218837957
 30
0.0
 11
120.1008176138313
 21
35.53909218837956
 31
0.0
  0
LINE
  5
11DD
330
1F
100
AcDbEntity
  8
12
100
AcDbLine
 10
63.26536572949326
 20
42.83309218837956
 30
0.0
 11
76.93626949814798
 21
42.83309218837956
 31
0.0
  0
LINE
  5
11DE
330
1F
100
AcDbEntity
  8
10
100
AcDbLine
 10
66.60081761382063
 20
40.81236624621586
 30
0.0
 11
70.1008176138206
 21
38.79164030405218
 31
0.0
  0
LINE
  5
11DF
330
1F
100
AcDbEntity
  8
10
100
AcDbLine
 10
70.1008176138206
 20
38.79164030405218
 30
0.0
 11
73.60081761382061
 21
40.81236624621576
 31
0.0
  0
LINE
  5
11E0
330
1F
100
AcDbEntity
  8
10
100
AcDbLine
 10
73.60081761382061
 20
40.81236624621576
 30
0.0
 11
73.60081761382061
 21
44.85381813054325
 31
0.0
  0
LINE
  5
11E1
330
1F
100
AcDbEntity
  8
10
100
AcDbLine
 10
73.60081761382061
 20
44.85381813054325
 30
0.0
 11
70.10081761382065
 21
46.87454407270691
 31
0.0
  0
LINE
  5
11E2
330
1F
100
AcDbEntity
  8
10
100
AcDbLine
 10
70.10081761382065
 20
46.87454407270691
 30
0.0
 11
66.60081761382063
 21
44.8538181305433
 31
0.0
  0
LINE
  5
11E3
330
1F
100
AcDbEntity
  8
10
100
AcDbLine
 10
66.60081761382063
 20
44.8538181305433
 30
0.0
 11
66.60081761382063
 21
40.81236624621586
 31
0.0
  0
CIRCLE
  5
11E4
330
1F
100
AcDbEntity
  8
10
100
AcDbCircle
 10
70.1008176138206
 20
42.83309218837956
 30
0.0
 40
3.5
  0
LINE
  5
11E5
330
1F
100
AcDbEntity
  8
12
100
AcDbLine
 10
70.1008176138206
 20
49.66854407270691
 30
0.0
 11
70.1008176138206
 21
35.9976403040522
 31
0.0
  0
CIRCLE
  5
11E7
330
1F
100
AcDbEntity
  8
10
100
AcDbCircle
 10
70.1008176138206
 20
42.83309218837956
 30
0.0
 40
1.999999999999999
  0
LINE
  5
11E8
330
1F
100
AcDbEntity
  8
12
100
AcDbLine
 10
65.30681761382061
 20
42.83309218837956
 30
0.0
 11
74.89481761382061
 21
42.83309218837956
 31
0.0
  0
LINE
  5
11E9
330
1F
100
AcDbEntity
  8
12
100
AcDbLine
 10
70.1008176138206
 20
47.62709218837955
 30
0.0
 11
70.1008176138206
 21
38.03909218837956
 31
0.0
  0
CIRCLE
  5
11EA
330
1F
100
AcDbEntity
  8
10
100
AcDbCircle
 10
70.1008176138206
 20
42.83309218837956
 30
0.0
 40
4.5
  0
LINE
  5
11EB
330
1F
100
AcDbEntity
  8
12
100
AcDbLine
 10
62.80681761382061
 20
42.83309218837956
 30
0.0
 11
77.39481761382061
 21
42.83309218837956
 31
0.0
  0
LINE
  5
11EC
330
1F
100
AcDbEntity
  8
12
100
AcDbLine
 10
70.1008176138206
 20
50.12709218837957
 30
0.0
 11
70.1008176138206
 21
35.53909218837956
 31
0.0
  0
LINE
  5
11ED
330
1F
100
AcDbEntity
  8
12
100
AcDbLine
 10
63.26536572949326
 20
133.8330921883794
 30
0.0
 11
76.93626949814798
 21
133.8330921883794
 31
0.0
  0
LINE
  5
11EE
330
1F
100
AcDbEntity
  8
10
100
AcDbLine
 10
66.60081761382063
 20
131.8123662462157
 30
0.0
 11
70.1008176138206
 21
129.7916403040521
 31
0.0
  0
LINE
  5
11EF
330
1F
100
AcDbEntity
  8
10
100
AcDbLine
 10
70.1008176138206
 20
129.7916403040521
 30
0.0
 11
73.60081761382061
 21
131.8123662462156
 31
0.0
  0
LINE
  5
11F0
330
1F
100
AcDbEntity
  8
10
100
AcDbLine
 10
73.60081761382061
 20
131.8123662462156
 30
0.0
 11
73.60081761382061
 21
135.8538181305431
 31
0.0
  0
LINE
  5
11F1
330
1F
100
AcDbEntity
  8
10
100
AcDbLine
 10
73.60081761382061
 20
135.8538181305431
 30
0.0
 11
70.10081761382065
 21
137.8745440727068
 31
0.0
  0
LINE
  5
11F2
330
1F
100
AcDbEntity
  8
10
100
AcDbLine
 10
70.10081761382065
 20
137.8745440727068
 30
0.0
 11
66.60081761382063
 21
135.8538181305432
 31
0.0
  0
LINE
  5
11F3
330
1F
100
AcDbEntity
  8
10
100
AcDbLine
 10
66.60081761382063
 20
135.8538181305432
 30
0.0
 11
66.60081761382063
 21
131.8123662462157
 31
0.0
  0
CIRCLE
  5
11F4
330
1F
100
AcDbEntity
  8
10
100
AcDbCircle
 10
70.1008176138206
 20
133.8330921883794
 30
0.0
 40
3.5
  0
LINE
  5
11F5
330
1F
100
AcDbEntity
  8
12
100
AcDbLine
 10
70.1008176138206
 20
140.6685440727068
 30
0.0
 11
70.1008176138206
 21
126.9976403040521
 31
0.0
  0
CIRCLE
  5
11F7
330
1F
100
AcDbEntity
  8
10
100
AcDbCircle
 10
70.1008176138206
 20
133.8330921883794
 30
0.0
 40
1.999999999999999
  0
LINE
  5
11F8
330
1F
100
AcDbEntity
  8
12
100
AcDbLine
 10
65.30681761382061
 20
133.8330921883794
 30
0.0
 11
74.89481761382061
 21
133.8330921883794
 31
0.0
  0
LINE
  5
11F9
330
1F
100
AcDbEntity
  8
12
100
AcDbLine
 10
70.1008176138206
 20
138.6270921883794
 30
0.0
 11
70.1008176138206
 21
129.0390921883794
 31
0.0
  0
CIRCLE
  5
11FA
330
1F
100
AcDbEntity
  8
10
100
AcDbCircle
 10
70.1008176138206
 20
133.8330921883794
 30
0.0
 40
4.5
  0
LINE
  5
11FB
330
1F
100
AcDbEntity
  8
12
100
AcDbLine
 10
62.80681761382061
 20
133.8330921883794
 30
0.0
 11
77.39481761382061
 21
133.8330921883794
 31
0.0
  0
LINE
  5
11FC
330
1F
100
AcDbEntity
  8
12
100
AcDbLine
 10
70.1008176138206
 20
141.1270921883795
 30
0.0
 11
70.1008176138206
 21
126.5390921883795
 31
0.0
  0
LINE
  5
11FD
330
1F
100
AcDbEntity
  8
12
100
AcDbLine
 10
113.265365729504
 20
133.8330921883795
 30
0.0
 11
126.9362694981587
 21
133.8330921883795
 31
0.0
  0
LINE
  5
11FE
330
1F
100
AcDbEntity
  8
10
100
AcDbLine
 10
116.6008176138313
 20
131.8123662462158
 30
0.0
 11
120.1008176138313
 21
129.7916403040521
 31
0.0
  0
LINE
  5
11FF
330
1F
100
AcDbEntity
  8
10
100
AcDbLine
 10
120.1008176138313
 20
129.7916403040521
 30
0.0
 11
123.6008176138313
 21
131.8123662462156
 31
0.0
  0
LINE
  5
1200
330
1F
100
AcDbEntity
  8
10
100
AcDbLine
 10
123.6008176138313
 20
131.8123662462156
 30
0.0
 11
123.6008176138313
 21
135.8538181305431
 31
0.0
  0
LINE
  5
1201
330
1F
100
AcDbEntity
  8
10
100
AcDbLine
 10
123.6008176138313
 20
135.8538181305431
 30
0.0
 11
120.1008176138314
 21
137.8745440727068
 31
0.0
  0
LINE
  5
1202
330
1F
100
AcDbEntity
  8
10
100
AcDbLine
 10
120.1008176138314
 20
137.8745440727068
 30
0.0
 11
116.6008176138313
 21
135.8538181305432
 31
0.0
  0
LINE
  5
1203
330
1F
100
AcDbEntity
  8
10
100
AcDbLine
 10
116.6008176138313
 20
135.8538181305432
 30
0.0
 11
116.6008176138313
 21
131.8123662462158
 31
0.0
  0
CIRCLE
  5
1204
330
1F
100
AcDbEntity
  8
10
100
AcDbCircle
 10
120.1008176138313
 20
133.8330921883795
 30
0.0
 40
3.5
  0
LINE
  5
1205
330
1F
100
AcDbEntity
  8
12
100
AcDbLine
 10
120.1008176138313
 20
140.6685440727068
 30
0.0
 11
120.1008176138313
 21
126.9976403040521
 31
0.0
  0
CIRCLE
  5
1207
330
1F
100
AcDbEntity
  8
10
100
AcDbCircle
 10
120.1008176138313
 20
133.8330921883795
 30
0.0
 40
1.999999999999999
  0
LINE
  5
1208
330
1F
100
AcDbEntity
  8
12
100
AcDbLine
 10
115.3068176138313
 20
133.8330921883795
 30
0.0
 11
124.8948176138313
 21
133.8330921883795
 31
0.0
  0
LINE
  5
1209
330
1F
100
AcDbEntity
  8
12
100
AcDbLine
 10
120.1008176138313
 20
138.6270921883794
 30
0.0
 11
120.1008176138313
 21
129.0390921883794
 31
0.0
  0
CIRCLE
  5
120A
330
1F
100
AcDbEntity
  8
10
100
AcDbCircle
 10
120.1008176138313
 20
133.8330921883795
 30
0.0
 40
4.5
  0
LINE
  5
120B
330
1F
100
AcDbEntity
  8
12
100
AcDbLine
 10
112.8068176138313
 20
133.8330921883795
 30
0.0
 11
127.3948176138313
 21
133.8330921883795
 31
0.0
  0
LINE
  5
120C
330
1F
100
AcDbEntity
  8
12
100
AcDbLine
 10
120.1008176138313
 20
141.1270921883795
 30
0.0
 11
120.1008176138313
 21
126.5390921883795
 31
0.0
  0
LINE
  5
120D
330
1F
100
AcDbEntity
  8
10
100
AcDbLine
 10
46.10081761382061
 20
120.8330921883789
 30
0.0
 11
46.10081761382061
 21
55.833092188379
 31
0.0
  0
LINE
  5
120E
330
1F
100
AcDbEntity
  8
10
100
AcDbLine
 10
94.10081761382061
 20
54.33309218837901
 30
0.0
 11
46.10081761382061
 21
54.33309218837901
 31
0.0
1001
GENIUS_GENREC_14
1002
{
1000
PYDIR
1011
94.10081761382061
1021
55.833092188379
1031
0.0
1002
}
1002
{
1000
PXDIR
1011
46.10081761382061
1021
54.33309218837901
1031
0.0
1002
}
1002
{
1000
PORI
1011
94.10081761382061
1021
54.33309218837901
1031
0.0
1002
}
1002
{
1000
PINS
1011
94.10081761382061
1021
54.33309218837901
1031
0.0
1002
}
1002
{
1000
PINS2
1011
46.10081761382061
1021
55.833092188379
1031
0.0
1002
}
1002
{
1000
C
1070
     1
1002
}
1001
GENIUS_GENODEF_13
1002
{
1000
HIER
1070
     0
1002
}
1002
{
1000
MANEDIT
1070
     0
1002
}
1002
{
1000
NOSEL
1070
     0
1002
}
1002
{
1000
BEHIND
1070
     0
1002
}
1002
{
1000
REACTOR
1002
}
1001
GENIUS_GENOBJ-N-REC_13
1002
{
1000
OWNER
1000
GEN
1002
}
  0
LINE
  5
120F
330
1F
100
AcDbEntity
  8
10
100
AcDbLine
 10
46.10081761382061
 20
54.33309218837901
 30
0.0
 11
46.10081761382061
 21
55.833092188379
 31
0.0
1001
GENIUS_GENREC_14
1002
{
1000
PYDIR
1011
94.10081761382061
1021
55.833092188379
1031
0.0
1002
}
1002
{
1000
PXDIR
1011
46.10081761382061
1021
54.33309218837901
1031
0.0
1002
}
1002
{
1000
PORI
1011
94.10081761382061
1021
54.33309218837901
1031
0.0
1002
}
1002
{
1000
PINS
1011
94.10081761382061
1021
54.33309218837901
1031
0.0
1002
}
1002
{
1000
PINS2
1011
46.10081761382061
1021
55.833092188379
1031
0.0
1002
}
1002
{
1000
C
1070
     1
1002
}
1001
GENIUS_GENODEF_13
1002
{
1000
HIER
1070
     0
1002
}
1002
{
1000
MANEDIT
1070
     0
1002
}
1002
{
1000
NOSEL
1070
     0
1002
}
1002
{
1000
BEHIND
1070
     0
1002
}
1002
{
1000
REACTOR
1002
}
1001
GENIUS_GENOBJ-N-REC_13
1002
{
1000
OWNER
1000
GEN
1002
}
  0
LINE
  5
1210
330
1F
100
AcDbEntity
  8
10
100
AcDbLine
 10
46.10081761382061
 20
55.833092188379
 30
0.0
 11
94.10081761382061
 21
55.833092188379
 31
0.0
1001
GENIUS_GENREC_14
1002
{
1000
PYDIR
1011
94.10081761382061
1021
55.833092188379
1031
0.0
1002
}
1002
{
1000
PXDIR
1011
46.10081761382061
1021
54.33309218837901
1031
0.0
1002
}
1002
{
1000
PORI
1011
94.10081761382061
1021
54.33309218837901
1031
0.0
1002
}
1002
{
1000
PINS
1011
94.10081761382061
1021
54.33309218837901
1031
0.0
1002
}
1002
{
1000
PINS2
1011
46.10081761382061
1021
55.833092188379
1031
0.0
1002
}
1002
{
1000
C
1070
     1
1002
}
1001
GENIUS_GENODEF_13
1002
{
1000
HIER
1070
     0
1002
}
1002
{
1000
MANEDIT
1070
     0
1002
}
1002
{
1000
NOSEL
1070
     0
1002
}
1002
{
1000
BEHIND
1070
     0
1002
}
1002
{
1000
REACTOR
1002
}
1001
GENIUS_GENOBJ-N-REC_13
1002
{
1000
OWNER
1000
GEN
1002
}
  0
LINE
  5
1211
330
1F
100
AcDbEntity
  8
10
100
AcDbLine
 10
94.10081761382061
 20
55.833092188379
 30
0.0
 11
94.10081761382061
 21
54.33309218837901
 31
0.0
1001
GENIUS_GENREC_14
1002
{
1000
PYDIR
1011
94.10081761382061
1021
55.833092188379
1031
0.0
1002
}
1002
{
1000
PXDIR
1011
46.10081761382061
1021
54.33309218837901
1031
0.0
1002
}
1002
{
1000
PORI
1011
94.10081761382061
1021
54.33309218837901
1031
0.0
1002
}
1002
{
1000
PINS
1011
94.10081761382061
1021
54.33309218837901
1031
0.0
1002
}
1002
{
1000
PINS2
1011
46.10081761382061
1021
55.833092188379
1031
0.0
1002
}
1002
{
1000
C
1070
     1
1002
}
1001
GENIUS_GENODEF_13
1002
{
1000
HIER
1070
     0
1002
}
1002
{
1000
MANEDIT
1070
     0
1002
}
1002
{
1000
NOSEL
1070
     0
1002
}
1002
{
1000
BEHIND
1070
     0
1002
}
1002
{
1000
REACTOR
1002
}
1001
GENIUS_GENOBJ-N-REC_13
1002
{
1000
OWNER
1000
GEN
1002
}
  0
LINE
  5
1212
330
1F
100
AcDbEntity
  8
10
100
AcDbLine
 10
94.10081761382061
 20
120.8330921883789
 30
0.0
 11
46.10081761382061
 21
120.8330921883789
 31
0.0
1001
GENIUS_GENREC_14
1002
{
1000
PYDIR
1011
94.10081761382061
1021
122.3330921883789
1031
0.0
1002
}
1002
{
1000
PXDIR
1011
46.10081761382061
1021
120.8330921883789
1031
0.0
1002
}
1002
{
1000
PORI
1011
94.10081761382061
1021
120.8330921883789
1031
0.0
1002
}
1002
{
1000
PINS
1011
94.10081761382061
1021
120.8330921883789
1031
0.0
1002
}
1002
{
1000
PINS2
1011
46.10081761382061
1021
122.3330921883789
1031
0.0
1002
}
1002
{
1000
C
1070
     1
1002
}
1001
GENIUS_GENODEF_13
1002
{
1000
HIER
1070
     0
1002
}
1002
{
1000
MANEDIT
1070
     0
1002
}
1002
{
1000
NOSEL
1070
     0
1002
}
1002
{
1000
BEHIND
1070
     0
1002
}
1002
{
1000
REACTOR
1002
}
1001
GENIUS_GENOBJ-N-REC_13
1002
{
1000
OWNER
1000
GEN
1002
}
  0
LINE
  5
1213
330
1F
100
AcDbEntity
  8
10
100
AcDbLine
 10
46.10081761382061
 20
120.8330921883789
 30
0.0
 11
46.10081761382061
 21
122.3330921883789
 31
0.0
1001
GENIUS_GENREC_14
1002
{
1000
PYDIR
1011
94.10081761382061
1021
122.3330921883789
1031
0.0
1002
}
1002
{
1000
PXDIR
1011
46.10081761382061
1021
120.8330921883789
1031
0.0
1002
}
1002
{
1000
PORI
1011
94.10081761382061
1021
120.8330921883789
1031
0.0
1002
}
1002
{
1000
PINS
1011
94.10081761382061
1021
120.8330921883789
1031
0.0
1002
}
1002
{
1000
PINS2
1011
46.10081761382061
1021
122.3330921883789
1031
0.0
1002
}
1002
{
1000
C
1070
     1
1002
}
1001
GENIUS_GENODEF_13
1002
{
1000
HIER
1070
     0
1002
}
1002
{
1000
MANEDIT
1070
     0
1002
}
1002
{
1000
NOSEL
1070
     0
1002
}
1002
{
1000
BEHIND
1070
     0
1002
}
1002
{
1000
REACTOR
1002
}
1001
GENIUS_GENOBJ-N-REC_13
1002
{
1000
OWNER
1000
GEN
1002
}
  0
LINE
  5
1214
330
1F
100
AcDbEntity
  8
10
100
AcDbLine
 10
46.10081761382061
 20
122.3330921883789
 30
0.0
 11
94.10081761382061
 21
122.3330921883789
 31
0.0
1001
GENIUS_GENREC_14
1002
{
1000
PYDIR
1011
94.10081761382061
1021
122.3330921883789
1031
0.0
1002
}
1002
{
1000
PXDIR
1011
46.10081761382061
1021
120.8330921883789
1031
0.0
1002
}
1002
{
1000
PORI
1011
94.10081761382061
1021
120.8330921883789
1031
0.0
1002
}
1002
{
1000
PINS
1011
94.10081761382061
1021
120.8330921883789
1031
0.0
1002
}
1002
{
1000
PINS2
1011
46.10081761382061
1021
122.3330921883789
1031
0.0
1002
}
1002
{
1000
C
1070
     1
1002
}
1001
GENIUS_GENODEF_13
1002
{
1000
HIER
1070
     0
1002
}
1002
{
1000
MANEDIT
1070
     0
1002
}
1002
{
1000
NOSEL
1070
     0
1002
}
1002
{
1000
BEHIND
1070
     0
1002
}
1002
{
1000
REACTOR
1002
}
1001
GENIUS_GENOBJ-N-REC_13
1002
{
1000
OWNER
1000
GEN
1002
}
  0
LINE
  5
1215
330
1F
100
AcDbEntity
  8
10
100
AcDbLine
 10
94.10081761382061
 20
122.3330921883789
 30
0.0
 11
94.10081761382061
 21
120.8330921883789
 31
0.0
1001
GENIUS_GENREC_14
1002
{
1000
PYDIR
1011
94.10081761382061
1021
122.3330921883789
1031
0.0
1002
}
1002
{
1000
PXDIR
1011
46.10081761382061
1021
120.8330921883789
1031
0.0
1002
}
1002
{
1000
PORI
1011
94.10081761382061
1021
120.8330921883789
1031
0.0
1002
}
1002
{
1000
PINS
1011
94.10081761382061
1021
120.8330921883789
1031
0.0
1002
}
1002
{
1000
PINS2
1011
46.10081761382061
1021
122.3330921883789
1031
0.0
1002
}
1002
{
1000
C
1070
     1
1002
}
1001
GENIUS_GENODEF_13
1002
{
1000
HIER
1070
     0
1002
}
1002
{
1000
MANEDIT
1070
     0
1002
}
1002
{
1000
NOSEL
1070
     0
1002
}
1002
{
1000
BEHIND
1070
     0
1002
}
1002
{
1000
REACTOR
1002
}
1001
GENIUS_GENOBJ-N-REC_13
1002
{
1000
OWNER
1000
GEN
1002
}
  0
LINE
  5
1216
330
1F
100
AcDbEntity
  8
10
100
AcDbLine
 10
94.10081761382061
 20
120.8330921883789
 30
0.0
 11
94.10081761382061
 21
55.83309218837901
 31
0.0
  0
LINE
  5
1217
330
1F
100
AcDbEntity
  8
10
100
AcDbLine
 10
96.10081761383806
 20
120.8330921883789
 30
0.0
 11
96.10081761383806
 21
55.833092188379
 31
0.0
  0
LINE
  5
1218
330
1F
100
AcDbEntity
  8
10
100
AcDbLine
 10
144.100817613838
 20
54.333092188379
 30
0.0
 11
96.10081761383806
 21
54.333092188379
 31
0.0
1001
GENIUS_GENREC_14
1002
{
1000
PYDIR
1011
144.100817613838
1021
55.833092188379
1031
0.0
1002
}
1002
{
1000
PXDIR
1011
96.10081761383806
1021
54.333092188379
1031
0.0
1002
}
1002
{
1000
PORI
1011
144.100817613838
1021
54.333092188379
1031
0.0
1002
}
1002
{
1000
PINS
1011
144.100817613838
1021
54.333092188379
1031
0.0
1002
}
1002
{
1000
PINS2
1011
96.10081761383806
1021
55.833092188379
1031
0.0
1002
}
1002
{
1000
C
1070
     1
1002
}
1001
GENIUS_GENODEF_13
1002
{
1000
HIER
1070
     0
1002
}
1002
{
1000
MANEDIT
1070
     0
1002
}
1002
{
1000
NOSEL
1070
     0
1002
}
1002
{
1000
BEHIND
1070
     0
1002
}
1002
{
1000
REACTOR
1002
}
1001
GENIUS_GENOBJ-N-REC_13
1002
{
1000
OWNER
1000
GEN
1002
}
  0
LINE
  5
1219
330
1F
100
AcDbEntity
  8
10
100
AcDbLine
 10
96.10081761383806
 20
54.333092188379
 30
0.0
 11
96.10081761383806
 21
55.833092188379
 31
0.0
1001
GENIUS_GENREC_14
1002
{
1000
PYDIR
1011
144.100817613838
1021
55.833092188379
1031
0.0
1002
}
1002
{
1000
PXDIR
1011
96.10081761383806
1021
54.333092188379
1031
0.0
1002
}
1002
{
1000
PORI
1011
144.100817613838
1021
54.333092188379
1031
0.0
1002
}
1002
{
1000
PINS
1011
144.100817613838
1021
54.333092188379
1031
0.0
1002
}
1002
{
1000
PINS2
1011
96.10081761383806
1021
55.833092188379
1031
0.0
1002
}
1002
{
1000
C
1070
     1
1002
}
1001
GENIUS_GENODEF_13
1002
{
1000
HIER
1070
     0
1002
}
1002
{
1000
MANEDIT
1070
     0
1002
}
1002
{
1000
NOSEL
1070
     0
1002
}
1002
{
1000
BEHIND
1070
     0
1002
}
1002
{
1000
REACTOR
1002
}
1001
GENIUS_GENOBJ-N-REC_13
1002
{
1000
OWNER
1000
GEN
1002
}
  0
LINE
  5
121A
330
1F
100
AcDbEntity
  8
10
100
AcDbLine
 10
96.10081761383806
 20
55.833092188379
 30
0.0
 11
144.100817613838
 21
55.83309218837898
 31
0.0
1001
GENIUS_GENREC_14
1002
{
1000
PYDIR
1011
144.100817613838
1021
55.833092188379
1031
0.0
1002
}
1002
{
1000
PXDIR
1011
96.10081761383806
1021
54.333092188379
1031
0.0
1002
}
1002
{
1000
PORI
1011
144.100817613838
1021
54.333092188379
1031
0.0
1002
}
1002
{
1000
PINS
1011
144.100817613838
1021
54.333092188379
1031
0.0
1002
}
1002
{
1000
PINS2
1011
96.10081761383806
1021
55.833092188379
1031
0.0
1002
}
1002
{
1000
C
1070
     1
1002
}
1001
GENIUS_GENODEF_13
1002
{
1000
HIER
1070
     0
1002
}
1002
{
1000
MANEDIT
1070
     0
1002
}
1002
{
1000
NOSEL
1070
     0
1002
}
1002
{
1000
BEHIND
1070
     0
1002
}
1002
{
1000
REACTOR
1002
}
1001
GENIUS_GENOBJ-N-REC_13
1002
{
1000
OWNER
1000
GEN
1002
}
  0
LINE
  5
121B
330
1F
100
AcDbEntity
  8
10
100
AcDbLine
 10
144.100817613838
 20
55.83309218837898
 30
0.0
 11
144.100817613838
 21
54.333092188379
 31
0.0
1001
GENIUS_GENREC_14
1002
{
1000
PYDIR
1011
144.100817613838
1021
55.833092188379
1031
0.0
1002
}
1002
{
1000
PXDIR
1011
96.10081761383806
1021
54.333092188379
1031
0.0
1002
}
1002
{
1000
PORI
1011
144.100817613838
1021
54.333092188379
1031
0.0
1002
}
1002
{
1000
PINS
1011
144.100817613838
1021
54.333092188379
1031
0.0
1002
}
1002
{
1000
PINS2
1011
96.10081761383806
1021
55.833092188379
1031
0.0
1002
}
1002
{
1000
C
1070
     1
1002
}
1001
GENIUS_GENODEF_13
1002
{
1000
HIER
1070
     0
1002
}
1002
{
1000
MANEDIT
1070
     0
1002
}
1002
{
1000
NOSEL
1070
     0
1002
}
1002
{
1000
BEHIND
1070
     0
1002
}
1002
{
1000
REACTOR
1002
}
1001
GENIUS_GENOBJ-N-REC_13
1002
{
1000
OWNER
1000
GEN
1002
}
  0
LINE
  5
121C
330
1F
100
AcDbEntity
  8
10
100
AcDbLine
 10
144.100817613838
 20
120.8330921883789
 30
0.0
 11
96.10081761383806
 21
120.8330921883789
 31
0.0
1001
GENIUS_GENREC_14
1002
{
1000
PYDIR
1011
144.100817613838
1021
122.3330921883789
1031
0.0
1002
}
1002
{
1000
PXDIR
1011
96.10081761383806
1021
120.8330921883789
1031
0.0
1002
}
1002
{
1000
PORI
1011
144.100817613838
1021
120.8330921883789
1031
0.0
1002
}
1002
{
1000
PINS
1011
144.100817613838
1021
120.8330921883789
1031
0.0
1002
}
1002
{
1000
PINS2
1011
96.10081761383806
1021
122.3330921883789
1031
0.0
1002
}
1002
{
1000
C
1070
     1
1002
}
1001
GENIUS_GENODEF_13
1002
{
1000
HIER
1070
     0
1002
}
1002
{
1000
MANEDIT
1070
     0
1002
}
1002
{
1000
NOSEL
1070
     0
1002
}
1002
{
1000
BEHIND
1070
     0
1002
}
1002
{
1000
REACTOR
1002
}
1001
GENIUS_GENOBJ-N-REC_13
1002
{
1000
OWNER
1000
GEN
1002
}
  0
LINE
  5
121D
330
1F
100
AcDbEntity
  8
10
100
AcDbLine
 10
96.10081761383806
 20
120.8330921883789
 30
0.0
 11
96.10081761383806
 21
122.3330921883789
 31
0.0
1001
GENIUS_GENREC_14
1002
{
1000
PYDIR
1011
144.100817613838
1021
122.3330921883789
1031
0.0
1002
}
1002
{
1000
PXDIR
1011
96.10081761383806
1021
120.8330921883789
1031
0.0
1002
}
1002
{
1000
PORI
1011
144.100817613838
1021
120.8330921883789
1031
0.0
1002
}
1002
{
1000
PINS
1011
144.100817613838
1021
120.8330921883789
1031
0.0
1002
}
1002
{
1000
PINS2
1011
96.10081761383806
1021
122.3330921883789
1031
0.0
1002
}
1002
{
1000
C
1070
     1
1002
}
1001
GENIUS_GENODEF_13
1002
{
1000
HIER
1070
     0
1002
}
1002
{
1000
MANEDIT
1070
     0
1002
}
1002
{
1000
NOSEL
1070
     0
1002
}
1002
{
1000
BEHIND
1070
     0
1002
}
1002
{
1000
REACTOR
1002
}
1001
GENIUS_GENOBJ-N-REC_13
1002
{
1000
OWNER
1000
GEN
1002
}
  0
LINE
  5
121E
330
1F
100
AcDbEntity
  8
10
100
AcDbLine
 10
96.10081761383806
 20
122.3330921883789
 30
0.0
 11
144.100817613838
 21
122.3330921883789
 31
0.0
1001
GENIUS_GENREC_14
1002
{
1000
PYDIR
1011
144.100817613838
1021
122.3330921883789
1031
0.0
1002
}
1002
{
1000
PXDIR
1011
96.10081761383806
1021
120.8330921883789
1031
0.0
1002
}
1002
{
1000
PORI
1011
144.100817613838
1021
120.8330921883789
1031
0.0
1002
}
1002
{
1000
PINS
1011
144.100817613838
1021
120.8330921883789
1031
0.0
1002
}
1002
{
1000
PINS2
1011
96.10081761383806
1021
122.3330921883789
1031
0.0
1002
}
1002
{
1000
C
1070
     1
1002
}
1001
GENIUS_GENODEF_13
1002
{
1000
HIER
1070
     0
1002
}
1002
{
1000
MANEDIT
1070
     0
1002
}
1002
{
1000
NOSEL
1070
     0
1002
}
1002
{
1000
BEHIND
1070
     0
1002
}
1002
{
1000
REACTOR
1002
}
1001
GENIUS_GENOBJ-N-REC_13
1002
{
1000
OWNER
1000
GEN
1002
}
  0
LINE
  5
121F
330
1F
100
AcDbEntity
  8
10
100
AcDbLine
 10
144.100817613838
 20
122.3330921883789
 30
0.0
 11
144.100817613838
 21
120.8330921883789
 31
0.0
1001
GENIUS_GENREC_14
1002
{
1000
PYDIR
1011
144.100817613838
1021
122.3330921883789
1031
0.0
1002
}
1002
{
1000
PXDIR
1011
96.10081761383806
1021
120.8330921883789
1031
0.0
1002
}
1002
{
1000
PORI
1011
144.100817613838
1021
120.8330921883789
1031
0.0
1002
}
1002
{
1000
PINS
1011
144.100817613838
1021
120.8330921883789
1031
0.0
1002
}
1002
{
1000
PINS2
1011
96.10081761383806
1021
122.3330921883789
1031
0.0
1002
}
1002
{
1000
C
1070
     1
1002
}
1001
GENIUS_GENODEF_13
1002
{
1000
HIER
1070
     0
1002
}
1002
{
1000
MANEDIT
1070
     0
1002
}
1002
{
1000
NOSEL
1070
     0
1002
}
1002
{
1000
BEHIND
1070
     0
1002
}
1002
{
1000
REACTOR
1002
}
1001
GENIUS_GENOBJ-N-REC_13
1002
{
1000
OWNER
1000
GEN
1002
}
  0
LINE
  5
1220
330
1F
100
AcDbEntity
  8
10
100
AcDbLine
 10
144.100817613838
 20
120.8330921883789
 30
0.0
 11
144.100817613838
 21
55.833092188379
 31
0.0
  0
LINE
  5
1221
330
1F
100
AcDbEntity
  8
10
100
AcDbLine
 10
194.1008176138434
 20
120.8330921883792
 30
0.0
 11
146.1008176138434
 21
120.8330921883792
 31
0.0
1001
GENIUS_GENREC_14
1002
{
1000
PYDIR
1011
194.1008176138434
1021
122.3330921883792
1031
0.0
1002
}
1002
{
1000
PXDIR
1011
146.1008176138434
1021
120.8330921883792
1031
0.0
1002
}
1002
{
1000
PORI
1011
194.1008176138434
1021
120.8330921883792
1031
0.0
1002
}
1002
{
1000
PINS
1011
194.1008176138434
1021
120.8330921883792
1031
0.0
1002
}
1002
{
1000
PINS2
1011
146.1008176138434
1021
122.3330921883792
1031
0.0
1002
}
1002
{
1000
C
1070
     1
1002
}
1001
GENIUS_GENODEF_13
1002
{
1000
HIER
1070
     0
1002
}
1002
{
1000
MANEDIT
1070
     0
1002
}
1002
{
1000
NOSEL
1070
     0
1002
}
1002
{
1000
BEHIND
1070
     0
1002
}
1002
{
1000
REACTOR
1002
}
1001
GENIUS_GENOBJ-N-REC_13
1002
{
1000
OWNER
1000
GEN
1002
}
  0
LINE
  5
1222
330
1F
100
AcDbEntity
  8
10
100
AcDbLine
 10
146.1008176138434
 20
120.8330921883792
 30
0.0
 11
146.1008176138434
 21
122.3330921883792
 31
0.0
1001
GENIUS_GENREC_14
1002
{
1000
PYDIR
1011
194.1008176138434
1021
122.3330921883792
1031
0.0
1002
}
1002
{
1000
PXDIR
1011
146.1008176138434
1021
120.8330921883792
1031
0.0
1002
}
1002
{
1000
PORI
1011
194.1008176138434
1021
120.8330921883792
1031
0.0
1002
}
1002
{
1000
PINS
1011
194.1008176138434
1021
120.8330921883792
1031
0.0
1002
}
1002
{
1000
PINS2
1011
146.1008176138434
1021
122.3330921883792
1031
0.0
1002
}
1002
{
1000
C
1070
     1
1002
}
1001
GENIUS_GENODEF_13
1002
{
1000
HIER
1070
     0
1002
}
1002
{
1000
MANEDIT
1070
     0
1002
}
1002
{
1000
NOSEL
1070
     0
1002
}
1002
{
1000
BEHIND
1070
     0
1002
}
1002
{
1000
REACTOR
1002
}
1001
GENIUS_GENOBJ-N-REC_13
1002
{
1000
OWNER
1000
GEN
1002
}
  0
LINE
  5
1223
330
1F
100
AcDbEntity
  8
10
100
AcDbLine
 10
146.1008176138434
 20
122.3330921883792
 30
0.0
 11
194.1008176138434
 21
122.3330921883792
 31
0.0
1001
GENIUS_GENREC_14
1002
{
1000
PYDIR
1011
194.1008176138434
1021
122.3330921883792
1031
0.0
1002
}
1002
{
1000
PXDIR
1011
146.1008176138434
1021
120.8330921883792
1031
0.0
1002
}
1002
{
1000
PORI
1011
194.1008176138434
1021
120.8330921883792
1031
0.0
1002
}
1002
{
1000
PINS
1011
194.1008176138434
1021
120.8330921883792
1031
0.0
1002
}
1002
{
1000
PINS2
1011
146.1008176138434
1021
122.3330921883792
1031
0.0
1002
}
1002
{
1000
C
1070
     1
1002
}
1001
GENIUS_GENODEF_13
1002
{
1000
HIER
1070
     0
1002
}
1002
{
1000
MANEDIT
1070
     0
1002
}
1002
{
1000
NOSEL
1070
     0
1002
}
1002
{
1000
BEHIND
1070
     0
1002
}
1002
{
1000
REACTOR
1002
}
1001
GENIUS_GENOBJ-N-REC_13
1002
{
1000
OWNER
1000
GEN
1002
}
  0
LINE
  5
1224
330
1F
100
AcDbEntity
  8
10
100
AcDbLine
 10
194.1008176138434
 20
122.3330921883792
 30
0.0
 11
194.1008176138434
 21
120.8330921883792
 31
0.0
1001
GENIUS_GENREC_14
1002
{
1000
PYDIR
1011
194.1008176138434
1021
122.3330921883792
1031
0.0
1002
}
1002
{
1000
PXDIR
1011
146.1008176138434
1021
120.8330921883792
1031
0.0
1002
}
1002
{
1000
PORI
1011
194.1008176138434
1021
120.8330921883792
1031
0.0
1002
}
1002
{
1000
PINS
1011
194.1008176138434
1021
120.8330921883792
1031
0.0
1002
}
1002
{
1000
PINS2
1011
146.1008176138434
1021
122.3330921883792
1031
0.0
1002
}
1002
{
1000
C
1070
     1
1002
}
1001
GENIUS_GENODEF_13
1002
{
1000
HIER
1070
     0
1002
}
1002
{
1000
MANEDIT
1070
     0
1002
}
1002
{
1000
NOSEL
1070
     0
1002
}
1002
{
1000
BEHIND
1070
     0
1002
}
1002
{
1000
REACTOR
1002
}
1001
GENIUS_GENOBJ-N-REC_13
1002
{
1000
OWNER
1000
GEN
1002
}
  0
LINE
  5
1225
330
1F
100
AcDbEntity
  8
10
100
AcDbLine
 10
194.1008176138434
 20
54.33309218837928
 30
0.0
 11
146.1008176138434
 21
54.33309218837928
 31
0.0
1001
GENIUS_GENREC_14
1002
{
1000
PYDIR
1011
194.1008176138434
1021
55.83309218837928
1031
0.0
1002
}
1002
{
1000
PXDIR
1011
146.1008176138434
1021
54.33309218837928
1031
0.0
1002
}
1002
{
1000
PORI
1011
194.1008176138434
1021
54.33309218837928
1031
0.0
1002
}
1002
{
1000
PINS
1011
194.1008176138434
1021
54.33309218837928
1031
0.0
1002
}
1002
{
1000
PINS2
1011
146.1008176138434
1021
55.83309218837928
1031
0.0
1002
}
1002
{
1000
C
1070
     1
1002
}
1001
GENIUS_GENODEF_13
1002
{
1000
HIER
1070
     0
1002
}
1002
{
1000
MANEDIT
1070
     0
1002
}
1002
{
1000
NOSEL
1070
     0
1002
}
1002
{
1000
BEHIND
1070
     0
1002
}
1002
{
1000
REACTOR
1002
}
1001
GENIUS_GENOBJ-N-REC_13
1002
{
1000
OWNER
1000
GEN
1002
}
  0
LINE
  5
1226
330
1F
100
AcDbEntity
  8
10
100
AcDbLine
 10
146.1008176138434
 20
54.33309218837928
 30
0.0
 11
146.1008176138434
 21
55.83309218837928
 31
0.0
1001
GENIUS_GENREC_14
1002
{
1000
PYDIR
1011
194.1008176138434
1021
55.83309218837928
1031
0.0
1002
}
1002
{
1000
PXDIR
1011
146.1008176138434
1021
54.33309218837928
1031
0.0
1002
}
1002
{
1000
PORI
1011
194.1008176138434
1021
54.33309218837928
1031
0.0
1002
}
1002
{
1000
PINS
1011
194.1008176138434
1021
54.33309218837928
1031
0.0
1002
}
1002
{
1000
PINS2
1011
146.1008176138434
1021
55.83309218837928
1031
0.0
1002
}
1002
{
1000
C
1070
     1
1002
}
1001
GENIUS_GENODEF_13
1002
{
1000
HIER
1070
     0
1002
}
1002
{
1000
MANEDIT
1070
     0
1002
}
1002
{
1000
NOSEL
1070
     0
1002
}
1002
{
1000
BEHIND
1070
     0
1002
}
1002
{
1000
REACTOR
1002
}
1001
GENIUS_GENOBJ-N-REC_13
1002
{
1000
OWNER
1000
GEN
1002
}
  0
LINE
  5
1227
330
1F
100
AcDbEntity
  8
10
100
AcDbLine
 10
146.1008176138434
 20
55.83309218837928
 30
0.0
 11
194.1008176138434
 21
55.83309218837926
 31
0.0
1001
GENIUS_GENREC_14
1002
{
1000
PYDIR
1011
194.1008176138434
1021
55.83309218837928
1031
0.0
1002
}
1002
{
1000
PXDIR
1011
146.1008176138434
1021
54.33309218837928
1031
0.0
1002
}
1002
{
1000
PORI
1011
194.1008176138434
1021
54.33309218837928
1031
0.0
1002
}
1002
{
1000
PINS
1011
194.1008176138434
1021
54.33309218837928
1031
0.0
1002
}
1002
{
1000
PINS2
1011
146.1008176138434
1021
55.83309218837928
1031
0.0
1002
}
1002
{
1000
C
1070
     1
1002
}
1001
GENIUS_GENODEF_13
1002
{
1000
HIER
1070
     0
1002
}
1002
{
1000
MANEDIT
1070
     0
1002
}
1002
{
1000
NOSEL
1070
     0
1002
}
1002
{
1000
BEHIND
1070
     0
1002
}
1002
{
1000
REACTOR
1002
}
1001
GENIUS_GENOBJ-N-REC_13
1002
{
1000
OWNER
1000
GEN
1002
}
  0
LINE
  5
1228
330
1F
100
AcDbEntity
  8
10
100
AcDbLine
 10
194.1008176138434
 20
55.83309218837926
 30
0.0
 11
194.1008176138434
 21
54.33309218837928
 31
0.0
1001
GENIUS_GENREC_14
1002
{
1000
PYDIR
1011
194.1008176138434
1021
55.83309218837928
1031
0.0
1002
}
1002
{
1000
PXDIR
1011
146.1008176138434
1021
54.33309218837928
1031
0.0
1002
}
1002
{
1000
PORI
1011
194.1008176138434
1021
54.33309218837928
1031
0.0
1002
}
1002
{
1000
PINS
1011
194.1008176138434
1021
54.33309218837928
1031
0.0
1002
}
1002
{
1000
PINS2
1011
146.1008176138434
1021
55.83309218837928
1031
0.0
1002
}
1002
{
1000
C
1070
     1
1002
}
1001
GENIUS_GENODEF_13
1002
{
1000
HIER
1070
     0
1002
}
1002
{
1000
MANEDIT
1070
     0
1002
}
1002
{
1000
NOSEL
1070
     0
1002
}
1002
{
1000
BEHIND
1070
     0
1002
}
1002
{
1000
REACTOR
1002
}
1001
GENIUS_GENOBJ-N-REC_13
1002
{
1000
OWNER
1000
GEN
1002
}
  0
CIRCLE
  5
122A
330
1F
100
AcDbEntity
  8
10
100
AcDbCircle
 10
170.1008176138434
 20
133.8330921883794
 30
0.0
 40
1.999999999999999
  0
LINE
  5
122B
330
1F
100
AcDbEntity
  8
12
100
AcDbLine
 10
165.3068176138434
 20
133.8330921883794
 30
0.0
 11
174.8948176138434
 21
133.8330921883794
 31
0.0
  0
LINE
  5
122C
330
1F
100
AcDbEntity
  8
12
100
AcDbLine
 10
170.1008176138434
 20
138.6270921883794
 30
0.0
 11
170.1008176138434
 21
129.0390921883794
 31
0.0
  0
LINE
  5
122D
330
1F
100
AcDbEntity
  8
12
100
AcDbLine
 10
163.265365729516
 20
133.8330921883794
 30
0.0
 11
176.9362694981707
 21
133.8330921883794
 31
0.0
  0
LINE
  5
122E
330
1F
100
AcDbEntity
  8
10
100
AcDbLine
 10
166.6008176138434
 20
131.8123662462157
 30
0.0
 11
170.1008176138434
 21
129.7916403040521
 31
0.0
  0
LINE
  5
122F
330
1F
100
AcDbEntity
  8
10
100
AcDbLine
 10
170.1008176138434
 20
129.7916403040521
 30
0.0
 11
173.6008176138434
 21
131.8123662462156
 31
0.0
  0
LINE
  5
1230
330
1F
100
AcDbEntity
  8
10
100
AcDbLine
 10
173.6008176138434
 20
131.8123662462156
 30
0.0
 11
173.6008176138434
 21
135.8538181305431
 31
0.0
  0
LINE
  5
1231
330
1F
100
AcDbEntity
  8
10
100
AcDbLine
 10
173.6008176138434
 20
135.8538181305431
 30
0.0
 11
170.1008176138434
 21
137.8745440727068
 31
0.0
  0
LINE
  5
1232
330
1F
100
AcDbEntity
  8
10
100
AcDbLine
 10
170.1008176138434
 20
137.8745440727068
 30
0.0
 11
166.6008176138434
 21
135.8538181305432
 31
0.0
  0
LINE
  5
1233
330
1F
100
AcDbEntity
  8
10
100
AcDbLine
 10
166.6008176138434
 20
135.8538181305432
 30
0.0
 11
166.6008176138434
 21
131.8123662462157
 31
0.0
  0
CIRCLE
  5
1234
330
1F
100
AcDbEntity
  8
10
100
AcDbCircle
 10
170.1008176138434
 20
133.8330921883794
 30
0.0
 40
3.5
  0
LINE
  5
1235
330
1F
100
AcDbEntity
  8
12
100
AcDbLine
 10
170.1008176138434
 20
140.6685440727068
 30
0.0
 11
170.1008176138434
 21
126.9976403040521
 31
0.0
  0
CIRCLE
  5
1236
330
1F
100
AcDbEntity
  8
10
100
AcDbCircle
 10
170.1008176138434
 20
133.8330921883794
 30
0.0
 40
4.5
  0
LINE
  5
1237
330
1F
100
AcDbEntity
  8
12
100
AcDbLine
 10
162.8068176138434
 20
133.8330921883794
 30
0.0
 11
177.3948176138434
 21
133.8330921883794
 31
0.0
  0
LINE
  5
1238
330
1F
100
AcDbEntity
  8
12
100
AcDbLine
 10
170.1008176138434
 20
141.1270921883795
 30
0.0
 11
170.1008176138434
 21
126.5390921883795
 31
0.0
  0
LINE
  5
1239
330
1F
100
AcDbEntity
  8
10
100
AcDbLine
 10
57.60081761380789
 20
125.8330921883794
 30
0.0
 11
57.60081761382419
 21
122.3330921883792
 31
0.0
  0
LINE
  5
123A
330
1F
100
AcDbEntity
  8
10
100
AcDbLine
 10
57.60081761380957
 20
54.33309218837928
 30
0.0
 11
57.60081761381901
 21
52.83309218837981
 31
0.0
  0
LINE
  5
123B
330
1F
100
AcDbEntity
  8
10
100
AcDbLine
 10
182.6008176138318
 20
52.83309218837891
 30
0.0
 11
182.6008176138318
 21
54.33309218837928
 31
0.0
  0
LINE
  5
123C
330
1F
100
AcDbEntity
  8
10
100
AcDbLine
 10
182.600817613843
 20
126.3330921883792
 30
0.0
 11
182.6008176138265
 21
122.3330921883792
 31
0.0
  0
LINE
  5
123D
330
1F
100
AcDbEntity
  8
10
100
AcDbLine
 10
45.10081761383457
 20
33.83309218837927
 30
0.0
 11
45.10081761383457
 21
31.83309218837861
 31
0.0
  0
LINE
  5
123E
330
1F
100
AcDbEntity
  8
12
100
AcDbLine
 10
47.60081761383457
 20
34.96522428629609
 30
0.0
 11
47.60081761383457
 21
30.63010341679874
 31
0.0
  0
LINE
  5
123F
330
1F
100
AcDbEntity
  8
10
100
AcDbLine
 10
57.60081761382419
 20
122.8330921883792
 30
0.0
 11
120.1008176138039
 21
122.8330921883792
 31
0.0
  0
LINE
  5
1240
330
1F
100
AcDbEntity
  8
10
100
AcDbLine
 10
120.1008176138417
 20
123.8330921883792
 30
0.0
 11
57.60081761381721
 21
123.8330921883792
 31
0.0
  0
LINE
  5
1241
330
1F
100
AcDbEntity
  8
10
100
AcDbLine
 10
120.1008176138014
 20
148.8330921883792
 30
0.0
 11
57.60081761383924
 21
148.8330921883792
 31
0.0
1001
GENIUS_GENOREF_13
1005
0
1005
0
  0
LINE
  5
1242
330
1F
100
AcDbEntity
  8
10
100
AcDbLine
 10
57.60081761383924
 20
148.8330921883792
 30
0.0
 11
57.60081761380789
 21
125.8330921883794
 31
0.0
1001
GENIUS_GENOREF_13
1005
0
1005
0
  0
LINE
  5
1243
330
1F
100
AcDbEntity
  8
10
100
AcDbLine
 10
57.60081761380789
 20
125.8330921883794
 30
0.0
 11
120.1008176138374
 21
125.8330921883794
 31
0.0
1001
GENIUS_GENOREF_13
1005
0
1005
0
  0
LINE
  5
1244
330
1F
100
AcDbEntity
  8
10
100
AcDbLine
 10
50.10081761383457
 20
33.83309218837927
 30
0.0
 11
50.10081761383457
 21
31.83309218837926
 31
0.0
  0
LINE
  5
1245
330
1F
100
AcDbEntity
  8
10
100
AcDbLine
 10
120.1008176138113
 20
52.83309218837927
 30
0.0
 11
57.60081761383158
 21
52.83309218837928
 31
0.0
  0
LINE
  5
1246
330
1F
100
AcDbEntity
  8
10
100
AcDbLine
 10
57.60081761381274
 20
53.83309218837927
 30
0.0
 11
120.1008176138334
 21
53.83309218837927
 31
0.0
  0
LINE
  5
1247
330
1F
100
AcDbEntity
  8
10
100
AcDbLine
 10
120.1008176138493
 20
33.83309218837928
 30
0.0
 11
40.10081761383458
 21
33.83309218837927
 31
0.0
  0
LINE
  5
1248
330
1F
100
AcDbEntity
  8
10
100
AcDbLine
 10
120.1008176138488
 20
52.83309218837927
 30
0.0
 11
40.10081761383424
 21
52.83309218837995
 31
0.0
  0
LINE
  5
1249
330
1F
100
AcDbEntity
  8
10
100
AcDbLine
 10
40.10081761383424
 20
52.83309218837995
 30
0.0
 11
40.10081761383458
 21
31.83309218837882
 31
0.0
  0
LINE
  5
124A
330
1F
100
AcDbEntity
  8
10
100
AcDbLine
 10
40.10081761383458
 20
31.83309218837882
 30
0.0
 11
120.1008176138314
 21
31.83309218837927
 31
0.0
  0
LINE
  5
124B
330
1F
100
AcDbEntity
  8
10
100
AcDbLine
 10
194.1008176138434
 20
120.8330921883792
 30
0.0
 11
194.1008176138434
 21
55.83309218837928
 31
0.0
  0
LINE
  5
124C
330
1F
100
AcDbEntity
  8
10
100
AcDbLine
 10
146.1008176138434
 20
120.8330921883792
 30
0.0
 11
146.1008176138434
 21
55.83309218837928
 31
0.0
  0
LINE
  5
124D
330
1F
100
AcDbEntity
  8
10
100
AcDbLine
 10
120.1008176138417
 20
123.8330921883792
 30
0.0
 11
182.6008176138337
 21
123.8330921883792
 31
0.0
  0
LINE
  5
124E
330
1F
100
AcDbEntity
  8
10
100
AcDbLine
 10
182.6008176138244
 20
122.8330921883792
 30
0.0
 11
120.1008176138417
 21
122.8330921883792
 31
0.0
  0
LINE
  5
124F
330
1F
100
AcDbEntity
  8
10
100
AcDbLine
 10
182.6008176138504
 20
53.83309218837928
 30
0.0
 11
120.1008176138334
 21
53.83309218837927
 31
0.0
  0
LINE
  5
1250
330
1F
100
AcDbEntity
  8
10
100
AcDbLine
 10
120.1008176138491
 20
52.83309218837927
 30
0.0
 11
182.6008176138318
 21
52.83309218837928
 31
0.0
  0
LINE
  5
1251
330
1F
100
AcDbEntity
  8
10
100
AcDbLine
 10
120.1008176138392
 20
148.8330921883792
 30
0.0
 11
182.6008176138391
 21
148.8330921883792
 31
0.0
1001
GENIUS_GENOREF_13
1005
0
1005
0
  0
LINE
  5
1252
330
1F
100
AcDbEntity
  8
10
100
AcDbLine
 10
182.6008176138391
 20
148.8330921883792
 30
0.0
 11
182.600817613841
 21
125.8330921883794
 31
0.0
1001
GENIUS_GENOREF_13
1005
0
1005
0
  0
LINE
  5
1253
330
1F
100
AcDbEntity
  8
10
100
AcDbLine
 10
182.600817613841
 20
125.8330921883794
 30
0.0
 11
120.1008176138374
 21
125.8330921883794
 31
0.0
1001
GENIUS_GENOREF_13
1005
0
1005
0
  0
LINE
  5
1254
330
1F
100
AcDbEntity
  8
12
100
AcDbLine
 10
192.6008176138345
 20
35.02155241517745
 30
0.0
 11
192.6008176138397
 21
30.4028419684699
 31
0.0
  0
LINE
  5
1255
330
1F
100
AcDbEntity
  8
10
100
AcDbLine
 10
190.1008176138345
 20
33.83309218837929
 30
0.0
 11
190.1008176138345
 21
31.83309218837928
 31
0.0
  0
LINE
  5
1256
330
1F
100
AcDbEntity
  8
10
100
AcDbLine
 10
195.1008176138345
 20
33.83309218837929
 30
0.0
 11
195.1008176138345
 21
31.83309218837863
 31
0.0
  0
LINE
  5
1257
330
1F
100
AcDbEntity
  8
10
100
AcDbLine
 10
120.1008176138306
 20
33.83309218837928
 30
0.0
 11
200.1008176138345
 21
33.83309218837929
 31
0.0
  0
LINE
  5
1258
330
1F
100
AcDbEntity
  8
10
100
AcDbLine
 10
120.1008176138491
 20
52.83309218837927
 30
0.0
 11
200.1008176138359
 21
52.83309218837881
 31
0.0
  0
LINE
  5
1259
330
1F
100
AcDbEntity
  8
10
100
AcDbLine
 10
200.1008176138359
 20
52.83309218837881
 30
0.0
 11
200.1008176138345
 21
31.83309218837884
 31
0.0
  0
LINE
  5
125A
330
1F
100
AcDbEntity
  8
10
100
AcDbLine
 10
200.1008176138345
 20
31.83309218837884
 30
0.0
 11
120.1008176138318
 21
31.83309218837927
 31
0.0
  0
LINE
  5
12C9
330
1F
100
AcDbEntity
  8
10
100
AcDbLine
 10
84.85081761383929
 20
165.2330921883793
 30
0.0
 11
84.85081761383929
 21
163.1330921883793
 31
0.0
  0
LINE
  5
12CA
330
1F
100
AcDbEntity
  8
10
100
AcDbLine
 10
84.85081761383929
 20
163.1330921883793
 30
0.0
 11
76.8508176138393
 21
163.1330921883793
 31
0.0
  0
LINE
  5
12CB
330
1F
100
AcDbEntity
  8
10
100
AcDbLine
 10
76.8508176138393
 20
163.1330921883793
 30
0.0
 11
76.8508176138393
 21
165.2330921883793
 31
0.0
  0
LINE
  5
12CC
330
1F
100
AcDbEntity
  8
10
100
AcDbLine
 10
76.35081761383929
 20
161.3330921883792
 30
0.0
 11
85.3508176138393
 21
161.3330921883792
 31
0.0
  0
LINE
  5
12CD
330
1F
100
AcDbEntity
  8
10
100
AcDbLine
 10
85.3508176138393
 20
161.3330921883792
 30
0.0
 11
85.3508176138393
 21
162.1330921883792
 31
0.0
  0
LINE
  5
12CE
330
1F
100
AcDbEntity
  8
10
100
AcDbLine
 10
85.3508176138393
 20
162.1330921883792
 30
0.0
 11
76.35081761383929
 21
162.1330921883792
 31
0.0
  0
LINE
  5
12CF
330
1F
100
AcDbEntity
  8
10
100
AcDbLine
 10
76.35081761383929
 20
162.1330921883792
 30
0.0
 11
76.35081761383929
 21
161.3330921883792
 31
0.0
  0
LINE
  5
12D0
330
1F
100
AcDbEntity
  8
10
100
AcDbLine
 10
77.05081761383929
 20
162.1330921883792
 30
0.0
 11
84.65081761383931
 21
162.1330921883792
 31
0.0
  0
LINE
  5
12D1
330
1F
100
AcDbEntity
  8
10
100
AcDbLine
 10
84.65081761383931
 20
162.1330921883792
 30
0.0
 11
84.65081761383931
 21
163.1330921883793
 31
0.0
  0
LINE
  5
12D2
330
1F
100
AcDbEntity
  8
10
100
AcDbLine
 10
84.65081761383931
 20
163.1330921883793
 30
0.0
 11
77.05081761383929
 21
163.1330921883793
 31
0.0
  0
LINE
  5
12D3
330
1F
100
AcDbEntity
  8
10
100
AcDbLine
 10
77.05081761383929
 20
163.1330921883793
 30
0.0
 11
77.05081761383929
 21
162.1330921883792
 31
0.0
  0
LINE
  5
12D4
330
1F
100
AcDbEntity
  8
10
100
AcDbLine
 10
74.3508176138393
 20
172.3330921883792
 30
0.0
 11
74.3508176138393
 21
175.3330921883792
 31
0.0
  0
LINE
  5
12D5
330
1F
100
AcDbEntity
  8
10
100
AcDbLine
 10
74.3508176138393
 20
175.3330921883792
 30
0.0
 11
110.3508176138392
 21
175.3330921883792
 31
0.0
  0
LINE
  5
12D6
330
1F
100
AcDbEntity
  8
10
100
AcDbLine
 10
110.3508176138392
 20
175.3330921883792
 30
0.0
 11
110.3508176138392
 21
172.3330921883792
 31
0.0
  0
LINE
  5
12D7
330
1F
100
AcDbEntity
  8
10
100
AcDbLine
 10
110.3508176138392
 20
156.8330921883792
 30
0.0
 11
118.6008176138392
 21
156.8330921883792
 31
0.0
  0
LINE
  5
12D8
330
1F
100
AcDbEntity
  8
10
100
AcDbLine
 10
118.6008176138392
 20
156.8330921883792
 30
0.0
 11
118.6008176138392
 21
148.8330921883792
 31
0.0
  0
LINE
  5
12D9
330
1F
100
AcDbEntity
  8
10
100
AcDbLine
 10
118.6008176138392
 20
148.8330921883792
 30
0.0
 11
66.1008176138393
 21
148.8330921883792
 31
0.0
  0
LINE
  5
12DA
330
1F
100
AcDbEntity
  8
10
100
AcDbLine
 10
66.1008176138393
 20
148.8330921883792
 30
0.0
 11
66.1008176138393
 21
156.8330921883792
 31
0.0
  0
LINE
  5
12DB
330
1F
100
AcDbEntity
  8
10
100
AcDbLine
 10
66.1008176138393
 20
156.8330921883792
 30
0.0
 11
74.3508176138393
 21
156.8330921883792
 31
0.0
  0
LINE
  5
12DC
330
1F
100
AcDbEntity
  8
10
 48
2.0
100
AcDbLine
 10
108.8508176138393
 20
172.3330921883792
 30
0.0
 11
75.85081761383929
 21
172.3330921883792
 31
0.0
  0
LINE
  5
12DD
330
1F
100
AcDbEntity
  8
10
 48
2.0
100
AcDbLine
 10
108.8508176138393
 20
172.8330921883792
 30
0.0
 11
75.85081761383929
 21
172.8330921883792
 31
0.0
  0
LINE
  5
12DE
330
1F
100
AcDbEntity
  8
10
100
AcDbLine
 10
75.85081761383929
 20
158.8330921883792
 30
0.0
 11
75.85081761383929
 21
172.3330921883792
 31
0.0
  0
LINE
  5
12DF
330
1F
100
AcDbEntity
  8
10
100
AcDbLine
 10
75.85081761383929
 20
172.3330921883792
 30
0.0
 11
74.3508176138393
 21
172.3330921883792
 31
0.0
  0
LINE
  5
12E0
330
1F
100
AcDbEntity
  8
10
100
AcDbLine
 10
74.3508176138393
 20
172.3330921883792
 30
0.0
 11
74.3508176138393
 21
156.8330921883792
 31
0.0
  0
LINE
  5
12E1
330
1F
100
AcDbEntity
  8
10
100
AcDbLine
 10
151.8508176138392
 20
165.2330921883793
 30
0.0
 11
151.8508176138392
 21
163.1330921883793
 31
0.0
  0
LINE
  5
12E2
330
1F
100
AcDbEntity
  8
10
100
AcDbLine
 10
151.8508176138392
 20
163.1330921883793
 30
0.0
 11
143.8508176138393
 21
163.1330921883793
 31
0.0
  0
LINE
  5
12E3
330
1F
100
AcDbEntity
  8
10
100
AcDbLine
 10
143.8508176138393
 20
163.1330921883793
 30
0.0
 11
143.8508176138393
 21
165.2330921883793
 31
0.0
  0
LINE
  5
12E4
330
1F
100
AcDbEntity
  8
10
100
AcDbLine
 10
144.0508176138392
 20
162.1330921883792
 30
0.0
 11
151.6508176138393
 21
162.1330921883792
 31
0.0
  0
LINE
  5
12E5
330
1F
100
AcDbEntity
  8
10
100
AcDbLine
 10
151.6508176138393
 20
162.1330921883792
 30
0.0
 11
151.6508176138393
 21
163.1330921883793
 31
0.0
  0
LINE
  5
12E6
330
1F
100
AcDbEntity
  8
10
100
AcDbLine
 10
151.6508176138393
 20
163.1330921883793
 30
0.0
 11
144.0508176138392
 21
163.1330921883793
 31
0.0
  0
LINE
  5
12E7
330
1F
100
AcDbEntity
  8
10
100
AcDbLine
 10
144.0508176138392
 20
163.1330921883793
 30
0.0
 11
144.0508176138392
 21
162.1330921883792
 31
0.0
  0
LINE
  5
12E8
330
1F
100
AcDbEntity
  8
10
100
AcDbLine
 10
143.3508176138392
 20
161.3330921883792
 30
0.0
 11
152.3508176138393
 21
161.3330921883792
 31
0.0
  0
LINE
  5
12E9
330
1F
100
AcDbEntity
  8
10
100
AcDbLine
 10
152.3508176138393
 20
161.3330921883792
 30
0.0
 11
152.3508176138393
 21
162.1330921883792
 31
0.0
  0
LINE
  5
12EA
330
1F
100
AcDbEntity
  8
10
100
AcDbLine
 10
152.3508176138393
 20
162.1330921883792
 30
0.0
 11
143.3508176138392
 21
162.1330921883792
 31
0.0
  0
LINE
  5
12EB
330
1F
100
AcDbEntity
  8
10
100
AcDbLine
 10
143.3508176138392
 20
162.1330921883792
 30
0.0
 11
143.3508176138392
 21
161.3330921883792
 31
0.0
  0
LINE
  5
12EC
330
1F
100
AcDbEntity
  8
10
100
AcDbLine
 10
129.8508176138392
 20
172.3330921883792
 30
0.0
 11
129.8508176138392
 21
175.3330921883792
 31
0.0
  0
LINE
  5
12ED
330
1F
100
AcDbEntity
  8
10
100
AcDbLine
 10
129.8508176138392
 20
175.3330921883792
 30
0.0
 11
165.8508176138393
 21
175.3330921883792
 31
0.0
  0
LINE
  5
12EE
330
1F
100
AcDbEntity
  8
10
100
AcDbLine
 10
165.8508176138393
 20
175.3330921883792
 30
0.0
 11
165.8508176138393
 21
172.3330921883792
 31
0.0
  0
LINE
  5
12EF
330
1F
100
AcDbEntity
  8
10
100
AcDbLine
 10
165.8508176138393
 20
156.8330921883792
 30
0.0
 11
174.1008176138393
 21
156.8330921883792
 31
0.0
  0
LINE
  5
12F0
330
1F
100
AcDbEntity
  8
10
100
AcDbLine
 10
174.1008176138393
 20
156.8330921883792
 30
0.0
 11
174.1008176138393
 21
148.8330921883792
 31
0.0
  0
LINE
  5
12F1
330
1F
100
AcDbEntity
  8
10
100
AcDbLine
 10
174.1008176138393
 20
148.8330921883792
 30
0.0
 11
121.6008176138392
 21
148.8330921883792
 31
0.0
  0
LINE
  5
12F2
330
1F
100
AcDbEntity
  8
10
100
AcDbLine
 10
121.6008176138392
 20
148.8330921883792
 30
0.0
 11
121.6008176138392
 21
156.8330921883792
 31
0.0
  0
LINE
  5
12F3
330
1F
100
AcDbEntity
  8
10
100
AcDbLine
 10
121.6008176138392
 20
156.8330921883792
 30
0.0
 11
129.8508176138392
 21
156.8330921883792
 31
0.0
  0
LINE
  5
12F4
330
1F
100
AcDbEntity
  8
10
 48
2.0
100
AcDbLine
 10
164.3508176138392
 20
172.3330921883792
 30
0.0
 11
131.3508176138393
 21
172.3330921883792
 31
0.0
  0
LINE
  5
12F5
330
1F
100
AcDbEntity
  8
10
 48
2.0
100
AcDbLine
 10
164.3508176138392
 20
172.8330921883792
 30
0.0
 11
131.3508176138393
 21
172.8330921883792
 31
0.0
  0
LINE
  5
12F6
330
1F
100
AcDbEntity
  8
10
100
AcDbLine
 10
110.3508176138392
 20
156.8330921883792
 30
0.0
 11
110.3508176138392
 21
172.3330921883792
 31
0.0
  0
LINE
  5
12F7
330
1F
100
AcDbEntity
  8
10
100
AcDbLine
 10
110.3508176138392
 20
172.3330921883792
 30
0.0
 11
108.8508176138393
 21
172.3330921883792
 31
0.0
  0
LINE
  5
12F8
330
1F
100
AcDbEntity
  8
10
100
AcDbLine
 10
108.8508176138393
 20
172.3330921883792
 30
0.0
 11
108.8508176138393
 21
158.8330921883792
 31
0.0
  0
LINE
  5
12F9
330
1F
100
AcDbEntity
  8
10
100
AcDbLine
 10
87.35081761383929
 20
158.8330921883792
 30
0.0
 11
87.35081761383929
 21
172.3330921883792
 31
0.0
  0
LINE
  5
12FA
330
1F
100
AcDbEntity
  8
10
100
AcDbLine
 10
87.35081761383929
 20
172.3330921883792
 30
0.0
 11
85.8508176138393
 21
172.3330921883792
 31
0.0
  0
LINE
  5
12FB
330
1F
100
AcDbEntity
  8
10
100
AcDbLine
 10
85.8508176138393
 20
172.3330921883792
 30
0.0
 11
85.8508176138393
 21
158.8330921883792
 31
0.0
  0
LINE
  5
12FC
330
1F
100
AcDbEntity
  8
10
100
AcDbLine
 10
98.85081761383929
 20
158.8330921883792
 30
0.0
 11
98.85081761383929
 21
172.3330921883792
 31
0.0
  0
LINE
  5
12FD
330
1F
100
AcDbEntity
  8
10
100
AcDbLine
 10
98.85081761383929
 20
172.3330921883792
 30
0.0
 11
97.35081761383931
 21
172.3330921883792
 31
0.0
  0
LINE
  5
12FE
330
1F
100
AcDbEntity
  8
10
100
AcDbLine
 10
97.35081761383931
 20
172.3330921883792
 30
0.0
 11
97.35081761383931
 21
158.8330921883792
 31
0.0
  0
LINE
  5
12FF
330
1F
100
AcDbEntity
  8
10
100
AcDbLine
 10
96.35081761383929
 20
165.2330921883793
 30
0.0
 11
96.35081761383929
 21
163.1330921883793
 31
0.0
  0
LINE
  5
1300
330
1F
100
AcDbEntity
  8
10
100
AcDbLine
 10
96.35081761383929
 20
163.1330921883793
 30
0.0
 11
88.3508176138393
 21
163.1330921883793
 31
0.0
  0
LINE
  5
1301
330
1F
100
AcDbEntity
  8
10
100
AcDbLine
 10
88.3508176138393
 20
163.1330921883793
 30
0.0
 11
88.3508176138393
 21
165.2330921883793
 31
0.0
  0
LINE
  5
1302
330
1F
100
AcDbEntity
  8
10
100
AcDbLine
 10
88.55081761383928
 20
162.1330921883792
 30
0.0
 11
96.15081761383931
 21
162.1330921883792
 31
0.0
  0
LINE
  5
1303
330
1F
100
AcDbEntity
  8
10
100
AcDbLine
 10
96.15081761383931
 20
162.1330921883792
 30
0.0
 11
96.15081761383931
 21
163.1330921883793
 31
0.0
  0
LINE
  5
1304
330
1F
100
AcDbEntity
  8
10
100
AcDbLine
 10
96.15081761383931
 20
163.1330921883793
 30
0.0
 11
88.55081761383928
 21
163.1330921883793
 31
0.0
  0
LINE
  5
1305
330
1F
100
AcDbEntity
  8
10
100
AcDbLine
 10
88.55081761383928
 20
163.1330921883793
 30
0.0
 11
88.55081761383928
 21
162.1330921883792
 31
0.0
  0
LINE
  5
1306
330
1F
100
AcDbEntity
  8
10
100
AcDbLine
 10
87.8508176138393
 20
161.3330921883792
 30
0.0
 11
96.8508176138393
 21
161.3330921883792
 31
0.0
  0
LINE
  5
1307
330
1F
100
AcDbEntity
  8
10
100
AcDbLine
 10
96.8508176138393
 20
161.3330921883792
 30
0.0
 11
96.8508176138393
 21
162.1330921883792
 31
0.0
  0
LINE
  5
1308
330
1F
100
AcDbEntity
  8
10
100
AcDbLine
 10
96.8508176138393
 20
162.1330921883792
 30
0.0
 11
87.8508176138393
 21
162.1330921883792
 31
0.0
  0
LINE
  5
1309
330
1F
100
AcDbEntity
  8
10
100
AcDbLine
 10
87.8508176138393
 20
162.1330921883792
 30
0.0
 11
87.8508176138393
 21
161.3330921883792
 31
0.0
  0
LINE
  5
130A
330
1F
100
AcDbEntity
  8
10
100
AcDbLine
 10
107.8508176138393
 20
165.2330921883793
 30
0.0
 11
107.8508176138393
 21
163.1330921883793
 31
0.0
  0
LINE
  5
130B
330
1F
100
AcDbEntity
  8
10
100
AcDbLine
 10
107.8508176138393
 20
163.1330921883793
 30
0.0
 11
99.85081761383931
 21
163.1330921883793
 31
0.0
  0
LINE
  5
130C
330
1F
100
AcDbEntity
  8
10
100
AcDbLine
 10
99.85081761383931
 20
163.1330921883793
 30
0.0
 11
99.85081761383931
 21
165.2330921883793
 31
0.0
  0
LINE
  5
130D
330
1F
100
AcDbEntity
  8
10
100
AcDbLine
 10
100.0508176138392
 20
162.1330921883792
 30
0.0
 11
107.6508176138393
 21
162.1330921883792
 31
0.0
  0
LINE
  5
130E
330
1F
100
AcDbEntity
  8
10
100
AcDbLine
 10
107.6508176138393
 20
162.1330921883792
 30
0.0
 11
107.6508176138393
 21
163.1330921883793
 31
0.0
  0
LINE
  5
130F
330
1F
100
AcDbEntity
  8
10
100
AcDbLine
 10
107.6508176138393
 20
163.1330921883793
 30
0.0
 11
100.0508176138392
 21
163.1330921883793
 31
0.0
  0
LINE
  5
1310
330
1F
100
AcDbEntity
  8
10
100
AcDbLine
 10
100.0508176138392
 20
163.1330921883793
 30
0.0
 11
100.0508176138392
 21
162.1330921883792
 31
0.0
  0
LINE
  5
1311
330
1F
100
AcDbEntity
  8
10
100
AcDbLine
 10
99.3508176138393
 20
161.3330921883792
 30
0.0
 11
108.3508176138392
 21
161.3330921883792
 31
0.0
  0
LINE
  5
1312
330
1F
100
AcDbEntity
  8
10
100
AcDbLine
 10
108.3508176138392
 20
161.3330921883792
 30
0.0
 11
108.3508176138392
 21
162.1330921883792
 31
0.0
  0
LINE
  5
1313
330
1F
100
AcDbEntity
  8
10
100
AcDbLine
 10
108.3508176138392
 20
162.1330921883792
 30
0.0
 11
99.3508176138393
 21
162.1330921883792
 31
0.0
  0
LINE
  5
1314
330
1F
100
AcDbEntity
  8
10
100
AcDbLine
 10
99.3508176138393
 20
162.1330921883792
 30
0.0
 11
99.3508176138393
 21
161.3330921883792
 31
0.0
  0
LINE
  5
1315
330
1F
100
AcDbEntity
  8
10
100
AcDbLine
 10
131.3508176138393
 20
158.8330921883792
 30
0.0
 11
131.3508176138393
 21
172.3330921883792
 31
0.0
  0
LINE
  5
1316
330
1F
100
AcDbEntity
  8
10
100
AcDbLine
 10
131.3508176138393
 20
172.3330921883792
 30
0.0
 11
129.8508176138392
 21
172.3330921883792
 31
0.0
  0
LINE
  5
1317
330
1F
100
AcDbEntity
  8
10
100
AcDbLine
 10
129.8508176138392
 20
172.3330921883792
 30
0.0
 11
129.8508176138392
 21
156.8330921883792
 31
0.0
  0
LINE
  5
1318
330
1F
100
AcDbEntity
  8
10
100
AcDbLine
 10
142.8508176138393
 20
158.8330921883792
 30
0.0
 11
142.8508176138393
 21
172.3330921883792
 31
0.0
  0
LINE
  5
1319
330
1F
100
AcDbEntity
  8
10
100
AcDbLine
 10
142.8508176138393
 20
172.3330921883792
 30
0.0
 11
141.3508176138392
 21
172.3330921883792
 31
0.0
  0
LINE
  5
131A
330
1F
100
AcDbEntity
  8
10
100
AcDbLine
 10
141.3508176138392
 20
172.3330921883792
 30
0.0
 11
141.3508176138392
 21
158.8330921883792
 31
0.0
  0
LINE
  5
131B
330
1F
100
AcDbEntity
  8
10
100
AcDbLine
 10
140.3508176138393
 20
165.2330921883793
 30
0.0
 11
140.3508176138393
 21
163.1330921883793
 31
0.0
  0
LINE
  5
131C
330
1F
100
AcDbEntity
  8
10
100
AcDbLine
 10
140.3508176138393
 20
163.1330921883793
 30
0.0
 11
132.3508176138392
 21
163.1330921883793
 31
0.0
  0
LINE
  5
131D
330
1F
100
AcDbEntity
  8
10
100
AcDbLine
 10
132.3508176138392
 20
163.1330921883793
 30
0.0
 11
132.3508176138392
 21
165.2330921883793
 31
0.0
  0
LINE
  5
131E
330
1F
100
AcDbEntity
  8
10
100
AcDbLine
 10
131.8508176138392
 20
161.3330921883792
 30
0.0
 11
140.8508176138393
 21
161.3330921883792
 31
0.0
  0
LINE
  5
131F
330
1F
100
AcDbEntity
  8
10
100
AcDbLine
 10
140.8508176138393
 20
161.3330921883792
 30
0.0
 11
140.8508176138393
 21
162.1330921883792
 31
0.0
  0
LINE
  5
1320
330
1F
100
AcDbEntity
  8
10
100
AcDbLine
 10
140.8508176138393
 20
162.1330921883792
 30
0.0
 11
131.8508176138392
 21
162.1330921883792
 31
0.0
  0
LINE
  5
1321
330
1F
100
AcDbEntity
  8
10
100
AcDbLine
 10
131.8508176138392
 20
162.1330921883792
 30
0.0
 11
131.8508176138392
 21
161.3330921883792
 31
0.0
  0
LINE
  5
1322
330
1F
100
AcDbEntity
  8
10
100
AcDbLine
 10
132.5508176138392
 20
162.1330921883792
 30
0.0
 11
140.1508176138393
 21
162.1330921883792
 31
0.0
  0
LINE
  5
1323
330
1F
100
AcDbEntity
  8
10
100
AcDbLine
 10
140.1508176138393
 20
162.1330921883792
 30
0.0
 11
140.1508176138393
 21
163.1330921883793
 31
0.0
  0
LINE
  5
1324
330
1F
100
AcDbEntity
  8
10
100
AcDbLine
 10
140.1508176138393
 20
163.1330921883793
 30
0.0
 11
132.5508176138392
 21
163.1330921883793
 31
0.0
  0
LINE
  5
1325
330
1F
100
AcDbEntity
  8
10
100
AcDbLine
 10
132.5508176138392
 20
163.1330921883793
 30
0.0
 11
132.5508176138392
 21
162.1330921883792
 31
0.0
  0
LINE
  5
1326
330
1F
100
AcDbEntity
  8
10
100
AcDbLine
 10
165.8508176138393
 20
156.8330921883792
 30
0.0
 11
165.8508176138393
 21
172.3330921883792
 31
0.0
  0
LINE
  5
1327
330
1F
100
AcDbEntity
  8
10
100
AcDbLine
 10
165.8508176138393
 20
172.3330921883792
 30
0.0
 11
164.3508176138392
 21
172.3330921883792
 31
0.0
  0
LINE
  5
1328
330
1F
100
AcDbEntity
  8
10
100
AcDbLine
 10
164.3508176138392
 20
172.3330921883792
 30
0.0
 11
164.3508176138392
 21
158.8330921883792
 31
0.0
  0
LINE
  5
1329
330
1F
100
AcDbEntity
  8
10
100
AcDbLine
 10
154.3508176138393
 20
158.8330921883792
 30
0.0
 11
154.3508176138393
 21
172.3330921883792
 31
0.0
  0
LINE
  5
132A
330
1F
100
AcDbEntity
  8
10
100
AcDbLine
 10
154.3508176138393
 20
172.3330921883792
 30
0.0
 11
152.8508176138393
 21
172.3330921883792
 31
0.0
  0
LINE
  5
132B
330
1F
100
AcDbEntity
  8
10
100
AcDbLine
 10
152.8508176138393
 20
172.3330921883792
 30
0.0
 11
152.8508176138393
 21
158.8330921883792
 31
0.0
  0
LINE
  5
132C
330
1F
100
AcDbEntity
  8
10
100
AcDbLine
 10
163.3508176138392
 20
165.2330921883793
 30
0.0
 11
163.3508176138392
 21
163.1330921883793
 31
0.0
  0
LINE
  5
132D
330
1F
100
AcDbEntity
  8
10
100
AcDbLine
 10
163.3508176138392
 20
163.1330921883793
 30
0.0
 11
155.3508176138393
 21
163.1330921883793
 31
0.0
  0
LINE
  5
132E
330
1F
100
AcDbEntity
  8
10
100
AcDbLine
 10
155.3508176138393
 20
163.1330921883793
 30
0.0
 11
155.3508176138393
 21
165.2330921883793
 31
0.0
  0
LINE
  5
132F
330
1F
100
AcDbEntity
  8
10
100
AcDbLine
 10
155.5508176138392
 20
162.1330921883792
 30
0.0
 11
163.1508176138393
 21
162.1330921883792
 31
0.0
  0
LINE
  5
1330
330
1F
100
AcDbEntity
  8
10
100
AcDbLine
 10
163.1508176138393
 20
162.1330921883792
 30
0.0
 11
163.1508176138393
 21
163.1330921883793
 31
0.0
  0
LINE
  5
1331
330
1F
100
AcDbEntity
  8
10
100
AcDbLine
 10
163.1508176138393
 20
163.1330921883793
 30
0.0
 11
155.5508176138392
 21
163.1330921883793
 31
0.0
  0
LINE
  5
1332
330
1F
100
AcDbEntity
  8
10
100
AcDbLine
 10
155.5508176138392
 20
163.1330921883793
 30
0.0
 11
155.5508176138392
 21
162.1330921883792
 31
0.0
  0
LINE
  5
1333
330
1F
100
AcDbEntity
  8
10
100
AcDbLine
 10
154.8508176138392
 20
161.3330921883792
 30
0.0
 11
163.8508176138393
 21
161.3330921883792
 31
0.0
  0
LINE
  5
1334
330
1F
100
AcDbEntity
  8
10
100
AcDbLine
 10
163.8508176138393
 20
161.3330921883792
 30
0.0
 11
163.8508176138393
 21
162.1330921883792
 31
0.0
  0
LINE
  5
1335
330
1F
100
AcDbEntity
  8
10
100
AcDbLine
 10
163.8508176138393
 20
162.1330921883792
 30
0.0
 11
154.8508176138392
 21
162.1330921883792
 31
0.0
  0
LINE
  5
1336
330
1F
100
AcDbEntity
  8
10
100
AcDbLine
 10
154.8508176138392
 20
162.1330921883792
 30
0.0
 11
154.8508176138392
 21
161.3330921883792
 31
0.0
  0
LINE
  5
1337
330
1F
100
AcDbEntity
  8
10
100
AcDbLine
 10
295.3210934576189
 20
148.8330921883828
 30
0.0
 11
307.8210934576189
 21
148.8330921883828
 31
0.0
  0
LINE
  5
1338
330
1F
100
AcDbEntity
  8
10
100
AcDbLine
 10
307.8210934576189
 20
148.8330921883828
 30
0.0
 11
307.8210934576189
 21
154.8330921883828
 31
0.0
  0
LINE
  5
1339
330
1F
100
AcDbEntity
  8
10
100
AcDbLine
 10
307.8210934576189
 20
154.8330921883828
 30
0.0
 11
312.3210934576189
 21
154.8330921883828
 31
0.0
  0
LINE
  5
133A
330
1F
100
AcDbEntity
  8
10
100
AcDbLine
 10
312.3210934576189
 20
154.8330921883828
 30
0.0
 11
312.3210934576189
 21
170.3330921883828
 31
0.0
  0
LINE
  5
133B
330
1F
100
AcDbEntity
  8
10
100
AcDbLine
 10
295.3210934576189
 20
167.3330921883828
 30
0.0
 11
290.8210934576189
 21
167.3330921883828
 31
0.0
  0
LINE
  5
133C
330
1F
100
AcDbEntity
  8
10
100
AcDbLine
 10
290.8210934576189
 20
167.3330921883828
 30
0.0
 11
290.8210934576189
 21
175.3330921883828
 31
0.0
  0
LINE
  5
133D
330
1F
100
AcDbEntity
  8
10
100
AcDbLine
 10
290.8210934576189
 20
175.3330921883828
 30
0.0
 11
295.3210934576189
 21
175.3330921883828
 31
0.0
  0
LINE
  5
133E
330
1F
100
AcDbEntity
  8
10
100
AcDbLine
 10
295.3210934576189
 20
167.3330921883828
 30
0.0
 11
299.8210934576189
 21
167.3330921883828
 31
0.0
  0
LINE
  5
133F
330
1F
100
AcDbEntity
  8
10
100
AcDbLine
 10
299.8210934576189
 20
167.3330921883828
 30
0.0
 11
299.8210934576189
 21
175.3330921883828
 31
0.0
  0
LINE
  5
1340
330
1F
100
AcDbEntity
  8
10
100
AcDbLine
 10
299.8210934576189
 20
175.3330921883828
 30
0.0
 11
295.3210934576189
 21
175.3330921883828
 31
0.0
  0
LINE
  5
1341
330
1F
100
AcDbEntity
  8
10
100
AcDbLine
 10
295.3210934576189
 20
148.8330921883828
 30
0.0
 11
282.8210934576189
 21
148.8330921883828
 31
0.0
  0
LINE
  5
1342
330
1F
100
AcDbEntity
  8
10
100
AcDbLine
 10
282.8210934576189
 20
148.8330921883828
 30
0.0
 11
282.8210934576189
 21
154.8330921883828
 31
0.0
  0
LINE
  5
1343
330
1F
100
AcDbEntity
  8
10
100
AcDbLine
 10
282.8210934576189
 20
154.8330921883828
 30
0.0
 11
278.3210934576189
 21
154.8330921883828
 31
0.0
  0
LINE
  5
1344
330
1F
100
AcDbEntity
  8
10
100
AcDbLine
 10
278.3210934576189
 20
154.8330921883828
 30
0.0
 11
278.3210934576189
 21
170.3330921883828
 31
0.0
  0
LINE
  5
1345
330
1F
100
AcDbEntity
  8
10
100
AcDbLine
 10
290.8210934576189
 20
148.8330921883828
 30
0.0
 11
290.8210934576189
 21
156.8330921883828
 31
0.0
  0
LINE
  5
1346
330
1F
100
AcDbEntity
  8
10
100
AcDbLine
 10
290.8210934576189
 20
156.8330921883828
 30
0.0
 11
282.8210934576189
 21
156.8330921883828
 31
0.0
  0
LINE
  5
1347
330
1F
100
AcDbEntity
  8
10
100
AcDbLine
 10
282.8210934576189
 20
156.8330921883828
 30
0.0
 11
282.8210934576189
 21
154.8330921883828
 31
0.0
  0
LINE
  5
1348
330
1F
100
AcDbEntity
  8
10
100
AcDbLine
 10
299.8210934576189
 20
148.8330921883828
 30
0.0
 11
299.8210934576189
 21
156.8330921883828
 31
0.0
  0
LINE
  5
1349
330
1F
100
AcDbEntity
  8
10
100
AcDbLine
 10
299.8210934576189
 20
156.8330921883828
 30
0.0
 11
307.8210934576189
 21
156.8330921883828
 31
0.0
  0
LINE
  5
134A
330
1F
100
AcDbEntity
  8
10
100
AcDbLine
 10
307.8210934576189
 20
156.8330921883828
 30
0.0
 11
307.8210934576189
 21
154.8330921883828
 31
0.0
  0
VIEWPORT
  5
409
330
23
100
AcDbEntity
 67
     1
  8
0
100
AcDbViewport
 10
142.6315765380859
 20
99.1129140853882
 30
0.0
 40
314.2372683715819
 41
259.7433703258352
 68
     1
 69
     1
1001
ACAD
1000
MVIEW
1002
{
1070
    16
1010
0.0
1020
0.0
1030
0.0
1010
0.0
1020
0.0
1030
1.0
1040
0.0
1040
259.7433703258352
1040
142.6315765380859
1040
99.1129140853882
1040
50.0
1040
0.0
1040
0.0
1070
     0
1070
   100
1070
     1
1070
     1
1070
     0
1070
     0
1070
     0
1070
     0
1040
0.0
1040
0.0
1040
0.0
1040
10.0
1040
10.0
1040
10.0
1040
10.0
1070
     0
1002
{
1002
}
1002
}
  0
VIEWPORT
  5
40B
330
23
100
AcDbEntity
 67
     1
  8
0
100
AcDbViewport
 10
142.6315770149231
 20
99.11291456222535
 30
0.0
 40
228.2105232238769
 41
158.5806632995605
 68
     2
 69
     2
1001
ACAD
1000
MVIEW
1002
{
1070
    16
1010
0.0
1020
0.0
1030
0.0
1010
0.0
1020
0.0
1030
1.0
1040
0.0
1040
437.7797658097811
1040
303.2144175903108
1040
233.3590858733038
1040
50.0
1040
0.0
1040
0.0
1070
     0
1070
   100
1070
     1
1070
     3
1070
     0
1070
     0
1070
     0
1070
     0
1040
0.0
1040
0.0
1040
0.0
1040
10.0
1040
10.0
1040
10.0
1040
10.0
1070
     0
1002
{
1002
}
1002
}
  0
ENDSEC
  0
SECTION
  2
OBJECTS
  0
DICTIONARY
  5
C
330
0
100
AcDbDictionary
  3
ACAD_GROUP
350
D
  3
ACAD_LAYOUT
350
1A
  3
ACAD_MLINESTYLE
350
17
  3
ACAD_PLOTSETTINGS
350
19
  3
ACAD_PLOTSTYLENAME
350
B10
  3
ACAMCATALOGSTATE
350
5BA
  3
ACASAPPOBJECT
350
53F
  3
ACASGREF_MASTER
350
587
  3
ACDBHEADERROUNDTRIPXREC
350
13B4
  3
ACDBVARIABLEDICTIONARY
350
B19
  3
ACDMSYSVARMGR
350
519
  3
ACGREF_MASTER
350
513
  3
ACGREFACAD_MASTER
350
53B
  3
ACMDICTIONARY
350
5B6
  3
ACME_BOM_MANAGER_NAME
350
50C
  3
ACME_COMMAND_HISTORY
350
507
  3
ACME_SCOPE_NAME
350
506
  3
ACMESTATEMGR
350
511
  3
ACMESYSVARMANAGER
350
508
  3
ACMSYSTEMVARIABLEMANAGER
350
5C4
  3
AD_APPL
350
59E
  3
AD_GREF_MODULE
350
588
  3
AD_MAPI_MODULE
350
5A0
  3
ADSYSVARMGR
350
590
  3
AMDTNAMEDDWGMGR
350
536
  3
AMG
350
4FD
  3
AMGSNAPSETTINGS
350
5D0
  3
AMI_MASTER
350
53E
  3
ASURF_STATIC_VARS
350
540
  3
AUTOCAD_ASSEMBLIES_PROJECT
350
5AB
  3
AUTOSURF_SYSVARS
350
541
  3
DESIGNER_ASSEMBLIES_SYSVARS
350
5A2
  3
DWGPROPS
350
5B9
  3
GREFAM_MODULE
350
58A
  3
MAPISURF_MODULE
350
589
1001
ACAD
1000
TREAT_AS_HARD
1070
     0
1000
TREAT_AS_HARD
1070
     0
1000
TREAT_AS_HARD
1070
     0
  0
DICTIONARY
  5
41
330
2
100
AcDbDictionary
280
     1
  3
ACAD_LAYERFILTERS
360
3FF
  3
ACAD_LAYERSTATES
360
42
1001
ACAD
1000
TREAT_AS_HARD
1070
     1
1000
TREAT_AS_HARD
1070
     0
1000
TREAT_AS_HARD
1070
     0
  0
DICTIONARY
  5
438
330
1F
100
AcDbDictionary
280
     1
  3
ACAD_LAYOUTSELFREF
360
13D4
1001
ACAD
1000
TREAT_AS_HARD
1070
     1
1000
TREAT_AS_HARD
1070
     1
1000
TREAT_AS_HARD
1070
     0
  0
DICTIONARY
  5
43A
330
23
100
AcDbDictionary
280
     1
  3
ACAD_LAYOUTSELFREF
360
13D5
1001
ACAD
1000
TREAT_AS_HARD
1070
     1
1000
TREAT_AS_HARD
1070
     1
1000
TREAT_AS_HARD
1070
     0
  0
DICTIONARY
  5
D
102
{ACAD_REACTORS
330
C
102
}
330
C
100
AcDbDictionary
1001
ACAD
1000
TREAT_AS_HARD
1070
     0
1000
TREAT_AS_HARD
1070
     0
1000
TREAT_AS_HARD
1070
     0
  0
DICTIONARY
  5
1A
102
{ACAD_REACTORS
330
C
102
}
330
C
100
AcDbDictionary
1001
ACAD
1000
TREAT_AS_HARD
1070
     0
1000
TREAT_AS_HARD
1070
     0
1000
TREAT_AS_HARD
1070
     0
  0
DICTIONARY
  5
17
102
{ACAD_REACTORS
330
C
102
}
330
C
100
AcDbDictionary
  3
STANDARD
350
18
1001
ACAD
1000
TREAT_AS_HARD
1070
     0
1000
TREAT_AS_HARD
1070
     0
1000
TREAT_AS_HARD
1070
     0
  0
DICTIONARY
  5
19
102
{ACAD_REACTORS
330
C
102
}
330
C
100
AcDbDictionary
1001
ACAD
1000
TREAT_AS_HARD
1070
     0
1000
TREAT_AS_HARD
1070
     0
1000
TREAT_AS_HARD
1070
     0
  0
ACDBDICTIONARYWDFLT
  5
B10
102
{ACAD_REACTORS
330
C
102
}
330
C
100
AcDbDictionary
281
     1
  3
Normal
350
B11
100
AcDbDictionaryWithDefault
340
B11
  0
ACAD_PROXY_OBJECT
  5
5BA
102
{ACAD_REACTORS
330
C
102
}
330
C
100
AcDbProxyObject
 90
      499
 91
      574
 93
      880
310
3FFFFFFFE00A0284402B0AE2E189C9917189B1C17189719182E32B733B4B732B2B934B733AE32B733B4B732B2B934B733AE26A2A2C5E34B58AE181C1898189A2FA6A2A2AF99222FC6F6483EAE39B4B5BCBAAE232916A420A62FA422A62FA1A0A22E4728C6B641B340ADC1AF400AA65
 94
        0
1001
ACAD
1000
AcadProxyRoundTripData
1071
      565
1071
   851991
1070
     0
  0
ACAD_PROXY_OBJECT
  5
53F
102
{ACAD_REACTORS
330
C
102
}
330
C
100
AcDbProxyObject
 90
      499
 91
      574
 93
       10
310
4046
 94
        0
1001
ACAD
1000
AcadProxyRoundTripData
1071
      537
1071
   851991
1070
     0
  0
ACAD_PROXY_OBJECT
  5
587
102
{ACAD_REACTORS
330
C
102
}
330
C
100
AcDbProxyObject
 90
      499
 91
      574
 93
       34
310
0100004071
 94
        0
1001
ACAD
1000
AcadProxyRoundTripData
1071
      543
1071
   851991
1070
     0
  0
DICTIONARY
  5
13B4
102
{ACAD_REACTORS
330
C
102
}
330
C
100
AcDbDictionary
  3
CEPSNTYPE
350
13BE
  3
FINGERPRINTGUID
350
13BF
  3
HYPERLINKBASE
350
13B7
  3
INSUNITS
350
13BD
  3
LAYOUTDICT
350
13B9
  3
LWETCUNION
350
13BC
  3
PLOTSETDICT
350
13BA
  3
PLOTSTYLNAMDICT
350
13BB
  3
PSVPSCALE
350
13C1
  3
PUCSBASE
350
13C4
  3
PUCSORGBACK
350
13CA
  3
PUCSORGBOTTOM
350
13C6
  3
PUCSORGFRONT
350
13C9
  3
PUCSORGLEFT
350
13C7
  3
PUCSORGRIGHT
350
13C8
  3
PUCSORGTOP
350
13C5
  3
PUCSORTHOREF
350
13C2
  3
PUCSORTHOVIEW
350
13C3
  3
STYLESHEET
350
13B8
  3
TSTACKALIGN
350
13B5
  3
TSTACKSIZE
350
13B6
  3
UCSBASE
350
13CD
  3
UCSORGBACK
350
13D3
  3
UCSORGBOTTOM
350
13CF
  3
UCSORGFRONT
350
13D2
  3
UCSORGLEFT
350
13D0
  3
UCSORGRIGHT
350
13D1
  3
UCSORGTOP
350
13CE
  3
UCSORTHOREF
350
13CB
  3
UCSORTHOVIEW
350
13CC
  3
VERSIONGUID
350
13C0
  0
DICTIONARY
  5
B19
102
{ACAD_REACTORS
330
C
102
}
330
C
100
AcDbDictionary
  3
DIMASSOC
350
B1A
  0
ACAD_PROXY_OBJECT
  5
519
102
{ACAD_REACTORS
330
C
102
}
330
C
100
AcDbProxyObject
 90
      499
 91
      574
 93
      240
310
4C51A482000000000000000000000000000000000000000000000000000004
330
51A
330
51B
330
51C
330
51D
330
51E
330
51F
330
520
330
523
330
524
330
525
330
526
330
527
330
528
330
529
330
52A
330
52B
330
52C
330
52D
330
52E
330
52F
330
530
330
531
330
532
330
533
330
534
330
535
 94
        0
1001
ACAD
1000
AcadProxyRoundTripData
1071
      516
1071
   851991
1070
     0
  0
ACAD_PROXY_OBJECT
  5
513
102
{ACAD_REACTORS
330
C
102
}
330
C
100
AcDbProxyObject
 90
      499
 91
      574
 93
       34
310
04000042B1
 94
        0
1001
ACAD
1000
AcadProxyRoundTripData
1071
      525
1071
   851991
1070
     0
  0
ACAD_PROXY_OBJECT
  5
53B
102
{ACAD_REACTORS
330
C
102
}
330
C
100
AcDbProxyObject
 90
      499
 91
      574
 93
      114
310
04000041C000000000000000000000
 94
        0
1001
ACAD
1000
AcadProxyRoundTripData
1071
      533
1071
   851991
1070
     0
  0
DICTIONARY
  5
5B6
102
{ACAD_REACTORS
330
C
102
}
330
C
100
AcDbDictionary
  3
ACMBOMDATA
350
5B7
1001
ACAD
1000
TREAT_AS_HARD
1070
     0
1000
TREAT_AS_HARD
1070
     0
1000
TREAT_AS_HARD
1070
     0
  0
ACAD_PROXY_OBJECT
  5
50C
102
{ACAD_REACTORS
330
C
102
}
330
C
100
AcDbProxyObject
 90
      499
 91
      574
 93
       50
310
00000040400025
330
0
330
0
330
50D
 94
        0
1001
ACAD
1000
AcadProxyRoundTripData
1071
      519
1071
   851991
1070
     0
  0
ACAD_PROXY_OBJECT
  5
507
102
{ACAD_REACTORS
330
C
102
}
330
C
100
AcDbProxyObject
 90
      499
 91
      574
 93
      778
310
424050E414D4454524553455444424D4F4440805084E202D20554E444F014213880B4815539113C0507544F4F4C42415280504554E444F80504554E444F80504554E444F80504554E444F80504554E444F80505455241534580506534156454153A4
 94
        0
1001
ACAD
1000
AcadProxyRoundTripData
1071
      515
1071
   851991
1070
     0
  0
ACAD_PROXY_OBJECT
  5
506
102
{ACAD_REACTORS
330
C
102
}
330
C
100
AcDbProxyObject
 90
      499
 91
      574
 93
     1242
310
06000044400000000000000000001840000400020000000000000000000000000000000000000000000000000000000000000000000000000000000000000000000000000000000000000000000000000000000000000000000000000000000000000000000000000000000000000000000000000000000000000000000000
310
00000000000000000000000000000000000000000000000000AAAAAAB2
360
509
360
50A
360
50B
360
50D
360
514
360
515
360
516
360
517
360
51A
360
51B
360
51C
360
51D
360
51E
360
51F
360
520
360
523
360
524
360
525
360
526
360
527
360
528
360
529
360
52A
360
52B
360
52C
360
52D
360
52E
360
52F
360
530
360
531
360
532
360
533
360
534
360
535
360
542
360
543
360
544
360
545
360
546
360
547
360
548
360
549
360
54A
360
54B
360
54C
360
54D
360
54E
360
54F
360
550
360
551
360
552
360
553
360
554
360
555
360
556
360
557
360
558
360
559
360
55A
360
55B
360
55C
360
55D
360
55E
360
55F
360
560
360
561
360
562
360
563
360
564
360
565
360
566
360
567
360
568
360
569
360
56A
360
56B
360
56C
360
56D
360
56E
360
56F
360
570
360
571
360
572
360
573
360
574
360
575
360
576
360
577
360
578
360
579
360
57A
360
57B
360
57C
360
57D
360
57E
360
57F
360
580
360
581
360
582
360
583
360
58C
360
58D
360
58E
360
58F
360
591
360
592
360
593
360
594
360
595
360
596
360
597
360
598
360
599
360
59A
360
59B
360
59C
360
59D
360
5A3
360
5A4
360
5A5
360
5A6
360
5A7
360
5A8
360
5A9
360
5AA
360
5AF
360
5B0
360
5B1
360
5B2
360
5B3
360
5B4
360
5C5
 94
        0
1001
ACAD
1000
AcadProxyRoundTripData
1071
      514
1071
   851991
1070
     0
  0
ACAD_PROXY_OBJECT
  5
511
102
{ACAD_REACTORS
330
C
102
}
330
C
100
AcDbProxyObject
 90
      499
 91
      574
 93
       50
310
060000416412A5
 94
        0
1001
ACAD
1000
AcadProxyRoundTripData
1071
      524
1071
   851991
1070
     0
  0
ACAD_PROXY_OBJECT
  5
508
102
{ACAD_REACTORS
330
C
102
}
330
C
100
AcDbProxyObject
 90
      499
 91
      574
 93
       48
310
90342200000011
330
509
330
50A
330
50B
 94
        0
1001
ACAD
1000
AcadProxyRoundTripData
1071
      516
1071
   851991
1070
     0
  0
ACAD_PROXY_OBJECT
  5
5C4
102
{ACAD_REACTORS
330
C
102
}
330
C
100
AcDbProxyObject
 90
      499
 91
      574
 93
       32
310
9014220031
330
5C5
 94
        0
1001
ACAD
1000
AcadProxyRoundTripData
1071
      516
1071
   851991
1070
     0
  0
ACAD_PROXY_OBJECT
  5
59E
102
{ACAD_REACTORS
330
C
102
}
330
C
100
AcDbProxyObject
 90
      499
 91
      574
 93
       42
310
0006000043C2
330
58C
 94
        0
1001
ACAD
1000
AcadProxyRoundTripData
1071
      552
1071
   851991
1070
     0
  0
ACAD_PROXY_OBJECT
  5
588
102
{ACAD_REACTORS
330
C
102
}
330
C
100
AcDbProxyObject
 90
      499
 91
      574
 93
      114
310
000000438000000000000000000036
 94
        0
1001
ACAD
1000
AcadProxyRoundTripData
1071
      544
1071
   851991
1070
     0
  0
ACAD_PROXY_OBJECT
  5
5A0
102
{ACAD_REACTORS
330
C
102
}
330
C
100
AcDbProxyObject
 90
      499
 91
      574
 93
       34
310
05000044F1
 94
        0
1001
ACAD
1000
AcadProxyRoundTripData
1071
      554
1071
   851991
1070
     0
  0
ACAD_PROXY_OBJECT
  5
590
102
{ACAD_REACTORS
330
C
102
}
330
C
100
AcDbProxyObject
 90
      499
 91
      574
 93
      128
310
90D442000000000000000000000000008F
330
591
330
592
330
593
330
594
330
595
330
596
330
597
330
598
330
599
330
59A
330
59B
330
59C
330
59D
 94
        0
1001
ACAD
1000
AcadProxyRoundTripData
1071
      516
1071
   851991
1070
     0
  0
ACAD_PROXY_OBJECT
  5
536
102
{ACAD_REACTORS
330
C
102
}
330
C
100
AcDbProxyObject
 90
      499
 91
      574
 93
       42
310
000100005AC2
330
514
 94
        0
1001
ACAD
1000
AcadProxyRoundTripData
1071
      530
1071
   851991
1070
     0
  0
DICTIONARY
  5
4FD
102
{ACAD_REACTORS
330
C
102
}
330
C
100
AcDbDictionary
  3
ACMGSETTINGS
350
4FE
  3
AMGLAYCFG
350
5C3
1001
ACAD
1000
TREAT_AS_HARD
1070
     0
1000
TREAT_AS_HARD
1070
     0
1000
TREAT_AS_HARD
1070
     0
  0
DICTIONARY
  5
5D0
102
{ACAD_REACTORS
330
C
102
}
330
C
100
AcDbDictionary
  3
DIMENSION
350
5D5
  3
FEA
350
5D4
  3
HATCH__1_
350
5D1
  3
HATCH__2_
350
5D2
  3
SIMPLE_WELD
350
5D6
  3
SYMBOLS
350
5D3
1001
ACAD
1000
TREAT_AS_HARD
1070
     0
1000
TREAT_AS_HARD
1070
     0
1000
TREAT_AS_HARD
1070
     0
  0
ACAD_PROXY_OBJECT
  5
53E
102
{ACAD_REACTORS
330
C
102
}
330
C
100
AcDbProxyObject
 90
      499
 91
      574
 93
       34
310
05000042B1
 94
        0
1001
ACAD
1000
AcadProxyRoundTripData
1071
      536
1071
   851991
1070
     0
  0
ACAD_PROXY_OBJECT
  5
540
102
{ACAD_REACTORS
330
C
102
}
330
C
100
AcDbProxyObject
 90
      499
 91
      574
 93
      424
310
585315020000000000000000000000000000000000000000000000000000000000000000000000000000000000000000000000000002
330
553
330
554
330
555
330
556
330
557
330
558
330
559
330
55A
330
55B
330
55C
330
55D
330
55E
330
55F
330
560
330
561
330
562
330
563
330
564
330
565
330
566
330
567
330
568
330
569
330
56A
330
56B
330
56C
330
56D
330
56E
330
56F
330
570
330
571
330
572
330
573
330
574
330
575
330
576
330
577
330
578
330
579
330
57A
330
57B
330
57C
330
57D
330
57E
330
57F
330
580
330
581
330
582
330
583
 94
        0
1001
ACAD
1000
AcadProxyRoundTripData
1071
      538
1071
   851991
1070
     0
  0
ACAD_PROXY_OBJECT
  5
5AB
102
{ACAD_REACTORS
330
C
102
}
330
C
100
AcDbProxyObject
 90
      499
 91
      574
 93
       74
310
0600004A400000000010
330
5B2
330
0
330
5B3
330
0
330
0
 94
        0
1001
ACAD
1000
AcadProxyRoundTripData
1071
      556
1071
   851991
1070
     0
  0
ACAD_PROXY_OBJECT
  5
541
102
{ACAD_REACTORS
330
C
102
}
330
C
100
AcDbProxyObject
 90
      499
 91
      574
 93
      168
310
4C511482000000000000000000000000000000000000
330
542
330
543
330
544
330
545
330
546
330
547
330
548
330
549
330
54A
330
54B
330
54C
330
54D
330
54E
330
54F
330
550
330
551
330
552
 94
        0
1001
ACAD
1000
AcadProxyRoundTripData
1071
      516
1071
   851991
1070
     0
  0
ACAD_PROXY_OBJECT
  5
5A2
102
{ACAD_REACTORS
330
C
102
}
330
C
100
AcDbProxyObject
 90
      499
 91
      574
 93
       88
310
9084220000000000000000F2
330
5A3
330
5A4
330
5A5
330
5A6
330
5A7
330
5A8
330
5A9
330
5AA
 94
        0
1001
ACAD
1000
AcadProxyRoundTripData
1071
      516
1071
   851991
1070
     0
  0
XRECORD
  5
5B9
102
{ACAD_REACTORS
330
C
102
}
330
C
100
AcDbXrecord
  1
DWGPROPS COOKIE
  2

  3

  4

  6

  7

  8

  9

300
AmdtFileType=84
301
=
302
=
303
=
304
=
305
=
306
=
307
=
308
=
309
=
 40
0.005163125
 41
2454596.550355717
 42
2454596.675773645
  1

 90
        1
  0
ACAD_PROXY_OBJECT
  5
58A
102
{ACAD_REACTORS
330
C
102
}
330
C
100
AcDbProxyObject
 90
      499
 91
      574
 93
        8
310
0506
 94
        0
1001
ACAD
1000
AcadProxyRoundTripData
1071
      546
1071
   851991
1070
     0
  0
ACAD_PROXY_OBJECT
  5
589
102
{ACAD_REACTORS
330
C
102
}
330
C
100
AcDbProxyObject
 90
      499
 91
      574
 93
        8
310
0406
 94
        0
1001
ACAD
1000
AcadProxyRoundTripData
1071
      545
1071
   851991
1070
     0
  0
DICTIONARY
  5
3FF
102
{ACAD_REACTORS
330
41
102
}
330
41
100
AcDbDictionary
1001
ACAD
1000
TREAT_AS_HARD
1070
     1
1000
TREAT_AS_HARD
1070
     0
1000
TREAT_AS_HARD
1070
     0
  0
DICTIONARY
  5
42
102
{ACAD_REACTORS
330
41
102
}
330
41
100
AcDbDictionary
1001
ACAD
1000
TREAT_AS_HARD
1070
     0
1000
TREAT_AS_HARD
1070
     0
1000
TREAT_AS_HARD
1070
     0
  0
XRECORD
  5
13D4
102
{ACAD_REACTORS
330
438
102
}
330
438
100
AcDbXrecord
340
1F
  0
XRECORD
  5
13D5
102
{ACAD_REACTORS
330
43A
102
}
330
43A
100
AcDbXrecord
340
23
  0
MLINESTYLE
  5
18
102
{ACAD_REACTORS
330
17
102
}
330
17
100
AcDbMlineStyle
  2
STANDARD
 70
     0
  3

 62
   256
 51
90.0
 52
90.0
 71
     2
 49
0.5
 62
   256
  6
BYLAYER
 49
-0.5
 62
   256
  6
BYLAYER
  0
ACDBPLACEHOLDER
  5
B11
102
{ACAD_REACTORS
330
B10
102
}
330
B10
100
AcDbPlaceHolder
280
     0
  0
XRECORD
  5
13BE
102
{ACAD_REACTORS
330
13B4
102
}
330
13B4
100
AcDbXrecord
 90
        0
  0
XRECORD
  5
13BF
102
{ACAD_REACTORS
330
13B4
102
}
330
13B4
100
AcDbXrecord
  1
{F9BB573E-A203-4408-8939-56EECC49D4C2}
  0
XRECORD
  5
13B7
102
{ACAD_REACTORS
330
13B4
102
}
330
13B4
100
AcDbXrecord
  1

  0
XRECORD
  5
13BD
102
{ACAD_REACTORS
330
13B4
102
}
330
13B4
100
AcDbXrecord
 90
        0
  0
XRECORD
  5
13B9
102
{ACAD_REACTORS
330
13B4
102
}
330
13B4
100
AcDbXrecord
340
1A
  0
XRECORD
  5
13BC
102
{ACAD_REACTORS
330
13B4
102
}
330
13B4
100
AcDbXrecord
 90
    10781
  0
XRECORD
  5
13BA
102
{ACAD_REACTORS
330
13B4
102
}
330
13B4
100
AcDbXrecord
340
19
  0
XRECORD
  5
13BB
102
{ACAD_REACTORS
330
13B4
102
}
330
13B4
100
AcDbXrecord
340
B10
  0
XRECORD
  5
13C1
102
{ACAD_REACTORS
330
13B4
102
}
330
13B4
100
AcDbXrecord
 40
0.0
  0
XRECORD
  5
13C4
102
{ACAD_REACTORS
330
13B4
102
}
330
13B4
100
AcDbXrecord
340
0
  0
XRECORD
  5
13CA
102
{ACAD_REACTORS
330
13B4
102
}
330
13B4
100
AcDbXrecord
 10
0.0
 20
0.0
 30
0.0
  0
XRECORD
  5
13C6
102
{ACAD_REACTORS
330
13B4
102
}
330
13B4
100
AcDbXrecord
 10
0.0
 20
0.0
 30
0.0
  0
XRECORD
  5
13C9
102
{ACAD_REACTORS
330
13B4
102
}
330
13B4
100
AcDbXrecord
 10
0.0
 20
0.0
 30
0.0
  0
XRECORD
  5
13C7
102
{ACAD_REACTORS
330
13B4
102
}
330
13B4
100
AcDbXrecord
 10
0.0
 20
0.0
 30
0.0
  0
XRECORD
  5
13C8
102
{ACAD_REACTORS
330
13B4
102
}
330
13B4
100
AcDbXrecord
 10
0.0
 20
0.0
 30
0.0
  0
XRECORD
  5
13C5
102
{ACAD_REACTORS
330
13B4
102
}
330
13B4
100
AcDbXrecord
 10
0.0
 20
0.0
 30
0.0
  0
XRECORD
  5
13C2
102
{ACAD_REACTORS
330
13B4
102
}
330
13B4
100
AcDbXrecord
340
0
  0
XRECORD
  5
13C3
102
{ACAD_REACTORS
330
13B4
102
}
330
13B4
100
AcDbXrecord
 70
     0
  0
XRECORD
  5
13B8
102
{ACAD_REACTORS
330
13B4
102
}
330
13B4
100
AcDbXrecord
  1
monochrome.ctb
  0
XRECORD
  5
13B5
102
{ACAD_REACTORS
330
13B4
102
}
330
13B4
100
AcDbXrecord
 90
        1
  0
XRECORD
  5
13B6
102
{ACAD_REACTORS
330
13B4
102
}
330
13B4
100
AcDbXrecord
 90
       70
  0
XRECORD
  5
13CD
102
{ACAD_REACTORS
330
13B4
102
}
330
13B4
100
AcDbXrecord
340
0
  0
XRECORD
  5
13D3
102
{ACAD_REACTORS
330
13B4
102
}
330
13B4
100
AcDbXrecord
 10
0.0
 20
0.0
 30
0.0
  0
XRECORD
  5
13CF
102
{ACAD_REACTORS
330
13B4
102
}
330
13B4
100
AcDbXrecord
 10
0.0
 20
0.0
 30
0.0
  0
XRECORD
  5
13D2
102
{ACAD_REACTORS
330
13B4
102
}
330
13B4
100
AcDbXrecord
 10
0.0
 20
0.0
 30
0.0
  0
XRECORD
  5
13D0
102
{ACAD_REACTORS
330
13B4
102
}
330
13B4
100
AcDbXrecord
 10
0.0
 20
0.0
 30
0.0
  0
XRECORD
  5
13D1
102
{ACAD_REACTORS
330
13B4
102
}
330
13B4
100
AcDbXrecord
 10
0.0
 20
0.0
 30
0.0
  0
XRECORD
  5
13CE
102
{ACAD_REACTORS
330
13B4
102
}
330
13B4
100
AcDbXrecord
 10
0.0
 20
0.0
 30
0.0
  0
XRECORD
  5
13CB
102
{ACAD_REACTORS
330
13B4
102
}
330
13B4
100
AcDbXrecord
340
0
  0
XRECORD
  5
13CC
102
{ACAD_REACTORS
330
13B4
102
}
330
13B4
100
AcDbXrecord
 70
     0
  0
XRECORD
  5
13C0
102
{ACAD_REACTORS
330
13B4
102
}
330
13B4
100
AcDbXrecord
  1
{F78AB398-CDBC-46B3-883D-45B8398ADE6F}
  0
DICTIONARYVAR
  5
B1A
102
{ACAD_REACTORS
330
B19
102
}
330
B19
100
DictionaryVariables
280
     0
  1
1
  0
ACAD_PROXY_OBJECT
  5
5B7
102
{ACAD_REACTORS
330
5B6
102
}
330
5B6
100
AcDbProxyObject
 90
      499
 91
      574
 93
      118
310
405010040CA904C415CD5B0757102A
350
5B8
 94
        0
1001
ACAD
1000
AcadProxyRoundTripData
1071
      563
1071
   851991
1070
     0
  0
ACAD_PROXY_OBJECT
  5
509
330
0
100
AcDbProxyObject
 90
      499
 91
      574
 93
      156
310
00010143D050D351505391D5531054925390D492
330
506
 94
        0
1001
ACAD
1000
AcadProxyRoundTripData
1071
      517
1071
   851991
1070
     0
  0
ACAD_PROXY_OBJECT
  5
50A
330
0
100
AcDbProxyObject
 90
      499
 91
      574
 93
      148
310
000101439050D351531253915054925390D490
330
506
 94
        0
1001
ACAD
1000
AcadProxyRoundTripData
1071
      517
1071
   851991
1070
     0
  0
ACAD_PROXY_OBJECT
  5
50B
330
0
100
AcDbProxyObject
 90
      499
 91
      574
 93
      156
310
000101439050D35154D6535093D314D256915082
330
506
 94
        0
1001
ACAD
1000
AcadProxyRoundTripData
1071
      518
1071
   851991
1070
     0
  0
ACAD_PROXY_OBJECT
  5
50D
330
0
100
AcDbProxyObject
 90
      499
 91
      574
 93
      120
310
000101422565255A6557080C402B00F0
330
506
330
0
330
0
 94
        0
1001
ACAD
1000
AcadProxyRoundTripData
1071
      520
1071
   851991
1070
     0
  0
ACAD_PROXY_OBJECT
  5
514
330
0
100
AcDbProxyObject
 90
      499
 91
      574
 93
      358
310
0001014124FEA55D00507362E332E302E31014124FEA55D00507362E332E302E3140501000041505391D311658
330
506
330
515
330
519
 94
        0
1001
ACAD
1000
AcadProxyRoundTripData
1071
      526
1071
   851991
1070
     0
  0
ACAD_PROXY_OBJECT
  5
515
330
0
100
AcDbProxyObject
 90
      499
 91
      574
 93
       48
310
00019014220011
330
506
330
516
 94
        0
1001
ACAD
1000
AcadProxyRoundTripData
1071
      527
1071
   851991
1070
     0
  0
ACAD_PROXY_OBJECT
  5
516
330
0
100
AcDbProxyObject
 90
      499
 91
      574
 93
       48
310
0001AA00000011
330
506
330
0
330
517
330
0
 94
        0
1001
ACAD
1000
AcadProxyRoundTripData
1071
      528
1071
   851991
1070
     0
  0
ACAD_PROXY_OBJECT
  5
517
330
0
100
AcDbProxyObject
 90
      499
 91
      574
 93
       28
310
0001AAA0
330
506
 94
        0
1001
ACAD
1000
AcadProxyRoundTripData
1071
      529
1071
   851991
1070
     0
  0
ACAD_PROXY_OBJECT
  5
51A
330
0
100
AcDbProxyObject
 90
      499
 91
      574
 93
      108
310
000101421053521310D05310D013
330
506
 94
        0
1001
ACAD
1000
AcadProxyRoundTripData
1071
      518
1071
   851991
1070
     0
  0
ACAD_PROXY_OBJECT
  5
51B
330
0
100
AcDbProxyObject
 90
      499
 91
      574
 93
      124
310
00010142905354915554D15112535013
330
506
 94
        0
1001
ACAD
1000
AcadProxyRoundTripData
1071
      518
1071
   851991
1070
     0
  0
ACAD_PROXY_OBJECT
  5
51C
330
0
100
AcDbProxyObject
 90
      499
 91
      574
 93
      132
310
00010143105354D150D51253D391125362
330
506
 94
        0
1001
ACAD
1000
AcadProxyRoundTripData
1071
      518
1071
   851991
1070
     0
  0
ACAD_PROXY_OBJECT
  5
51D
330
0
100
AcDbProxyObject
 90
      499
 91
      574
 93
      124
310
00010142905355941093D49111549014
330
506
 94
        0
1001
ACAD
1000
AcadProxyRoundTripData
1071
      518
1071
   851991
1070
     0
  0
ACAD_PROXY_OBJECT
  5
51E
330
0
100
AcDbProxyObject
 90
      499
 91
      574
 93
      116
310
0001014290535115D1D0D3D313D4A1
330
506
 94
        0
1001
ACAD
1000
AcadProxyRoundTripData
1071
      518
1071
   851991
1070
     0
  0
ACAD_PROXY_OBJECT
  5
51F
330
0
100
AcDbProxyObject
 90
      499
 91
      574
 93
      148
310
00010143505355925155D49151949154D21015
330
506
 94
        0
1001
ACAD
1000
AcadProxyRoundTripData
1071
      518
1071
   851991
1070
     0
  0
ACAD_PROXY_OBJECT
  5
520
330
0
100
AcDbProxyObject
 90
      499
 91
      574
 93
      172
310
00010144105350539393D51154149154D15495915010
330
506
 94
        0
1001
ACAD
1000
AcadProxyRoundTripData
1071
      518
1071
   851991
1070
     0
  0
ACAD_PROXY_OBJECT
  5
523
330
0
100
AcDbProxyObject
 90
      499
 91
      574
 93
      172
310
00010144105350555513D11253505494905391D15010
330
506
 94
        0
1001
ACAD
1000
AcadProxyRoundTripData
1071
      518
1071
   851991
1070
     0
  0
ACAD_PROXY_OBJECT
  5
524
330
0
100
AcDbProxyObject
 90
      499
 91
      574
 93
      124
310
00010142D05351561514915191125360
330
506
 94
        0
1001
ACAD
1000
AcadProxyRoundTripData
1071
      518
1071
   851991
1070
     0
  0
ACAD_PROXY_OBJECT
  5
525
330
0
100
AcDbProxyObject
 90
      499
 91
      574
 93
      132
310
00010142D05355105410539393D5115013
330
506
 94
        0
1001
ACAD
1000
AcadProxyRoundTripData
1071
      518
1071
   851991
1070
     0
  0
ACAD_PROXY_OBJECT
  5
526
330
0
100
AcDbProxyObject
 90
      499
 91
      574
 93
      108
310
00010142105350555513D0D31013
330
506
 94
        0
1001
ACAD
1000
AcadProxyRoundTripData
1071
      518
1071
   851991
1070
     0
  0
ACAD_PROXY_OBJECT
  5
527
330
0
100
AcDbProxyObject
 90
      499
 91
      574
 93
      108
310
00010142105350D3119150551053
330
506
 94
        0
1001
ACAD
1000
AcadProxyRoundTripData
1071
      518
1071
   851991
1070
     0
  0
ACAD_PROXY_OBJECT
  5
528
330
0
100
AcDbProxyObject
 90
      499
 91
      574
 93
      108
310
00010142105350D315925155D3F3
330
506
 94
        0
1001
ACAD
1000
AcadProxyRoundTripData
1071
      518
1071
   851991
1070
     0
  0
ACAD_PROXY_OBJECT
  5
529
330
0
100
AcDbProxyObject
 90
      499
 91
      574
 93
      148
310
0001014350535212511156915493D112535010
330
506
 94
        0
1001
ACAD
1000
AcadProxyRoundTripData
1071
      518
1071
   851991
1070
     0
  0
ACAD_PROXY_OBJECT
  5
52A
330
0
100
AcDbProxyObject
 90
      499
 91
      574
 93
      124
310
00010142905352105510D21254D3D013
330
506
 94
        0
1001
ACAD
1000
AcadProxyRoundTripData
1071
      518
1071
   851991
1070
     0
  0
ACAD_PROXY_OBJECT
  5
52B
330
0
100
AcDbProxyObject
 90
      499
 91
      574
 93
      148
310
00010143905354D25391D31152105513105660
330
506
 94
        0
1001
ACAD
1000
AcadProxyRoundTripData
1071
      518
1071
   851991
1070
     0
  0
ACAD_PROXY_OBJECT
  5
52C
330
0
100
AcDbProxyObject
 90
      499
 91
      574
 93
      124
310
00010142D0535115D1D193111254D424
330
506
 94
        0
1001
ACAD
1000
AcadProxyRoundTripData
1071
      518
1071
   851991
1070
     0
  0
ACAD_PROXY_OBJECT
  5
52D
330
0
100
AcDbProxyObject
 90
      499
 91
      574
 93
      100
310
00010142105350555513D213A5
330
506
 94
        0
1001
ACAD
1000
AcadProxyRoundTripData
1071
      518
1071
   851991
1070
     0
  0
ACAD_PROXY_OBJECT
  5
52E
330
0
100
AcDbProxyObject
 90
      499
 91
      574
 93
      116
310
000101425053521390D3D553951013
330
506
 94
        0
1001
ACAD
1000
AcadProxyRoundTripData
1071
      518
1071
   851991
1070
     0
  0
ACAD_PROXY_OBJECT
  5
52F
330
0
100
AcDbProxyObject
 90
      499
 91
      574
 93
      108
310
0001014210535213941493D29010
330
506
 94
        0
1001
ACAD
1000
AcadProxyRoundTripData
1071
      518
1071
   851991
1070
     0
  0
ACAD_PROXY_OBJECT
  5
530
330
0
100
AcDbProxyObject
 90
      499
 91
      574
 93
      108
310
0001014210535213951654115070
330
506
 94
        0
1001
ACAD
1000
AcadProxyRoundTripData
1071
      518
1071
   851991
1070
     0
  0
ACAD_PROXY_OBJECT
  5
531
330
0
100
AcDbProxyObject
 90
      499
 91
      574
 93
      108
310
000101421053521395925155D0F0
330
506
 94
        0
1001
ACAD
1000
AcadProxyRoundTripData
1071
      518
1071
   851991
1070
     0
  0
ACAD_PROXY_OBJECT
  5
532
330
0
100
AcDbProxyObject
 90
      499
 91
      574
 93
      140
310
00010143505354D150D51253D390D3D41665
330
506
 94
        0
1001
ACAD
1000
AcadProxyRoundTripData
1071
      518
1071
   851991
1070
     0
  0
ACAD_PROXY_OBJECT
  5
533
330
0
100
AcDbProxyObject
 90
      499
 91
      574
 93
      108
310
00010142105350D3141493D29030
330
506
 94
        0
1001
ACAD
1000
AcadProxyRoundTripData
1071
      518
1071
   851991
1070
     0
  0
ACAD_PROXY_OBJECT
  5
534
330
0
100
AcDbProxyObject
 90
      499
 91
      574
 93
      212
310
00010143905350555513D2105510D21493D500000000000002E400
330
506
 94
        0
1001
ACAD
1000
AcadProxyRoundTripData
1071
      517
1071
   851991
1070
     0
  0
ACAD_PROXY_OBJECT
  5
535
330
0
100
AcDbProxyObject
 90
      499
 91
      574
 93
      156
310
00010143905350555513D2105510D21111551010
330
506
 94
        0
1001
ACAD
1000
AcadProxyRoundTripData
1071
      518
1071
   851991
1070
     0
  0
ACAD_PROXY_OBJECT
  5
542
330
0
100
AcDbProxyObject
 90
      499
 91
      574
 93
      116
310
000101425053541051D15311539191
330
506
 94
        0
1001
ACAD
1000
AcadProxyRoundTripData
1071
      518
1071
   851991
1070
     0
  0
ACAD_PROXY_OBJECT
  5
543
330
0
100
AcDbProxyObject
 90
      499
 91
      574
 93
      108
310
000101421053555312539154D053
330
506
 94
        0
1001
ACAD
1000
AcadProxyRoundTripData
1071
      518
1071
   851991
1070
     0
  0
ACAD_PROXY_OBJECT
  5
544
330
0
100
AcDbProxyObject
 90
      499
 91
      574
 93
      108
310
000101421053559312539154D033
330
506
 94
        0
1001
ACAD
1000
AcadProxyRoundTripData
1071
      518
1071
   851991
1070
     0
  0
ACAD_PROXY_OBJECT
  5
545
330
0
100
AcDbProxyObject
 90
      499
 91
      574
 93
      140
310
00010143105354D1911254D41353D111501A
330
506
 94
        0
1001
ACAD
1000
AcadProxyRoundTripData
1071
      518
1071
   851991
1070
     0
  0
ACAD_PROXY_OBJECT
  5
546
330
0
100
AcDbProxyObject
 90
      499
 91
      574
 93
      172
310
00010142505354119255105391C1C052DC9A6F104403
330
506
 94
        0
1001
ACAD
1000
AcadProxyRoundTripData
1071
      517
1071
   851991
1070
     0
  0
ACAD_PROXY_OBJECT
  5
547
330
0
100
AcDbProxyObject
 90
      499
 91
      574
 93
      164
310
000101421053559150D05551C000000000000E03F8
330
506
 94
        0
1001
ACAD
1000
AcadProxyRoundTripData
1071
      517
1071
   851991
1070
     0
  0
ACAD_PROXY_OBJECT
  5
548
330
0
100
AcDbProxyObject
 90
      499
 91
      574
 93
      180
310
00010142905350931153911513D307B14AE47E17A843F3
330
506
 94
        0
1001
ACAD
1000
AcadProxyRoundTripData
1071
      517
1071
   851991
1070
     0
  0
ACAD_PROXY_OBJECT
  5
549
330
0
100
AcDbProxyObject
 90
      499
 91
      574
 93
      172
310
0001014250535293D25391D05407B14AE47E17A843F8
330
506
 94
        0
1001
ACAD
1000
AcadProxyRoundTripData
1071
      517
1071
   851991
1070
     0
  0
ACAD_PROXY_OBJECT
  5
54A
330
0
100
AcDbProxyObject
 90
      499
 91
      574
 93
      172
310
000101425053541192551311538000000FC83D797418
330
506
 94
        0
1001
ACAD
1000
AcadProxyRoundTripData
1071
      517
1071
   851991
1070
     0
  0
ACAD_PROXY_OBJECT
  5
54B
330
0
100
AcDbProxyObject
 90
      499
 91
      574
 93
      156
310
00010141D053559150D4D18000000000000E03F8
330
506
 94
        0
1001
ACAD
1000
AcadProxyRoundTripData
1071
      517
1071
   851991
1070
     0
  0
ACAD_PROXY_OBJECT
  5
54C
330
0
100
AcDbProxyObject
 90
      499
 91
      574
 93
      156
310
00010141D05354D19513D309A9999999999993F8
330
506
 94
        0
1001
ACAD
1000
AcadProxyRoundTripData
1071
      517
1071
   851991
1070
     0
  0
ACAD_PROXY_OBJECT
  5
54D
330
0
100
AcDbProxyObject
 90
      499
 91
      574
 93
      172
310
000101425053541192551513D307B14AE47E17A843F8
330
506
 94
        0
1001
ACAD
1000
AcadProxyRoundTripData
1071
      517
1071
   851991
1070
     0
  0
ACAD_PROXY_OBJECT
  5
54E
330
0
100
AcDbProxyObject
 90
      499
 91
      574
 93
      188
310
00010142D05354D151D192551513D307B14AE47E17A843F0
330
506
 94
        0
1001
ACAD
1000
AcadProxyRoundTripData
1071
      517
1071
   851991
1070
     0
  0
ACAD_PROXY_OBJECT
  5
54F
330
0
100
AcDbProxyObject
 90
      499
 91
      574
 93
      148
310
000101419053541311538000000FC83D79741F
330
506
 94
        0
1001
ACAD
1000
AcadProxyRoundTripData
1071
      517
1071
   851991
1070
     0
  0
ACAD_PROXY_OBJECT
  5
550
330
0
100
AcDbProxyObject
 90
      499
 91
      574
 93
      172
310
00010142505354105391D513D301C052DC9A6F104402
330
506
 94
        0
1001
ACAD
1000
AcadProxyRoundTripData
1071
      517
1071
   851991
1070
     0
  0
ACAD_PROXY_OBJECT
  5
551
330
0
100
AcDbProxyObject
 90
      499
 91
      574
 93
      132
310
0001014114D25691400000000000024404
330
506
 94
        0
1001
ACAD
1000
AcadProxyRoundTripData
1071
      517
1071
   851991
1070
     0
  0
ACAD_PROXY_OBJECT
  5
552
330
0
100
AcDbProxyObject
 90
      499
 91
      574
 93
      156
310
00010142905351D4941491519256005034153470
330
506
 94
        0
1001
ACAD
1000
AcadProxyRoundTripData
1071
      539
1071
   851991
1070
     0
  0
ACAD_PROXY_OBJECT
  5
553
330
0
100
AcDbProxyObject
 90
      499
 91
      574
 93
      314
310
00014080509646973745363616C650000000000003C2FC000000000000F0BF0000003F20F5E5D050
330
506
 94
        0
1001
ACAD
1000
AcadProxyRoundTripData
1071
      540
1071
   851991
1070
     0
  0
ACAD_PROXY_OBJECT
  5
554
330
0
100
AcDbProxyObject
 90
      499
 91
      574
 93
      322
310
0001408050A65646175526F74617465060B51153EC87E4FC182D4454FB2119C0060B51153EC8465004
330
506
 94
        0
1001
ACAD
1000
AcadProxyRoundTripData
1071
      540
1071
   851991
1070
     0
  0
ACAD_PROXY_OBJECT
  5
555
330
0
100
AcDbProxyObject
 90
      499
 91
      574
 93
      314
310
00014080509656461755477697374060B51153EC846500000000FC83D797C10000003F20F5E5D050
330
506
 94
        0
1001
ACAD
1000
AcadProxyRoundTripData
1071
      540
1071
   851991
1070
     0
  0
ACAD_PROXY_OBJECT
  5
556
330
0
100
AcDbProxyObject
 90
      499
 91
      574
 93
      294
310
000140C050A656467654F75747075740144F3B7F635ECB74A140A4817D41BDB1E5B1A5B994
330
506
 94
        0
1001
ACAD
1000
AcadProxyRoundTripData
1071
      541
1071
   851991
1070
     0
  0
ACAD_PROXY_OBJECT
  5
557
330
0
100
AcDbProxyObject
 90
      499
 91
      574
 93
      154
310
0001404050B65646974507265766965774064040
330
506
 94
        0
1001
ACAD
1000
AcadProxyRoundTripData
1071
      542
1071
   851991
1070
     0
  0
ACAD_PROXY_OBJECT
  5
558
330
0
100
AcDbProxyObject
 90
      499
 91
      574
 93
      170
310
0001404050A666C6F77556C696E657342A3A00C00003
330
506
 94
        0
1001
ACAD
1000
AcadProxyRoundTripData
1071
      542
1071
   851991
1070
     0
  0
ACAD_PROXY_OBJECT
  5
559
330
0
100
AcDbProxyObject
 90
      499
 91
      574
 93
      170
310
0001404050A666C6F77566C696E657342A3A00C00003
330
506
 94
        0
1001
ACAD
1000
AcadProxyRoundTripData
1071
      542
1071
   851991
1070
     0
  0
ACAD_PROXY_OBJECT
  5
55A
330
0
100
AcDbProxyObject
 90
      499
 91
      574
 93
      322
310
0001408050A666C7366456E645261640000000000003C2FC000000000000F0BF0000003F20F5E5D044
330
506
 94
        0
1001
ACAD
1000
AcadProxyRoundTripData
1071
      540
1071
   851991
1070
     0
  0
ACAD_PROXY_OBJECT
  5
55B
330
0
100
AcDbProxyObject
 90
      499
 91
      574
 93
      246
310
000140C05086A6E33644D6F64650143E3BA24EB8A134A4817D3585B9D585B1
330
506
 94
        0
1001
ACAD
1000
AcadProxyRoundTripData
1071
      541
1071
   851991
1070
     0
  0
ACAD_PROXY_OBJECT
  5
55C
330
0
100
AcDbProxyObject
 90
      499
 91
      574
 93
      294
310
000140C050A6A6E33644F75747075740144F3B7F635ECB74A140A4817D41BDB1E5B1A5B995
330
506
 94
        0
1001
ACAD
1000
AcadProxyRoundTripData
1071
      541
1071
   851991
1070
     0
  0
ACAD_PROXY_OBJECT
  5
55D
330
0
100
AcDbProxyObject
 90
      499
 91
      574
 93
      306
310
000140805086C656E675065726300000000002016D002D431CEBE2361A3F0000003F20F5E5D046
330
506
 94
        0
1001
ACAD
1000
AcadProxyRoundTripData
1071
      540
1071
   851991
1070
     0
  0
ACAD_PROXY_OBJECT
  5
55E
330
0
100
AcDbProxyObject
 90
      499
 91
      574
 93
      266
310
0001408050B6D61737344656E7369747942D431CEBE2361A3F0000003F20F5E5D04B
330
506
 94
        0
1001
ACAD
1000
AcadProxyRoundTripData
1071
      540
1071
   851991
1070
     0
  0
ACAD_PROXY_OBJECT
  5
55F
330
0
100
AcDbProxyObject
 90
      499
 91
      574
 93
      186
310
000140805096D617373546869636BA0000003F20F5E5D07D
330
506
 94
        0
1001
ACAD
1000
AcadProxyRoundTripData
1071
      540
1071
   851991
1070
     0
  0
ACAD_PROXY_OBJECT
  5
560
330
0
100
AcDbProxyObject
 90
      499
 91
      574
 93
      230
310
000140C05086D6173735479706501436F2AB64A14CA4817D4DA195B1B1
330
506
 94
        0
1001
ACAD
1000
AcadProxyRoundTripData
1071
      541
1071
   851991
1070
     0
  0
ACAD_PROXY_OBJECT
  5
561
330
0
100
AcDbProxyObject
 90
      499
 91
      574
 93
      242
310
000140805086F667366446973744000000FC83D797C10000003F20F5E5D065
330
506
 94
        0
1001
ACAD
1000
AcadProxyRoundTripData
1071
      540
1071
   851991
1070
     0
  0
ACAD_PROXY_OBJECT
  5
562
330
0
100
AcDbProxyObject
 90
      499
 91
      574
 93
      258
310
0001408050A7072696D52616469757342D431CEBE2361A3F0000003F20F5E5D050
330
506
 94
        0
1001
ACAD
1000
AcadProxyRoundTripData
1071
      540
1071
   851991
1070
     0
  0
ACAD_PROXY_OBJECT
  5
563
330
0
100
AcDbProxyObject
 90
      499
 91
      574
 93
      194
310
0001408050A7072696D546F70526164A0000003F20F5E5D07F
330
506
 94
        0
1001
ACAD
1000
AcadProxyRoundTripData
1071
      540
1071
   851991
1070
     0
  0
ACAD_PROXY_OBJECT
  5
564
330
0
100
AcDbProxyObject
 90
      499
 91
      574
 93
      266
310
0001408050B7072696D5475626552616442D431CEBE2361A3F0000003F20F5E5D04B
330
506
 94
        0
1001
ACAD
1000
AcadProxyRoundTripData
1071
      540
1071
   851991
1070
     0
  0
ACAD_PROXY_OBJECT
  5
565
330
0
100
AcDbProxyObject
 90
      499
 91
      574
 93
      258
310
0001408050A7072696D4865696768744000000FC83D797C10000003F20F5E5D046
330
506
 94
        0
1001
ACAD
1000
AcadProxyRoundTripData
1071
      540
1071
   851991
1070
     0
  0
ACAD_PROXY_OBJECT
  5
566
330
0
100
AcDbProxyObject
 90
      499
 91
      574
 93
      250
310
000140805097072696D5374416E678182D4454FB2119C0060B51153EC8465000
330
506
 94
        0
1001
ACAD
1000
AcadProxyRoundTripData
1071
      540
1071
   851991
1070
     0
  0
ACAD_PROXY_OBJECT
  5
567
330
0
100
AcDbProxyObject
 90
      499
 91
      574
 93
      322
310
0001408050A7072696D456E64416E67060B51153EC846500182D4454FB2119C0060B51153EC8465004
330
506
 94
        0
1001
ACAD
1000
AcadProxyRoundTripData
1071
      540
1071
   851991
1070
     0
  0
ACAD_PROXY_OBJECT
  5
568
330
0
100
AcDbProxyObject
 90
      499
 91
      574
 93
      242
310
000140805087265765374416E678182D4454FB2119C0060B51153EC8465000
330
506
 94
        0
1001
ACAD
1000
AcadProxyRoundTripData
1071
      540
1071
   851991
1070
     0
  0
ACAD_PROXY_OBJECT
  5
569
330
0
100
AcDbProxyObject
 90
      499
 91
      574
 93
      314
310
00014080509726576456E64416E67060B51153EC846500182D4454FB2119C0060B51153EC8465021
330
506
 94
        0
1001
ACAD
1000
AcadProxyRoundTripData
1071
      540
1071
   851991
1070
     0
  0
ACAD_PROXY_OBJECT
  5
56A
330
0
100
AcDbProxyObject
 90
      499
 91
      574
 93
      194
310
0001404050C7266736655706174636865734290139C0C0003D
330
506
 94
        0
1001
ACAD
1000
AcadProxyRoundTripData
1071
      542
1071
   851991
1070
     0
  0
ACAD_PROXY_OBJECT
  5
56B
330
0
100
AcDbProxyObject
 90
      499
 91
      574
 93
      194
310
0001404050C7266736656706174636865734290139C0C0003D
330
506
 94
        0
1001
ACAD
1000
AcadProxyRoundTripData
1071
      542
1071
   851991
1070
     0
  0
ACAD_PROXY_OBJECT
  5
56C
330
0
100
AcDbProxyObject
 90
      499
 91
      574
 93
      246
310
000140C0508747562654D6F64650143E3BA24EB8A134A4817D3585B9D585B0
330
506
 94
        0
1001
ACAD
1000
AcadProxyRoundTripData
1071
      541
1071
   851991
1070
     0
  0
ACAD_PROXY_OBJECT
  5
56D
330
0
100
AcDbProxyObject
 90
      499
 91
      574
 93
      274
310
0001408050C747562654469616D6574657242D431CEBE2361A3F0000003F20F5E5D071
330
506
 94
        0
1001
ACAD
1000
AcadProxyRoundTripData
1071
      540
1071
   851991
1070
     0
  0
ACAD_PROXY_OBJECT
  5
56E
330
0
100
AcDbProxyObject
 90
      499
 91
      574
 93
      130
310
00014040509696E746572506F6C79A4056
330
506
 94
        0
1001
ACAD
1000
AcadProxyRoundTripData
1071
      542
1071
   851991
1070
     0
  0
ACAD_PROXY_OBJECT
  5
56F
330
0
100
AcDbProxyObject
 90
      499
 91
      574
 93
      162
310
0001404050D696E746572417567506F696E74A406C
330
506
 94
        0
1001
ACAD
1000
AcadProxyRoundTripData
1071
      542
1071
   851991
1070
     0
  0
ACAD_PROXY_OBJECT
  5
570
330
0
100
AcDbProxyObject
 90
      499
 91
      574
 93
      238
310
000140C0509696E7465727472696D014365EF257ECA108A4817D09BDD1A1
330
506
 94
        0
1001
ACAD
1000
AcadProxyRoundTripData
1071
      541
1071
   851991
1070
     0
  0
ACAD_PROXY_OBJECT
  5
571
330
0
100
AcDbProxyObject
 90
      499
 91
      574
 93
      230
310
000140C0509696E7465727479706501433136344A150A4817D51C9A5B5
330
506
 94
        0
1001
ACAD
1000
AcadProxyRoundTripData
1071
      541
1071
   851991
1070
     0
  0
ACAD_PROXY_OBJECT
  5
572
330
0
100
AcDbProxyObject
 90
      499
 91
      574
 93
      146
310
0001404050A636F726E65727472696D4064060
330
506
 94
        0
1001
ACAD
1000
AcadProxyRoundTripData
1071
      542
1071
   851991
1070
     0
  0
ACAD_PROXY_OBJECT
  5
573
330
0
100
AcDbProxyObject
 90
      499
 91
      574
 93
      130
310
000140405086F6673666B656570406404A
330
506
 94
        0
1001
ACAD
1000
AcadProxyRoundTripData
1071
      542
1071
   851991
1070
     0
  0
ACAD_PROXY_OBJECT
  5
574
330
0
100
AcDbProxyObject
 90
      499
 91
      574
 93
      146
310
0001404050A70726F6A4F757470757440A40E0
330
506
 94
        0
1001
ACAD
1000
AcadProxyRoundTripData
1071
      542
1071
   851991
1070
     0
  0
ACAD_PROXY_OBJECT
  5
575
330
0
100
AcDbProxyObject
 90
      499
 91
      574
 93
      270
310
000140C050D70726F6A446972656374696F6E014372F7AB6C0A124A4817DD92595DD
330
506
 94
        0
1001
ACAD
1000
AcadProxyRoundTripData
1071
      541
1071
   851991
1070
     0
  0
ACAD_PROXY_OBJECT
  5
576
330
0
100
AcDbProxyObject
 90
      499
 91
      574
 93
      130
310
0001404050870726F6A4B6565704064070
330
506
 94
        0
1001
ACAD
1000
AcadProxyRoundTripData
1071
      542
1071
   851991
1070
     0
  0
ACAD_PROXY_OBJECT
  5
577
330
0
100
AcDbProxyObject
 90
      499
 91
      574
 93
      278
310
000140C050B70726F6A53706163696E670144237164D2CA13CA4817D3DC1D1A5B585B1
330
506
 94
        0
1001
ACAD
1000
AcadProxyRoundTripData
1071
      541
1071
   851991
1070
     0
  0
ACAD_PROXY_OBJECT
  5
578
330
0
100
AcDbProxyObject
 90
      499
 91
      574
 93
      250
310
0001408050970726F6A54617065728182D4454FB21F9BF060B51153EC87E4FFD
330
506
 94
        0
1001
ACAD
1000
AcadProxyRoundTripData
1071
      540
1071
   851991
1070
     0
  0
ACAD_PROXY_OBJECT
  5
579
330
0
100
AcDbProxyObject
 90
      499
 91
      574
 93
      130
310
00014040508647261674B6565704064057
330
506
 94
        0
1001
ACAD
1000
AcadProxyRoundTripData
1071
      542
1071
   851991
1070
     0
  0
ACAD_PROXY_OBJECT
  5
57A
330
0
100
AcDbProxyObject
 90
      499
 91
      574
 93
      302
310
000140C050F647261674F7269656E746174696F6E0143E590243F0A138A4817D39BDC9B585B1
330
506
 94
        0
1001
ACAD
1000
AcadProxyRoundTripData
1071
      541
1071
   851991
1070
     0
  0
ACAD_PROXY_OBJECT
  5
57B
330
0
100
AcDbProxyObject
 90
      499
 91
      574
 93
      286
310
000140C050E647261675472616E736974696F6E0143A3B6A4DE0A10CA4817DCD0D85B195
330
506
 94
        0
1001
ACAD
1000
AcadProxyRoundTripData
1071
      541
1071
   851991
1070
     0
  0
ACAD_PROXY_OBJECT
  5
57C
330
0
100
AcDbProxyObject
 90
      499
 91
      574
 93
      318
310
000140C051061646A757374436F6E74696E7569747901442F746C2F778A14CA4817D4DB5BDBDD1A1
330
506
 94
        0
1001
ACAD
1000
AcadProxyRoundTripData
1071
      541
1071
   851991
1070
     0
  0
ACAD_PROXY_OBJECT
  5
57D
330
0
100
AcDbProxyObject
 90
      499
 91
      574
 93
      138
310
0001404050A61646A7573744B656570A405C
330
506
 94
        0
1001
ACAD
1000
AcadProxyRoundTripData
1071
      542
1071
   851991
1070
     0
  0
ACAD_PROXY_OBJECT
  5
57E
330
0
100
AcDbProxyObject
 90
      499
 91
      574
 93
      250
310
0001408050972756C65576964746842D431CEBE2361A3F0000003F20F5E5D048
330
506
 94
        0
1001
ACAD
1000
AcadProxyRoundTripData
1071
      540
1071
   851991
1070
     0
  0
ACAD_PROXY_OBJECT
  5
57F
330
0
100
AcDbProxyObject
 90
      499
 91
      574
 93
      274
310
0001408050C616E616C797A65447261667421D139D28615ED8FE060B51153EC8425003
330
506
 94
        0
1001
ACAD
1000
AcadProxyRoundTripData
1071
      540
1071
   851991
1070
     0
  0
ACAD_PROXY_OBJECT
  5
580
330
0
100
AcDbProxyObject
 90
      499
 91
      574
 93
      210
310
0001404050F616E616C797A654E756D4C696E65734163FDFC00026
330
506
 94
        0
1001
ACAD
1000
AcadProxyRoundTripData
1071
      542
1071
   851991
1070
     0
  0
ACAD_PROXY_OBJECT
  5
581
330
0
100
AcDbProxyObject
 90
      499
 91
      574
 93
      202
310
00014040512616E616C797A65526F746174654C696E6573A4040
330
506
 94
        0
1001
ACAD
1000
AcadProxyRoundTripData
1071
      542
1071
   851991
1070
     0
  0
ACAD_PROXY_OBJECT
  5
582
330
0
100
AcDbProxyObject
 90
      499
 91
      574
 93
      210
310
00014040513616E616C797A65446973706C61794C696E6573A4066
330
506
 94
        0
1001
ACAD
1000
AcadProxyRoundTripData
1071
      542
1071
   851991
1070
     0
  0
ACAD_PROXY_OBJECT
  5
583
330
0
100
AcDbProxyObject
 90
      499
 91
      574
 93
      258
310
00014040519616E616C797A655472616E736C7563656E7453757266616365A4043
330
506
 94
        0
1001
ACAD
1000
AcadProxyRoundTripData
1071
      542
1071
   851991
1070
     0
  0
ACAD_PROXY_OBJECT
  5
58C
330
0
100
AcDbProxyObject
 90
      499
 91
      574
 93
      698
310
0001000000009AA6A9AA4051E4D6F6E204F63742031332030303A33373A353920323030382028555443290141CD8B8D0B8C0B8C405184D6F6E204F63742031332030393A34313A333120323030380141CD8B8D0B8C0B8C4A
330
506
330
58D
330
58E
330
590
330
0
 94
        0
1001
ACAD
1000
AcadProxyRoundTripData
1071
      548
1071
   851991
1070
     0
  0
ACAD_PROXY_OBJECT
  5
58D
330
0
100
AcDbProxyObject
 90
      499
 91
      574
 93
       70
310
0001AAA80820000000
330
506
330
58D
330
58D
 94
        0
1001
ACAD
1000
AcadProxyRoundTripData
1071
      549
1071
   851991
1070
     0
  0
ACAD_PROXY_OBJECT
  5
58E
330
0
100
AcDbProxyObject
 90
      499
 91
      574
 93
       48
310
00010000000011
330
506
330
0
330
58F
330
0
330
0
 94
        0
1001
ACAD
1000
AcadProxyRoundTripData
1071
      550
1071
   851991
1070
     0
  0
ACAD_PROXY_OBJECT
  5
58F
330
0
100
AcDbProxyObject
 90
      499
 91
      574
 93
       40
310
000100AAAA00
330
506
330
0
 94
        0
1001
ACAD
1000
AcadProxyRoundTripData
1071
      551
1071
   851991
1070
     0
  0
ACAD_PROXY_OBJECT
  5
591
330
0
100
AcDbProxyObject
 90
      499
 91
      574
 93
      124
310
00010142905350D3D39114D414D69051
330
506
 94
        0
1001
ACAD
1000
AcadProxyRoundTripData
1071
      518
1071
   851991
1070
     0
  0
ACAD_PROXY_OBJECT
  5
592
330
0
100
AcDbProxyObject
 90
      499
 91
      574
 93
      124
310
000101429053549553115353D1115011
330
506
 94
        0
1001
ACAD
1000
AcadProxyRoundTripData
1071
      518
1071
   851991
1070
     0
  0
ACAD_PROXY_OBJECT
  5
593
330
0
100
AcDbProxyObject
 90
      499
 91
      574
 93
      108
310
00010142105354D2D353D1115013
330
506
 94
        0
1001
ACAD
1000
AcadProxyRoundTripData
1071
      518
1071
   851991
1070
     0
  0
ACAD_PROXY_OBJECT
  5
594
330
0
100
AcDbProxyObject
 90
      499
 91
      574
 93
      140
310
000101435053511253511254D41353D11160
330
506
 94
        0
1001
ACAD
1000
AcadProxyRoundTripData
1071
      518
1071
   851991
1070
     0
  0
ACAD_PROXY_OBJECT
  5
595
330
0
100
AcDbProxyObject
 90
      499
 91
      574
 93
      180
310
00010142905354D2D05391D513D300000000000001040C
330
506
 94
        0
1001
ACAD
1000
AcadProxyRoundTripData
1071
      517
1071
   851991
1070
     0
  0
ACAD_PROXY_OBJECT
  5
596
330
0
100
AcDbProxyObject
 90
      499
 91
      574
 93
      164
310
00010142505354D2D4D516531140505434F4E542AB
330
506
 94
        0
1001
ACAD
1000
AcadProxyRoundTripData
1071
      539
1071
   851991
1070
     0
  0
ACAD_PROXY_OBJECT
  5
597
330
0
100
AcDbProxyObject
 90
      499
 91
      574
 93
      108
310
00010142105350D3511112535016
330
506
 94
        0
1001
ACAD
1000
AcadProxyRoundTripData
1071
      518
1071
   851991
1070
     0
  0
ACAD_PROXY_OBJECT
  5
598
330
0
100
AcDbProxyObject
 90
      499
 91
      574
 93
      108
310
00010142105350D3D35414D59016
330
506
 94
        0
1001
ACAD
1000
AcadProxyRoundTripData
1071
      518
1071
   851991
1070
     0
  0
ACAD_PROXY_OBJECT
  5
599
330
0
100
AcDbProxyObject
 90
      499
 91
      574
 93
      164
310
0001014290535410549514D4119600504CADFB0C2B
330
506
 94
        0
1001
ACAD
1000
AcadProxyRoundTripData
1071
      539
1071
   851991
1070
     0
  0
ACAD_PROXY_OBJECT
  5
59A
330
0
100
AcDbProxyObject
 90
      499
 91
      574
 93
      220
310
0001014350535513D3D31093D11654119600508C2B0D9CEDEC3DEA83
330
506
 94
        0
1001
ACAD
1000
AcadProxyRoundTripData
1071
      539
1071
   851991
1070
     0
  0
ACAD_PROXY_OBJECT
  5
59B
330
0
100
AcDbProxyObject
 90
      499
 91
      574
 93
      116
310
000101425053511254D410D3D39011
330
506
 94
        0
1001
ACAD
1000
AcadProxyRoundTripData
1071
      518
1071
   851991
1070
     0
  0
ACAD_PROXY_OBJECT
  5
59C
330
0
100
AcDbProxyObject
 90
      499
 91
      574
 93
      108
310
00010142105350D3D39114D41016
330
506
 94
        0
1001
ACAD
1000
AcadProxyRoundTripData
1071
      518
1071
   851991
1070
     0
  0
ACAD_PROXY_OBJECT
  5
59D
330
0
100
AcDbProxyObject
 90
      499
 91
      574
 93
      124
310
0001014290535490511114D414D69190
330
506
 94
        0
1001
ACAD
1000
AcadProxyRoundTripData
1071
      518
1071
   851991
1070
     0
  0
ACAD_PROXY_OBJECT
  5
5A3
330
0
100
AcDbProxyObject
 90
      499
 91
      574
 93
      132
310
00010142D05050555513D4D3D315915013
330
506
 94
        0
1001
ACAD
1000
AcadProxyRoundTripData
1071
      518
1071
   851991
1070
     0
  0
ACAD_PROXY_OBJECT
  5
5A4
330
0
100
AcDbProxyObject
 90
      499
 91
      574
 93
      156
310
00010143905050555513D054D4D1535093115015
330
506
 94
        0
1001
ACAD
1000
AcadProxyRoundTripData
1071
      518
1071
   851991
1070
     0
  0
ACAD_PROXY_OBJECT
  5
5A5
330
0
100
AcDbProxyObject
 90
      499
 91
      574
 93
      148
310
00010143505055925155D49154D513D4915015
330
506
 94
        0
1001
ACAD
1000
AcadProxyRoundTripData
1071
      518
1071
   851991
1070
     0
  0
ACAD_PROXY_OBJECT
  5
5A6
330
0
100
AcDbProxyObject
 90
      499
 91
      574
 93
      124
310
00010142D050525394D15495105094E5
330
506
 94
        0
1001
ACAD
1000
AcadProxyRoundTripData
1071
      518
1071
   851991
1070
     0
  0
ACAD_PROXY_OBJECT
  5
5A7
330
0
100
AcDbProxyObject
 90
      499
 91
      574
 93
      148
310
00010143505054D0D153915554111055115015
330
506
 94
        0
1001
ACAD
1000
AcadProxyRoundTripData
1071
      518
1071
   851991
1070
     0
  0
ACAD_PROXY_OBJECT
  5
5A8
330
0
100
AcDbProxyObject
 90
      499
 91
      574
 93
      172
310
00010143105054D5509054D4D3541196005035355425
330
506
 94
        0
1001
ACAD
1000
AcadProxyRoundTripData
1071
      539
1071
   851991
1070
     0
  0
ACAD_PROXY_OBJECT
  5
5A9
330
0
100
AcDbProxyObject
 90
      499
 91
      574
 93
      172
310
00010142905054D0D15391541196005055343454E455
330
506
 94
        0
1001
ACAD
1000
AcadProxyRoundTripData
1071
      539
1071
   851991
1070
     0
  0
ACAD_PROXY_OBJECT
  5
5AA
330
0
100
AcDbProxyObject
 90
      499
 91
      574
 93
      148
310
00010143505350555513D313D0D2D4D0D39016
330
506
 94
        0
1001
ACAD
1000
AcadProxyRoundTripData
1071
      518
1071
   851991
1070
     0
  0
ACAD_PROXY_OBJECT
  5
5AF
330
0
100
AcDbProxyObject
 90
      499
 91
      574
 93
       32
310
0001000075
330
506
340
5AC
330
5B1
330
5AC
 94
        0
1001
ACAD
1000
AcadProxyRoundTripData
1071
      557
1071
   851991
1070
     0
  0
ACAD_PROXY_OBJECT
  5
5B0
330
0
100
AcDbProxyObject
 90
      499
 91
      574
 93
       18
310
000188
330
506
 94
        0
1001
ACAD
1000
AcadProxyRoundTripData
1071
      558
1071
   851991
1070
     0
  0
ACAD_PROXY_OBJECT
  5
5B1
330
0
100
AcDbProxyObject
 90
      499
 91
      574
 93
      111
310
0001014150D5930C0D5050055400
330
506
330
5AF
330
5B0
 94
        0
1001
ACAD
1000
AcadProxyRoundTripData
1071
      559
1071
   851991
1070
     0
  0
ACAD_PROXY_OBJECT
  5
5B2
330
0
100
AcDbProxyObject
 90
      499
 91
      574
 93
       40
310
000100AAAA41
330
506
330
5B1
 94
        0
1001
ACAD
1000
AcadProxyRoundTripData
1071
      560
1071
   851991
1070
     0
  0
ACAD_PROXY_OBJECT
  5
5B3
330
0
100
AcDbProxyObject
 90
      499
 91
      574
 93
      108
310
0001901422000000000000AAAAA0
330
506
330
5B4
330
5B4
330
5B4
330
5B4
330
5B4
330
0
 94
        0
1001
ACAD
1000
AcadProxyRoundTripData
1071
      561
1071
   851991
1070
     0
  0
ACAD_PROXY_OBJECT
  5
5B4
330
0
100
AcDbProxyObject
 90
      499
 91
      574
 93
       51
310
00010000AAAA84
330
506
330
5B3
330
5B1
 94
        0
1001
ACAD
1000
AcadProxyRoundTripData
1071
      562
1071
   851991
1070
     0
  0
ACAD_PROXY_OBJECT
  5
5C5
330
0
100
AcDbProxyObject
 90
      499
 91
      574
 93
      140
310
00010142105350D55494D5110050349534F8
330
506
 94
        0
1001
ACAD
1000
AcadProxyRoundTripData
1071
      539
1071
   851991
1070
     0
  0
DICTIONARY
  5
4FE
102
{ACAD_REACTORS
330
4FD
102
}
330
4FD
100
AcDbDictionary
  3
DWGSETTINGS
350
4FF
1001
ACAD
1000
TREAT_AS_HARD
1070
     0
1000
TREAT_AS_HARD
1070
     0
1000
TREAT_AS_HARD
1070
     0
  0
ACAD_PROXY_OBJECT
  5
5C3
102
{ACAD_REACTORS
330
4FD
102
}
330
4FD
100
AcDbProxyObject
 90
      499
 91
      574
 93
    12938
310
41102491013041105357CC1074CA404C504414D5F31439329013241105357CC9054CA404CD04414D5F33419199013441105357CD103466404D504414D5F3540D199013641105357CD90248E404DD04414D5F37411199013841105357CE101466404E504414D5F397F641102324141505357CC4C1074CA408D10505414D5F31
310
3140D19902495041505357CC4C9074C902408C13905414D5F304E41D32902314E41505357CC5390E4CA408C93905414D5F324E41532902334E41505357CCD3906466408D13905414D5F344E40D19902354E41505357CD53903466408D93905414D5F364E40923902374E41505357CDD3904466408E13905414D5F384E40519
310
902394E41505357CE539FD90440CC9053906414D5F31304E41D3290334414E41905357CC4C5390346640D25413906414D5F31324E41D32409044B4C494E41505357D0D3101465094112539193D08414D5F50415245464111942D055241484D3541905357D093D49074C9094115925155D08414D5F56494557534051942D064
310
24548494E4441905357D253959FD90D415514905253105414D5F545240D194250348494441905357D212511074650940D59254D06414D5F56495341D324250650415244494D42505357D410549112535034650941949151911253509414D5F52454644494D4111942553411092139590139CFFFFFFFF415092139594D06424
310
548494E44CFFFFFFFF411093D48C9055241484D3540519411093D48CD055241484D3540923411093D48D5055241484D35CFFFFFFFF4110D0530C90134CFFFFFFFF4110D0530CD0134409234110D0530D5013441D324110D0530DD0134479464110D1539390137CFFFFFFFF4110D15395D0137CFFFFFFFF4110D312539044B4
310
C494ECFFFFFFFF4110D3D38C50130CFFFFFFFF4110D3D38C90131CFFFFFFFF4110D3D38CD0132CFFFFFFFF4110D3D38D10132CFFFFFFFF411111551050134CFFFFFFFF4111125051D0135CFFFFFFFF411112531250135CFFFFFFFF411112535410650415244494DCFFFFFFFF411112535490652454644494DCFFFFFFFF4111
310
91535390138CFFFFFFFF4151915354139013840CFFFFFFFF4151915354D41023441CFFFFFFFF4151915354D5102344140D1941519153559390132CFFFFFFFF4151915355951013240D194112105510D0138CFFFFFFFF411212511390133CFFFFFFFF4112125115D0133CFFFFFFFF411213125390134CFFFFFFFF411213D0D3
310
90137CFFFFFFFF411213D0D5D0137CFFFFFFFF4112539193D04494E464FCFFFFFFFF411311505110135CFFFFFFFF419397D0921395902394ECFFFFFFFF419397D0D3D38C502304ECFFFFFFFF419397D0D3D38C902314ECFFFFFFFF419397D0D3D38CD02324ECFFFFFFFF419397D0D3D38D102324ECFFFFFFFF419397D0D153
310
93902374ECFFFFFFFF419397D0D15395D02374ECFFFFFFFF419397D1125312502354ECFFFFFFFF419397D2105510D02384ECFFFFFFFF419397D2125113902334ECFFFFFFFF419397D2125115D02334ECFFFFFFFF419397D3115051102354ECFFFFFFFF419397D391D25410349504ECFFFFFFFF419397D412105390334414EC
310
FFFFFFFF419397D510D3D3902304ECFFFFFFFF419397D5121312502344ECFFFFFFFF419397D5131153902304ECFFFFFFFF419397D594131250332414ECFFFFFFFF411391D2541024950CFFFFFFFF411410530C9055241484D3540519411410530CD055241484D3540923411410530D5055241484D35CFFFFFFFF4114121053
310
9023441CFFFFFFFF411413D4D390135CFFFFFFFF411490D1D390137CFFFFFFFF411490D1D5D0137CFFFFFFFF4114D09492D0134CFFFFFFFF4114D150D510134CFFFFFFFF4114D6508CD013540923411354D6535013540923411510D3D390130CFFFFFFFF411512131250134CFFFFFFFF411512550C9055241484D354051941
310
1512550CD055241484D3540923411512550D5055241484D35CFFFFFFFF411513115390130CFFFFFFFF415514905253105545241494CCFFFFFFFF411514931250134CFFFFFFFF411516150C5013640D19411516150C9013640D19411516150CD0136CFFFFFFFF411516150D5013641D32411516150DD0136479464115925155
310
D0456494557CFFFFFFFF4115915112103484944CFFFFFFFF4115915115903564953CFFFFFFFF41159413125023241CFFFFFFFF411692569050134CFFFFFFFFAA9FD404FE4290E4C9074C906465054C904465034650248D014651E519FD91
340
16
340
16
340
16
340
5C6
340
16
340
16
340
16
340
5C7
340
16
340
16
340
5C7
340
5C8
340
16
340
16
340
16
340
16
340
5C6
340
16
340
16
340
16
340
5C7
340
16
340
16
340
5C7
340
5C8
340
16
340
5C9
340
16
340
16
340
16
340
16
340
16
340
5C6
340
16
340
16
340
16
340
15
340
15
340
15
340
15
340
15
340
15
340
15
340
15
340
15
340
5CA
340
15
340
15
340
15
340
15
340
15
340
15
340
15
340
15
340
15
340
15
340
15
340
15
340
15
340
16
340
15
340
15
340
15
340
15
340
5CB
340
15
340
15
340
5CA
340
15
340
15
340
15
340
15
340
15
340
15
340
15
340
15
340
5CA
340
15
340
15
340
15
340
5CB
340
15
340
15
340
15
340
15
340
15
340
15
340
15
340
15
340
15
340
15
340
15
340
15
340
15
340
15
340
5CA
340
15
340
15
340
15
340
15
340
15
340
15
340
15
340
15
340
15
340
15
340
15
340
15
340
15
340
15
340
15
340
15
340
15
340
15
340
15
340
15
340
15
340
15
340
5CE
 94
        0
1001
ACAD
1000
AcadProxyRoundTripData
1071
      570
1071
   851991
1070
     0
  0
ACAD_PROXY_OBJECT
  5
5D5
102
{ACAD_REACTORS
330
5D0
102
}
330
5D0
100
AcDbProxyObject
 90
      499
 91
      574
 93
      253
310
43D1444494D454E53494F4E2C414D44545F2A5F44494D404A9012A404A9012A8
 94
        0
1001
ACAD
1000
AcadProxyRoundTripData
1071
      571
1071
   851991
1070
     0
  0
ACAD_PROXY_OBJECT
  5
5D4
102
{ACAD_REACTORS
330
5D0
102
}
330
5D0
100
AcDbProxyObject
 90
      499
 91
      574
 93
      181
310
43D012A42D05357D191504B505357CA9012A404A9012AC
 94
        0
1001
ACAD
1000
AcadProxyRoundTripData
1071
      571
1071
   851991
1070
     0
  0
ACAD_PROXY_OBJECT
  5
5D1
102
{ACAD_REACTORS
330
5D0
102
}
330
5D0
100
AcDbProxyObject
 90
      499
 91
      574
 93
      133
310
43D054841544348404A9012A404A9012A8
 94
        0
1001
ACAD
1000
AcadProxyRoundTripData
1071
      571
1071
   851991
1070
     0
  0
ACAD_PROXY_OBJECT
  5
5D2
102
{ACAD_REACTORS
330
5D0
102
}
330
5D0
100
AcDbProxyObject
 90
      499
 91
      574
 93
      549
310
43D044C494E4549CE0B0E138B0A8B4E0B0A8B4E138B105357CE0B105357CE138B0A8B505357CE0B0A8B505357CE139012A404A910494E534552542C535444504152543244C
 94
        0
1001
ACAD
1000
AcadProxyRoundTripData
1071
      571
1071
   851991
1070
     0
  0
ACAD_PROXY_OBJECT
  5
5D6
102
{ACAD_REACTORS
330
5D0
102
}
330
5D0
100
AcDbProxyObject
 90
      499
 91
      574
 93
      181
310
43D0341524341105357CD5012A404C906494E534552540
 94
        0
1001
ACAD
1000
AcadProxyRoundTripData
1071
      571
1071
   851991
1070
     0
  0
ACAD_PROXY_OBJECT
  5
5D3
102
{ACAD_REACTORS
330
5D0
102
}
330
5D0
100
AcDbProxyObject
 90
      499
 91
      574
 93
     1053
310
43D7841434D46434652414D452C41434D444154554D5441524745542C41434D444154554D49442C41434D57454C4453594D2C41434D5355524653594D2C41434D4645415449442C41434D504152545245462C41434D42414C4C4F4F4E2C414D44544544474553594D2C414D47534352455743414C435441424C45404A9012A
310
404A9012AA
 94
        0
1001
ACAD
1000
AcadProxyRoundTripData
1071
      571
1071
   851991
1070
     0
  0
ACAD_PROXY_OBJECT
  5
5B8
102
{ACAD_REACTORS
330
5B7
102
}
330
5B7
100
AcDbProxyObject
 90
      499
 91
      574
 93
      187
310
057356C1D5C406406AA8FFFFFFFF0AE50543564C30354051
330
1F
330
0
330
5B1
 94
        0
1001
ACAD
1000
AcadProxyRoundTripData
1071
      564
1071
   851991
1070
     0
  0
ACAD_PROXY_OBJECT
  5
4FF
102
{ACAD_REACTORS
330
4FE
102
}
330
4FE
100
AcDbProxyObject
 90
      499
 91
      574
 93
     2270
310
4050B44574753455454494E4753A1286829C8E82A4A482B282A106660F8686AF86C608321A2A720A723A0A849A1ABE1C983E18999AA0C868A9C889282940000000000000488083A1A2A72224A0A9A0A8418983E19183E199820E868A9C8892A6A894000000000000010808321A2A72622A7250000000000000122020C868A9
310
C9E8C8C940000000000000488084A1A624A720A92920ACA0A8418983E19183E19982108698929C8AA8B2A082A0AB098929C8A84A22BA3AAA9A1A0A622A50A0E9882A6A89E849482A02608426A0A5A2AB24A2ABA7E8120CA0A68682988A0C00800010652455649534941501304154D0D0531150540CC4E8C50954494D455354
310
414D504A03D0A805197267341441ED115D1D4D15515125391D4D153911F5
 94
        0
1001
ACAD
1000
AcadProxyRoundTripData
1071
      512
1071
   851991
1070
     0
  0
ENDSEC
  0
EOF
