  0
SECTION
  2
HEADER
  9
$ACADVER
  1
AC1014
  9
$ACADMAINTVER
 70
     9
  9
$DWGCODEPAGE
  3
ANSI_932
  9
$INSBASE
 10
0.0
 20
0.0
 30
0.0
  9
$EXTMIN
 10
40.65033061505573
 20
26.54763866186567
 30
-0.0015258207003583
  9
$EXTMAX
 10
417.0327768533407
 20
179.3166509451306
 30
0.0000000349246037
  9
$LIMMIN
 10
0.0
 20
0.0
  9
$LIMMAX
 10
420.0
 20
297.0
  9
$ORTHOMODE
 70
     0
  9
$REGENMODE
 70
     1
  9
$FILLMODE
 70
     1
  9
$QTEXTMODE
 70
     0
  9
$MIRRTEXT
 70
     1
  9
$DRAGMODE
 70
     2
  9
$LTSCALE
 40
1.0
  9
$OSMODE
 70
  2983
  9
$ATTMODE
 70
     1
  9
$TEXTSIZE
 40
2.5
  9
$TRACEWID
 40
1.0
  9
$TEXTSTYLE
  7
STANDARD
  9
$CLAYER
  8
0
  9
$CELTYPE
  6
BYLAYER
  9
$CECOLOR
 62
   256
  9
$CELTSCALE
 40
1.0
  9
$DELOBJ
 70
     1
  9
$DISPSILH
 70
     0
  9
$DIMSCALE
 40
1.0
  9
$DIMASZ
 40
2.5
  9
$DIMEXO
 40
0.625
  9
$DIMDLI
 40
3.75
  9
$DIMRND
 40
0.0
  9
$DIMDLE
 40
0.0
  9
$DIMEXE
 40
1.25
  9
$DIMTP
 40
0.0
  9
$DIMTM
 40
0.0
  9
$DIMTXT
 40
2.5
  9
$DIMCEN
 40
2.5
  9
$DIMTSZ
 40
0.0
  9
$DIMTOL
 70
     0
  9
$DIMLIM
 70
     0
  9
$DIMTIH
 70
     0
  9
$DIMTOH
 70
     0
  9
$DIMSE1
 70
     0
  9
$DIMSE2
 70
     0
  9
$DIMTAD
 70
     1
  9
$DIMZIN
 70
     8
  9
$DIMBLK
  1

  9
$DIMASO
 70
     1
  9
$DIMSHO
 70
     1
  9
$DIMPOST
  1

  9
$DIMAPOST
  1

  9
$DIMALT
 70
     0
  9
$DIMALTD
 70
     3
  9
$DIMALTF
 40
0.03937007874016
  9
$DIMLFAC
 40
1.0
  9
$DIMTOFL
 70
     1
  9
$DIMTVP
 40
0.0
  9
$DIMTIX
 70
     0
  9
$DIMSOXD
 70
     0
  9
$DIMSAH
 70
     0
  9
$DIMBLK1
  1

  9
$DIMBLK2
  1

  9
$DIMSTYLE
  2
ISO-25
  9
$DIMCLRD
 70
     0
  9
$DIMCLRE
 70
     0
  9
$DIMCLRT
 70
     0
  9
$DIMTFAC
 40
1.0
  9
$DIMGAP
 40
0.625
  9
$DIMJUST
 70
     0
  9
$DIMSD1
 70
     0
  9
$DIMSD2
 70
     0
  9
$DIMTOLJ
 70
     0
  9
$DIMTZIN
 70
     8
  9
$DIMALTZ
 70
     0
  9
$DIMALTTZ
 70
     0
  9
$DIMFIT
 70
     3
  9
$DIMUPT
 70
     0
  9
$DIMUNIT
 70
     2
  9
$DIMDEC
 70
     2
  9
$DIMTDEC
 70
     2
  9
$DIMALTU
 70
     2
  9
$DIMALTTD
 70
     3
  9
$DIMTXSTY
  7
STANDARD
  9
$DIMAUNIT
 70
     0
  9
$LUNITS
 70
     2
  9
$LUPREC
 70
     2
  9
$SKETCHINC
 40
1.0
  9
$FILLETRAD
 40
10.0
  9
$AUNITS
 70
     0
  9
$AUPREC
 70
     0
  9
$MENU
  1
.
  9
$ELEVATION
 40
0.0
  9
$PELEVATION
 40
0.0
  9
$THICKNESS
 40
0.0
  9
$LIMCHECK
 70
     0
  9
$BLIPMODE
 70
     0
  9
$CHAMFERA
 40
10.0
  9
$CHAMFERB
 40
10.0
  9
$CHAMFERC
 40
20.0
  9
$CHAMFERD
 40
0.0
  9
$SKPOLY
 70
     0
  9
$TDCREATE
 40
2454596.550355717
  9
$TDUPDATE
 40
2454890.433025347
  9
$TDINDWG
 40
0.0752034722
  9
$TDUSRTIMER
 40
0.0752029167
  9
$USRTIMER
 70
     1
  9
$ANGBASE
 50
0.0
  9
$ANGDIR
 70
     0
  9
$PDMODE
 70
     0
  9
$PDSIZE
 40
0.0
  9
$PLINEWID
 40
0.0
  9
$COORDS
 70
     0
  9
$SPLFRAME
 70
     0
  9
$SPLINETYPE
 70
     6
  9
$SPLINESEGS
 70
     8
  9
$ATTDIA
 70
     0
  9
$ATTREQ
 70
     1
  9
$HANDLING
 70
 22529
  9
$HANDSEED
  5
1348
  9
$SURFTAB1
 70
     6
  9
$SURFTAB2
 70
     6
  9
$SURFTYPE
 70
     6
  9
$SURFU
 70
     6
  9
$SURFV
 70
     6
  9
$UCSNAME
  2

  9
$UCSORG
 10
0.0
 20
0.0
 30
0.0
  9
$UCSXDIR
 10
1.0
 20
0.0
 30
0.0
  9
$UCSYDIR
 10
0.0
 20
1.0
 30
0.0
  9
$PUCSNAME
  2

  9
$PUCSORG
 10
0.0
 20
0.0
 30
0.0
  9
$PUCSXDIR
 10
1.0
 20
0.0
 30
0.0
  9
$PUCSYDIR
 10
0.0
 20
1.0
 30
0.0
  9
$USERI1
 70
     0
  9
$USERI2
 70
     0
  9
$USERI3
 70
     0
  9
$USERI4
 70
     0
  9
$USERI5
 70
     0
  9
$USERR1
 40
0.0
  9
$USERR2
 40
0.0
  9
$USERR3
 40
0.0
  9
$USERR4
 40
0.0
  9
$USERR5
 40
0.0
  9
$WORLDVIEW
 70
     1
  9
$SHADEDGE
 70
     3
  9
$SHADEDIF
 70
    70
  9
$TILEMODE
 70
     1
  9
$MAXACTVP
 70
    48
  9
$PINSBASE
 10
0.0
 20
0.0
 30
0.0
  9
$PLIMCHECK
 70
     0
  9
$PEXTMIN
 10
28.5263154029846
 20
19.82258291244505
 30
0.0
  9
$PEXTMAX
 10
256.7368386268614
 20
178.4032462120055
 30
0.0
  9
$PLIMMIN
 10
-5.873748779296875
 20
-5.873749732971191
  9
$PLIMMAX
 10
291.1369018554686
 20
204.0995779037474
  9
$UNITMODE
 70
     0
  9
$VISRETAIN
 70
     1
  9
$PLINEGEN
 70
     0
  9
$PSLTSCALE
 70
     1
  9
$TREEDEPTH
 70
  3020
  9
$PICKSTYLE
 70
     1
  9
$CMLSTYLE
  2
STANDARD
  9
$CMLJUST
 70
     0
  9
$CMLSCALE
 40
20.0
  9
$PROXYGRAPHICS
 70
     1
  9
$MEASUREMENT
 70
     0
  0
ENDSEC
  0
SECTION
  2
CLASSES
  0
CLASS
  1
ACDBDICTIONARYWDFLT
  2
AcDbDictionaryWithDefault
  3
AutoCAD 2000
 90
        0
280
     0
281
     0
  0
CLASS
  1
ACDBPLACEHOLDER
  2
AcDbPlaceHolder
  3
AutoCAD 2000
 90
        0
280
     0
281
     0
  0
CLASS
  1
LAYOUT
  2
AcDbLayout
  3
AutoCAD 2000
 90
        0
280
     0
281
     0
  0
CLASS
  1
DICTIONARYVAR
  2
AcDbDictionaryVar
  3
AutoCAD 2000
 90
        0
280
     0
281
     0
  0
CLASS
  1
LONG_TRANSACTION
  2
AcDbLongTransaction
  3
AutoCAD 2000
 90
        0
280
     0
281
     0
  0
CLASS
  1
LWPOLYLINE
  2
AcDbPolyline
  3
AutoCAD 2000
 90
        0
280
     0
281
     1
  0
CLASS
  1
HATCH
  2
AcDbHatch
  3
AutoCAD 2000
 90
        0
280
     0
281
     1
  0
CLASS
  1
XRECORD
  2
AcDbXrecord
  3
AutoCAD 2000
 90
        0
280
     0
281
     0
  0
CLASS
  1
LONG_TRANSACTION
  2
AcDbLongTransaction
  3
AutoCAD 2000
 90
        0
280
     0
281
     0
  0
CLASS
  1
LWPOLYLINE
  2
AcDbPolyline
  3
AutoCAD 2000
 90
        0
280
     0
281
     1
  0
CLASS
  1
HATCH
  2
AcDbHatch
  3
AutoCAD 2000
 90
        0
280
     0
281
     1
  0
CLASS
  1
XRECORD
  2
AcDbXrecord
  3
AutoCAD 2000
 90
        0
280
     0
281
     0
  0
CLASS
  1
AMGSETTINGSOBJ
  2
AmgSettingsObj
  3
"AcadM|Product Description: AutoCAD Mechanical 2000|Company: Autodesk"
 90
        0
280
     0
281
     0
  0
CLASS
  1
ACME_DOCUMENT
  2
AcMeDbDoc
  3
AcMeServices
 90
        0
280
     0
281
     0
  0
CLASS
  1
ACMESCOPE
  2
AcMeScope
  3
AcMeServices
 90
        0
280
     0
281
     0
  0
CLASS
  1
ACMECOMMANDHISTORY
  2
AcMeCommandHistory
  3
AcMeServices
 90
        0
280
     0
281
     0
  0
CLASS
  1
ACIMSYSVARMAN
  2
AcImSysVarManager
  3
AcMeServices
 90
        0
280
     0
281
     0
  0
CLASS
  1
ACIMREALSYSVAR
  2
AcImRealSysVar
  3
AcMeServices
 90
        0
280
     0
281
     0
  0
CLASS
  1
ACIMINTSYSVAR
  2
AcImIntSysVar
  3
AcMeServices
 90
        0
280
     0
281
     0
  0
CLASS
  1
ACMEDRAWINGMAN
  2
AcMeDrawingMan
  3
AcMeServices
 90
        0
280
     0
281
     0
  0
CLASS
  1
ACMEVIEW
  2
AcMeView
  3
AcMeServices
 90
        0
280
     0
281
     0
  0
CLASS
  1
ACDBENTITYCACHE
  2
AcMeEntityCache
  3
AcMeServices
 90
        0
280
     0
281
     0
  0
CLASS
  1
GSMANAGER
  2
AcMeGSManager
  3
AcMeServices
 90
        0
280
     0
281
     0
  0
CLASS
  1
AMDTINTERNALREACTOR
  2
AmdtInternalReactor
  3
AcMeServices
 90
        0
280
     0
281
     0
  0
CLASS
  1
ACMESTATEMGR
  2
AcMeStateMgr
  3
AcMeServices
 90
        0
280
     0
281
     0
  0
CLASS
  1
ACGREFMASTER
  2
AcGrefMaster
  3
AcAttribServices
 90
        0
280
     0
281
     0
  0
CLASS
  1
AM_DRAWING_MGR
  2
AcDmDwgMgr
  3
AcMechDwgViewMgmt
 90
        0
280
     0
281
     0
  0
CLASS
  1
AM_DWG_DOCUMENT
  2
AcDmDwgDocument
  3
AcMechDwgViewMgmt
 90
        0
280
     0
281
     0
  0
CLASS
  1
AM_DWG_SHEET
  2
AcDmSheet
  3
AcMechDwgViewMgmt
 90
        0
280
     0
281
     0
  0
CLASS
  1
AM_VIEWDIMPARMAP
  2
AcDmViewDimParMap
  3
AcMechDwgViewMgmt
 90
        0
280
     0
281
     0
  0
CLASS
  1
AM_DWGMGR_NAME
  2
AcDmDwgMgrName
  3
AcMechDwgViewMgmt
 90
        0
280
     0
281
     0
  0
CLASS
  1
ACME_DATABASE
  2
AcMeDbDatabase
  3
AcMeServices
 90
        0
280
     0
281
     0
  0
CLASS
  1
ACRFINSADJUSTERMGR
  2
AcRfInsAdjusterMgr
  3
AcMeServices
 90
        0
280
     0
281
     0
  0
CLASS
  1
ACGREFACADMASTER
  2
AcGrefacadMaster
  3
AcGrefServices
 90
        0
280
     0
281
     0
  0
CLASS
  1
AMDTMENUSTATEMGR
  2
AmdtMenuStateMgr
  3
McadcomServices
 90
        0
280
     0
281
     0
  0
CLASS
  1
AMDTMCOMMENUSTATE
  2
AmdtMcomMenuState
  3
McadcomServices
 90
        0
280
     0
281
     0
  0
CLASS
  1
AMIMASTER
  2
AmiMaster
  3
AmiServices
 90
        0
280
     0
281
     0
  0
CLASS
  1
ASAPP
  2
AcAsAppObject
  3
AutoSurfServices
 90
        0
280
     0
281
     0
  0
CLASS
  1
IM_STATIC_MAN
  2
AcImStaticVarManager
  3
AcMeServices
 90
        0
280
     0
281
     0
  0
CLASS
  1
ACIMSTRSYSVAR
  2
AcImStrSysVar
  3
AcMeServices
 90
        0
280
     0
281
     0
  0
CLASS
  1
ACIMDBLSTATICVAR
  2
AcImDblStaticVar
  3
AcMeServices
 90
        0
280
     0
281
     0
  0
CLASS
  1
ACIMSTRSTATICVAR
  2
AcImStrStaticVar
  3
AcMeServices
 90
        0
280
     0
281
     0
  0
CLASS
  1
ACIMINTSTATICVAR
  2
AcImIntStaticVar
  3
AcMeServices
 90
        0
280
     0
281
     0
  0
CLASS
  1
ACASGREFMASTER
  2
AcAsGrefMaster
  3
AutoSurfResolverServices
 90
        0
280
     0
281
     0
  0
CLASS
  1
ACADGREFMODULE
  2
AcAdGrefModule
  3
AdGrefServices
 90
        0
280
     0
281
     0
  0
CLASS
  1
AMDTMAPISURFMOUDULE
  2
AmdtMApiSurfModule
  3
MApiSurfServices
 90
        0
280
     0
281
     0
  0
CLASS
  1
MAPIAMMOUDLE
  2
MApiAmModule
  3
MApiAmServices
 90
        0
280
     0
281
     0
  0
CLASS
  1
AMDTADMENUSTATE
  2
AmdtAdMenuState
  3
DesignerServices
 90
        0
280
     0
281
     0
  0
CLASS
  1
ADAPPL
  2
AcAdAppl
  3
DesignerServices
 90
        0
280
     0
281
     0
  0
CLASS
  1
DEPMGR
  2
AcAdDepMgr
  3
DesignerServices
 90
        0
280
     0
281
     0
  0
CLASS
  1
PARAMMGR
  2
AcAdParamMgr
  3
DesignerServices
 90
        0
280
     0
281
     0
  0
CLASS
  1
PARAMSCOPE
  2
AcAdParamScope
  3
DesignerServices
 90
        0
280
     0
281
     0
  0
CLASS
  1
NAMEDAPPL
  2
AcAdNamedAppl
  3
DesignerServices
 90
        0
280
     0
281
     0
  0
CLASS
  1
AMDTDMMENUSTATE
  2
AmdtDmMenuState
  3
AcMechDwgViewMgmt
 90
        0
280
     0
281
     0
  0
CLASS
  1
MAPIADMODULE
  2
MApiAdModule
  3
MApiAdServices
 90
        0
280
     0
281
     0
  0
CLASS
  1
AMDTAMMENUSTATE
  2
AmdtAmMenuState
  3
DesignerAssemblies
 90
        0
280
     0
281
     0
  0
CLASS
  1
ACAMPROJECT
  2
AcAmProject
  3
DesignerAssemblies
 90
        0
280
     0
281
     0
  0
CLASS
  1
ACAMGRCOMPDEF
  2
AcAmGrCompDef
  3
DesignerAssemblies
 90
        0
280
     0
281
     0
  0
CLASS
  1
ACCMCONTEXT
  2
AcCmContext
  3
DesignerAssemblies
 90
        0
280
     0
281
     0
  0
CLASS
  1
ACAMCOMPDEF
  2
AcAmCompDef
  3
DesignerAssemblies
 90
        0
280
     0
281
     0
  0
CLASS
  1
ACAMCOMPDEFMGR
  2
AcAmCompDefMgr
  3
DesignerAssemblies
 90
        0
280
     0
281
     0
  0
CLASS
  1
AMCONTEXTMGR
  2
AcAmContextMgr
  3
DesignerAssemblies
 90
        0
280
     0
281
     0
  0
CLASS
  1
ACAMCONTEXTMODELER
  2
AcAmContextModeler
  3
DesignerAssemblies
 90
        0
280
     0
281
     0
  0
CLASS
  1
ACMDATADICTIONARY
  2
AcmDataDictionary
  3
"AcmSymBB|Product Description: AutoCAD Mechanical 2000|Company: Autodesk"
 90
        0
280
     0
281
     0
  0
CLASS
  1
ACMDATAENTRYBLOCK
  2
AcmDataEntryBlock
  3
"AcmSymBB|Product Description: AutoCAD Mechanical 2000|Company: Autodesk"
 90
        0
280
     0
281
     0
  0
CLASS
  1
CATALOGSTATE
  2
AcAmCatalogState
  3
DesignerAssemblies
 90
        0
280
     0
281
     0
  0
CLASS
  1
ACAMGRCOMPDEFSET
  2
AcAmGrCompDefSet
  3
DesignerAssemblies
 90
        0
280
     0
281
     0
  0
CLASS
  1
AMDTBROWSERDBTAB
  2
AmdtBrowserDbTab
  3
McadcomServices
 90
        0
280
     0
281
     0
  0
CLASS
  1
CBROWSERAPPOBJECT
  2
CBrowserAppObject
  3
McadcomServices
 90
        0
280
     0
281
     0
  0
CLASS
  1
DM_PLACEHOLDER
  2
AcDmSelsetPlaceholder
  3
AcMechDwgViewMgmt
 90
        0
280
     0
281
     0
  0
CLASS
  1
AMGOBJPROPCFG
  2
AmgObjPropCfg
  3
"AmgLay|Product Description: AutoCAD Mechanical 2000|Company: Autodesk"
 90
        1
280
     0
281
     0
  0
CLASS
  1
ACAMGFILTERDAT
  2
AcAmgFilterDat
  3
"AcadM|Product Description: AutoCAD Mechanical 2000|Company: Autodesk"
 90
        0
280
     0
281
     0
  0
CLASS
  1
LAYER_INDEX
  2
AcDbLayerIndex
  3
AutoCAD 2000
 90
        0
280
     0
281
     0
  0
CLASS
  1
IDBUFFER
  2
AcDbIdBuffer
  3
AutoCAD 2000
 90
        0
280
     0
281
     0
  0
CLASS
  1
ACAD_PROXY_OBJECT_WRAPPER
  2
AcDbProxyObjectWrapper
  3
AutoCAD 2000
 90
        0
280
     0
281
     0
  0
CLASS
  1
LONG_TRANSACTION
  2
AcDbLongTransaction
  3
AutoCAD 2000
 90
        0
280
     0
281
     0
  0
CLASS
  1
LWPOLYLINE
  2
AcDbPolyline
  3
AutoCAD 2000
 90
        0
280
     0
281
     1
  0
CLASS
  1
HATCH
  2
AcDbHatch
  3
AutoCAD 2000
 90
        0
280
     0
281
     1
  0
CLASS
  1
XRECORD
  2
AcDbXrecord
  3
AutoCAD 2000
 90
        0
280
     0
281
     0
  0
CLASS
  1
LONG_TRANSACTION
  2
AcDbLongTransaction
  3
AutoCAD 2000
 90
        0
280
     0
281
     0
  0
CLASS
  1
LWPOLYLINE
  2
AcDbPolyline
  3
AutoCAD 2000
 90
        0
280
     0
281
     1
  0
CLASS
  1
HATCH
  2
AcDbHatch
  3
AutoCAD 2000
 90
        0
280
     0
281
     1
  0
CLASS
  1
XRECORD
  2
AcDbXrecord
  3
AutoCAD 2000
 90
        0
280
     0
281
     0
  0
CLASS
  1
LONG_TRANSACTION
  2
AcDbLongTransaction
  3
AutoCAD 2000
 90
        0
280
     0
281
     0
  0
CLASS
  1
LWPOLYLINE
  2
AcDbPolyline
  3
AutoCAD 2000
 90
        0
280
     0
281
     1
  0
CLASS
  1
HATCH
  2
AcDbHatch
  3
AutoCAD 2000
 90
        0
280
     0
281
     1
  0
CLASS
  1
XRECORD
  2
AcDbXrecord
  3
AutoCAD 2000
 90
        0
280
     0
281
     0
  0
CLASS
  1
LONG_TRANSACTION
  2
AcDbLongTransaction
  3
AutoCAD 2000
 90
        0
280
     0
281
     0
  0
CLASS
  1
LWPOLYLINE
  2
AcDbPolyline
  3
AutoCAD 2000
 90
        0
280
     0
281
     1
  0
CLASS
  1
HATCH
  2
AcDbHatch
  3
AutoCAD 2000
 90
        0
280
     0
281
     1
  0
CLASS
  1
XRECORD
  2
AcDbXrecord
  3
AutoCAD 2000
 90
        0
280
     0
281
     0
  0
CLASS
  1
LONG_TRANSACTION
  2
AcDbLongTransaction
  3
AutoCAD 2000
 90
        0
280
     0
281
     0
  0
CLASS
  1
LWPOLYLINE
  2
AcDbPolyline
  3
AutoCAD 2000
 90
        0
280
     0
281
     1
  0
CLASS
  1
HATCH
  2
AcDbHatch
  3
AutoCAD 2000
 90
        0
280
     0
281
     1
  0
CLASS
  1
XRECORD
  2
AcDbXrecord
  3
AutoCAD 2000
 90
        0
280
     0
281
     0
  0
CLASS
  1
LONG_TRANSACTION
  2
AcDbLongTransaction
  3
AutoCAD 2000
 90
        0
280
     0
281
     0
  0
CLASS
  1
LWPOLYLINE
  2
AcDbPolyline
  3
AutoCAD 2000
 90
        0
280
     0
281
     1
  0
CLASS
  1
HATCH
  2
AcDbHatch
  3
AutoCAD 2000
 90
        0
280
     0
281
     1
  0
CLASS
  1
XRECORD
  2
AcDbXrecord
  3
AutoCAD 2000
 90
        0
280
     0
281
     0
  0
CLASS
  1
LONG_TRANSACTION
  2
AcDbLongTransaction
  3
AutoCAD 2000
 90
        0
280
     0
281
     0
  0
CLASS
  1
LWPOLYLINE
  2
AcDbPolyline
  3
AutoCAD 2000
 90
        0
280
     0
281
     1
  0
CLASS
  1
HATCH
  2
AcDbHatch
  3
AutoCAD 2000
 90
        0
280
     0
281
     1
  0
CLASS
  1
XRECORD
  2
AcDbXrecord
  3
AutoCAD 2000
 90
        0
280
     0
281
     0
  0
CLASS
  1
LONG_TRANSACTION
  2
AcDbLongTransaction
  3
AutoCAD 2000
 90
        0
280
     0
281
     0
  0
CLASS
  1
LWPOLYLINE
  2
AcDbPolyline
  3
AutoCAD 2000
 90
        0
280
     0
281
     1
  0
CLASS
  1
HATCH
  2
AcDbHatch
  3
AutoCAD 2000
 90
        0
280
     0
281
     1
  0
CLASS
  1
XRECORD
  2
AcDbXrecord
  3
AutoCAD 2000
 90
        0
280
     0
281
     0
  0
CLASS
  1
LONG_TRANSACTION
  2
AcDbLongTransaction
  3
AutoCAD 2000
 90
        0
280
     0
281
     0
  0
CLASS
  1
LWPOLYLINE
  2
AcDbPolyline
  3
AutoCAD 2000
 90
        0
280
     0
281
     1
  0
CLASS
  1
HATCH
  2
AcDbHatch
  3
AutoCAD 2000
 90
        0
280
     0
281
     1
  0
CLASS
  1
XRECORD
  2
AcDbXrecord
  3
AutoCAD 2000
 90
        0
280
     0
281
     0
  0
CLASS
  1
LONG_TRANSACTION
  2
AcDbLongTransaction
  3
AutoCAD 2000
 90
        0
280
     0
281
     0
  0
CLASS
  1
LWPOLYLINE
  2
AcDbPolyline
  3
AutoCAD 2000
 90
        0
280
     0
281
     1
  0
CLASS
  1
HATCH
  2
AcDbHatch
  3
AutoCAD 2000
 90
        0
280
     0
281
     1
  0
CLASS
  1
XRECORD
  2
AcDbXrecord
  3
AutoCAD 2000
 90
        0
280
     0
281
     0
  0
CLASS
  1
LONG_TRANSACTION
  2
AcDbLongTransaction
  3
AutoCAD 2000
 90
        0
280
     0
281
     0
  0
CLASS
  1
LWPOLYLINE
  2
AcDbPolyline
  3
AutoCAD 2000
 90
        0
280
     0
281
     1
  0
CLASS
  1
HATCH
  2
AcDbHatch
  3
AutoCAD 2000
 90
        0
280
     0
281
     1
  0
CLASS
  1
XRECORD
  2
AcDbXrecord
  3
AutoCAD 2000
 90
        0
280
     0
281
     0
  0
CLASS
  1
LONG_TRANSACTION
  2
AcDbLongTransaction
  3
AutoCAD 2000
 90
        0
280
     0
281
     0
  0
CLASS
  1
LWPOLYLINE
  2
AcDbPolyline
  3
AutoCAD 2000
 90
        0
280
     0
281
     1
  0
CLASS
  1
HATCH
  2
AcDbHatch
  3
AutoCAD 2000
 90
        0
280
     0
281
     1
  0
CLASS
  1
XRECORD
  2
AcDbXrecord
  3
AutoCAD 2000
 90
        0
280
     0
281
     0
  0
ENDSEC
  0
SECTION
  2
TABLES
  0
TABLE
  2
VPORT
  5
8
330
0
100
AcDbSymbolTable
 70
     3
  0
VPORT
  5
1325
330
8
100
AcDbSymbolTableRecord
100
AcDbViewportTableRecord
  2
*ACTIVE
 70
     0
 10
0.0
 20
0.0
 11
1.0
 21
1.0
 12
-912.1076128469908
 22
-449.644029638948
 13
0.0
 23
0.0
 14
10.0
 24
10.0
 15
10.0
 25
10.0
 16
0.0
 26
0.0
 36
1.0
 17
1140.949166581189
 27
552.5761744424462
 37
0.0
 40
282.565627550533
 41
1.340220385674931
 42
50.0
 43
0.0
 44
0.0
 50
0.0
 51
0.0
 71
     0
 72
   100
 73
     1
 74
     3
 75
     0
 76
     0
 77
     0
 78
     0
  0
ENDTAB
  0
TABLE
  2
LTYPE
  5
5
330
0
100
AcDbSymbolTable
 70
     9
  0
LTYPE
  5
14
330
5
100
AcDbSymbolTableRecord
100
AcDbLinetypeTableRecord
  2
BYBLOCK
 70
     0
  3

 72
    65
 73
     0
 40
0.0
  0
LTYPE
  5
15
330
5
100
AcDbSymbolTableRecord
100
AcDbLinetypeTableRecord
  2
BYLAYER
 70
     0
  3

 72
    65
 73
     0
 40
0.0
  0
LTYPE
  5
16
330
5
100
AcDbSymbolTableRecord
100
AcDbLinetypeTableRecord
  2
CONTINUOUS
 70
     0
  3
Solid line
 72
    65
 73
     0
 40
0.0
  0
LTYPE
  5
5C6
330
5
100
AcDbSymbolTableRecord
100
AcDbLinetypeTableRecord
  2
AM_ISO02W050
 70
     0
  3
__ __ __ __ __ __ __ __ __ __ __ __ __ __ __
 72
    65
 73
     2
 40
7.5
 49
6.0
 74
     0
 49
-1.5
 74
     0
  0
LTYPE
  5
5C7
330
5
100
AcDbSymbolTableRecord
100
AcDbLinetypeTableRecord
  2
AM_ISO08W050
 70
     0
  3
____ . ____ . ____ . ____ . ____ . ____ . ____
 72
    65
 73
     4
 40
18.0
 49
12.0
 74
     0
 49
-1.5
 74
     0
 49
3.0
 74
     0
 49
-1.5
 74
     0
  0
LTYPE
  5
5C8
330
5
100
AcDbSymbolTableRecord
100
AcDbLinetypeTableRecord
  2
AM_ISO09W050
 70
     0
  3
_____ . . _____ . . _____ . . ____ .. ____
 72
    65
 73
     6
 40
22.5
 49
12.0
 74
     0
 49
-1.5
 74
     0
 49
3.0
 74
     0
 49
-1.5
 74
     0
 49
3.0
 74
     0
 49
-1.5
 74
     0
  0
LTYPE
  5
5C9
330
5
100
AcDbSymbolTableRecord
100
AcDbLinetypeTableRecord
  2
AMCONSTR
 70
     0
  3
_______________________
 72
    65
 73
     2
 40
9999.0
 49
9999.0
 74
     0
 49
0.0
 74
     0
  0
LTYPE
  5
5CA
330
5
100
AcDbSymbolTableRecord
100
AcDbLinetypeTableRecord
  2
AM_ISO08W050X2
 70
     0
  3
__ . __ . __ . __ . __ . __
 72
    65
 73
     4
 40
9.0
 49
6.0
 74
     0
 49
-0.75
 74
     0
 49
1.5
 74
     0
 49
-0.75
 74
     0
  0
LTYPE
  5
5CB
330
5
100
AcDbSymbolTableRecord
100
AcDbLinetypeTableRecord
  2
AM_ISO02W050X2
 70
     0
  3
 _ _ _ _ _ _ _ _ _ _ _ _
 72
    65
 73
     2
 40
3.75
 49
3.0
 74
     0
 49
-0.75
 74
     0
  0
LTYPE
  5
5CE
330
5
100
AcDbSymbolTableRecord
100
AcDbLinetypeTableRecord
  2
AMZIGZAG
 70
     0
  3
/\/-/\/-/\/-/\/-/\/-/\/
 72
    65
 73
     2
 40
11.00009999999999
 49
0.0001
 74
     4
 75
   135
340
5CD
 46
0.04
 50
0.0
 44
0.0
 45
0.0
 49
-11.0
 74
     0
  0
LTYPE
  5
BFF
330
5
100
AcDbSymbolTableRecord
100
AcDbLinetypeTableRecord
  2
CENTER
 70
     0
  3
Center ____ _ ____ _ ____ _ ____ _ ____ _ ____
 72
    65
 73
     4
 40
2.0
 49
1.25
 74
     0
 49
-0.25
 74
     0
 49
0.25
 74
     0
 49
-0.25
 74
     0
  0
ENDTAB
  0
TABLE
  2
LAYER
  5
2
102
{ACAD_XDICTIONARY
360
41
102
}
330
0
100
AcDbSymbolTable
 70
    14
  0
LAYER
  5
10
330
2
100
AcDbSymbolTableRecord
100
AcDbLayerTableRecord
  2
0
 70
     0
 62
     7
  6
CONTINUOUS
  0
LAYER
  5
35
330
2
100
AcDbSymbolTableRecord
100
AcDbLayerTableRecord
  2
10
 70
     0
 62
     4
  6
CONTINUOUS
  0
LAYER
  5
36
330
2
100
AcDbSymbolTableRecord
100
AcDbLayerTableRecord
  2
12
 70
     0
 62
     3
  6
CENTER
  0
LAYER
  5
37
330
2
100
AcDbSymbolTableRecord
100
AcDbLayerTableRecord
  2
16
 70
     0
 62
     4
  6
CENTER
  0
LAYER
  5
38
330
2
100
AcDbSymbolTableRecord
100
AcDbLayerTableRecord
  2
19
 70
     0
 62
     7
  6
CONTINUOUS
  0
LAYER
  5
636
330
2
100
AcDbSymbolTableRecord
100
AcDbLayerTableRecord
  2
DEFPOINTS
 70
     0
 62
     7
  6
CONTINUOUS
  0
LAYER
  5
B79
330
2
100
AcDbSymbolTableRecord
100
AcDbLayerTableRecord
  2
17
 70
     0
 62
     2
  6
CENTER
  0
ENDTAB
  0
TABLE
  2
STYLE
  5
3
330
0
100
AcDbSymbolTable
 70
     3
  0
STYLE
  5
11
330
3
100
AcDbSymbolTableRecord
100
AcDbTextStyleTableRecord
  2
STANDARD
 70
     0
 40
0.0
 41
1.0
 50
0.0
 71
     0
 42
2.5
  3
txt
  4

  0
STYLE
  5
3A
330
3
100
AcDbSymbolTableRecord
100
AcDbTextStyleTableRecord
  2
STANDARD1X3
 70
     0
 40
9.599999999999999
 41
0.7
 50
0.0
 71
     0
 42
9.599999999999999
  3
romans.shx
  4
extfont.shx
  0
STYLE
  5
5CD
330
3
100
AcDbSymbolTableRecord
100
AcDbTextStyleTableRecord
  2

 70
     1
 40
0.0
 41
1.0
 50
0.0
 71
     0
 42
2.5
  3
ltypeshp.shx
  4

  0
ENDTAB
  0
TABLE
  2
VIEW
  5
6
330
0
100
AcDbSymbolTable
 70
     0
  0
ENDTAB
  0
TABLE
  2
UCS
  5
7
330
0
100
AcDbSymbolTable
 70
     0
  0
ENDTAB
  0
TABLE
  2
APPID
  5
9
330
0
100
AcDbSymbolTable
 70
    24
  0
APPID
  5
12
330
9
100
AcDbSymbolTableRecord
100
AcDbRegAppTableRecord
  2
ACAD
 70
     0
  0
APPID
  5
3C
330
9
100
AcDbSymbolTableRecord
100
AcDbRegAppTableRecord
  2
ACAD_PSEXT
 70
     0
  0
APPID
  5
3D
330
9
100
AcDbSymbolTableRecord
100
AcDbRegAppTableRecord
  2
ACAD_DSTYLE_DIMEXT_LENGTH
 70
     0
  0
APPID
  5
3E
330
9
100
AcDbSymbolTableRecord
100
AcDbRegAppTableRecord
  2
ACAD_DSTYLE_DIMEXT_ENABLED
 70
     0
  0
APPID
  5
3F
330
9
100
AcDbSymbolTableRecord
100
AcDbRegAppTableRecord
  2
ACAD_DSTYLE_DIMJOGGED_JOGA
 70
     0
  0
APPID
  5
40
330
9
100
AcDbSymbolTableRecord
100
AcDbRegAppTableRecord
  2
ACAD_DSTYLE_DIMARC_LENGTH_
 70
     0
  0
APPID
  5
500
330
9
100
AcDbSymbolTableRecord
100
AcDbRegAppTableRecord
  2
GENIUS_GENDIM_13
 70
     0
  0
APPID
  5
501
330
9
100
AcDbSymbolTableRecord
100
AcDbRegAppTableRecord
  2
GENIUS_GENDTOL_13
 70
     0
  0
APPID
  5
502
330
9
100
AcDbSymbolTableRecord
100
AcDbRegAppTableRecord
  2
GENIUS_GE3DTOL_13
 70
     0
  0
APPID
  5
504
330
9
100
AcDbSymbolTableRecord
100
AcDbRegAppTableRecord
  2
MCAD_NO_VIS
 70
     0
  0
APPID
  5
505
330
9
100
AcDbSymbolTableRecord
100
AcDbRegAppTableRecord
  2
ACAD_TEMP_GRAPHIC
 70
     0
  0
APPID
  5
537
330
9
100
AcDbSymbolTableRecord
100
AcDbRegAppTableRecord
  2
AD_DRAW
 70
     0
  0
APPID
  5
53A
330
9
100
AcDbSymbolTableRecord
100
AcDbRegAppTableRecord
  2
ACATTRIBSERVICES
 70
     0
  0
APPID
  5
586
330
9
100
AcDbSymbolTableRecord
100
AcDbRegAppTableRecord
  2
ASURF_PCURVE_APPNAME
 70
     0
  0
APPID
  5
5B5
330
9
100
AcDbSymbolTableRecord
100
AcDbRegAppTableRecord
  2
DESIGNERASSEMBLIES
 70
     0
  0
APPID
  5
5BD
330
9
100
AcDbSymbolTableRecord
100
AcDbRegAppTableRecord
  2
ACADM_DIM_EDIT
 70
     0
  0
APPID
  5
5BE
330
9
100
AcDbSymbolTableRecord
100
AcDbRegAppTableRecord
  2
AMDT_DM_ADJ
 70
     0
  0
APPID
  5
642
330
9
100
AcDbSymbolTableRecord
100
AcDbRegAppTableRecord
  2
ACAECLAYERSTANDARD
 70
     0
  0
APPID
  5
CBC
330
9
100
AcDbSymbolTableRecord
100
AcDbRegAppTableRecord
  2
GENIUS_GENODEF_13
 70
     0
  0
APPID
  5
CBD
330
9
100
AcDbSymbolTableRecord
100
AcDbRegAppTableRecord
  2
GENIUS_GENOREF_13
 70
     0
  0
APPID
  5
CBE
330
9
100
AcDbSymbolTableRecord
100
AcDbRegAppTableRecord
  2
GENIUS_GENOBJ-N-CEN_13
 70
     0
  0
APPID
  5
CBF
330
9
100
AcDbSymbolTableRecord
100
AcDbRegAppTableRecord
  2
GENIUS_GENREC_14
 70
     0
  0
APPID
  5
CC0
330
9
100
AcDbSymbolTableRecord
100
AcDbRegAppTableRecord
  2
GENIUS_GENOBJ-N-REC_13
 70
     0
  0
APPID
  5
CC1
330
9
100
AcDbSymbolTableRecord
100
AcDbRegAppTableRecord
  2
GENIUS_GENOBJ-N-FIL_13
 70
     0
  0
ENDTAB
  0
TABLE
  2
DIMSTYLE
  5
A
330
0
100
AcDbSymbolTable
 70
     2
  0
DIMSTYLE
105
27
330
A
100
AcDbSymbolTableRecord
100
AcDbDimStyleTableRecord
  2
ISO-25
 70
     0
  3

  4

  5

  6

  7

 40
1.0
 41
2.5
 42
0.625
 43
3.75
 44
1.25
 45
0.0
 46
0.0
 47
0.0
 48
0.0
140
2.5
141
2.5
142
0.0
143
0.03937007874016
144
1.0
145
0.0
146
1.0
147
0.625
 71
     0
 72
     0
 73
     0
 74
     0
 75
     0
 76
     0
 77
     1
 78
     8
170
     0
171
     3
172
     1
173
     0
174
     0
175
     0
176
     0
177
     0
178
     0
270
     2
271
     2
272
     2
273
     2
274
     3
340
11
275
     0
280
     0
281
     0
282
     0
283
     0
284
     8
285
     0
286
     0
287
     3
288
     0
  0
DIMSTYLE
105
CBB
330
A
100
AcDbSymbolTableRecord
100
AcDbDimStyleTableRecord
  2
AM_JIS
 70
     0
  3

  4
"
  5
OPEN30
  6
OPEN30
  7
OPEN30
 40
1.0
 41
2.5
 42
1.0
 43
10.0
 44
1.0
 45
0.0
 46
0.0
 47
0.1
 48
0.1
140
3.5
141
0.0
142
0.0
143
0.0393701
144
1.0
145
0.0
146
0.71
147
1.5
 71
     0
 72
     0
 73
     0
 74
     0
 75
     0
 76
     0
 77
     3
 78
     8
170
     0
171
     2
172
     1
173
     0
174
     0
175
     0
176
   256
177
   256
178
     2
270
     2
271
     2
272
     3
273
     2
274
     4
340
11
275
     0
280
     0
281
     0
282
     0
283
     0
284
     0
285
     0
286
     0
287
     3
288
     0
  0
ENDTAB
  0
TABLE
  2
BLOCK_RECORD
  5
1
330
0
100
AcDbSymbolTable
 70
     3
  0
BLOCK_RECORD
  5
1F
102
{ACAD_XDICTIONARY
360
438
102
}
330
1
100
AcDbSymbolTableRecord
100
AcDbBlockTableRecord
  2
*MODEL_SPACE
  0
BLOCK_RECORD
  5
23
102
{ACAD_XDICTIONARY
360
43A
102
}
330
1
100
AcDbSymbolTableRecord
100
AcDbBlockTableRecord
  2
*PAPER_SPACE
  0
BLOCK_RECORD
  5
5AC
330
1
100
AcDbSymbolTableRecord
100
AcDbBlockTableRecord
  2
*U0
  0
BLOCK_RECORD
  5
C99
330
1
100
AcDbSymbolTableRecord
100
AcDbBlockTableRecord
  2
_OPEN30
  0
ENDTAB
  0
ENDSEC
  0
SECTION
  2
BLOCKS
  0
BLOCK
  5
20
330
1F
100
AcDbEntity
  8
0
100
AcDbBlockBegin
  2
*MODEL_SPACE
 70
     0
 10
0.0
 20
0.0
 30
0.0
  3
*MODEL_SPACE
  1

  0
ENDBLK
  5
21
330
1F
100
AcDbEntity
  8
0
100
AcDbBlockEnd
  0
BLOCK
  5
24
330
23
100
AcDbEntity
 67
     1
  8
0
100
AcDbBlockBegin
  2
*PAPER_SPACE
 70
     0
 10
0.0
 20
0.0
 30
0.0
  3
*PAPER_SPACE
  1

  0
ENDBLK
  5
25
330
23
100
AcDbEntity
 67
     1
  8
0
100
AcDbBlockEnd
  0
BLOCK
  5
5AD
330
5AC
100
AcDbEntity
  8
0
100
AcDbBlockBegin
  2
*U0
 70
     1
 10
0.0
 20
0.0
 30
0.0
  3
*U0
  1

  0
ENDBLK
  5
5AE
330
5AC
100
AcDbEntity
  8
0
100
AcDbBlockEnd
  0
BLOCK
  5
C9D
330
C99
100
AcDbEntity
  8
0
100
AcDbBlockBegin
  2
_OPEN30
 70
     0
 10
0.0
 20
0.0
 30
0.0
  3
_OPEN30
  1

1001
ACAD
1000
RTMaterial
1005
0
  0
LINE
  5
C9A
330
C99
100
AcDbEntity
  8
0
 62
     0
100
AcDbLine
 10
-1.0
 20
0.26794919
 30
0.0
 11
0.0
 21
0.0
 31
0.0
1001
ACAD
1000
RTMaterial
1005
0
  0
LINE
  5
C9B
330
C99
100
AcDbEntity
  8
0
 62
     0
100
AcDbLine
 10
0.0
 20
0.0
 30
0.0
 11
-1.0
 21
-0.26794919
 31
0.0
1001
ACAD
1000
RTMaterial
1005
0
  0
LINE
  5
C9C
330
C99
100
AcDbEntity
  8
0
 62
     0
100
AcDbLine
 10
0.0
 20
0.0
 30
0.0
 11
-1.0
 21
0.0
 31
0.0
1001
ACAD
1000
RTMaterial
1005
0
  0
ENDBLK
  5
C9E
330
C99
100
AcDbEntity
  8
0
100
AcDbBlockEnd
1001
ACAD
1000
RTMaterial
1005
0
  0
ENDSEC
  0
SECTION
  2
ENTITIES
  0
MTEXT
  5
ABA
330
1F
100
AcDbEntity
  8
19
100
AcDbMText
 10
379.6839634088933
 20
44.29445631601459
 30
0.0
 40
5.0
 41
70.16
 71
     1
 72
     5
  1
HALH08\PFR-HAL-H11K
  7
STANDARD1X3
1001
ACAD
1000
MTEXTBEGIN
1070
    73
1070
     1
1070
    44
1040
1.0
1070
    74
1070
     0
1000
MTEXTEND
  0
LINE
  5
F93
330
1F
100
AcDbEntity
  8
16
100
AcDbLine
 10
120.6809087633341
 20
26.55796888633187
 30
0.0
 11
120.6809087633461
 21
179.3135759748409
 31
0.0
1001
GENIUS_GENODEF_13
1002
{
1000
HIER
1070
     0
1002
}
1002
{
1000
MANEDIT
1070
     0
1002
}
1002
{
1000
NOSEL
1070
     0
1002
}
1002
{
1000
BEHIND
1070
     0
1002
}
1002
{
1000
REACTOR
1002
}
1001
GENIUS_GENOBJ-N-CEN_13
1002
{
1000
OWNER
1000
GEN
1002
}
  0
LINE
  5
F94
330
1F
100
AcDbEntity
  8
10
100
AcDbLine
 10
281.4011846071263
 20
32.2962398005304
 30
0.0
 11
258.9011846071267
 21
32.29623980053583
 31
0.0
  0
LINE
  5
F95
330
1F
100
AcDbEntity
  8
10
100
AcDbLine
 10
258.9011846071267
 20
30.2962398005347
 30
0.0
 11
281.4011846071258
 21
30.2962398005304
 31
0.0
  0
LINE
  5
F96
330
1F
100
AcDbEntity
  8
10
100
AcDbLine
 10
258.9011846071267
 20
32.2962398005347
 30
0.0
 11
258.9011846071267
 21
30.2962398005347
 31
0.0
  0
LINE
  5
F97
330
1F
100
AcDbEntity
  8
16
100
AcDbLine
 10
304.4011846071171
 20
28.96110144400115
 30
0.0
 11
304.4011846071376
 21
177.5798978912751
 31
0.0
1001
GENIUS_GENODEF_13
1002
{
1000
HIER
1070
     0
1002
}
1002
{
1000
MANEDIT
1070
     0
1002
}
1002
{
1000
NOSEL
1070
     0
1002
}
1002
{
1000
BEHIND
1070
     0
1002
}
1002
{
1000
REACTOR
1002
}
1001
GENIUS_GENOBJ-N-CEN_13
1002
{
1000
OWNER
1000
GEN
1002
}
  0
LINE
  5
F98
330
1F
100
AcDbEntity
  8
10
100
AcDbLine
 10
283.9011846071193
 20
52.79623980053507
 30
0.0
 11
283.9011846071193
 21
31.29623980053493
 31
0.0
  0
LINE
  5
F99
330
1F
100
AcDbEntity
  8
10
100
AcDbLine
 10
281.9011846071303
 20
51.2962398005306
 30
0.0
 11
281.9011846071264
 21
32.79623980053033
 31
0.0
  0
LINE
  5
F9A
330
1F
100
AcDbEntity
  8
10
100
AcDbLine
 10
283.9011846071265
 20
32.79623980053006
 30
0.0
 11
283.9011846071193
 21
49.2962398005378
 31
0.0
  0
ARC
  5
F9B
330
1F
100
AcDbEntity
  8
10
100
AcDbCircle
 10
281.4011846071265
 20
32.7962398005304
 30
0.0
 40
2.5
100
AcDbArc
 50
269.9999999999837
 51
359.999999999992
1001
GENIUS_GENODEF_13
1002
{
1000
HIER
1070
     0
1002
}
1002
{
1000
MANEDIT
1070
     0
1002
}
1002
{
1000
NOSEL
1070
     0
1002
}
1002
{
1000
BEHIND
1070
     0
1002
}
1002
{
1000
REACTOR
1002
}
1001
GENIUS_GENOBJ-N-FIL_13
1002
{
1000
OWNER
1000
GEN
1002
}
  0
ARC
  5
F9C
330
1F
100
AcDbEntity
  8
10
100
AcDbCircle
 10
281.4011846071264
 20
32.7962398005304
 30
0.0
 40
0.5
100
AcDbArc
 50
269.9999999999837
 51
359.999999999992
1001
GENIUS_GENODEF_13
1002
{
1000
HIER
1070
     0
1002
}
1002
{
1000
MANEDIT
1070
     0
1002
}
1002
{
1000
NOSEL
1070
     0
1002
}
1002
{
1000
BEHIND
1070
     0
1002
}
1002
{
1000
REACTOR
1002
}
1001
GENIUS_GENOBJ-N-FIL_13
1002
{
1000
OWNER
1000
GEN
1002
}
  0
LINE
  5
F9D
330
1F
100
AcDbEntity
  8
10
100
AcDbLine
 10
283.9011846071193
 20
31.29623980053493
 30
0.0
 11
284.9011846071192
 21
31.29623980053504
 31
0.0
  0
LINE
  5
F9E
330
1F
100
AcDbEntity
  8
10
100
AcDbLine
 10
283.9011846071193
 20
51.29623980053057
 30
0.0
 11
281.9011846071303
 21
51.2962398005306
 31
0.0
  0
LINE
  5
F9F
330
1F
100
AcDbEntity
  8
10
100
AcDbLine
 10
324.9011846071211
 20
52.79623980052057
 30
0.0
 11
324.9011846071183
 21
31.29623980052055
 31
0.0
  0
LINE
  5
FA0
330
1F
100
AcDbEntity
  8
10
100
AcDbLine
 10
324.9011846071194
 20
32.79623980051245
 30
0.0
 11
324.9011846071216
 21
49.29623980052055
 31
0.0
  0
LINE
  5
FA1
330
1F
100
AcDbEntity
  8
10
100
AcDbLine
 10
326.901184607122
 20
51.29623980051589
 30
0.0
 11
326.9011846071182
 21
32.79623980051253
 31
0.0
  0
LINE
  5
FA2
330
1F
100
AcDbEntity
  8
10
100
AcDbLine
 10
349.901184607119
 20
30.29623980052606
 30
0.0
 11
327.4011846071181
 21
30.29623980051245
 31
0.0
  0
LINE
  5
FA3
330
1F
100
AcDbEntity
  8
10
100
AcDbLine
 10
327.4011846071182
 20
32.29623980051245
 30
0.0
 11
349.9011846071192
 21
32.29623980052605
 31
0.0
  0
LINE
  5
FA4
330
1F
100
AcDbEntity
  8
10
100
AcDbLine
 10
324.9011846071183
 20
31.29623980052055
 30
0.0
 11
323.9011846071193
 21
31.29623980052052
 31
0.0
  0
ARC
  5
FA5
330
1F
100
AcDbEntity
  8
10
100
AcDbCircle
 10
327.4011846071181
 20
32.79623980051245
 30
0.0
 40
2.5
100
AcDbArc
 50
179.9999999999918
 51
270.0
1001
GENIUS_GENODEF_13
1002
{
1000
HIER
1070
     0
1002
}
1002
{
1000
MANEDIT
1070
     0
1002
}
1002
{
1000
NOSEL
1070
     0
1002
}
1002
{
1000
BEHIND
1070
     0
1002
}
1002
{
1000
REACTOR
1002
}
1001
GENIUS_GENOBJ-N-FIL_13
1002
{
1000
OWNER
1000
GEN
1002
}
  0
ARC
  5
FA6
330
1F
100
AcDbEntity
  8
10
100
AcDbCircle
 10
327.4011846071182
 20
32.79623980051245
 30
0.0
 40
0.5
100
AcDbArc
 50
179.9999999999918
 51
270.0
1001
GENIUS_GENODEF_13
1002
{
1000
HIER
1070
     0
1002
}
1002
{
1000
MANEDIT
1070
     0
1002
}
1002
{
1000
NOSEL
1070
     0
1002
}
1002
{
1000
BEHIND
1070
     0
1002
}
1002
{
1000
REACTOR
1002
}
1001
GENIUS_GENOBJ-N-FIL_13
1002
{
1000
OWNER
1000
GEN
1002
}
  0
LINE
  5
FA7
330
1F
100
AcDbEntity
  8
10
100
AcDbLine
 10
349.9011846071192
 20
32.29623980052605
 30
0.0
 11
349.901184607119
 21
30.29623980052606
 31
0.0
  0
LINE
  5
FA8
330
1F
100
AcDbEntity
  8
10
100
AcDbLine
 10
324.901184607121
 20
51.2962398005159
 30
0.0
 11
326.901184607122
 21
51.29623980051589
 31
0.0
  0
LINE
  5
FA9
330
1F
100
AcDbEntity
  8
10
100
AcDbLine
 10
324.9011846071287
 20
142.2962398005205
 30
0.0
 11
324.901184607126
 21
120.7962398005205
 31
0.0
  0
LINE
  5
FAA
330
1F
100
AcDbEntity
  8
10
100
AcDbLine
 10
283.9011846071193
 20
142.296239800535
 30
0.0
 11
283.9011846071193
 21
120.7962398005381
 31
0.0
  0
LINE
  5
FAB
330
1F
100
AcDbEntity
  8
10
100
AcDbLine
 10
324.9011846071287
 20
126.2962398005205
 30
0.0
 11
324.9011846071287
 21
142.2962398005205
 31
0.0
1001
GENIUS_GENREC_14
1002
{
1000
PYDIR
1011
324.9011846071287
1021
126.2962398005205
1031
0.0
1002
}
1002
{
1000
PXDIR
1011
326.9011846071269
1021
142.2962398005205
1031
0.0
1002
}
1002
{
1000
PORI
1011
324.9011846071287
1021
142.2962398005205
1031
0.0
1002
}
1002
{
1000
PINS
1011
324.9011846071287
1021
142.2962398005205
1031
0.0
1002
}
1002
{
1000
PINS2
1011
326.9011846070958
1021
126.2962398005205
1031
0.0
1002
}
1002
{
1000
C
1070
     1
1002
}
1001
GENIUS_GENODEF_13
1002
{
1000
HIER
1070
     0
1002
}
1002
{
1000
MANEDIT
1070
     0
1002
}
1002
{
1000
NOSEL
1070
     0
1002
}
1002
{
1000
BEHIND
1070
     0
1002
}
1002
{
1000
REACTOR
1002
}
1001
GENIUS_GENOBJ-N-REC_13
1002
{
1000
OWNER
1000
GEN
1002
}
  0
LINE
  5
FAC
330
1F
100
AcDbEntity
  8
10
100
AcDbLine
 10
326.9011846071269
 20
142.2962398005205
 30
0.0
 11
326.901184607092
 21
124.2962398005314
 31
0.0
1001
GENIUS_GENREC_14
1002
{
1000
PYDIR
1011
324.9011846071287
1021
126.2962398005205
1031
0.0
1002
}
1002
{
1000
PXDIR
1011
326.9011846071269
1021
142.2962398005205
1031
0.0
1002
}
1002
{
1000
PORI
1011
324.9011846071287
1021
142.2962398005205
1031
0.0
1002
}
1002
{
1000
PINS
1011
324.9011846071287
1021
142.2962398005205
1031
0.0
1002
}
1002
{
1000
PINS2
1011
326.901184607092
1021
124.2962398005314
1031
0.0
1002
}
1002
{
1000
C
1070
     1
1002
}
1001
GENIUS_GENODEF_13
1002
{
1000
HIER
1070
     0
1002
}
1002
{
1000
MANEDIT
1070
     0
1002
}
1002
{
1000
NOSEL
1070
     0
1002
}
1002
{
1000
BEHIND
1070
     0
1002
}
1002
{
1000
REACTOR
1002
}
1001
GENIUS_GENOBJ-N-REC_13
1002
{
1000
OWNER
1000
GEN
1002
}
  0
LINE
  5
FAD
330
1F
100
AcDbEntity
  8
10
100
AcDbLine
 10
281.901184607123
 20
144.7962398005351
 30
0.0
 11
281.9011846071226
 21
124.2962398005314
 31
0.0
  0
LINE
  5
FAE
330
1F
100
AcDbEntity
  8
10
100
AcDbLine
 10
283.9011846071193
 20
127.7962398005941
 30
0.0
 11
283.9011846071213
 21
144.7962398005351
 31
0.0
  0
LINE
  5
FAF
330
1F
100
AcDbEntity
  8
10
100
AcDbLine
 10
281.9011846071226
 20
124.2962398005314
 30
0.0
 11
283.9011846071193
 21
124.2962398005314
 31
0.0
  0
LINE
  5
FB0
330
1F
100
AcDbEntity
  8
10
100
AcDbLine
 10
326.901184607092
 20
124.2962398005314
 30
0.0
 11
324.9011846071287
 21
124.2962398005314
 31
0.0
1001
GENIUS_GENREC_14
1002
{
1000
PYDIR
1011
324.9011846071287
1021
124.2962398005314
1031
0.0
1002
}
1002
{
1000
PXDIR
1011
326.9011846071269
1021
142.2962398005205
1031
0.0
1002
}
1002
{
1000
PORI
1011
324.9011846071287
1021
142.2962398005205
1031
0.0
1002
}
1002
{
1000
PINS
1011
324.9011846071287
1021
142.2962398005205
1031
0.0
1002
}
1002
{
1000
PINS2
1011
326.901184607092
1021
124.2962398005314
1031
0.0
1002
}
1002
{
1000
C
1070
     1
1002
}
1001
GENIUS_GENODEF_13
1002
{
1000
HIER
1070
     0
1002
}
1002
{
1000
MANEDIT
1070
     0
1002
}
1002
{
1000
NOSEL
1070
     0
1002
}
1002
{
1000
BEHIND
1070
     0
1002
}
1002
{
1000
REACTOR
1002
}
1001
GENIUS_GENOBJ-N-REC_13
1002
{
1000
OWNER
1000
GEN
1002
}
  0
LINE
  5
FB1
330
1F
100
AcDbEntity
  8
10
100
AcDbLine
 10
311.9011846071231
 20
147.2962398005346
 30
0.0
 11
284.4011846071231
 21
147.2962398005351
 31
0.0
  0
LINE
  5
FB2
330
1F
100
AcDbEntity
  8
10
100
AcDbLine
 10
284.4011846071213
 20
145.2962398005351
 30
0.0
 11
311.9011846071231
 21
145.2962398005346
 31
0.0
  0
ARC
  5
FB3
330
1F
100
AcDbEntity
  8
10
100
AcDbCircle
 10
284.4011846071231
 20
144.7962398005351
 30
0.0
 40
2.5
100
AcDbArc
 50
90.0
 51
180.0
1001
GENIUS_GENODEF_13
1002
{
1000
HIER
1070
     0
1002
}
1002
{
1000
MANEDIT
1070
     0
1002
}
1002
{
1000
NOSEL
1070
     0
1002
}
1002
{
1000
BEHIND
1070
     0
1002
}
1002
{
1000
REACTOR
1002
}
1001
GENIUS_GENOBJ-N-FIL_13
1002
{
1000
OWNER
1000
GEN
1002
}
  0
LINE
  5
FB4
330
1F
100
AcDbEntity
  8
10
100
AcDbLine
 10
284.9011846071329
 20
142.296239800535
 30
0.0
 11
283.9011846071193
 21
142.296239800535
 31
0.0
  0
ARC
  5
FB5
330
1F
100
AcDbEntity
  8
10
100
AcDbCircle
 10
284.4011846071213
 20
144.7962398005351
 30
0.0
 40
0.5
100
AcDbArc
 50
90.0
 51
179.9999999999934
1001
GENIUS_GENODEF_13
1002
{
1000
HIER
1070
     0
1002
}
1002
{
1000
MANEDIT
1070
     0
1002
}
1002
{
1000
NOSEL
1070
     0
1002
}
1002
{
1000
BEHIND
1070
     0
1002
}
1002
{
1000
REACTOR
1002
}
1001
GENIUS_GENOBJ-N-FIL_13
1002
{
1000
OWNER
1000
GEN
1002
}
  0
LINE
  5
FB6
330
1F
100
AcDbEntity
  8
10
100
AcDbLine
 10
311.9011846071231
 20
145.2962398005346
 30
0.0
 11
311.9011846071231
 21
147.2962398005346
 31
0.0
  0
LINE
  5
FB7
330
1F
100
AcDbEntity
  8
10
100
AcDbLine
 10
323.9011846071193
 20
142.2962398005205
 30
0.0
 11
324.9011846071287
 21
142.2962398005205
 31
0.0
  0
LINE
  5
FB8
330
1F
100
AcDbEntity
  8
10
100
AcDbLine
 10
324.9011846071287
 20
142.2962398005205
 30
0.0
 11
326.9011846071269
 21
142.2962398005205
 31
0.0
1001
GENIUS_GENREC_14
1002
{
1000
PYDIR
1011
324.9011846071287
1021
126.2962398005205
1031
0.0
1002
}
1002
{
1000
PXDIR
1011
326.9011846071269
1021
142.2962398005205
1031
0.0
1002
}
1002
{
1000
PORI
1011
324.9011846071287
1021
142.2962398005205
1031
0.0
1002
}
1002
{
1000
PINS
1011
324.9011846071287
1021
142.2962398005205
1031
0.0
1002
}
1002
{
1000
PINS2
1011
326.9011846070958
1021
126.2962398005205
1031
0.0
1002
}
1002
{
1000
C
1070
     1
1002
}
1001
GENIUS_GENODEF_13
1002
{
1000
HIER
1070
     0
1002
}
1002
{
1000
MANEDIT
1070
     0
1002
}
1002
{
1000
NOSEL
1070
     0
1002
}
1002
{
1000
BEHIND
1070
     0
1002
}
1002
{
1000
REACTOR
1002
}
1001
GENIUS_GENOBJ-N-REC_13
1002
{
1000
OWNER
1000
GEN
1002
}
  0
ARC
  5
FB9
330
1F
100
AcDbEntity
  8
10
100
AcDbCircle
 10
283.7796431055148
 20
41.29623980053154
 30
0.0
 40
6.678458498386547
100
AcDbArc
 50
162.3830311595544
 51
197.6169688404453
  0
LINE
  5
FBA
330
1F
100
AcDbEntity
  8
10
100
AcDbLine
 10
273.9305996071199
 20
39.29623980053154
 30
0.0
 11
273.5011846071198
 21
39.72565480053154
 31
0.0
  0
ARC
  5
FBB
330
1F
100
AcDbEntity
  8
10
100
AcDbCircle
 10
273.6227261087417
 20
41.29623980053154
 30
0.0
 40
6.678458498386565
100
AcDbArc
 50
342.3830311595546
 51
17.61696884044551
  0
LINE
  5
FBC
330
1F
100
AcDbEntity
  8
10
100
AcDbLine
 10
277.1011846071282
 20
37.79623980053154
 30
0.0
 11
277.1011846071282
 21
44.79623980053155
 31
0.0
  0
LINE
  5
FBD
330
1F
100
AcDbEntity
  8
10
100
AcDbLine
 10
281.9011846071282
 20
36.79623980053154
 30
0.0
 11
281.9011846071282
 21
45.79623980053153
 31
0.0
  0
LINE
  5
FBE
330
1F
100
AcDbEntity
  8
10
100
AcDbLine
 10
281.1011846071282
 20
36.79623980053154
 30
0.0
 11
281.1011846071282
 21
45.79623980053153
 31
0.0
  0
LINE
  5
FBF
330
1F
100
AcDbEntity
  8
10
100
AcDbLine
 10
280.3011846071283
 20
37.79623980053154
 30
0.0
 11
280.3011846071283
 21
44.79623980053155
 31
0.0
  0
LINE
  5
FC0
330
1F
100
AcDbEntity
  8
10
100
AcDbLine
 10
277.1011846071282
 20
39.29623980053154
 30
0.0
 11
273.9305996071199
 21
39.29623980053154
 31
0.0
  0
LINE
  5
FC1
330
1F
100
AcDbEntity
  8
10
100
AcDbLine
 10
279.9879720860928
 20
37.25373980053158
 30
0.0
 11
277.4143971281636
 21
37.25373980053158
 31
0.0
  0
LINE
  5
FC2
330
1F
100
AcDbEntity
  8
10
100
AcDbLine
 10
279.9879720860928
 20
39.27498980053154
 30
0.0
 11
277.4143971281636
 21
39.27498980053154
 31
0.0
  0
LINE
  5
FC3
330
1F
100
AcDbEntity
  8
10
100
AcDbLine
 10
277.4143971281636
 20
37.25373980053158
 30
0.0
 11
277.1011846071282
 21
37.79623980053154
 31
0.0
  0
ARC
  5
FC4
330
1F
100
AcDbEntity
  8
10
100
AcDbCircle
 10
278.8882539271152
 20
38.26436480053152
 30
0.0
 40
1.787069319986959
100
AcDbArc
 50
145.5615305952048
 51
205.5615305954578
  0
LINE
  5
FC5
330
1F
100
AcDbEntity
  8
10
100
AcDbLine
 10
280.3011846071283
 20
37.79623980053154
 30
0.0
 11
280.3011846071283
 21
36.79623980053154
 31
0.0
  0
LINE
  5
FC6
330
1F
100
AcDbEntity
  8
10
100
AcDbLine
 10
281.1011846071282
 20
36.79623980053154
 30
0.0
 11
281.9011846071282
 21
36.79623980053154
 31
0.0
  0
LINE
  5
FC7
330
1F
100
AcDbEntity
  8
10
100
AcDbLine
 10
280.3011846071283
 20
36.79623980053154
 30
0.0
 11
281.1011846071282
 21
36.79623980053154
 31
0.0
  0
LINE
  5
FC8
330
1F
100
AcDbEntity
  8
10
100
AcDbLine
 10
279.9879720860928
 20
37.25373980053158
 30
0.0
 11
280.3011846071283
 21
37.79623980053154
 31
0.0
  0
ARC
  5
FC9
330
1F
100
AcDbEntity
  8
10
100
AcDbCircle
 10
278.5141152871413
 20
38.26436480053152
 30
0.0
 40
1.787069319986959
100
AcDbArc
 50
334.438469404542
 51
34.43846940479533
  0
LINE
  5
FCA
330
1F
100
AcDbEntity
  8
10
100
AcDbLine
 10
277.1011846071282
 20
43.29623980053153
 30
0.0
 11
273.9305996071199
 21
43.29623980053153
 31
0.0
  0
LINE
  5
FCB
330
1F
100
AcDbEntity
  8
10
100
AcDbLine
 10
273.5011846071198
 20
39.72565480053154
 30
0.0
 11
273.5011846071198
 21
42.86682480053154
 31
0.0
  0
LINE
  5
FCC
330
1F
100
AcDbEntity
  8
10
100
AcDbLine
 10
273.9305996071199
 20
43.29623980053153
 30
0.0
 11
273.5011846071198
 21
42.86682480053154
 31
0.0
  0
LINE
  5
FCD
330
1F
100
AcDbEntity
  8
10
100
AcDbLine
 10
279.9879720860928
 20
43.31748980053156
 30
0.0
 11
277.4143971281636
 21
43.31748980053156
 31
0.0
  0
LINE
  5
FCE
330
1F
100
AcDbEntity
  8
10
100
AcDbLine
 10
279.9879720860928
 20
45.33873980053155
 30
0.0
 11
277.4143971281636
 21
45.33873980053155
 31
0.0
  0
LINE
  5
FCF
330
1F
100
AcDbEntity
  8
10
100
AcDbLine
 10
277.4143971281636
 20
45.33873980053155
 30
0.0
 11
277.1011846071282
 21
44.79623980053155
 31
0.0
  0
ARC
  5
FD0
330
1F
100
AcDbEntity
  8
10
100
AcDbCircle
 10
278.8882539271186
 20
44.32811480053156
 30
0.0
 40
1.787069319990415
100
AcDbArc
 50
154.4384694047327
 51
214.4384694047322
  0
LINE
  5
FD1
330
1F
100
AcDbEntity
  8
10
100
AcDbLine
 10
280.3011846071283
 20
45.79623980053153
 30
0.0
 11
280.3011846071283
 21
44.79623980053155
 31
0.0
  0
LINE
  5
FD2
330
1F
100
AcDbEntity
  8
10
100
AcDbLine
 10
281.9011846071282
 20
45.79623980053153
 30
0.0
 11
281.1011846071282
 21
45.79623980053153
 31
0.0
  0
LINE
  5
FD3
330
1F
100
AcDbEntity
  8
10
100
AcDbLine
 10
281.1011846071282
 20
45.79623980053153
 30
0.0
 11
280.3011846071283
 21
45.79623980053153
 31
0.0
  0
LINE
  5
FD4
330
1F
100
AcDbEntity
  8
10
100
AcDbLine
 10
279.9879720860928
 20
45.33873980053155
 30
0.0
 11
280.3011846071283
 21
44.79623980053155
 31
0.0
  0
ARC
  5
FD5
330
1F
100
AcDbEntity
  8
10
100
AcDbCircle
 10
278.5141152871413
 20
44.32811480053041
 30
0.0
 40
1.787069319986959
100
AcDbArc
 50
325.5615305952352
 51
25.56153059567789
  0
LINE
  5
FD6
330
1F
100
AcDbEntity
  8
10
100
AcDbLine
 10
328.5011846071199
 20
36.79623980053154
 30
0.0
 11
328.5011846071199
 21
45.79623980053153
 31
0.0
  0
LINE
  5
FD7
330
1F
100
AcDbEntity
  8
10
100
AcDbLine
 10
326.9011846071199
 20
45.79623980053153
 30
0.0
 11
326.9011846071199
 21
36.79623980053154
 31
0.0
  0
LINE
  5
FD8
330
1F
100
AcDbEntity
  8
10
100
AcDbLine
 10
327.7011846071199
 20
36.79623980053154
 30
0.0
 11
327.7011846071199
 21
45.79623980053153
 31
0.0
  0
ARC
  5
FD9
330
1F
100
AcDbEntity
  8
10
100
AcDbCircle
 10
325.1011846071199
 20
41.29623980053152
 30
0.0
 40
6.5
100
AcDbArc
 50
331.8272658681352
 51
28.17273413186479
  0
ARC
  5
FDA
330
1F
100
AcDbEntity
  8
10
100
AcDbCircle
 10
329.4206729308515
 20
38.98279634517185
 30
0.0
 40
1.6
100
AcDbArc
 50
274.9999999999997
 51
331.8272658681352
  0
LINE
  5
FDB
330
1F
100
AcDbEntity
  8
10
100
AcDbLine
 10
327.7011846071199
 20
36.79623980053154
 30
0.0
 11
328.5011846071199
 21
36.79623980053154
 31
0.0
  0
LINE
  5
FDC
330
1F
100
AcDbEntity
  8
10
100
AcDbLine
 10
326.9011846071199
 20
36.79623980053154
 30
0.0
 11
327.7011846071199
 21
36.79623980053154
 31
0.0
  0
LINE
  5
FDD
330
1F
100
AcDbEntity
  8
10
100
AcDbLine
 10
329.5601221192477
 20
37.3888848282251
 30
0.0
 11
328.5011846071199
 21
37.29623980053154
 31
0.0
  0
ARC
  5
FDE
330
1F
100
AcDbEntity
  8
10
100
AcDbCircle
 10
329.4206729308515
 20
43.60968325589119
 30
0.0
 40
1.6
100
AcDbArc
 50
28.17273413186479
 51
85.00000000000021
  0
LINE
  5
FDF
330
1F
100
AcDbEntity
  8
10
100
AcDbLine
 10
329.5601221192477
 20
45.20359477283804
 30
0.0
 11
328.5011846071199
 21
45.29623980053154
 31
0.0
  0
LINE
  5
FE0
330
1F
100
AcDbEntity
  8
10
100
AcDbLine
 10
328.5011846071199
 20
45.79623980053153
 30
0.0
 11
327.7011846071199
 21
45.79623980053153
 31
0.0
  0
LINE
  5
FE1
330
1F
100
AcDbEntity
  8
10
100
AcDbLine
 10
327.7011846071199
 20
45.79623980053153
 30
0.0
 11
326.9011846071199
 21
45.79623980053153
 31
0.0
  0
ARC
  5
FE2
330
1F
100
AcDbEntity
  8
10
100
AcDbCircle
 10
283.7796431055023
 20
132.2962398005314
 30
0.0
 40
6.678458498386547
100
AcDbArc
 50
162.3830311595544
 51
197.6169688404453
  0
LINE
  5
FE3
330
1F
100
AcDbEntity
  8
10
100
AcDbLine
 10
273.9305996071075
 20
130.2962398005314
 30
0.0
 11
273.5011846071074
 21
130.7256548005314
 31
0.0
  0
ARC
  5
FE4
330
1F
100
AcDbEntity
  8
10
100
AcDbCircle
 10
273.6227261087292
 20
132.2962398005314
 30
0.0
 40
6.678458498386565
100
AcDbArc
 50
342.3830311595546
 51
17.61696884044551
  0
LINE
  5
FE5
330
1F
100
AcDbEntity
  8
10
100
AcDbLine
 10
277.1011846071157
 20
128.7962398005314
 30
0.0
 11
277.1011846071157
 21
135.7962398005314
 31
0.0
  0
LINE
  5
FE6
330
1F
100
AcDbEntity
  8
10
100
AcDbLine
 10
281.9011846071158
 20
127.7962398005314
 30
0.0
 11
281.9011846071158
 21
136.7962398005314
 31
0.0
  0
LINE
  5
FE7
330
1F
100
AcDbEntity
  8
10
100
AcDbLine
 10
281.1011846071157
 20
127.7962398005314
 30
0.0
 11
281.1011846071157
 21
136.7962398005314
 31
0.0
  0
LINE
  5
FE8
330
1F
100
AcDbEntity
  8
10
100
AcDbLine
 10
280.3011846071158
 20
128.7962398005314
 30
0.0
 11
280.3011846071158
 21
135.7962398005314
 31
0.0
  0
LINE
  5
FE9
330
1F
100
AcDbEntity
  8
10
100
AcDbLine
 10
277.1011846071157
 20
130.2962398005314
 30
0.0
 11
273.9305996071075
 21
130.2962398005314
 31
0.0
  0
LINE
  5
FEA
330
1F
100
AcDbEntity
  8
10
100
AcDbLine
 10
279.9879720860804
 20
128.2537398005315
 30
0.0
 11
277.4143971281511
 21
128.2537398005315
 31
0.0
  0
LINE
  5
FEB
330
1F
100
AcDbEntity
  8
10
100
AcDbLine
 10
279.9879720860804
 20
130.2749898005314
 30
0.0
 11
277.4143971281511
 21
130.2749898005314
 31
0.0
  0
LINE
  5
FEC
330
1F
100
AcDbEntity
  8
10
100
AcDbLine
 10
277.4143971281511
 20
128.2537398005315
 30
0.0
 11
277.1011846071157
 21
128.7962398005314
 31
0.0
  0
ARC
  5
FED
330
1F
100
AcDbEntity
  8
10
100
AcDbCircle
 10
278.8882539271027
 20
129.2643648005314
 30
0.0
 40
1.787069319986959
100
AcDbArc
 50
145.5615305952048
 51
205.5615305954578
  0
LINE
  5
FEE
330
1F
100
AcDbEntity
  8
10
100
AcDbLine
 10
280.3011846071158
 20
128.7962398005314
 30
0.0
 11
280.3011846071158
 21
127.7962398005314
 31
0.0
  0
LINE
  5
FEF
330
1F
100
AcDbEntity
  8
10
100
AcDbLine
 10
281.1011846071157
 20
127.7962398005314
 30
0.0
 11
281.9011846071158
 21
127.7962398005314
 31
0.0
  0
LINE
  5
FF0
330
1F
100
AcDbEntity
  8
10
100
AcDbLine
 10
280.3011846071158
 20
127.7962398005314
 30
0.0
 11
281.1011846071157
 21
127.7962398005314
 31
0.0
  0
LINE
  5
FF1
330
1F
100
AcDbEntity
  8
10
100
AcDbLine
 10
279.9879720860804
 20
128.2537398005315
 30
0.0
 11
280.3011846071158
 21
128.7962398005314
 31
0.0
  0
ARC
  5
FF2
330
1F
100
AcDbEntity
  8
10
100
AcDbCircle
 10
278.5141152871287
 20
129.2643648005314
 30
0.0
 40
1.787069319986959
100
AcDbArc
 50
334.438469404542
 51
34.43846940479533
  0
LINE
  5
FF3
330
1F
100
AcDbEntity
  8
10
100
AcDbLine
 10
277.1011846071157
 20
134.2962398005314
 30
0.0
 11
273.9305996071075
 21
134.2962398005314
 31
0.0
  0
LINE
  5
FF4
330
1F
100
AcDbEntity
  8
10
100
AcDbLine
 10
273.5011846071074
 20
130.7256548005314
 30
0.0
 11
273.5011846071074
 21
133.8668248005314
 31
0.0
  0
LINE
  5
FF5
330
1F
100
AcDbEntity
  8
10
100
AcDbLine
 10
273.9305996071075
 20
134.2962398005314
 30
0.0
 11
273.5011846071074
 21
133.8668248005314
 31
0.0
  0
LINE
  5
FF6
330
1F
100
AcDbEntity
  8
10
100
AcDbLine
 10
279.9879720860804
 20
134.3174898005314
 30
0.0
 11
277.4143971281511
 21
134.3174898005314
 31
0.0
  0
LINE
  5
FF7
330
1F
100
AcDbEntity
  8
10
100
AcDbLine
 10
279.9879720860804
 20
136.3387398005314
 30
0.0
 11
277.4143971281511
 21
136.3387398005314
 31
0.0
  0
LINE
  5
FF8
330
1F
100
AcDbEntity
  8
10
100
AcDbLine
 10
277.4143971281511
 20
136.3387398005314
 30
0.0
 11
277.1011846071157
 21
135.7962398005314
 31
0.0
  0
ARC
  5
FF9
330
1F
100
AcDbEntity
  8
10
100
AcDbCircle
 10
278.8882539271062
 20
135.3281148005314
 30
0.0
 40
1.787069319990415
100
AcDbArc
 50
154.4384694047327
 51
214.4384694047322
  0
LINE
  5
FFA
330
1F
100
AcDbEntity
  8
10
100
AcDbLine
 10
280.3011846071158
 20
136.7962398005314
 30
0.0
 11
280.3011846071158
 21
135.7962398005314
 31
0.0
  0
LINE
  5
FFB
330
1F
100
AcDbEntity
  8
10
100
AcDbLine
 10
281.9011846071158
 20
136.7962398005314
 30
0.0
 11
281.1011846071157
 21
136.7962398005314
 31
0.0
  0
LINE
  5
FFC
330
1F
100
AcDbEntity
  8
10
100
AcDbLine
 10
281.1011846071157
 20
136.7962398005314
 30
0.0
 11
280.3011846071158
 21
136.7962398005314
 31
0.0
  0
LINE
  5
FFD
330
1F
100
AcDbEntity
  8
10
100
AcDbLine
 10
279.9879720860804
 20
136.3387398005314
 30
0.0
 11
280.3011846071158
 21
135.7962398005314
 31
0.0
  0
ARC
  5
FFE
330
1F
100
AcDbEntity
  8
10
100
AcDbCircle
 10
278.5141152871287
 20
135.3281148005303
 30
0.0
 40
1.787069319986959
100
AcDbArc
 50
325.5615305952352
 51
25.56153059567789
  0
LINE
  5
FFF
330
1F
100
AcDbEntity
  8
10
100
AcDbLine
 10
328.5011846071075
 20
127.7962398005314
 30
0.0
 11
328.5011846071075
 21
136.7962398005314
 31
0.0
  0
LINE
  5
1000
330
1F
100
AcDbEntity
  8
10
100
AcDbLine
 10
326.9011846071075
 20
136.7962398005314
 30
0.0
 11
326.9011846071075
 21
127.7962398005314
 31
0.0
  0
LINE
  5
1001
330
1F
100
AcDbEntity
  8
10
100
AcDbLine
 10
327.7011846071075
 20
127.7962398005314
 30
0.0
 11
327.7011846071075
 21
136.7962398005314
 31
0.0
  0
ARC
  5
1002
330
1F
100
AcDbEntity
  8
10
100
AcDbCircle
 10
325.1011846071075
 20
132.2962398005314
 30
0.0
 40
6.5
100
AcDbArc
 50
331.8272658681352
 51
28.17273413186479
  0
ARC
  5
1003
330
1F
100
AcDbEntity
  8
10
100
AcDbCircle
 10
329.420672930839
 20
129.9827963451717
 30
0.0
 40
1.6
100
AcDbArc
 50
274.9999999999997
 51
331.8272658681352
  0
LINE
  5
1004
330
1F
100
AcDbEntity
  8
10
100
AcDbLine
 10
327.7011846071075
 20
127.7962398005314
 30
0.0
 11
328.5011846071075
 21
127.7962398005314
 31
0.0
  0
LINE
  5
1005
330
1F
100
AcDbEntity
  8
10
100
AcDbLine
 10
326.9011846071075
 20
127.7962398005314
 30
0.0
 11
327.7011846071075
 21
127.7962398005314
 31
0.0
  0
LINE
  5
1006
330
1F
100
AcDbEntity
  8
10
100
AcDbLine
 10
329.5601221192352
 20
128.388884828225
 30
0.0
 11
328.5011846071075
 21
128.2962398005314
 31
0.0
  0
ARC
  5
1007
330
1F
100
AcDbEntity
  8
10
100
AcDbCircle
 10
329.420672930839
 20
134.6096832558911
 30
0.0
 40
1.6
100
AcDbArc
 50
28.17273413186479
 51
85.00000000000021
  0
LINE
  5
1008
330
1F
100
AcDbEntity
  8
10
100
AcDbLine
 10
329.5601221192352
 20
136.2035947728379
 30
0.0
 11
328.5011846071075
 21
136.2962398005314
 31
0.0
  0
LINE
  5
1009
330
1F
100
AcDbEntity
  8
10
100
AcDbLine
 10
328.5011846071075
 20
136.7962398005314
 30
0.0
 11
327.7011846071075
 21
136.7962398005314
 31
0.0
  0
LINE
  5
100A
330
1F
100
AcDbEntity
  8
10
100
AcDbLine
 10
327.7011846071075
 20
136.7962398005314
 30
0.0
 11
326.9011846071075
 21
136.7962398005314
 31
0.0
  0
LINE
  5
100B
330
1F
100
AcDbEntity
  8
10
100
AcDbLine
 10
306.4717696071229
 20
143.0962398005347
 30
0.0
 11
303.3305996071229
 21
143.0962398005347
 31
0.0
1001
GENIUS_GENOREF_13
1005
0
1005
0
1005
0
1005
0
1005
0
  0
LINE
  5
100C
330
1F
100
AcDbEntity
  8
10
100
AcDbLine
 10
306.9011846071229
 20
143.5256548005347
 30
0.0
 11
302.9011846071229
 21
143.5256548005347
 31
0.0
1001
GENIUS_GENOREF_13
1005
0
1005
0
1005
0
1005
0
1005
0
  0
LINE
  5
100D
330
1F
100
AcDbEntity
  8
10
100
AcDbLine
 10
303.3305996071229
 20
143.0962398005347
 30
0.0
 11
303.3305996071229
 21
145.2962398005347
 31
0.0
1001
GENIUS_GENOREF_13
1005
0
1005
0
1005
0
1005
0
1005
0
  0
LINE
  5
100E
330
1F
100
AcDbEntity
  8
10
100
AcDbLine
 10
302.9011846071229
 20
145.2962398005347
 30
0.0
 11
302.9011846071229
 21
143.5256548005347
 31
0.0
1001
GENIUS_GENOREF_13
1005
0
1005
0
1005
0
1005
0
1005
0
  0
LINE
  5
100F
330
1F
100
AcDbEntity
  8
10
100
AcDbLine
 10
302.9011846071229
 20
143.5256548005347
 30
0.0
 11
303.3305996071229
 21
143.0962398005347
 31
0.0
1001
GENIUS_GENOREF_13
1005
0
1005
0
1005
0
1005
0
1005
0
  0
LINE
  5
1010
330
1F
100
AcDbEntity
  8
10
100
AcDbLine
 10
306.9011846071229
 20
145.2962398005347
 30
0.0
 11
306.9011846071229
 21
143.5256548005347
 31
0.0
1001
GENIUS_GENOREF_13
1005
0
1005
0
1005
0
1005
0
1005
0
  0
LINE
  5
1011
330
1F
100
AcDbEntity
  8
10
100
AcDbLine
 10
306.4717696071229
 20
143.0962398005347
 30
0.0
 11
306.4717696071229
 21
145.2962398005347
 31
0.0
1001
GENIUS_GENOREF_13
1005
0
1005
0
1005
0
1005
0
1005
0
  0
LINE
  5
1012
330
1F
100
AcDbEntity
  8
10
100
AcDbLine
 10
306.9011846071229
 20
143.5256548005347
 30
0.0
 11
306.4717696071229
 21
143.0962398005347
 31
0.0
1001
GENIUS_GENOREF_13
1005
0
1005
0
1005
0
1005
0
1005
0
  0
LINE
  5
1013
330
1F
100
AcDbEntity
  8
10
100
AcDbLine
 10
304.337214372857
 20
157.0962398005348
 30
0.0
 11
301.1011846071232
 21
157.0962398005348
 31
0.0
1001
GENIUS_GENOREF_13
1005
0
1005
0
1005
0
  0
LINE
  5
1014
330
1F
100
AcDbEntity
  8
10
100
AcDbLine
 10
300.9011846071232
 20
155.2962398005347
 30
0.0
 11
308.9011846071232
 21
155.2962398005347
 31
0.0
1001
GENIUS_GENOREF_13
1005
0
1005
0
  0
LINE
  5
1015
330
1F
100
AcDbEntity
  8
10
100
AcDbLine
 10
308.9011846071232
 20
156.0962398005348
 30
0.0
 11
300.9011846071232
 21
156.0962398005348
 31
0.0
1001
GENIUS_GENOREF_13
1005
0
1005
0
  0
ARC
  5
1016
330
1F
100
AcDbEntity
  8
10
100
AcDbCircle
 10
304.9011846071232
 20
153.6962398005348
 30
0.0
 40
6.5
100
AcDbArc
 50
61.8272658681353
 51
118.1727341318647
1001
GENIUS_GENOREF_13
1005
0
1005
0
1005
0
1005
0
1005
0
  0
LINE
  5
1017
330
1F
100
AcDbEntity
  8
10
100
AcDbLine
 10
301.1011846071232
 20
157.0962398005348
 30
0.0
 11
301.1011846071232
 21
156.0962398005348
 31
0.0
1001
GENIUS_GENOREF_13
1005
0
1005
0
1005
0
  0
LINE
  5
1018
330
1F
100
AcDbEntity
  8
10
100
AcDbLine
 10
300.9011846071232
 20
156.0962398005348
 30
0.0
 11
300.9011846071232
 21
155.2962398005347
 31
0.0
1001
GENIUS_GENOREF_13
1005
0
1005
0
  0
LINE
  5
1019
330
1F
100
AcDbEntity
  8
10
100
AcDbLine
 10
300.9011846071232
 20
157.0962398005348
 30
0.0
 11
301.1011846071232
 21
157.0962398005348
 31
0.0
1001
GENIUS_GENOREF_13
1005
0
1005
0
1005
0
1005
0
1005
0
  0
ARC
  5
101A
330
1F
100
AcDbEntity
  8
10
100
AcDbCircle
 10
302.5877411517635
 20
158.0157281242663
 30
0.0
 40
1.6
100
AcDbArc
 50
118.1727341318647
 51
175.0000000000001
1001
GENIUS_GENOREF_13
1005
0
1005
0
1005
0
1005
0
1005
0
  0
LINE
  5
101B
330
1F
100
AcDbEntity
  8
10
100
AcDbLine
 10
300.9938296348167
 20
158.1551773126626
 30
0.0
 11
300.9011846071232
 21
157.0962398005348
 31
0.0
1001
GENIUS_GENOREF_13
1005
0
1005
0
1005
0
1005
0
1005
0
  0
LINE
  5
101C
330
1F
100
AcDbEntity
  8
10
100
AcDbLine
 10
308.7011846071232
 20
157.0962398005348
 30
0.0
 11
304.737214372857
 21
157.0962398005348
 31
0.0
1001
GENIUS_GENOREF_13
1005
0
1005
0
1005
0
  0
ARC
  5
101D
330
1F
100
AcDbEntity
  8
10
100
AcDbCircle
 10
307.2146280624829
 20
158.0157281242663
 30
0.0
 40
1.6
100
AcDbArc
 50
4.999999999999813
 51
61.8272658681353
1001
GENIUS_GENOREF_13
1005
0
1005
0
1005
0
1005
0
1005
0
  0
LINE
  5
101E
330
1F
100
AcDbEntity
  8
10
100
AcDbLine
 10
305.1011846071232
 20
156.0962398005348
 30
0.0
 11
304.737214372857
 21
157.0962398005348
 31
0.0
1001
GENIUS_GENOREF_13
1005
0
1005
0
1005
0
  0
LINE
  5
101F
330
1F
100
AcDbEntity
  8
10
100
AcDbLine
 10
304.7011846071232
 20
156.0962398005348
 30
0.0
 11
304.337214372857
 21
157.0962398005348
 31
0.0
1001
GENIUS_GENOREF_13
1005
0
1005
0
1005
0
  0
LINE
  5
1020
330
1F
100
AcDbEntity
  8
10
100
AcDbLine
 10
304.337214372857
 20
157.0962398005348
 30
0.0
 11
304.737214372857
 21
157.0962398005348
 31
0.0
1001
GENIUS_GENOREF_13
1005
0
1005
0
1005
0
1005
0
1005
0
  0
LINE
  5
1021
330
1F
100
AcDbEntity
  8
10
100
AcDbLine
 10
308.7011846071232
 20
156.0962398005348
 30
0.0
 11
308.7011846071232
 21
157.0962398005348
 31
0.0
1001
GENIUS_GENOREF_13
1005
0
1005
0
1005
0
  0
LINE
  5
1022
330
1F
100
AcDbEntity
  8
10
100
AcDbLine
 10
308.9011846071232
 20
155.2962398005347
 30
0.0
 11
308.9011846071232
 21
156.0962398005348
 31
0.0
1001
GENIUS_GENOREF_13
1005
0
1005
0
  0
LINE
  5
1023
330
1F
100
AcDbEntity
  8
10
100
AcDbLine
 10
308.7011846071232
 20
157.0962398005348
 30
0.0
 11
308.9011846071232
 21
157.0962398005348
 31
0.0
1001
GENIUS_GENOREF_13
1005
0
1005
0
1005
0
1005
0
1005
0
  0
LINE
  5
1024
330
1F
100
AcDbEntity
  8
10
100
AcDbLine
 10
308.8085395794297
 20
158.1551773126626
 30
0.0
 11
308.9011846071232
 21
157.0962398005348
 31
0.0
1001
GENIUS_GENOREF_13
1005
0
1005
0
1005
0
1005
0
1005
0
  0
LINE
  5
1025
330
1F
100
AcDbEntity
  8
10
100
AcDbLine
 10
287.330599607123
 20
143.0962398005347
 30
0.0
 11
290.471769607123
 21
143.0962398005347
 31
0.0
  0
LINE
  5
1026
330
1F
100
AcDbEntity
  8
10
100
AcDbLine
 10
286.901184607123
 20
143.5256548005347
 30
0.0
 11
290.901184607123
 21
143.5256548005347
 31
0.0
  0
LINE
  5
1027
330
1F
100
AcDbEntity
  8
10
100
AcDbLine
 10
290.471769607123
 20
143.0962398005347
 30
0.0
 11
290.471769607123
 21
145.2962398005347
 31
0.0
  0
LINE
  5
1028
330
1F
100
AcDbEntity
  8
10
100
AcDbLine
 10
290.901184607123
 20
145.2962398005347
 30
0.0
 11
290.901184607123
 21
143.5256548005347
 31
0.0
  0
LINE
  5
1029
330
1F
100
AcDbEntity
  8
10
100
AcDbLine
 10
290.901184607123
 20
143.5256548005347
 30
0.0
 11
290.471769607123
 21
143.0962398005347
 31
0.0
  0
LINE
  5
102A
330
1F
100
AcDbEntity
  8
10
100
AcDbLine
 10
286.901184607123
 20
145.2962398005347
 30
0.0
 11
286.901184607123
 21
143.5256548005347
 31
0.0
  0
LINE
  5
102B
330
1F
100
AcDbEntity
  8
10
100
AcDbLine
 10
287.330599607123
 20
143.0962398005347
 30
0.0
 11
287.330599607123
 21
145.2962398005347
 31
0.0
  0
LINE
  5
102C
330
1F
100
AcDbEntity
  8
10
100
AcDbLine
 10
286.901184607123
 20
143.5256548005347
 30
0.0
 11
287.330599607123
 21
143.0962398005347
 31
0.0
  0
LINE
  5
102D
330
1F
100
AcDbEntity
  8
10
100
AcDbLine
 10
133.1809087633361
 20
52.79623980052903
 30
0.0
 11
133.1809087633361
 21
52.29623980052929
 31
0.0
  0
LINE
  5
102E
330
1F
100
AcDbEntity
  8
10
100
AcDbLine
 10
158.1809087630266
 20
52.79623980052512
 30
0.0
 11
158.1809087630265
 21
52.29623980052537
 31
0.0
  0
LINE
  5
102F
330
1F
100
AcDbEntity
  8
10
100
AcDbLine
 10
133.1809087633415
 20
121.2962398005273
 30
0.0
 11
133.1809087633415
 21
120.7962398005289
 31
0.0
  0
LINE
  5
1030
330
1F
100
AcDbEntity
  8
10
100
AcDbLine
 10
158.1809087633545
 20
120.796239800525
 30
0.0
 11
158.1809087633569
 21
121.2962398005253
 31
0.0
  0
LINE
  5
1031
330
1F
100
AcDbEntity
  8
10
100
AcDbLine
 10
108.1809087633362
 20
52.79623980053099
 30
0.0
 11
108.1809087633361
 21
52.29623980053125
 31
0.0
  0
LINE
  5
1032
330
1F
100
AcDbEntity
  8
10
100
AcDbLine
 10
83.18090876364578
 20
52.79623980053099
 30
0.0
 11
83.18090876364578
 21
52.29623980053125
 31
0.0
  0
LINE
  5
1033
330
1F
100
AcDbEntity
  8
10
100
AcDbLine
 10
108.1809087633415
 20
121.2962398005292
 30
0.0
 11
108.1809087633415
 21
120.7962398005309
 31
0.0
  0
LINE
  5
1034
330
1F
100
AcDbEntity
  8
10
100
AcDbLine
 10
83.18090876332858
 20
120.7962398005309
 30
0.0
 11
83.18090876332624
 21
121.2962398005312
 31
0.0
  0
LINE
  5
1035
330
1F
100
AcDbEntity
  8
10
100
AcDbLine
 10
317.4011846071229
 20
163.2962398005312
 30
0.0
 11
329.6693598921555
 21
163.2962398005311
 31
0.0
  0
ARC
  5
1036
330
1F
100
AcDbEntity
  8
10
100
AcDbCircle
 10
329.6693598921555
 20
148.2962398005311
 30
0.0
 40
14.99999999999997
100
AcDbArc
 50
336.2472839670784
 51
90.0
  0
LINE
  5
1037
330
1F
100
AcDbEntity
  8
10
100
AcDbLine
 10
343.3987456881691
 20
142.2543886219421
 30
0.0
 11
333.955720073383
 21
120.7962398005218
 31
0.0
  0
LINE
  5
103E
330
1F
100
AcDbEntity
  8
10
100
AcDbLine
 10
312.4011846071228
 20
175.7962398005348
 30
0.0
 11
301.4011846071229
 21
175.7962398005348
 31
0.0
  0
LINE
  5
104A
330
1F
100
AcDbEntity
  8
10
100
AcDbLine
 10
292.4011846071229
 20
155.2962398005348
 30
0.0
 11
292.4011846071229
 21
147.2962398005348
 31
0.0
  0
LINE
  5
104B
330
1F
100
AcDbEntity
  8
10
100
AcDbLine
 10
301.4011846071229
 20
155.2962398005348
 30
0.0
 11
301.4011846071229
 21
147.2962398005348
 31
0.0
  0
LINE
  5
1052
330
1F
100
AcDbEntity
  8
10
100
AcDbLine
 10
281.4011846071228
 20
175.7962398005348
 30
0.0
 11
292.4011846071229
 21
175.7962398005348
 31
0.0
  0
ARC
  5
105E
330
1F
100
AcDbEntity
  8
10
100
AcDbCircle
 10
278.4011846071229
 20
175.7962398005348
 30
0.0
 40
2.0
100
AcDbArc
 50
90.0
 51
180.0
  0
LINE
  5
105F
330
1F
100
AcDbEntity
  8
10
100
AcDbLine
 10
281.4011846071228
 20
177.7962398005348
 30
0.0
 11
278.4011846071229
 21
177.7962398005348
 31
0.0
  0
LINE
  5
1078
330
1F
100
AcDbEntity
  8
10
100
AcDbLine
 10
312.4011846071228
 20
177.7962398005348
 30
0.0
 11
315.4011846071229
 21
177.7962398005348
 31
0.0
  0
ARC
  5
1079
330
1F
100
AcDbEntity
  8
10
100
AcDbCircle
 10
315.4011846071229
 20
175.7962398005348
 30
0.0
 40
2.0
100
AcDbArc
 50
0.0
 51
90.0
  0
ARC
  5
107A
330
1F
100
AcDbEntity
  8
10
100
AcDbCircle
 10
53.18090876330585
 20
158.3962398005312
 30
0.0
 40
1.0
100
AcDbArc
 50
90.0
 51
180.0
  0
LINE
  5
10A6
330
1F
100
AcDbEntity
  8
10
100
AcDbLine
 10
79.18090876330585
 20
163.2962398005312
 30
0.0
 11
92.18090876330585
 21
163.2962398005312
 31
0.0
  0
LINE
  5
10A7
330
1F
100
AcDbEntity
  8
10
100
AcDbLine
 10
111.1809087633058
 20
157.2962398005312
 30
0.0
 11
60.18090876330585
 21
157.2962398005312
 31
0.0
  0
LINE
  5
10AE
330
1F
100
AcDbEntity
  8
10
100
AcDbLine
 10
56.18090876330585
 20
155.2962398005312
 30
0.0
 11
55.18090876330585
 21
156.2962398005312
 31
0.0
  0
LINE
  5
10AF
330
1F
100
AcDbEntity
  8
10
100
AcDbLine
 10
56.18090876330585
 20
156.2962398005312
 30
0.0
 11
57.18090876330585
 21
155.2962398005312
 31
0.0
  0
ARC
  5
10B0
330
1F
100
AcDbEntity
  8
10
100
AcDbCircle
 10
71.68090876330585
 20
166.3962398005312
 30
0.0
 40
2.5
100
AcDbArc
 50
0.0
 51
90.0
  0
LINE
  5
10B8
330
1F
100
AcDbEntity
  8
10
100
AcDbLine
 10
65.18090876330585
 20
165.5962398005312
 30
0.0
 11
74.18090876330585
 21
165.5962398005312
 31
0.0
  0
LINE
  5
10B9
330
1F
100
AcDbEntity
  8
10
100
AcDbLine
 10
63.18090876330585
 20
163.2962398005312
 30
0.0
 11
76.18090876330585
 21
163.2962398005312
 31
0.0
  0
ARC
  5
10C1
330
1F
100
AcDbEntity
  8
10
100
AcDbCircle
 10
59.18090876330585
 20
158.3962398005312
 30
0.0
 40
1.0
100
AcDbArc
 50
0.0
 51
90.0
  0
LINE
  5
10C2
330
1F
100
AcDbEntity
  8
10
100
AcDbLine
 10
53.18090876330585
 20
159.3962398005312
 30
0.0
 11
59.18090876330585
 21
159.3962398005312
 31
0.0
  0
LINE
  5
10C3
330
1F
100
AcDbEntity
  8
10
100
AcDbLine
 10
67.68090876330585
 20
168.8962398005312
 30
0.0
 11
71.68090876330585
 21
168.8962398005312
 31
0.0
  0
LINE
  5
10C4
330
1F
100
AcDbEntity
  8
10
100
AcDbLine
 10
69.68090876330585
 20
165.5962398005312
 30
0.0
 11
70.98090876330586
 21
164.2962398005312
 31
0.0
  0
LINE
  5
10C5
330
1F
100
AcDbEntity
  8
10
100
AcDbLine
 10
69.68090876330585
 20
164.2962398005312
 30
0.0
 11
68.38090876330584
 21
165.5962398005312
 31
0.0
  0
LINE
  5
10C6
330
1F
100
AcDbEntity
  8
10
100
AcDbLine
 10
65.18090876330585
 20
165.5962398005312
 30
0.0
 11
65.18090876330585
 21
166.3962398005312
 31
0.0
  0
ARC
  5
10C7
330
1F
100
AcDbEntity
  8
10
100
AcDbCircle
 10
67.68090876330585
 20
166.3962398005312
 30
0.0
 40
2.5
100
AcDbArc
 50
90.0
 51
180.0
  0
LINE
  5
10D6
330
1F
100
AcDbEntity
  8
10
100
AcDbLine
 10
81.18090876330585
 20
165.5962398005312
 30
0.0
 11
90.18090876330585
 21
165.5962398005312
 31
0.0
  0
ARC
  5
10D7
330
1F
100
AcDbEntity
  8
10
100
AcDbCircle
 10
83.68090876330585
 20
166.3962398005312
 30
0.0
 40
2.5
100
AcDbArc
 50
90.0
 51
180.0
  0
LINE
  5
10D8
330
1F
100
AcDbEntity
  8
10
100
AcDbLine
 10
81.18090876330585
 20
165.5962398005312
 30
0.0
 11
81.18090876330585
 21
166.3962398005312
 31
0.0
  0
LINE
  5
10D9
330
1F
100
AcDbEntity
  8
10
100
AcDbLine
 10
74.18090876330585
 20
166.3962398005312
 30
0.0
 11
74.18090876330585
 21
165.5962398005312
 31
0.0
  0
LINE
  5
10DA
330
1F
100
AcDbEntity
  8
10
100
AcDbLine
 10
83.68090876330585
 20
168.8962398005312
 30
0.0
 11
87.68090876330585
 21
168.8962398005312
 31
0.0
  0
LINE
  5
10DB
330
1F
100
AcDbEntity
  8
10
100
AcDbLine
 10
90.18090876330585
 20
166.3962398005312
 30
0.0
 11
90.18090876330585
 21
165.5962398005312
 31
0.0
  0
LINE
  5
10DC
330
1F
100
AcDbEntity
  8
10
100
AcDbLine
 10
85.68090876330584
 20
164.2962398005312
 30
0.0
 11
84.38090876330585
 21
165.5962398005312
 31
0.0
  0
LINE
  5
10DD
330
1F
100
AcDbEntity
  8
10
100
AcDbLine
 10
85.68090876330584
 20
165.5962398005312
 30
0.0
 11
86.98090876330587
 21
164.2962398005312
 31
0.0
  0
ARC
  5
10DE
330
1F
100
AcDbEntity
  8
10
100
AcDbCircle
 10
87.68090876330585
 20
166.3962398005312
 30
0.0
 40
2.5
100
AcDbArc
 50
0.0
 51
90.0
  0
LINE
  5
10DF
330
1F
100
AcDbEntity
  8
10
100
AcDbLine
 10
115.1809087633058
 20
156.2962398005312
 30
0.0
 11
116.1809087633058
 21
155.2962398005312
 31
0.0
  0
LINE
  5
10E7
330
1F
100
AcDbEntity
  8
10
100
AcDbLine
 10
115.1809087633058
 20
155.2962398005312
 30
0.0
 11
114.1809087633058
 21
156.2962398005312
 31
0.0
  0
LINE
  5
10ED
330
1F
100
AcDbEntity
  8
10
100
AcDbLine
 10
111.1809087633058
 20
147.2962398005312
 30
0.0
 11
119.1809087633058
 21
147.2962398005312
 31
0.0
  0
LINE
  5
10F5
330
1F
100
AcDbEntity
  8
10
100
AcDbLine
 10
95.18090876330585
 20
163.2962398005312
 30
0.0
 11
108.1809087633058
 21
163.2962398005312
 31
0.0
  0
LINE
  5
10F6
330
1F
100
AcDbEntity
  8
10
100
AcDbLine
 10
99.68090876330585
 20
168.8962398005312
 30
0.0
 11
103.6809087633058
 21
168.8962398005312
 31
0.0
  0
LINE
  5
10F7
330
1F
100
AcDbEntity
  8
10
100
AcDbLine
 10
101.6809087633058
 20
164.2962398005312
 30
0.0
 11
100.3809087633058
 21
165.5962398005312
 31
0.0
  0
LINE
  5
10FF
330
1F
100
AcDbEntity
  8
10
100
AcDbLine
 10
97.18090876330585
 20
165.5962398005312
 30
0.0
 11
106.1809087633058
 21
165.5962398005312
 31
0.0
  0
LINE
  5
1100
330
1F
100
AcDbEntity
  8
10
100
AcDbLine
 10
97.18090876330585
 20
165.5962398005312
 30
0.0
 11
97.18090876330585
 21
166.3962398005312
 31
0.0
  0
ARC
  5
1101
330
1F
100
AcDbEntity
  8
10
100
AcDbCircle
 10
99.68090876330585
 20
166.3962398005312
 30
0.0
 40
2.5
100
AcDbArc
 50
90.0
 51
180.0
  0
LINE
  5
1102
330
1F
100
AcDbEntity
  8
10
100
AcDbLine
 10
106.1809087633058
 20
166.3962398005312
 30
0.0
 11
106.1809087633058
 21
165.5962398005312
 31
0.0
  0
LINE
  5
1103
330
1F
100
AcDbEntity
  8
10
100
AcDbLine
 10
101.6809087633058
 20
165.5962398005312
 30
0.0
 11
102.9809087633058
 21
164.2962398005312
 31
0.0
  0
ARC
  5
1104
330
1F
100
AcDbEntity
  8
10
100
AcDbCircle
 10
103.6809087633058
 20
166.3962398005312
 30
0.0
 40
2.5
100
AcDbArc
 50
0.0
 51
90.0
  0
ARC
  5
1105
330
1F
100
AcDbEntity
  8
10
100
AcDbCircle
 10
118.1809087633058
 20
158.3962398005312
 30
0.0
 40
1.0
100
AcDbArc
 50
0.0
 51
90.0
  0
ARC
  5
1106
330
1F
100
AcDbEntity
  8
10
100
AcDbCircle
 10
112.1809087633058
 20
158.3962398005312
 30
0.0
 40
1.0
100
AcDbArc
 50
90.0
 51
180.0
  0
LINE
  5
1107
330
1F
100
AcDbEntity
  8
10
100
AcDbLine
 10
112.1809087633058
 20
159.3962398005312
 30
0.0
 11
118.1809087633058
 21
159.3962398005312
 31
0.0
  0
ARC
  5
1110
330
1F
100
AcDbEntity
  8
10
100
AcDbCircle
 10
123.1809087633058
 20
158.3962398005312
 30
0.0
 40
1.0
100
AcDbArc
 50
90.0
 51
180.0
  0
LINE
  5
113C
330
1F
100
AcDbEntity
  8
10
100
AcDbLine
 10
149.1809087633058
 20
163.2962398005312
 30
0.0
 11
162.1809087633058
 21
163.2962398005312
 31
0.0
  0
LINE
  5
113D
330
1F
100
AcDbEntity
  8
10
100
AcDbLine
 10
181.1809087633058
 20
157.2962398005312
 30
0.0
 11
130.1809087633058
 21
157.2962398005312
 31
0.0
  0
LINE
  5
1144
330
1F
100
AcDbEntity
  8
10
100
AcDbLine
 10
126.1809087633058
 20
155.2962398005312
 30
0.0
 11
125.1809087633058
 21
156.2962398005312
 31
0.0
  0
LINE
  5
1145
330
1F
100
AcDbEntity
  8
10
100
AcDbLine
 10
126.1809087633058
 20
156.2962398005312
 30
0.0
 11
127.1809087633058
 21
155.2962398005312
 31
0.0
  0
ARC
  5
1146
330
1F
100
AcDbEntity
  8
10
100
AcDbCircle
 10
141.6809087633058
 20
166.3962398005312
 30
0.0
 40
2.5
100
AcDbArc
 50
0.0
 51
90.0
  0
LINE
  5
114E
330
1F
100
AcDbEntity
  8
10
100
AcDbLine
 10
135.1809087633058
 20
165.5962398005312
 30
0.0
 11
144.1809087633058
 21
165.5962398005312
 31
0.0
  0
LINE
  5
114F
330
1F
100
AcDbEntity
  8
10
100
AcDbLine
 10
133.1809087633058
 20
163.2962398005312
 30
0.0
 11
146.1809087633058
 21
163.2962398005312
 31
0.0
  0
ARC
  5
1157
330
1F
100
AcDbEntity
  8
10
100
AcDbCircle
 10
129.1809087633058
 20
158.3962398005312
 30
0.0
 40
1.0
100
AcDbArc
 50
0.0
 51
90.0
  0
LINE
  5
1158
330
1F
100
AcDbEntity
  8
10
100
AcDbLine
 10
123.1809087633058
 20
159.3962398005312
 30
0.0
 11
129.1809087633058
 21
159.3962398005312
 31
0.0
  0
LINE
  5
1159
330
1F
100
AcDbEntity
  8
10
100
AcDbLine
 10
137.6809087633058
 20
168.8962398005312
 30
0.0
 11
141.6809087633058
 21
168.8962398005312
 31
0.0
  0
LINE
  5
115A
330
1F
100
AcDbEntity
  8
10
100
AcDbLine
 10
139.6809087633058
 20
165.5962398005312
 30
0.0
 11
140.9809087633058
 21
164.2962398005312
 31
0.0
  0
LINE
  5
115B
330
1F
100
AcDbEntity
  8
10
100
AcDbLine
 10
139.6809087633058
 20
164.2962398005312
 30
0.0
 11
138.3809087633058
 21
165.5962398005312
 31
0.0
  0
LINE
  5
115C
330
1F
100
AcDbEntity
  8
10
100
AcDbLine
 10
135.1809087633058
 20
165.5962398005312
 30
0.0
 11
135.1809087633058
 21
166.3962398005312
 31
0.0
  0
ARC
  5
115D
330
1F
100
AcDbEntity
  8
10
100
AcDbCircle
 10
137.6809087633058
 20
166.3962398005312
 30
0.0
 40
2.5
100
AcDbArc
 50
90.0
 51
180.0
  0
LINE
  5
116C
330
1F
100
AcDbEntity
  8
10
100
AcDbLine
 10
151.1809087633058
 20
165.5962398005312
 30
0.0
 11
160.1809087633058
 21
165.5962398005312
 31
0.0
  0
ARC
  5
116D
330
1F
100
AcDbEntity
  8
10
100
AcDbCircle
 10
153.6809087633058
 20
166.3962398005312
 30
0.0
 40
2.5
100
AcDbArc
 50
90.0
 51
180.0
  0
LINE
  5
116E
330
1F
100
AcDbEntity
  8
10
100
AcDbLine
 10
151.1809087633058
 20
165.5962398005312
 30
0.0
 11
151.1809087633058
 21
166.3962398005312
 31
0.0
  0
LINE
  5
116F
330
1F
100
AcDbEntity
  8
10
100
AcDbLine
 10
144.1809087633058
 20
166.3962398005312
 30
0.0
 11
144.1809087633058
 21
165.5962398005312
 31
0.0
  0
LINE
  5
1170
330
1F
100
AcDbEntity
  8
10
100
AcDbLine
 10
153.6809087633058
 20
168.8962398005312
 30
0.0
 11
157.6809087633058
 21
168.8962398005312
 31
0.0
  0
LINE
  5
1171
330
1F
100
AcDbEntity
  8
10
100
AcDbLine
 10
160.1809087633058
 20
166.3962398005312
 30
0.0
 11
160.1809087633058
 21
165.5962398005312
 31
0.0
  0
LINE
  5
1172
330
1F
100
AcDbEntity
  8
10
100
AcDbLine
 10
155.6809087633058
 20
164.2962398005312
 30
0.0
 11
154.3809087633058
 21
165.5962398005312
 31
0.0
  0
LINE
  5
1173
330
1F
100
AcDbEntity
  8
10
100
AcDbLine
 10
155.6809087633058
 20
165.5962398005312
 30
0.0
 11
156.9809087633058
 21
164.2962398005312
 31
0.0
  0
ARC
  5
1174
330
1F
100
AcDbEntity
  8
10
100
AcDbCircle
 10
157.6809087633058
 20
166.3962398005312
 30
0.0
 40
2.5
100
AcDbArc
 50
0.0
 51
90.0
  0
LINE
  5
1175
330
1F
100
AcDbEntity
  8
10
100
AcDbLine
 10
185.1809087633058
 20
156.2962398005312
 30
0.0
 11
186.1809087633058
 21
155.2962398005312
 31
0.0
  0
LINE
  5
117D
330
1F
100
AcDbEntity
  8
10
100
AcDbLine
 10
185.1809087633058
 20
155.2962398005312
 30
0.0
 11
184.1809087633058
 21
156.2962398005312
 31
0.0
  0
LINE
  5
1183
330
1F
100
AcDbEntity
  8
10
100
AcDbLine
 10
181.1809087633058
 20
147.2962398005312
 30
0.0
 11
189.1809087633058
 21
147.2962398005312
 31
0.0
  0
LINE
  5
118B
330
1F
100
AcDbEntity
  8
10
100
AcDbLine
 10
165.1809087633058
 20
163.2962398005312
 30
0.0
 11
178.1809087633058
 21
163.2962398005312
 31
0.0
  0
LINE
  5
118C
330
1F
100
AcDbEntity
  8
10
100
AcDbLine
 10
169.6809087633058
 20
168.8962398005312
 30
0.0
 11
173.6809087633058
 21
168.8962398005312
 31
0.0
  0
LINE
  5
118D
330
1F
100
AcDbEntity
  8
10
100
AcDbLine
 10
171.6809087633058
 20
164.2962398005312
 30
0.0
 11
170.3809087633058
 21
165.5962398005312
 31
0.0
  0
LINE
  5
1195
330
1F
100
AcDbEntity
  8
10
100
AcDbLine
 10
167.1809087633058
 20
165.5962398005312
 30
0.0
 11
176.1809087633058
 21
165.5962398005312
 31
0.0
  0
LINE
  5
1196
330
1F
100
AcDbEntity
  8
10
100
AcDbLine
 10
167.1809087633058
 20
165.5962398005312
 30
0.0
 11
167.1809087633058
 21
166.3962398005312
 31
0.0
  0
ARC
  5
1197
330
1F
100
AcDbEntity
  8
10
100
AcDbCircle
 10
169.6809087633058
 20
166.3962398005312
 30
0.0
 40
2.5
100
AcDbArc
 50
90.0
 51
180.0
  0
LINE
  5
1198
330
1F
100
AcDbEntity
  8
10
100
AcDbLine
 10
176.1809087633058
 20
166.3962398005312
 30
0.0
 11
176.1809087633058
 21
165.5962398005312
 31
0.0
  0
LINE
  5
1199
330
1F
100
AcDbEntity
  8
10
100
AcDbLine
 10
171.6809087633058
 20
165.5962398005312
 30
0.0
 11
172.9809087633058
 21
164.2962398005312
 31
0.0
  0
ARC
  5
119A
330
1F
100
AcDbEntity
  8
10
100
AcDbCircle
 10
173.6809087633058
 20
166.3962398005312
 30
0.0
 40
2.5
100
AcDbArc
 50
0.0
 51
90.0
  0
ARC
  5
119B
330
1F
100
AcDbEntity
  8
10
100
AcDbCircle
 10
188.1809087633058
 20
158.3962398005312
 30
0.0
 40
1.0
100
AcDbArc
 50
0.0
 51
90.0
  0
ARC
  5
119C
330
1F
100
AcDbEntity
  8
10
100
AcDbCircle
 10
182.1809087633058
 20
158.3962398005312
 30
0.0
 40
1.0
100
AcDbArc
 50
90.0
 51
180.0
  0
LINE
  5
119D
330
1F
100
AcDbEntity
  8
10
100
AcDbLine
 10
182.1809087633058
 20
159.3962398005312
 30
0.0
 11
188.1809087633058
 21
159.3962398005312
 31
0.0
  0
LINE
  5
11A6
330
1F
100
AcDbEntity
  8
10
100
AcDbLine
 10
304.4011846071194
 20
120.796239800535
 30
0.0
 11
336.9011846071299
 21
120.7962398005205
 31
0.0
  0
LINE
  5
11A7
330
1F
100
AcDbEntity
  8
10
100
AcDbLine
 10
336.9011846071299
 20
120.7962398005205
 30
0.0
 11
336.9011846071296
 21
119.2962398005205
 31
0.0
  0
LINE
  5
11A8
330
1F
100
AcDbEntity
  8
10
100
AcDbLine
 10
336.9011846071296
 20
119.2962398005205
 30
0.0
 11
304.4011846071194
 21
119.2962398005349
 31
0.0
  0
LINE
  5
11A9
330
1F
100
AcDbEntity
  8
10
100
AcDbLine
 10
284.9011846071302
 20
122.2962398005349
 30
0.0
 11
323.9011846071168
 21
122.2962398005205
 31
0.0
  0
LINE
  5
11AA
330
1F
100
AcDbEntity
  8
10
100
AcDbLine
 10
323.9011846071166
 20
121.2962398005204
 30
0.0
 11
284.90118460713
 21
121.2962398005349
 31
0.0
  0
LINE
  5
11AB
330
1F
100
AcDbEntity
  8
10
100
AcDbLine
 10
304.4011846071194
 20
142.296239800535
 30
0.0
 11
323.9011846071193
 21
142.2962398005205
 31
0.0
  0
LINE
  5
11AC
330
1F
100
AcDbEntity
  8
10
100
AcDbLine
 10
323.9011846071193
 20
142.2962398005205
 30
0.0
 11
323.9011846071166
 21
120.7962398005205
 31
0.0
  0
LINE
  5
11AD
330
1F
100
AcDbEntity
  8
10
100
AcDbLine
 10
304.4011846071324
 20
142.296239800535
 30
0.0
 11
284.9011846071329
 21
142.296239800535
 31
0.0
  0
LINE
  5
11AE
330
1F
100
AcDbEntity
  8
10
100
AcDbLine
 10
284.9011846071329
 20
142.296239800535
 30
0.0
 11
284.9011846071299
 21
120.7962398005375
 31
0.0
  0
LINE
  5
11AF
330
1F
100
AcDbEntity
  8
12
100
AcDbLine
 10
341.9011846071173
 20
33.8076197745238
 30
0.0
 11
341.9011846071171
 21
28.93181536459943
 31
0.0
  0
LINE
  5
11B0
330
1F
100
AcDbEntity
  8
10
100
AcDbLine
 10
304.4011846071181
 20
31.29623980053504
 30
0.0
 11
284.9011846071192
 21
31.29623980053504
 31
0.0
  0
LINE
  5
11B1
330
1F
100
AcDbEntity
  8
10
100
AcDbLine
 10
284.9011846071192
 20
31.29623980053504
 30
0.0
 11
284.9011846071226
 21
52.79623980053507
 31
0.0
  0
LINE
  5
11B2
330
1F
100
AcDbEntity
  8
10
100
AcDbLine
 10
304.4011846071181
 20
31.29623980053504
 30
0.0
 11
323.901184607109
 21
31.29623980052055
 31
0.0
  0
LINE
  5
11B3
330
1F
100
AcDbEntity
  8
10
100
AcDbLine
 10
323.901184607109
 20
31.29623980052055
 30
0.0
 11
323.9011846071118
 21
52.79623980052057
 31
0.0
  0
LINE
  5
11B4
330
1F
100
AcDbEntity
  8
10
100
AcDbLine
 10
304.4011846071194
 20
54.29623980053505
 30
0.0
 11
336.9011846071259
 21
54.29623980052055
 31
0.0
  0
LINE
  5
11B5
330
1F
100
AcDbEntity
  8
10
100
AcDbLine
 10
336.9011846071259
 20
54.29623980052055
 30
0.0
 11
336.9011846071258
 21
52.79623980052057
 31
0.0
  0
LINE
  5
11B6
330
1F
100
AcDbEntity
  8
10
100
AcDbLine
 10
336.9011846071258
 20
52.79623980052057
 30
0.0
 11
304.4011846071194
 21
52.79623980053507
 31
0.0
  0
LINE
  5
11B7
330
1F
100
AcDbEntity
  8
10
100
AcDbLine
 10
323.9011846071193
 20
51.29623980052055
 30
0.0
 11
284.9011846071233
 21
51.29623980053505
 31
0.0
  0
LINE
  5
11B8
330
1F
100
AcDbEntity
  8
10
100
AcDbLine
 10
284.9011846071225
 20
52.29623980053505
 30
0.0
 11
323.9011846071118
 21
52.29623980052055
 31
0.0
  0
LINE
  5
11B9
330
1F
100
AcDbEntity
  8
10
100
AcDbLine
 10
336.9011846071296
 20
119.2962398005205
 30
0.0
 11
336.9011846071259
 21
53.79623980052055
 31
0.0
  0
LINE
  5
11BA
330
1F
100
AcDbEntity
  8
12
100
AcDbLine
 10
266.9011846071172
 20
33.65330625632134
 30
0.0
 11
266.9011846071172
 21
28.99728551260079
 31
0.0
  0
LINE
  5
11BB
330
1F
100
AcDbEntity
  8
10
100
AcDbLine
 10
271.9011846071273
 20
119.7962398005402
 30
0.0
 11
271.9011846071203
 21
54.29623980054024
 31
0.0
  0
LINE
  5
11BC
330
1F
100
AcDbEntity
  8
10
100
AcDbLine
 10
304.4011846071194
 20
54.29623980053505
 30
0.0
 11
271.9011846071203
 21
54.29623980054024
 31
0.0
  0
LINE
  5
11BD
330
1F
100
AcDbEntity
  8
10
100
AcDbLine
 10
271.9011846071203
 20
54.29623980054024
 30
0.0
 11
271.9011846071202
 21
52.79623980053507
 31
0.0
  0
LINE
  5
11BE
330
1F
100
AcDbEntity
  8
10
100
AcDbLine
 10
271.9011846071202
 20
52.79623980053507
 30
0.0
 11
304.4011846071194
 21
52.79623980053507
 31
0.0
  0
LINE
  5
11BF
330
1F
100
AcDbEntity
  8
10
100
AcDbLine
 10
304.4011846071194
 20
120.796239800535
 30
0.0
 11
271.9011846071275
 21
120.7962398005402
 31
0.0
  0
LINE
  5
11C0
330
1F
100
AcDbEntity
  8
10
100
AcDbLine
 10
271.9011846071275
 20
120.7962398005402
 30
0.0
 11
271.9011846071273
 21
119.2962398005402
 31
0.0
  0
LINE
  5
11C1
330
1F
100
AcDbEntity
  8
10
100
AcDbLine
 10
271.9011846071273
 20
119.2962398005402
 30
0.0
 11
304.4011846071194
 21
119.2962398005349
 31
0.0
  0
LINE
  5
11C2
330
1F
100
AcDbEntity
  8
12
100
AcDbLine
 10
163.8454568790204
 20
41.29623980053154
 30
0.0
 11
177.5163606476751
 21
41.29623980053154
 31
0.0
  0
LINE
  5
11C3
330
1F
100
AcDbEntity
  8
10
100
AcDbLine
 10
167.1809087633478
 20
39.27551385836784
 30
0.0
 11
170.6809087633478
 21
37.25478791620416
 31
0.0
  0
LINE
  5
11C4
330
1F
100
AcDbEntity
  8
10
100
AcDbLine
 10
170.6809087633478
 20
37.25478791620416
 30
0.0
 11
174.1809087633478
 21
39.27551385836774
 31
0.0
  0
LINE
  5
11C5
330
1F
100
AcDbEntity
  8
10
100
AcDbLine
 10
174.1809087633478
 20
39.27551385836774
 30
0.0
 11
174.1809087633478
 21
43.31696574269523
 31
0.0
  0
LINE
  5
11C6
330
1F
100
AcDbEntity
  8
10
100
AcDbLine
 10
174.1809087633478
 20
43.31696574269523
 30
0.0
 11
170.6809087633478
 21
45.33769168485889
 31
0.0
  0
LINE
  5
11C7
330
1F
100
AcDbEntity
  8
10
100
AcDbLine
 10
170.6809087633478
 20
45.33769168485889
 30
0.0
 11
167.1809087633478
 21
43.31696574269528
 31
0.0
  0
LINE
  5
11C8
330
1F
100
AcDbEntity
  8
10
100
AcDbLine
 10
167.1809087633478
 20
43.31696574269528
 30
0.0
 11
167.1809087633478
 21
39.27551385836784
 31
0.0
  0
CIRCLE
  5
11C9
330
1F
100
AcDbEntity
  8
10
100
AcDbCircle
 10
170.6809087633478
 20
41.29623980053154
 30
0.0
 40
3.5
  0
LINE
  5
11CA
330
1F
100
AcDbEntity
  8
12
100
AcDbLine
 10
170.6809087633478
 20
48.13169168485889
 30
0.0
 11
170.6809087633478
 21
34.46078791620418
 31
0.0
  0
CIRCLE
  5
11CC
330
1F
100
AcDbEntity
  8
10
100
AcDbCircle
 10
170.6809087633478
 20
41.29623980053154
 30
0.0
 40
1.999999999999999
  0
LINE
  5
11CD
330
1F
100
AcDbEntity
  8
12
100
AcDbLine
 10
165.8869087633478
 20
41.29623980053154
 30
0.0
 11
175.4749087633477
 21
41.29623980053154
 31
0.0
  0
LINE
  5
11CE
330
1F
100
AcDbEntity
  8
12
100
AcDbLine
 10
170.6809087633478
 20
46.09023980053153
 30
0.0
 11
170.6809087633478
 21
36.50223980053154
 31
0.0
  0
CIRCLE
  5
11CF
330
1F
100
AcDbEntity
  8
10
100
AcDbCircle
 10
170.6809087633478
 20
41.29623980053154
 30
0.0
 40
4.5
  0
LINE
  5
11D0
330
1F
100
AcDbEntity
  8
12
100
AcDbLine
 10
163.3869087633478
 20
41.29623980053154
 30
0.0
 11
177.9749087633478
 21
41.29623980053154
 31
0.0
  0
LINE
  5
11D1
330
1F
100
AcDbEntity
  8
12
100
AcDbLine
 10
170.6809087633478
 20
48.59023980053155
 30
0.0
 11
170.6809087633478
 21
34.00223980053154
 31
0.0
  0
LINE
  5
11D2
330
1F
100
AcDbEntity
  8
12
100
AcDbLine
 10
113.8454568790083
 20
41.29623980053154
 30
0.0
 11
127.516360647663
 21
41.29623980053154
 31
0.0
  0
LINE
  5
11D3
330
1F
100
AcDbEntity
  8
10
100
AcDbLine
 10
117.1809087633357
 20
39.27551385836784
 30
0.0
 11
120.6809087633357
 21
37.25478791620416
 31
0.0
  0
LINE
  5
11D4
330
1F
100
AcDbEntity
  8
10
100
AcDbLine
 10
120.6809087633357
 20
37.25478791620416
 30
0.0
 11
124.1809087633357
 21
39.27551385836774
 31
0.0
  0
LINE
  5
11D5
330
1F
100
AcDbEntity
  8
10
100
AcDbLine
 10
124.1809087633357
 20
39.27551385836774
 30
0.0
 11
124.1809087633357
 21
43.31696574269523
 31
0.0
  0
LINE
  5
11D6
330
1F
100
AcDbEntity
  8
10
100
AcDbLine
 10
124.1809087633357
 20
43.31696574269523
 30
0.0
 11
120.6809087633357
 21
45.33769168485889
 31
0.0
  0
LINE
  5
11D7
330
1F
100
AcDbEntity
  8
10
100
AcDbLine
 10
120.6809087633357
 20
45.33769168485889
 30
0.0
 11
117.1809087633357
 21
43.31696574269528
 31
0.0
  0
LINE
  5
11D8
330
1F
100
AcDbEntity
  8
10
100
AcDbLine
 10
117.1809087633357
 20
43.31696574269528
 30
0.0
 11
117.1809087633357
 21
39.27551385836784
 31
0.0
  0
CIRCLE
  5
11D9
330
1F
100
AcDbEntity
  8
10
100
AcDbCircle
 10
120.6809087633357
 20
41.29623980053154
 30
0.0
 40
3.5
  0
LINE
  5
11DA
330
1F
100
AcDbEntity
  8
12
100
AcDbLine
 10
120.6809087633357
 20
48.13169168485889
 30
0.0
 11
120.6809087633357
 21
34.46078791620418
 31
0.0
  0
CIRCLE
  5
11DC
330
1F
100
AcDbEntity
  8
10
100
AcDbCircle
 10
120.6809087633357
 20
41.29623980053154
 30
0.0
 40
1.999999999999999
  0
LINE
  5
11DD
330
1F
100
AcDbEntity
  8
12
100
AcDbLine
 10
115.8869087633357
 20
41.29623980053154
 30
0.0
 11
125.4749087633357
 21
41.29623980053154
 31
0.0
  0
LINE
  5
11DE
330
1F
100
AcDbEntity
  8
12
100
AcDbLine
 10
120.6809087633357
 20
46.09023980053153
 30
0.0
 11
120.6809087633357
 21
36.50223980053154
 31
0.0
  0
CIRCLE
  5
11DF
330
1F
100
AcDbEntity
  8
10
100
AcDbCircle
 10
120.6809087633357
 20
41.29623980053154
 30
0.0
 40
4.5
  0
LINE
  5
11E0
330
1F
100
AcDbEntity
  8
12
100
AcDbLine
 10
113.3869087633357
 20
41.29623980053154
 30
0.0
 11
127.9749087633357
 21
41.29623980053154
 31
0.0
  0
LINE
  5
11E1
330
1F
100
AcDbEntity
  8
12
100
AcDbLine
 10
120.6809087633357
 20
48.59023980053155
 30
0.0
 11
120.6809087633357
 21
34.00223980053154
 31
0.0
  0
LINE
  5
11E2
330
1F
100
AcDbEntity
  8
12
100
AcDbLine
 10
63.84545687899763
 20
41.29623980053154
 30
0.0
 11
77.51636064765235
 21
41.29623980053154
 31
0.0
  0
LINE
  5
11E3
330
1F
100
AcDbEntity
  8
10
100
AcDbLine
 10
67.180908763325
 20
39.27551385836784
 30
0.0
 11
70.68090876332499
 21
37.25478791620416
 31
0.0
  0
LINE
  5
11E4
330
1F
100
AcDbEntity
  8
10
100
AcDbLine
 10
70.68090876332499
 20
37.25478791620416
 30
0.0
 11
74.18090876332499
 21
39.27551385836774
 31
0.0
  0
LINE
  5
11E5
330
1F
100
AcDbEntity
  8
10
100
AcDbLine
 10
74.18090876332499
 20
39.27551385836774
 30
0.0
 11
74.18090876332499
 21
43.31696574269523
 31
0.0
  0
LINE
  5
11E6
330
1F
100
AcDbEntity
  8
10
100
AcDbLine
 10
74.18090876332499
 20
43.31696574269523
 30
0.0
 11
70.68090876332502
 21
45.33769168485889
 31
0.0
  0
LINE
  5
11E7
330
1F
100
AcDbEntity
  8
10
100
AcDbLine
 10
70.68090876332502
 20
45.33769168485889
 30
0.0
 11
67.180908763325
 21
43.31696574269528
 31
0.0
  0
LINE
  5
11E8
330
1F
100
AcDbEntity
  8
10
100
AcDbLine
 10
67.180908763325
 20
43.31696574269528
 30
0.0
 11
67.180908763325
 21
39.27551385836784
 31
0.0
  0
CIRCLE
  5
11E9
330
1F
100
AcDbEntity
  8
10
100
AcDbCircle
 10
70.68090876332499
 20
41.29623980053154
 30
0.0
 40
3.5
  0
LINE
  5
11EA
330
1F
100
AcDbEntity
  8
12
100
AcDbLine
 10
70.68090876332499
 20
48.13169168485889
 30
0.0
 11
70.68090876332499
 21
34.46078791620418
 31
0.0
  0
CIRCLE
  5
11EC
330
1F
100
AcDbEntity
  8
10
100
AcDbCircle
 10
70.68090876332499
 20
41.29623980053154
 30
0.0
 40
1.999999999999999
  0
LINE
  5
11ED
330
1F
100
AcDbEntity
  8
12
100
AcDbLine
 10
65.88690876332498
 20
41.29623980053154
 30
0.0
 11
75.47490876332499
 21
41.29623980053154
 31
0.0
  0
LINE
  5
11EE
330
1F
100
AcDbEntity
  8
12
100
AcDbLine
 10
70.68090876332499
 20
46.09023980053153
 30
0.0
 11
70.68090876332499
 21
36.50223980053154
 31
0.0
  0
CIRCLE
  5
11EF
330
1F
100
AcDbEntity
  8
10
100
AcDbCircle
 10
70.68090876332499
 20
41.29623980053154
 30
0.0
 40
4.5
  0
LINE
  5
11F0
330
1F
100
AcDbEntity
  8
12
100
AcDbLine
 10
63.38690876332498
 20
41.29623980053154
 30
0.0
 11
77.97490876332499
 21
41.29623980053154
 31
0.0
  0
LINE
  5
11F1
330
1F
100
AcDbEntity
  8
12
100
AcDbLine
 10
70.68090876332499
 20
48.59023980053155
 30
0.0
 11
70.68090876332499
 21
34.00223980053154
 31
0.0
  0
LINE
  5
11F2
330
1F
100
AcDbEntity
  8
12
100
AcDbLine
 10
63.84545687899763
 20
132.2962398005314
 30
0.0
 11
77.51636064765235
 21
132.2962398005314
 31
0.0
  0
LINE
  5
11F3
330
1F
100
AcDbEntity
  8
10
100
AcDbLine
 10
67.180908763325
 20
130.2755138583677
 30
0.0
 11
70.68090876332499
 21
128.254787916204
 31
0.0
  0
LINE
  5
11F4
330
1F
100
AcDbEntity
  8
10
100
AcDbLine
 10
70.68090876332499
 20
128.254787916204
 30
0.0
 11
74.18090876332499
 21
130.2755138583676
 31
0.0
  0
LINE
  5
11F5
330
1F
100
AcDbEntity
  8
10
100
AcDbLine
 10
74.18090876332499
 20
130.2755138583676
 30
0.0
 11
74.18090876332499
 21
134.3169657426951
 31
0.0
  0
LINE
  5
11F6
330
1F
100
AcDbEntity
  8
10
100
AcDbLine
 10
74.18090876332499
 20
134.3169657426951
 30
0.0
 11
70.68090876332502
 21
136.3376916848588
 31
0.0
  0
LINE
  5
11F7
330
1F
100
AcDbEntity
  8
10
100
AcDbLine
 10
70.68090876332502
 20
136.3376916848588
 30
0.0
 11
67.180908763325
 21
134.3169657426952
 31
0.0
  0
LINE
  5
11F8
330
1F
100
AcDbEntity
  8
10
100
AcDbLine
 10
67.180908763325
 20
134.3169657426952
 30
0.0
 11
67.180908763325
 21
130.2755138583677
 31
0.0
  0
CIRCLE
  5
11F9
330
1F
100
AcDbEntity
  8
10
100
AcDbCircle
 10
70.68090876332499
 20
132.2962398005314
 30
0.0
 40
3.5
  0
LINE
  5
11FA
330
1F
100
AcDbEntity
  8
12
100
AcDbLine
 10
70.68090876332499
 20
139.1316916848588
 30
0.0
 11
70.68090876332499
 21
125.4607879162041
 31
0.0
  0
CIRCLE
  5
11FC
330
1F
100
AcDbEntity
  8
10
100
AcDbCircle
 10
70.68090876332499
 20
132.2962398005314
 30
0.0
 40
1.999999999999999
  0
LINE
  5
11FD
330
1F
100
AcDbEntity
  8
12
100
AcDbLine
 10
65.88690876332498
 20
132.2962398005314
 30
0.0
 11
75.47490876332499
 21
132.2962398005314
 31
0.0
  0
LINE
  5
11FE
330
1F
100
AcDbEntity
  8
12
100
AcDbLine
 10
70.68090876332499
 20
137.0902398005314
 30
0.0
 11
70.68090876332499
 21
127.5022398005314
 31
0.0
  0
CIRCLE
  5
11FF
330
1F
100
AcDbEntity
  8
10
100
AcDbCircle
 10
70.68090876332499
 20
132.2962398005314
 30
0.0
 40
4.5
  0
LINE
  5
1200
330
1F
100
AcDbEntity
  8
12
100
AcDbLine
 10
63.38690876332498
 20
132.2962398005314
 30
0.0
 11
77.97490876332499
 21
132.2962398005314
 31
0.0
  0
LINE
  5
1201
330
1F
100
AcDbEntity
  8
12
100
AcDbLine
 10
70.68090876332499
 20
139.5902398005315
 30
0.0
 11
70.68090876332499
 21
125.0022398005315
 31
0.0
  0
LINE
  5
1202
330
1F
100
AcDbEntity
  8
12
100
AcDbLine
 10
113.8454568790083
 20
132.2962398005315
 30
0.0
 11
127.516360647663
 21
132.2962398005315
 31
0.0
  0
LINE
  5
1203
330
1F
100
AcDbEntity
  8
10
100
AcDbLine
 10
117.1809087633357
 20
130.2755138583678
 30
0.0
 11
120.6809087633357
 21
128.2547879162041
 31
0.0
  0
LINE
  5
1204
330
1F
100
AcDbEntity
  8
10
100
AcDbLine
 10
120.6809087633357
 20
128.2547879162041
 30
0.0
 11
124.1809087633357
 21
130.2755138583676
 31
0.0
  0
LINE
  5
1205
330
1F
100
AcDbEntity
  8
10
100
AcDbLine
 10
124.1809087633357
 20
130.2755138583676
 30
0.0
 11
124.1809087633357
 21
134.3169657426951
 31
0.0
  0
LINE
  5
1206
330
1F
100
AcDbEntity
  8
10
100
AcDbLine
 10
124.1809087633357
 20
134.3169657426951
 30
0.0
 11
120.6809087633357
 21
136.3376916848588
 31
0.0
  0
LINE
  5
1207
330
1F
100
AcDbEntity
  8
10
100
AcDbLine
 10
120.6809087633357
 20
136.3376916848588
 30
0.0
 11
117.1809087633357
 21
134.3169657426952
 31
0.0
  0
LINE
  5
1208
330
1F
100
AcDbEntity
  8
10
100
AcDbLine
 10
117.1809087633357
 20
134.3169657426952
 30
0.0
 11
117.1809087633357
 21
130.2755138583678
 31
0.0
  0
CIRCLE
  5
1209
330
1F
100
AcDbEntity
  8
10
100
AcDbCircle
 10
120.6809087633357
 20
132.2962398005315
 30
0.0
 40
3.5
  0
LINE
  5
120A
330
1F
100
AcDbEntity
  8
12
100
AcDbLine
 10
120.6809087633357
 20
139.1316916848588
 30
0.0
 11
120.6809087633357
 21
125.4607879162041
 31
0.0
  0
CIRCLE
  5
120C
330
1F
100
AcDbEntity
  8
10
100
AcDbCircle
 10
120.6809087633357
 20
132.2962398005315
 30
0.0
 40
1.999999999999999
  0
LINE
  5
120D
330
1F
100
AcDbEntity
  8
12
100
AcDbLine
 10
115.8869087633357
 20
132.2962398005315
 30
0.0
 11
125.4749087633357
 21
132.2962398005315
 31
0.0
  0
LINE
  5
120E
330
1F
100
AcDbEntity
  8
12
100
AcDbLine
 10
120.6809087633357
 20
137.0902398005314
 30
0.0
 11
120.6809087633357
 21
127.5022398005314
 31
0.0
  0
CIRCLE
  5
120F
330
1F
100
AcDbEntity
  8
10
100
AcDbCircle
 10
120.6809087633357
 20
132.2962398005315
 30
0.0
 40
4.5
  0
LINE
  5
1210
330
1F
100
AcDbEntity
  8
12
100
AcDbLine
 10
113.3869087633357
 20
132.2962398005315
 30
0.0
 11
127.9749087633357
 21
132.2962398005315
 31
0.0
  0
LINE
  5
1211
330
1F
100
AcDbEntity
  8
12
100
AcDbLine
 10
120.6809087633357
 20
139.5902398005315
 30
0.0
 11
120.6809087633357
 21
125.0022398005315
 31
0.0
  0
LINE
  5
1212
330
1F
100
AcDbEntity
  8
10
100
AcDbLine
 10
46.68090876332498
 20
119.2962398005309
 30
0.0
 11
46.68090876332498
 21
54.29623980053098
 31
0.0
  0
LINE
  5
1213
330
1F
100
AcDbEntity
  8
10
100
AcDbLine
 10
94.68090876332498
 20
52.79623980053099
 30
0.0
 11
46.68090876332498
 21
52.79623980053099
 31
0.0
1001
GENIUS_GENREC_14
1002
{
1000
PYDIR
1011
94.68090876332498
1021
54.29623980053098
1031
0.0
1002
}
1002
{
1000
PXDIR
1011
46.68090876332498
1021
52.79623980053099
1031
0.0
1002
}
1002
{
1000
PORI
1011
94.68090876332498
1021
52.79623980053099
1031
0.0
1002
}
1002
{
1000
PINS
1011
94.68090876332498
1021
52.79623980053099
1031
0.0
1002
}
1002
{
1000
PINS2
1011
46.68090876332498
1021
54.29623980053098
1031
0.0
1002
}
1002
{
1000
C
1070
     1
1002
}
1001
GENIUS_GENODEF_13
1002
{
1000
HIER
1070
     0
1002
}
1002
{
1000
MANEDIT
1070
     0
1002
}
1002
{
1000
NOSEL
1070
     0
1002
}
1002
{
1000
BEHIND
1070
     0
1002
}
1002
{
1000
REACTOR
1002
}
1001
GENIUS_GENOBJ-N-REC_13
1002
{
1000
OWNER
1000
GEN
1002
}
  0
LINE
  5
1214
330
1F
100
AcDbEntity
  8
10
100
AcDbLine
 10
46.68090876332498
 20
52.79623980053099
 30
0.0
 11
46.68090876332498
 21
54.29623980053098
 31
0.0
1001
GENIUS_GENREC_14
1002
{
1000
PYDIR
1011
94.68090876332498
1021
54.29623980053098
1031
0.0
1002
}
1002
{
1000
PXDIR
1011
46.68090876332498
1021
52.79623980053099
1031
0.0
1002
}
1002
{
1000
PORI
1011
94.68090876332498
1021
52.79623980053099
1031
0.0
1002
}
1002
{
1000
PINS
1011
94.68090876332498
1021
52.79623980053099
1031
0.0
1002
}
1002
{
1000
PINS2
1011
46.68090876332498
1021
54.29623980053098
1031
0.0
1002
}
1002
{
1000
C
1070
     1
1002
}
1001
GENIUS_GENODEF_13
1002
{
1000
HIER
1070
     0
1002
}
1002
{
1000
MANEDIT
1070
     0
1002
}
1002
{
1000
NOSEL
1070
     0
1002
}
1002
{
1000
BEHIND
1070
     0
1002
}
1002
{
1000
REACTOR
1002
}
1001
GENIUS_GENOBJ-N-REC_13
1002
{
1000
OWNER
1000
GEN
1002
}
  0
LINE
  5
1215
330
1F
100
AcDbEntity
  8
10
100
AcDbLine
 10
46.68090876332498
 20
54.29623980053098
 30
0.0
 11
94.68090876332498
 21
54.29623980053098
 31
0.0
1001
GENIUS_GENREC_14
1002
{
1000
PYDIR
1011
94.68090876332498
1021
54.29623980053098
1031
0.0
1002
}
1002
{
1000
PXDIR
1011
46.68090876332498
1021
52.79623980053099
1031
0.0
1002
}
1002
{
1000
PORI
1011
94.68090876332498
1021
52.79623980053099
1031
0.0
1002
}
1002
{
1000
PINS
1011
94.68090876332498
1021
52.79623980053099
1031
0.0
1002
}
1002
{
1000
PINS2
1011
46.68090876332498
1021
54.29623980053098
1031
0.0
1002
}
1002
{
1000
C
1070
     1
1002
}
1001
GENIUS_GENODEF_13
1002
{
1000
HIER
1070
     0
1002
}
1002
{
1000
MANEDIT
1070
     0
1002
}
1002
{
1000
NOSEL
1070
     0
1002
}
1002
{
1000
BEHIND
1070
     0
1002
}
1002
{
1000
REACTOR
1002
}
1001
GENIUS_GENOBJ-N-REC_13
1002
{
1000
OWNER
1000
GEN
1002
}
  0
LINE
  5
1216
330
1F
100
AcDbEntity
  8
10
100
AcDbLine
 10
94.68090876332498
 20
54.29623980053098
 30
0.0
 11
94.68090876332498
 21
52.79623980053099
 31
0.0
1001
GENIUS_GENREC_14
1002
{
1000
PYDIR
1011
94.68090876332498
1021
54.29623980053098
1031
0.0
1002
}
1002
{
1000
PXDIR
1011
46.68090876332498
1021
52.79623980053099
1031
0.0
1002
}
1002
{
1000
PORI
1011
94.68090876332498
1021
52.79623980053099
1031
0.0
1002
}
1002
{
1000
PINS
1011
94.68090876332498
1021
52.79623980053099
1031
0.0
1002
}
1002
{
1000
PINS2
1011
46.68090876332498
1021
54.29623980053098
1031
0.0
1002
}
1002
{
1000
C
1070
     1
1002
}
1001
GENIUS_GENODEF_13
1002
{
1000
HIER
1070
     0
1002
}
1002
{
1000
MANEDIT
1070
     0
1002
}
1002
{
1000
NOSEL
1070
     0
1002
}
1002
{
1000
BEHIND
1070
     0
1002
}
1002
{
1000
REACTOR
1002
}
1001
GENIUS_GENOBJ-N-REC_13
1002
{
1000
OWNER
1000
GEN
1002
}
  0
LINE
  5
1217
330
1F
100
AcDbEntity
  8
10
100
AcDbLine
 10
94.68090876332498
 20
119.2962398005309
 30
0.0
 11
46.68090876332498
 21
119.2962398005309
 31
0.0
1001
GENIUS_GENREC_14
1002
{
1000
PYDIR
1011
94.68090876332498
1021
120.7962398005309
1031
0.0
1002
}
1002
{
1000
PXDIR
1011
46.68090876332498
1021
119.2962398005309
1031
0.0
1002
}
1002
{
1000
PORI
1011
94.68090876332498
1021
119.2962398005309
1031
0.0
1002
}
1002
{
1000
PINS
1011
94.68090876332498
1021
119.2962398005309
1031
0.0
1002
}
1002
{
1000
PINS2
1011
46.68090876332498
1021
120.7962398005309
1031
0.0
1002
}
1002
{
1000
C
1070
     1
1002
}
1001
GENIUS_GENODEF_13
1002
{
1000
HIER
1070
     0
1002
}
1002
{
1000
MANEDIT
1070
     0
1002
}
1002
{
1000
NOSEL
1070
     0
1002
}
1002
{
1000
BEHIND
1070
     0
1002
}
1002
{
1000
REACTOR
1002
}
1001
GENIUS_GENOBJ-N-REC_13
1002
{
1000
OWNER
1000
GEN
1002
}
  0
LINE
  5
1218
330
1F
100
AcDbEntity
  8
10
100
AcDbLine
 10
46.68090876332498
 20
119.2962398005309
 30
0.0
 11
46.68090876332498
 21
120.7962398005309
 31
0.0
1001
GENIUS_GENREC_14
1002
{
1000
PYDIR
1011
94.68090876332498
1021
120.7962398005309
1031
0.0
1002
}
1002
{
1000
PXDIR
1011
46.68090876332498
1021
119.2962398005309
1031
0.0
1002
}
1002
{
1000
PORI
1011
94.68090876332498
1021
119.2962398005309
1031
0.0
1002
}
1002
{
1000
PINS
1011
94.68090876332498
1021
119.2962398005309
1031
0.0
1002
}
1002
{
1000
PINS2
1011
46.68090876332498
1021
120.7962398005309
1031
0.0
1002
}
1002
{
1000
C
1070
     1
1002
}
1001
GENIUS_GENODEF_13
1002
{
1000
HIER
1070
     0
1002
}
1002
{
1000
MANEDIT
1070
     0
1002
}
1002
{
1000
NOSEL
1070
     0
1002
}
1002
{
1000
BEHIND
1070
     0
1002
}
1002
{
1000
REACTOR
1002
}
1001
GENIUS_GENOBJ-N-REC_13
1002
{
1000
OWNER
1000
GEN
1002
}
  0
LINE
  5
1219
330
1F
100
AcDbEntity
  8
10
100
AcDbLine
 10
46.68090876332498
 20
120.7962398005309
 30
0.0
 11
94.68090876332498
 21
120.7962398005309
 31
0.0
1001
GENIUS_GENREC_14
1002
{
1000
PYDIR
1011
94.68090876332498
1021
120.7962398005309
1031
0.0
1002
}
1002
{
1000
PXDIR
1011
46.68090876332498
1021
119.2962398005309
1031
0.0
1002
}
1002
{
1000
PORI
1011
94.68090876332498
1021
119.2962398005309
1031
0.0
1002
}
1002
{
1000
PINS
1011
94.68090876332498
1021
119.2962398005309
1031
0.0
1002
}
1002
{
1000
PINS2
1011
46.68090876332498
1021
120.7962398005309
1031
0.0
1002
}
1002
{
1000
C
1070
     1
1002
}
1001
GENIUS_GENODEF_13
1002
{
1000
HIER
1070
     0
1002
}
1002
{
1000
MANEDIT
1070
     0
1002
}
1002
{
1000
NOSEL
1070
     0
1002
}
1002
{
1000
BEHIND
1070
     0
1002
}
1002
{
1000
REACTOR
1002
}
1001
GENIUS_GENOBJ-N-REC_13
1002
{
1000
OWNER
1000
GEN
1002
}
  0
LINE
  5
121A
330
1F
100
AcDbEntity
  8
10
100
AcDbLine
 10
94.68090876332498
 20
120.7962398005309
 30
0.0
 11
94.68090876332498
 21
119.2962398005309
 31
0.0
1001
GENIUS_GENREC_14
1002
{
1000
PYDIR
1011
94.68090876332498
1021
120.7962398005309
1031
0.0
1002
}
1002
{
1000
PXDIR
1011
46.68090876332498
1021
119.2962398005309
1031
0.0
1002
}
1002
{
1000
PORI
1011
94.68090876332498
1021
119.2962398005309
1031
0.0
1002
}
1002
{
1000
PINS
1011
94.68090876332498
1021
119.2962398005309
1031
0.0
1002
}
1002
{
1000
PINS2
1011
46.68090876332498
1021
120.7962398005309
1031
0.0
1002
}
1002
{
1000
C
1070
     1
1002
}
1001
GENIUS_GENODEF_13
1002
{
1000
HIER
1070
     0
1002
}
1002
{
1000
MANEDIT
1070
     0
1002
}
1002
{
1000
NOSEL
1070
     0
1002
}
1002
{
1000
BEHIND
1070
     0
1002
}
1002
{
1000
REACTOR
1002
}
1001
GENIUS_GENOBJ-N-REC_13
1002
{
1000
OWNER
1000
GEN
1002
}
  0
LINE
  5
121B
330
1F
100
AcDbEntity
  8
10
100
AcDbLine
 10
94.68090876332498
 20
119.2962398005309
 30
0.0
 11
94.68090876332498
 21
54.296239800531
 31
0.0
  0
LINE
  5
121C
330
1F
100
AcDbEntity
  8
10
100
AcDbLine
 10
96.68090876334243
 20
119.2962398005309
 30
0.0
 11
96.68090876334243
 21
54.29623980053098
 31
0.0
  0
LINE
  5
121D
330
1F
100
AcDbEntity
  8
10
100
AcDbLine
 10
144.6809087633424
 20
52.79623980053099
 30
0.0
 11
96.68090876334243
 21
52.79623980053099
 31
0.0
1001
GENIUS_GENREC_14
1002
{
1000
PYDIR
1011
144.6809087633424
1021
54.29623980053098
1031
0.0
1002
}
1002
{
1000
PXDIR
1011
96.68090876334243
1021
52.79623980053099
1031
0.0
1002
}
1002
{
1000
PORI
1011
144.6809087633424
1021
52.79623980053099
1031
0.0
1002
}
1002
{
1000
PINS
1011
144.6809087633424
1021
52.79623980053099
1031
0.0
1002
}
1002
{
1000
PINS2
1011
96.68090876334243
1021
54.29623980053098
1031
0.0
1002
}
1002
{
1000
C
1070
     1
1002
}
1001
GENIUS_GENODEF_13
1002
{
1000
HIER
1070
     0
1002
}
1002
{
1000
MANEDIT
1070
     0
1002
}
1002
{
1000
NOSEL
1070
     0
1002
}
1002
{
1000
BEHIND
1070
     0
1002
}
1002
{
1000
REACTOR
1002
}
1001
GENIUS_GENOBJ-N-REC_13
1002
{
1000
OWNER
1000
GEN
1002
}
  0
LINE
  5
121E
330
1F
100
AcDbEntity
  8
10
100
AcDbLine
 10
96.68090876334243
 20
52.79623980053099
 30
0.0
 11
96.68090876334243
 21
54.29623980053098
 31
0.0
1001
GENIUS_GENREC_14
1002
{
1000
PYDIR
1011
144.6809087633424
1021
54.29623980053098
1031
0.0
1002
}
1002
{
1000
PXDIR
1011
96.68090876334243
1021
52.79623980053099
1031
0.0
1002
}
1002
{
1000
PORI
1011
144.6809087633424
1021
52.79623980053099
1031
0.0
1002
}
1002
{
1000
PINS
1011
144.6809087633424
1021
52.79623980053099
1031
0.0
1002
}
1002
{
1000
PINS2
1011
96.68090876334243
1021
54.29623980053098
1031
0.0
1002
}
1002
{
1000
C
1070
     1
1002
}
1001
GENIUS_GENODEF_13
1002
{
1000
HIER
1070
     0
1002
}
1002
{
1000
MANEDIT
1070
     0
1002
}
1002
{
1000
NOSEL
1070
     0
1002
}
1002
{
1000
BEHIND
1070
     0
1002
}
1002
{
1000
REACTOR
1002
}
1001
GENIUS_GENOBJ-N-REC_13
1002
{
1000
OWNER
1000
GEN
1002
}
  0
LINE
  5
121F
330
1F
100
AcDbEntity
  8
10
100
AcDbLine
 10
96.68090876334243
 20
54.29623980053098
 30
0.0
 11
144.6809087633424
 21
54.29623980053097
 31
0.0
1001
GENIUS_GENREC_14
1002
{
1000
PYDIR
1011
144.6809087633424
1021
54.29623980053098
1031
0.0
1002
}
1002
{
1000
PXDIR
1011
96.68090876334243
1021
52.79623980053099
1031
0.0
1002
}
1002
{
1000
PORI
1011
144.6809087633424
1021
52.79623980053099
1031
0.0
1002
}
1002
{
1000
PINS
1011
144.6809087633424
1021
52.79623980053099
1031
0.0
1002
}
1002
{
1000
PINS2
1011
96.68090876334243
1021
54.29623980053098
1031
0.0
1002
}
1002
{
1000
C
1070
     1
1002
}
1001
GENIUS_GENODEF_13
1002
{
1000
HIER
1070
     0
1002
}
1002
{
1000
MANEDIT
1070
     0
1002
}
1002
{
1000
NOSEL
1070
     0
1002
}
1002
{
1000
BEHIND
1070
     0
1002
}
1002
{
1000
REACTOR
1002
}
1001
GENIUS_GENOBJ-N-REC_13
1002
{
1000
OWNER
1000
GEN
1002
}
  0
LINE
  5
1220
330
1F
100
AcDbEntity
  8
10
100
AcDbLine
 10
144.6809087633424
 20
54.29623980053097
 30
0.0
 11
144.6809087633424
 21
52.79623980053099
 31
0.0
1001
GENIUS_GENREC_14
1002
{
1000
PYDIR
1011
144.6809087633424
1021
54.29623980053098
1031
0.0
1002
}
1002
{
1000
PXDIR
1011
96.68090876334243
1021
52.79623980053099
1031
0.0
1002
}
1002
{
1000
PORI
1011
144.6809087633424
1021
52.79623980053099
1031
0.0
1002
}
1002
{
1000
PINS
1011
144.6809087633424
1021
52.79623980053099
1031
0.0
1002
}
1002
{
1000
PINS2
1011
96.68090876334243
1021
54.29623980053098
1031
0.0
1002
}
1002
{
1000
C
1070
     1
1002
}
1001
GENIUS_GENODEF_13
1002
{
1000
HIER
1070
     0
1002
}
1002
{
1000
MANEDIT
1070
     0
1002
}
1002
{
1000
NOSEL
1070
     0
1002
}
1002
{
1000
BEHIND
1070
     0
1002
}
1002
{
1000
REACTOR
1002
}
1001
GENIUS_GENOBJ-N-REC_13
1002
{
1000
OWNER
1000
GEN
1002
}
  0
LINE
  5
1221
330
1F
100
AcDbEntity
  8
10
100
AcDbLine
 10
144.6809087633424
 20
119.2962398005309
 30
0.0
 11
96.68090876334243
 21
119.2962398005309
 31
0.0
1001
GENIUS_GENREC_14
1002
{
1000
PYDIR
1011
144.6809087633424
1021
120.7962398005309
1031
0.0
1002
}
1002
{
1000
PXDIR
1011
96.68090876334243
1021
119.2962398005309
1031
0.0
1002
}
1002
{
1000
PORI
1011
144.6809087633424
1021
119.2962398005309
1031
0.0
1002
}
1002
{
1000
PINS
1011
144.6809087633424
1021
119.2962398005309
1031
0.0
1002
}
1002
{
1000
PINS2
1011
96.68090876334243
1021
120.7962398005309
1031
0.0
1002
}
1002
{
1000
C
1070
     1
1002
}
1001
GENIUS_GENODEF_13
1002
{
1000
HIER
1070
     0
1002
}
1002
{
1000
MANEDIT
1070
     0
1002
}
1002
{
1000
NOSEL
1070
     0
1002
}
1002
{
1000
BEHIND
1070
     0
1002
}
1002
{
1000
REACTOR
1002
}
1001
GENIUS_GENOBJ-N-REC_13
1002
{
1000
OWNER
1000
GEN
1002
}
  0
LINE
  5
1222
330
1F
100
AcDbEntity
  8
10
100
AcDbLine
 10
96.68090876334243
 20
119.2962398005309
 30
0.0
 11
96.68090876334243
 21
120.7962398005309
 31
0.0
1001
GENIUS_GENREC_14
1002
{
1000
PYDIR
1011
144.6809087633424
1021
120.7962398005309
1031
0.0
1002
}
1002
{
1000
PXDIR
1011
96.68090876334243
1021
119.2962398005309
1031
0.0
1002
}
1002
{
1000
PORI
1011
144.6809087633424
1021
119.2962398005309
1031
0.0
1002
}
1002
{
1000
PINS
1011
144.6809087633424
1021
119.2962398005309
1031
0.0
1002
}
1002
{
1000
PINS2
1011
96.68090876334243
1021
120.7962398005309
1031
0.0
1002
}
1002
{
1000
C
1070
     1
1002
}
1001
GENIUS_GENODEF_13
1002
{
1000
HIER
1070
     0
1002
}
1002
{
1000
MANEDIT
1070
     0
1002
}
1002
{
1000
NOSEL
1070
     0
1002
}
1002
{
1000
BEHIND
1070
     0
1002
}
1002
{
1000
REACTOR
1002
}
1001
GENIUS_GENOBJ-N-REC_13
1002
{
1000
OWNER
1000
GEN
1002
}
  0
LINE
  5
1223
330
1F
100
AcDbEntity
  8
10
100
AcDbLine
 10
96.68090876334243
 20
120.7962398005309
 30
0.0
 11
144.6809087633424
 21
120.7962398005309
 31
0.0
1001
GENIUS_GENREC_14
1002
{
1000
PYDIR
1011
144.6809087633424
1021
120.7962398005309
1031
0.0
1002
}
1002
{
1000
PXDIR
1011
96.68090876334243
1021
119.2962398005309
1031
0.0
1002
}
1002
{
1000
PORI
1011
144.6809087633424
1021
119.2962398005309
1031
0.0
1002
}
1002
{
1000
PINS
1011
144.6809087633424
1021
119.2962398005309
1031
0.0
1002
}
1002
{
1000
PINS2
1011
96.68090876334243
1021
120.7962398005309
1031
0.0
1002
}
1002
{
1000
C
1070
     1
1002
}
1001
GENIUS_GENODEF_13
1002
{
1000
HIER
1070
     0
1002
}
1002
{
1000
MANEDIT
1070
     0
1002
}
1002
{
1000
NOSEL
1070
     0
1002
}
1002
{
1000
BEHIND
1070
     0
1002
}
1002
{
1000
REACTOR
1002
}
1001
GENIUS_GENOBJ-N-REC_13
1002
{
1000
OWNER
1000
GEN
1002
}
  0
LINE
  5
1224
330
1F
100
AcDbEntity
  8
10
100
AcDbLine
 10
144.6809087633424
 20
120.7962398005309
 30
0.0
 11
144.6809087633424
 21
119.2962398005309
 31
0.0
1001
GENIUS_GENREC_14
1002
{
1000
PYDIR
1011
144.6809087633424
1021
120.7962398005309
1031
0.0
1002
}
1002
{
1000
PXDIR
1011
96.68090876334243
1021
119.2962398005309
1031
0.0
1002
}
1002
{
1000
PORI
1011
144.6809087633424
1021
119.2962398005309
1031
0.0
1002
}
1002
{
1000
PINS
1011
144.6809087633424
1021
119.2962398005309
1031
0.0
1002
}
1002
{
1000
PINS2
1011
96.68090876334243
1021
120.7962398005309
1031
0.0
1002
}
1002
{
1000
C
1070
     1
1002
}
1001
GENIUS_GENODEF_13
1002
{
1000
HIER
1070
     0
1002
}
1002
{
1000
MANEDIT
1070
     0
1002
}
1002
{
1000
NOSEL
1070
     0
1002
}
1002
{
1000
BEHIND
1070
     0
1002
}
1002
{
1000
REACTOR
1002
}
1001
GENIUS_GENOBJ-N-REC_13
1002
{
1000
OWNER
1000
GEN
1002
}
  0
LINE
  5
1225
330
1F
100
AcDbEntity
  8
10
100
AcDbLine
 10
144.6809087633424
 20
119.2962398005309
 30
0.0
 11
144.6809087633424
 21
54.29623980053098
 31
0.0
  0
LINE
  5
1226
330
1F
100
AcDbEntity
  8
10
100
AcDbLine
 10
194.6809087633478
 20
119.2962398005312
 30
0.0
 11
146.6809087633478
 21
119.2962398005312
 31
0.0
1001
GENIUS_GENREC_14
1002
{
1000
PYDIR
1011
194.6809087633478
1021
120.7962398005312
1031
0.0
1002
}
1002
{
1000
PXDIR
1011
146.6809087633478
1021
119.2962398005312
1031
0.0
1002
}
1002
{
1000
PORI
1011
194.6809087633478
1021
119.2962398005312
1031
0.0
1002
}
1002
{
1000
PINS
1011
194.6809087633478
1021
119.2962398005312
1031
0.0
1002
}
1002
{
1000
PINS2
1011
146.6809087633478
1021
120.7962398005312
1031
0.0
1002
}
1002
{
1000
C
1070
     1
1002
}
1001
GENIUS_GENODEF_13
1002
{
1000
HIER
1070
     0
1002
}
1002
{
1000
MANEDIT
1070
     0
1002
}
1002
{
1000
NOSEL
1070
     0
1002
}
1002
{
1000
BEHIND
1070
     0
1002
}
1002
{
1000
REACTOR
1002
}
1001
GENIUS_GENOBJ-N-REC_13
1002
{
1000
OWNER
1000
GEN
1002
}
  0
LINE
  5
1227
330
1F
100
AcDbEntity
  8
10
100
AcDbLine
 10
146.6809087633478
 20
119.2962398005312
 30
0.0
 11
146.6809087633478
 21
120.7962398005312
 31
0.0
1001
GENIUS_GENREC_14
1002
{
1000
PYDIR
1011
194.6809087633478
1021
120.7962398005312
1031
0.0
1002
}
1002
{
1000
PXDIR
1011
146.6809087633478
1021
119.2962398005312
1031
0.0
1002
}
1002
{
1000
PORI
1011
194.6809087633478
1021
119.2962398005312
1031
0.0
1002
}
1002
{
1000
PINS
1011
194.6809087633478
1021
119.2962398005312
1031
0.0
1002
}
1002
{
1000
PINS2
1011
146.6809087633478
1021
120.7962398005312
1031
0.0
1002
}
1002
{
1000
C
1070
     1
1002
}
1001
GENIUS_GENODEF_13
1002
{
1000
HIER
1070
     0
1002
}
1002
{
1000
MANEDIT
1070
     0
1002
}
1002
{
1000
NOSEL
1070
     0
1002
}
1002
{
1000
BEHIND
1070
     0
1002
}
1002
{
1000
REACTOR
1002
}
1001
GENIUS_GENOBJ-N-REC_13
1002
{
1000
OWNER
1000
GEN
1002
}
  0
LINE
  5
1228
330
1F
100
AcDbEntity
  8
10
100
AcDbLine
 10
146.6809087633478
 20
120.7962398005312
 30
0.0
 11
194.6809087633478
 21
120.7962398005312
 31
0.0
1001
GENIUS_GENREC_14
1002
{
1000
PYDIR
1011
194.6809087633478
1021
120.7962398005312
1031
0.0
1002
}
1002
{
1000
PXDIR
1011
146.6809087633478
1021
119.2962398005312
1031
0.0
1002
}
1002
{
1000
PORI
1011
194.6809087633478
1021
119.2962398005312
1031
0.0
1002
}
1002
{
1000
PINS
1011
194.6809087633478
1021
119.2962398005312
1031
0.0
1002
}
1002
{
1000
PINS2
1011
146.6809087633478
1021
120.7962398005312
1031
0.0
1002
}
1002
{
1000
C
1070
     1
1002
}
1001
GENIUS_GENODEF_13
1002
{
1000
HIER
1070
     0
1002
}
1002
{
1000
MANEDIT
1070
     0
1002
}
1002
{
1000
NOSEL
1070
     0
1002
}
1002
{
1000
BEHIND
1070
     0
1002
}
1002
{
1000
REACTOR
1002
}
1001
GENIUS_GENOBJ-N-REC_13
1002
{
1000
OWNER
1000
GEN
1002
}
  0
LINE
  5
1229
330
1F
100
AcDbEntity
  8
10
100
AcDbLine
 10
194.6809087633478
 20
120.7962398005312
 30
0.0
 11
194.6809087633478
 21
119.2962398005312
 31
0.0
1001
GENIUS_GENREC_14
1002
{
1000
PYDIR
1011
194.6809087633478
1021
120.7962398005312
1031
0.0
1002
}
1002
{
1000
PXDIR
1011
146.6809087633478
1021
119.2962398005312
1031
0.0
1002
}
1002
{
1000
PORI
1011
194.6809087633478
1021
119.2962398005312
1031
0.0
1002
}
1002
{
1000
PINS
1011
194.6809087633478
1021
119.2962398005312
1031
0.0
1002
}
1002
{
1000
PINS2
1011
146.6809087633478
1021
120.7962398005312
1031
0.0
1002
}
1002
{
1000
C
1070
     1
1002
}
1001
GENIUS_GENODEF_13
1002
{
1000
HIER
1070
     0
1002
}
1002
{
1000
MANEDIT
1070
     0
1002
}
1002
{
1000
NOSEL
1070
     0
1002
}
1002
{
1000
BEHIND
1070
     0
1002
}
1002
{
1000
REACTOR
1002
}
1001
GENIUS_GENOBJ-N-REC_13
1002
{
1000
OWNER
1000
GEN
1002
}
  0
LINE
  5
122A
330
1F
100
AcDbEntity
  8
10
100
AcDbLine
 10
194.6809087633478
 20
52.79623980053127
 30
0.0
 11
146.6809087633478
 21
52.79623980053127
 31
0.0
1001
GENIUS_GENREC_14
1002
{
1000
PYDIR
1011
194.6809087633478
1021
54.29623980053126
1031
0.0
1002
}
1002
{
1000
PXDIR
1011
146.6809087633478
1021
52.79623980053127
1031
0.0
1002
}
1002
{
1000
PORI
1011
194.6809087633478
1021
52.79623980053127
1031
0.0
1002
}
1002
{
1000
PINS
1011
194.6809087633478
1021
52.79623980053127
1031
0.0
1002
}
1002
{
1000
PINS2
1011
146.6809087633478
1021
54.29623980053126
1031
0.0
1002
}
1002
{
1000
C
1070
     1
1002
}
1001
GENIUS_GENODEF_13
1002
{
1000
HIER
1070
     0
1002
}
1002
{
1000
MANEDIT
1070
     0
1002
}
1002
{
1000
NOSEL
1070
     0
1002
}
1002
{
1000
BEHIND
1070
     0
1002
}
1002
{
1000
REACTOR
1002
}
1001
GENIUS_GENOBJ-N-REC_13
1002
{
1000
OWNER
1000
GEN
1002
}
  0
LINE
  5
122B
330
1F
100
AcDbEntity
  8
10
100
AcDbLine
 10
146.6809087633478
 20
52.79623980053127
 30
0.0
 11
146.6809087633478
 21
54.29623980053126
 31
0.0
1001
GENIUS_GENREC_14
1002
{
1000
PYDIR
1011
194.6809087633478
1021
54.29623980053126
1031
0.0
1002
}
1002
{
1000
PXDIR
1011
146.6809087633478
1021
52.79623980053127
1031
0.0
1002
}
1002
{
1000
PORI
1011
194.6809087633478
1021
52.79623980053127
1031
0.0
1002
}
1002
{
1000
PINS
1011
194.6809087633478
1021
52.79623980053127
1031
0.0
1002
}
1002
{
1000
PINS2
1011
146.6809087633478
1021
54.29623980053126
1031
0.0
1002
}
1002
{
1000
C
1070
     1
1002
}
1001
GENIUS_GENODEF_13
1002
{
1000
HIER
1070
     0
1002
}
1002
{
1000
MANEDIT
1070
     0
1002
}
1002
{
1000
NOSEL
1070
     0
1002
}
1002
{
1000
BEHIND
1070
     0
1002
}
1002
{
1000
REACTOR
1002
}
1001
GENIUS_GENOBJ-N-REC_13
1002
{
1000
OWNER
1000
GEN
1002
}
  0
LINE
  5
122C
330
1F
100
AcDbEntity
  8
10
100
AcDbLine
 10
146.6809087633478
 20
54.29623980053126
 30
0.0
 11
194.6809087633478
 21
54.29623980053124
 31
0.0
1001
GENIUS_GENREC_14
1002
{
1000
PYDIR
1011
194.6809087633478
1021
54.29623980053126
1031
0.0
1002
}
1002
{
1000
PXDIR
1011
146.6809087633478
1021
52.79623980053127
1031
0.0
1002
}
1002
{
1000
PORI
1011
194.6809087633478
1021
52.79623980053127
1031
0.0
1002
}
1002
{
1000
PINS
1011
194.6809087633478
1021
52.79623980053127
1031
0.0
1002
}
1002
{
1000
PINS2
1011
146.6809087633478
1021
54.29623980053126
1031
0.0
1002
}
1002
{
1000
C
1070
     1
1002
}
1001
GENIUS_GENODEF_13
1002
{
1000
HIER
1070
     0
1002
}
1002
{
1000
MANEDIT
1070
     0
1002
}
1002
{
1000
NOSEL
1070
     0
1002
}
1002
{
1000
BEHIND
1070
     0
1002
}
1002
{
1000
REACTOR
1002
}
1001
GENIUS_GENOBJ-N-REC_13
1002
{
1000
OWNER
1000
GEN
1002
}
  0
LINE
  5
122D
330
1F
100
AcDbEntity
  8
10
100
AcDbLine
 10
194.6809087633478
 20
54.29623980053124
 30
0.0
 11
194.6809087633478
 21
52.79623980053127
 31
0.0
1001
GENIUS_GENREC_14
1002
{
1000
PYDIR
1011
194.6809087633478
1021
54.29623980053126
1031
0.0
1002
}
1002
{
1000
PXDIR
1011
146.6809087633478
1021
52.79623980053127
1031
0.0
1002
}
1002
{
1000
PORI
1011
194.6809087633478
1021
52.79623980053127
1031
0.0
1002
}
1002
{
1000
PINS
1011
194.6809087633478
1021
52.79623980053127
1031
0.0
1002
}
1002
{
1000
PINS2
1011
146.6809087633478
1021
54.29623980053126
1031
0.0
1002
}
1002
{
1000
C
1070
     1
1002
}
1001
GENIUS_GENODEF_13
1002
{
1000
HIER
1070
     0
1002
}
1002
{
1000
MANEDIT
1070
     0
1002
}
1002
{
1000
NOSEL
1070
     0
1002
}
1002
{
1000
BEHIND
1070
     0
1002
}
1002
{
1000
REACTOR
1002
}
1001
GENIUS_GENOBJ-N-REC_13
1002
{
1000
OWNER
1000
GEN
1002
}
  0
CIRCLE
  5
122F
330
1F
100
AcDbEntity
  8
10
100
AcDbCircle
 10
170.6809087633478
 20
132.2962398005314
 30
0.0
 40
1.999999999999999
  0
LINE
  5
1230
330
1F
100
AcDbEntity
  8
12
100
AcDbLine
 10
165.8869087633478
 20
132.2962398005314
 30
0.0
 11
175.4749087633477
 21
132.2962398005314
 31
0.0
  0
LINE
  5
1231
330
1F
100
AcDbEntity
  8
12
100
AcDbLine
 10
170.6809087633478
 20
137.0902398005314
 30
0.0
 11
170.6809087633478
 21
127.5022398005314
 31
0.0
  0
LINE
  5
1232
330
1F
100
AcDbEntity
  8
12
100
AcDbLine
 10
163.8454568790204
 20
132.2962398005314
 30
0.0
 11
177.5163606476751
 21
132.2962398005314
 31
0.0
  0
LINE
  5
1233
330
1F
100
AcDbEntity
  8
10
100
AcDbLine
 10
167.1809087633478
 20
130.2755138583677
 30
0.0
 11
170.6809087633478
 21
128.254787916204
 31
0.0
  0
LINE
  5
1234
330
1F
100
AcDbEntity
  8
10
100
AcDbLine
 10
170.6809087633478
 20
128.254787916204
 30
0.0
 11
174.1809087633478
 21
130.2755138583676
 31
0.0
  0
LINE
  5
1235
330
1F
100
AcDbEntity
  8
10
100
AcDbLine
 10
174.1809087633478
 20
130.2755138583676
 30
0.0
 11
174.1809087633478
 21
134.3169657426951
 31
0.0
  0
LINE
  5
1236
330
1F
100
AcDbEntity
  8
10
100
AcDbLine
 10
174.1809087633478
 20
134.3169657426951
 30
0.0
 11
170.6809087633478
 21
136.3376916848588
 31
0.0
  0
LINE
  5
1237
330
1F
100
AcDbEntity
  8
10
100
AcDbLine
 10
170.6809087633478
 20
136.3376916848588
 30
0.0
 11
167.1809087633478
 21
134.3169657426952
 31
0.0
  0
LINE
  5
1238
330
1F
100
AcDbEntity
  8
10
100
AcDbLine
 10
167.1809087633478
 20
134.3169657426952
 30
0.0
 11
167.1809087633478
 21
130.2755138583677
 31
0.0
  0
CIRCLE
  5
1239
330
1F
100
AcDbEntity
  8
10
100
AcDbCircle
 10
170.6809087633478
 20
132.2962398005314
 30
0.0
 40
3.5
  0
LINE
  5
123A
330
1F
100
AcDbEntity
  8
12
100
AcDbLine
 10
170.6809087633478
 20
139.1316916848588
 30
0.0
 11
170.6809087633478
 21
125.4607879162041
 31
0.0
  0
CIRCLE
  5
123B
330
1F
100
AcDbEntity
  8
10
100
AcDbCircle
 10
170.6809087633478
 20
132.2962398005314
 30
0.0
 40
4.5
  0
LINE
  5
123C
330
1F
100
AcDbEntity
  8
12
100
AcDbLine
 10
163.3869087633478
 20
132.2962398005314
 30
0.0
 11
177.9749087633478
 21
132.2962398005314
 31
0.0
  0
LINE
  5
123D
330
1F
100
AcDbEntity
  8
12
100
AcDbLine
 10
170.6809087633478
 20
139.5902398005315
 30
0.0
 11
170.6809087633478
 21
125.0022398005315
 31
0.0
  0
LINE
  5
123E
330
1F
100
AcDbEntity
  8
10
100
AcDbLine
 10
58.18090876331226
 20
124.2962398005314
 30
0.0
 11
58.18090876332857
 21
120.7962398005312
 31
0.0
  0
LINE
  5
123F
330
1F
100
AcDbEntity
  8
10
100
AcDbLine
 10
58.18090876331395
 20
52.79623980053127
 30
0.0
 11
58.18090876332338
 21
51.29623980053179
 31
0.0
  0
LINE
  5
1240
330
1F
100
AcDbEntity
  8
10
100
AcDbLine
 10
183.1809087633362
 20
51.29623980053089
 30
0.0
 11
183.1809087633362
 21
52.79623980053127
 31
0.0
  0
LINE
  5
1241
330
1F
100
AcDbEntity
  8
10
100
AcDbLine
 10
183.1809087633474
 20
124.7962398005312
 30
0.0
 11
183.1809087633309
 21
120.7962398005312
 31
0.0
  0
LINE
  5
1242
330
1F
100
AcDbEntity
  8
10
100
AcDbLine
 10
45.68090876333894
 20
32.29623980053125
 30
0.0
 11
45.68090876333894
 21
30.29623980053059
 31
0.0
  0
LINE
  5
1243
330
1F
100
AcDbEntity
  8
12
100
AcDbLine
 10
48.18090876333894
 20
33.42837189844807
 30
0.0
 11
48.18090876333894
 21
29.09325102895072
 31
0.0
  0
LINE
  5
1244
330
1F
100
AcDbEntity
  8
10
100
AcDbLine
 10
58.18090876332857
 20
121.2962398005312
 30
0.0
 11
120.6809087633083
 21
121.2962398005312
 31
0.0
  0
LINE
  5
1245
330
1F
100
AcDbEntity
  8
10
100
AcDbLine
 10
120.6809087633461
 20
122.2962398005312
 30
0.0
 11
58.18090876332158
 21
122.2962398005312
 31
0.0
  0
LINE
  5
1246
330
1F
100
AcDbEntity
  8
10
100
AcDbLine
 10
120.6809087633058
 20
147.2962398005312
 30
0.0
 11
45.68090876334362
 21
147.2962398005322
 31
0.0
1001
GENIUS_GENOREF_13
1005
0
1005
0
  0
LINE
  5
1247
330
1F
100
AcDbEntity
  8
10
100
AcDbLine
 10
45.68090876334362
 20
147.2962398005322
 30
0.0
 11
45.68090876334181
 21
124.2962398005324
 31
0.0
1001
GENIUS_GENOREF_13
1005
0
1005
0
  0
LINE
  5
1248
330
1F
100
AcDbEntity
  8
10
100
AcDbLine
 10
45.68090876334181
 20
124.2962398005324
 30
0.0
 11
120.6809087633418
 21
124.2962398005314
 31
0.0
1001
GENIUS_GENOREF_13
1005
0
1005
0
  0
LINE
  5
1249
330
1F
100
AcDbEntity
  8
10
100
AcDbLine
 10
50.68090876333894
 20
32.29623980053125
 30
0.0
 11
50.68090876333894
 21
30.29623980053124
 31
0.0
  0
LINE
  5
124A
330
1F
100
AcDbEntity
  8
10
100
AcDbLine
 10
120.6809087633157
 20
51.29623980053125
 30
0.0
 11
58.18090876333595
 21
51.29623980053125
 31
0.0
  0
LINE
  5
124B
330
1F
100
AcDbEntity
  8
10
100
AcDbLine
 10
58.18090876331712
 20
52.29623980053125
 30
0.0
 11
120.6809087633377
 21
52.29623980053125
 31
0.0
  0
LINE
  5
124C
330
1F
100
AcDbEntity
  8
10
100
AcDbLine
 10
120.6809087633537
 20
32.29623980053126
 30
0.0
 11
40.68090876333894
 21
32.29623980053125
 31
0.0
  0
LINE
  5
124D
330
1F
100
AcDbEntity
  8
10
100
AcDbLine
 10
120.6809087633532
 20
51.29623980053125
 30
0.0
 11
40.68090876333861
 21
51.29623980053193
 31
0.0
  0
LINE
  5
124E
330
1F
100
AcDbEntity
  8
10
100
AcDbLine
 10
40.68090876333861
 20
51.29623980053193
 30
0.0
 11
40.68090876333894
 21
30.29623980053081
 31
0.0
  0
LINE
  5
124F
330
1F
100
AcDbEntity
  8
10
100
AcDbLine
 10
40.68090876333894
 20
30.29623980053081
 30
0.0
 11
120.6809087633358
 21
30.29623980053125
 31
0.0
  0
LINE
  5
1250
330
1F
100
AcDbEntity
  8
10
100
AcDbLine
 10
194.6809087633478
 20
119.2962398005312
 30
0.0
 11
194.6809087633478
 21
54.29623980053126
 31
0.0
  0
LINE
  5
1251
330
1F
100
AcDbEntity
  8
10
100
AcDbLine
 10
146.6809087633478
 20
119.2962398005312
 30
0.0
 11
146.6809087633478
 21
54.29623980053126
 31
0.0
  0
LINE
  5
1252
330
1F
100
AcDbEntity
  8
10
100
AcDbLine
 10
120.6809087633461
 20
122.2962398005312
 30
0.0
 11
183.1809087633381
 21
122.2962398005312
 31
0.0
  0
LINE
  5
1253
330
1F
100
AcDbEntity
  8
10
100
AcDbLine
 10
183.1809087633288
 20
121.2962398005312
 30
0.0
 11
120.6809087633461
 21
121.2962398005312
 31
0.0
  0
LINE
  5
1254
330
1F
100
AcDbEntity
  8
10
100
AcDbLine
 10
183.1809087633548
 20
52.29623980053126
 30
0.0
 11
120.6809087633377
 21
52.29623980053125
 31
0.0
  0
LINE
  5
1255
330
1F
100
AcDbEntity
  8
10
100
AcDbLine
 10
120.6809087633535
 20
51.29623980053125
 30
0.0
 11
183.1809087633362
 21
51.29623980053127
 31
0.0
  0
LINE
  5
1256
330
1F
100
AcDbEntity
  8
10
100
AcDbLine
 10
120.6809087633436
 20
147.2962398005312
 30
0.0
 11
195.6809087633432
 21
147.2962398005303
 31
0.0
1001
GENIUS_GENOREF_13
1005
0
1005
0
  0
LINE
  5
1257
330
1F
100
AcDbEntity
  8
10
100
AcDbLine
 10
195.6809087633432
 20
147.2962398005303
 30
0.0
 11
195.6809087633416
 21
124.2962398005305
 31
0.0
1001
GENIUS_GENOREF_13
1005
0
1005
0
  0
LINE
  5
1258
330
1F
100
AcDbEntity
  8
10
100
AcDbLine
 10
195.6809087633416
 20
124.2962398005305
 30
0.0
 11
120.6809087633418
 21
124.2962398005314
 31
0.0
1001
GENIUS_GENOREF_13
1005
0
1005
0
  0
LINE
  5
1259
330
1F
100
AcDbEntity
  8
12
100
AcDbLine
 10
193.1809087633389
 20
33.48470002732943
 30
0.0
 11
193.1809087633441
 21
28.86598958062188
 31
0.0
  0
LINE
  5
125A
330
1F
100
AcDbEntity
  8
10
100
AcDbLine
 10
190.6809087633389
 20
32.29623980053128
 30
0.0
 11
190.6809087633389
 21
30.29623980053127
 31
0.0
  0
LINE
  5
125B
330
1F
100
AcDbEntity
  8
10
100
AcDbLine
 10
195.6809087633389
 20
32.29623980053128
 30
0.0
 11
195.6809087633389
 21
30.29623980053061
 31
0.0
  0
LINE
  5
125C
330
1F
100
AcDbEntity
  8
10
100
AcDbLine
 10
120.6809087633349
 20
32.29623980053126
 30
0.0
 11
200.6809087633389
 21
32.29623980053128
 31
0.0
  0
LINE
  5
125D
330
1F
100
AcDbEntity
  8
10
100
AcDbLine
 10
120.6809087633535
 20
51.29623980053125
 30
0.0
 11
200.6809087633403
 21
51.29623980053079
 31
0.0
  0
LINE
  5
125E
330
1F
100
AcDbEntity
  8
10
100
AcDbLine
 10
200.6809087633403
 20
51.29623980053079
 30
0.0
 11
200.6809087633389
 21
30.29623980053083
 31
0.0
  0
LINE
  5
125F
330
1F
100
AcDbEntity
  8
10
100
AcDbLine
 10
200.6809087633389
 20
30.29623980053083
 30
0.0
 11
120.6809087633362
 21
30.29623980053125
 31
0.0
  0
LINE
  5
1260
330
1F
100
AcDbEntity
  8
10
100
AcDbLine
 10
119.1809087633058
 20
147.2962398005312
 30
0.0
 11
119.1809087633058
 21
155.2962398005312
 31
0.0
  0
LINE
  5
1261
330
1F
100
AcDbEntity
  8
10
100
AcDbLine
 10
119.1809087633058
 20
155.2962398005312
 30
0.0
 11
111.1809087633058
 21
155.2962398005312
 31
0.0
  0
LINE
  5
1262
330
1F
100
AcDbEntity
  8
10
100
AcDbLine
 10
111.1809087633058
 20
163.2962398005312
 30
0.0
 11
111.1809087633058
 21
147.2962398005312
 31
0.0
  0
LINE
  5
1263
330
1F
100
AcDbEntity
  8
10
100
AcDbLine
 10
111.1809087633058
 20
147.2962398005312
 30
0.0
 11
60.18090876330585
 21
147.2962398005312
 31
0.0
  0
LINE
  5
1264
330
1F
100
AcDbEntity
  8
10
100
AcDbLine
 10
60.18090876330585
 20
147.2962398005312
 30
0.0
 11
60.18090876330585
 21
157.2962398005312
 31
0.0
  0
LINE
  5
1265
330
1F
100
AcDbEntity
  8
10
100
AcDbLine
 10
60.18090876330585
 20
155.2962398005312
 30
0.0
 11
52.18090876330585
 21
155.2962398005312
 31
0.0
  0
LINE
  5
1266
330
1F
100
AcDbEntity
  8
10
100
AcDbLine
 10
52.18090876330585
 20
155.2962398005312
 30
0.0
 11
52.18090876330585
 21
147.2962398005312
 31
0.0
  0
LINE
  5
1267
330
1F
100
AcDbEntity
  8
10
100
AcDbLine
 10
52.18090876330585
 20
147.2962398005312
 30
0.0
 11
60.18090876330585
 21
147.2962398005312
 31
0.0
  0
LINE
  5
1268
330
1F
100
AcDbEntity
  8
10
100
AcDbLine
 10
189.1809087633058
 20
147.2962398005312
 30
0.0
 11
189.1809087633058
 21
155.2962398005312
 31
0.0
  0
LINE
  5
1269
330
1F
100
AcDbEntity
  8
10
100
AcDbLine
 10
189.1809087633058
 20
155.2962398005312
 30
0.0
 11
181.1809087633058
 21
155.2962398005312
 31
0.0
  0
LINE
  5
126A
330
1F
100
AcDbEntity
  8
10
100
AcDbLine
 10
181.1809087633058
 20
163.2962398005312
 30
0.0
 11
181.1809087633058
 21
147.2962398005312
 31
0.0
  0
LINE
  5
126B
330
1F
100
AcDbEntity
  8
10
100
AcDbLine
 10
181.1809087633058
 20
147.2962398005312
 30
0.0
 11
130.1809087633058
 21
147.2962398005312
 31
0.0
  0
LINE
  5
126C
330
1F
100
AcDbEntity
  8
10
100
AcDbLine
 10
130.1809087633058
 20
147.2962398005312
 30
0.0
 11
130.1809087633058
 21
157.2962398005312
 31
0.0
  0
LINE
  5
126D
330
1F
100
AcDbEntity
  8
10
100
AcDbLine
 10
130.1809087633058
 20
155.2962398005312
 30
0.0
 11
122.1809087633058
 21
155.2962398005312
 31
0.0
  0
LINE
  5
126E
330
1F
100
AcDbEntity
  8
10
100
AcDbLine
 10
122.1809087633058
 20
155.2962398005312
 30
0.0
 11
122.1809087633058
 21
147.2962398005312
 31
0.0
  0
LINE
  5
126F
330
1F
100
AcDbEntity
  8
10
100
AcDbLine
 10
122.1809087633058
 20
147.2962398005312
 30
0.0
 11
130.1809087633058
 21
147.2962398005312
 31
0.0
  0
LINE
  5
1270
330
1F
100
AcDbEntity
  8
10
100
AcDbLine
 10
79.18090876330585
 20
157.2962398005312
 30
0.0
 11
79.18090876330585
 21
175.2962398005312
 31
0.0
  0
LINE
  5
1271
330
1F
100
AcDbEntity
  8
10
100
AcDbLine
 10
79.18090876330585
 20
175.2962398005312
 30
0.0
 11
76.18090876330585
 21
175.2962398005312
 31
0.0
  0
LINE
  5
1272
330
1F
100
AcDbEntity
  8
10
100
AcDbLine
 10
76.18090876330585
 20
175.2962398005312
 30
0.0
 11
76.18090876330585
 21
157.2962398005312
 31
0.0
  0
LINE
  5
1273
330
1F
100
AcDbEntity
  8
10
100
AcDbLine
 10
108.1809087633058
 20
175.2962398005312
 30
0.0
 11
63.18090876330585
 21
175.2962398005312
 31
0.0
  0
LINE
  5
1274
330
1F
100
AcDbEntity
  8
10
100
AcDbLine
 10
63.18090876330585
 20
175.7962398005312
 30
0.0
 11
108.1809087633058
 21
175.7962398005312
 31
0.0
  0
LINE
  5
1275
330
1F
100
AcDbEntity
  8
10
100
AcDbLine
 10
63.18090876330585
 20
157.2962398005312
 30
0.0
 11
63.18090876330585
 21
177.7962398005312
 31
0.0
  0
LINE
  5
1276
330
1F
100
AcDbEntity
  8
10
100
AcDbLine
 10
63.18090876330585
 20
177.7962398005312
 30
0.0
 11
60.18090876330585
 21
177.7962398005312
 31
0.0
  0
LINE
  5
1277
330
1F
100
AcDbEntity
  8
10
100
AcDbLine
 10
60.18090876330585
 20
177.7962398005312
 30
0.0
 11
60.18090876330585
 21
157.2962398005312
 31
0.0
  0
LINE
  5
1278
330
1F
100
AcDbEntity
  8
10
100
AcDbLine
 10
60.18090876330585
 20
158.3962398005312
 30
0.0
 11
60.18090876330585
 21
156.2962398005312
 31
0.0
  0
LINE
  5
1279
330
1F
100
AcDbEntity
  8
10
100
AcDbLine
 10
60.18090876330585
 20
156.2962398005312
 30
0.0
 11
52.18090876330585
 21
156.2962398005312
 31
0.0
  0
LINE
  5
127A
330
1F
100
AcDbEntity
  8
10
100
AcDbLine
 10
52.18090876330585
 20
156.2962398005312
 30
0.0
 11
52.18090876330585
 21
158.3962398005312
 31
0.0
  0
LINE
  5
127B
330
1F
100
AcDbEntity
  8
10
100
AcDbLine
 10
52.38090876330584
 20
155.2962398005312
 30
0.0
 11
59.98090876330586
 21
155.2962398005312
 31
0.0
  0
LINE
  5
127C
330
1F
100
AcDbEntity
  8
10
100
AcDbLine
 10
59.98090876330586
 20
155.2962398005312
 30
0.0
 11
59.98090876330586
 21
156.2962398005312
 31
0.0
  0
LINE
  5
127D
330
1F
100
AcDbEntity
  8
10
100
AcDbLine
 10
59.98090876330586
 20
156.2962398005312
 30
0.0
 11
52.38090876330584
 21
156.2962398005312
 31
0.0
  0
LINE
  5
127E
330
1F
100
AcDbEntity
  8
10
100
AcDbLine
 10
52.38090876330584
 20
156.2962398005312
 30
0.0
 11
52.38090876330584
 21
155.2962398005312
 31
0.0
  0
LINE
  5
127F
330
1F
100
AcDbEntity
  8
10
100
AcDbLine
 10
65.08090876330583
 20
164.2962398005312
 30
0.0
 11
74.28090876330582
 21
164.2962398005312
 31
0.0
  0
LINE
  5
1280
330
1F
100
AcDbEntity
  8
10
100
AcDbLine
 10
74.28090876330582
 20
164.2962398005312
 30
0.0
 11
74.28090876330582
 21
165.5962398005312
 31
0.0
  0
LINE
  5
1281
330
1F
100
AcDbEntity
  8
10
100
AcDbLine
 10
74.28090876330582
 20
165.5962398005312
 30
0.0
 11
65.08090876330583
 21
165.5962398005312
 31
0.0
  0
LINE
  5
1282
330
1F
100
AcDbEntity
  8
10
100
AcDbLine
 10
65.08090876330583
 20
165.5962398005312
 30
0.0
 11
65.08090876330583
 21
164.2962398005312
 31
0.0
  0
LINE
  5
1283
330
1F
100
AcDbEntity
  8
10
100
AcDbLine
 10
64.68090876330585
 20
163.2962398005312
 30
0.0
 11
74.68090876330585
 21
163.2962398005312
 31
0.0
  0
LINE
  5
1284
330
1F
100
AcDbEntity
  8
10
100
AcDbLine
 10
74.68090876330585
 20
163.2962398005312
 30
0.0
 11
74.68090876330585
 21
164.2962398005312
 31
0.0
  0
LINE
  5
1285
330
1F
100
AcDbEntity
  8
10
100
AcDbLine
 10
74.68090876330585
 20
164.2962398005312
 30
0.0
 11
64.68090876330585
 21
164.2962398005312
 31
0.0
  0
LINE
  5
1286
330
1F
100
AcDbEntity
  8
10
100
AcDbLine
 10
64.68090876330585
 20
164.2962398005312
 30
0.0
 11
64.68090876330585
 21
163.2962398005312
 31
0.0
  0
LINE
  5
1287
330
1F
100
AcDbEntity
  8
10
100
AcDbLine
 10
178.1809087633058
 20
175.2962398005312
 30
0.0
 11
133.1809087633058
 21
175.2962398005312
 31
0.0
  0
LINE
  5
1288
330
1F
100
AcDbEntity
  8
10
100
AcDbLine
 10
133.1809087633058
 20
175.7962398005312
 30
0.0
 11
178.1809087633058
 21
175.7962398005312
 31
0.0
  0
LINE
  5
1289
330
1F
100
AcDbEntity
  8
10
100
AcDbLine
 10
134.6809087633058
 20
163.2962398005312
 30
0.0
 11
144.6809087633058
 21
163.2962398005312
 31
0.0
  0
LINE
  5
128A
330
1F
100
AcDbEntity
  8
10
100
AcDbLine
 10
144.6809087633058
 20
163.2962398005312
 30
0.0
 11
144.6809087633058
 21
164.2962398005312
 31
0.0
  0
LINE
  5
128B
330
1F
100
AcDbEntity
  8
10
100
AcDbLine
 10
144.6809087633058
 20
164.2962398005312
 30
0.0
 11
134.6809087633058
 21
164.2962398005312
 31
0.0
  0
LINE
  5
128C
330
1F
100
AcDbEntity
  8
10
100
AcDbLine
 10
134.6809087633058
 20
164.2962398005312
 30
0.0
 11
134.6809087633058
 21
163.2962398005312
 31
0.0
  0
LINE
  5
128D
330
1F
100
AcDbEntity
  8
10
100
AcDbLine
 10
111.3809087633058
 20
155.2962398005312
 30
0.0
 11
118.9809087633058
 21
155.2962398005312
 31
0.0
  0
LINE
  5
128E
330
1F
100
AcDbEntity
  8
10
100
AcDbLine
 10
118.9809087633058
 20
155.2962398005312
 30
0.0
 11
118.9809087633058
 21
156.2962398005312
 31
0.0
  0
LINE
  5
128F
330
1F
100
AcDbEntity
  8
10
100
AcDbLine
 10
118.9809087633058
 20
156.2962398005312
 30
0.0
 11
111.3809087633058
 21
156.2962398005312
 31
0.0
  0
LINE
  5
1290
330
1F
100
AcDbEntity
  8
10
100
AcDbLine
 10
111.3809087633058
 20
156.2962398005312
 30
0.0
 11
111.3809087633058
 21
155.2962398005312
 31
0.0
  0
LINE
  5
1291
330
1F
100
AcDbEntity
  8
10
100
AcDbLine
 10
119.1809087633058
 20
158.3962398005312
 30
0.0
 11
119.1809087633058
 21
156.2962398005312
 31
0.0
  0
LINE
  5
1292
330
1F
100
AcDbEntity
  8
10
100
AcDbLine
 10
119.1809087633058
 20
156.2962398005312
 30
0.0
 11
111.1809087633058
 21
156.2962398005312
 31
0.0
  0
LINE
  5
1293
330
1F
100
AcDbEntity
  8
10
100
AcDbLine
 10
111.1809087633058
 20
156.2962398005312
 30
0.0
 11
111.1809087633058
 21
158.3962398005312
 31
0.0
  0
LINE
  5
1294
330
1F
100
AcDbEntity
  8
10
100
AcDbLine
 10
95.18090876330585
 20
157.2962398005312
 30
0.0
 11
95.18090876330585
 21
175.2962398005312
 31
0.0
  0
LINE
  5
1295
330
1F
100
AcDbEntity
  8
10
100
AcDbLine
 10
95.18090876330585
 20
175.2962398005312
 30
0.0
 11
92.18090876330585
 21
175.2962398005312
 31
0.0
  0
LINE
  5
1296
330
1F
100
AcDbEntity
  8
10
100
AcDbLine
 10
92.18090876330585
 20
175.2962398005312
 30
0.0
 11
92.18090876330585
 21
157.2962398005312
 31
0.0
  0
LINE
  5
1297
330
1F
100
AcDbEntity
  8
10
100
AcDbLine
 10
111.1809087633058
 20
163.2962398005312
 30
0.0
 11
111.1809087633058
 21
177.7962398005312
 31
0.0
  0
LINE
  5
1298
330
1F
100
AcDbEntity
  8
10
100
AcDbLine
 10
111.1809087633058
 20
177.7962398005312
 30
0.0
 11
108.1809087633058
 21
177.7962398005312
 31
0.0
  0
LINE
  5
1299
330
1F
100
AcDbEntity
  8
10
100
AcDbLine
 10
108.1809087633058
 20
177.7962398005312
 30
0.0
 11
108.1809087633058
 21
157.2962398005312
 31
0.0
  0
LINE
  5
129A
330
1F
100
AcDbEntity
  8
10
100
AcDbLine
 10
81.08090876330583
 20
164.2962398005312
 30
0.0
 11
90.28090876330582
 21
164.2962398005312
 31
0.0
  0
LINE
  5
129B
330
1F
100
AcDbEntity
  8
10
100
AcDbLine
 10
90.28090876330582
 20
164.2962398005312
 30
0.0
 11
90.28090876330582
 21
165.5962398005312
 31
0.0
  0
LINE
  5
129C
330
1F
100
AcDbEntity
  8
10
100
AcDbLine
 10
90.28090876330582
 20
165.5962398005312
 30
0.0
 11
81.08090876330583
 21
165.5962398005312
 31
0.0
  0
LINE
  5
129D
330
1F
100
AcDbEntity
  8
10
100
AcDbLine
 10
81.08090876330583
 20
165.5962398005312
 30
0.0
 11
81.08090876330583
 21
164.2962398005312
 31
0.0
  0
LINE
  5
129E
330
1F
100
AcDbEntity
  8
10
100
AcDbLine
 10
80.68090876330584
 20
163.2962398005312
 30
0.0
 11
90.68090876330584
 21
163.2962398005312
 31
0.0
  0
LINE
  5
129F
330
1F
100
AcDbEntity
  8
10
100
AcDbLine
 10
90.68090876330584
 20
163.2962398005312
 30
0.0
 11
90.68090876330584
 21
164.2962398005312
 31
0.0
  0
LINE
  5
12A0
330
1F
100
AcDbEntity
  8
10
100
AcDbLine
 10
90.68090876330584
 20
164.2962398005312
 30
0.0
 11
80.68090876330584
 21
164.2962398005312
 31
0.0
  0
LINE
  5
12A1
330
1F
100
AcDbEntity
  8
10
100
AcDbLine
 10
80.68090876330584
 20
164.2962398005312
 30
0.0
 11
80.68090876330584
 21
163.2962398005312
 31
0.0
  0
LINE
  5
12A2
330
1F
100
AcDbEntity
  8
10
100
AcDbLine
 10
96.68090876330586
 20
163.2962398005312
 30
0.0
 11
106.6809087633058
 21
163.2962398005312
 31
0.0
  0
LINE
  5
12A3
330
1F
100
AcDbEntity
  8
10
100
AcDbLine
 10
106.6809087633058
 20
163.2962398005312
 30
0.0
 11
106.6809087633058
 21
164.2962398005312
 31
0.0
  0
LINE
  5
12A4
330
1F
100
AcDbEntity
  8
10
100
AcDbLine
 10
106.6809087633058
 20
164.2962398005312
 30
0.0
 11
96.68090876330586
 21
164.2962398005312
 31
0.0
  0
LINE
  5
12A5
330
1F
100
AcDbEntity
  8
10
100
AcDbLine
 10
96.68090876330586
 20
164.2962398005312
 30
0.0
 11
96.68090876330586
 21
163.2962398005312
 31
0.0
  0
LINE
  5
12A6
330
1F
100
AcDbEntity
  8
10
100
AcDbLine
 10
97.08090876330583
 20
164.2962398005312
 30
0.0
 11
106.2809087633058
 21
164.2962398005312
 31
0.0
  0
LINE
  5
12A7
330
1F
100
AcDbEntity
  8
10
100
AcDbLine
 10
106.2809087633058
 20
164.2962398005312
 30
0.0
 11
106.2809087633058
 21
165.5962398005312
 31
0.0
  0
LINE
  5
12A8
330
1F
100
AcDbEntity
  8
10
100
AcDbLine
 10
106.2809087633058
 20
165.5962398005312
 30
0.0
 11
97.08090876330583
 21
165.5962398005312
 31
0.0
  0
LINE
  5
12A9
330
1F
100
AcDbEntity
  8
10
100
AcDbLine
 10
97.08090876330583
 20
165.5962398005312
 30
0.0
 11
97.08090876330583
 21
164.2962398005312
 31
0.0
  0
LINE
  5
12AA
330
1F
100
AcDbEntity
  8
10
100
AcDbLine
 10
133.1809087633058
 20
157.2962398005312
 30
0.0
 11
133.1809087633058
 21
177.7962398005312
 31
0.0
  0
LINE
  5
12AB
330
1F
100
AcDbEntity
  8
10
100
AcDbLine
 10
133.1809087633058
 20
177.7962398005312
 30
0.0
 11
130.1809087633058
 21
177.7962398005312
 31
0.0
  0
LINE
  5
12AC
330
1F
100
AcDbEntity
  8
10
100
AcDbLine
 10
130.1809087633058
 20
177.7962398005312
 30
0.0
 11
130.1809087633058
 21
157.2962398005312
 31
0.0
  0
LINE
  5
12AD
330
1F
100
AcDbEntity
  8
10
100
AcDbLine
 10
130.1809087633058
 20
158.3962398005312
 30
0.0
 11
130.1809087633058
 21
156.2962398005312
 31
0.0
  0
LINE
  5
12AE
330
1F
100
AcDbEntity
  8
10
100
AcDbLine
 10
130.1809087633058
 20
156.2962398005312
 30
0.0
 11
122.1809087633058
 21
156.2962398005312
 31
0.0
  0
LINE
  5
12AF
330
1F
100
AcDbEntity
  8
10
100
AcDbLine
 10
122.1809087633058
 20
156.2962398005312
 30
0.0
 11
122.1809087633058
 21
158.3962398005312
 31
0.0
  0
LINE
  5
12B0
330
1F
100
AcDbEntity
  8
10
100
AcDbLine
 10
122.3809087633058
 20
155.2962398005312
 30
0.0
 11
129.9809087633058
 21
155.2962398005312
 31
0.0
  0
LINE
  5
12B1
330
1F
100
AcDbEntity
  8
10
100
AcDbLine
 10
129.9809087633058
 20
155.2962398005312
 30
0.0
 11
129.9809087633058
 21
156.2962398005312
 31
0.0
  0
LINE
  5
12B2
330
1F
100
AcDbEntity
  8
10
100
AcDbLine
 10
129.9809087633058
 20
156.2962398005312
 30
0.0
 11
122.3809087633058
 21
156.2962398005312
 31
0.0
  0
LINE
  5
12B3
330
1F
100
AcDbEntity
  8
10
100
AcDbLine
 10
122.3809087633058
 20
156.2962398005312
 30
0.0
 11
122.3809087633058
 21
155.2962398005312
 31
0.0
  0
LINE
  5
12B4
330
1F
100
AcDbEntity
  8
10
100
AcDbLine
 10
135.0809087633058
 20
164.2962398005312
 30
0.0
 11
144.2809087633058
 21
164.2962398005312
 31
0.0
  0
LINE
  5
12B5
330
1F
100
AcDbEntity
  8
10
100
AcDbLine
 10
144.2809087633058
 20
164.2962398005312
 30
0.0
 11
144.2809087633058
 21
165.5962398005312
 31
0.0
  0
LINE
  5
12B6
330
1F
100
AcDbEntity
  8
10
100
AcDbLine
 10
144.2809087633058
 20
165.5962398005312
 30
0.0
 11
135.0809087633058
 21
165.5962398005312
 31
0.0
  0
LINE
  5
12B7
330
1F
100
AcDbEntity
  8
10
100
AcDbLine
 10
135.0809087633058
 20
165.5962398005312
 30
0.0
 11
135.0809087633058
 21
164.2962398005312
 31
0.0
  0
LINE
  5
12B8
330
1F
100
AcDbEntity
  8
10
100
AcDbLine
 10
149.1809087633058
 20
157.2962398005312
 30
0.0
 11
149.1809087633058
 21
175.2962398005312
 31
0.0
  0
LINE
  5
12B9
330
1F
100
AcDbEntity
  8
10
100
AcDbLine
 10
149.1809087633058
 20
175.2962398005312
 30
0.0
 11
146.1809087633058
 21
175.2962398005312
 31
0.0
  0
LINE
  5
12BA
330
1F
100
AcDbEntity
  8
10
100
AcDbLine
 10
146.1809087633058
 20
175.2962398005312
 30
0.0
 11
146.1809087633058
 21
157.2962398005312
 31
0.0
  0
LINE
  5
12BB
330
1F
100
AcDbEntity
  8
10
100
AcDbLine
 10
165.1809087633058
 20
157.2962398005312
 30
0.0
 11
165.1809087633058
 21
175.2962398005312
 31
0.0
  0
LINE
  5
12BC
330
1F
100
AcDbEntity
  8
10
100
AcDbLine
 10
165.1809087633058
 20
175.2962398005312
 30
0.0
 11
162.1809087633058
 21
175.2962398005312
 31
0.0
  0
LINE
  5
12BD
330
1F
100
AcDbEntity
  8
10
100
AcDbLine
 10
162.1809087633058
 20
175.2962398005312
 30
0.0
 11
162.1809087633058
 21
157.2962398005312
 31
0.0
  0
LINE
  5
12BE
330
1F
100
AcDbEntity
  8
10
100
AcDbLine
 10
151.0809087633058
 20
164.2962398005312
 30
0.0
 11
160.2809087633058
 21
164.2962398005312
 31
0.0
  0
LINE
  5
12BF
330
1F
100
AcDbEntity
  8
10
100
AcDbLine
 10
160.2809087633058
 20
164.2962398005312
 30
0.0
 11
160.2809087633058
 21
165.5962398005312
 31
0.0
  0
LINE
  5
12C0
330
1F
100
AcDbEntity
  8
10
100
AcDbLine
 10
160.2809087633058
 20
165.5962398005312
 30
0.0
 11
151.0809087633058
 21
165.5962398005312
 31
0.0
  0
LINE
  5
12C1
330
1F
100
AcDbEntity
  8
10
100
AcDbLine
 10
151.0809087633058
 20
165.5962398005312
 30
0.0
 11
151.0809087633058
 21
164.2962398005312
 31
0.0
  0
LINE
  5
12C2
330
1F
100
AcDbEntity
  8
10
100
AcDbLine
 10
150.6809087633058
 20
163.2962398005312
 30
0.0
 11
160.6809087633058
 21
163.2962398005312
 31
0.0
  0
LINE
  5
12C3
330
1F
100
AcDbEntity
  8
10
100
AcDbLine
 10
160.6809087633058
 20
163.2962398005312
 30
0.0
 11
160.6809087633058
 21
164.2962398005312
 31
0.0
  0
LINE
  5
12C4
330
1F
100
AcDbEntity
  8
10
100
AcDbLine
 10
160.6809087633058
 20
164.2962398005312
 30
0.0
 11
150.6809087633058
 21
164.2962398005312
 31
0.0
  0
LINE
  5
12C5
330
1F
100
AcDbEntity
  8
10
100
AcDbLine
 10
150.6809087633058
 20
164.2962398005312
 30
0.0
 11
150.6809087633058
 21
163.2962398005312
 31
0.0
  0
LINE
  5
12C6
330
1F
100
AcDbEntity
  8
10
100
AcDbLine
 10
167.0809087633058
 20
164.2962398005312
 30
0.0
 11
176.2809087633058
 21
164.2962398005312
 31
0.0
  0
LINE
  5
12C7
330
1F
100
AcDbEntity
  8
10
100
AcDbLine
 10
176.2809087633058
 20
164.2962398005312
 30
0.0
 11
176.2809087633058
 21
165.5962398005312
 31
0.0
  0
LINE
  5
12C8
330
1F
100
AcDbEntity
  8
10
100
AcDbLine
 10
176.2809087633058
 20
165.5962398005312
 30
0.0
 11
167.0809087633058
 21
165.5962398005312
 31
0.0
  0
LINE
  5
12C9
330
1F
100
AcDbEntity
  8
10
100
AcDbLine
 10
167.0809087633058
 20
165.5962398005312
 30
0.0
 11
167.0809087633058
 21
164.2962398005312
 31
0.0
  0
LINE
  5
12CA
330
1F
100
AcDbEntity
  8
10
100
AcDbLine
 10
166.6809087633058
 20
163.2962398005312
 30
0.0
 11
176.6809087633058
 21
163.2962398005312
 31
0.0
  0
LINE
  5
12CB
330
1F
100
AcDbEntity
  8
10
100
AcDbLine
 10
176.6809087633058
 20
163.2962398005312
 30
0.0
 11
176.6809087633058
 21
164.2962398005312
 31
0.0
  0
LINE
  5
12CC
330
1F
100
AcDbEntity
  8
10
100
AcDbLine
 10
176.6809087633058
 20
164.2962398005312
 30
0.0
 11
166.6809087633058
 21
164.2962398005312
 31
0.0
  0
LINE
  5
12CD
330
1F
100
AcDbEntity
  8
10
100
AcDbLine
 10
166.6809087633058
 20
164.2962398005312
 30
0.0
 11
166.6809087633058
 21
163.2962398005312
 31
0.0
  0
LINE
  5
12CE
330
1F
100
AcDbEntity
  8
10
100
AcDbLine
 10
181.1809087633058
 20
163.2962398005312
 30
0.0
 11
181.1809087633058
 21
177.7962398005312
 31
0.0
  0
LINE
  5
12CF
330
1F
100
AcDbEntity
  8
10
100
AcDbLine
 10
181.1809087633058
 20
177.7962398005312
 30
0.0
 11
178.1809087633058
 21
177.7962398005312
 31
0.0
  0
LINE
  5
12D0
330
1F
100
AcDbEntity
  8
10
100
AcDbLine
 10
178.1809087633058
 20
177.7962398005312
 30
0.0
 11
178.1809087633058
 21
157.2962398005312
 31
0.0
  0
LINE
  5
12D1
330
1F
100
AcDbEntity
  8
10
100
AcDbLine
 10
189.1809087633058
 20
158.3962398005312
 30
0.0
 11
189.1809087633058
 21
156.2962398005312
 31
0.0
  0
LINE
  5
12D2
330
1F
100
AcDbEntity
  8
10
100
AcDbLine
 10
189.1809087633058
 20
156.2962398005312
 30
0.0
 11
181.1809087633058
 21
156.2962398005312
 31
0.0
  0
LINE
  5
12D3
330
1F
100
AcDbEntity
  8
10
100
AcDbLine
 10
181.1809087633058
 20
156.2962398005312
 30
0.0
 11
181.1809087633058
 21
158.3962398005312
 31
0.0
  0
LINE
  5
12D4
330
1F
100
AcDbEntity
  8
10
100
AcDbLine
 10
181.3809087633058
 20
155.2962398005312
 30
0.0
 11
188.9809087633058
 21
155.2962398005312
 31
0.0
  0
LINE
  5
12D5
330
1F
100
AcDbEntity
  8
10
100
AcDbLine
 10
188.9809087633058
 20
155.2962398005312
 30
0.0
 11
188.9809087633058
 21
156.2962398005312
 31
0.0
  0
LINE
  5
12D6
330
1F
100
AcDbEntity
  8
10
100
AcDbLine
 10
188.9809087633058
 20
156.2962398005312
 30
0.0
 11
181.3809087633058
 21
156.2962398005312
 31
0.0
  0
LINE
  5
12D7
330
1F
100
AcDbEntity
  8
10
100
AcDbLine
 10
181.3809087633058
 20
156.2962398005312
 30
0.0
 11
181.3809087633058
 21
155.2962398005312
 31
0.0
  0
LINE
  5
12D8
330
1F
100
AcDbEntity
  8
10
100
AcDbLine
 10
296.9011846071229
 20
147.2962398005348
 30
0.0
 11
281.9011846071229
 21
147.2962398005348
 31
0.0
  0
LINE
  5
12D9
330
1F
100
AcDbEntity
  8
10
100
AcDbLine
 10
281.9011846071229
 20
147.2962398005348
 30
0.0
 11
281.9011846071229
 21
155.2962398005348
 31
0.0
  0
LINE
  5
12DA
330
1F
100
AcDbEntity
  8
10
100
AcDbLine
 10
281.9011846071229
 20
155.2962398005348
 30
0.0
 11
296.9011846071229
 21
155.2962398005348
 31
0.0
  0
LINE
  5
12DB
330
1F
100
AcDbEntity
  8
10
100
AcDbLine
 10
296.9011846071229
 20
147.2962398005348
 30
0.0
 11
311.9011846071229
 21
147.2962398005348
 31
0.0
  0
LINE
  5
12DC
330
1F
100
AcDbEntity
  8
10
100
AcDbLine
 10
311.9011846071229
 20
147.2962398005348
 30
0.0
 11
311.9011846071229
 21
155.2962398005348
 31
0.0
  0
LINE
  5
12DD
330
1F
100
AcDbEntity
  8
10
100
AcDbLine
 10
311.9011846071229
 20
155.2962398005348
 30
0.0
 11
296.9011846071229
 21
155.2962398005348
 31
0.0
  0
LINE
  5
12DE
330
1F
100
AcDbEntity
  8
10
100
AcDbLine
 10
276.4011846071229
 20
175.2962398005348
 30
0.0
 11
262.4011846071228
 21
175.2962398005348
 31
0.0
  0
LINE
  5
12DF
330
1F
100
AcDbEntity
  8
10
100
AcDbLine
 10
262.4011846071228
 20
175.2962398005348
 30
0.0
 11
262.4011846071228
 21
175.7962398005348
 31
0.0
  0
LINE
  5
12E0
330
1F
100
AcDbEntity
  8
10
100
AcDbLine
 10
262.4011846071228
 20
175.7962398005348
 30
0.0
 11
276.4011846071229
 21
175.7962398005348
 31
0.0
  0
LINE
  5
12E1
330
1F
100
AcDbEntity
  8
10
100
AcDbLine
 10
312.4011846071228
 20
177.7962398005348
 30
0.0
 11
312.4011846071228
 21
175.2962398005348
 31
0.0
  0
LINE
  5
12E2
330
1F
100
AcDbEntity
  8
10
100
AcDbLine
 10
312.4011846071228
 20
175.2962398005348
 30
0.0
 11
301.4011846071229
 21
175.2962398005348
 31
0.0
  0
LINE
  5
12E3
330
1F
100
AcDbEntity
  8
10
100
AcDbLine
 10
296.9011846071229
 20
177.7962398005348
 30
0.0
 11
292.4011846071229
 21
177.7962398005348
 31
0.0
  0
LINE
  5
12E4
330
1F
100
AcDbEntity
  8
10
100
AcDbLine
 10
292.4011846071229
 20
177.7962398005348
 30
0.0
 11
292.4011846071229
 21
167.7962398005348
 31
0.0
  0
LINE
  5
12E5
330
1F
100
AcDbEntity
  8
10
100
AcDbLine
 10
292.4011846071229
 20
167.7962398005348
 30
0.0
 11
296.9011846071229
 21
167.7962398005348
 31
0.0
  0
LINE
  5
12E6
330
1F
100
AcDbEntity
  8
10
100
AcDbLine
 10
296.9011846071229
 20
177.7962398005348
 30
0.0
 11
301.4011846071229
 21
177.7962398005348
 31
0.0
  0
LINE
  5
12E7
330
1F
100
AcDbEntity
  8
10
100
AcDbLine
 10
301.4011846071229
 20
177.7962398005348
 30
0.0
 11
301.4011846071229
 21
167.7962398005348
 31
0.0
  0
LINE
  5
12E8
330
1F
100
AcDbEntity
  8
10
100
AcDbLine
 10
301.4011846071229
 20
167.7962398005348
 30
0.0
 11
296.9011846071229
 21
167.7962398005348
 31
0.0
  0
LINE
  5
12E9
330
1F
100
AcDbEntity
  8
10
100
AcDbLine
 10
276.4011846071229
 20
175.7962398005348
 30
0.0
 11
276.4011846071229
 21
157.2962398005348
 31
0.0
  0
LINE
  5
12EA
330
1F
100
AcDbEntity
  8
10
100
AcDbLine
 10
276.4011846071229
 20
157.2962398005348
 30
0.0
 11
281.9011846071229
 21
157.2962398005348
 31
0.0
  0
LINE
  5
12EB
330
1F
100
AcDbEntity
  8
10
100
AcDbLine
 10
281.9011846071229
 20
157.2962398005348
 30
0.0
 11
281.9011846071229
 21
155.2962398005348
 31
0.0
  0
LINE
  5
12EC
330
1F
100
AcDbEntity
  8
10
100
AcDbLine
 10
281.4011846071228
 20
177.7962398005348
 30
0.0
 11
281.4011846071228
 21
175.2962398005348
 31
0.0
  0
LINE
  5
12ED
330
1F
100
AcDbEntity
  8
10
100
AcDbLine
 10
281.4011846071228
 20
175.2962398005348
 30
0.0
 11
292.4011846071229
 21
175.2962398005348
 31
0.0
  0
LINE
  5
12EE
330
1F
100
AcDbEntity
  8
10
100
AcDbLine
 10
317.4011846071229
 20
175.7962398005348
 30
0.0
 11
317.4011846071229
 21
157.2962398005348
 31
0.0
  0
LINE
  5
12EF
330
1F
100
AcDbEntity
  8
10
100
AcDbLine
 10
317.4011846071229
 20
157.2962398005348
 30
0.0
 11
311.9011846071229
 21
157.2962398005348
 31
0.0
  0
LINE
  5
12F0
330
1F
100
AcDbEntity
  8
10
100
AcDbLine
 10
311.9011846071229
 20
157.2962398005348
 30
0.0
 11
311.9011846071229
 21
155.2962398005348
 31
0.0
  0
LINE
  5
12F1
330
1F
100
AcDbEntity
  8
10
100
AcDbLine
 10
317.4011846071229
 20
175.2962398005348
 30
0.0
 11
331.4011846071228
 21
175.2962398005348
 31
0.0
  0
LINE
  5
12F2
330
1F
100
AcDbEntity
  8
10
100
AcDbLine
 10
331.4011846071228
 20
175.2962398005348
 30
0.0
 11
331.4011846071228
 21
175.7962398005348
 31
0.0
  0
LINE
  5
12F3
330
1F
100
AcDbEntity
  8
10
100
AcDbLine
 10
331.4011846071228
 20
175.7962398005348
 30
0.0
 11
317.4011846071229
 21
175.7962398005348
 31
0.0
  0
VIEWPORT
  5
409
330
23
100
AcDbEntity
 67
     1
  8
0
100
AcDbViewport
 10
142.6315765380859
 20
99.1129140853882
 30
0.0
 40
314.2372683715819
 41
259.7433703258352
 68
     1
 69
     1
1001
ACAD
1000
MVIEW
1002
{
1070
    16
1010
0.0
1020
0.0
1030
0.0
1010
0.0
1020
0.0
1030
1.0
1040
0.0
1040
259.7433703258352
1040
142.6315765380859
1040
99.1129140853882
1040
50.0
1040
0.0
1040
0.0
1070
     0
1070
   100
1070
     1
1070
     1
1070
     0
1070
     0
1070
     0
1070
     0
1040
0.0
1040
0.0
1040
0.0
1040
10.0
1040
10.0
1040
10.0
1040
10.0
1070
     0
1002
{
1002
}
1002
}
  0
VIEWPORT
  5
40B
330
23
100
AcDbEntity
 67
     1
  8
0
100
AcDbViewport
 10
142.6315770149231
 20
99.11291456222535
 30
0.0
 40
228.2105232238769
 41
158.5806632995605
 68
     2
 69
     2
1001
ACAD
1000
MVIEW
1002
{
1070
    16
1010
0.0
1020
0.0
1030
0.0
1010
0.0
1020
0.0
1030
1.0
1040
0.0
1040
437.7797658097811
1040
303.2144175903108
1040
233.3590858733038
1040
50.0
1040
0.0
1040
0.0
1070
     0
1070
   100
1070
     1
1070
     3
1070
     0
1070
     0
1070
     0
1070
     0
1040
0.0
1040
0.0
1040
0.0
1040
10.0
1040
10.0
1040
10.0
1040
10.0
1070
     0
1002
{
1002
}
1002
}
  0
ENDSEC
  0
SECTION
  2
OBJECTS
  0
DICTIONARY
  5
C
330
0
100
AcDbDictionary
  3
ACAD_GROUP
350
D
  3
ACAD_LAYOUT
350
1A
  3
ACAD_MLINESTYLE
350
17
  3
ACAD_PLOTSETTINGS
350
19
  3
ACAD_PLOTSTYLENAME
350
B10
  3
ACAMCATALOGSTATE
350
5BA
  3
ACASAPPOBJECT
350
53F
  3
ACASGREF_MASTER
350
587
  3
ACDBHEADERROUNDTRIPXREC
350
1326
  3
ACDBVARIABLEDICTIONARY
350
B19
  3
ACDMSYSVARMGR
350
519
  3
ACGREF_MASTER
350
513
  3
ACGREFACAD_MASTER
350
53B
  3
ACMDICTIONARY
350
5B6
  3
ACME_BOM_MANAGER_NAME
350
50C
  3
ACME_COMMAND_HISTORY
350
507
  3
ACME_SCOPE_NAME
350
506
  3
ACMESTATEMGR
350
511
  3
ACMESYSVARMANAGER
350
508
  3
ACMSYSTEMVARIABLEMANAGER
350
5C4
  3
AD_APPL
350
59E
  3
AD_GREF_MODULE
350
588
  3
AD_MAPI_MODULE
350
5A0
  3
ADSYSVARMGR
350
590
  3
AMDTNAMEDDWGMGR
350
536
  3
AMG
350
4FD
  3
AMGSNAPSETTINGS
350
5D0
  3
AMI_MASTER
350
53E
  3
ASURF_STATIC_VARS
350
540
  3
AUTOCAD_ASSEMBLIES_PROJECT
350
5AB
  3
AUTOSURF_SYSVARS
350
541
  3
DESIGNER_ASSEMBLIES_SYSVARS
350
5A2
  3
DWGPROPS
350
5B9
  3
GREFAM_MODULE
350
58A
  3
MAPISURF_MODULE
350
589
1001
ACAD
1000
TREAT_AS_HARD
1070
     0
1000
TREAT_AS_HARD
1070
     0
1000
TREAT_AS_HARD
1070
     0
  0
DICTIONARY
  5
41
330
2
100
AcDbDictionary
280
     1
  3
ACAD_LAYERFILTERS
360
3FF
  3
ACAD_LAYERSTATES
360
42
1001
ACAD
1000
TREAT_AS_HARD
1070
     1
1000
TREAT_AS_HARD
1070
     0
1000
TREAT_AS_HARD
1070
     0
  0
DICTIONARY
  5
438
330
1F
100
AcDbDictionary
280
     1
  3
ACAD_LAYOUTSELFREF
360
1346
1001
ACAD
1000
TREAT_AS_HARD
1070
     1
1000
TREAT_AS_HARD
1070
     1
1000
TREAT_AS_HARD
1070
     0
  0
DICTIONARY
  5
43A
330
23
100
AcDbDictionary
280
     1
  3
ACAD_LAYOUTSELFREF
360
1347
1001
ACAD
1000
TREAT_AS_HARD
1070
     1
1000
TREAT_AS_HARD
1070
     1
1000
TREAT_AS_HARD
1070
     0
  0
DICTIONARY
  5
D
102
{ACAD_REACTORS
330
C
102
}
330
C
100
AcDbDictionary
1001
ACAD
1000
TREAT_AS_HARD
1070
     0
1000
TREAT_AS_HARD
1070
     0
1000
TREAT_AS_HARD
1070
     0
  0
DICTIONARY
  5
1A
102
{ACAD_REACTORS
330
C
102
}
330
C
100
AcDbDictionary
1001
ACAD
1000
TREAT_AS_HARD
1070
     0
1000
TREAT_AS_HARD
1070
     0
1000
TREAT_AS_HARD
1070
     0
  0
DICTIONARY
  5
17
102
{ACAD_REACTORS
330
C
102
}
330
C
100
AcDbDictionary
  3
STANDARD
350
18
1001
ACAD
1000
TREAT_AS_HARD
1070
     0
1000
TREAT_AS_HARD
1070
     0
1000
TREAT_AS_HARD
1070
     0
  0
DICTIONARY
  5
19
102
{ACAD_REACTORS
330
C
102
}
330
C
100
AcDbDictionary
1001
ACAD
1000
TREAT_AS_HARD
1070
     0
1000
TREAT_AS_HARD
1070
     0
1000
TREAT_AS_HARD
1070
     0
  0
ACDBDICTIONARYWDFLT
  5
B10
102
{ACAD_REACTORS
330
C
102
}
330
C
100
AcDbDictionary
281
     1
  3
Normal
350
B11
100
AcDbDictionaryWithDefault
340
B11
  0
ACAD_PROXY_OBJECT
  5
5BA
102
{ACAD_REACTORS
330
C
102
}
330
C
100
AcDbProxyObject
 90
      499
 91
      574
 93
      880
310
3FFFFFFFE00A0284402B0AE2E189C9917189B1C17189719182E32B733B4B732B2B934B733AE32B733B4B732B2B934B733AE26A2A2C5E34B58AE181C1898189A2FA6A2A2AF99222FC6F6483EAE39B4B5BCBAAE232916A420A62FA422A62FA1A0A22E4728C6B641B340ADC1AF400AA65
 94
        0
1001
ACAD
1000
AcadProxyRoundTripData
1071
      565
1071
   851991
1070
     0
  0
ACAD_PROXY_OBJECT
  5
53F
102
{ACAD_REACTORS
330
C
102
}
330
C
100
AcDbProxyObject
 90
      499
 91
      574
 93
       10
310
4046
 94
        0
1001
ACAD
1000
AcadProxyRoundTripData
1071
      537
1071
   851991
1070
     0
  0
ACAD_PROXY_OBJECT
  5
587
102
{ACAD_REACTORS
330
C
102
}
330
C
100
AcDbProxyObject
 90
      499
 91
      574
 93
       34
310
010000406C
 94
        0
1001
ACAD
1000
AcadProxyRoundTripData
1071
      543
1071
   851991
1070
     0
  0
DICTIONARY
  5
1326
102
{ACAD_REACTORS
330
C
102
}
330
C
100
AcDbDictionary
  3
CEPSNTYPE
350
1330
  3
FINGERPRINTGUID
350
1331
  3
HYPERLINKBASE
350
1329
  3
INSUNITS
350
132F
  3
LAYOUTDICT
350
132B
  3
LWETCUNION
350
132E
  3
PLOTSETDICT
350
132C
  3
PLOTSTYLNAMDICT
350
132D
  3
PSVPSCALE
350
1333
  3
PUCSBASE
350
1336
  3
PUCSORGBACK
350
133C
  3
PUCSORGBOTTOM
350
1338
  3
PUCSORGFRONT
350
133B
  3
PUCSORGLEFT
350
1339
  3
PUCSORGRIGHT
350
133A
  3
PUCSORGTOP
350
1337
  3
PUCSORTHOREF
350
1334
  3
PUCSORTHOVIEW
350
1335
  3
STYLESHEET
350
132A
  3
TSTACKALIGN
350
1327
  3
TSTACKSIZE
350
1328
  3
UCSBASE
350
133F
  3
UCSORGBACK
350
1345
  3
UCSORGBOTTOM
350
1341
  3
UCSORGFRONT
350
1344
  3
UCSORGLEFT
350
1342
  3
UCSORGRIGHT
350
1343
  3
UCSORGTOP
350
1340
  3
UCSORTHOREF
350
133D
  3
UCSORTHOVIEW
350
133E
  3
VERSIONGUID
350
1332
  0
DICTIONARY
  5
B19
102
{ACAD_REACTORS
330
C
102
}
330
C
100
AcDbDictionary
  3
DIMASSOC
350
B1A
  0
ACAD_PROXY_OBJECT
  5
519
102
{ACAD_REACTORS
330
C
102
}
330
C
100
AcDbProxyObject
 90
      499
 91
      574
 93
      240
310
4C51A4820000000000000000000000000000000000000000000000000000F3
330
51A
330
51B
330
51C
330
51D
330
51E
330
51F
330
520
330
523
330
524
330
525
330
526
330
527
330
528
330
529
330
52A
330
52B
330
52C
330
52D
330
52E
330
52F
330
530
330
531
330
532
330
533
330
534
330
535
 94
        0
1001
ACAD
1000
AcadProxyRoundTripData
1071
      516
1071
   851991
1070
     0
  0
ACAD_PROXY_OBJECT
  5
513
102
{ACAD_REACTORS
330
C
102
}
330
C
100
AcDbProxyObject
 90
      499
 91
      574
 93
       34
310
04000042AC
 94
        0
1001
ACAD
1000
AcadProxyRoundTripData
1071
      525
1071
   851991
1070
     0
  0
ACAD_PROXY_OBJECT
  5
53B
102
{ACAD_REACTORS
330
C
102
}
330
C
100
AcDbProxyObject
 90
      499
 91
      574
 93
      114
310
04000041C000000000000000000000
 94
        0
1001
ACAD
1000
AcadProxyRoundTripData
1071
      533
1071
   851991
1070
     0
  0
DICTIONARY
  5
5B6
102
{ACAD_REACTORS
330
C
102
}
330
C
100
AcDbDictionary
  3
ACMBOMDATA
350
5B7
1001
ACAD
1000
TREAT_AS_HARD
1070
     0
1000
TREAT_AS_HARD
1070
     0
1000
TREAT_AS_HARD
1070
     0
  0
ACAD_PROXY_OBJECT
  5
50C
102
{ACAD_REACTORS
330
C
102
}
330
C
100
AcDbProxyObject
 90
      499
 91
      574
 93
       50
310
00000040400025
330
0
330
0
330
50D
 94
        0
1001
ACAD
1000
AcadProxyRoundTripData
1071
      519
1071
   851991
1070
     0
  0
ACAD_PROXY_OBJECT
  5
507
102
{ACAD_REACTORS
330
C
102
}
330
C
100
AcDbProxyObject
 90
      499
 91
      574
 93
      778
310
424050E414D4454524553455444424D4F4440805084E202D20554E444F014213880B4815539113C0507544F4F4C42415280504554E444F80504554E444F80504554E444F80504554E444F80504554E444F80505455241534580506534156454153A4
 94
        0
1001
ACAD
1000
AcadProxyRoundTripData
1071
      515
1071
   851991
1070
     0
  0
ACAD_PROXY_OBJECT
  5
506
102
{ACAD_REACTORS
330
C
102
}
330
C
100
AcDbProxyObject
 90
      499
 91
      574
 93
     1242
310
06000044400000000000000000001840000400020000000000000000000000000000000000000000000000000000000000000000000000000000000000000000000000000000000000000000000000000000000000000000000000000000000000000000000000000000000000000000000000000000000000000000000000
310
00000000000000000000000000000000000000000000000000AAAAAAB2
360
509
360
50A
360
50B
360
50D
360
514
360
515
360
516
360
517
360
51A
360
51B
360
51C
360
51D
360
51E
360
51F
360
520
360
523
360
524
360
525
360
526
360
527
360
528
360
529
360
52A
360
52B
360
52C
360
52D
360
52E
360
52F
360
530
360
531
360
532
360
533
360
534
360
535
360
542
360
543
360
544
360
545
360
546
360
547
360
548
360
549
360
54A
360
54B
360
54C
360
54D
360
54E
360
54F
360
550
360
551
360
552
360
553
360
554
360
555
360
556
360
557
360
558
360
559
360
55A
360
55B
360
55C
360
55D
360
55E
360
55F
360
560
360
561
360
562
360
563
360
564
360
565
360
566
360
567
360
568
360
569
360
56A
360
56B
360
56C
360
56D
360
56E
360
56F
360
570
360
571
360
572
360
573
360
574
360
575
360
576
360
577
360
578
360
579
360
57A
360
57B
360
57C
360
57D
360
57E
360
57F
360
580
360
581
360
582
360
583
360
58C
360
58D
360
58E
360
58F
360
591
360
592
360
593
360
594
360
595
360
596
360
597
360
598
360
599
360
59A
360
59B
360
59C
360
59D
360
5A3
360
5A4
360
5A5
360
5A6
360
5A7
360
5A8
360
5A9
360
5AA
360
5AF
360
5B0
360
5B1
360
5B2
360
5B3
360
5B4
360
5C5
 94
        0
1001
ACAD
1000
AcadProxyRoundTripData
1071
      514
1071
   851991
1070
     0
  0
ACAD_PROXY_OBJECT
  5
511
102
{ACAD_REACTORS
330
C
102
}
330
C
100
AcDbProxyObject
 90
      499
 91
      574
 93
       50
310
060000416412A5
 94
        0
1001
ACAD
1000
AcadProxyRoundTripData
1071
      524
1071
   851991
1070
     0
  0
ACAD_PROXY_OBJECT
  5
508
102
{ACAD_REACTORS
330
C
102
}
330
C
100
AcDbProxyObject
 90
      499
 91
      574
 93
       48
310
90342200000011
330
509
330
50A
330
50B
 94
        0
1001
ACAD
1000
AcadProxyRoundTripData
1071
      516
1071
   851991
1070
     0
  0
ACAD_PROXY_OBJECT
  5
5C4
102
{ACAD_REACTORS
330
C
102
}
330
C
100
AcDbProxyObject
 90
      499
 91
      574
 93
       32
310
9014220000
330
5C5
 94
        0
1001
ACAD
1000
AcadProxyRoundTripData
1071
      516
1071
   851991
1070
     0
  0
ACAD_PROXY_OBJECT
  5
59E
102
{ACAD_REACTORS
330
C
102
}
330
C
100
AcDbProxyObject
 90
      499
 91
      574
 93
       42
310
0006000043C6
330
58C
 94
        0
1001
ACAD
1000
AcadProxyRoundTripData
1071
      552
1071
   851991
1070
     0
  0
ACAD_PROXY_OBJECT
  5
588
102
{ACAD_REACTORS
330
C
102
}
330
C
100
AcDbProxyObject
 90
      499
 91
      574
 93
      114
310
000000438000000000000000000036
 94
        0
1001
ACAD
1000
AcadProxyRoundTripData
1071
      544
1071
   851991
1070
     0
  0
ACAD_PROXY_OBJECT
  5
5A0
102
{ACAD_REACTORS
330
C
102
}
330
C
100
AcDbProxyObject
 90
      499
 91
      574
 93
       34
310
05000044EC
 94
        0
1001
ACAD
1000
AcadProxyRoundTripData
1071
      554
1071
   851991
1070
     0
  0
ACAD_PROXY_OBJECT
  5
590
102
{ACAD_REACTORS
330
C
102
}
330
C
100
AcDbProxyObject
 90
      499
 91
      574
 93
      128
310
90D4420000000000000000000000000011
330
591
330
592
330
593
330
594
330
595
330
596
330
597
330
598
330
599
330
59A
330
59B
330
59C
330
59D
 94
        0
1001
ACAD
1000
AcadProxyRoundTripData
1071
      516
1071
   851991
1070
     0
  0
ACAD_PROXY_OBJECT
  5
536
102
{ACAD_REACTORS
330
C
102
}
330
C
100
AcDbProxyObject
 90
      499
 91
      574
 93
       42
310
000100005AC6
330
514
 94
        0
1001
ACAD
1000
AcadProxyRoundTripData
1071
      530
1071
   851991
1070
     0
  0
DICTIONARY
  5
4FD
102
{ACAD_REACTORS
330
C
102
}
330
C
100
AcDbDictionary
  3
ACMGSETTINGS
350
4FE
  3
AMGLAYCFG
350
5C3
1001
ACAD
1000
TREAT_AS_HARD
1070
     0
1000
TREAT_AS_HARD
1070
     0
1000
TREAT_AS_HARD
1070
     0
  0
DICTIONARY
  5
5D0
102
{ACAD_REACTORS
330
C
102
}
330
C
100
AcDbDictionary
  3
DIMENSION
350
5D5
  3
FEA
350
5D4
  3
HATCH__1_
350
5D1
  3
HATCH__2_
350
5D2
  3
SIMPLE_WELD
350
5D6
  3
SYMBOLS
350
5D3
1001
ACAD
1000
TREAT_AS_HARD
1070
     0
1000
TREAT_AS_HARD
1070
     0
1000
TREAT_AS_HARD
1070
     0
  0
ACAD_PROXY_OBJECT
  5
53E
102
{ACAD_REACTORS
330
C
102
}
330
C
100
AcDbProxyObject
 90
      499
 91
      574
 93
       34
310
05000042AC
 94
        0
1001
ACAD
1000
AcadProxyRoundTripData
1071
      536
1071
   851991
1070
     0
  0
ACAD_PROXY_OBJECT
  5
540
102
{ACAD_REACTORS
330
C
102
}
330
C
100
AcDbProxyObject
 90
      499
 91
      574
 93
      424
310
585315020000000000000000000000000000000000000000000000000000000000000000000000000000000000000000000000000000
330
553
330
554
330
555
330
556
330
557
330
558
330
559
330
55A
330
55B
330
55C
330
55D
330
55E
330
55F
330
560
330
561
330
562
330
563
330
564
330
565
330
566
330
567
330
568
330
569
330
56A
330
56B
330
56C
330
56D
330
56E
330
56F
330
570
330
571
330
572
330
573
330
574
330
575
330
576
330
577
330
578
330
579
330
57A
330
57B
330
57C
330
57D
330
57E
330
57F
330
580
330
581
330
582
330
583
 94
        0
1001
ACAD
1000
AcadProxyRoundTripData
1071
      538
1071
   851991
1070
     0
  0
ACAD_PROXY_OBJECT
  5
5AB
102
{ACAD_REACTORS
330
C
102
}
330
C
100
AcDbProxyObject
 90
      499
 91
      574
 93
       74
310
0600004A400000000010
330
5B2
330
0
330
5B3
330
0
330
0
 94
        0
1001
ACAD
1000
AcadProxyRoundTripData
1071
      556
1071
   851991
1070
     0
  0
ACAD_PROXY_OBJECT
  5
541
102
{ACAD_REACTORS
330
C
102
}
330
C
100
AcDbProxyObject
 90
      499
 91
      574
 93
      168
310
4C511482000000000000000000000000000000000031
330
542
330
543
330
544
330
545
330
546
330
547
330
548
330
549
330
54A
330
54B
330
54C
330
54D
330
54E
330
54F
330
550
330
551
330
552
 94
        0
1001
ACAD
1000
AcadProxyRoundTripData
1071
      516
1071
   851991
1070
     0
  0
ACAD_PROXY_OBJECT
  5
5A2
102
{ACAD_REACTORS
330
C
102
}
330
C
100
AcDbProxyObject
 90
      499
 91
      574
 93
       88
310
908422000000000000000000
330
5A3
330
5A4
330
5A5
330
5A6
330
5A7
330
5A8
330
5A9
330
5AA
 94
        0
1001
ACAD
1000
AcadProxyRoundTripData
1071
      516
1071
   851991
1070
     0
  0
XRECORD
  5
5B9
102
{ACAD_REACTORS
330
C
102
}
330
C
100
AcDbXrecord
  1
DWGPROPS COOKIE
  2

  3

  4

  6

  7

  8

  9

300
AmdtFileType=84
301
=
302
=
303
=
304
=
305
=
306
=
307
=
308
=
309
=
 40
0.005163125
 41
2454596.550355717
 42
2454596.675773645
  1

 90
        1
  0
ACAD_PROXY_OBJECT
  5
58A
102
{ACAD_REACTORS
330
C
102
}
330
C
100
AcDbProxyObject
 90
      499
 91
      574
 93
        8
310
0505
 94
        0
1001
ACAD
1000
AcadProxyRoundTripData
1071
      546
1071
   851991
1070
     0
  0
ACAD_PROXY_OBJECT
  5
589
102
{ACAD_REACTORS
330
C
102
}
330
C
100
AcDbProxyObject
 90
      499
 91
      574
 93
        8
310
0405
 94
        0
1001
ACAD
1000
AcadProxyRoundTripData
1071
      545
1071
   851991
1070
     0
  0
DICTIONARY
  5
3FF
102
{ACAD_REACTORS
330
41
102
}
330
41
100
AcDbDictionary
1001
ACAD
1000
TREAT_AS_HARD
1070
     1
1000
TREAT_AS_HARD
1070
     0
1000
TREAT_AS_HARD
1070
     0
  0
DICTIONARY
  5
42
102
{ACAD_REACTORS
330
41
102
}
330
41
100
AcDbDictionary
1001
ACAD
1000
TREAT_AS_HARD
1070
     0
1000
TREAT_AS_HARD
1070
     0
1000
TREAT_AS_HARD
1070
     0
  0
XRECORD
  5
1346
102
{ACAD_REACTORS
330
438
102
}
330
438
100
AcDbXrecord
340
1F
  0
XRECORD
  5
1347
102
{ACAD_REACTORS
330
43A
102
}
330
43A
100
AcDbXrecord
340
23
  0
MLINESTYLE
  5
18
102
{ACAD_REACTORS
330
17
102
}
330
17
100
AcDbMlineStyle
  2
STANDARD
 70
     0
  3

 62
   256
 51
90.0
 52
90.0
 71
     2
 49
0.5
 62
   256
  6
BYLAYER
 49
-0.5
 62
   256
  6
BYLAYER
  0
ACDBPLACEHOLDER
  5
B11
102
{ACAD_REACTORS
330
B10
102
}
330
B10
100
AcDbPlaceHolder
280
     0
  0
XRECORD
  5
1330
102
{ACAD_REACTORS
330
1326
102
}
330
1326
100
AcDbXrecord
 90
        0
  0
XRECORD
  5
1331
102
{ACAD_REACTORS
330
1326
102
}
330
1326
100
AcDbXrecord
  1
{F9BB573E-A203-4408-8939-56EECC49D4C2}
  0
XRECORD
  5
1329
102
{ACAD_REACTORS
330
1326
102
}
330
1326
100
AcDbXrecord
  1

  0
XRECORD
  5
132F
102
{ACAD_REACTORS
330
1326
102
}
330
1326
100
AcDbXrecord
 90
        0
  0
XRECORD
  5
132B
102
{ACAD_REACTORS
330
1326
102
}
330
1326
100
AcDbXrecord
340
1A
  0
XRECORD
  5
132E
102
{ACAD_REACTORS
330
1326
102
}
330
1326
100
AcDbXrecord
 90
    10781
  0
XRECORD
  5
132C
102
{ACAD_REACTORS
330
1326
102
}
330
1326
100
AcDbXrecord
340
19
  0
XRECORD
  5
132D
102
{ACAD_REACTORS
330
1326
102
}
330
1326
100
AcDbXrecord
340
B10
  0
XRECORD
  5
1333
102
{ACAD_REACTORS
330
1326
102
}
330
1326
100
AcDbXrecord
 40
0.0
  0
XRECORD
  5
1336
102
{ACAD_REACTORS
330
1326
102
}
330
1326
100
AcDbXrecord
340
0
  0
XRECORD
  5
133C
102
{ACAD_REACTORS
330
1326
102
}
330
1326
100
AcDbXrecord
 10
0.0
 20
0.0
 30
0.0
  0
XRECORD
  5
1338
102
{ACAD_REACTORS
330
1326
102
}
330
1326
100
AcDbXrecord
 10
0.0
 20
0.0
 30
0.0
  0
XRECORD
  5
133B
102
{ACAD_REACTORS
330
1326
102
}
330
1326
100
AcDbXrecord
 10
0.0
 20
0.0
 30
0.0
  0
XRECORD
  5
1339
102
{ACAD_REACTORS
330
1326
102
}
330
1326
100
AcDbXrecord
 10
0.0
 20
0.0
 30
0.0
  0
XRECORD
  5
133A
102
{ACAD_REACTORS
330
1326
102
}
330
1326
100
AcDbXrecord
 10
0.0
 20
0.0
 30
0.0
  0
XRECORD
  5
1337
102
{ACAD_REACTORS
330
1326
102
}
330
1326
100
AcDbXrecord
 10
0.0
 20
0.0
 30
0.0
  0
XRECORD
  5
1334
102
{ACAD_REACTORS
330
1326
102
}
330
1326
100
AcDbXrecord
340
0
  0
XRECORD
  5
1335
102
{ACAD_REACTORS
330
1326
102
}
330
1326
100
AcDbXrecord
 70
     0
  0
XRECORD
  5
132A
102
{ACAD_REACTORS
330
1326
102
}
330
1326
100
AcDbXrecord
  1
monochrome.stb
  0
XRECORD
  5
1327
102
{ACAD_REACTORS
330
1326
102
}
330
1326
100
AcDbXrecord
 90
        1
  0
XRECORD
  5
1328
102
{ACAD_REACTORS
330
1326
102
}
330
1326
100
AcDbXrecord
 90
       70
  0
XRECORD
  5
133F
102
{ACAD_REACTORS
330
1326
102
}
330
1326
100
AcDbXrecord
340
0
  0
XRECORD
  5
1345
102
{ACAD_REACTORS
330
1326
102
}
330
1326
100
AcDbXrecord
 10
0.0
 20
0.0
 30
0.0
  0
XRECORD
  5
1341
102
{ACAD_REACTORS
330
1326
102
}
330
1326
100
AcDbXrecord
 10
0.0
 20
0.0
 30
0.0
  0
XRECORD
  5
1344
102
{ACAD_REACTORS
330
1326
102
}
330
1326
100
AcDbXrecord
 10
0.0
 20
0.0
 30
0.0
  0
XRECORD
  5
1342
102
{ACAD_REACTORS
330
1326
102
}
330
1326
100
AcDbXrecord
 10
0.0
 20
0.0
 30
0.0
  0
XRECORD
  5
1343
102
{ACAD_REACTORS
330
1326
102
}
330
1326
100
AcDbXrecord
 10
0.0
 20
0.0
 30
0.0
  0
XRECORD
  5
1340
102
{ACAD_REACTORS
330
1326
102
}
330
1326
100
AcDbXrecord
 10
0.0
 20
0.0
 30
0.0
  0
XRECORD
  5
133D
102
{ACAD_REACTORS
330
1326
102
}
330
1326
100
AcDbXrecord
340
0
  0
XRECORD
  5
133E
102
{ACAD_REACTORS
330
1326
102
}
330
1326
100
AcDbXrecord
 70
     0
  0
XRECORD
  5
1332
102
{ACAD_REACTORS
330
1326
102
}
330
1326
100
AcDbXrecord
  1
{AD3ED4E0-352F-4975-9E94-5E2BDFA500C8}
  0
DICTIONARYVAR
  5
B1A
102
{ACAD_REACTORS
330
B19
102
}
330
B19
100
DictionaryVariables
280
     0
  1
1
  0
ACAD_PROXY_OBJECT
  5
5B7
102
{ACAD_REACTORS
330
5B6
102
}
330
5B6
100
AcDbProxyObject
 90
      499
 91
      574
 93
      118
310
405010040CA904C415CD5B0757102A
350
5B8
 94
        0
1001
ACAD
1000
AcadProxyRoundTripData
1071
      563
1071
   851991
1070
     0
  0
ACAD_PROXY_OBJECT
  5
509
330
0
100
AcDbProxyObject
 90
      499
 91
      574
 93
      156
310
00010143D050D351505391D5531054925390D492
330
506
 94
        0
1001
ACAD
1000
AcadProxyRoundTripData
1071
      517
1071
   851991
1070
     0
  0
ACAD_PROXY_OBJECT
  5
50A
330
0
100
AcDbProxyObject
 90
      499
 91
      574
 93
      148
310
000101439050D351531253915054925390D490
330
506
 94
        0
1001
ACAD
1000
AcadProxyRoundTripData
1071
      517
1071
   851991
1070
     0
  0
ACAD_PROXY_OBJECT
  5
50B
330
0
100
AcDbProxyObject
 90
      499
 91
      574
 93
      156
310
000101439050D35154D6535093D314D256915082
330
506
 94
        0
1001
ACAD
1000
AcadProxyRoundTripData
1071
      518
1071
   851991
1070
     0
  0
ACAD_PROXY_OBJECT
  5
50D
330
0
100
AcDbProxyObject
 90
      499
 91
      574
 93
      120
310
000101422565255A6557080C402B0081
330
506
330
0
330
0
 94
        0
1001
ACAD
1000
AcadProxyRoundTripData
1071
      520
1071
   851991
1070
     0
  0
ACAD_PROXY_OBJECT
  5
514
330
0
100
AcDbProxyObject
 90
      499
 91
      574
 93
      358
310
0001014124FEA55D00507362E332E302E31014124FEA55D00507362E332E302E3140501000041505391D311658
330
506
330
515
330
519
 94
        0
1001
ACAD
1000
AcadProxyRoundTripData
1071
      526
1071
   851991
1070
     0
  0
ACAD_PROXY_OBJECT
  5
515
330
0
100
AcDbProxyObject
 90
      499
 91
      574
 93
       48
310
00019014220011
330
506
330
516
 94
        0
1001
ACAD
1000
AcadProxyRoundTripData
1071
      527
1071
   851991
1070
     0
  0
ACAD_PROXY_OBJECT
  5
516
330
0
100
AcDbProxyObject
 90
      499
 91
      574
 93
       48
310
0001AA00000011
330
506
330
0
330
517
330
0
 94
        0
1001
ACAD
1000
AcadProxyRoundTripData
1071
      528
1071
   851991
1070
     0
  0
ACAD_PROXY_OBJECT
  5
517
330
0
100
AcDbProxyObject
 90
      499
 91
      574
 93
       28
310
0001AAA0
330
506
 94
        0
1001
ACAD
1000
AcadProxyRoundTripData
1071
      529
1071
   851991
1070
     0
  0
ACAD_PROXY_OBJECT
  5
51A
330
0
100
AcDbProxyObject
 90
      499
 91
      574
 93
      108
310
000101421053521310D05310D013
330
506
 94
        0
1001
ACAD
1000
AcadProxyRoundTripData
1071
      518
1071
   851991
1070
     0
  0
ACAD_PROXY_OBJECT
  5
51B
330
0
100
AcDbProxyObject
 90
      499
 91
      574
 93
      124
310
00010142905354915554D15112535013
330
506
 94
        0
1001
ACAD
1000
AcadProxyRoundTripData
1071
      518
1071
   851991
1070
     0
  0
ACAD_PROXY_OBJECT
  5
51C
330
0
100
AcDbProxyObject
 90
      499
 91
      574
 93
      132
310
00010143105354D150D51253D391125362
330
506
 94
        0
1001
ACAD
1000
AcadProxyRoundTripData
1071
      518
1071
   851991
1070
     0
  0
ACAD_PROXY_OBJECT
  5
51D
330
0
100
AcDbProxyObject
 90
      499
 91
      574
 93
      124
310
00010142905355941093D49111549014
330
506
 94
        0
1001
ACAD
1000
AcadProxyRoundTripData
1071
      518
1071
   851991
1070
     0
  0
ACAD_PROXY_OBJECT
  5
51E
330
0
100
AcDbProxyObject
 90
      499
 91
      574
 93
      116
310
0001014290535115D1D0D3D313D4A1
330
506
 94
        0
1001
ACAD
1000
AcadProxyRoundTripData
1071
      518
1071
   851991
1070
     0
  0
ACAD_PROXY_OBJECT
  5
51F
330
0
100
AcDbProxyObject
 90
      499
 91
      574
 93
      148
310
00010143505355925155D49151949154D21015
330
506
 94
        0
1001
ACAD
1000
AcadProxyRoundTripData
1071
      518
1071
   851991
1070
     0
  0
ACAD_PROXY_OBJECT
  5
520
330
0
100
AcDbProxyObject
 90
      499
 91
      574
 93
      172
310
00010144105350539393D51154149154D15495915010
330
506
 94
        0
1001
ACAD
1000
AcadProxyRoundTripData
1071
      518
1071
   851991
1070
     0
  0
ACAD_PROXY_OBJECT
  5
523
330
0
100
AcDbProxyObject
 90
      499
 91
      574
 93
      172
310
00010144105350555513D11253505494905391D15010
330
506
 94
        0
1001
ACAD
1000
AcadProxyRoundTripData
1071
      518
1071
   851991
1070
     0
  0
ACAD_PROXY_OBJECT
  5
524
330
0
100
AcDbProxyObject
 90
      499
 91
      574
 93
      124
310
00010142D05351561514915191125360
330
506
 94
        0
1001
ACAD
1000
AcadProxyRoundTripData
1071
      518
1071
   851991
1070
     0
  0
ACAD_PROXY_OBJECT
  5
525
330
0
100
AcDbProxyObject
 90
      499
 91
      574
 93
      132
310
00010142D05355105410539393D5115013
330
506
 94
        0
1001
ACAD
1000
AcadProxyRoundTripData
1071
      518
1071
   851991
1070
     0
  0
ACAD_PROXY_OBJECT
  5
526
330
0
100
AcDbProxyObject
 90
      499
 91
      574
 93
      108
310
00010142105350555513D0D31013
330
506
 94
        0
1001
ACAD
1000
AcadProxyRoundTripData
1071
      518
1071
   851991
1070
     0
  0
ACAD_PROXY_OBJECT
  5
527
330
0
100
AcDbProxyObject
 90
      499
 91
      574
 93
      108
310
00010142105350D3119150551053
330
506
 94
        0
1001
ACAD
1000
AcadProxyRoundTripData
1071
      518
1071
   851991
1070
     0
  0
ACAD_PROXY_OBJECT
  5
528
330
0
100
AcDbProxyObject
 90
      499
 91
      574
 93
      108
310
00010142105350D315925155D3F3
330
506
 94
        0
1001
ACAD
1000
AcadProxyRoundTripData
1071
      518
1071
   851991
1070
     0
  0
ACAD_PROXY_OBJECT
  5
529
330
0
100
AcDbProxyObject
 90
      499
 91
      574
 93
      148
310
0001014350535212511156915493D112535010
330
506
 94
        0
1001
ACAD
1000
AcadProxyRoundTripData
1071
      518
1071
   851991
1070
     0
  0
ACAD_PROXY_OBJECT
  5
52A
330
0
100
AcDbProxyObject
 90
      499
 91
      574
 93
      124
310
00010142905352105510D21254D3D013
330
506
 94
        0
1001
ACAD
1000
AcadProxyRoundTripData
1071
      518
1071
   851991
1070
     0
  0
ACAD_PROXY_OBJECT
  5
52B
330
0
100
AcDbProxyObject
 90
      499
 91
      574
 93
      148
310
00010143905354D25391D31152105513105660
330
506
 94
        0
1001
ACAD
1000
AcadProxyRoundTripData
1071
      518
1071
   851991
1070
     0
  0
ACAD_PROXY_OBJECT
  5
52C
330
0
100
AcDbProxyObject
 90
      499
 91
      574
 93
      124
310
00010142D0535115D1D193111254D424
330
506
 94
        0
1001
ACAD
1000
AcadProxyRoundTripData
1071
      518
1071
   851991
1070
     0
  0
ACAD_PROXY_OBJECT
  5
52D
330
0
100
AcDbProxyObject
 90
      499
 91
      574
 93
      100
310
00010142105350555513D213A5
330
506
 94
        0
1001
ACAD
1000
AcadProxyRoundTripData
1071
      518
1071
   851991
1070
     0
  0
ACAD_PROXY_OBJECT
  5
52E
330
0
100
AcDbProxyObject
 90
      499
 91
      574
 93
      116
310
000101425053521390D3D553951013
330
506
 94
        0
1001
ACAD
1000
AcadProxyRoundTripData
1071
      518
1071
   851991
1070
     0
  0
ACAD_PROXY_OBJECT
  5
52F
330
0
100
AcDbProxyObject
 90
      499
 91
      574
 93
      108
310
0001014210535213941493D29010
330
506
 94
        0
1001
ACAD
1000
AcadProxyRoundTripData
1071
      518
1071
   851991
1070
     0
  0
ACAD_PROXY_OBJECT
  5
530
330
0
100
AcDbProxyObject
 90
      499
 91
      574
 93
      108
310
0001014210535213951654115070
330
506
 94
        0
1001
ACAD
1000
AcadProxyRoundTripData
1071
      518
1071
   851991
1070
     0
  0
ACAD_PROXY_OBJECT
  5
531
330
0
100
AcDbProxyObject
 90
      499
 91
      574
 93
      108
310
000101421053521395925155D0F0
330
506
 94
        0
1001
ACAD
1000
AcadProxyRoundTripData
1071
      518
1071
   851991
1070
     0
  0
ACAD_PROXY_OBJECT
  5
532
330
0
100
AcDbProxyObject
 90
      499
 91
      574
 93
      140
310
00010143505354D150D51253D390D3D41665
330
506
 94
        0
1001
ACAD
1000
AcadProxyRoundTripData
1071
      518
1071
   851991
1070
     0
  0
ACAD_PROXY_OBJECT
  5
533
330
0
100
AcDbProxyObject
 90
      499
 91
      574
 93
      108
310
00010142105350D3141493D29030
330
506
 94
        0
1001
ACAD
1000
AcadProxyRoundTripData
1071
      518
1071
   851991
1070
     0
  0
ACAD_PROXY_OBJECT
  5
534
330
0
100
AcDbProxyObject
 90
      499
 91
      574
 93
      212
310
00010143905350555513D2105510D21493D500000000000002E400
330
506
 94
        0
1001
ACAD
1000
AcadProxyRoundTripData
1071
      517
1071
   851991
1070
     0
  0
ACAD_PROXY_OBJECT
  5
535
330
0
100
AcDbProxyObject
 90
      499
 91
      574
 93
      156
310
00010143905350555513D2105510D21111551010
330
506
 94
        0
1001
ACAD
1000
AcadProxyRoundTripData
1071
      518
1071
   851991
1070
     0
  0
ACAD_PROXY_OBJECT
  5
542
330
0
100
AcDbProxyObject
 90
      499
 91
      574
 93
      116
310
000101425053541051D15311539191
330
506
 94
        0
1001
ACAD
1000
AcadProxyRoundTripData
1071
      518
1071
   851991
1070
     0
  0
ACAD_PROXY_OBJECT
  5
543
330
0
100
AcDbProxyObject
 90
      499
 91
      574
 93
      108
310
000101421053555312539154D053
330
506
 94
        0
1001
ACAD
1000
AcadProxyRoundTripData
1071
      518
1071
   851991
1070
     0
  0
ACAD_PROXY_OBJECT
  5
544
330
0
100
AcDbProxyObject
 90
      499
 91
      574
 93
      108
310
000101421053559312539154D033
330
506
 94
        0
1001
ACAD
1000
AcadProxyRoundTripData
1071
      518
1071
   851991
1070
     0
  0
ACAD_PROXY_OBJECT
  5
545
330
0
100
AcDbProxyObject
 90
      499
 91
      574
 93
      140
310
00010143105354D1911254D41353D111501A
330
506
 94
        0
1001
ACAD
1000
AcadProxyRoundTripData
1071
      518
1071
   851991
1070
     0
  0
ACAD_PROXY_OBJECT
  5
546
330
0
100
AcDbProxyObject
 90
      499
 91
      574
 93
      172
310
00010142505354119255105391C1C052DC9A6F104403
330
506
 94
        0
1001
ACAD
1000
AcadProxyRoundTripData
1071
      517
1071
   851991
1070
     0
  0
ACAD_PROXY_OBJECT
  5
547
330
0
100
AcDbProxyObject
 90
      499
 91
      574
 93
      164
310
000101421053559150D05551C000000000000E03F8
330
506
 94
        0
1001
ACAD
1000
AcadProxyRoundTripData
1071
      517
1071
   851991
1070
     0
  0
ACAD_PROXY_OBJECT
  5
548
330
0
100
AcDbProxyObject
 90
      499
 91
      574
 93
      180
310
00010142905350931153911513D307B14AE47E17A843F3
330
506
 94
        0
1001
ACAD
1000
AcadProxyRoundTripData
1071
      517
1071
   851991
1070
     0
  0
ACAD_PROXY_OBJECT
  5
549
330
0
100
AcDbProxyObject
 90
      499
 91
      574
 93
      172
310
0001014250535293D25391D05407B14AE47E17A843F8
330
506
 94
        0
1001
ACAD
1000
AcadProxyRoundTripData
1071
      517
1071
   851991
1070
     0
  0
ACAD_PROXY_OBJECT
  5
54A
330
0
100
AcDbProxyObject
 90
      499
 91
      574
 93
      172
310
000101425053541192551311538000000FC83D797418
330
506
 94
        0
1001
ACAD
1000
AcadProxyRoundTripData
1071
      517
1071
   851991
1070
     0
  0
ACAD_PROXY_OBJECT
  5
54B
330
0
100
AcDbProxyObject
 90
      499
 91
      574
 93
      156
310
00010141D053559150D4D18000000000000E03F8
330
506
 94
        0
1001
ACAD
1000
AcadProxyRoundTripData
1071
      517
1071
   851991
1070
     0
  0
ACAD_PROXY_OBJECT
  5
54C
330
0
100
AcDbProxyObject
 90
      499
 91
      574
 93
      156
310
00010141D05354D19513D309A9999999999993F8
330
506
 94
        0
1001
ACAD
1000
AcadProxyRoundTripData
1071
      517
1071
   851991
1070
     0
  0
ACAD_PROXY_OBJECT
  5
54D
330
0
100
AcDbProxyObject
 90
      499
 91
      574
 93
      172
310
000101425053541192551513D307B14AE47E17A843F8
330
506
 94
        0
1001
ACAD
1000
AcadProxyRoundTripData
1071
      517
1071
   851991
1070
     0
  0
ACAD_PROXY_OBJECT
  5
54E
330
0
100
AcDbProxyObject
 90
      499
 91
      574
 93
      188
310
00010142D05354D151D192551513D307B14AE47E17A843F0
330
506
 94
        0
1001
ACAD
1000
AcadProxyRoundTripData
1071
      517
1071
   851991
1070
     0
  0
ACAD_PROXY_OBJECT
  5
54F
330
0
100
AcDbProxyObject
 90
      499
 91
      574
 93
      148
310
000101419053541311538000000FC83D79741F
330
506
 94
        0
1001
ACAD
1000
AcadProxyRoundTripData
1071
      517
1071
   851991
1070
     0
  0
ACAD_PROXY_OBJECT
  5
550
330
0
100
AcDbProxyObject
 90
      499
 91
      574
 93
      172
310
00010142505354105391D513D301C052DC9A6F104402
330
506
 94
        0
1001
ACAD
1000
AcadProxyRoundTripData
1071
      517
1071
   851991
1070
     0
  0
ACAD_PROXY_OBJECT
  5
551
330
0
100
AcDbProxyObject
 90
      499
 91
      574
 93
      132
310
0001014114D25691400000000000024404
330
506
 94
        0
1001
ACAD
1000
AcadProxyRoundTripData
1071
      517
1071
   851991
1070
     0
  0
ACAD_PROXY_OBJECT
  5
552
330
0
100
AcDbProxyObject
 90
      499
 91
      574
 93
      156
310
00010142905351D4941491519256005034153470
330
506
 94
        0
1001
ACAD
1000
AcadProxyRoundTripData
1071
      539
1071
   851991
1070
     0
  0
ACAD_PROXY_OBJECT
  5
553
330
0
100
AcDbProxyObject
 90
      499
 91
      574
 93
      314
310
00014080509646973745363616C650000000000003C2FC000000000000F0BF0000003F20F5E5D050
330
506
 94
        0
1001
ACAD
1000
AcadProxyRoundTripData
1071
      540
1071
   851991
1070
     0
  0
ACAD_PROXY_OBJECT
  5
554
330
0
100
AcDbProxyObject
 90
      499
 91
      574
 93
      322
310
0001408050A65646175526F74617465060B51153EC87E4FC182D4454FB2119C0060B51153EC8465004
330
506
 94
        0
1001
ACAD
1000
AcadProxyRoundTripData
1071
      540
1071
   851991
1070
     0
  0
ACAD_PROXY_OBJECT
  5
555
330
0
100
AcDbProxyObject
 90
      499
 91
      574
 93
      314
310
00014080509656461755477697374060B51153EC846500000000FC83D797C10000003F20F5E5D050
330
506
 94
        0
1001
ACAD
1000
AcadProxyRoundTripData
1071
      540
1071
   851991
1070
     0
  0
ACAD_PROXY_OBJECT
  5
556
330
0
100
AcDbProxyObject
 90
      499
 91
      574
 93
      294
310
000140C050A656467654F75747075740144F3B7F635ECB74A140A4817D41BDB1E5B1A5B994
330
506
 94
        0
1001
ACAD
1000
AcadProxyRoundTripData
1071
      541
1071
   851991
1070
     0
  0
ACAD_PROXY_OBJECT
  5
557
330
0
100
AcDbProxyObject
 90
      499
 91
      574
 93
      154
310
0001404050B65646974507265766965774064040
330
506
 94
        0
1001
ACAD
1000
AcadProxyRoundTripData
1071
      542
1071
   851991
1070
     0
  0
ACAD_PROXY_OBJECT
  5
558
330
0
100
AcDbProxyObject
 90
      499
 91
      574
 93
      170
310
0001404050A666C6F77556C696E657342A3A00C00003
330
506
 94
        0
1001
ACAD
1000
AcadProxyRoundTripData
1071
      542
1071
   851991
1070
     0
  0
ACAD_PROXY_OBJECT
  5
559
330
0
100
AcDbProxyObject
 90
      499
 91
      574
 93
      170
310
0001404050A666C6F77566C696E657342A3A00C00003
330
506
 94
        0
1001
ACAD
1000
AcadProxyRoundTripData
1071
      542
1071
   851991
1070
     0
  0
ACAD_PROXY_OBJECT
  5
55A
330
0
100
AcDbProxyObject
 90
      499
 91
      574
 93
      322
310
0001408050A666C7366456E645261640000000000003C2FC000000000000F0BF0000003F20F5E5D044
330
506
 94
        0
1001
ACAD
1000
AcadProxyRoundTripData
1071
      540
1071
   851991
1070
     0
  0
ACAD_PROXY_OBJECT
  5
55B
330
0
100
AcDbProxyObject
 90
      499
 91
      574
 93
      246
310
000140C05086A6E33644D6F64650143E3BA24EB8A134A4817D3585B9D585B1
330
506
 94
        0
1001
ACAD
1000
AcadProxyRoundTripData
1071
      541
1071
   851991
1070
     0
  0
ACAD_PROXY_OBJECT
  5
55C
330
0
100
AcDbProxyObject
 90
      499
 91
      574
 93
      294
310
000140C050A6A6E33644F75747075740144F3B7F635ECB74A140A4817D41BDB1E5B1A5B995
330
506
 94
        0
1001
ACAD
1000
AcadProxyRoundTripData
1071
      541
1071
   851991
1070
     0
  0
ACAD_PROXY_OBJECT
  5
55D
330
0
100
AcDbProxyObject
 90
      499
 91
      574
 93
      306
310
000140805086C656E675065726300000000002016D002D431CEBE2361A3F0000003F20F5E5D046
330
506
 94
        0
1001
ACAD
1000
AcadProxyRoundTripData
1071
      540
1071
   851991
1070
     0
  0
ACAD_PROXY_OBJECT
  5
55E
330
0
100
AcDbProxyObject
 90
      499
 91
      574
 93
      266
310
0001408050B6D61737344656E7369747942D431CEBE2361A3F0000003F20F5E5D04B
330
506
 94
        0
1001
ACAD
1000
AcadProxyRoundTripData
1071
      540
1071
   851991
1070
     0
  0
ACAD_PROXY_OBJECT
  5
55F
330
0
100
AcDbProxyObject
 90
      499
 91
      574
 93
      186
310
000140805096D617373546869636BA0000003F20F5E5D07D
330
506
 94
        0
1001
ACAD
1000
AcadProxyRoundTripData
1071
      540
1071
   851991
1070
     0
  0
ACAD_PROXY_OBJECT
  5
560
330
0
100
AcDbProxyObject
 90
      499
 91
      574
 93
      230
310
000140C05086D6173735479706501436F2AB64A14CA4817D4DA195B1B1
330
506
 94
        0
1001
ACAD
1000
AcadProxyRoundTripData
1071
      541
1071
   851991
1070
     0
  0
ACAD_PROXY_OBJECT
  5
561
330
0
100
AcDbProxyObject
 90
      499
 91
      574
 93
      242
310
000140805086F667366446973744000000FC83D797C10000003F20F5E5D065
330
506
 94
        0
1001
ACAD
1000
AcadProxyRoundTripData
1071
      540
1071
   851991
1070
     0
  0
ACAD_PROXY_OBJECT
  5
562
330
0
100
AcDbProxyObject
 90
      499
 91
      574
 93
      258
310
0001408050A7072696D52616469757342D431CEBE2361A3F0000003F20F5E5D050
330
506
 94
        0
1001
ACAD
1000
AcadProxyRoundTripData
1071
      540
1071
   851991
1070
     0
  0
ACAD_PROXY_OBJECT
  5
563
330
0
100
AcDbProxyObject
 90
      499
 91
      574
 93
      194
310
0001408050A7072696D546F70526164A0000003F20F5E5D07F
330
506
 94
        0
1001
ACAD
1000
AcadProxyRoundTripData
1071
      540
1071
   851991
1070
     0
  0
ACAD_PROXY_OBJECT
  5
564
330
0
100
AcDbProxyObject
 90
      499
 91
      574
 93
      266
310
0001408050B7072696D5475626552616442D431CEBE2361A3F0000003F20F5E5D04B
330
506
 94
        0
1001
ACAD
1000
AcadProxyRoundTripData
1071
      540
1071
   851991
1070
     0
  0
ACAD_PROXY_OBJECT
  5
565
330
0
100
AcDbProxyObject
 90
      499
 91
      574
 93
      258
310
0001408050A7072696D4865696768744000000FC83D797C10000003F20F5E5D046
330
506
 94
        0
1001
ACAD
1000
AcadProxyRoundTripData
1071
      540
1071
   851991
1070
     0
  0
ACAD_PROXY_OBJECT
  5
566
330
0
100
AcDbProxyObject
 90
      499
 91
      574
 93
      250
310
000140805097072696D5374416E678182D4454FB2119C0060B51153EC8465000
330
506
 94
        0
1001
ACAD
1000
AcadProxyRoundTripData
1071
      540
1071
   851991
1070
     0
  0
ACAD_PROXY_OBJECT
  5
567
330
0
100
AcDbProxyObject
 90
      499
 91
      574
 93
      322
310
0001408050A7072696D456E64416E67060B51153EC846500182D4454FB2119C0060B51153EC8465004
330
506
 94
        0
1001
ACAD
1000
AcadProxyRoundTripData
1071
      540
1071
   851991
1070
     0
  0
ACAD_PROXY_OBJECT
  5
568
330
0
100
AcDbProxyObject
 90
      499
 91
      574
 93
      242
310
000140805087265765374416E678182D4454FB2119C0060B51153EC8465000
330
506
 94
        0
1001
ACAD
1000
AcadProxyRoundTripData
1071
      540
1071
   851991
1070
     0
  0
ACAD_PROXY_OBJECT
  5
569
330
0
100
AcDbProxyObject
 90
      499
 91
      574
 93
      314
310
00014080509726576456E64416E67060B51153EC846500182D4454FB2119C0060B51153EC8465021
330
506
 94
        0
1001
ACAD
1000
AcadProxyRoundTripData
1071
      540
1071
   851991
1070
     0
  0
ACAD_PROXY_OBJECT
  5
56A
330
0
100
AcDbProxyObject
 90
      499
 91
      574
 93
      194
310
0001404050C7266736655706174636865734290139C0C0003D
330
506
 94
        0
1001
ACAD
1000
AcadProxyRoundTripData
1071
      542
1071
   851991
1070
     0
  0
ACAD_PROXY_OBJECT
  5
56B
330
0
100
AcDbProxyObject
 90
      499
 91
      574
 93
      194
310
0001404050C7266736656706174636865734290139C0C0003D
330
506
 94
        0
1001
ACAD
1000
AcadProxyRoundTripData
1071
      542
1071
   851991
1070
     0
  0
ACAD_PROXY_OBJECT
  5
56C
330
0
100
AcDbProxyObject
 90
      499
 91
      574
 93
      246
310
000140C0508747562654D6F64650143E3BA24EB8A134A4817D3585B9D585B0
330
506
 94
        0
1001
ACAD
1000
AcadProxyRoundTripData
1071
      541
1071
   851991
1070
     0
  0
ACAD_PROXY_OBJECT
  5
56D
330
0
100
AcDbProxyObject
 90
      499
 91
      574
 93
      274
310
0001408050C747562654469616D6574657242D431CEBE2361A3F0000003F20F5E5D071
330
506
 94
        0
1001
ACAD
1000
AcadProxyRoundTripData
1071
      540
1071
   851991
1070
     0
  0
ACAD_PROXY_OBJECT
  5
56E
330
0
100
AcDbProxyObject
 90
      499
 91
      574
 93
      130
310
00014040509696E746572506F6C79A4056
330
506
 94
        0
1001
ACAD
1000
AcadProxyRoundTripData
1071
      542
1071
   851991
1070
     0
  0
ACAD_PROXY_OBJECT
  5
56F
330
0
100
AcDbProxyObject
 90
      499
 91
      574
 93
      162
310
0001404050D696E746572417567506F696E74A406C
330
506
 94
        0
1001
ACAD
1000
AcadProxyRoundTripData
1071
      542
1071
   851991
1070
     0
  0
ACAD_PROXY_OBJECT
  5
570
330
0
100
AcDbProxyObject
 90
      499
 91
      574
 93
      238
310
000140C0509696E7465727472696D014365EF257ECA108A4817D09BDD1A1
330
506
 94
        0
1001
ACAD
1000
AcadProxyRoundTripData
1071
      541
1071
   851991
1070
     0
  0
ACAD_PROXY_OBJECT
  5
571
330
0
100
AcDbProxyObject
 90
      499
 91
      574
 93
      230
310
000140C0509696E7465727479706501433136344A150A4817D51C9A5B5
330
506
 94
        0
1001
ACAD
1000
AcadProxyRoundTripData
1071
      541
1071
   851991
1070
     0
  0
ACAD_PROXY_OBJECT
  5
572
330
0
100
AcDbProxyObject
 90
      499
 91
      574
 93
      146
310
0001404050A636F726E65727472696D4064060
330
506
 94
        0
1001
ACAD
1000
AcadProxyRoundTripData
1071
      542
1071
   851991
1070
     0
  0
ACAD_PROXY_OBJECT
  5
573
330
0
100
AcDbProxyObject
 90
      499
 91
      574
 93
      130
310
000140405086F6673666B656570406404A
330
506
 94
        0
1001
ACAD
1000
AcadProxyRoundTripData
1071
      542
1071
   851991
1070
     0
  0
ACAD_PROXY_OBJECT
  5
574
330
0
100
AcDbProxyObject
 90
      499
 91
      574
 93
      146
310
0001404050A70726F6A4F757470757440A40E0
330
506
 94
        0
1001
ACAD
1000
AcadProxyRoundTripData
1071
      542
1071
   851991
1070
     0
  0
ACAD_PROXY_OBJECT
  5
575
330
0
100
AcDbProxyObject
 90
      499
 91
      574
 93
      270
310
000140C050D70726F6A446972656374696F6E014372F7AB6C0A124A4817DD92595DD
330
506
 94
        0
1001
ACAD
1000
AcadProxyRoundTripData
1071
      541
1071
   851991
1070
     0
  0
ACAD_PROXY_OBJECT
  5
576
330
0
100
AcDbProxyObject
 90
      499
 91
      574
 93
      130
310
0001404050870726F6A4B6565704064070
330
506
 94
        0
1001
ACAD
1000
AcadProxyRoundTripData
1071
      542
1071
   851991
1070
     0
  0
ACAD_PROXY_OBJECT
  5
577
330
0
100
AcDbProxyObject
 90
      499
 91
      574
 93
      278
310
000140C050B70726F6A53706163696E670144237164D2CA13CA4817D3DC1D1A5B585B1
330
506
 94
        0
1001
ACAD
1000
AcadProxyRoundTripData
1071
      541
1071
   851991
1070
     0
  0
ACAD_PROXY_OBJECT
  5
578
330
0
100
AcDbProxyObject
 90
      499
 91
      574
 93
      250
310
0001408050970726F6A54617065728182D4454FB21F9BF060B51153EC87E4FFD
330
506
 94
        0
1001
ACAD
1000
AcadProxyRoundTripData
1071
      540
1071
   851991
1070
     0
  0
ACAD_PROXY_OBJECT
  5
579
330
0
100
AcDbProxyObject
 90
      499
 91
      574
 93
      130
310
00014040508647261674B6565704064057
330
506
 94
        0
1001
ACAD
1000
AcadProxyRoundTripData
1071
      542
1071
   851991
1070
     0
  0
ACAD_PROXY_OBJECT
  5
57A
330
0
100
AcDbProxyObject
 90
      499
 91
      574
 93
      302
310
000140C050F647261674F7269656E746174696F6E0143E590243F0A138A4817D39BDC9B585B1
330
506
 94
        0
1001
ACAD
1000
AcadProxyRoundTripData
1071
      541
1071
   851991
1070
     0
  0
ACAD_PROXY_OBJECT
  5
57B
330
0
100
AcDbProxyObject
 90
      499
 91
      574
 93
      286
310
000140C050E647261675472616E736974696F6E0143A3B6A4DE0A10CA4817DCD0D85B195
330
506
 94
        0
1001
ACAD
1000
AcadProxyRoundTripData
1071
      541
1071
   851991
1070
     0
  0
ACAD_PROXY_OBJECT
  5
57C
330
0
100
AcDbProxyObject
 90
      499
 91
      574
 93
      318
310
000140C051061646A757374436F6E74696E7569747901442F746C2F778A14CA4817D4DB5BDBDD1A1
330
506
 94
        0
1001
ACAD
1000
AcadProxyRoundTripData
1071
      541
1071
   851991
1070
     0
  0
ACAD_PROXY_OBJECT
  5
57D
330
0
100
AcDbProxyObject
 90
      499
 91
      574
 93
      138
310
0001404050A61646A7573744B656570A405C
330
506
 94
        0
1001
ACAD
1000
AcadProxyRoundTripData
1071
      542
1071
   851991
1070
     0
  0
ACAD_PROXY_OBJECT
  5
57E
330
0
100
AcDbProxyObject
 90
      499
 91
      574
 93
      250
310
0001408050972756C65576964746842D431CEBE2361A3F0000003F20F5E5D048
330
506
 94
        0
1001
ACAD
1000
AcadProxyRoundTripData
1071
      540
1071
   851991
1070
     0
  0
ACAD_PROXY_OBJECT
  5
57F
330
0
100
AcDbProxyObject
 90
      499
 91
      574
 93
      274
310
0001408050C616E616C797A65447261667421D139D28615ED8FE060B51153EC8425003
330
506
 94
        0
1001
ACAD
1000
AcadProxyRoundTripData
1071
      540
1071
   851991
1070
     0
  0
ACAD_PROXY_OBJECT
  5
580
330
0
100
AcDbProxyObject
 90
      499
 91
      574
 93
      210
310
0001404050F616E616C797A654E756D4C696E65734163FDFC00026
330
506
 94
        0
1001
ACAD
1000
AcadProxyRoundTripData
1071
      542
1071
   851991
1070
     0
  0
ACAD_PROXY_OBJECT
  5
581
330
0
100
AcDbProxyObject
 90
      499
 91
      574
 93
      202
310
00014040512616E616C797A65526F746174654C696E6573A4040
330
506
 94
        0
1001
ACAD
1000
AcadProxyRoundTripData
1071
      542
1071
   851991
1070
     0
  0
ACAD_PROXY_OBJECT
  5
582
330
0
100
AcDbProxyObject
 90
      499
 91
      574
 93
      210
310
00014040513616E616C797A65446973706C61794C696E6573A4066
330
506
 94
        0
1001
ACAD
1000
AcadProxyRoundTripData
1071
      542
1071
   851991
1070
     0
  0
ACAD_PROXY_OBJECT
  5
583
330
0
100
AcDbProxyObject
 90
      499
 91
      574
 93
      258
310
00014040519616E616C797A655472616E736C7563656E7453757266616365A4043
330
506
 94
        0
1001
ACAD
1000
AcadProxyRoundTripData
1071
      542
1071
   851991
1070
     0
  0
ACAD_PROXY_OBJECT
  5
58C
330
0
100
AcDbProxyObject
 90
      499
 91
      574
 93
      698
310
0001000000009AA6A9AA4051E4D6F6E204F63742031332030303A33373A353920323030382028555443290141CD8B8D0B8C0B8C405184D6F6E204F63742031332030393A34313A333120323030380141CD8B8D0B8C0B8C4A
330
506
330
58D
330
58E
330
590
330
0
 94
        0
1001
ACAD
1000
AcadProxyRoundTripData
1071
      548
1071
   851991
1070
     0
  0
ACAD_PROXY_OBJECT
  5
58D
330
0
100
AcDbProxyObject
 90
      499
 91
      574
 93
       70
310
0001AAA80820000000
330
506
330
58D
330
58D
 94
        0
1001
ACAD
1000
AcadProxyRoundTripData
1071
      549
1071
   851991
1070
     0
  0
ACAD_PROXY_OBJECT
  5
58E
330
0
100
AcDbProxyObject
 90
      499
 91
      574
 93
       48
310
00010000000011
330
506
330
0
330
58F
330
0
330
0
 94
        0
1001
ACAD
1000
AcadProxyRoundTripData
1071
      550
1071
   851991
1070
     0
  0
ACAD_PROXY_OBJECT
  5
58F
330
0
100
AcDbProxyObject
 90
      499
 91
      574
 93
       40
310
000100AAAA02
330
506
330
0
 94
        0
1001
ACAD
1000
AcadProxyRoundTripData
1071
      551
1071
   851991
1070
     0
  0
ACAD_PROXY_OBJECT
  5
591
330
0
100
AcDbProxyObject
 90
      499
 91
      574
 93
      124
310
00010142905350D3D39114D414D69051
330
506
 94
        0
1001
ACAD
1000
AcadProxyRoundTripData
1071
      518
1071
   851991
1070
     0
  0
ACAD_PROXY_OBJECT
  5
592
330
0
100
AcDbProxyObject
 90
      499
 91
      574
 93
      124
310
000101429053549553115353D1115011
330
506
 94
        0
1001
ACAD
1000
AcadProxyRoundTripData
1071
      518
1071
   851991
1070
     0
  0
ACAD_PROXY_OBJECT
  5
593
330
0
100
AcDbProxyObject
 90
      499
 91
      574
 93
      108
310
00010142105354D2D353D1115013
330
506
 94
        0
1001
ACAD
1000
AcadProxyRoundTripData
1071
      518
1071
   851991
1070
     0
  0
ACAD_PROXY_OBJECT
  5
594
330
0
100
AcDbProxyObject
 90
      499
 91
      574
 93
      140
310
000101435053511253511254D41353D11160
330
506
 94
        0
1001
ACAD
1000
AcadProxyRoundTripData
1071
      518
1071
   851991
1070
     0
  0
ACAD_PROXY_OBJECT
  5
595
330
0
100
AcDbProxyObject
 90
      499
 91
      574
 93
      180
310
00010142905354D2D05391D513D300000000000001040C
330
506
 94
        0
1001
ACAD
1000
AcadProxyRoundTripData
1071
      517
1071
   851991
1070
     0
  0
ACAD_PROXY_OBJECT
  5
596
330
0
100
AcDbProxyObject
 90
      499
 91
      574
 93
      164
310
00010142505354D2D4D516531140505434F4E542AB
330
506
 94
        0
1001
ACAD
1000
AcadProxyRoundTripData
1071
      539
1071
   851991
1070
     0
  0
ACAD_PROXY_OBJECT
  5
597
330
0
100
AcDbProxyObject
 90
      499
 91
      574
 93
      108
310
00010142105350D3511112535016
330
506
 94
        0
1001
ACAD
1000
AcadProxyRoundTripData
1071
      518
1071
   851991
1070
     0
  0
ACAD_PROXY_OBJECT
  5
598
330
0
100
AcDbProxyObject
 90
      499
 91
      574
 93
      108
310
00010142105350D3D35414D59016
330
506
 94
        0
1001
ACAD
1000
AcadProxyRoundTripData
1071
      518
1071
   851991
1070
     0
  0
ACAD_PROXY_OBJECT
  5
599
330
0
100
AcDbProxyObject
 90
      499
 91
      574
 93
      164
310
0001014290535410549514D4119600504CADFB0C2B
330
506
 94
        0
1001
ACAD
1000
AcadProxyRoundTripData
1071
      539
1071
   851991
1070
     0
  0
ACAD_PROXY_OBJECT
  5
59A
330
0
100
AcDbProxyObject
 90
      499
 91
      574
 93
      220
310
0001014350535513D3D31093D11654119600508C2B0D9CEDEC3DEA83
330
506
 94
        0
1001
ACAD
1000
AcadProxyRoundTripData
1071
      539
1071
   851991
1070
     0
  0
ACAD_PROXY_OBJECT
  5
59B
330
0
100
AcDbProxyObject
 90
      499
 91
      574
 93
      116
310
000101425053511254D410D3D39011
330
506
 94
        0
1001
ACAD
1000
AcadProxyRoundTripData
1071
      518
1071
   851991
1070
     0
  0
ACAD_PROXY_OBJECT
  5
59C
330
0
100
AcDbProxyObject
 90
      499
 91
      574
 93
      108
310
00010142105350D3D39114D41016
330
506
 94
        0
1001
ACAD
1000
AcadProxyRoundTripData
1071
      518
1071
   851991
1070
     0
  0
ACAD_PROXY_OBJECT
  5
59D
330
0
100
AcDbProxyObject
 90
      499
 91
      574
 93
      124
310
0001014290535490511114D414D69190
330
506
 94
        0
1001
ACAD
1000
AcadProxyRoundTripData
1071
      518
1071
   851991
1070
     0
  0
ACAD_PROXY_OBJECT
  5
5A3
330
0
100
AcDbProxyObject
 90
      499
 91
      574
 93
      132
310
00010142D05050555513D4D3D315915013
330
506
 94
        0
1001
ACAD
1000
AcadProxyRoundTripData
1071
      518
1071
   851991
1070
     0
  0
ACAD_PROXY_OBJECT
  5
5A4
330
0
100
AcDbProxyObject
 90
      499
 91
      574
 93
      156
310
00010143905050555513D054D4D1535093115015
330
506
 94
        0
1001
ACAD
1000
AcadProxyRoundTripData
1071
      518
1071
   851991
1070
     0
  0
ACAD_PROXY_OBJECT
  5
5A5
330
0
100
AcDbProxyObject
 90
      499
 91
      574
 93
      148
310
00010143505055925155D49154D513D4915015
330
506
 94
        0
1001
ACAD
1000
AcadProxyRoundTripData
1071
      518
1071
   851991
1070
     0
  0
ACAD_PROXY_OBJECT
  5
5A6
330
0
100
AcDbProxyObject
 90
      499
 91
      574
 93
      124
310
00010142D050525394D15495105094E5
330
506
 94
        0
1001
ACAD
1000
AcadProxyRoundTripData
1071
      518
1071
   851991
1070
     0
  0
ACAD_PROXY_OBJECT
  5
5A7
330
0
100
AcDbProxyObject
 90
      499
 91
      574
 93
      148
310
00010143505054D0D153915554111055115015
330
506
 94
        0
1001
ACAD
1000
AcadProxyRoundTripData
1071
      518
1071
   851991
1070
     0
  0
ACAD_PROXY_OBJECT
  5
5A8
330
0
100
AcDbProxyObject
 90
      499
 91
      574
 93
      172
310
00010143105054D5509054D4D3541196005035355425
330
506
 94
        0
1001
ACAD
1000
AcadProxyRoundTripData
1071
      539
1071
   851991
1070
     0
  0
ACAD_PROXY_OBJECT
  5
5A9
330
0
100
AcDbProxyObject
 90
      499
 91
      574
 93
      172
310
00010142905054D0D15391541196005055343454E455
330
506
 94
        0
1001
ACAD
1000
AcadProxyRoundTripData
1071
      539
1071
   851991
1070
     0
  0
ACAD_PROXY_OBJECT
  5
5AA
330
0
100
AcDbProxyObject
 90
      499
 91
      574
 93
      148
310
00010143505350555513D313D0D2D4D0D39016
330
506
 94
        0
1001
ACAD
1000
AcadProxyRoundTripData
1071
      518
1071
   851991
1070
     0
  0
ACAD_PROXY_OBJECT
  5
5AF
330
0
100
AcDbProxyObject
 90
      499
 91
      574
 93
       32
310
000100004D
330
506
340
5AC
330
5B1
330
5AC
 94
        0
1001
ACAD
1000
AcadProxyRoundTripData
1071
      557
1071
   851991
1070
     0
  0
ACAD_PROXY_OBJECT
  5
5B0
330
0
100
AcDbProxyObject
 90
      499
 91
      574
 93
       18
310
000198
330
506
 94
        0
1001
ACAD
1000
AcadProxyRoundTripData
1071
      558
1071
   851991
1070
     0
  0
ACAD_PROXY_OBJECT
  5
5B1
330
0
100
AcDbProxyObject
 90
      499
 91
      574
 93
      111
310
0001014150D5930C0D5050055400
330
506
330
5AF
330
5B0
 94
        0
1001
ACAD
1000
AcadProxyRoundTripData
1071
      559
1071
   851991
1070
     0
  0
ACAD_PROXY_OBJECT
  5
5B2
330
0
100
AcDbProxyObject
 90
      499
 91
      574
 93
       40
310
000100AAAA00
330
506
330
5B1
 94
        0
1001
ACAD
1000
AcadProxyRoundTripData
1071
      560
1071
   851991
1070
     0
  0
ACAD_PROXY_OBJECT
  5
5B3
330
0
100
AcDbProxyObject
 90
      499
 91
      574
 93
      108
310
0001901422000000000000AAAAA0
330
506
330
5B4
330
5B4
330
5B4
330
5B4
330
5B4
330
0
 94
        0
1001
ACAD
1000
AcadProxyRoundTripData
1071
      561
1071
   851991
1070
     0
  0
ACAD_PROXY_OBJECT
  5
5B4
330
0
100
AcDbProxyObject
 90
      499
 91
      574
 93
       51
310
00010000AAAA84
330
506
330
5B3
330
5B1
 94
        0
1001
ACAD
1000
AcadProxyRoundTripData
1071
      562
1071
   851991
1070
     0
  0
ACAD_PROXY_OBJECT
  5
5C5
330
0
100
AcDbProxyObject
 90
      499
 91
      574
 93
      140
310
00010142105350D55494D5110050349534F8
330
506
 94
        0
1001
ACAD
1000
AcadProxyRoundTripData
1071
      539
1071
   851991
1070
     0
  0
DICTIONARY
  5
4FE
102
{ACAD_REACTORS
330
4FD
102
}
330
4FD
100
AcDbDictionary
  3
DWGSETTINGS
350
4FF
1001
ACAD
1000
TREAT_AS_HARD
1070
     0
1000
TREAT_AS_HARD
1070
     0
1000
TREAT_AS_HARD
1070
     0
  0
ACAD_PROXY_OBJECT
  5
5C3
102
{ACAD_REACTORS
330
4FD
102
}
330
4FD
100
AcDbProxyObject
 90
      499
 91
      574
 93
    12938
310
41102491013041105357CC1074CA404C504414D5F31439329013241105357CC9054CA404CD04414D5F33419199013441105357CD103466404D504414D5F3540D199013641105357CD90248E404DD04414D5F37411199013841105357CE101466404E504414D5F397F641102324141505357CC4C1074CA408D10505414D5F31
310
3140D19902495041505357CC4C9074C902408C13905414D5F304E41D32902314E41505357CC5390E4CA408C93905414D5F324E41532902334E41505357CCD3906466408D13905414D5F344E40D19902354E41505357CD53903466408D93905414D5F364E40923902374E41505357CDD3904466408E13905414D5F384E40519
310
902394E41505357CE539FD90440CC9053906414D5F31304E41D3290334414E41905357CC4C5390346640D25413906414D5F31324E41D32409044B4C494E41505357D0D3101465094112539193D08414D5F50415245464111942D055241484D3541905357D093D49074C9094115925155D08414D5F56494557534051942D064
310
24548494E4441905357D253959FD90D415514905253105414D5F545240D194250348494441905357D212511074650940D59254D06414D5F56495341D324250650415244494D42505357D410549112535034650941949151911253509414D5F52454644494D4111942553411092139590139CFFFFFFFF415092139594D06424
310
548494E44CFFFFFFFF411093D48C9055241484D3540519411093D48CD055241484D3540923411093D48D5055241484D35CFFFFFFFF4110D0530C90134CFFFFFFFF4110D0530CD0134409234110D0530D5013441D324110D0530DD0134479464110D1539390137CFFFFFFFF4110D15395D0137CFFFFFFFF4110D312539044B4
310
C494ECFFFFFFFF4110D3D38C50130CFFFFFFFF4110D3D38C90131CFFFFFFFF4110D3D38CD0132CFFFFFFFF4110D3D38D10132CFFFFFFFF411111551050134CFFFFFFFF4111125051D0135CFFFFFFFF411112531250135CFFFFFFFF411112535410650415244494DCFFFFFFFF411112535490652454644494DCFFFFFFFF4111
310
91535390138CFFFFFFFF4151915354139013840CFFFFFFFF4151915354D41023441CFFFFFFFF4151915354D5102344140D1941519153559390132CFFFFFFFF4151915355951013240D194112105510D0138CFFFFFFFF411212511390133CFFFFFFFF4112125115D0133CFFFFFFFF411213125390134CFFFFFFFF411213D0D3
310
90137CFFFFFFFF411213D0D5D0137CFFFFFFFF4112539193D04494E464FCFFFFFFFF411311505110135CFFFFFFFF419397D0921395902394ECFFFFFFFF419397D0D3D38C502304ECFFFFFFFF419397D0D3D38C902314ECFFFFFFFF419397D0D3D38CD02324ECFFFFFFFF419397D0D3D38D102324ECFFFFFFFF419397D0D153
310
93902374ECFFFFFFFF419397D0D15395D02374ECFFFFFFFF419397D1125312502354ECFFFFFFFF419397D2105510D02384ECFFFFFFFF419397D2125113902334ECFFFFFFFF419397D2125115D02334ECFFFFFFFF419397D3115051102354ECFFFFFFFF419397D391D25410349504ECFFFFFFFF419397D412105390334414EC
310
FFFFFFFF419397D510D3D3902304ECFFFFFFFF419397D5121312502344ECFFFFFFFF419397D5131153902304ECFFFFFFFF419397D594131250332414ECFFFFFFFF411391D2541024950CFFFFFFFF411410530C9055241484D3540519411410530CD055241484D3540923411410530D5055241484D35CFFFFFFFF4114121053
310
9023441CFFFFFFFF411413D4D390135CFFFFFFFF411490D1D390137CFFFFFFFF411490D1D5D0137CFFFFFFFF4114D09492D0134CFFFFFFFF4114D150D510134CFFFFFFFF4114D6508CD013540923411354D6535013540923411510D3D390130CFFFFFFFF411512131250134CFFFFFFFF411512550C9055241484D354051941
310
1512550CD055241484D3540923411512550D5055241484D35CFFFFFFFF411513115390130CFFFFFFFF415514905253105545241494CCFFFFFFFF411514931250134CFFFFFFFF411516150C5013640D19411516150C9013640D19411516150CD0136CFFFFFFFF411516150D5013641D32411516150DD0136479464115925155
310
D0456494557CFFFFFFFF4115915112103484944CFFFFFFFF4115915115903564953CFFFFFFFF41159413125023241CFFFFFFFF411692569050134CFFFFFFFFAA9FD404FE4290E4C9074C906465054C904465034650248D014651E519FD91
340
16
340
16
340
16
340
5C6
340
16
340
16
340
16
340
5C7
340
16
340
16
340
5C7
340
5C8
340
16
340
16
340
16
340
16
340
5C6
340
16
340
16
340
16
340
5C7
340
16
340
16
340
5C7
340
5C8
340
16
340
5C9
340
16
340
16
340
16
340
16
340
16
340
5C6
340
16
340
16
340
16
340
15
340
15
340
15
340
15
340
15
340
15
340
15
340
15
340
15
340
5CA
340
15
340
15
340
15
340
15
340
15
340
15
340
15
340
15
340
15
340
15
340
15
340
15
340
15
340
16
340
15
340
15
340
15
340
15
340
5CB
340
15
340
15
340
5CA
340
15
340
15
340
15
340
15
340
15
340
15
340
15
340
15
340
5CA
340
15
340
15
340
15
340
5CB
340
15
340
15
340
15
340
15
340
15
340
15
340
15
340
15
340
15
340
15
340
15
340
15
340
15
340
15
340
5CA
340
15
340
15
340
15
340
15
340
15
340
15
340
15
340
15
340
15
340
15
340
15
340
15
340
15
340
15
340
15
340
15
340
15
340
15
340
15
340
15
340
15
340
15
340
5CE
 94
        0
1001
ACAD
1000
AcadProxyRoundTripData
1071
      570
1071
   851991
1070
     0
  0
ACAD_PROXY_OBJECT
  5
5D5
102
{ACAD_REACTORS
330
5D0
102
}
330
5D0
100
AcDbProxyObject
 90
      499
 91
      574
 93
      253
310
43D1444494D454E53494F4E2C414D44545F2A5F44494D404A9012A404A9012A8
 94
        0
1001
ACAD
1000
AcadProxyRoundTripData
1071
      571
1071
   851991
1070
     0
  0
ACAD_PROXY_OBJECT
  5
5D4
102
{ACAD_REACTORS
330
5D0
102
}
330
5D0
100
AcDbProxyObject
 90
      499
 91
      574
 93
      181
310
43D012A42D05357D191504B505357CA9012A404A9012AC
 94
        0
1001
ACAD
1000
AcadProxyRoundTripData
1071
      571
1071
   851991
1070
     0
  0
ACAD_PROXY_OBJECT
  5
5D1
102
{ACAD_REACTORS
330
5D0
102
}
330
5D0
100
AcDbProxyObject
 90
      499
 91
      574
 93
      133
310
43D054841544348404A9012A404A9012A8
 94
        0
1001
ACAD
1000
AcadProxyRoundTripData
1071
      571
1071
   851991
1070
     0
  0
ACAD_PROXY_OBJECT
  5
5D2
102
{ACAD_REACTORS
330
5D0
102
}
330
5D0
100
AcDbProxyObject
 90
      499
 91
      574
 93
      549
310
43D044C494E4549CE0B0E138B0A8B4E0B0A8B4E138B105357CE0B105357CE138B0A8B505357CE0B0A8B505357CE139012A404A910494E534552542C535444504152543244C
 94
        0
1001
ACAD
1000
AcadProxyRoundTripData
1071
      571
1071
   851991
1070
     0
  0
ACAD_PROXY_OBJECT
  5
5D6
102
{ACAD_REACTORS
330
5D0
102
}
330
5D0
100
AcDbProxyObject
 90
      499
 91
      574
 93
      181
310
43D0341524341105357CD5012A404C906494E534552540
 94
        0
1001
ACAD
1000
AcadProxyRoundTripData
1071
      571
1071
   851991
1070
     0
  0
ACAD_PROXY_OBJECT
  5
5D3
102
{ACAD_REACTORS
330
5D0
102
}
330
5D0
100
AcDbProxyObject
 90
      499
 91
      574
 93
     1053
310
43D7841434D46434652414D452C41434D444154554D5441524745542C41434D444154554D49442C41434D57454C4453594D2C41434D5355524653594D2C41434D4645415449442C41434D504152545245462C41434D42414C4C4F4F4E2C414D44544544474553594D2C414D47534352455743414C435441424C45404A9012A
310
404A9012AA
 94
        0
1001
ACAD
1000
AcadProxyRoundTripData
1071
      571
1071
   851991
1070
     0
  0
ACAD_PROXY_OBJECT
  5
5B8
102
{ACAD_REACTORS
330
5B7
102
}
330
5B7
100
AcDbProxyObject
 90
      499
 91
      574
 93
      187
310
057356C1D5C406406AA8FFFFFFFF0AE50543564C30354051
330
1F
330
0
330
5B1
 94
        0
1001
ACAD
1000
AcadProxyRoundTripData
1071
      564
1071
   851991
1070
     0
  0
ACAD_PROXY_OBJECT
  5
4FF
102
{ACAD_REACTORS
330
4FE
102
}
330
4FE
100
AcDbProxyObject
 90
      499
 91
      574
 93
     2270
310
4050B44574753455454494E4753A1286829C8E82A4A482B282A106660F8686AF86C608321A2A720A723A0A849A1ABE1C983E18999AA0C868A9C889282940000000000000488083A1A2A72224A0A9A0A8418983E19183E199820E868A9C8892A6A894000000000000010808321A2A72622A7250000000000000122020C868A9
310
C9E8C8C940000000000000488084A1A624A720A92920ACA0A8418983E19183E19982108698929C8AA8B2A082A0AB098929C8A84A22BA3AAA9A1A0A622A50A0E9882A6A89E849482A02608426A0A5A2AB24A2ABA7E8120CA0A68682988A0C00800010652455649534941501304154D0D0531150540CC4E8C50954494D455354
310
414D504A03D0A805197267341441ED115D1D4D15515125391D4D153911F5
 94
        0
1001
ACAD
1000
AcadProxyRoundTripData
1071
      512
1071
   851991
1070
     0
  0
ENDSEC
  0
EOF
