  0
SECTION
  2
HEADER
  9
$ACADVER
  1
AC1014
  9
$ACADMAINTVER
 70
     9
  9
$DWGCODEPAGE
  3
ANSI_932
  9
$INSBASE
 10
0.0
 20
0.0
 30
0.0
  9
$EXTMIN
 10
-0.0176871329605319
 20
-11.56540813711228
 30
-0.000000000000013
  9
$EXTMAX
 10
482.2479240906753
 20
201.7025936219581
 30
0.0000000000000023
  9
$LIMMIN
 10
0.0
 20
0.0
  9
$LIMMAX
 10
493.7602156270002
 20
285.8525783117435
  9
$ORTHOMODE
 70
     0
  9
$REGENMODE
 70
     1
  9
$FILLMODE
 70
     1
  9
$QTEXTMODE
 70
     0
  9
$MIRRTEXT
 70
     1
  9
$DRAGMODE
 70
     2
  9
$LTSCALE
 40
1.0
  9
$OSMODE
 70
  3071
  9
$ATTMODE
 70
     1
  9
$TEXTSIZE
 40
2.5
  9
$TRACEWID
 40
1.0
  9
$TEXTSTYLE
  7
STANDARD
  9
$CLAYER
  8
0
  9
$CELTYPE
  6
BYLAYER
  9
$CECOLOR
 62
   256
  9
$CELTSCALE
 40
1.0
  9
$DELOBJ
 70
     1
  9
$DISPSILH
 70
     0
  9
$DIMSCALE
 40
1.0
  9
$DIMASZ
 40
2.5
  9
$DIMEXO
 40
0.625
  9
$DIMDLI
 40
3.75
  9
$DIMRND
 40
0.0
  9
$DIMDLE
 40
0.0
  9
$DIMEXE
 40
1.25
  9
$DIMTP
 40
0.0
  9
$DIMTM
 40
0.0
  9
$DIMTXT
 40
2.5
  9
$DIMCEN
 40
2.5
  9
$DIMTSZ
 40
0.0
  9
$DIMTOL
 70
     0
  9
$DIMLIM
 70
     0
  9
$DIMTIH
 70
     0
  9
$DIMTOH
 70
     0
  9
$DIMSE1
 70
     0
  9
$DIMSE2
 70
     0
  9
$DIMTAD
 70
     1
  9
$DIMZIN
 70
     8
  9
$DIMBLK
  1

  9
$DIMASO
 70
     1
  9
$DIMSHO
 70
     1
  9
$DIMPOST
  1

  9
$DIMAPOST
  1

  9
$DIMALT
 70
     0
  9
$DIMALTD
 70
     3
  9
$DIMALTF
 40
0.03937007874016
  9
$DIMLFAC
 40
1.0
  9
$DIMTOFL
 70
     1
  9
$DIMTVP
 40
0.0
  9
$DIMTIX
 70
     0
  9
$DIMSOXD
 70
     0
  9
$DIMSAH
 70
     0
  9
$DIMBLK1
  1

  9
$DIMBLK2
  1

  9
$DIMSTYLE
  2
ISO-25
  9
$DIMCLRD
 70
     0
  9
$DIMCLRE
 70
     0
  9
$DIMCLRT
 70
     0
  9
$DIMTFAC
 40
1.0
  9
$DIMGAP
 40
0.625
  9
$DIMJUST
 70
     0
  9
$DIMSD1
 70
     0
  9
$DIMSD2
 70
     0
  9
$DIMTOLJ
 70
     0
  9
$DIMTZIN
 70
     8
  9
$DIMALTZ
 70
     0
  9
$DIMALTTZ
 70
     0
  9
$DIMFIT
 70
     3
  9
$DIMUPT
 70
     0
  9
$DIMUNIT
 70
     2
  9
$DIMDEC
 70
     2
  9
$DIMTDEC
 70
     2
  9
$DIMALTU
 70
     2
  9
$DIMALTTD
 70
     3
  9
$DIMTXSTY
  7
STANDARD
  9
$DIMAUNIT
 70
     0
  9
$LUNITS
 70
     2
  9
$LUPREC
 70
     2
  9
$SKETCHINC
 40
1.0
  9
$FILLETRAD
 40
10.0
  9
$AUNITS
 70
     0
  9
$AUPREC
 70
     0
  9
$MENU
  1
.
  9
$ELEVATION
 40
0.0
  9
$PELEVATION
 40
0.0
  9
$THICKNESS
 40
0.0
  9
$LIMCHECK
 70
     0
  9
$BLIPMODE
 70
     0
  9
$CHAMFERA
 40
10.0
  9
$CHAMFERB
 40
10.0
  9
$CHAMFERC
 40
20.0
  9
$CHAMFERD
 40
0.0
  9
$SKPOLY
 70
     0
  9
$TDCREATE
 40
2454596.550355717
  9
$TDUPDATE
 40
2454757.536701388
  9
$TDINDWG
 40
0.0760789236
  9
$TDUSRTIMER
 40
0.0760787384
  9
$USRTIMER
 70
     1
  9
$ANGBASE
 50
0.0
  9
$ANGDIR
 70
     0
  9
$PDMODE
 70
     0
  9
$PDSIZE
 40
0.0
  9
$PLINEWID
 40
0.0
  9
$COORDS
 70
     0
  9
$SPLFRAME
 70
     0
  9
$SPLINETYPE
 70
     6
  9
$SPLINESEGS
 70
     8
  9
$ATTDIA
 70
     0
  9
$ATTREQ
 70
     1
  9
$HANDLING
 70
 22529
  9
$HANDSEED
  5
C4B
  9
$SURFTAB1
 70
     6
  9
$SURFTAB2
 70
     6
  9
$SURFTYPE
 70
     6
  9
$SURFU
 70
     6
  9
$SURFV
 70
     6
  9
$UCSNAME
  2

  9
$UCSORG
 10
0.0
 20
0.0
 30
0.0
  9
$UCSXDIR
 10
1.0
 20
0.0
 30
0.0
  9
$UCSYDIR
 10
0.0
 20
1.0
 30
0.0
  9
$PUCSNAME
  2

  9
$PUCSORG
 10
0.0
 20
0.0
 30
0.0
  9
$PUCSXDIR
 10
1.0
 20
0.0
 30
0.0
  9
$PUCSYDIR
 10
0.0
 20
1.0
 30
0.0
  9
$USERI1
 70
     0
  9
$USERI2
 70
     0
  9
$USERI3
 70
     0
  9
$USERI4
 70
     0
  9
$USERI5
 70
     0
  9
$USERR1
 40
0.0
  9
$USERR2
 40
0.0
  9
$USERR3
 40
0.0
  9
$USERR4
 40
0.0
  9
$USERR5
 40
0.0
  9
$WORLDVIEW
 70
     1
  9
$SHADEDGE
 70
     3
  9
$SHADEDIF
 70
    70
  9
$TILEMODE
 70
     1
  9
$MAXACTVP
 70
    48
  9
$PINSBASE
 10
0.0
 20
0.0
 30
0.0
  9
$PLIMCHECK
 70
     0
  9
$PEXTMIN
 10
28.5263154029846
 20
19.82258291244505
 30
0.0
  9
$PEXTMAX
 10
256.7368386268614
 20
178.4032462120055
 30
0.0
  9
$PLIMMIN
 10
-5.873748779296875
 20
-5.873749732971191
  9
$PLIMMAX
 10
291.1369018554686
 20
204.0995779037474
  9
$UNITMODE
 70
     0
  9
$VISRETAIN
 70
     1
  9
$PLINEGEN
 70
     0
  9
$PSLTSCALE
 70
     1
  9
$TREEDEPTH
 70
  3020
  9
$PICKSTYLE
 70
     1
  9
$CMLSTYLE
  2
STANDARD
  9
$CMLJUST
 70
     0
  9
$CMLSCALE
 40
20.0
  9
$PROXYGRAPHICS
 70
     1
  9
$MEASUREMENT
 70
     1
  0
ENDSEC
  0
SECTION
  2
CLASSES
  0
CLASS
  1
ACDBDICTIONARYWDFLT
  2
AcDbDictionaryWithDefault
  3
AutoCAD 2000
 90
        0
280
     0
281
     0
  0
CLASS
  1
ACDBPLACEHOLDER
  2
AcDbPlaceHolder
  3
AutoCAD 2000
 90
        0
280
     0
281
     0
  0
CLASS
  1
LAYOUT
  2
AcDbLayout
  3
AutoCAD 2000
 90
        0
280
     0
281
     0
  0
CLASS
  1
DICTIONARYVAR
  2
AcDbDictionaryVar
  3
AutoCAD 2000
 90
        0
280
     0
281
     0
  0
CLASS
  1
LONG_TRANSACTION
  2
AcDbLongTransaction
  3
AutoCAD 2000
 90
        0
280
     0
281
     0
  0
CLASS
  1
LWPOLYLINE
  2
AcDbPolyline
  3
AutoCAD 2000
 90
        0
280
     0
281
     1
  0
CLASS
  1
HATCH
  2
AcDbHatch
  3
AutoCAD 2000
 90
        0
280
     0
281
     1
  0
CLASS
  1
XRECORD
  2
AcDbXrecord
  3
AutoCAD 2000
 90
        0
280
     0
281
     0
  0
CLASS
  1
LONG_TRANSACTION
  2
AcDbLongTransaction
  3
AutoCAD 2000
 90
        0
280
     0
281
     0
  0
CLASS
  1
LWPOLYLINE
  2
AcDbPolyline
  3
AutoCAD 2000
 90
        0
280
     0
281
     1
  0
CLASS
  1
HATCH
  2
AcDbHatch
  3
AutoCAD 2000
 90
        0
280
     0
281
     1
  0
CLASS
  1
XRECORD
  2
AcDbXrecord
  3
AutoCAD 2000
 90
        0
280
     0
281
     0
  0
CLASS
  1
AMGSETTINGSOBJ
  2
AmgSettingsObj
  3
"AcadM|Product Description: AutoCAD Mechanical 2000|Company: Autodesk"
 90
        0
280
     0
281
     0
  0
CLASS
  1
ACME_DOCUMENT
  2
AcMeDbDoc
  3
AcMeServices
 90
        0
280
     0
281
     0
  0
CLASS
  1
ACMESCOPE
  2
AcMeScope
  3
AcMeServices
 90
        0
280
     0
281
     0
  0
CLASS
  1
ACMECOMMANDHISTORY
  2
AcMeCommandHistory
  3
AcMeServices
 90
        0
280
     0
281
     0
  0
CLASS
  1
ACIMSYSVARMAN
  2
AcImSysVarManager
  3
AcMeServices
 90
        0
280
     0
281
     0
  0
CLASS
  1
ACIMREALSYSVAR
  2
AcImRealSysVar
  3
AcMeServices
 90
        0
280
     0
281
     0
  0
CLASS
  1
ACIMINTSYSVAR
  2
AcImIntSysVar
  3
AcMeServices
 90
        0
280
     0
281
     0
  0
CLASS
  1
ACMEDRAWINGMAN
  2
AcMeDrawingMan
  3
AcMeServices
 90
        0
280
     0
281
     0
  0
CLASS
  1
ACMEVIEW
  2
AcMeView
  3
AcMeServices
 90
        0
280
     0
281
     0
  0
CLASS
  1
ACDBENTITYCACHE
  2
AcMeEntityCache
  3
AcMeServices
 90
        0
280
     0
281
     0
  0
CLASS
  1
GSMANAGER
  2
AcMeGSManager
  3
AcMeServices
 90
        0
280
     0
281
     0
  0
CLASS
  1
AMDTINTERNALREACTOR
  2
AmdtInternalReactor
  3
AcMeServices
 90
        0
280
     0
281
     0
  0
CLASS
  1
ACMESTATEMGR
  2
AcMeStateMgr
  3
AcMeServices
 90
        0
280
     0
281
     0
  0
CLASS
  1
ACGREFMASTER
  2
AcGrefMaster
  3
AcAttribServices
 90
        0
280
     0
281
     0
  0
CLASS
  1
AM_DRAWING_MGR
  2
AcDmDwgMgr
  3
AcMechDwgViewMgmt
 90
        0
280
     0
281
     0
  0
CLASS
  1
AM_DWG_DOCUMENT
  2
AcDmDwgDocument
  3
AcMechDwgViewMgmt
 90
        0
280
     0
281
     0
  0
CLASS
  1
AM_DWG_SHEET
  2
AcDmSheet
  3
AcMechDwgViewMgmt
 90
        0
280
     0
281
     0
  0
CLASS
  1
AM_VIEWDIMPARMAP
  2
AcDmViewDimParMap
  3
AcMechDwgViewMgmt
 90
        0
280
     0
281
     0
  0
CLASS
  1
AM_DWGMGR_NAME
  2
AcDmDwgMgrName
  3
AcMechDwgViewMgmt
 90
        0
280
     0
281
     0
  0
CLASS
  1
ACME_DATABASE
  2
AcMeDbDatabase
  3
AcMeServices
 90
        0
280
     0
281
     0
  0
CLASS
  1
ACRFINSADJUSTERMGR
  2
AcRfInsAdjusterMgr
  3
AcMeServices
 90
        0
280
     0
281
     0
  0
CLASS
  1
ACGREFACADMASTER
  2
AcGrefacadMaster
  3
AcGrefServices
 90
        0
280
     0
281
     0
  0
CLASS
  1
AMDTMENUSTATEMGR
  2
AmdtMenuStateMgr
  3
McadcomServices
 90
        0
280
     0
281
     0
  0
CLASS
  1
AMDTMCOMMENUSTATE
  2
AmdtMcomMenuState
  3
McadcomServices
 90
        0
280
     0
281
     0
  0
CLASS
  1
AMIMASTER
  2
AmiMaster
  3
AmiServices
 90
        0
280
     0
281
     0
  0
CLASS
  1
ASAPP
  2
AcAsAppObject
  3
AutoSurfServices
 90
        0
280
     0
281
     0
  0
CLASS
  1
IM_STATIC_MAN
  2
AcImStaticVarManager
  3
AcMeServices
 90
        0
280
     0
281
     0
  0
CLASS
  1
ACIMSTRSYSVAR
  2
AcImStrSysVar
  3
AcMeServices
 90
        0
280
     0
281
     0
  0
CLASS
  1
ACIMDBLSTATICVAR
  2
AcImDblStaticVar
  3
AcMeServices
 90
        0
280
     0
281
     0
  0
CLASS
  1
ACIMSTRSTATICVAR
  2
AcImStrStaticVar
  3
AcMeServices
 90
        0
280
     0
281
     0
  0
CLASS
  1
ACIMINTSTATICVAR
  2
AcImIntStaticVar
  3
AcMeServices
 90
        0
280
     0
281
     0
  0
CLASS
  1
ACASGREFMASTER
  2
AcAsGrefMaster
  3
AutoSurfResolverServices
 90
        0
280
     0
281
     0
  0
CLASS
  1
ACADGREFMODULE
  2
AcAdGrefModule
  3
AdGrefServices
 90
        0
280
     0
281
     0
  0
CLASS
  1
AMDTMAPISURFMOUDULE
  2
AmdtMApiSurfModule
  3
MApiSurfServices
 90
        0
280
     0
281
     0
  0
CLASS
  1
MAPIAMMOUDLE
  2
MApiAmModule
  3
MApiAmServices
 90
        0
280
     0
281
     0
  0
CLASS
  1
AMDTADMENUSTATE
  2
AmdtAdMenuState
  3
DesignerServices
 90
        0
280
     0
281
     0
  0
CLASS
  1
ADAPPL
  2
AcAdAppl
  3
DesignerServices
 90
        0
280
     0
281
     0
  0
CLASS
  1
DEPMGR
  2
AcAdDepMgr
  3
DesignerServices
 90
        0
280
     0
281
     0
  0
CLASS
  1
PARAMMGR
  2
AcAdParamMgr
  3
DesignerServices
 90
        0
280
     0
281
     0
  0
CLASS
  1
PARAMSCOPE
  2
AcAdParamScope
  3
DesignerServices
 90
        0
280
     0
281
     0
  0
CLASS
  1
NAMEDAPPL
  2
AcAdNamedAppl
  3
DesignerServices
 90
        0
280
     0
281
     0
  0
CLASS
  1
AMDTDMMENUSTATE
  2
AmdtDmMenuState
  3
AcMechDwgViewMgmt
 90
        0
280
     0
281
     0
  0
CLASS
  1
MAPIADMODULE
  2
MApiAdModule
  3
MApiAdServices
 90
        0
280
     0
281
     0
  0
CLASS
  1
AMDTAMMENUSTATE
  2
AmdtAmMenuState
  3
DesignerAssemblies
 90
        0
280
     0
281
     0
  0
CLASS
  1
ACAMPROJECT
  2
AcAmProject
  3
DesignerAssemblies
 90
        0
280
     0
281
     0
  0
CLASS
  1
ACAMGRCOMPDEF
  2
AcAmGrCompDef
  3
DesignerAssemblies
 90
        0
280
     0
281
     0
  0
CLASS
  1
ACCMCONTEXT
  2
AcCmContext
  3
DesignerAssemblies
 90
        0
280
     0
281
     0
  0
CLASS
  1
ACAMCOMPDEF
  2
AcAmCompDef
  3
DesignerAssemblies
 90
        0
280
     0
281
     0
  0
CLASS
  1
ACAMCOMPDEFMGR
  2
AcAmCompDefMgr
  3
DesignerAssemblies
 90
        0
280
     0
281
     0
  0
CLASS
  1
AMCONTEXTMGR
  2
AcAmContextMgr
  3
DesignerAssemblies
 90
        0
280
     0
281
     0
  0
CLASS
  1
ACAMCONTEXTMODELER
  2
AcAmContextModeler
  3
DesignerAssemblies
 90
        0
280
     0
281
     0
  0
CLASS
  1
ACMDATADICTIONARY
  2
AcmDataDictionary
  3
"AcmSymBB|Product Description: AutoCAD Mechanical 2000|Company: Autodesk"
 90
        0
280
     0
281
     0
  0
CLASS
  1
ACMDATAENTRYBLOCK
  2
AcmDataEntryBlock
  3
"AcmSymBB|Product Description: AutoCAD Mechanical 2000|Company: Autodesk"
 90
        0
280
     0
281
     0
  0
CLASS
  1
CATALOGSTATE
  2
AcAmCatalogState
  3
DesignerAssemblies
 90
        0
280
     0
281
     0
  0
CLASS
  1
ACAMGRCOMPDEFSET
  2
AcAmGrCompDefSet
  3
DesignerAssemblies
 90
        0
280
     0
281
     0
  0
CLASS
  1
AMDTBROWSERDBTAB
  2
AmdtBrowserDbTab
  3
McadcomServices
 90
        0
280
     0
281
     0
  0
CLASS
  1
CBROWSERAPPOBJECT
  2
CBrowserAppObject
  3
McadcomServices
 90
        0
280
     0
281
     0
  0
CLASS
  1
DM_PLACEHOLDER
  2
AcDmSelsetPlaceholder
  3
AcMechDwgViewMgmt
 90
        0
280
     0
281
     0
  0
CLASS
  1
AMGOBJPROPCFG
  2
AmgObjPropCfg
  3
"AmgLay|Product Description: AutoCAD Mechanical 2000|Company: Autodesk"
 90
        1
280
     0
281
     0
  0
CLASS
  1
ACAMGFILTERDAT
  2
AcAmgFilterDat
  3
"AcadM|Product Description: AutoCAD Mechanical 2000|Company: Autodesk"
 90
        0
280
     0
281
     0
  0
CLASS
  1
LAYER_INDEX
  2
AcDbLayerIndex
  3
AutoCAD 2000
 90
        0
280
     0
281
     0
  0
CLASS
  1
IDBUFFER
  2
AcDbIdBuffer
  3
AutoCAD 2000
 90
        0
280
     0
281
     0
  0
CLASS
  1
ACAD_PROXY_OBJECT_WRAPPER
  2
AcDbProxyObjectWrapper
  3
AutoCAD 2000
 90
        0
280
     0
281
     0
  0
CLASS
  1
LONG_TRANSACTION
  2
AcDbLongTransaction
  3
AutoCAD 2000
 90
        0
280
     0
281
     0
  0
CLASS
  1
LWPOLYLINE
  2
AcDbPolyline
  3
AutoCAD 2000
 90
        0
280
     0
281
     1
  0
CLASS
  1
HATCH
  2
AcDbHatch
  3
AutoCAD 2000
 90
        0
280
     0
281
     1
  0
CLASS
  1
XRECORD
  2
AcDbXrecord
  3
AutoCAD 2000
 90
        0
280
     0
281
     0
  0
CLASS
  1
LONG_TRANSACTION
  2
AcDbLongTransaction
  3
AutoCAD 2000
 90
        0
280
     0
281
     0
  0
CLASS
  1
LWPOLYLINE
  2
AcDbPolyline
  3
AutoCAD 2000
 90
        0
280
     0
281
     1
  0
CLASS
  1
HATCH
  2
AcDbHatch
  3
AutoCAD 2000
 90
        0
280
     0
281
     1
  0
CLASS
  1
XRECORD
  2
AcDbXrecord
  3
AutoCAD 2000
 90
        0
280
     0
281
     0
  0
CLASS
  1
LONG_TRANSACTION
  2
AcDbLongTransaction
  3
AutoCAD 2000
 90
        0
280
     0
281
     0
  0
CLASS
  1
LWPOLYLINE
  2
AcDbPolyline
  3
AutoCAD 2000
 90
        0
280
     0
281
     1
  0
CLASS
  1
HATCH
  2
AcDbHatch
  3
AutoCAD 2000
 90
        0
280
     0
281
     1
  0
CLASS
  1
XRECORD
  2
AcDbXrecord
  3
AutoCAD 2000
 90
        0
280
     0
281
     0
  0
CLASS
  1
LONG_TRANSACTION
  2
AcDbLongTransaction
  3
AutoCAD 2000
 90
        0
280
     0
281
     0
  0
CLASS
  1
LWPOLYLINE
  2
AcDbPolyline
  3
AutoCAD 2000
 90
        0
280
     0
281
     1
  0
CLASS
  1
HATCH
  2
AcDbHatch
  3
AutoCAD 2000
 90
        0
280
     0
281
     1
  0
CLASS
  1
XRECORD
  2
AcDbXrecord
  3
AutoCAD 2000
 90
        0
280
     0
281
     0
  0
CLASS
  1
LONG_TRANSACTION
  2
AcDbLongTransaction
  3
AutoCAD 2000
 90
        0
280
     0
281
     0
  0
CLASS
  1
LWPOLYLINE
  2
AcDbPolyline
  3
AutoCAD 2000
 90
        0
280
     0
281
     1
  0
CLASS
  1
HATCH
  2
AcDbHatch
  3
AutoCAD 2000
 90
        0
280
     0
281
     1
  0
CLASS
  1
XRECORD
  2
AcDbXrecord
  3
AutoCAD 2000
 90
        0
280
     0
281
     0
  0
CLASS
  1
LONG_TRANSACTION
  2
AcDbLongTransaction
  3
AutoCAD 2000
 90
        0
280
     0
281
     0
  0
CLASS
  1
LWPOLYLINE
  2
AcDbPolyline
  3
AutoCAD 2000
 90
        0
280
     0
281
     1
  0
CLASS
  1
HATCH
  2
AcDbHatch
  3
AutoCAD 2000
 90
        0
280
     0
281
     1
  0
CLASS
  1
XRECORD
  2
AcDbXrecord
  3
AutoCAD 2000
 90
        0
280
     0
281
     0
  0
ENDSEC
  0
SECTION
  2
TABLES
  0
TABLE
  2
VPORT
  5
8
330
0
100
AcDbSymbolTable
 70
     2
  0
VPORT
  5
C28
330
8
100
AcDbSymbolTableRecord
100
AcDbViewportTableRecord
  2
*ACTIVE
 70
     0
 10
0.0
 20
0.0
 11
1.0
 21
1.0
 12
-899.8340481023317
 22
-457.5075817000232
 13
0.0
 23
0.0
 14
10.0
 24
10.0
 15
10.0
 25
10.0
 16
0.0
 26
0.0
 36
1.0
 17
1140.949166581189
 27
552.5761744424462
 37
0.0
 40
298.9865863710542
 41
1.621212121212121
 42
50.0
 43
0.0
 44
0.0
 50
0.0
 51
0.0
 71
     0
 72
   100
 73
     1
 74
     3
 75
     0
 76
     0
 77
     0
 78
     0
  0
ENDTAB
  0
TABLE
  2
LTYPE
  5
5
330
0
100
AcDbSymbolTable
 70
     8
  0
LTYPE
  5
14
330
5
100
AcDbSymbolTableRecord
100
AcDbLinetypeTableRecord
  2
BYBLOCK
 70
     0
  3

 72
    65
 73
     0
 40
0.0
  0
LTYPE
  5
15
330
5
100
AcDbSymbolTableRecord
100
AcDbLinetypeTableRecord
  2
BYLAYER
 70
     0
  3

 72
    65
 73
     0
 40
0.0
  0
LTYPE
  5
16
330
5
100
AcDbSymbolTableRecord
100
AcDbLinetypeTableRecord
  2
CONTINUOUS
 70
     0
  3
Solid line
 72
    65
 73
     0
 40
0.0
  0
LTYPE
  5
5C6
330
5
100
AcDbSymbolTableRecord
100
AcDbLinetypeTableRecord
  2
AM_ISO02W050
 70
     0
  3
__ __ __ __ __ __ __ __ __ __ __ __ __ __ __
 72
    65
 73
     2
 40
7.5
 49
6.0
 74
     0
 49
-1.5
 74
     0
  0
LTYPE
  5
5C7
330
5
100
AcDbSymbolTableRecord
100
AcDbLinetypeTableRecord
  2
AM_ISO08W050
 70
     0
  3
____ . ____ . ____ . ____ . ____ . ____ . ____
 72
    65
 73
     4
 40
18.0
 49
12.0
 74
     0
 49
-1.5
 74
     0
 49
3.0
 74
     0
 49
-1.5
 74
     0
  0
LTYPE
  5
5C8
330
5
100
AcDbSymbolTableRecord
100
AcDbLinetypeTableRecord
  2
AM_ISO09W050
 70
     0
  3
_____ . . _____ . . _____ . . ____ .. ____
 72
    65
 73
     6
 40
22.5
 49
12.0
 74
     0
 49
-1.5
 74
     0
 49
3.0
 74
     0
 49
-1.5
 74
     0
 49
3.0
 74
     0
 49
-1.5
 74
     0
  0
LTYPE
  5
5C9
330
5
100
AcDbSymbolTableRecord
100
AcDbLinetypeTableRecord
  2
AMCONSTR
 70
     0
  3
_______________________
 72
    65
 73
     2
 40
9999.0
 49
9999.0
 74
     0
 49
0.0
 74
     0
  0
LTYPE
  5
5CA
330
5
100
AcDbSymbolTableRecord
100
AcDbLinetypeTableRecord
  2
AM_ISO08W050X2
 70
     0
  3
__ . __ . __ . __ . __ . __
 72
    65
 73
     4
 40
9.0
 49
6.0
 74
     0
 49
-0.75
 74
     0
 49
1.5
 74
     0
 49
-0.75
 74
     0
  0
LTYPE
  5
5CB
330
5
100
AcDbSymbolTableRecord
100
AcDbLinetypeTableRecord
  2
AM_ISO02W050X2
 70
     0
  3
 _ _ _ _ _ _ _ _ _ _ _ _
 72
    65
 73
     2
 40
3.75
 49
3.0
 74
     0
 49
-0.75
 74
     0
  0
LTYPE
  5
5CE
330
5
100
AcDbSymbolTableRecord
100
AcDbLinetypeTableRecord
  2
AMZIGZAG
 70
     0
  3
/\/-/\/-/\/-/\/-/\/-/\/
 72
    65
 73
     2
 40
11.00009999999999
 49
0.0001
 74
     4
 75
   135
340
5CD
 46
0.04
 50
0.0
 44
0.0
 45
0.0
 49
-11.0
 74
     0
  0
ENDTAB
  0
TABLE
  2
LAYER
  5
2
102
{ACAD_XDICTIONARY
360
41
102
}
330
0
100
AcDbSymbolTable
 70
     6
  0
LAYER
  5
10
330
2
100
AcDbSymbolTableRecord
100
AcDbLayerTableRecord
  2
0
 70
     0
 62
     7
  6
CONTINUOUS
  0
LAYER
  5
35
330
2
100
AcDbSymbolTableRecord
100
AcDbLayerTableRecord
  2
10
 70
     0
 62
     4
  6
CONTINUOUS
  0
LAYER
  5
36
330
2
100
AcDbSymbolTableRecord
100
AcDbLayerTableRecord
  2
12
 70
     0
 62
     3
  6
CONTINUOUS
  0
LAYER
  5
37
330
2
100
AcDbSymbolTableRecord
100
AcDbLayerTableRecord
  2
16
 70
     0
 62
     4
  6
CONTINUOUS
  0
LAYER
  5
38
330
2
100
AcDbSymbolTableRecord
100
AcDbLayerTableRecord
  2
19
 70
     0
 62
     7
  6
CONTINUOUS
  0
LAYER
  5
6AC
330
2
100
AcDbSymbolTableRecord
100
AcDbLayerTableRecord
  2
DEFPOINTS
 70
     0
 62
     7
  6
CONTINUOUS
  0
ENDTAB
  0
TABLE
  2
STYLE
  5
3
330
0
100
AcDbSymbolTable
 70
     3
  0
STYLE
  5
11
330
3
100
AcDbSymbolTableRecord
100
AcDbTextStyleTableRecord
  2
STANDARD
 70
     0
 40
0.0
 41
1.0
 50
0.0
 71
     0
 42
2.5
  3
txt
  4

  0
STYLE
  5
3A
330
3
100
AcDbSymbolTableRecord
100
AcDbTextStyleTableRecord
  2
STANDARD1X3
 70
     0
 40
9.599999999999999
 41
0.7
 50
0.0
 71
     0
 42
9.599999999999999
  3
romans.shx
  4
extfont.shx
  0
STYLE
  5
5CD
330
3
100
AcDbSymbolTableRecord
100
AcDbTextStyleTableRecord
  2

 70
     1
 40
0.0
 41
1.0
 50
0.0
 71
     0
 42
2.5
  3
ltypeshp.shx
  4

  0
ENDTAB
  0
TABLE
  2
VIEW
  5
6
330
0
100
AcDbSymbolTable
 70
     0
  0
ENDTAB
  0
TABLE
  2
UCS
  5
7
330
0
100
AcDbSymbolTable
 70
     0
  0
ENDTAB
  0
TABLE
  2
APPID
  5
9
330
0
100
AcDbSymbolTable
 70
    23
  0
APPID
  5
12
330
9
100
AcDbSymbolTableRecord
100
AcDbRegAppTableRecord
  2
ACAD
 70
     0
  0
APPID
  5
3C
330
9
100
AcDbSymbolTableRecord
100
AcDbRegAppTableRecord
  2
ACAD_PSEXT
 70
     0
  0
APPID
  5
3D
330
9
100
AcDbSymbolTableRecord
100
AcDbRegAppTableRecord
  2
ACAD_DSTYLE_DIMEXT_LENGTH
 70
     0
  0
APPID
  5
3E
330
9
100
AcDbSymbolTableRecord
100
AcDbRegAppTableRecord
  2
ACAD_DSTYLE_DIMEXT_ENABLED
 70
     0
  0
APPID
  5
3F
330
9
100
AcDbSymbolTableRecord
100
AcDbRegAppTableRecord
  2
ACAD_DSTYLE_DIMJOGGED_JOGA
 70
     0
  0
APPID
  5
40
330
9
100
AcDbSymbolTableRecord
100
AcDbRegAppTableRecord
  2
ACAD_DSTYLE_DIMARC_LENGTH_
 70
     0
  0
APPID
  5
500
330
9
100
AcDbSymbolTableRecord
100
AcDbRegAppTableRecord
  2
GENIUS_GENDIM_13
 70
     0
  0
APPID
  5
501
330
9
100
AcDbSymbolTableRecord
100
AcDbRegAppTableRecord
  2
GENIUS_GENDTOL_13
 70
     0
  0
APPID
  5
502
330
9
100
AcDbSymbolTableRecord
100
AcDbRegAppTableRecord
  2
GENIUS_GE3DTOL_13
 70
     0
  0
APPID
  5
504
330
9
100
AcDbSymbolTableRecord
100
AcDbRegAppTableRecord
  2
MCAD_NO_VIS
 70
     0
  0
APPID
  5
505
330
9
100
AcDbSymbolTableRecord
100
AcDbRegAppTableRecord
  2
ACAD_TEMP_GRAPHIC
 70
     0
  0
APPID
  5
537
330
9
100
AcDbSymbolTableRecord
100
AcDbRegAppTableRecord
  2
AD_DRAW
 70
     0
  0
APPID
  5
53A
330
9
100
AcDbSymbolTableRecord
100
AcDbRegAppTableRecord
  2
ACATTRIBSERVICES
 70
     0
  0
APPID
  5
586
330
9
100
AcDbSymbolTableRecord
100
AcDbRegAppTableRecord
  2
ASURF_PCURVE_APPNAME
 70
     0
  0
APPID
  5
5B5
330
9
100
AcDbSymbolTableRecord
100
AcDbRegAppTableRecord
  2
DESIGNERASSEMBLIES
 70
     0
  0
APPID
  5
5BD
330
9
100
AcDbSymbolTableRecord
100
AcDbRegAppTableRecord
  2
ACADM_DIM_EDIT
 70
     0
  0
APPID
  5
5BE
330
9
100
AcDbSymbolTableRecord
100
AcDbRegAppTableRecord
  2
AMDT_DM_ADJ
 70
     0
  0
APPID
  5
6B5
330
9
100
AcDbSymbolTableRecord
100
AcDbRegAppTableRecord
  2
GENIUS_GENODEF_13
 70
     0
  0
APPID
  5
6B6
330
9
100
AcDbSymbolTableRecord
100
AcDbRegAppTableRecord
  2
GENIUS_GENOREF_13
 70
     0
  0
APPID
  5
6B7
330
9
100
AcDbSymbolTableRecord
100
AcDbRegAppTableRecord
  2
GENIUS_GENOBJ-N-CEN_13
 70
     0
  0
APPID
  5
6B8
330
9
100
AcDbSymbolTableRecord
100
AcDbRegAppTableRecord
  2
GENIUS_GENREC_14
 70
     0
  0
APPID
  5
6B9
330
9
100
AcDbSymbolTableRecord
100
AcDbRegAppTableRecord
  2
GENIUS_GENOBJ-N-REC_13
 70
     0
  0
APPID
  5
6BA
330
9
100
AcDbSymbolTableRecord
100
AcDbRegAppTableRecord
  2
GENIUS_GENOBJ-N-FIL_13
 70
     0
  0
ENDTAB
  0
TABLE
  2
DIMSTYLE
  5
A
330
0
100
AcDbSymbolTable
 70
     1
  0
DIMSTYLE
105
27
330
A
100
AcDbSymbolTableRecord
100
AcDbDimStyleTableRecord
  2
ISO-25
 70
     0
  3

  4

  5

  6

  7

 40
1.0
 41
2.5
 42
0.625
 43
3.75
 44
1.25
 45
0.0
 46
0.0
 47
0.0
 48
0.0
140
2.5
141
2.5
142
0.0
143
0.03937007874016
144
1.0
145
0.0
146
1.0
147
0.625
 71
     0
 72
     0
 73
     0
 74
     0
 75
     0
 76
     0
 77
     1
 78
     8
170
     0
171
     3
172
     1
173
     0
174
     0
175
     0
176
     0
177
     0
178
     0
270
     2
271
     2
272
     2
273
     2
274
     3
340
11
275
     0
280
     0
281
     0
282
     0
283
     0
284
     8
285
     0
286
     0
287
     3
288
     0
  0
ENDTAB
  0
TABLE
  2
BLOCK_RECORD
  5
1
330
0
100
AcDbSymbolTable
 70
     1
  0
BLOCK_RECORD
  5
1F
102
{ACAD_XDICTIONARY
360
438
102
}
330
1
100
AcDbSymbolTableRecord
100
AcDbBlockTableRecord
  2
*MODEL_SPACE
  0
BLOCK_RECORD
  5
23
102
{ACAD_XDICTIONARY
360
43A
102
}
330
1
100
AcDbSymbolTableRecord
100
AcDbBlockTableRecord
  2
*PAPER_SPACE
  0
BLOCK_RECORD
  5
5AC
330
1
100
AcDbSymbolTableRecord
100
AcDbBlockTableRecord
  2
*U0
  0
ENDTAB
  0
ENDSEC
  0
SECTION
  2
BLOCKS
  0
BLOCK
  5
20
330
1F
100
AcDbEntity
  8
0
100
AcDbBlockBegin
  2
*MODEL_SPACE
 70
     0
 10
0.0
 20
0.0
 30
0.0
  3
*MODEL_SPACE
  1

  0
ENDBLK
  5
21
330
1F
100
AcDbEntity
  8
0
100
AcDbBlockEnd
  0
BLOCK
  5
24
330
23
100
AcDbEntity
 67
     1
  8
0
100
AcDbBlockBegin
  2
*PAPER_SPACE
 70
     0
 10
0.0
 20
0.0
 30
0.0
  3
*PAPER_SPACE
  1

  0
ENDBLK
  5
25
330
23
100
AcDbEntity
 67
     1
  8
0
100
AcDbBlockEnd
  0
BLOCK
  5
5AD
330
5AC
100
AcDbEntity
  8
0
100
AcDbBlockBegin
  2
*U0
 70
     1
 10
0.0
 20
0.0
 30
0.0
  3
*U0
  1

  0
ENDBLK
  5
5AE
330
5AC
100
AcDbEntity
  8
0
100
AcDbBlockEnd
  0
ENDSEC
  0
SECTION
  2
ENTITIES
  0
MTEXT
  5
5EB
330
1F
100
AcDbEntity
  8
19
100
AcDbMText
 10
429.9534219969107
 20
18.6331467529818
 30
0.0
 40
7.0
 41
70.16
 71
     1
 72
     5
  1
HALH09\PFR-HAL-H15K
  7
STANDARD1X3
1001
ACAD
1000
MTEXTBEGIN
1070
    73
1070
     1
1070
    44
1040
1.0
1070
    74
1070
     0
1000
MTEXTEND
1000
MTEXTBEGIN
1070
    73
1070
     1
1070
    44
1040
1.0
1070
    74
1070
     0
1000
MTEXTEND
1000
MTEXTBEGIN
1070
    73
1070
     1
1070
    44
1040
1.0
1070
    74
1070
     0
1000
MTEXTEND
1000
MTEXTBEGIN
1070
    73
1070
     1
1070
    44
1040
1.0
1070
    74
1070
     0
1000
MTEXTEND
1000
MTEXTBEGIN
1070
    73
1070
     1
1070
    44
1040
1.0
1070
    74
1070
     0
1000
MTEXTEND
  0
ARC
  5
8A9
330
1F
100
AcDbEntity
  8
10
100
AcDbCircle
 10
383.6483650011679
 20
146.499999999978
 30
0.0
 40
9.545486902806104
100
AcDbArc
 50
342.387526014476
 51
17.61247398552393
1001
GENIUS_GENOREF_13
1005
0
1005
0
1005
0
1005
0
1005
0
1005
0
1005
0
1005
0
  0
LINE
  5
8AA
330
1F
100
AcDbEntity
  8
10
100
AcDbLine
 10
389.1938519039738
 20
143.499999999978
 30
0.0
 11
389.1938519039738
 21
149.4999999999779
 31
0.0
1001
GENIUS_GENOREF_13
1005
0
1005
0
1005
0
1005
0
1005
0
1005
0
1005
0
1005
0
  0
LINE
  5
8AB
330
1F
100
AcDbEntity
  8
10
100
AcDbLine
 10
393.1938519039738
 20
141.4999999999779
 30
0.0
 11
393.1938519039738
 21
151.4999999999779
 31
0.0
1001
GENIUS_GENOREF_13
1005
0
1005
0
1005
0
1005
0
1005
0
1005
0
1005
0
1005
0
  0
LINE
  5
8AC
330
1F
100
AcDbEntity
  8
10
100
AcDbLine
 10
389.6938519039738
 20
150.939999999978
 30
0.0
 11
389.6938519039738
 21
142.059999999978
 31
0.0
1001
GENIUS_GENOREF_13
1005
0
1005
0
1005
0
1005
0
1005
0
1005
0
1005
0
1005
0
  0
LINE
  5
8AD
330
1F
100
AcDbEntity
  8
10
100
AcDbLine
 10
387.5938519039738
 20
152.749999999978
 30
0.0
 11
387.5938519039738
 21
140.2499999999782
 31
0.0
1001
GENIUS_GENOREF_13
1005
0
1005
0
1005
0
1005
0
1005
0
1005
0
  0
LINE
  5
8AE
330
1F
100
AcDbEntity
  8
10
100
AcDbLine
 10
389.1938519039738
 20
140.2499999999782
 30
0.0
 11
389.1938519039738
 21
152.749999999978
 31
0.0
1001
GENIUS_GENOREF_13
1005
0
1005
0
1005
0
1005
0
1005
0
1005
0
  0
LINE
  5
8AF
330
1F
100
AcDbEntity
  8
10
100
AcDbLine
 10
385.9938519039737
 20
152.749999999978
 30
0.0
 11
385.9938519039737
 21
140.2499999999782
 31
0.0
1001
GENIUS_GENOREF_13
1005
0
1005
0
1005
0
1005
0
1005
0
  0
LINE
  5
8B0
330
1F
100
AcDbEntity
  8
10
100
AcDbLine
 10
387.5938519039738
 20
140.2499999999782
 30
0.0
 11
387.5938519039738
 21
152.749999999978
 31
0.0
1001
GENIUS_GENOREF_13
1005
0
1005
0
1005
0
1005
0
1005
0
  0
LINE
  5
8B1
330
1F
100
AcDbEntity
  8
10
100
AcDbLine
 10
385.9938519039737
 20
161.4999999999695
 30
0.0
 11
385.9938519039737
 21
137.4999999999695
 31
0.0
1001
GENIUS_GENREC_14
1002
{
1000
PYDIR
1011
385.9938519039737
1021
161.4999999999695
1031
0.0
1002
}
1002
{
1000
PXDIR
1011
383.9938519039778
1021
137.4999999999695
1031
0.0
1002
}
1002
{
1000
PORI
1011
385.9938519039737
1021
137.4999999999695
1031
0.0
1002
}
1002
{
1000
PINS
1011
385.9938519039737
1021
137.4999999999695
1031
0.0
1002
}
1002
{
1000
PINS2
1011
383.9938519039778
1021
161.4999999999695
1031
0.0
1002
}
1002
{
1000
C
1070
     1
1002
}
1001
GENIUS_GENODEF_13
1002
{
1000
HIER
1070
     0
1002
}
1002
{
1000
MANEDIT
1070
     0
1002
}
1002
{
1000
NOSEL
1070
     0
1002
}
1002
{
1000
BEHIND
1070
     0
1002
}
1002
{
1000
REACTOR
1002
}
1001
GENIUS_GENOBJ-N-REC_13
1002
{
1000
OWNER
1000
GEN
1002
}
  0
ARC
  5
8B2
330
1F
100
AcDbEntity
  8
10
100
AcDbCircle
 10
329.2531969063527
 20
146.4999999999768
 30
0.0
 40
9.540654997629703
100
AcDbArc
 50
342.3830311594315
 51
17.61696884056835
1001
GENIUS_GENOREF_13
1005
0
1005
0
  0
LINE
  5
8B3
330
1F
100
AcDbEntity
  8
10
100
AcDbLine
 10
338.7938519039817
 20
151.499999999977
 30
0.0
 11
338.7938519039817
 21
141.4999999999768
 31
0.0
1001
GENIUS_GENOREF_13
1005
0
1005
0
1005
0
  0
LINE
  5
8B4
330
1F
100
AcDbEntity
  8
10
100
AcDbLine
 10
338.7938519039817
 20
141.4999999999768
 30
0.0
 11
338.7938519039817
 21
151.499999999977
 31
0.0
1001
GENIUS_GENOREF_13
1005
0
1005
0
  0
LINE
  5
8B5
330
1F
100
AcDbEntity
  8
10
100
AcDbLine
 10
329.6938519039759
 20
148.8865499999771
 30
0.0
 11
329.6938519039759
 21
144.1134499999771
 31
0.0
1001
GENIUS_GENOREF_13
1005
0
1005
0
1005
0
1005
0
1005
0
1005
0
1005
0
1005
0
  0
ARC
  5
8B6
330
1F
100
AcDbEntity
  8
10
100
AcDbCircle
 10
343.1345069016106
 20
146.4999999999768
 30
0.0
 40
9.540654997629626
100
AcDbArc
 50
162.3830311594316
 51
197.6169688405683
1001
GENIUS_GENOREF_13
1005
0
1005
0
  0
LINE
  5
8B7
330
1F
100
AcDbEntity
  8
10
100
AcDbLine
 10
333.5938519039807
 20
141.4999999999768
 30
0.0
 11
333.5938519039807
 21
151.499999999977
 31
0.0
1001
GENIUS_GENOREF_13
1005
0
1005
0
  0
LINE
  5
8B8
330
1F
100
AcDbEntity
  8
10
100
AcDbLine
 10
341.9938519039808
 20
140.2499999999772
 30
0.0
 11
341.9938519039808
 21
152.7499999999768
 31
0.0
1001
GENIUS_GENOREF_13
1005
0
1005
0
1005
0
1005
0
  0
LINE
  5
8B9
330
1F
100
AcDbEntity
  8
10
100
AcDbLine
 10
340.3938519039828
 20
152.7499999999768
 30
0.0
 11
340.3938519039828
 21
140.2499999999772
 31
0.0
1001
GENIUS_GENOREF_13
1005
0
1005
0
1005
0
1005
0
  0
LINE
  5
8BA
330
1F
100
AcDbEntity
  8
10
100
AcDbLine
 10
340.3938519039828
 20
140.2499999999772
 30
0.0
 11
340.3938519039828
 21
152.7499999999768
 31
0.0
1001
GENIUS_GENOREF_13
1005
0
1005
0
1005
0
  0
LINE
  5
8BB
330
1F
100
AcDbEntity
  8
10
100
AcDbLine
 10
345.4938519039778
 20
161.4999999999765
 30
0.0
 11
345.4938519039751
 21
130.4999999999705
 31
0.0
  0
LINE
  5
8BC
330
1F
100
AcDbEntity
  8
10
100
AcDbLine
 10
343.9938519039751
 20
130.4999999999705
 30
0.0
 11
343.9938519039778
 21
161.4999999999771
 31
0.0
  0
LINE
  5
8BD
330
1F
100
AcDbEntity
  8
10
100
AcDbLine
 10
341.9938519039808
 20
137.4999999999703
 30
0.0
 11
341.9938519039808
 21
166.999999999972
 31
0.0
  0
LINE
  5
8BE
330
1F
100
AcDbEntity
  8
10
100
AcDbLine
 10
343.9938519039778
 20
166.999999999972
 30
0.0
 11
343.993851903976
 21
137.4999999999703
 31
0.0
  0
LINE
  5
8BF
330
1F
100
AcDbEntity
  8
10
100
AcDbLine
 10
382.493851903979
 20
161.4999999999695
 30
0.0
 11
382.4938519039727
 21
130.4999999999695
 31
0.0
  0
LINE
  5
8C0
330
1F
100
AcDbEntity
  8
10
100
AcDbLine
 10
383.9938519039727
 20
130.4999999999695
 30
0.0
 11
383.9938519039778
 21
161.4999999999695
 31
0.0
  0
LINE
  5
8C1
330
1F
100
AcDbEntity
  8
10
100
AcDbLine
 10
383.9938519039778
 20
137.4999999999695
 30
0.0
 11
383.9938519039778
 21
161.4999999999695
 31
0.0
1001
GENIUS_GENREC_14
1002
{
1000
PYDIR
1011
385.9938519039737
1021
161.4999999999695
1031
0.0
1002
}
1002
{
1000
PXDIR
1011
383.9938519039778
1021
137.4999999999695
1031
0.0
1002
}
1002
{
1000
PORI
1011
385.9938519039737
1021
137.4999999999695
1031
0.0
1002
}
1002
{
1000
PINS
1011
385.9938519039737
1021
137.4999999999695
1031
0.0
1002
}
1002
{
1000
PINS2
1011
383.9938519039778
1021
161.4999999999695
1031
0.0
1002
}
1002
{
1000
C
1070
     1
1002
}
1001
GENIUS_GENODEF_13
1002
{
1000
HIER
1070
     0
1002
}
1002
{
1000
MANEDIT
1070
     0
1002
}
1002
{
1000
NOSEL
1070
     0
1002
}
1002
{
1000
BEHIND
1070
     0
1002
}
1002
{
1000
REACTOR
1002
}
1001
GENIUS_GENOBJ-N-REC_13
1002
{
1000
OWNER
1000
GEN
1002
}
  0
LINE
  5
8C2
330
1F
100
AcDbEntity
  8
16
 48
15.0
100
AcDbLine
 10
363.9938519039517
 20
-11.55402825564181
 30
0.0
 11
363.9938519039878
 21
201.6948865983898
 31
0.0
1001
GENIUS_GENODEF_13
1002
{
1000
HIER
1070
     0
1002
}
1002
{
1000
MANEDIT
1070
     0
1002
}
1002
{
1000
NOSEL
1070
     0
1002
}
1002
{
1000
BEHIND
1070
     0
1002
}
1002
{
1000
REACTOR
1002
}
1001
GENIUS_GENOBJ-N-CEN_13
1002
{
1000
OWNER
1000
GEN
1002
}
  0
LINE
  5
8C3
330
1F
100
AcDbEntity
  8
10
100
AcDbLine
 10
175.000000000012
 20
143.6132486540342
 30
0.0
 11
175.000000000012
 21
149.3867513459306
 31
0.0
  0
LINE
  5
8C4
330
1F
100
AcDbEntity
  8
10
100
AcDbLine
 10
165.000000000012
 20
149.3867513459306
 30
0.0
 11
165.000000000012
 21
143.6132486540343
 31
0.0
  0
CIRCLE
  5
8C5
330
1F
100
AcDbEntity
  8
10
100
AcDbCircle
 10
170.000000000012
 20
146.4999999999823
 30
0.0
 40
3.0
  0
CIRCLE
  5
8C6
330
1F
100
AcDbEntity
  8
10
100
AcDbCircle
 10
170.000000000012
 20
146.4999999999823
 30
0.0
 40
5.0
  0
CIRCLE
  5
8C7
330
1F
100
AcDbEntity
  8
10
100
AcDbCircle
 10
170.000000000012
 20
146.4999999999823
 30
0.0
 40
6.25
  0
LINE
  5
8C8
330
1F
100
AcDbEntity
  8
10
100
AcDbLine
 10
115.0000000000117
 20
143.6132486540342
 30
0.0
 11
115.0000000000117
 21
149.3867513459306
 31
0.0
  0
LINE
  5
8C9
330
1F
100
AcDbEntity
  8
10
100
AcDbLine
 10
105.0000000000117
 20
149.3867513459306
 30
0.0
 11
105.0000000000117
 21
143.6132486540343
 31
0.0
  0
CIRCLE
  5
8CA
330
1F
100
AcDbEntity
  8
10
100
AcDbCircle
 10
110.0000000000117
 20
146.4999999999823
 30
0.0
 40
3.0
  0
CIRCLE
  5
8CB
330
1F
100
AcDbEntity
  8
10
100
AcDbCircle
 10
110.0000000000117
 20
146.4999999999823
 30
0.0
 40
5.0
  0
CIRCLE
  5
8CD
330
1F
100
AcDbEntity
  8
10
100
AcDbCircle
 10
110.0000000000117
 20
146.4999999999823
 30
0.0
 40
6.25
  0
LWPOLYLINE
  5
8CE
330
1F
100
AcDbEntity
  8
10
100
AcDbPolyline
 90
        4
 70
     0
 43
0.0
 10
110.0000000000141
 20
169.4999999999824
 10
185.0000000000138
 20
169.4999999999824
 10
185.0000000000109
 20
137.4999999999828
 10
110.0000000000109
 20
137.4999999999828
1001
GENIUS_GENOREF_13
1005
0
1005
0
1005
0
1005
0
1005
0
  0
LINE
  5
8CF
330
1F
100
AcDbEntity
  8
16
 48
15.0
100
AcDbLine
 10
110.0
 20
-11.10211707550638
 30
0.0
 11
110.0000000000159
 21
195.5173361742921
 31
0.0
1001
GENIUS_GENODEF_13
1002
{
1000
HIER
1070
     0
1002
}
1002
{
1000
MANEDIT
1070
     0
1002
}
1002
{
1000
NOSEL
1070
     0
1002
}
1002
{
1000
BEHIND
1070
     0
1002
}
1002
{
1000
REACTOR
1002
}
1001
GENIUS_GENOBJ-N-CEN_13
1002
{
1000
OWNER
1000
GEN
1002
}
  0
LINE
  5
8D0
330
1F
100
AcDbEntity
  8
10
100
AcDbLine
 10
55.00000000001183
 20
143.6132486540342
 30
0.0
 11
55.00000000001183
 21
149.3867513459306
 31
0.0
1001
GENIUS_GENOREF_13
1005
0
1005
0
1005
0
  0
LINE
  5
8D1
330
1F
100
AcDbEntity
  8
10
100
AcDbLine
 10
45.00000000001182
 20
149.3867513459306
 30
0.0
 11
45.00000000001182
 21
143.6132486540343
 31
0.0
1001
GENIUS_GENOREF_13
1005
0
1005
0
1005
0
  0
CIRCLE
  5
8D2
330
1F
100
AcDbEntity
  8
10
100
AcDbCircle
 10
50.00000000001183
 20
146.4999999999823
 30
0.0
 40
5.0
1001
GENIUS_GENOREF_13
1005
0
1005
0
1005
0
  0
CIRCLE
  5
8D3
330
1F
100
AcDbEntity
  8
10
100
AcDbCircle
 10
50.00000000001183
 20
146.4999999999823
 30
0.0
 40
3.0
1001
GENIUS_GENOREF_13
1005
0
1005
0
  0
CIRCLE
  5
8D4
330
1F
100
AcDbEntity
  8
10
100
AcDbCircle
 10
50.00000000001183
 20
146.4999999999823
 30
0.0
 40
6.25
1001
GENIUS_GENOREF_13
1005
0
1005
0
1005
0
1005
0
  0
LWPOLYLINE
  5
8D5
330
1F
100
AcDbEntity
  8
10
100
AcDbPolyline
 90
        4
 70
     0
 43
0.0
 10
110.0000000000141
 20
169.4999999999824
 10
35.00000000001409
 20
169.4999999999824
 10
35.0000000000109
 20
137.4999999999828
 10
110.0000000000109
 20
137.4999999999828
1001
GENIUS_GENOREF_13
1005
0
1005
0
  0
LWPOLYLINE
  5
8D6
330
1F
100
AcDbEntity
  8
10
100
AcDbPolyline
 90
        4
 70
     0
 43
0.0
 10
110.0000000000027
 20
31.99999999998283
 10
220.0000000000029
 20
31.99999999998283
 10
220.0000000000005
 20
-0.0000000000171667
 10
110.0
 20
-0.0000000000171667
  0
LWPOLYLINE
  5
8D7
330
1F
100
AcDbEntity
  8
10
100
AcDbPolyline
 90
        4
 70
     0
 43
0.0
 10
110.0000000000027
 20
31.99999999998283
 10
0.0000000000027285
 20
31.99999999998283
 10
0.0
 20
0.0
 10
110.0
 20
-0.0000000000171667
  0
LWPOLYLINE
  5
8D8
330
1F
100
AcDbEntity
  8
10
100
AcDbPolyline
 90
        2
 70
     0
 43
0.0
 10
0.0000000000009095
 20
2.0
 10
110.0
 20
1.999999999982833
  0
LWPOLYLINE
  5
8D9
330
1F
100
AcDbEntity
  8
10
100
AcDbPolyline
 90
        2
 70
     0
 43
0.0
 10
13.0
 20
1.999999999998067
 10
13.0
 20
-0.0000000000019327
  0
LWPOLYLINE
  5
8DA
330
1F
100
AcDbEntity
  8
10
100
AcDbPolyline
 90
        2
 70
     0
 43
0.0
 10
7.0
 20
1.999999999998863
 10
7.0
 20
-0.0000000000009095
  0
LWPOLYLINE
  5
8DB
330
1F
100
AcDbEntity
  8
12
 48
7.0
100
AcDbPolyline
 90
        2
 70
     0
 43
0.0
 10
10.00000000000091
 20
5.006917435252603
 10
10.0
 20
-1.693743819056749
  0
LWPOLYLINE
  5
8DC
330
1F
100
AcDbEntity
  8
10
100
AcDbPolyline
 90
        2
 70
     0
 43
0.0
 10
220.0000000000005
 20
1.999999999982833
 10
110.0
 20
1.999999999982833
  0
LWPOLYLINE
  5
8DD
330
1F
100
AcDbEntity
  8
10
100
AcDbPolyline
 90
        2
 70
     0
 43
0.0
 10
213.0000000000006
 20
1.999999999982833
 10
213.0000000000006
 20
-0.0000000000171667
  0
LWPOLYLINE
  5
8DE
330
1F
100
AcDbEntity
  8
10
100
AcDbPolyline
 90
        2
 70
     0
 43
0.0
 10
207.0000000000006
 20
1.999999999982833
 10
207.0000000000006
 20
-0.0000000000171667
  0
LWPOLYLINE
  5
8DF
330
1F
100
AcDbEntity
  8
12
 48
7.0
100
AcDbPolyline
 90
        2
 70
     0
 43
0.0
 10
210.0000000000004
 20
5.006917435236573
 10
210.0000000000004
 20
-1.693743819072324
  0
LWPOLYLINE
  5
8E0
330
1F
100
AcDbEntity
  8
10
100
AcDbPolyline
 90
        4
 70
     1
 43
0.0
 10
20.00000000001
 20
129.4999999999965
 10
78.50000000000999
 20
129.4999999999876
 10
78.50000000000999
 20
130.4999999999876
 10
20.00000000001
 20
130.4999999999967
1001
GENIUS_GENREC_14
1002
{
1000
PYDIR
1011
199.0000000000109
1021
130.4999999999828
1031
0.0
1002
}
1002
{
1000
PXDIR
1011
141.0000000000109
1021
129.4999999999828
1031
0.0
1002
}
1002
{
1000
PORI
1011
199.0000000000109
1021
129.4999999999828
1031
0.0
1002
}
1002
{
1000
PINS
1011
199.0000000000109
1021
129.4999999999828
1031
0.0
1002
}
1002
{
1000
PINS2
1011
141.0000000000109
1021
130.4999999999828
1031
0.0
1002
}
1002
{
1000
C
1070
     1
1002
}
1001
GENIUS_GENODEF_13
1002
{
1000
HIER
1070
     0
1002
}
1002
{
1000
MANEDIT
1070
     0
1002
}
1002
{
1000
NOSEL
1070
     0
1002
}
1002
{
1000
BEHIND
1070
     0
1002
}
1002
{
1000
REACTOR
1002
}
1001
GENIUS_GENOBJ-N-REC_13
1002
{
1000
OWNER
1000
GEN
1002
}
  0
LINE
  5
8E1
330
1F
100
AcDbEntity
  8
10
100
AcDbLine
 10
45.00000000001182
 20
143.6132486540343
 30
0.0
 11
50.00000000001183
 21
140.7264973080863
 31
0.0
1001
GENIUS_GENOREF_13
1005
0
1005
0
1005
0
  0
CIRCLE
  5
8E2
330
1F
100
AcDbEntity
  8
10
100
AcDbCircle
 10
50.00000000001183
 20
18.9999999999826
 30
0.0
 40
5.0
  0
LINE
  5
8E3
330
1F
100
AcDbEntity
  8
10
100
AcDbLine
 10
50.00000000001183
 20
24.77350269187866
 30
0.0
 11
45.00000000001089
 21
21.88675134593073
 31
0.0
  0
LINE
  5
8E4
330
1F
100
AcDbEntity
  8
10
100
AcDbLine
 10
45.00000000001089
 20
16.11324865403467
 30
0.0
 11
50.00000000001183
 21
13.22649730808643
 31
0.0
  0
CIRCLE
  5
8E5
330
1F
100
AcDbEntity
  8
10
100
AcDbCircle
 10
50.00000000001183
 20
18.9999999999826
 30
0.0
 40
6.25
  0
LWPOLYLINE
  5
8E6
330
1F
100
AcDbEntity
  8
10
100
AcDbPolyline
 90
        4
 70
     1
 43
0.0
 10
19.9999999999959
 20
36.24999999999693
 10
78.49999999999681
 20
36.24999999998771
 10
78.49999999999681
 20
35.24999999998771
 10
19.9999999999959
 20
35.24999999999693
1001
GENIUS_GENREC_14
1002
{
1000
PYDIR
1011
198.4999999999979
1021
35.24999999998306
1031
0.0
1002
}
1002
{
1000
PXDIR
1011
140.4999999999977
1021
36.24999999998317
1031
0.0
1002
}
1002
{
1000
PORI
1011
198.4999999999979
1021
36.24999999998317
1031
0.0
1002
}
1002
{
1000
PINS
1011
198.4999999999979
1021
36.24999999998317
1031
0.0
1002
}
1002
{
1000
PINS2
1011
140.4999999999977
1021
35.24999999998306
1031
0.0
1002
}
1002
{
1000
C
1070
     1
1002
}
1001
GENIUS_GENODEF_13
1002
{
1000
HIER
1070
     0
1002
}
1002
{
1000
MANEDIT
1070
     0
1002
}
1002
{
1000
NOSEL
1070
     0
1002
}
1002
{
1000
BEHIND
1070
     0
1002
}
1002
{
1000
REACTOR
1002
}
1001
GENIUS_GENOBJ-N-REC_13
1002
{
1000
OWNER
1000
GEN
1002
}
  0
LWPOLYLINE
  5
8E7
330
1F
100
AcDbEntity
  8
10
100
AcDbPolyline
 90
        2
 70
     0
 43
0.0
 10
34.50000000000999
 20
130.7499999999945
 10
110.00000000001
 20
130.7499999999828
  0
LWPOLYLINE
  5
8E8
330
1F
100
AcDbEntity
  8
10
100
AcDbPolyline
 90
        2
 70
     0
 43
0.0
 10
35.00000000001
 20
131.4999999999945
 10
110.00000000001
 20
131.4999999999828
  0
LWPOLYLINE
  5
8E9
330
1F
100
AcDbEntity
  8
10
100
AcDbPolyline
 90
        2
 70
     0
 43
0.0
 10
110.0000000000027
 20
34.99999999998306
 10
35.00000000000182
 20
34.99999999999465
  0
LWPOLYLINE
  5
8EA
330
1F
100
AcDbEntity
  8
10
100
AcDbPolyline
 90
        2
 70
     0
 43
0.0
 10
35.00000000000182
 20
33.99999999999465
 10
110.0000000000027
 20
33.99999999998282
  0
LWPOLYLINE
  5
8EB
330
1F
100
AcDbEntity
  8
10
100
AcDbPolyline
 90
        2
 70
     0
 43
0.0
 10
20.00000000000182
 20
36.2499999999967
 10
20.00000000001
 20
129.4999999999965
  0
LINE
  5
8EC
330
1F
100
AcDbEntity
  8
10
100
AcDbLine
 10
45.00000000001089
 20
21.88675134593073
 30
0.0
 11
45.00000000001089
 21
16.11324865403467
 31
0.0
  0
LWPOLYLINE
  5
8ED
330
1F
100
AcDbEntity
  8
10
100
AcDbPolyline
 90
        2
 70
     0
 43
0.0
 10
35.00000000000182
 20
35.24999999999465
 10
35.00000000000182
 20
31.99999999998283
  0
LWPOLYLINE
  5
8EE
330
1F
100
AcDbEntity
  8
10
100
AcDbPolyline
 90
        2
 70
     0
 43
0.0
 10
35.0000000000109
 20
137.4999999999946
 10
35.00000000001
 20
130.4999999999945
  0
LWPOLYLINE
  5
8EF
330
1F
100
AcDbEntity
  8
10
100
AcDbPolyline
 90
        2
 70
     0
 43
0.0
 10
141.5000000000109
 20
129.4999999999828
 10
141.5000000000109
 20
36.24999999998282
  0
LWPOLYLINE
  5
8F0
330
1F
100
AcDbEntity
  8
10
100
AcDbPolyline
 90
        2
 70
     0
 43
0.0
 10
200.0000000000038
 20
36.24999999998282
 10
200.0000000000109
 20
129.4999999999828
  0
LWPOLYLINE
  5
8F1
330
1F
100
AcDbEntity
  8
10
100
AcDbPolyline
 90
        2
 70
     0
 43
0.0
 10
139.5000000000109
 20
129.4999999999876
 10
139.4999999999967
 20
36.24999999998771
  0
LWPOLYLINE
  5
8F2
330
1F
100
AcDbEntity
  8
10
100
AcDbPolyline
 90
        2
 70
     0
 43
0.0
 10
80.50000000000272
 20
36.2499999999967
 10
80.50000000001091
 20
129.4999999999965
  0
LWPOLYLINE
  5
8F3
330
1F
100
AcDbEntity
  8
10
100
AcDbPolyline
 90
        2
 70
     0
 43
0.0
 10
78.50000000000999
 20
129.4999999999876
 10
78.49999999999681
 20
36.24999999998771
  0
LWPOLYLINE
  5
8F4
330
1F
100
AcDbEntity
  8
10
100
AcDbPolyline
 90
        4
 70
     1
 43
0.0
 10
200.0000000000038
 20
36.24999999998282
 10
141.5000000000109
 20
36.24999999998282
 10
141.5000000000109
 20
35.24999999998282
 10
200.0000000000109
 20
35.24999999998282
1001
GENIUS_GENREC_14
1002
{
1000
PYDIR
1011
200.0000000000109
1021
35.24999999998282
1031
0.0
1002
}
1002
{
1000
PXDIR
1011
141.5000000000109
1021
36.24999999998282
1031
0.0
1002
}
1002
{
1000
PORI
1011
200.0000000000038
1021
36.24999999998282
1031
0.0
1002
}
1002
{
1000
PINS
1011
200.0000000000038
1021
36.24999999998282
1031
0.0
1002
}
1002
{
1000
PINS2
1011
141.5000000000109
1021
35.24999999998282
1031
0.0
1002
}
1002
{
1000
C
1070
     1
1002
}
1001
GENIUS_GENODEF_13
1002
{
1000
HIER
1070
     0
1002
}
1002
{
1000
MANEDIT
1070
     0
1002
}
1002
{
1000
NOSEL
1070
     0
1002
}
1002
{
1000
BEHIND
1070
     0
1002
}
1002
{
1000
REACTOR
1002
}
1001
GENIUS_GENOBJ-N-REC_13
1002
{
1000
OWNER
1000
GEN
1002
}
  0
LWPOLYLINE
  5
8F5
330
1F
100
AcDbEntity
  8
10
100
AcDbPolyline
 90
        2
 70
     0
 43
0.0
 10
185.0000000000038
 20
33.99999999998282
 10
110.0000000000027
 20
33.99999999998282
  0
LWPOLYLINE
  5
8F6
330
1F
100
AcDbEntity
  8
10
100
AcDbPolyline
 90
        2
 70
     0
 43
0.0
 10
110.0000000000027
 20
34.99999999998306
 10
185.0000000000038
 20
34.99999999998306
  0
LWPOLYLINE
  5
8F7
330
1F
100
AcDbEntity
  8
10
100
AcDbPolyline
 90
        4
 70
     1
 43
0.0
 10
80.50000000000272
 20
36.2499999999967
 10
139.4999999999967
 20
36.24999999998771
 10
139.5000000000027
 20
35.24999999998771
 10
80.50000000000272
 20
35.2499999999967
1001
GENIUS_GENREC_14
1002
{
1000
PYDIR
1011
258.500000000005
1021
39.74999999998281
1031
0.0
1002
}
1002
{
1000
PXDIR
1011
200.500000000005
1021
36.24999999998282
1031
0.0
1002
}
1002
{
1000
PORI
1011
258.500000000005
1021
40.74999999998282
1031
0.0
1002
}
1002
{
1000
PINS
1011
258.500000000005
1021
40.74999999998282
1031
0.0
1002
}
1002
{
1000
PINS2
1011
200.500000000005
1021
35.24999999998282
1031
0.0
1002
}
1002
{
1000
C
1070
     1
1002
}
1001
GENIUS_GENODEF_13
1002
{
1000
HIER
1070
     0
1002
}
1002
{
1000
MANEDIT
1070
     0
1002
}
1002
{
1000
NOSEL
1070
     0
1002
}
1002
{
1000
BEHIND
1070
     0
1002
}
1002
{
1000
REACTOR
1002
}
1001
GENIUS_GENOBJ-N-REC_13
1002
{
1000
OWNER
1000
GEN
1002
}
  0
LINE
  5
8F8
330
1F
100
AcDbEntity
  8
10
100
AcDbLine
 10
55.0000000000109
 20
21.88675134593073
 30
0.0
 11
50.00000000001183
 21
24.77350269187866
 31
0.0
  0
LINE
  5
8F9
330
1F
100
AcDbEntity
  8
10
100
AcDbLine
 10
55.0000000000109
 20
16.11324865403435
 30
0.0
 11
55.0000000000109
 21
21.88675134593073
 31
0.0
  0
CIRCLE
  5
8FA
330
1F
100
AcDbEntity
  8
10
100
AcDbCircle
 10
50.00000000001183
 20
18.9999999999826
 30
0.0
 40
3.0
  0
LINE
  5
8FB
330
1F
100
AcDbEntity
  8
10
100
AcDbLine
 10
50.00000000001183
 20
13.22649730808643
 30
0.0
 11
55.0000000000109
 21
16.11324865403435
 31
0.0
  0
LWPOLYLINE
  5
8FC
330
1F
100
AcDbEntity
  8
10
100
AcDbPolyline
 90
        2
 70
     0
 43
0.0
 10
65.00000000000182
 20
31.99999999998283
 10
65.00000000000182
 20
33.99999999998998
  0
LWPOLYLINE
  5
8FD
330
1F
100
AcDbEntity
  8
10
100
AcDbPolyline
 90
        2
 70
     0
 43
0.0
 10
95.00000000000364
 20
31.99999999998283
 10
95.00000000000364
 20
33.99999999998282
  0
LINE
  5
8FE
330
1F
100
AcDbEntity
  8
10
100
AcDbLine
 10
110.0000000000016
 20
24.77350269187866
 30
0.0
 11
105.0000000000018
 21
21.88675134593073
 31
0.0
  0
CIRCLE
  5
8FF
330
1F
100
AcDbEntity
  8
10
100
AcDbCircle
 10
110.0000000000016
 20
18.9999999999826
 30
0.0
 40
5.0
  0
LINE
  5
900
330
1F
100
AcDbEntity
  8
10
100
AcDbLine
 10
115.0000000000017
 20
21.88675134593073
 30
0.0
 11
110.0000000000016
 21
24.77350269187866
 31
0.0
  0
CIRCLE
  5
901
330
1F
100
AcDbEntity
  8
10
100
AcDbCircle
 10
110.0000000000016
 20
18.9999999999826
 30
0.0
 40
6.25
  0
LINE
  5
902
330
1F
100
AcDbEntity
  8
10
100
AcDbLine
 10
115.0000000000017
 20
16.11324865403435
 30
0.0
 11
115.0000000000017
 21
21.88675134593073
 31
0.0
  0
LINE
  5
903
330
1F
100
AcDbEntity
  8
10
100
AcDbLine
 10
105.0000000000018
 20
21.88675134593073
 30
0.0
 11
105.0000000000018
 21
16.11324865403467
 31
0.0
  0
CIRCLE
  5
904
330
1F
100
AcDbEntity
  8
10
100
AcDbCircle
 10
110.0000000000016
 20
18.9999999999826
 30
0.0
 40
3.0
  0
LINE
  5
905
330
1F
100
AcDbEntity
  8
10
100
AcDbLine
 10
105.0000000000018
 20
16.11324865403467
 30
0.0
 11
110.0000000000016
 21
13.22649730808643
 31
0.0
  0
LINE
  5
906
330
1F
100
AcDbEntity
  8
10
100
AcDbLine
 10
110.0000000000016
 20
13.22649730808643
 30
0.0
 11
115.0000000000017
 21
16.11324865403435
 31
0.0
  0
LWPOLYLINE
  5
907
330
1F
100
AcDbEntity
  8
10
100
AcDbPolyline
 90
        2
 70
     0
 43
0.0
 10
125.0000000000015
 20
31.99999999998283
 10
125.0000000000015
 20
33.99999999998044
  0
LINE
  5
908
330
1F
100
AcDbEntity
  8
10
100
AcDbLine
 10
170.0000000000109
 20
24.77350269187866
 30
0.0
 11
165.000000000012
 21
21.88675134593073
 31
0.0
  0
CIRCLE
  5
909
330
1F
100
AcDbEntity
  8
10
100
AcDbCircle
 10
170.0000000000109
 20
18.9999999999826
 30
0.0
 40
5.0
  0
LINE
  5
90A
330
1F
100
AcDbEntity
  8
10
100
AcDbLine
 10
175.000000000012
 20
21.88675134593073
 30
0.0
 11
170.0000000000109
 21
24.77350269187866
 31
0.0
  0
CIRCLE
  5
90B
330
1F
100
AcDbEntity
  8
10
100
AcDbCircle
 10
170.0000000000109
 20
18.9999999999826
 30
0.0
 40
6.25
  0
LINE
  5
90C
330
1F
100
AcDbEntity
  8
10
100
AcDbLine
 10
170.0000000000109
 20
13.22649730808643
 30
0.0
 11
175.000000000012
 21
16.11324865403435
 31
0.0
  0
LINE
  5
90D
330
1F
100
AcDbEntity
  8
10
100
AcDbLine
 10
165.000000000012
 20
21.88675134593073
 30
0.0
 11
165.000000000012
 21
16.11324865403467
 31
0.0
  0
CIRCLE
  5
90E
330
1F
100
AcDbEntity
  8
10
100
AcDbCircle
 10
170.0000000000109
 20
18.9999999999826
 30
0.0
 40
3.0
  0
LINE
  5
90F
330
1F
100
AcDbEntity
  8
10
100
AcDbLine
 10
165.000000000012
 20
16.11324865403467
 30
0.0
 11
170.0000000000109
 21
13.22649730808643
 31
0.0
  0
LINE
  5
910
330
1F
100
AcDbEntity
  8
10
100
AcDbLine
 10
175.000000000012
 20
16.11324865403435
 30
0.0
 11
175.000000000012
 21
21.88675134593073
 31
0.0
  0
LWPOLYLINE
  5
911
330
1F
100
AcDbEntity
  8
10
100
AcDbPolyline
 90
        2
 70
     0
 43
0.0
 10
155.0000000000038
 20
31.99999999998283
 10
155.0000000000038
 20
33.99999999998282
  0
LWPOLYLINE
  5
912
330
1F
100
AcDbEntity
  8
10
100
AcDbPolyline
 90
        2
 70
     0
 43
0.0
 10
185.0000000000038
 20
35.24999999998282
 10
185.0000000000038
 20
31.99999999998283
  0
LWPOLYLINE
  5
913
330
1F
100
AcDbEntity
  8
10
100
AcDbPolyline
 90
        4
 70
     1
 43
0.0
 10
200.0000000000109
 20
129.4999999999828
 10
141.5000000000109
 20
129.4999999999828
 10
141.5000000000109
 20
130.4999999999828
 10
200.0000000000109
 20
130.4999999999828
1001
GENIUS_GENREC_14
1002
{
1000
PYDIR
1011
200.0000000000109
1021
130.4999999999828
1031
0.0
1002
}
1002
{
1000
PXDIR
1011
141.5000000000109
1021
129.4999999999828
1031
0.0
1002
}
1002
{
1000
PORI
1011
200.0000000000109
1021
129.4999999999828
1031
0.0
1002
}
1002
{
1000
PINS
1011
200.0000000000109
1021
129.4999999999828
1031
0.0
1002
}
1002
{
1000
PINS2
1011
141.5000000000109
1021
130.4999999999828
1031
0.0
1002
}
1002
{
1000
C
1070
     1
1002
}
1001
GENIUS_GENODEF_13
1002
{
1000
HIER
1070
     0
1002
}
1002
{
1000
MANEDIT
1070
     0
1002
}
1002
{
1000
NOSEL
1070
     0
1002
}
1002
{
1000
BEHIND
1070
     0
1002
}
1002
{
1000
REACTOR
1002
}
1001
GENIUS_GENOBJ-N-REC_13
1002
{
1000
OWNER
1000
GEN
1002
}
  0
LWPOLYLINE
  5
914
330
1F
100
AcDbEntity
  8
10
100
AcDbPolyline
 90
        2
 70
     0
 43
0.0
 10
185.0000000000109
 20
131.4999999999828
 10
110.00000000001
 20
131.4999999999828
  0
LWPOLYLINE
  5
915
330
1F
100
AcDbEntity
  8
10
100
AcDbPolyline
 90
        2
 70
     0
 43
0.0
 10
185.0000000000109
 20
130.7499999999828
 10
110.00000000001
 20
130.7499999999828
  0
LWPOLYLINE
  5
916
330
1F
100
AcDbEntity
  8
10
100
AcDbPolyline
 90
        4
 70
     1
 43
0.0
 10
80.50000000001091
 20
129.4999999999965
 10
139.5000000000109
 20
129.4999999999876
 10
139.5000000000109
 20
130.4999999999876
 10
80.50000000001091
 20
130.4999999999967
1001
GENIUS_GENREC_14
1002
{
1000
PYDIR
1011
259.0000000000109
1021
130.4999999999828
1031
0.0
1002
}
1002
{
1000
PXDIR
1011
201.000000000012
1021
129.4999999999828
1031
0.0
1002
}
1002
{
1000
PORI
1011
259.0000000000109
1021
129.4999999999828
1031
0.0
1002
}
1002
{
1000
PINS
1011
259.0000000000109
1021
129.4999999999828
1031
0.0
1002
}
1002
{
1000
PINS2
1011
201.000000000012
1021
130.4999999999828
1031
0.0
1002
}
1002
{
1000
C
1070
     1
1002
}
1001
GENIUS_GENODEF_13
1002
{
1000
HIER
1070
     0
1002
}
1002
{
1000
MANEDIT
1070
     0
1002
}
1002
{
1000
NOSEL
1070
     0
1002
}
1002
{
1000
BEHIND
1070
     0
1002
}
1002
{
1000
REACTOR
1002
}
1001
GENIUS_GENOBJ-N-REC_13
1002
{
1000
OWNER
1000
GEN
1002
}
  0
LWPOLYLINE
  5
917
330
1F
100
AcDbEntity
  8
10
100
AcDbPolyline
 90
        2
 70
     0
 43
0.0
 10
65.00000000000999
 20
131.49999999999
 10
65.00000000001091
 20
137.4999999999898
  0
LINE
  5
918
330
1F
100
AcDbEntity
  8
10
100
AcDbLine
 10
50.00000000001183
 20
140.7264973080863
 30
0.0
 11
55.00000000001183
 21
143.6132486540342
 31
0.0
1001
GENIUS_GENOREF_13
1005
0
1005
0
1005
0
  0
LWPOLYLINE
  5
919
330
1F
100
AcDbEntity
  8
10
100
AcDbPolyline
 90
        2
 70
     0
 43
0.0
 10
95.00000000001092
 20
131.4999999999828
 10
95.00000000001092
 20
137.4999999999828
  0
LINE
  5
91A
330
1F
100
AcDbEntity
  8
10
100
AcDbLine
 10
110.0000000000117
 20
140.7264973080863
 30
0.0
 11
115.0000000000117
 21
143.6132486540342
 31
0.0
  0
LINE
  5
91B
330
1F
100
AcDbEntity
  8
10
100
AcDbLine
 10
105.0000000000117
 20
143.6132486540343
 30
0.0
 11
110.0000000000117
 21
140.7264973080863
 31
0.0
  0
LWPOLYLINE
  5
91C
330
1F
100
AcDbEntity
  8
10
100
AcDbPolyline
 90
        2
 70
     0
 43
0.0
 10
125.0000000000109
 20
131.4999999999804
 10
125.0000000000109
 20
137.4999999999805
  0
LWPOLYLINE
  5
91D
330
1F
100
AcDbEntity
  8
10
100
AcDbPolyline
 90
        2
 70
     0
 43
0.0
 10
185.0000000000109
 20
137.4999999999828
 10
185.0000000000109
 20
130.4999999999828
  0
LINE
  5
91E
330
1F
100
AcDbEntity
  8
10
100
AcDbLine
 10
170.000000000012
 20
140.7264973080863
 30
0.0
 11
175.000000000012
 21
143.6132486540342
 31
0.0
  0
LINE
  5
91F
330
1F
100
AcDbEntity
  8
10
100
AcDbLine
 10
165.000000000012
 20
143.6132486540343
 30
0.0
 11
170.000000000012
 21
140.7264973080863
 31
0.0
  0
LWPOLYLINE
  5
920
330
1F
100
AcDbEntity
  8
10
100
AcDbPolyline
 90
        2
 70
     0
 43
0.0
 10
155.0000000000109
 20
131.4999999999828
 10
155.0000000000109
 20
137.4999999999828
  0
LINE
  5
921
330
1F
100
AcDbEntity
  8
10
100
AcDbLine
 10
385.9938519039586
 20
31.99999999996963
 30
0.0
 11
385.9938519039548
 21
2.499999999969645
 31
0.0
  0
LINE
  5
922
330
1F
100
AcDbEntity
  8
10
100
AcDbLine
 10
345.4938519039588
 20
35.24999999997078
 30
0.0
 11
345.4938519039548
 21
3.999999999977033
 31
0.0
  0
LINE
  5
923
330
1F
100
AcDbEntity
  8
10
100
AcDbLine
 10
382.4938519039596
 20
35.24999999996953
 30
0.0
 11
382.4938519039548
 21
3.999999999969531
 31
0.0
  0
LINE
  5
924
330
1F
100
AcDbEntity
  8
10
100
AcDbLine
 10
383.9938519039548
 20
3.999999999969531
 30
0.0
 11
383.9938519039596
 21
35.24999999996953
 31
0.0
  0
LINE
  5
925
330
1F
100
AcDbEntity
  8
10
100
AcDbLine
 10
383.9938519039548
 20
2.4999999999701
 30
0.0
 11
383.9938519039586
 21
27.99999999996964
 31
0.0
  0
LINE
  5
926
330
1F
100
AcDbEntity
  8
10
100
AcDbLine
 10
341.9938519039579
 20
31.99999999997078
 30
0.0
 11
341.9938519039547
 21
2.499999999978169
 31
0.0
  0
LINE
  5
927
330
1F
100
AcDbEntity
  8
10
100
AcDbLine
 10
343.9938519039548
 20
3.99999999997749
 30
0.0
 11
343.9938519039638
 21
35.24999999997078
 31
0.0
  0
LINE
  5
928
330
1F
100
AcDbEntity
  8
10
100
AcDbLine
 10
343.9938519039537
 20
2.499999999977716
 30
0.0
 11
343.9938519039579
 21
27.99999999997737
 31
0.0
  0
LINE
  5
929
330
1F
100
AcDbEntity
  8
10
100
AcDbLine
 10
341.4938519039548
 20
1.999999999978171
 30
0.0
 11
318.9938519039547
 21
1.999999999985789
 31
0.0
  0
LINE
  5
92A
330
1F
100
AcDbEntity
  8
10
100
AcDbLine
 10
318.9938519039538
 20
-0.0000000000143245
 30
0.0
 11
341.493851903954
 21
-0.0000000000218279
 31
0.0
  0
LINE
  5
92B
330
1F
100
AcDbEntity
  8
10
100
AcDbLine
 10
318.9938519039547
 20
1.999999999985789
 30
0.0
 11
318.9938519039538
 21
-0.0000000000143245
 31
0.0
  0
LINE
  5
92C
330
1F
100
AcDbEntity
  8
10
100
AcDbLine
 10
382.4938519039548
 20
3.999999999969531
 30
0.0
 11
362.9938519039501
 21
3.999999999972373
 31
0.0
  0
LINE
  5
92D
330
1F
100
AcDbEntity
  8
10
100
AcDbLine
 10
345.4938519039548
 20
3.999999999977033
 30
0.0
 11
362.9938519039501
 21
3.999999999972373
 31
0.0
  0
ARC
  5
92E
330
1F
100
AcDbEntity
  8
10
100
AcDbCircle
 10
341.4938519039548
 20
2.499999999978169
 30
0.0
 40
2.5
100
AcDbArc
 50
269.9999999999739
 51
359.9999999999933
1001
GENIUS_GENODEF_13
1002
{
1000
HIER
1070
     0
1002
}
1002
{
1000
MANEDIT
1070
     0
1002
}
1002
{
1000
NOSEL
1070
     0
1002
}
1002
{
1000
BEHIND
1070
     0
1002
}
1002
{
1000
REACTOR
1002
}
1001
GENIUS_GENOBJ-N-FIL_13
1002
{
1000
OWNER
1000
GEN
1002
}
  0
ARC
  5
92F
330
1F
100
AcDbEntity
  8
10
100
AcDbCircle
 10
341.4938519039548
 20
2.499999999978169
 30
0.0
 40
0.5
100
AcDbArc
 50
269.9999999999739
 51
359.9999999999933
1001
GENIUS_GENODEF_13
1002
{
1000
HIER
1070
     0
1002
}
1002
{
1000
MANEDIT
1070
     0
1002
}
1002
{
1000
NOSEL
1070
     0
1002
}
1002
{
1000
BEHIND
1070
     0
1002
}
1002
{
1000
REACTOR
1002
}
1001
GENIUS_GENOBJ-N-FIL_13
1002
{
1000
OWNER
1000
GEN
1002
}
  0
LWPOLYLINE
  5
930
330
1F
100
AcDbEntity
  8
12
 48
7.0
100
AcDbPolyline
 90
        2
 70
     0
 43
0.0
 10
329.4938519039558
 20
5.006917435245664
 10
329.4938519039547
 20
-1.69374381906334
  0
LINE
  5
931
330
1F
100
AcDbEntity
  8
10
100
AcDbLine
 10
345.4938519039548
 20
3.999999999977033
 30
0.0
 11
343.9938519039548
 21
3.99999999997749
 31
0.0
  0
LINE
  5
932
330
1F
100
AcDbEntity
  8
10
100
AcDbLine
 10
386.4938519039548
 20
1.999999999969531
 30
0.0
 11
408.9938519039558
 21
1.999999999969531
 31
0.0
  0
LINE
  5
933
330
1F
100
AcDbEntity
  8
10
100
AcDbLine
 10
408.9938519039548
 20
-0.0000000000304681
 30
0.0
 11
386.4938519039548
 21
-0.0000000000304681
 31
0.0
  0
LWPOLYLINE
  5
934
330
1F
100
AcDbEntity
  8
12
 48
7.0
100
AcDbPolyline
 90
        2
 70
     0
 43
0.0
 10
398.4938519039558
 20
5.006917435226792
 10
398.4938519039548
 20
-1.693743819082328
  0
LINE
  5
935
330
1F
100
AcDbEntity
  8
10
100
AcDbLine
 10
382.4938519039548
 20
3.999999999969531
 30
0.0
 11
383.9938519039548
 21
3.999999999969531
 31
0.0
  0
ARC
  5
936
330
1F
100
AcDbEntity
  8
10
100
AcDbCircle
 10
386.4938519039548
 20
2.499999999969529
 30
0.0
 40
2.5
100
AcDbArc
 50
179.9999999999869
 51
270.0
1001
GENIUS_GENODEF_13
1002
{
1000
HIER
1070
     0
1002
}
1002
{
1000
MANEDIT
1070
     0
1002
}
1002
{
1000
NOSEL
1070
     0
1002
}
1002
{
1000
BEHIND
1070
     0
1002
}
1002
{
1000
REACTOR
1002
}
1001
GENIUS_GENOBJ-N-FIL_13
1002
{
1000
OWNER
1000
GEN
1002
}
  0
ARC
  5
937
330
1F
100
AcDbEntity
  8
10
100
AcDbCircle
 10
386.4938519039548
 20
2.499999999969529
 30
0.0
 40
0.5
100
AcDbArc
 50
179.9999999999869
 51
270.0
1001
GENIUS_GENODEF_13
1002
{
1000
HIER
1070
     0
1002
}
1002
{
1000
MANEDIT
1070
     0
1002
}
1002
{
1000
NOSEL
1070
     0
1002
}
1002
{
1000
BEHIND
1070
     0
1002
}
1002
{
1000
REACTOR
1002
}
1001
GENIUS_GENOBJ-N-FIL_13
1002
{
1000
OWNER
1000
GEN
1002
}
  0
LINE
  5
938
330
1F
100
AcDbEntity
  8
10
100
AcDbLine
 10
408.9938519039558
 20
1.999999999969531
 30
0.0
 11
408.9938519039548
 21
-0.0000000000304681
 31
0.0
  0
LWPOLYLINE
  5
939
330
1F
100
AcDbEntity
  8
10
100
AcDbPolyline
 90
        2
 70
     0
 43
0.0
 10
398.4938519039729
 20
129.4999999999695
 10
398.4938519039596
 20
36.24999999996953
  0
LWPOLYLINE
  5
93A
330
1F
100
AcDbEntity
  8
10
100
AcDbPolyline
 90
        2
 70
     0
 43
0.0
 10
329.4938519039579
 20
36.24999999997088
 10
329.4938519039751
 20
129.4999999999705
  0
LWPOLYLINE
  5
93B
330
1F
100
AcDbEntity
  8
10
100
AcDbPolyline
 90
        2
 70
     0
 43
0.0
 10
382.4938519039596
 20
33.99999999996953
 10
345.4938519039588
 20
33.99999999997088
  0
LWPOLYLINE
  5
93C
330
1F
100
AcDbEntity
  8
10
100
AcDbPolyline
 90
        2
 70
     0
 43
0.0
 10
345.4938519039588
 20
34.99999999997088
 10
382.4938519039596
 20
34.99999999996964
  0
LWPOLYLINE
  5
93D
330
1F
100
AcDbEntity
  8
10
100
AcDbPolyline
 90
        4
 70
     1
 43
0.0
 10
329.4938519039579
 20
36.24999999997088
 10
398.4938519039586
 20
36.24999999996953
 10
398.4938519039586
 20
35.24999999996953
 10
329.4938519039579
 20
35.24999999997078
1001
GENIUS_GENREC_14
1002
{
1000
PYDIR
1011
329.4938519039579
1021
35.24999999997078
1031
0.0
1002
}
1002
{
1000
PXDIR
1011
398.4938519039586
1021
36.24999999996953
1031
0.0
1002
}
1002
{
1000
PORI
1011
329.4938519039579
1021
36.24999999997088
1031
0.0
1002
}
1002
{
1000
PINS
1011
329.4938519039579
1021
36.24999999997088
1031
0.0
1002
}
1002
{
1000
PINS2
1011
398.4938519039586
1021
35.24999999996953
1031
0.0
1002
}
1002
{
1000
C
1070
     1
1002
}
1001
GENIUS_GENODEF_13
1002
{
1000
HIER
1070
     0
1002
}
1002
{
1000
MANEDIT
1070
     0
1002
}
1002
{
1000
NOSEL
1070
     0
1002
}
1002
{
1000
BEHIND
1070
     0
1002
}
1002
{
1000
REACTOR
1002
}
1001
GENIUS_GENOBJ-N-REC_13
1002
{
1000
OWNER
1000
GEN
1002
}
  0
LINE
  5
93E
330
1F
100
AcDbEntity
  8
10
100
AcDbLine
 10
338.7938519039598
 20
13.99999999997715
 30
0.0
 11
338.7938519039598
 21
23.99999999997715
 31
0.0
  0
LINE
  5
93F
330
1F
100
AcDbEntity
  8
10
100
AcDbLine
 10
338.7938519039598
 20
23.99999999997715
 30
0.0
 11
338.7938519039598
 21
13.99999999997715
 31
0.0
  0
ARC
  5
940
330
1F
100
AcDbEntity
  8
10
100
AcDbCircle
 10
336.240895732548
 20
23.3312499999763
 30
0.0
 40
2.55295617141175
100
AcDbArc
 50
325.5615305952427
 51
25.56153059552622
  0
LINE
  5
941
330
1F
100
AcDbEntity
  8
10
100
AcDbLine
 10
333.5938519039598
 20
13.99999999997715
 30
0.0
 11
333.5938519039598
 21
23.99999999997715
 31
0.0
  0
ARC
  5
942
330
1F
100
AcDbEntity
  8
10
100
AcDbCircle
 10
336.1468080753748
 20
23.3312499999773
 30
0.0
 40
2.552956171414872
100
AcDbArc
 50
154.4384694047301
 51
214.4384694047219
  0
LINE
  5
943
330
1F
100
AcDbEntity
  8
10
100
AcDbLine
 10
340.3938519039598
 20
12.74999999997725
 30
0.0
 11
340.3938519039598
 21
25.24999999997726
 31
0.0
  0
LINE
  5
944
330
1F
100
AcDbEntity
  8
10
100
AcDbLine
 10
340.3938519039598
 20
25.24999999997726
 30
0.0
 11
340.3938519039598
 21
12.74999999997725
 31
0.0
  0
LINE
  5
945
330
1F
100
AcDbEntity
  8
10
100
AcDbLine
 10
341.9938519039597
 20
12.74999999997725
 30
0.0
 11
341.9938519039597
 21
25.24999999997726
 31
0.0
  0
ARC
  5
946
330
1F
100
AcDbEntity
  8
10
100
AcDbCircle
 10
329.2531969063308
 20
18.99999999997726
 30
0.0
 40
9.540654997629703
100
AcDbArc
 50
342.3830311594315
 51
17.61696884056835
  0
LINE
  5
947
330
1F
100
AcDbEntity
  8
10
100
AcDbLine
 10
333.5938519039598
 20
15.99999999997715
 30
0.0
 11
330.3073519039538
 21
15.99999999997715
 31
0.0
  0
LINE
  5
948
330
1F
100
AcDbEntity
  8
10
100
AcDbLine
 10
333.5938519039598
 20
21.99999999997714
 30
0.0
 11
330.3073519039538
 21
21.99999999997714
 31
0.0
  0
LINE
  5
949
330
1F
100
AcDbEntity
  8
10
100
AcDbLine
 10
330.3073519039538
 20
15.99999999997715
 30
0.0
 11
329.6938519039549
 21
16.61344999997732
 31
0.0
  0
LINE
  5
94A
330
1F
100
AcDbEntity
  8
10
100
AcDbLine
 10
329.6938519039549
 20
21.38654999997732
 30
0.0
 11
329.6938519039549
 21
16.61344999997732
 31
0.0
  0
LINE
  5
94B
330
1F
100
AcDbEntity
  8
10
100
AcDbLine
 10
329.6938519039549
 20
21.38654999997732
 30
0.0
 11
330.3073519039538
 21
21.99999999997714
 31
0.0
  0
ARC
  5
94C
330
1F
100
AcDbEntity
  8
10
100
AcDbCircle
 10
343.1345069015897
 20
18.99999999997726
 30
0.0
 40
9.540654997629626
100
AcDbArc
 50
162.3830311594316
 51
197.6169688405683
  0
LINE
  5
94D
330
1F
100
AcDbEntity
  8
10
100
AcDbLine
 10
338.3464054453379
 20
16.11249999997733
 30
0.0
 11
334.041298362582
 21
16.11249999997733
 31
0.0
  0
LINE
  5
94E
330
1F
100
AcDbEntity
  8
10
100
AcDbLine
 10
338.3464054453379
 20
21.8874999999773
 30
0.0
 11
334.041298362582
 21
21.8874999999773
 31
0.0
  0
LINE
  5
94F
330
1F
100
AcDbEntity
  8
10
100
AcDbLine
 10
340.3938519039598
 20
12.74999999997725
 30
0.0
 11
341.9938519039597
 21
12.74999999997725
 31
0.0
  0
LINE
  5
950
330
1F
100
AcDbEntity
  8
10
100
AcDbLine
 10
338.7938519039598
 20
12.74999999997725
 30
0.0
 11
340.3938519039598
 21
12.74999999997725
 31
0.0
  0
LINE
  5
951
330
1F
100
AcDbEntity
  8
10
100
AcDbLine
 10
338.3464054453379
 20
13.22499999997717
 30
0.0
 11
334.041298362582
 21
13.22499999997717
 31
0.0
  0
ARC
  5
952
330
1F
100
AcDbEntity
  8
10
100
AcDbCircle
 10
336.1468080753718
 20
14.6687499999773
 30
0.0
 40
2.55295617141175
100
AcDbArc
 50
145.561530595231
 51
205.5615305953919
  0
ARC
  5
953
330
1F
100
AcDbEntity
  8
10
100
AcDbCircle
 10
336.240895732548
 20
14.6687499999773
 30
0.0
 40
2.55295617141175
100
AcDbArc
 50
334.4384694046077
 51
34.4384694047625
  0
LINE
  5
954
330
1F
100
AcDbEntity
  8
10
100
AcDbLine
 10
334.041298362582
 20
13.22499999997717
 30
0.0
 11
333.5938519039598
 21
13.99999999997715
 31
0.0
  0
LINE
  5
955
330
1F
100
AcDbEntity
  8
10
100
AcDbLine
 10
338.3464054453379
 20
13.22499999997717
 30
0.0
 11
338.7938519039598
 21
13.99999999997715
 31
0.0
  0
LINE
  5
956
330
1F
100
AcDbEntity
  8
10
100
AcDbLine
 10
338.7938519039598
 20
13.99999999997715
 30
0.0
 11
338.7938519039598
 21
12.74999999997725
 31
0.0
  0
LINE
  5
957
330
1F
100
AcDbEntity
  8
10
100
AcDbLine
 10
343.9938519039626
 20
31.99999999997078
 30
0.0
 11
341.9938519039579
 21
31.99999999997078
 31
0.0
  0
LINE
  5
958
330
1F
100
AcDbEntity
  8
10
100
AcDbLine
 10
341.9938519039597
 20
25.24999999997726
 30
0.0
 11
340.3938519039598
 21
25.24999999997726
 31
0.0
  0
LINE
  5
959
330
1F
100
AcDbEntity
  8
10
100
AcDbLine
 10
338.3464054453379
 20
24.77499999997724
 30
0.0
 11
338.7938519039598
 21
23.99999999997715
 31
0.0
  0
LINE
  5
95A
330
1F
100
AcDbEntity
  8
10
100
AcDbLine
 10
338.7938519039598
 20
25.24999999997726
 30
0.0
 11
338.7938519039598
 21
23.99999999997715
 31
0.0
  0
LINE
  5
95B
330
1F
100
AcDbEntity
  8
10
100
AcDbLine
 10
340.3938519039598
 20
25.24999999997726
 30
0.0
 11
338.7938519039598
 21
25.24999999997726
 31
0.0
  0
LINE
  5
95C
330
1F
100
AcDbEntity
  8
10
100
AcDbLine
 10
334.041298362582
 20
24.77499999997724
 30
0.0
 11
333.5938519039598
 21
23.99999999997715
 31
0.0
  0
LINE
  5
95D
330
1F
100
AcDbEntity
  8
10
100
AcDbLine
 10
338.3464054453379
 20
24.77499999997724
 30
0.0
 11
334.041298362582
 21
24.77499999997724
 31
0.0
  0
LINE
  5
95E
330
1F
100
AcDbEntity
  8
10
100
AcDbLine
 10
393.1938519039526
 20
13.99999999997817
 30
0.0
 11
393.1938519039526
 21
23.99999999997817
 31
0.0
  0
LINE
  5
95F
330
1F
100
AcDbEntity
  8
10
100
AcDbLine
 10
389.6938519039526
 20
24.77499999997814
 30
0.0
 11
389.6938519039526
 21
23.4399999999781
 31
0.0
  0
ARC
  5
960
330
1F
100
AcDbEntity
  8
10
100
AcDbCircle
 10
390.6421033956508
 20
23.33162432700408
 30
0.0
 40
2.551748508301399
100
AcDbArc
 50
325.5531276177292
 51
25.55312761773046
  0
LINE
  5
961
330
1F
100
AcDbEntity
  8
10
100
AcDbLine
 10
387.5938519039527
 20
25.24999999997817
 30
0.0
 11
387.5938519039527
 21
12.74999999997817
 31
0.0
  0
LINE
  5
962
330
1F
100
AcDbEntity
  8
10
100
AcDbLine
 10
389.1938519039527
 20
12.74999999997817
 30
0.0
 11
389.1938519039527
 21
25.24999999997817
 31
0.0
  0
LINE
  5
963
330
1F
100
AcDbEntity
  8
10
100
AcDbLine
 10
385.9938519039528
 20
25.24999999997817
 30
0.0
 11
385.9938519039528
 21
12.74999999997817
 31
0.0
  0
LINE
  5
964
330
1F
100
AcDbEntity
  8
10
100
AcDbLine
 10
387.5938519039527
 20
12.74999999997817
 30
0.0
 11
387.5938519039527
 21
25.24999999997817
 31
0.0
  0
ARC
  5
965
330
1F
100
AcDbEntity
  8
10
100
AcDbCircle
 10
383.6483650011468
 20
18.99999999997817
 30
0.0
 40
9.545486902806104
100
AcDbArc
 50
342.387526014476
 51
17.61247398552393
  0
LINE
  5
966
330
1F
100
AcDbEntity
  8
10
100
AcDbLine
 10
389.1938519039527
 20
14.55999999997811
 30
0.0
 11
389.1938519039527
 21
15.99999999997817
 31
0.0
  0
LINE
  5
967
330
1F
100
AcDbEntity
  8
10
100
AcDbLine
 10
389.6938519039526
 20
23.4399999999781
 30
0.0
 11
389.6938519039526
 21
14.55999999997811
 31
0.0
  0
LINE
  5
968
330
1F
100
AcDbEntity
  8
10
100
AcDbLine
 10
389.6938519039526
 20
14.55999999997811
 30
0.0
 11
389.1938519039527
 21
14.55999999997811
 31
0.0
  0
LINE
  5
969
330
1F
100
AcDbEntity
  8
10
100
AcDbLine
 10
389.6938519039526
 20
23.4399999999781
 30
0.0
 11
389.1938519039527
 21
23.4399999999781
 31
0.0
  0
LINE
  5
96A
330
1F
100
AcDbEntity
  8
10
100
AcDbLine
 10
389.1938519039527
 20
21.99999999997817
 30
0.0
 11
389.1938519039527
 21
23.4399999999781
 31
0.0
  0
LINE
  5
96B
330
1F
100
AcDbEntity
  8
10
100
AcDbLine
 10
389.1938519039527
 20
15.99999999997817
 30
0.0
 11
389.1938519039527
 21
21.99999999997817
 31
0.0
  0
LINE
  5
96C
330
1F
100
AcDbEntity
  8
10
100
AcDbLine
 10
392.7464054453309
 20
16.11175134592621
 30
0.0
 11
389.6938519039526
 21
16.11175134592621
 31
0.0
  0
LINE
  5
96D
330
1F
100
AcDbEntity
  8
10
100
AcDbLine
 10
392.7464054453309
 20
21.88824865402998
 30
0.0
 11
389.6938519039526
 21
21.88824865402998
 31
0.0
  0
LINE
  5
96E
330
1F
100
AcDbEntity
  8
10
100
AcDbLine
 10
387.5938519039527
 20
12.74999999997817
 30
0.0
 11
389.1938519039527
 21
12.74999999997817
 31
0.0
  0
LINE
  5
96F
330
1F
100
AcDbEntity
  8
10
100
AcDbLine
 10
385.9938519039528
 20
12.74999999997817
 30
0.0
 11
387.5938519039527
 21
12.74999999997817
 31
0.0
  0
LINE
  5
970
330
1F
100
AcDbEntity
  8
10
100
AcDbLine
 10
392.7464054453309
 20
13.22499999997807
 30
0.0
 11
389.6938519039526
 21
13.22499999997807
 31
0.0
  0
ARC
  5
971
330
1F
100
AcDbEntity
  8
10
100
AcDbCircle
 10
390.6421033956508
 20
14.66837567295215
 30
0.0
 40
2.551748508301399
100
AcDbArc
 50
334.4468723822695
 51
34.44687238227069
  0
LINE
  5
972
330
1F
100
AcDbEntity
  8
10
100
AcDbLine
 10
392.7464054453309
 20
13.22499999997807
 30
0.0
 11
393.1938519039526
 21
13.99999999997817
 31
0.0
  0
LINE
  5
973
330
1F
100
AcDbEntity
  8
10
100
AcDbLine
 10
389.6938519039526
 20
14.55999999997811
 30
0.0
 11
389.6938519039526
 21
13.22499999997807
 31
0.0
  0
LINE
  5
974
330
1F
100
AcDbEntity
  8
10
100
AcDbLine
 10
392.7464054453309
 20
24.77499999997814
 30
0.0
 11
393.1938519039526
 21
23.99999999997817
 31
0.0
  0
LINE
  5
975
330
1F
100
AcDbEntity
  8
10
100
AcDbLine
 10
389.1938519039527
 20
25.24999999997817
 30
0.0
 11
387.5938519039527
 21
25.24999999997817
 31
0.0
  0
LINE
  5
976
330
1F
100
AcDbEntity
  8
10
100
AcDbLine
 10
387.5938519039527
 20
25.24999999997817
 30
0.0
 11
385.9938519039528
 21
25.24999999997817
 31
0.0
  0
LINE
  5
977
330
1F
100
AcDbEntity
  8
10
100
AcDbLine
 10
392.7464054453309
 20
24.77499999997814
 30
0.0
 11
389.6938519039526
 21
24.77499999997814
 31
0.0
  0
LINE
  5
978
330
1F
100
AcDbEntity
  8
10
100
AcDbLine
 10
383.9938519039586
 20
31.99999999996963
 30
0.0
 11
385.9938519039586
 21
31.99999999996963
 31
0.0
  0
LWPOLYLINE
  5
979
330
1F
100
AcDbEntity
  8
10
100
AcDbPolyline
 90
        2
 70
     0
 43
0.0
 10
345.4938519039751
 20
131.4999999999705
 10
382.4938519039736
 20
131.4999999999695
  0
LWPOLYLINE
  5
97A
330
1F
100
AcDbEntity
  8
10
100
AcDbPolyline
 90
        2
 70
     0
 43
0.0
 10
382.4938519039727
 20
130.7499999999695
 10
345.4938519039751
 20
130.7499999999703
  0
LWPOLYLINE
  5
97B
330
1F
100
AcDbEntity
  8
10
100
AcDbPolyline
 90
        4
 70
     1
 43
0.0
 10
398.4938519039729
 20
129.4999999999695
 10
329.4938519039751
 20
129.4999999999705
 10
329.4938519039751
 20
130.4999999999705
 10
398.4938519039729
 20
130.4999999999695
1001
GENIUS_GENREC_14
1002
{
1000
PYDIR
1011
398.4938519039729
1021
130.4999999999695
1031
0.0
1002
}
1002
{
1000
PXDIR
1011
329.4938519039751
1021
129.4999999999705
1031
0.0
1002
}
1002
{
1000
PORI
1011
398.4938519039729
1021
129.4999999999695
1031
0.0
1002
}
1002
{
1000
PINS
1011
398.4938519039729
1021
129.4999999999695
1031
0.0
1002
}
1002
{
1000
PINS2
1011
329.4938519039751
1021
130.4999999999705
1031
0.0
1002
}
1002
{
1000
C
1070
     1
1002
}
1001
GENIUS_GENODEF_13
1002
{
1000
HIER
1070
     0
1002
}
1002
{
1000
MANEDIT
1070
     0
1002
}
1002
{
1000
NOSEL
1070
     0
1002
}
1002
{
1000
BEHIND
1070
     0
1002
}
1002
{
1000
REACTOR
1002
}
1001
GENIUS_GENOBJ-N-REC_13
1002
{
1000
OWNER
1000
GEN
1002
}
  0
ARC
  5
97C
330
1F
100
AcDbEntity
  8
10
100
AcDbCircle
 10
336.2408957325698
 20
142.1687499999769
 30
0.0
 40
2.55295617141175
100
AcDbArc
 50
334.4384694046077
 51
34.4384694047625
1001
GENIUS_GENOREF_13
1005
0
1005
0
  0
LINE
  5
97D
330
1F
100
AcDbEntity
  8
10
100
AcDbLine
 10
333.5938519039807
 20
143.499999999977
 30
0.0
 11
330.3073519039758
 21
143.499999999977
 31
0.0
1001
GENIUS_GENOREF_13
1005
0
1005
0
1005
0
1005
0
1005
0
1005
0
1005
0
1005
0
  0
LINE
  5
97E
330
1F
100
AcDbEntity
  8
10
100
AcDbLine
 10
330.3073519039758
 20
143.499999999977
 30
0.0
 11
329.6938519039759
 21
144.1134499999771
 31
0.0
1001
GENIUS_GENOREF_13
1005
0
1005
0
1005
0
1005
0
1005
0
1005
0
1005
0
1005
0
  0
ARC
  5
97F
330
1F
100
AcDbEntity
  8
10
100
AcDbCircle
 10
336.146808075393
 20
142.1687499999769
 30
0.0
 40
2.55295617141175
100
AcDbArc
 50
145.561530595231
 51
205.5615305953919
1001
GENIUS_GENOREF_13
1005
0
1005
0
  0
LINE
  5
980
330
1F
100
AcDbEntity
  8
10
100
AcDbLine
 10
338.3464054453586
 20
143.6124999999771
 30
0.0
 11
334.0412983626029
 21
143.6124999999771
 31
0.0
1001
GENIUS_GENOREF_13
1005
0
1005
0
  0
LINE
  5
981
330
1F
100
AcDbEntity
  8
10
100
AcDbLine
 10
343.993851903976
 20
137.4999999999703
 30
0.0
 11
341.9938519039808
 21
137.4999999999703
 31
0.0
  0
LINE
  5
982
330
1F
100
AcDbEntity
  8
10
100
AcDbLine
 10
340.3938519039828
 20
140.2499999999772
 30
0.0
 11
341.9938519039808
 21
140.2499999999772
 31
0.0
1001
GENIUS_GENOREF_13
1005
0
1005
0
1005
0
1005
0
  0
LINE
  5
983
330
1F
100
AcDbEntity
  8
10
100
AcDbLine
 10
338.7938519039817
 20
140.2499999999772
 30
0.0
 11
340.3938519039828
 21
140.2499999999772
 31
0.0
1001
GENIUS_GENOREF_13
1005
0
1005
0
1005
0
  0
LINE
  5
984
330
1F
100
AcDbEntity
  8
10
100
AcDbLine
 10
338.3464054453586
 20
140.7249999999771
 30
0.0
 11
334.0412983626029
 21
140.7249999999771
 31
0.0
1001
GENIUS_GENOREF_13
1005
0
1005
0
  0
LINE
  5
985
330
1F
100
AcDbEntity
  8
10
100
AcDbLine
 10
334.0412983626029
 20
140.7249999999771
 30
0.0
 11
333.5938519039807
 21
141.4999999999768
 31
0.0
1001
GENIUS_GENOREF_13
1005
0
1005
0
  0
LINE
  5
986
330
1F
100
AcDbEntity
  8
10
100
AcDbLine
 10
338.7938519039817
 20
141.4999999999768
 30
0.0
 11
338.7938519039817
 21
140.2499999999772
 31
0.0
1001
GENIUS_GENOREF_13
1005
0
1005
0
1005
0
  0
LINE
  5
987
330
1F
100
AcDbEntity
  8
10
100
AcDbLine
 10
338.3464054453586
 20
140.7249999999771
 30
0.0
 11
338.7938519039817
 21
141.4999999999768
 31
0.0
1001
GENIUS_GENOREF_13
1005
0
1005
0
  0
ARC
  5
988
330
1F
100
AcDbEntity
  8
10
100
AcDbCircle
 10
390.6421033956729
 20
142.1683756729521
 30
0.0
 40
2.551748508301399
100
AcDbArc
 50
334.4468723822695
 51
34.44687238227069
1001
GENIUS_GENOREF_13
1005
0
1005
0
1005
0
1005
0
1005
0
1005
0
1005
0
1005
0
  0
LINE
  5
989
330
1F
100
AcDbEntity
  8
10
100
AcDbLine
 10
389.6938519039738
 20
142.059999999978
 30
0.0
 11
389.1938519039738
 21
142.059999999978
 31
0.0
1001
GENIUS_GENOREF_13
1005
0
1005
0
1005
0
1005
0
1005
0
1005
0
1005
0
1005
0
  0
LINE
  5
98A
330
1F
100
AcDbEntity
  8
10
100
AcDbLine
 10
389.1938519039738
 20
142.059999999978
 30
0.0
 11
389.1938519039738
 21
143.499999999978
 31
0.0
1001
GENIUS_GENOREF_13
1005
0
1005
0
1005
0
1005
0
1005
0
1005
0
1005
0
1005
0
  0
LINE
  5
98B
330
1F
100
AcDbEntity
  8
10
100
AcDbLine
 10
392.7464054453526
 20
143.6117513459263
 30
0.0
 11
389.6938519039738
 21
143.6117513459263
 31
0.0
1001
GENIUS_GENOREF_13
1005
0
1005
0
1005
0
1005
0
1005
0
1005
0
1005
0
1005
0
  0
LINE
  5
98C
330
1F
100
AcDbEntity
  8
10
100
AcDbLine
 10
387.5938519039738
 20
140.2499999999782
 30
0.0
 11
389.1938519039738
 21
140.2499999999782
 31
0.0
1001
GENIUS_GENOREF_13
1005
0
1005
0
1005
0
1005
0
1005
0
1005
0
  0
LINE
  5
98D
330
1F
100
AcDbEntity
  8
10
100
AcDbLine
 10
385.9938519039737
 20
140.2499999999782
 30
0.0
 11
387.5938519039738
 21
140.2499999999782
 31
0.0
1001
GENIUS_GENOREF_13
1005
0
1005
0
1005
0
1005
0
1005
0
  0
LINE
  5
98E
330
1F
100
AcDbEntity
  8
10
100
AcDbLine
 10
392.7464054453526
 20
140.7249999999783
 30
0.0
 11
389.6938519039738
 21
140.7249999999783
 31
0.0
1001
GENIUS_GENOREF_13
1005
0
1005
0
1005
0
1005
0
1005
0
1005
0
1005
0
1005
0
  0
LINE
  5
98F
330
1F
100
AcDbEntity
  8
10
100
AcDbLine
 10
392.7464054453526
 20
140.7249999999783
 30
0.0
 11
393.1938519039738
 21
141.4999999999779
 31
0.0
1001
GENIUS_GENOREF_13
1005
0
1005
0
1005
0
1005
0
1005
0
1005
0
1005
0
1005
0
  0
LINE
  5
990
330
1F
100
AcDbEntity
  8
10
100
AcDbLine
 10
389.6938519039738
 20
142.059999999978
 30
0.0
 11
389.6938519039738
 21
140.7249999999783
 31
0.0
1001
GENIUS_GENOREF_13
1005
0
1005
0
1005
0
1005
0
1005
0
1005
0
1005
0
1005
0
  0
LINE
  5
991
330
1F
100
AcDbEntity
  8
10
100
AcDbLine
 10
385.9938519039737
 20
137.4999999999695
 30
0.0
 11
383.9938519039778
 21
137.4999999999695
 31
0.0
1001
GENIUS_GENREC_14
1002
{
1000
PYDIR
1011
385.9938519039737
1021
161.4999999999695
1031
0.0
1002
}
1002
{
1000
PXDIR
1011
383.9938519039778
1021
137.4999999999695
1031
0.0
1002
}
1002
{
1000
PORI
1011
385.9938519039737
1021
137.4999999999695
1031
0.0
1002
}
1002
{
1000
PINS
1011
385.9938519039737
1021
137.4999999999695
1031
0.0
1002
}
1002
{
1000
PINS2
1011
383.9938519039778
1021
161.4999999999695
1031
0.0
1002
}
1002
{
1000
C
1070
     1
1002
}
1001
GENIUS_GENODEF_13
1002
{
1000
HIER
1070
     0
1002
}
1002
{
1000
MANEDIT
1070
     0
1002
}
1002
{
1000
NOSEL
1070
     0
1002
}
1002
{
1000
BEHIND
1070
     0
1002
}
1002
{
1000
REACTOR
1002
}
1001
GENIUS_GENOBJ-N-REC_13
1002
{
1000
OWNER
1000
GEN
1002
}
  0
LINE
  5
992
330
1F
100
AcDbEntity
  8
10
100
AcDbLine
 10
50.00000000001183
 20
152.2735026918785
 30
0.0
 11
45.00000000001182
 21
149.3867513459306
 31
0.0
1001
GENIUS_GENOREF_13
1005
0
1005
0
1005
0
  0
LINE
  5
993
330
1F
100
AcDbEntity
  8
10
100
AcDbLine
 10
55.00000000001183
 20
149.3867513459306
 30
0.0
 11
50.00000000001183
 21
152.2735026918785
 31
0.0
1001
GENIUS_GENOREF_13
1005
0
1005
0
1005
0
  0
LINE
  5
994
330
1F
100
AcDbEntity
  8
10
100
AcDbLine
 10
110.0000000000117
 20
152.2735026918785
 30
0.0
 11
105.0000000000117
 21
149.3867513459306
 31
0.0
  0
LINE
  5
995
330
1F
100
AcDbEntity
  8
10
100
AcDbLine
 10
115.0000000000117
 20
149.3867513459306
 30
0.0
 11
110.0000000000117
 21
152.2735026918785
 31
0.0
  0
LINE
  5
996
330
1F
100
AcDbEntity
  8
10
100
AcDbLine
 10
175.000000000012
 20
149.3867513459306
 30
0.0
 11
170.000000000012
 21
152.2735026918785
 31
0.0
  0
LINE
  5
997
330
1F
100
AcDbEntity
  8
10
100
AcDbLine
 10
170.000000000012
 20
152.2735026918785
 30
0.0
 11
165.000000000012
 21
149.3867513459306
 31
0.0
  0
LWPOLYLINE
  5
998
330
1F
100
AcDbEntity
  8
10
100
AcDbPolyline
 90
        4
 70
     0
 43
0.0
 10
336.4938519039808
 20
197.4999999999719
 10
318.9938519039808
 20
197.4999999999719
 10
318.9938519039808
 20
197.9999999999719
 10
336.4938519039808
 20
197.9999999999719
  0
LINE
  5
999
330
1F
100
AcDbEntity
  8
10
100
AcDbLine
 10
372.4938519039807
 20
197.9999999999719
 30
0.0
 11
361.4938519039808
 21
197.9999999999719
 31
0.0
  0
LWPOLYLINE
  5
99A
330
1F
100
AcDbEntity
  8
10
100
AcDbPolyline
 90
        3
 70
     0
 43
0.0
 10
372.4938519039807
 20
199.999999999972
 10
372.4938519039807
 20
197.4999999999719
 10
361.4938519039808
 20
197.4999999999719
  0
LWPOLYLINE
  5
99B
330
1F
100
AcDbEntity
  8
10
100
AcDbPolyline
 90
        4
 70
     0
 43
0.0
 10
356.9938519039808
 20
169.499999999972
 10
371.9938519039807
 20
169.499999999972
 10
371.9938519039807
 20
177.499999999972
 10
356.9938519039808
 20
177.499999999972
  0
LINE
  5
99C
330
1F
100
AcDbEntity
  8
10
100
AcDbLine
 10
352.4938519039807
 20
177.499999999972
 30
0.0
 11
352.4938519039807
 21
169.499999999972
 31
0.0
  0
LINE
  5
99D
330
1F
100
AcDbEntity
  8
10
100
AcDbLine
 10
361.4938519039808
 20
177.499999999972
 30
0.0
 11
361.4938519039808
 21
169.499999999972
 31
0.0
  0
LWPOLYLINE
  5
99E
330
1F
100
AcDbEntity
  8
10
100
AcDbPolyline
 90
        4
 70
     0
 43
0.0
 10
356.9938519039808
 20
169.499999999972
 10
341.9938519039808
 20
169.499999999972
 10
341.9938519039808
 20
177.499999999972
 10
356.9938519039808
 20
177.499999999972
  0
LINE
  5
99F
330
1F
100
AcDbEntity
  8
10
100
AcDbLine
 10
341.4938519039808
 20
197.9999999999719
 30
0.0
 11
352.4938519039807
 21
197.9999999999719
 31
0.0
  0
LWPOLYLINE
  5
9A0
330
1F
100
AcDbEntity
  8
10
100
AcDbPolyline
 90
        3
 70
     0
 43
0.0
 10
341.4938519039808
 20
199.999999999972
 10
341.4938519039808
 20
197.4999999999719
 10
352.4938519039807
 20
197.4999999999719
  0
LWPOLYLINE
  5
9A1
330
1F
100
AcDbEntity
  8
10
100
AcDbPolyline
 90
        4
 70
     0
 43
0.0
 10
336.4938519039808
 20
197.9999999999719
 10
336.4938519039808
 20
179.499999999972
 10
341.9938519039808
 20
179.499999999972
 10
341.9938519039808
 20
177.499999999972
  0
ARC
  5
9A2
330
1F
100
AcDbEntity
  8
10
100
AcDbCircle
 10
338.4938519039808
 20
197.9999999999719
 30
0.0
 40
2.0
100
AcDbArc
 50
90.0
 51
180.0
  0
LINE
  5
9A3
330
1F
100
AcDbEntity
  8
10
100
AcDbLine
 10
341.4938519039808
 20
199.999999999972
 30
0.0
 11
338.4938519039808
 21
199.999999999972
 31
0.0
  0
LWPOLYLINE
  5
9A4
330
1F
100
AcDbEntity
  8
10
100
AcDbPolyline
 90
        4
 70
     0
 43
0.0
 10
356.9938519039808
 20
199.999999999972
 10
361.4938519039808
 20
199.999999999972
 10
361.4938519039808
 20
189.999999999972
 10
356.9938519039808
 20
189.999999999972
  0
LWPOLYLINE
  5
9A5
330
1F
100
AcDbEntity
  8
10
100
AcDbPolyline
 90
        4
 70
     0
 43
0.0
 10
356.9938519039808
 20
199.999999999972
 10
352.4938519039807
 20
199.999999999972
 10
352.4938519039807
 20
189.999999999972
 10
356.9938519039808
 20
189.999999999972
  0
LWPOLYLINE
  5
9A6
330
1F
100
AcDbEntity
  8
10
100
AcDbPolyline
 90
        4
 70
     0
 43
0.0
 10
377.4938519039807
 20
197.4999999999719
 10
398.6438519039808
 20
197.4999999999719
 10
398.6438519039808
 20
197.9999999999719
 10
377.4938519039807
 20
197.9999999999719
  0
LWPOLYLINE
  5
9A7
330
1F
100
AcDbEntity
  8
10
100
AcDbPolyline
 90
        4
 70
     0
 43
0.0
 10
377.4938519039807
 20
197.9999999999719
 10
377.4938519039807
 20
179.499999999972
 10
371.9938519039807
 20
179.499999999972
 10
371.9938519039807
 20
177.499999999972
  0
LINE
  5
9A8
330
1F
100
AcDbEntity
  8
10
100
AcDbLine
 10
372.4938519039807
 20
199.999999999972
 30
0.0
 11
375.4938519039807
 21
199.999999999972
 31
0.0
  0
ARC
  5
9A9
330
1F
100
AcDbEntity
  8
10
100
AcDbCircle
 10
375.4938519039807
 20
197.9999999999719
 30
0.0
 40
2.0
100
AcDbArc
 50
0.0
 51
90.0
  0
ARC
  5
9AA
330
1F
100
AcDbEntity
  8
10
100
AcDbCircle
 10
362.6804084486219
 20
180.2194883237035
 30
0.0
 40
1.6
100
AcDbArc
 50
118.1727341318724
 51
174.9999999999999
1001
GENIUS_GENOREF_13
1005
0
1005
0
1005
0
1005
0
1005
0
  0
ARC
  5
9AB
330
1F
100
AcDbEntity
  8
10
100
AcDbCircle
 10
367.3072953593409
 20
180.2194883237035
 30
0.0
 40
1.6
100
AcDbArc
 50
5.000000000000026
 51
61.82726586812755
1001
GENIUS_GENOREF_13
1005
0
1005
0
1005
0
1005
0
1005
0
  0
LINE
  5
9AC
330
1F
100
AcDbEntity
  8
10
100
AcDbLine
 10
363.9938519039807
 20
161.4999999999703
 30
0.0
 11
382.493851903979
 21
161.4999999999695
 31
0.0
  0
LINE
  5
9AD
330
1F
100
AcDbEntity
  8
10
100
AcDbLine
 10
363.9938519039807
 20
161.4999999999703
 30
0.0
 11
345.4938519039778
 21
161.4999999999765
 31
0.0
  0
LINE
  5
9AE
330
1F
100
AcDbEntity
  8
10
100
AcDbLine
 10
341.9938519039808
 20
152.7499999999768
 30
0.0
 11
340.3938519039828
 21
152.7499999999768
 31
0.0
1001
GENIUS_GENOREF_13
1005
0
1005
0
1005
0
1005
0
  0
LINE
  5
9AF
330
1F
100
AcDbEntity
  8
10
100
AcDbLine
 10
338.7938519039817
 20
152.7499999999768
 30
0.0
 11
338.7938519039817
 21
151.499999999977
 31
0.0
1001
GENIUS_GENOREF_13
1005
0
1005
0
1005
0
  0
LINE
  5
9B0
330
1F
100
AcDbEntity
  8
10
100
AcDbLine
 10
338.3464054453586
 20
152.2749999999771
 30
0.0
 11
338.7938519039817
 21
151.499999999977
 31
0.0
1001
GENIUS_GENOREF_13
1005
0
1005
0
  0
LINE
  5
9B1
330
1F
100
AcDbEntity
  8
10
100
AcDbLine
 10
340.3938519039828
 20
152.7499999999768
 30
0.0
 11
338.7938519039817
 21
152.7499999999768
 31
0.0
1001
GENIUS_GENOREF_13
1005
0
1005
0
1005
0
  0
ARC
  5
9B2
330
1F
100
AcDbEntity
  8
10
100
AcDbCircle
 10
336.2408957325698
 20
150.8312499999763
 30
0.0
 40
2.55295617141175
100
AcDbArc
 50
325.5615305952427
 51
25.56153059552622
1001
GENIUS_GENOREF_13
1005
0
1005
0
  0
LINE
  5
9B3
330
1F
100
AcDbEntity
  8
10
100
AcDbLine
 10
334.0412983626029
 20
152.2749999999771
 30
0.0
 11
333.5938519039807
 21
151.499999999977
 31
0.0
1001
GENIUS_GENOREF_13
1005
0
1005
0
  0
LINE
  5
9B4
330
1F
100
AcDbEntity
  8
10
100
AcDbLine
 10
333.5938519039807
 20
149.499999999977
 30
0.0
 11
330.3073519039758
 21
149.499999999977
 31
0.0
1001
GENIUS_GENOREF_13
1005
0
1005
0
1005
0
1005
0
1005
0
1005
0
1005
0
1005
0
  0
LINE
  5
9B5
330
1F
100
AcDbEntity
  8
10
100
AcDbLine
 10
329.6938519039759
 20
148.8865499999771
 30
0.0
 11
330.3073519039758
 21
149.499999999977
 31
0.0
1001
GENIUS_GENOREF_13
1005
0
1005
0
1005
0
1005
0
1005
0
1005
0
1005
0
1005
0
  0
ARC
  5
9B6
330
1F
100
AcDbEntity
  8
10
100
AcDbCircle
 10
336.1468080753958
 20
150.8312499999771
 30
0.0
 40
2.552956171414872
100
AcDbArc
 50
154.4384694047301
 51
214.4384694047219
1001
GENIUS_GENOREF_13
1005
0
1005
0
  0
LINE
  5
9B7
330
1F
100
AcDbEntity
  8
10
100
AcDbLine
 10
338.3464054453586
 20
149.387499999977
 30
0.0
 11
334.0412983626029
 21
149.387499999977
 31
0.0
1001
GENIUS_GENOREF_13
1005
0
1005
0
  0
LINE
  5
9B8
330
1F
100
AcDbEntity
  8
10
100
AcDbLine
 10
338.3464054453586
 20
152.2749999999771
 30
0.0
 11
334.0412983626029
 21
152.2749999999771
 31
0.0
1001
GENIUS_GENOREF_13
1005
0
1005
0
  0
LINE
  5
9B9
330
1F
100
AcDbEntity
  8
10
100
AcDbLine
 10
343.9938519039778
 20
161.4999999999771
 30
0.0
 11
345.4938519039778
 21
161.4999999999765
 31
0.0
  0
LINE
  5
9BA
330
1F
100
AcDbEntity
  8
10
100
AcDbLine
 10
344.4938519039808
 20
169.499999999972
 30
0.0
 11
366.9938519039807
 21
169.499999999972
 31
0.0
  0
LINE
  5
9BB
330
1F
100
AcDbEntity
  8
10
100
AcDbLine
 10
371.9938519039807
 20
167.499999999972
 30
0.0
 11
344.4938519039778
 21
167.499999999972
 31
0.0
  0
LINE
  5
9BC
330
1F
100
AcDbEntity
  8
10
100
AcDbLine
 10
350.9938519039808
 20
167.499999999972
 30
0.0
 11
350.9938519039808
 21
165.729414999972
 31
0.0
  0
LINE
  5
9BD
330
1F
100
AcDbEntity
  8
10
100
AcDbLine
 10
350.9938519039808
 20
165.729414999972
 30
0.0
 11
350.5644369039807
 21
165.2999999999718
 31
0.0
  0
LINE
  5
9BE
330
1F
100
AcDbEntity
  8
10
100
AcDbLine
 10
346.9938519039807
 20
165.729414999972
 30
0.0
 11
347.4232669039807
 21
165.2999999999718
 31
0.0
  0
LINE
  5
9BF
330
1F
100
AcDbEntity
  8
10
100
AcDbLine
 10
346.9938519039807
 20
167.499999999972
 30
0.0
 11
346.9938519039807
 21
165.729414999972
 31
0.0
  0
LINE
  5
9C0
330
1F
100
AcDbEntity
  8
10
100
AcDbLine
 10
350.5644369039807
 20
165.2999999999718
 30
0.0
 11
347.4232669039807
 21
165.2999999999718
 31
0.0
  0
ARC
  5
9C1
330
1F
100
AcDbEntity
  8
10
100
AcDbCircle
 10
344.4938519039808
 20
166.999999999972
 30
0.0
 40
2.5
100
AcDbArc
 50
90.0
 51
180.0
1001
GENIUS_GENODEF_13
1002
{
1000
HIER
1070
     0
1002
}
1002
{
1000
MANEDIT
1070
     0
1002
}
1002
{
1000
NOSEL
1070
     0
1002
}
1002
{
1000
BEHIND
1070
     0
1002
}
1002
{
1000
REACTOR
1002
}
1001
GENIUS_GENOBJ-N-FIL_13
1002
{
1000
OWNER
1000
GEN
1002
}
  0
ARC
  5
9C2
330
1F
100
AcDbEntity
  8
10
100
AcDbCircle
 10
344.4938519039778
 20
166.999999999972
 30
0.0
 40
0.5
100
AcDbArc
 50
90.0
 51
179.9999999999934
1001
GENIUS_GENODEF_13
1002
{
1000
HIER
1070
     0
1002
}
1002
{
1000
MANEDIT
1070
     0
1002
}
1002
{
1000
NOSEL
1070
     0
1002
}
1002
{
1000
BEHIND
1070
     0
1002
}
1002
{
1000
REACTOR
1002
}
1001
GENIUS_GENOBJ-N-FIL_13
1002
{
1000
OWNER
1000
GEN
1002
}
  0
LINE
  5
9C3
330
1F
100
AcDbEntity
  8
10
100
AcDbLine
 10
368.7938519039807
 20
178.2999999999718
 30
0.0
 11
368.7938519039807
 21
179.2999999999719
 31
0.0
1001
GENIUS_GENOREF_13
1005
0
1005
0
1005
0
1005
0
  0
LINE
  5
9C4
330
1F
100
AcDbEntity
  8
10
100
AcDbLine
 10
368.9938519039807
 20
177.499999999972
 30
0.0
 11
368.9938519039807
 21
178.2999999999718
 31
0.0
1001
GENIUS_GENOREF_13
1005
0
  0
LINE
  5
9C5
330
1F
100
AcDbEntity
  8
10
100
AcDbLine
 10
368.9012068762878
 20
180.3589375120996
 30
0.0
 11
368.9938519039807
 21
179.2999999999719
 31
0.0
1001
GENIUS_GENOREF_13
1005
0
1005
0
1005
0
1005
0
1005
0
  0
LINE
  5
9C6
330
1F
100
AcDbEntity
  8
10
100
AcDbLine
 10
368.7938519039807
 20
179.2999999999719
 30
0.0
 11
368.9938519039807
 21
179.2999999999719
 31
0.0
1001
GENIUS_GENOREF_13
1005
0
1005
0
1005
0
1005
0
1005
0
  0
LINE
  5
9C7
330
1F
100
AcDbEntity
  8
10
100
AcDbLine
 10
371.9938519039807
 20
169.499999999972
 30
0.0
 11
371.9938519039807
 21
167.499999999972
 31
0.0
  0
LINE
  5
9C8
330
1F
100
AcDbEntity
  8
10
100
AcDbLine
 10
366.9938519039807
 20
165.729414999972
 30
0.0
 11
366.5644369039807
 21
165.2999999999718
 31
0.0
1001
GENIUS_GENOREF_13
1005
0
1005
0
1005
0
1005
0
1005
0
  0
LINE
  5
9C9
330
1F
100
AcDbEntity
  8
10
100
AcDbLine
 10
366.9938519039807
 20
167.499999999972
 30
0.0
 11
366.9938519039807
 21
165.729414999972
 31
0.0
1001
GENIUS_GENOREF_13
1005
0
1005
0
1005
0
1005
0
1005
0
  0
LINE
  5
9CA
330
1F
100
AcDbEntity
  8
10
100
AcDbLine
 10
364.4298816697148
 20
179.2999999999719
 30
0.0
 11
361.1938519039807
 21
179.2999999999719
 31
0.0
1001
GENIUS_GENOREF_13
1005
0
1005
0
1005
0
1005
0
  0
LINE
  5
9CB
330
1F
100
AcDbEntity
  8
10
100
AcDbLine
 10
364.7938519039807
 20
178.2999999999718
 30
0.0
 11
361.1938519039807
 21
178.2999999999718
 31
0.0
1001
GENIUS_GENOREF_13
1005
0
1005
0
1005
0
1005
0
  0
LINE
  5
9CC
330
1F
100
AcDbEntity
  8
10
100
AcDbLine
 10
361.1938519039807
 20
179.2999999999719
 30
0.0
 11
361.1938519039807
 21
178.2999999999718
 31
0.0
1001
GENIUS_GENOREF_13
1005
0
1005
0
1005
0
1005
0
  0
LINE
  5
9CD
330
1F
100
AcDbEntity
  8
10
100
AcDbLine
 10
360.9938519039808
 20
178.2999999999718
 30
0.0
 11
360.9938519039808
 21
177.499999999972
 31
0.0
1001
GENIUS_GENOREF_13
1005
0
  0
LINE
  5
9CE
330
1F
100
AcDbEntity
  8
10
100
AcDbLine
 10
361.0864969316748
 20
180.3589375120996
 30
0.0
 11
360.9938519039808
 21
179.2999999999719
 31
0.0
1001
GENIUS_GENOREF_13
1005
0
1005
0
1005
0
1005
0
1005
0
  0
LINE
  5
9CF
330
1F
100
AcDbEntity
  8
10
100
AcDbLine
 10
360.9938519039808
 20
179.2999999999719
 30
0.0
 11
361.1938519039807
 21
179.2999999999719
 31
0.0
1001
GENIUS_GENOREF_13
1005
0
1005
0
1005
0
1005
0
1005
0
  0
LINE
  5
9D0
330
1F
100
AcDbEntity
  8
10
100
AcDbLine
 10
365.1938519039818
 20
178.2999999999718
 30
0.0
 11
364.8298816697146
 21
179.2999999999719
 31
0.0
1001
GENIUS_GENOREF_13
1005
0
1005
0
1005
0
1005
0
  0
LINE
  5
9D1
330
1F
100
AcDbEntity
  8
10
100
AcDbLine
 10
364.7938519039807
 20
178.2999999999718
 30
0.0
 11
364.4298816697148
 21
179.2999999999719
 31
0.0
1001
GENIUS_GENOREF_13
1005
0
1005
0
1005
0
1005
0
  0
LINE
  5
9D2
330
1F
100
AcDbEntity
  8
10
100
AcDbLine
 10
364.4298816697148
 20
179.2999999999719
 30
0.0
 11
364.8298816697146
 21
179.2999999999719
 31
0.0
1001
GENIUS_GENOREF_13
1005
0
1005
0
1005
0
1005
0
1005
0
  0
LINE
  5
9D3
330
1F
100
AcDbEntity
  8
10
100
AcDbLine
 10
362.9938519039807
 20
165.729414999972
 30
0.0
 11
363.4232669039807
 21
165.2999999999718
 31
0.0
1001
GENIUS_GENOREF_13
1005
0
1005
0
1005
0
1005
0
1005
0
  0
LINE
  5
9D4
330
1F
100
AcDbEntity
  8
10
100
AcDbLine
 10
362.9938519039807
 20
167.499999999972
 30
0.0
 11
362.9938519039807
 21
165.729414999972
 31
0.0
1001
GENIUS_GENOREF_13
1005
0
1005
0
1005
0
1005
0
1005
0
  0
LINE
  5
9D5
330
1F
100
AcDbEntity
  8
10
100
AcDbLine
 10
368.9938519039807
 20
178.2999999999718
 30
0.0
 11
360.9938519039808
 21
178.2999999999718
 31
0.0
1001
GENIUS_GENOREF_13
1005
0
  0
LINE
  5
9D6
330
1F
100
AcDbEntity
  8
10
100
AcDbLine
 10
360.9938519039808
 20
177.499999999972
 30
0.0
 11
368.9938519039807
 21
177.499999999972
 31
0.0
1001
GENIUS_GENOREF_13
1005
0
  0
LINE
  5
9D7
330
1F
100
AcDbEntity
  8
10
100
AcDbLine
 10
366.5644369039807
 20
165.2999999999718
 30
0.0
 11
363.4232669039807
 21
165.2999999999718
 31
0.0
1001
GENIUS_GENOREF_13
1005
0
1005
0
1005
0
1005
0
1005
0
  0
LINE
  5
9D8
330
1F
100
AcDbEntity
  8
10
100
AcDbLine
 10
368.7938519039807
 20
178.2999999999718
 30
0.0
 11
365.1938519039818
 21
178.2999999999718
 31
0.0
1001
GENIUS_GENOREF_13
1005
0
1005
0
1005
0
1005
0
  0
LINE
  5
9D9
330
1F
100
AcDbEntity
  8
10
100
AcDbLine
 10
368.7938519039807
 20
179.2999999999719
 30
0.0
 11
364.8298816697146
 21
179.2999999999719
 31
0.0
1001
GENIUS_GENOREF_13
1005
0
1005
0
1005
0
1005
0
  0
LINE
  5
9DA
330
1F
100
AcDbEntity
  8
10
100
AcDbLine
 10
392.7464054453526
 20
152.274999999978
 30
0.0
 11
393.1938519039738
 21
151.4999999999779
 31
0.0
1001
GENIUS_GENOREF_13
1005
0
1005
0
1005
0
1005
0
1005
0
1005
0
1005
0
1005
0
  0
LINE
  5
9DB
330
1F
100
AcDbEntity
  8
10
100
AcDbLine
 10
389.6938519039738
 20
150.939999999978
 30
0.0
 11
389.1938519039738
 21
150.939999999978
 31
0.0
1001
GENIUS_GENOREF_13
1005
0
1005
0
1005
0
1005
0
1005
0
1005
0
1005
0
1005
0
  0
LINE
  5
9DC
330
1F
100
AcDbEntity
  8
10
100
AcDbLine
 10
389.1938519039738
 20
152.749999999978
 30
0.0
 11
387.5938519039738
 21
152.749999999978
 31
0.0
1001
GENIUS_GENOREF_13
1005
0
1005
0
1005
0
1005
0
1005
0
1005
0
  0
LINE
  5
9DD
330
1F
100
AcDbEntity
  8
10
100
AcDbLine
 10
387.5938519039738
 20
152.749999999978
 30
0.0
 11
385.9938519039737
 21
152.749999999978
 31
0.0
1001
GENIUS_GENOREF_13
1005
0
1005
0
1005
0
1005
0
1005
0
  0
LINE
  5
9DE
330
1F
100
AcDbEntity
  8
10
100
AcDbLine
 10
389.6938519039738
 20
152.274999999978
 30
0.0
 11
389.6938519039738
 21
150.939999999978
 31
0.0
1001
GENIUS_GENOREF_13
1005
0
1005
0
1005
0
1005
0
1005
0
1005
0
1005
0
1005
0
  0
LINE
  5
9DF
330
1F
100
AcDbEntity
  8
10
100
AcDbLine
 10
392.7464054453526
 20
152.274999999978
 30
0.0
 11
389.6938519039738
 21
152.274999999978
 31
0.0
1001
GENIUS_GENOREF_13
1005
0
1005
0
1005
0
1005
0
1005
0
1005
0
1005
0
1005
0
  0
LINE
  5
9E0
330
1F
100
AcDbEntity
  8
10
100
AcDbLine
 10
392.7464054453526
 20
149.3882486540297
 30
0.0
 11
389.6938519039738
 21
149.3882486540297
 31
0.0
1001
GENIUS_GENOREF_13
1005
0
1005
0
1005
0
1005
0
1005
0
1005
0
1005
0
1005
0
  0
LINE
  5
9E1
330
1F
100
AcDbEntity
  8
10
100
AcDbLine
 10
389.1938519039738
 20
149.4999999999779
 30
0.0
 11
389.1938519039738
 21
150.939999999978
 31
0.0
1001
GENIUS_GENOREF_13
1005
0
1005
0
1005
0
1005
0
1005
0
1005
0
1005
0
1005
0
  0
ARC
  5
9E2
330
1F
100
AcDbEntity
  8
10
100
AcDbCircle
 10
390.6421033956729
 20
150.8316243270035
 30
0.0
 40
2.551748508301399
100
AcDbArc
 50
325.5531276177292
 51
25.55312761773046
1001
GENIUS_GENOREF_13
1005
0
1005
0
1005
0
1005
0
1005
0
1005
0
1005
0
1005
0
  0
LINE
  5
9E3
330
1F
100
AcDbEntity
  8
10
100
AcDbLine
 10
383.9938519039778
 20
161.4999999999695
 30
0.0
 11
382.493851903979
 21
161.4999999999695
 31
0.0
  0
LINE
  5
9E4
330
1F
100
AcDbEntity
  8
10
100
AcDbLine
 10
383.9938519039778
 20
161.4999999999695
 30
0.0
 11
385.9938519039737
 21
161.4999999999695
 31
0.0
1001
GENIUS_GENREC_14
1002
{
1000
PYDIR
1011
385.9938519039737
1021
161.4999999999695
1031
0.0
1002
}
1002
{
1000
PXDIR
1011
383.9938519039778
1021
137.4999999999695
1031
0.0
1002
}
1002
{
1000
PORI
1011
385.9938519039737
1021
137.4999999999695
1031
0.0
1002
}
1002
{
1000
PINS
1011
385.9938519039737
1021
137.4999999999695
1031
0.0
1002
}
1002
{
1000
PINS2
1011
383.9938519039778
1021
161.4999999999695
1031
0.0
1002
}
1002
{
1000
C
1070
     1
1002
}
1001
GENIUS_GENODEF_13
1002
{
1000
HIER
1070
     0
1002
}
1002
{
1000
MANEDIT
1070
     0
1002
}
1002
{
1000
NOSEL
1070
     0
1002
}
1002
{
1000
BEHIND
1070
     0
1002
}
1002
{
1000
REACTOR
1002
}
1001
GENIUS_GENOBJ-N-REC_13
1002
{
1000
OWNER
1000
GEN
1002
}
  0
ARC
  5
9E5
330
1F
100
AcDbEntity
  8
10
100
AcDbCircle
 10
364.9938519039807
 20
175.899999999972
 30
0.0
 40
6.5
100
AcDbArc
 50
61.82726586812755
 51
118.1727341318724
1001
GENIUS_GENOREF_13
1005
0
1005
0
1005
0
1005
0
1005
0
  0
LINE
  5
9ED
330
1F
100
AcDbEntity
  8
10
100
AcDbLine
 10
423.9938519039917
 20
165.5281364213414
 30
0.0
 11
423.9938519039939
 21
180.999999999972
 31
0.0
1001
GENIUS_GENODEF_13
1002
{
1000
HIER
1070
     0
1002
}
1002
{
1000
MANEDIT
1070
     0
1002
}
1002
{
1000
NOSEL
1070
     0
1002
}
1002
{
1000
BEHIND
1070
     0
1002
}
1002
{
1000
REACTOR
1002
}
1001
GENIUS_GENOBJ-N-CEN_13
1002
{
1000
OWNER
1000
GEN
1002
}
  0
LINE
  5
9EE
330
1F
100
AcDbEntity
  8
10
100
AcDbLine
 10
377.4938519039807
 20
185.999999999972
 30
0.0
 11
418.9938519039939
 21
185.9999999999728
 31
0.0
  0
LINE
  5
9EF
330
1F
100
AcDbEntity
  8
10
100
AcDbLine
 10
421.8375619524497
 20
161.4155565546036
 30
0.0
 11
416.8548679677767
 21
157.9701919874129
 31
0.0
  0
LINE
  5
9F0
330
1F
100
AcDbEntity
  8
10
100
AcDbLine
 10
414.0214700731839
 20
153.8576121206745
 30
0.0
 11
396.198578016234
 21
130.4999999999695
 31
0.0
  0
ARC
  5
9F1
330
1F
100
AcDbEntity
  8
10
100
AcDbCircle
 10
424.1861937259086
 20
149.8868738660511
 30
0.0
 40
10.91276175965491
100
AcDbArc
 50
132.2070806504459
 51
158.6624409900766
  0
ARC
  5
9F2
330
1F
100
AcDbEntity
  8
10
100
AcDbCircle
 10
418.9938519039939
 20
180.9999999999728
 30
0.0
 40
5.0
100
AcDbArc
 50
359.9999999999933
 51
90.0
1001
GENIUS_GENODEF_13
1002
{
1000
HIER
1070
     0
1002
}
1002
{
1000
MANEDIT
1070
     0
1002
}
1002
{
1000
NOSEL
1070
     0
1002
}
1002
{
1000
BEHIND
1070
     0
1002
}
1002
{
1000
REACTOR
1002
}
1001
GENIUS_GENOBJ-N-CEN_13
1002
{
1000
OWNER
1000
GEN
1002
}
  0
ARC
  5
9F7
330
1F
100
AcDbEntity
  8
10
100
AcDbCircle
 10
418.9938519039917
 20
165.5281364213419
 30
0.0
 40
5.0
100
AcDbArc
 50
304.6625487732073
 51
359.9999999999933
  0
LINE
  5
9F9
330
1F
100
AcDbEntity
  8
10
100
AcDbLine
 10
169.9999999999988
 20
197.9999999999719
 30
0.0
 11
119.999999999999
 21
197.9999999999719
 31
0.0
  0
LINE
  5
9FA
330
1F
100
AcDbEntity
  8
10
100
AcDbLine
 10
169.9999999999988
 20
197.4999999999719
 30
0.0
 11
119.999999999999
 21
197.4999999999719
 31
0.0
  0
LWPOLYLINE
  5
9FB
330
1F
100
AcDbEntity
  8
10
100
AcDbPolyline
 90
        5
 70
     0
 43
0.0
 10
123.9999999999989
 20
185.4999999999826
 10
133.999999999999
 20
185.4999999999826
 10
133.999999999999
 20
186.4999999999826
 10
123.9999999999989
 20
186.4999999999826
 10
123.9999999999989
 20
185.4999999999826
  0
ARC
  5
9FC
330
1F
100
AcDbEntity
  8
10
100
AcDbCircle
 10
126.999999999999
 20
188.5999999999824
 30
0.0
 40
2.5
100
AcDbArc
 50
90.0
 51
180.0
  0
LINE
  5
9FD
330
1F
100
AcDbEntity
  8
10
100
AcDbLine
 10
124.4999999999991
 20
187.7999999999824
 30
0.0
 11
133.4999999999989
 21
187.7999999999824
 31
0.0
  0
LINE
  5
9FE
330
1F
100
AcDbEntity
  8
10
100
AcDbLine
 10
122.499999999999
 20
185.4999999999826
 30
0.0
 11
135.4999999999989
 21
185.4999999999826
 31
0.0
  0
LINE
  5
9FF
330
1F
100
AcDbEntity
  8
10
100
AcDbLine
 10
170.4999999999988
 20
179.4999999999823
 30
0.0
 11
119.499999999999
 21
179.4999999999823
 31
0.0
  0
LWPOLYLINE
  5
A00
330
1F
100
AcDbEntity
  8
10
100
AcDbPolyline
 90
        4
 70
     0
 43
0.0
 10
170.4999999999988
 20
185.4999999999826
 10
170.4999999999988
 20
169.4999999999824
 10
119.499999999999
 20
169.4999999999824
 10
119.499999999999
 20
179.4999999999823
  0
LWPOLYLINE
  5
A01
330
1F
100
AcDbEntity
  8
10
100
AcDbPolyline
 90
        5
 70
     0
 43
0.0
 10
124.3999999999987
 20
186.4999999999826
 10
133.599999999999
 20
186.4999999999826
 10
133.599999999999
 20
187.7999999999824
 10
124.3999999999987
 20
187.7999999999824
 10
124.3999999999987
 20
186.4999999999826
  0
LWPOLYLINE
  5
A02
330
1F
100
AcDbEntity
  8
10
100
AcDbPolyline
 90
        4
 70
     0
 43
0.0
 10
119.499999999999
 20
180.5999999999824
 10
119.499999999999
 20
178.4999999999826
 10
111.4999999999989
 20
178.4999999999826
 10
111.4999999999989
 20
180.5999999999824
  0
LWPOLYLINE
  5
A03
330
1F
100
AcDbEntity
  8
10
100
AcDbPolyline
 90
        4
 70
     0
 43
0.0
 10
119.499999999999
 20
177.4999999999826
 10
111.4999999999989
 20
177.4999999999826
 10
111.4999999999989
 20
169.4999999999824
 10
119.499999999999
 20
169.4999999999824
  0
LWPOLYLINE
  5
A04
330
1F
100
AcDbEntity
  8
10
100
AcDbPolyline
 90
        5
 70
     0
 43
0.0
 10
111.6999999999989
 20
177.4999999999826
 10
119.2999999999988
 20
177.4999999999826
 10
119.2999999999988
 20
178.4999999999826
 10
111.6999999999989
 20
178.4999999999826
 10
111.6999999999989
 20
177.4999999999826
  0
LINE
  5
A05
330
1F
100
AcDbEntity
  8
10
100
AcDbLine
 10
115.499999999999
 20
177.4999999999826
 30
0.0
 11
114.499999999999
 21
178.4999999999826
 31
0.0
  0
LINE
  5
A06
330
1F
100
AcDbEntity
  8
10
100
AcDbLine
 10
115.499999999999
 20
178.4999999999826
 30
0.0
 11
116.499999999999
 21
177.4999999999826
 31
0.0
  0
ARC
  5
A07
330
1F
100
AcDbEntity
  8
10
100
AcDbCircle
 10
118.499999999999
 20
180.5999999999824
 30
0.0
 40
1.0
100
AcDbArc
 50
0.0
 51
90.0
  0
LINE
  5
A08
330
1F
100
AcDbEntity
  8
10
100
AcDbLine
 10
112.499999999999
 20
181.5999999999821
 30
0.0
 11
118.499999999999
 21
181.5999999999821
 31
0.0
  0
ARC
  5
A09
330
1F
100
AcDbEntity
  8
10
100
AcDbCircle
 10
112.499999999999
 20
180.5999999999824
 30
0.0
 40
1.0
100
AcDbArc
 50
90.0
 51
180.0
  0
LINE
  5
A0A
330
1F
100
AcDbEntity
  8
10
100
AcDbLine
 10
124.4999999999991
 20
187.7999999999824
 30
0.0
 11
124.4999999999991
 21
188.5999999999824
 31
0.0
  0
LWPOLYLINE
  5
A0B
330
1F
100
AcDbEntity
  8
10
100
AcDbPolyline
 90
        5
 70
     0
 43
0.0
 10
155.9999999999988
 20
185.4999999999826
 10
165.9999999999988
 20
185.4999999999826
 10
165.9999999999988
 20
186.4999999999826
 10
155.9999999999988
 20
186.4999999999826
 10
155.9999999999988
 20
185.4999999999826
  0
LWPOLYLINE
  5
A0C
330
1F
100
AcDbEntity
  8
10
100
AcDbPolyline
 90
        5
 70
     0
 43
0.0
 10
156.3999999999989
 20
186.4999999999826
 10
165.5999999999989
 20
186.4999999999826
 10
165.5999999999989
 20
187.7999999999824
 10
156.3999999999989
 20
187.7999999999824
 10
156.3999999999989
 20
186.4999999999826
  0
LINE
  5
A0D
330
1F
100
AcDbEntity
  8
10
100
AcDbLine
 10
158.9999999999988
 20
191.0999999999821
 30
0.0
 11
162.9999999999988
 21
191.0999999999821
 31
0.0
  0
LINE
  5
A0E
330
1F
100
AcDbEntity
  8
10
100
AcDbLine
 10
156.4999999999988
 20
187.7999999999824
 30
0.0
 11
165.4999999999984
 21
187.7999999999824
 31
0.0
  0
LINE
  5
A0F
330
1F
100
AcDbEntity
  8
10
100
AcDbLine
 10
154.4999999999988
 20
185.4999999999826
 30
0.0
 11
167.4999999999988
 21
185.4999999999826
 31
0.0
  0
LWPOLYLINE
  5
A10
330
1F
100
AcDbEntity
  8
10
100
AcDbPolyline
 90
        5
 70
     0
 43
0.0
 10
139.9999999999991
 20
185.4999999999826
 10
149.999999999999
 20
185.4999999999826
 10
149.999999999999
 20
186.4999999999826
 10
139.9999999999991
 20
186.4999999999826
 10
139.9999999999991
 20
185.4999999999826
  0
LWPOLYLINE
  5
A11
330
1F
100
AcDbEntity
  8
10
100
AcDbPolyline
 90
        5
 70
     0
 43
0.0
 10
140.3999999999987
 20
186.4999999999826
 10
149.5999999999989
 20
186.4999999999826
 10
149.5999999999989
 20
187.7999999999824
 10
140.3999999999987
 20
187.7999999999824
 10
140.3999999999987
 20
186.4999999999826
  0
LINE
  5
A12
330
1F
100
AcDbEntity
  8
10
100
AcDbLine
 10
142.999999999999
 20
191.0999999999821
 30
0.0
 11
146.9999999999989
 21
191.0999999999821
 31
0.0
  0
LINE
  5
A13
330
1F
100
AcDbEntity
  8
10
100
AcDbLine
 10
140.499999999999
 20
187.7999999999824
 30
0.0
 11
149.4999999999991
 21
187.7999999999824
 31
0.0
  0
LINE
  5
A14
330
1F
100
AcDbEntity
  8
10
100
AcDbLine
 10
138.499999999999
 20
185.4999999999826
 30
0.0
 11
151.499999999999
 21
185.4999999999826
 31
0.0
  0
ARC
  5
A15
330
1F
100
AcDbEntity
  8
10
100
AcDbCircle
 10
142.999999999999
 20
188.5999999999824
 30
0.0
 40
2.5
100
AcDbArc
 50
90.0
 51
180.0
  0
ARC
  5
A16
330
1F
100
AcDbEntity
  8
10
100
AcDbCircle
 10
130.999999999999
 20
188.5999999999824
 30
0.0
 40
2.5
100
AcDbArc
 50
0.0
 51
90.0
  0
LINE
  5
A17
330
1F
100
AcDbEntity
  8
10
100
AcDbLine
 10
128.999999999999
 20
186.4999999999826
 30
0.0
 11
127.6999999999989
 21
187.7999999999824
 31
0.0
  0
LINE
  5
A18
330
1F
100
AcDbEntity
  8
10
100
AcDbLine
 10
128.999999999999
 20
187.7999999999824
 30
0.0
 11
130.2999999999987
 21
186.4999999999826
 31
0.0
  0
LINE
  5
A19
330
1F
100
AcDbEntity
  8
10
100
AcDbLine
 10
133.4999999999989
 20
188.5999999999824
 30
0.0
 11
133.4999999999989
 21
187.7999999999824
 31
0.0
  0
LINE
  5
A1A
330
1F
100
AcDbEntity
  8
10
100
AcDbLine
 10
140.499999999999
 20
187.7999999999824
 30
0.0
 11
140.499999999999
 21
188.5999999999824
 31
0.0
  0
LINE
  5
A1B
330
1F
100
AcDbEntity
  8
10
100
AcDbLine
 10
126.999999999999
 20
191.0999999999821
 30
0.0
 11
130.999999999999
 21
191.0999999999821
 31
0.0
  0
ARC
  5
A1C
330
1F
100
AcDbEntity
  8
10
100
AcDbCircle
 10
158.9999999999988
 20
188.5999999999824
 30
0.0
 40
2.5
100
AcDbArc
 50
90.0
 51
180.0
  0
ARC
  5
A1D
330
1F
100
AcDbEntity
  8
10
100
AcDbCircle
 10
146.9999999999989
 20
188.5999999999824
 30
0.0
 40
2.5
100
AcDbArc
 50
0.0
 51
90.0
  0
LINE
  5
A1E
330
1F
100
AcDbEntity
  8
10
100
AcDbLine
 10
144.999999999999
 20
186.4999999999826
 30
0.0
 11
143.6999999999989
 21
187.7999999999824
 31
0.0
  0
LINE
  5
A1F
330
1F
100
AcDbEntity
  8
10
100
AcDbLine
 10
144.999999999999
 20
187.7999999999824
 30
0.0
 11
146.2999999999988
 21
186.4999999999826
 31
0.0
  0
LINE
  5
A20
330
1F
100
AcDbEntity
  8
10
100
AcDbLine
 10
149.4999999999991
 20
188.5999999999824
 30
0.0
 11
149.4999999999991
 21
187.7999999999824
 31
0.0
  0
LINE
  5
A21
330
1F
100
AcDbEntity
  8
10
100
AcDbLine
 10
156.4999999999988
 20
187.7999999999824
 30
0.0
 11
156.4999999999988
 21
188.5999999999824
 31
0.0
  0
LWPOLYLINE
  5
A22
330
1F
100
AcDbEntity
  8
10
100
AcDbPolyline
 90
        4
 70
     0
 43
0.0
 10
178.4999999999988
 20
180.5999999999824
 10
178.4999999999988
 20
178.4999999999826
 10
170.4999999999988
 20
178.4999999999826
 10
170.4999999999988
 20
180.5999999999824
  0
LINE
  5
A23
330
1F
100
AcDbEntity
  8
10
100
AcDbLine
 10
170.4999999999988
 20
169.4999999999824
 30
0.0
 11
178.4999999999988
 21
169.4999999999824
 31
0.0
  0
LWPOLYLINE
  5
A24
330
1F
100
AcDbEntity
  8
10
100
AcDbPolyline
 90
        3
 70
     0
 43
0.0
 10
178.4999999999988
 20
169.4999999999824
 10
178.4999999999988
 20
177.4999999999826
 10
170.4999999999988
 20
177.4999999999826
  0
LWPOLYLINE
  5
A25
330
1F
100
AcDbEntity
  8
10
100
AcDbPolyline
 90
        5
 70
     0
 43
0.0
 10
170.6999999999989
 20
177.4999999999826
 10
178.2999999999988
 20
177.4999999999826
 10
178.2999999999988
 20
178.4999999999826
 10
170.6999999999989
 20
178.4999999999826
 10
170.6999999999989
 20
177.4999999999826
  0
LINE
  5
A26
330
1F
100
AcDbEntity
  8
10
100
AcDbLine
 10
174.4999999999988
 20
177.4999999999826
 30
0.0
 11
173.4999999999988
 21
178.4999999999826
 31
0.0
  0
LINE
  5
A27
330
1F
100
AcDbEntity
  8
10
100
AcDbLine
 10
174.4999999999988
 20
178.4999999999826
 30
0.0
 11
175.4999999999988
 21
177.4999999999826
 31
0.0
  0
LINE
  5
A28
330
1F
100
AcDbEntity
  8
10
100
AcDbLine
 10
171.4999999999988
 20
181.5999999999821
 30
0.0
 11
177.4999999999988
 21
181.5999999999821
 31
0.0
  0
ARC
  5
A29
330
1F
100
AcDbEntity
  8
10
100
AcDbCircle
 10
162.9999999999988
 20
188.5999999999824
 30
0.0
 40
2.5
100
AcDbArc
 50
0.0
 51
90.0
  0
LINE
  5
A2A
330
1F
100
AcDbEntity
  8
10
100
AcDbLine
 10
160.9999999999988
 20
186.4999999999826
 30
0.0
 11
159.6999999999989
 21
187.7999999999824
 31
0.0
  0
LINE
  5
A2B
330
1F
100
AcDbEntity
  8
10
100
AcDbLine
 10
160.9999999999988
 20
187.7999999999824
 30
0.0
 11
162.2999999999988
 21
186.4999999999826
 31
0.0
  0
LINE
  5
A2C
330
1F
100
AcDbEntity
  8
10
100
AcDbLine
 10
165.4999999999984
 20
188.5999999999824
 30
0.0
 11
165.4999999999984
 21
187.7999999999824
 31
0.0
  0
ARC
  5
A2D
330
1F
100
AcDbEntity
  8
10
100
AcDbCircle
 10
171.4999999999988
 20
180.5999999999824
 30
0.0
 40
1.0
100
AcDbArc
 50
90.0
 51
180.0
  0
ARC
  5
A2E
330
1F
100
AcDbEntity
  8
10
100
AcDbCircle
 10
177.4999999999988
 20
180.5999999999824
 30
0.0
 40
1.0
100
AcDbArc
 50
0.0
 51
90.0
  0
LINE
  5
A2F
330
1F
100
AcDbEntity
  8
10
100
AcDbLine
 10
154.4999999999988
 20
179.4999999999823
 30
0.0
 11
154.4999999999988
 21
197.4999999999719
 31
0.0
  0
LINE
  5
A30
330
1F
100
AcDbEntity
  8
10
100
AcDbLine
 10
154.4999999999988
 20
197.4999999999719
 30
0.0
 11
151.499999999999
 21
197.4999999999719
 31
0.0
  0
LINE
  5
A31
330
1F
100
AcDbEntity
  8
10
100
AcDbLine
 10
151.499999999999
 20
197.4999999999719
 30
0.0
 11
151.499999999999
 21
179.4999999999823
 31
0.0
  0
LINE
  5
A32
330
1F
100
AcDbEntity
  8
10
100
AcDbLine
 10
170.4999999999988
 20
185.4999999999826
 30
0.0
 11
170.4999999999988
 21
197.4999999999719
 31
0.0
  0
LINE
  5
A33
330
1F
100
AcDbEntity
  8
10
100
AcDbLine
 10
170.4999999999988
 20
197.4999999999719
 30
0.0
 11
167.4999999999988
 21
197.4999999999719
 31
0.0
  0
LINE
  5
A34
330
1F
100
AcDbEntity
  8
10
100
AcDbLine
 10
167.4999999999988
 20
197.4999999999719
 30
0.0
 11
167.4999999999988
 21
179.4999999999823
 31
0.0
  0
LINE
  5
A35
330
1F
100
AcDbEntity
  8
10
100
AcDbLine
 10
138.499999999999
 20
179.4999999999823
 30
0.0
 11
138.499999999999
 21
197.4999999999719
 31
0.0
  0
LINE
  5
A36
330
1F
100
AcDbEntity
  8
10
100
AcDbLine
 10
138.499999999999
 20
197.4999999999719
 30
0.0
 11
135.4999999999989
 21
197.4999999999719
 31
0.0
  0
LINE
  5
A37
330
1F
100
AcDbEntity
  8
10
100
AcDbLine
 10
135.4999999999989
 20
197.4999999999719
 30
0.0
 11
135.4999999999989
 21
179.4999999999823
 31
0.0
  0
LINE
  5
A38
330
1F
100
AcDbEntity
  8
10
100
AcDbLine
 10
122.499999999999
 20
179.4999999999823
 30
0.0
 11
122.499999999999
 21
197.4999999999719
 31
0.0
  0
LINE
  5
A39
330
1F
100
AcDbEntity
  8
10
100
AcDbLine
 10
122.499999999999
 20
197.4999999999719
 30
0.0
 11
119.499999999999
 21
197.4999999999719
 31
0.0
  0
LINE
  5
A3A
330
1F
100
AcDbEntity
  8
10
100
AcDbLine
 10
119.499999999999
 20
197.4999999999719
 30
0.0
 11
119.499999999999
 21
179.4999999999823
 31
0.0
  0
LWPOLYLINE
  5
A3B
330
1F
100
AcDbEntity
  8
10
100
AcDbPolyline
 90
        5
 70
     0
 43
0.0
 10
53.99999999999909
 20
185.4999999999826
 10
63.99999999999909
 20
185.4999999999826
 10
63.99999999999909
 20
186.4999999999826
 10
53.99999999999909
 20
186.4999999999826
 10
53.99999999999909
 20
185.4999999999826
  0
ARC
  5
A3C
330
1F
100
AcDbEntity
  8
10
100
AcDbCircle
 10
56.99999999999909
 20
188.5999999999824
 30
0.0
 40
2.5
100
AcDbArc
 50
90.0
 51
180.0
  0
LINE
  5
A3D
330
1F
100
AcDbEntity
  8
10
100
AcDbLine
 10
54.49999999999909
 20
187.7999999999824
 30
0.0
 11
63.49999999999909
 21
187.7999999999824
 31
0.0
  0
LINE
  5
A3E
330
1F
100
AcDbEntity
  8
10
100
AcDbLine
 10
52.49999999999909
 20
185.4999999999826
 30
0.0
 11
65.49999999999909
 21
185.4999999999826
 31
0.0
  0
LINE
  5
A3F
330
1F
100
AcDbEntity
  8
10
100
AcDbLine
 10
100.4999999999991
 20
179.4999999999823
 30
0.0
 11
49.49999999999909
 21
179.4999999999823
 31
0.0
  0
LWPOLYLINE
  5
A40
330
1F
100
AcDbEntity
  8
10
100
AcDbPolyline
 90
        4
 70
     0
 43
0.0
 10
100.4999999999991
 20
185.4999999999826
 10
100.4999999999991
 20
169.4999999999824
 10
49.49999999999909
 20
169.4999999999824
 10
49.49999999999909
 20
179.4999999999823
  0
LWPOLYLINE
  5
A41
330
1F
100
AcDbEntity
  8
10
100
AcDbPolyline
 90
        5
 70
     0
 43
0.0
 10
54.39999999999872
 20
186.4999999999826
 10
63.59999999999899
 20
186.4999999999826
 10
63.59999999999899
 20
187.7999999999824
 10
54.39999999999872
 20
187.7999999999824
 10
54.39999999999872
 20
186.4999999999826
  0
LWPOLYLINE
  5
A42
330
1F
100
AcDbEntity
  8
10
100
AcDbPolyline
 90
        4
 70
     0
 43
0.0
 10
49.49999999999909
 20
180.5999999999824
 10
49.49999999999909
 20
178.4999999999826
 10
41.49999999999907
 20
178.4999999999826
 10
41.49999999999907
 20
180.5999999999824
  0
LWPOLYLINE
  5
A43
330
1F
100
AcDbEntity
  8
10
100
AcDbPolyline
 90
        4
 70
     0
 43
0.0
 10
49.49999999999909
 20
177.4999999999826
 10
41.49999999999907
 20
177.4999999999826
 10
41.49999999999907
 20
169.4999999999824
 10
49.49999999999909
 20
169.4999999999824
  0
LWPOLYLINE
  5
A44
330
1F
100
AcDbEntity
  8
10
100
AcDbPolyline
 90
        5
 70
     0
 43
0.0
 10
41.6999999999989
 20
177.4999999999826
 10
49.29999999999882
 20
177.4999999999826
 10
49.29999999999882
 20
178.4999999999826
 10
41.6999999999989
 20
178.4999999999826
 10
41.6999999999989
 20
177.4999999999826
  0
LINE
  5
A45
330
1F
100
AcDbEntity
  8
10
100
AcDbLine
 10
45.49999999999909
 20
177.4999999999826
 30
0.0
 11
44.49999999999909
 21
178.4999999999826
 31
0.0
  0
LINE
  5
A46
330
1F
100
AcDbEntity
  8
10
100
AcDbLine
 10
45.49999999999909
 20
178.4999999999826
 30
0.0
 11
46.49999999999907
 21
177.4999999999826
 31
0.0
  0
LWPOLYLINE
  5
A47
330
1F
100
AcDbEntity
  8
10
100
AcDbPolyline
 90
        4
 70
     0
 43
0.0
 10
52.49999999999909
 20
179.4999999999823
 10
52.49999999999909
 20
197.4999999999719
 10
49.49999999999909
 20
197.4999999999719
 10
49.49999999999909
 20
179.4999999999823
  0
ARC
  5
A48
330
1F
100
AcDbEntity
  8
10
100
AcDbCircle
 10
48.49999999999909
 20
180.5999999999824
 30
0.0
 40
1.0
100
AcDbArc
 50
0.0
 51
90.0
  0
LINE
  5
A49
330
1F
100
AcDbEntity
  8
10
100
AcDbLine
 10
42.49999999999909
 20
181.5999999999821
 30
0.0
 11
48.49999999999909
 21
181.5999999999821
 31
0.0
  0
ARC
  5
A4A
330
1F
100
AcDbEntity
  8
10
100
AcDbCircle
 10
42.49999999999909
 20
180.5999999999824
 30
0.0
 40
1.0
100
AcDbArc
 50
90.0
 51
180.0
  0
LINE
  5
A4B
330
1F
100
AcDbEntity
  8
10
100
AcDbLine
 10
54.49999999999909
 20
187.7999999999824
 30
0.0
 11
54.49999999999909
 21
188.5999999999824
 31
0.0
  0
LWPOLYLINE
  5
A4C
330
1F
100
AcDbEntity
  8
10
100
AcDbPolyline
 90
        5
 70
     0
 43
0.0
 10
85.99999999999909
 20
185.4999999999826
 10
95.99999999999909
 20
185.4999999999826
 10
95.99999999999909
 20
186.4999999999826
 10
85.99999999999909
 20
186.4999999999826
 10
85.99999999999909
 20
185.4999999999826
  0
LWPOLYLINE
  5
A4D
330
1F
100
AcDbEntity
  8
10
100
AcDbPolyline
 90
        5
 70
     0
 43
0.0
 10
86.39999999999963
 20
186.4999999999826
 10
95.59999999999901
 20
186.4999999999826
 10
95.59999999999901
 20
187.7999999999824
 10
86.39999999999963
 20
187.7999999999824
 10
86.39999999999963
 20
186.4999999999826
  0
LINE
  5
A4E
330
1F
100
AcDbEntity
  8
10
100
AcDbLine
 10
88.99999999999909
 20
191.0999999999821
 30
0.0
 11
92.9999999999991
 21
191.0999999999821
 31
0.0
  0
LINE
  5
A4F
330
1F
100
AcDbEntity
  8
10
100
AcDbLine
 10
86.49999999999909
 20
187.7999999999824
 30
0.0
 11
95.4999999999991
 21
187.7999999999824
 31
0.0
  0
LINE
  5
A50
330
1F
100
AcDbEntity
  8
10
100
AcDbLine
 10
84.49999999999908
 20
185.4999999999826
 30
0.0
 11
97.49999999999909
 21
185.4999999999826
 31
0.0
  0
LWPOLYLINE
  5
A51
330
1F
100
AcDbEntity
  8
10
100
AcDbPolyline
 90
        5
 70
     0
 43
0.0
 10
69.99999999999909
 20
185.4999999999826
 10
79.99999999999909
 20
185.4999999999826
 10
79.99999999999909
 20
186.4999999999826
 10
69.99999999999909
 20
186.4999999999826
 10
69.99999999999909
 20
185.4999999999826
  0
LWPOLYLINE
  5
A52
330
1F
100
AcDbEntity
  8
10
100
AcDbPolyline
 90
        5
 70
     0
 43
0.0
 10
70.39999999999873
 20
186.4999999999826
 10
79.599999999999
 20
186.4999999999826
 10
79.599999999999
 20
187.7999999999824
 10
70.39999999999873
 20
187.7999999999824
 10
70.39999999999873
 20
186.4999999999826
  0
LINE
  5
A53
330
1F
100
AcDbEntity
  8
10
100
AcDbLine
 10
72.99999999999909
 20
191.0999999999821
 30
0.0
 11
76.99999999999909
 21
191.0999999999821
 31
0.0
  0
LINE
  5
A54
330
1F
100
AcDbEntity
  8
10
100
AcDbLine
 10
70.49999999999909
 20
187.7999999999824
 30
0.0
 11
79.49999999999909
 21
187.7999999999824
 31
0.0
  0
LINE
  5
A55
330
1F
100
AcDbEntity
  8
10
100
AcDbLine
 10
68.49999999999909
 20
185.4999999999826
 30
0.0
 11
81.49999999999909
 21
185.4999999999826
 31
0.0
  0
ARC
  5
A56
330
1F
100
AcDbEntity
  8
10
100
AcDbCircle
 10
72.99999999999909
 20
188.5999999999824
 30
0.0
 40
2.5
100
AcDbArc
 50
90.0
 51
180.0
  0
ARC
  5
A57
330
1F
100
AcDbEntity
  8
10
100
AcDbCircle
 10
60.99999999999909
 20
188.5999999999824
 30
0.0
 40
2.5
100
AcDbArc
 50
0.0
 51
90.0
  0
LWPOLYLINE
  5
A58
330
1F
100
AcDbEntity
  8
10
100
AcDbPolyline
 90
        4
 70
     0
 43
0.0
 10
68.49999999999909
 20
179.4999999999823
 10
68.49999999999909
 20
197.4999999999719
 10
65.49999999999909
 20
197.4999999999719
 10
65.49999999999909
 20
179.4999999999823
  0
LINE
  5
A59
330
1F
100
AcDbEntity
  8
10
100
AcDbLine
 10
58.99999999999909
 20
186.4999999999826
 30
0.0
 11
57.69999999999889
 21
187.7999999999824
 31
0.0
  0
LINE
  5
A5A
330
1F
100
AcDbEntity
  8
10
100
AcDbLine
 10
58.99999999999909
 20
187.7999999999824
 30
0.0
 11
60.29999999999882
 21
186.4999999999826
 31
0.0
  0
LINE
  5
A5B
330
1F
100
AcDbEntity
  8
10
100
AcDbLine
 10
63.49999999999909
 20
188.5999999999824
 30
0.0
 11
63.49999999999909
 21
187.7999999999824
 31
0.0
  0
LINE
  5
A5C
330
1F
100
AcDbEntity
  8
10
100
AcDbLine
 10
70.49999999999909
 20
187.7999999999824
 30
0.0
 11
70.49999999999909
 21
188.5999999999824
 31
0.0
  0
LINE
  5
A5D
330
1F
100
AcDbEntity
  8
10
100
AcDbLine
 10
56.99999999999909
 20
191.0999999999821
 30
0.0
 11
60.99999999999909
 21
191.0999999999821
 31
0.0
  0
ARC
  5
A5E
330
1F
100
AcDbEntity
  8
10
100
AcDbCircle
 10
88.99999999999909
 20
188.5999999999824
 30
0.0
 40
2.5
100
AcDbArc
 50
90.0
 51
180.0
  0
ARC
  5
A5F
330
1F
100
AcDbEntity
  8
10
100
AcDbCircle
 10
76.99999999999909
 20
188.5999999999824
 30
0.0
 40
2.5
100
AcDbArc
 50
0.0
 51
90.0
  0
LWPOLYLINE
  5
A60
330
1F
100
AcDbEntity
  8
10
100
AcDbPolyline
 90
        4
 70
     0
 43
0.0
 10
84.49999999999908
 20
179.4999999999823
 10
84.49999999999908
 20
197.4999999999719
 10
81.49999999999909
 20
197.4999999999719
 10
81.49999999999909
 20
179.4999999999823
  0
LINE
  5
A61
330
1F
100
AcDbEntity
  8
10
100
AcDbLine
 10
74.99999999999909
 20
186.4999999999826
 30
0.0
 11
73.6999999999989
 21
187.7999999999824
 31
0.0
  0
LINE
  5
A62
330
1F
100
AcDbEntity
  8
10
100
AcDbLine
 10
74.99999999999909
 20
187.7999999999824
 30
0.0
 11
76.29999999999973
 21
186.4999999999826
 31
0.0
  0
LINE
  5
A63
330
1F
100
AcDbEntity
  8
10
100
AcDbLine
 10
79.49999999999909
 20
188.5999999999824
 30
0.0
 11
79.49999999999909
 21
187.7999999999824
 31
0.0
  0
LINE
  5
A64
330
1F
100
AcDbEntity
  8
10
100
AcDbLine
 10
86.49999999999909
 20
187.7999999999824
 30
0.0
 11
86.49999999999909
 21
188.5999999999824
 31
0.0
  0
LWPOLYLINE
  5
A65
330
1F
100
AcDbEntity
  8
10
100
AcDbPolyline
 90
        4
 70
     0
 43
0.0
 10
108.4999999999989
 20
180.5999999999824
 10
108.4999999999989
 20
178.4999999999826
 10
100.4999999999991
 20
178.4999999999826
 10
100.4999999999991
 20
180.5999999999824
  0
LINE
  5
A66
330
1F
100
AcDbEntity
  8
10
100
AcDbLine
 10
100.4999999999991
 20
169.4999999999824
 30
0.0
 11
108.4999999999989
 21
169.4999999999824
 31
0.0
  0
LWPOLYLINE
  5
A67
330
1F
100
AcDbEntity
  8
10
100
AcDbPolyline
 90
        3
 70
     0
 43
0.0
 10
108.4999999999989
 20
169.4999999999824
 10
108.4999999999989
 20
177.4999999999826
 10
100.4999999999991
 20
177.4999999999826
  0
LWPOLYLINE
  5
A68
330
1F
100
AcDbEntity
  8
10
100
AcDbPolyline
 90
        5
 70
     0
 43
0.0
 10
100.6999999999989
 20
177.4999999999826
 10
108.2999999999997
 20
177.4999999999826
 10
108.2999999999997
 20
178.4999999999826
 10
100.6999999999989
 20
178.4999999999826
 10
100.6999999999989
 20
177.4999999999826
  0
LINE
  5
A69
330
1F
100
AcDbEntity
  8
10
100
AcDbLine
 10
104.499999999999
 20
177.4999999999826
 30
0.0
 11
103.499999999999
 21
178.4999999999826
 31
0.0
  0
LINE
  5
A6A
330
1F
100
AcDbEntity
  8
10
100
AcDbLine
 10
104.499999999999
 20
178.4999999999826
 30
0.0
 11
105.499999999999
 21
177.4999999999826
 31
0.0
  0
LINE
  5
A6B
330
1F
100
AcDbEntity
  8
10
100
AcDbLine
 10
101.4999999999991
 20
181.5999999999821
 30
0.0
 11
107.499999999999
 21
181.5999999999821
 31
0.0
  0
ARC
  5
A6C
330
1F
100
AcDbEntity
  8
10
100
AcDbCircle
 10
92.9999999999991
 20
188.5999999999824
 30
0.0
 40
2.5
100
AcDbArc
 50
0.0
 51
90.0
  0
LWPOLYLINE
  5
A6D
330
1F
100
AcDbEntity
  8
10
100
AcDbPolyline
 90
        4
 70
     0
 43
0.0
 10
100.4999999999991
 20
185.4999999999826
 10
100.4999999999991
 20
197.4999999999719
 10
97.49999999999909
 20
197.4999999999719
 10
97.49999999999909
 20
179.4999999999823
  0
LINE
  5
A6E
330
1F
100
AcDbEntity
  8
10
100
AcDbLine
 10
90.99999999999909
 20
186.4999999999826
 30
0.0
 11
89.6999999999989
 21
187.7999999999824
 31
0.0
  0
LINE
  5
A6F
330
1F
100
AcDbEntity
  8
10
100
AcDbLine
 10
90.99999999999909
 20
187.7999999999824
 30
0.0
 11
92.29999999999972
 21
186.4999999999826
 31
0.0
  0
LINE
  5
A70
330
1F
100
AcDbEntity
  8
10
100
AcDbLine
 10
95.4999999999991
 20
188.5999999999824
 30
0.0
 11
95.4999999999991
 21
187.7999999999824
 31
0.0
  0
ARC
  5
A71
330
1F
100
AcDbEntity
  8
10
100
AcDbCircle
 10
101.4999999999991
 20
180.5999999999824
 30
0.0
 40
1.0
100
AcDbArc
 50
90.0
 51
180.0
  0
ARC
  5
A72
330
1F
100
AcDbEntity
  8
10
100
AcDbCircle
 10
107.499999999999
 20
180.5999999999824
 30
0.0
 40
1.0
100
AcDbArc
 50
0.0
 51
90.0
  0
LINE
  5
A73
330
1F
100
AcDbEntity
  8
10
100
AcDbLine
 10
170.4999999999988
 20
189.999999999972
 30
0.0
 11
174.4999999999988
 21
189.999999999972
 31
0.0
  0
LINE
  5
A74
330
1F
100
AcDbEntity
  8
10
100
AcDbLine
 10
174.4999999999988
 20
189.999999999972
 30
0.0
 11
174.4999999999988
 21
199.999999999972
 31
0.0
  0
LINE
  5
A75
330
1F
100
AcDbEntity
  8
10
100
AcDbLine
 10
174.4999999999988
 20
199.999999999972
 30
0.0
 11
167.4999999999988
 21
199.999999999972
 31
0.0
  0
LINE
  5
A76
330
1F
100
AcDbEntity
  8
10
100
AcDbLine
 10
167.4999999999988
 20
199.999999999972
 30
0.0
 11
167.4999999999988
 21
197.9999999999719
 31
0.0
  0
LINE
  5
A77
330
1F
100
AcDbEntity
  8
10
100
AcDbLine
 10
167.4999999999988
 20
197.9999999999719
 30
0.0
 11
170.4999999999988
 21
197.9999999999719
 31
0.0
  0
LINE
  5
A78
330
1F
100
AcDbEntity
  8
10
100
AcDbLine
 10
170.4999999999988
 20
197.9999999999719
 30
0.0
 11
170.4999999999988
 21
197.4999999999719
 31
0.0
  0
LINE
  5
A79
330
1F
100
AcDbEntity
  8
10
100
AcDbLine
 10
119.499999999999
 20
189.999999999972
 30
0.0
 11
115.499999999999
 21
189.999999999972
 31
0.0
  0
LINE
  5
A7A
330
1F
100
AcDbEntity
  8
10
100
AcDbLine
 10
115.499999999999
 20
189.999999999972
 30
0.0
 11
115.499999999999
 21
199.999999999972
 31
0.0
  0
LINE
  5
A7B
330
1F
100
AcDbEntity
  8
10
100
AcDbLine
 10
115.499999999999
 20
199.999999999972
 30
0.0
 11
122.499999999999
 21
199.999999999972
 31
0.0
  0
LINE
  5
A7C
330
1F
100
AcDbEntity
  8
10
100
AcDbLine
 10
122.499999999999
 20
199.999999999972
 30
0.0
 11
122.499999999999
 21
197.9999999999719
 31
0.0
  0
LINE
  5
A7D
330
1F
100
AcDbEntity
  8
10
100
AcDbLine
 10
122.499999999999
 20
197.9999999999719
 30
0.0
 11
119.499999999999
 21
197.9999999999719
 31
0.0
  0
LINE
  5
A7E
330
1F
100
AcDbEntity
  8
10
100
AcDbLine
 10
119.999999999999
 20
197.9999999999719
 30
0.0
 11
119.999999999999
 21
197.4999999999719
 31
0.0
  0
LINE
  5
A7F
330
1F
100
AcDbEntity
  8
10
100
AcDbLine
 10
100.4999999999991
 20
189.999999999972
 30
0.0
 11
104.499999999999
 21
189.999999999972
 31
0.0
  0
LINE
  5
A80
330
1F
100
AcDbEntity
  8
10
100
AcDbLine
 10
104.499999999999
 20
189.999999999972
 30
0.0
 11
104.499999999999
 21
199.999999999972
 31
0.0
  0
LINE
  5
A81
330
1F
100
AcDbEntity
  8
10
100
AcDbLine
 10
104.499999999999
 20
199.999999999972
 30
0.0
 11
97.49999999999909
 21
199.999999999972
 31
0.0
  0
LINE
  5
A82
330
1F
100
AcDbEntity
  8
10
100
AcDbLine
 10
97.49999999999909
 20
199.999999999972
 30
0.0
 11
97.49999999999909
 21
197.9999999999719
 31
0.0
  0
LINE
  5
A83
330
1F
100
AcDbEntity
  8
10
100
AcDbLine
 10
97.49999999999909
 20
197.9999999999719
 30
0.0
 11
100.4999999999991
 21
197.9999999999719
 31
0.0
  0
LINE
  5
A84
330
1F
100
AcDbEntity
  8
10
100
AcDbLine
 10
100.4999999999991
 20
197.9999999999719
 30
0.0
 11
100.4999999999991
 21
197.4999999999719
 31
0.0
  0
LINE
  5
A85
330
1F
100
AcDbEntity
  8
10
100
AcDbLine
 10
49.49999999999909
 20
189.999999999972
 30
0.0
 11
45.49999999999909
 21
189.999999999972
 31
0.0
  0
LINE
  5
A86
330
1F
100
AcDbEntity
  8
10
100
AcDbLine
 10
45.49999999999909
 20
189.999999999972
 30
0.0
 11
45.49999999999909
 21
199.999999999972
 31
0.0
  0
LINE
  5
A87
330
1F
100
AcDbEntity
  8
10
100
AcDbLine
 10
45.49999999999909
 20
199.999999999972
 30
0.0
 11
52.49999999999909
 21
199.999999999972
 31
0.0
  0
LINE
  5
A88
330
1F
100
AcDbEntity
  8
10
100
AcDbLine
 10
52.49999999999909
 20
199.999999999972
 30
0.0
 11
52.49999999999909
 21
197.9999999999719
 31
0.0
  0
LINE
  5
A89
330
1F
100
AcDbEntity
  8
10
100
AcDbLine
 10
52.49999999999909
 20
197.9999999999719
 30
0.0
 11
49.49999999999909
 21
197.9999999999719
 31
0.0
  0
LINE
  5
A8A
330
1F
100
AcDbEntity
  8
10
100
AcDbLine
 10
49.49999999999909
 20
197.9999999999719
 30
0.0
 11
49.49999999999909
 21
197.4999999999719
 31
0.0
  0
LINE
  5
A8B
330
1F
100
AcDbEntity
  8
10
100
AcDbLine
 10
99.99999999999909
 20
197.9999999999719
 30
0.0
 11
49.99999999999909
 21
197.9999999999719
 31
0.0
  0
LINE
  5
A8C
330
1F
100
AcDbEntity
  8
10
100
AcDbLine
 10
99.99999999999909
 20
197.4999999999719
 30
0.0
 11
49.99999999999909
 21
197.4999999999719
 31
0.0
  0
LINE
  5
A8D
330
1F
100
AcDbEntity
  8
10
100
AcDbLine
 10
49.99999999999909
 20
197.9999999999719
 30
0.0
 11
49.99999999999909
 21
197.4999999999719
 31
0.0
  0
LINE
  5
A8E
330
1F
100
AcDbEntity
  8
10
100
AcDbLine
 10
99.99999999999909
 20
197.9999999999719
 30
0.0
 11
99.99999999999909
 21
197.4999999999719
 31
0.0
  0
LINE
  5
A8F
330
1F
100
AcDbEntity
  8
10
100
AcDbLine
 10
119.499999999999
 20
197.9999999999719
 30
0.0
 11
119.499999999999
 21
197.4999999999719
 31
0.0
  0
LINE
  5
A90
330
1F
100
AcDbEntity
  8
10
100
AcDbLine
 10
169.9999999999988
 20
197.9999999999719
 30
0.0
 11
169.9999999999988
 21
197.4999999999719
 31
0.0
  0
VIEWPORT
  5
409
330
23
100
AcDbEntity
 67
     1
  8
0
100
AcDbViewport
 10
142.6315765380859
 20
99.1129140853882
 30
0.0
 40
314.2372683715819
 41
259.7433703258352
 68
     1
 69
     1
1001
ACAD
1000
MVIEW
1002
{
1070
    16
1010
0.0
1020
0.0
1030
0.0
1010
0.0
1020
0.0
1030
1.0
1040
0.0
1040
259.7433703258352
1040
142.6315765380859
1040
99.1129140853882
1040
50.0
1040
0.0
1040
0.0
1070
     0
1070
   100
1070
     1
1070
     1
1070
     0
1070
     0
1070
     0
1070
     0
1040
0.0
1040
0.0
1040
0.0
1040
10.0
1040
10.0
1040
10.0
1040
10.0
1070
     0
1002
{
1002
}
1002
}
  0
VIEWPORT
  5
40B
330
23
100
AcDbEntity
 67
     1
  8
0
100
AcDbViewport
 10
142.6315770149231
 20
99.11291456222535
 30
0.0
 40
228.2105232238769
 41
158.5806632995605
 68
     2
 69
     2
1001
ACAD
1000
MVIEW
1002
{
1070
    16
1010
0.0
1020
0.0
1030
0.0
1010
0.0
1020
0.0
1030
1.0
1040
0.0
1040
437.7797658097811
1040
303.2144175903108
1040
233.3590858733038
1040
50.0
1040
0.0
1040
0.0
1070
     0
1070
   100
1070
     1
1070
     3
1070
     0
1070
     0
1070
     0
1070
     0
1040
0.0
1040
0.0
1040
0.0
1040
10.0
1040
10.0
1040
10.0
1040
10.0
1070
     0
1002
{
1002
}
1002
}
  0
ENDSEC
  0
SECTION
  2
OBJECTS
  0
DICTIONARY
  5
C
330
0
100
AcDbDictionary
  3
ACAD_GROUP
350
D
  3
ACAD_LAYOUT
350
1A
  3
ACAD_MLINESTYLE
350
17
  3
ACAD_PLOTSETTINGS
350
19
  3
ACAD_PLOTSTYLENAME
350
E
  3
ACAMCATALOGSTATE
350
5BA
  3
ACASAPPOBJECT
350
53F
  3
ACASGREF_MASTER
350
587
  3
ACDBHEADERROUNDTRIPXREC
350
C29
  3
ACDBVARIABLEDICTIONARY
350
40D
  3
ACDMSYSVARMGR
350
519
  3
ACGREF_MASTER
350
513
  3
ACGREFACAD_MASTER
350
53B
  3
ACMDICTIONARY
350
5B6
  3
ACME_BOM_MANAGER_NAME
350
50C
  3
ACME_COMMAND_HISTORY
350
507
  3
ACME_SCOPE_NAME
350
506
  3
ACMESTATEMGR
350
511
  3
ACMESYSVARMANAGER
350
508
  3
ACMSYSTEMVARIABLEMANAGER
350
5C4
  3
AD_APPL
350
59E
  3
AD_GREF_MODULE
350
588
  3
AD_MAPI_MODULE
350
5A0
  3
ADSYSVARMGR
350
590
  3
AMDTNAMEDDWGMGR
350
536
  3
AMG
350
4FD
  3
AMGSNAPSETTINGS
350
5D0
  3
AMI_MASTER
350
53E
  3
ASURF_STATIC_VARS
350
540
  3
AUTOCAD_ASSEMBLIES_PROJECT
350
5AB
  3
AUTOSURF_SYSVARS
350
541
  3
DESIGNER_ASSEMBLIES_SYSVARS
350
5A2
  3
DWGPROPS
350
5B9
  3
GREFAM_MODULE
350
58A
  3
MAPISURF_MODULE
350
589
  0
DICTIONARY
  5
41
330
2
100
AcDbDictionary
280
     1
  3
ACAD_LAYERFILTERS
360
3FF
  3
ACAD_LAYERSTATES
360
42
  0
DICTIONARY
  5
438
330
1F
100
AcDbDictionary
280
     1
  3
ACAD_INDEX
360
5D7
  3
ACAD_LAYOUTSELFREF
360
C49
  0
DICTIONARY
  5
43A
330
23
100
AcDbDictionary
280
     1
  3
ACAD_LAYOUTSELFREF
360
C4A
  0
DICTIONARY
  5
D
102
{ACAD_REACTORS
330
C
102
}
330
C
100
AcDbDictionary
  0
DICTIONARY
  5
1A
102
{ACAD_REACTORS
330
C
102
}
330
C
100
AcDbDictionary
  0
DICTIONARY
  5
17
102
{ACAD_REACTORS
330
C
102
}
330
C
100
AcDbDictionary
  3
STANDARD
350
18
  0
DICTIONARY
  5
19
102
{ACAD_REACTORS
330
C
102
}
330
C
100
AcDbDictionary
  0
ACDBDICTIONARYWDFLT
  5
E
102
{ACAD_REACTORS
330
C
102
}
330
C
100
AcDbDictionary
281
     1
  3
Normal
350
F
100
AcDbDictionaryWithDefault
340
F
  0
ACAD_PROXY_OBJECT
  5
5BA
102
{ACAD_REACTORS
330
C
102
}
330
C
100
AcDbProxyObject
 90
      499
 91
      574
 93
      880
310
3FFFFFFFE00A0284402B0AE2E189C9917189B1C17189719182E32B733B4B732B2B934B733AE32B733B4B732B2B934B733AE26A2A2C5E34B58AE181C1898189A2FA6A2A2AF99222FC6F6483EAE39B4B5BCBAAE232916A420A62FA422A62FA1A0A22E4728C6B641B340ADC1AF400AA00
 94
        0
1001
ACAD
1000
AcadProxyRoundTripData
1071
      565
1071
   851991
1070
     0
  0
ACAD_PROXY_OBJECT
  5
53F
102
{ACAD_REACTORS
330
C
102
}
330
C
100
AcDbProxyObject
 90
      499
 91
      574
 93
       10
310
4040
 94
        0
1001
ACAD
1000
AcadProxyRoundTripData
1071
      537
1071
   851991
1070
     0
  0
ACAD_PROXY_OBJECT
  5
587
102
{ACAD_REACTORS
330
C
102
}
330
C
100
AcDbProxyObject
 90
      499
 91
      574
 93
       34
310
0100004068
 94
        0
1001
ACAD
1000
AcadProxyRoundTripData
1071
      543
1071
   851991
1070
     0
  0
DICTIONARY
  5
C29
102
{ACAD_REACTORS
330
C
102
}
330
C
100
AcDbDictionary
  3
CEPSNTYPE
350
C33
  3
FINGERPRINTGUID
350
C34
  3
HYPERLINKBASE
350
C2C
  3
INSUNITS
350
C32
  3
LAYOUTDICT
350
C2E
  3
LWETCUNION
350
C31
  3
PLOTSETDICT
350
C2F
  3
PLOTSTYLNAMDICT
350
C30
  3
PSVPSCALE
350
C36
  3
PUCSBASE
350
C39
  3
PUCSORGBACK
350
C3F
  3
PUCSORGBOTTOM
350
C3B
  3
PUCSORGFRONT
350
C3E
  3
PUCSORGLEFT
350
C3C
  3
PUCSORGRIGHT
350
C3D
  3
PUCSORGTOP
350
C3A
  3
PUCSORTHOREF
350
C37
  3
PUCSORTHOVIEW
350
C38
  3
STYLESHEET
350
C2D
  3
TSTACKALIGN
350
C2A
  3
TSTACKSIZE
350
C2B
  3
UCSBASE
350
C42
  3
UCSORGBACK
350
C48
  3
UCSORGBOTTOM
350
C44
  3
UCSORGFRONT
350
C47
  3
UCSORGLEFT
350
C45
  3
UCSORGRIGHT
350
C46
  3
UCSORGTOP
350
C43
  3
UCSORTHOREF
350
C40
  3
UCSORTHOVIEW
350
C41
  3
VERSIONGUID
350
C35
  0
DICTIONARY
  5
40D
102
{ACAD_REACTORS
330
C
102
}
330
C
100
AcDbDictionary
  3
DIMASSOC
350
40F
  3
HIDETEXT
350
40E
  3
INDEXCTL
350
5DF
  0
ACAD_PROXY_OBJECT
  5
519
102
{ACAD_REACTORS
330
C
102
}
330
C
100
AcDbProxyObject
 90
      499
 91
      574
 93
      240
310
4C51A482000000000000000000000000000000000000000000000000000000
330
51A
330
51B
330
51C
330
51D
330
51E
330
51F
330
520
330
523
330
524
330
525
330
526
330
527
330
528
330
529
330
52A
330
52B
330
52C
330
52D
330
52E
330
52F
330
530
330
531
330
532
330
533
330
534
330
535
 94
        0
1001
ACAD
1000
AcadProxyRoundTripData
1071
      516
1071
   851991
1070
     0
  0
ACAD_PROXY_OBJECT
  5
513
102
{ACAD_REACTORS
330
C
102
}
330
C
100
AcDbProxyObject
 90
      499
 91
      574
 93
       34
310
04000042A8
 94
        0
1001
ACAD
1000
AcadProxyRoundTripData
1071
      525
1071
   851991
1070
     0
  0
ACAD_PROXY_OBJECT
  5
53B
102
{ACAD_REACTORS
330
C
102
}
330
C
100
AcDbProxyObject
 90
      499
 91
      574
 93
      114
310
04000041C000000000000000000000
 94
        0
1001
ACAD
1000
AcadProxyRoundTripData
1071
      533
1071
   851991
1070
     0
  0
DICTIONARY
  5
5B6
102
{ACAD_REACTORS
330
C
102
}
330
C
100
AcDbDictionary
  3
ACMBOMDATA
350
5B7
  0
ACAD_PROXY_OBJECT
  5
50C
102
{ACAD_REACTORS
330
C
102
}
330
C
100
AcDbProxyObject
 90
      499
 91
      574
 93
       50
310
00000040400000
330
0
330
0
330
50D
 94
        0
1001
ACAD
1000
AcadProxyRoundTripData
1071
      519
1071
   851991
1070
     0
  0
ACAD_PROXY_OBJECT
  5
507
102
{ACAD_REACTORS
330
C
102
}
330
C
100
AcDbProxyObject
 90
      499
 91
      574
 93
      778
310
424050E414D4454524553455444424D4F4440805084E202D20554E444F014213880B4815539113C0507544F4F4C42415280504554E444F80504554E444F80504554E444F80504554E444F80504554E444F805054552415345805065341564541539D
 94
        0
1001
ACAD
1000
AcadProxyRoundTripData
1071
      515
1071
   851991
1070
     0
  0
ACAD_PROXY_OBJECT
  5
506
102
{ACAD_REACTORS
330
C
102
}
330
C
100
AcDbProxyObject
 90
      499
 91
      574
 93
     1242
310
06000044400000000000000000001840000400020000000000000000000000000000000000000000000000000000000000000000000000000000000000000000000000000000000000000000000000000000000000000000000000000000000000000000000000000000000000000000000000000000000000000000000000
310
00000000000000000000000000000000000000000000000000AAAAAAB0
360
509
360
50A
360
50B
360
50D
360
514
360
515
360
516
360
517
360
51A
360
51B
360
51C
360
51D
360
51E
360
51F
360
520
360
523
360
524
360
525
360
526
360
527
360
528
360
529
360
52A
360
52B
360
52C
360
52D
360
52E
360
52F
360
530
360
531
360
532
360
533
360
534
360
535
360
542
360
543
360
544
360
545
360
546
360
547
360
548
360
549
360
54A
360
54B
360
54C
360
54D
360
54E
360
54F
360
550
360
551
360
552
360
553
360
554
360
555
360
556
360
557
360
558
360
559
360
55A
360
55B
360
55C
360
55D
360
55E
360
55F
360
560
360
561
360
562
360
563
360
564
360
565
360
566
360
567
360
568
360
569
360
56A
360
56B
360
56C
360
56D
360
56E
360
56F
360
570
360
571
360
572
360
573
360
574
360
575
360
576
360
577
360
578
360
579
360
57A
360
57B
360
57C
360
57D
360
57E
360
57F
360
580
360
581
360
582
360
583
360
58C
360
58D
360
58E
360
58F
360
591
360
592
360
593
360
594
360
595
360
596
360
597
360
598
360
599
360
59A
360
59B
360
59C
360
59D
360
5A3
360
5A4
360
5A5
360
5A6
360
5A7
360
5A8
360
5A9
360
5AA
360
5AF
360
5B0
360
5B1
360
5B2
360
5B3
360
5B4
360
5C5
 94
        0
1001
ACAD
1000
AcadProxyRoundTripData
1071
      514
1071
   851991
1070
     0
  0
ACAD_PROXY_OBJECT
  5
511
102
{ACAD_REACTORS
330
C
102
}
330
C
100
AcDbProxyObject
 90
      499
 91
      574
 93
       50
310
06000041641280
 94
        0
1001
ACAD
1000
AcadProxyRoundTripData
1071
      524
1071
   851991
1070
     0
  0
ACAD_PROXY_OBJECT
  5
508
102
{ACAD_REACTORS
330
C
102
}
330
C
100
AcDbProxyObject
 90
      499
 91
      574
 93
       48
310
90342200000011
330
509
330
50A
330
50B
 94
        0
1001
ACAD
1000
AcadProxyRoundTripData
1071
      516
1071
   851991
1070
     0
  0
ACAD_PROXY_OBJECT
  5
5C4
102
{ACAD_REACTORS
330
C
102
}
330
C
100
AcDbProxyObject
 90
      499
 91
      574
 93
       32
310
9014220095
330
5C5
 94
        0
1001
ACAD
1000
AcadProxyRoundTripData
1071
      516
1071
   851991
1070
     0
  0
ACAD_PROXY_OBJECT
  5
59E
102
{ACAD_REACTORS
330
C
102
}
330
C
100
AcDbProxyObject
 90
      499
 91
      574
 93
       42
310
0006000043C1
330
58C
 94
        0
1001
ACAD
1000
AcadProxyRoundTripData
1071
      552
1071
   851991
1070
     0
  0
ACAD_PROXY_OBJECT
  5
588
102
{ACAD_REACTORS
330
C
102
}
330
C
100
AcDbProxyObject
 90
      499
 91
      574
 93
      114
310
000000438000000000000000000004
 94
        0
1001
ACAD
1000
AcadProxyRoundTripData
1071
      544
1071
   851991
1070
     0
  0
ACAD_PROXY_OBJECT
  5
5A0
102
{ACAD_REACTORS
330
C
102
}
330
C
100
AcDbProxyObject
 90
      499
 91
      574
 93
       34
310
05000044E8
 94
        0
1001
ACAD
1000
AcadProxyRoundTripData
1071
      554
1071
   851991
1070
     0
  0
ACAD_PROXY_OBJECT
  5
590
102
{ACAD_REACTORS
330
C
102
}
330
C
100
AcDbProxyObject
 90
      499
 91
      574
 93
      128
310
90D4420000000000000000000000000092
330
591
330
592
330
593
330
594
330
595
330
596
330
597
330
598
330
599
330
59A
330
59B
330
59C
330
59D
 94
        0
1001
ACAD
1000
AcadProxyRoundTripData
1071
      516
1071
   851991
1070
     0
  0
ACAD_PROXY_OBJECT
  5
536
102
{ACAD_REACTORS
330
C
102
}
330
C
100
AcDbProxyObject
 90
      499
 91
      574
 93
       42
310
000100005AC1
330
514
 94
        0
1001
ACAD
1000
AcadProxyRoundTripData
1071
      530
1071
   851991
1070
     0
  0
DICTIONARY
  5
4FD
102
{ACAD_REACTORS
330
C
102
}
330
C
100
AcDbDictionary
  3
ACMGSETTINGS
350
4FE
  3
AMGLAYCFG
350
5C3
  0
DICTIONARY
  5
5D0
102
{ACAD_REACTORS
330
C
102
}
330
C
100
AcDbDictionary
  3
DIMENSION
350
5D5
  3
FEA
350
5D4
  3
HATCH__1_
350
5D1
  3
HATCH__2_
350
5D2
  3
SIMPLE_WELD
350
5D6
  3
SYMBOLS
350
5D3
  0
ACAD_PROXY_OBJECT
  5
53E
102
{ACAD_REACTORS
330
C
102
}
330
C
100
AcDbProxyObject
 90
      499
 91
      574
 93
       34
310
05000042A8
 94
        0
1001
ACAD
1000
AcadProxyRoundTripData
1071
      536
1071
   851991
1070
     0
  0
ACAD_PROXY_OBJECT
  5
540
102
{ACAD_REACTORS
330
C
102
}
330
C
100
AcDbProxyObject
 90
      499
 91
      574
 93
      424
310
585315020000000000000000000000000000000000000000000000000000000000000000000000000000000000000000000000000000
330
553
330
554
330
555
330
556
330
557
330
558
330
559
330
55A
330
55B
330
55C
330
55D
330
55E
330
55F
330
560
330
561
330
562
330
563
330
564
330
565
330
566
330
567
330
568
330
569
330
56A
330
56B
330
56C
330
56D
330
56E
330
56F
330
570
330
571
330
572
330
573
330
574
330
575
330
576
330
577
330
578
330
579
330
57A
330
57B
330
57C
330
57D
330
57E
330
57F
330
580
330
581
330
582
330
583
 94
        0
1001
ACAD
1000
AcadProxyRoundTripData
1071
      538
1071
   851991
1070
     0
  0
ACAD_PROXY_OBJECT
  5
5AB
102
{ACAD_REACTORS
330
C
102
}
330
C
100
AcDbProxyObject
 90
      499
 91
      574
 93
       74
310
0600004A400000000000
330
5B2
330
0
330
5B3
330
0
330
0
 94
        0
1001
ACAD
1000
AcadProxyRoundTripData
1071
      556
1071
   851991
1070
     0
  0
ACAD_PROXY_OBJECT
  5
541
102
{ACAD_REACTORS
330
C
102
}
330
C
100
AcDbProxyObject
 90
      499
 91
      574
 93
      168
310
4C511482000000000000000000000000000000000000
330
542
330
543
330
544
330
545
330
546
330
547
330
548
330
549
330
54A
330
54B
330
54C
330
54D
330
54E
330
54F
330
550
330
551
330
552
 94
        0
1001
ACAD
1000
AcadProxyRoundTripData
1071
      516
1071
   851991
1070
     0
  0
ACAD_PROXY_OBJECT
  5
5A2
102
{ACAD_REACTORS
330
C
102
}
330
C
100
AcDbProxyObject
 90
      499
 91
      574
 93
       88
310
908422000000000000000000
330
5A3
330
5A4
330
5A5
330
5A6
330
5A7
330
5A8
330
5A9
330
5AA
 94
        0
1001
ACAD
1000
AcadProxyRoundTripData
1071
      516
1071
   851991
1070
     0
  0
XRECORD
  5
5B9
102
{ACAD_REACTORS
330
C
102
}
330
C
100
AcDbXrecord
  1
DWGPROPS COOKIE
  2

  3

  4

  6

  7

  8

  9

300
AmdtFileType=84
301
=
302
=
303
=
304
=
305
=
306
=
307
=
308
=
309
=
 40
0.005163125
 41
2454596.550355717
 42
2454596.675773645
  1

 90
        1
  0
ACAD_PROXY_OBJECT
  5
58A
102
{ACAD_REACTORS
330
C
102
}
330
C
100
AcDbProxyObject
 90
      499
 91
      574
 93
        8
310
0508
 94
        0
1001
ACAD
1000
AcadProxyRoundTripData
1071
      546
1071
   851991
1070
     0
  0
ACAD_PROXY_OBJECT
  5
589
102
{ACAD_REACTORS
330
C
102
}
330
C
100
AcDbProxyObject
 90
      499
 91
      574
 93
        8
310
0400
 94
        0
1001
ACAD
1000
AcadProxyRoundTripData
1071
      545
1071
   851991
1070
     0
  0
DICTIONARY
  5
3FF
102
{ACAD_REACTORS
330
41
102
}
330
41
100
AcDbDictionary
280
     1
  0
DICTIONARY
  5
42
102
{ACAD_REACTORS
330
41
102
}
330
41
100
AcDbDictionary
  0
DICTIONARY
  5
5D7
102
{ACAD_REACTORS
330
438
102
}
330
438
100
AcDbDictionary
  3
*A1
350
5D8
  0
XRECORD
  5
C49
102
{ACAD_REACTORS
330
438
102
}
330
438
100
AcDbXrecord
340
1F
  0
XRECORD
  5
C4A
102
{ACAD_REACTORS
330
43A
102
}
330
43A
100
AcDbXrecord
340
23
  0
MLINESTYLE
  5
18
102
{ACAD_REACTORS
330
17
102
}
330
17
100
AcDbMlineStyle
  2
STANDARD
 70
     0
  3

 62
   256
 51
90.0
 52
90.0
 71
     2
 49
0.5
 62
   256
  6
BYLAYER
 49
-0.5
 62
   256
  6
BYLAYER
  0
ACDBPLACEHOLDER
  5
F
102
{ACAD_REACTORS
330
E
102
}
330
E
100
AcDbPlaceHolder
280
     0
  0
XRECORD
  5
C33
102
{ACAD_REACTORS
330
C29
102
}
330
C29
100
AcDbXrecord
 90
        0
  0
XRECORD
  5
C34
102
{ACAD_REACTORS
330
C29
102
}
330
C29
100
AcDbXrecord
  1
{025C7157-5529-449E-A239-D8CA396FD83B}
  0
XRECORD
  5
C2C
102
{ACAD_REACTORS
330
C29
102
}
330
C29
100
AcDbXrecord
  1

  0
XRECORD
  5
C32
102
{ACAD_REACTORS
330
C29
102
}
330
C29
100
AcDbXrecord
 90
        4
  0
XRECORD
  5
C2E
102
{ACAD_REACTORS
330
C29
102
}
330
C29
100
AcDbXrecord
340
1A
  0
XRECORD
  5
C31
102
{ACAD_REACTORS
330
C29
102
}
330
C29
100
AcDbXrecord
 90
    10781
  0
XRECORD
  5
C2F
102
{ACAD_REACTORS
330
C29
102
}
330
C29
100
AcDbXrecord
340
19
  0
XRECORD
  5
C30
102
{ACAD_REACTORS
330
C29
102
}
330
C29
100
AcDbXrecord
340
E
  0
XRECORD
  5
C36
102
{ACAD_REACTORS
330
C29
102
}
330
C29
100
AcDbXrecord
 40
0.0
  0
XRECORD
  5
C39
102
{ACAD_REACTORS
330
C29
102
}
330
C29
100
AcDbXrecord
340
0
  0
XRECORD
  5
C3F
102
{ACAD_REACTORS
330
C29
102
}
330
C29
100
AcDbXrecord
 10
0.0
 20
0.0
 30
0.0
  0
XRECORD
  5
C3B
102
{ACAD_REACTORS
330
C29
102
}
330
C29
100
AcDbXrecord
 10
0.0
 20
0.0
 30
0.0
  0
XRECORD
  5
C3E
102
{ACAD_REACTORS
330
C29
102
}
330
C29
100
AcDbXrecord
 10
0.0
 20
0.0
 30
0.0
  0
XRECORD
  5
C3C
102
{ACAD_REACTORS
330
C29
102
}
330
C29
100
AcDbXrecord
 10
0.0
 20
0.0
 30
0.0
  0
XRECORD
  5
C3D
102
{ACAD_REACTORS
330
C29
102
}
330
C29
100
AcDbXrecord
 10
0.0
 20
0.0
 30
0.0
  0
XRECORD
  5
C3A
102
{ACAD_REACTORS
330
C29
102
}
330
C29
100
AcDbXrecord
 10
0.0
 20
0.0
 30
0.0
  0
XRECORD
  5
C37
102
{ACAD_REACTORS
330
C29
102
}
330
C29
100
AcDbXrecord
340
0
  0
XRECORD
  5
C38
102
{ACAD_REACTORS
330
C29
102
}
330
C29
100
AcDbXrecord
 70
     0
  0
XRECORD
  5
C2D
102
{ACAD_REACTORS
330
C29
102
}
330
C29
100
AcDbXrecord
  1
monochrome.ctb
  0
XRECORD
  5
C2A
102
{ACAD_REACTORS
330
C29
102
}
330
C29
100
AcDbXrecord
 90
        1
  0
XRECORD
  5
C2B
102
{ACAD_REACTORS
330
C29
102
}
330
C29
100
AcDbXrecord
 90
       70
  0
XRECORD
  5
C42
102
{ACAD_REACTORS
330
C29
102
}
330
C29
100
AcDbXrecord
340
0
  0
XRECORD
  5
C48
102
{ACAD_REACTORS
330
C29
102
}
330
C29
100
AcDbXrecord
 10
0.0
 20
0.0
 30
0.0
  0
XRECORD
  5
C44
102
{ACAD_REACTORS
330
C29
102
}
330
C29
100
AcDbXrecord
 10
0.0
 20
0.0
 30
0.0
  0
XRECORD
  5
C47
102
{ACAD_REACTORS
330
C29
102
}
330
C29
100
AcDbXrecord
 10
0.0
 20
0.0
 30
0.0
  0
XRECORD
  5
C45
102
{ACAD_REACTORS
330
C29
102
}
330
C29
100
AcDbXrecord
 10
0.0
 20
0.0
 30
0.0
  0
XRECORD
  5
C46
102
{ACAD_REACTORS
330
C29
102
}
330
C29
100
AcDbXrecord
 10
0.0
 20
0.0
 30
0.0
  0
XRECORD
  5
C43
102
{ACAD_REACTORS
330
C29
102
}
330
C29
100
AcDbXrecord
 10
0.0
 20
0.0
 30
0.0
  0
XRECORD
  5
C40
102
{ACAD_REACTORS
330
C29
102
}
330
C29
100
AcDbXrecord
340
0
  0
XRECORD
  5
C41
102
{ACAD_REACTORS
330
C29
102
}
330
C29
100
AcDbXrecord
 70
     0
  0
XRECORD
  5
C35
102
{ACAD_REACTORS
330
C29
102
}
330
C29
100
AcDbXrecord
  1
{CF330BF6-49B8-496A-809A-51EEABC1EEDA}
  0
DICTIONARYVAR
  5
40F
102
{ACAD_REACTORS
330
40D
102
}
330
40D
100
DictionaryVariables
280
     0
  1
2
  0
DICTIONARYVAR
  5
40E
102
{ACAD_REACTORS
330
40D
102
}
330
40D
100
DictionaryVariables
280
     0
  1
1
  0
DICTIONARYVAR
  5
5DF
102
{ACAD_REACTORS
330
40D
102
}
330
40D
100
DictionaryVariables
280
     0
  1
1
  0
ACAD_PROXY_OBJECT
  5
5B7
102
{ACAD_REACTORS
330
5B6
102
}
330
5B6
100
AcDbProxyObject
 90
      499
 91
      574
 93
      118
310
405010040CA904C415CD5B07571028
350
5B8
 94
        0
1001
ACAD
1000
AcadProxyRoundTripData
1071
      563
1071
   851991
1070
     0
  0
ACAD_PROXY_OBJECT
  5
509
330
0
100
AcDbProxyObject
 90
      499
 91
      574
 93
      156
310
00010143D050D351505391D5531054925390D494
330
506
 94
        0
1001
ACAD
1000
AcadProxyRoundTripData
1071
      517
1071
   851991
1070
     0
  0
ACAD_PROXY_OBJECT
  5
50A
330
0
100
AcDbProxyObject
 90
      499
 91
      574
 93
      148
310
000101439050D351531253915054925390D494
330
506
 94
        0
1001
ACAD
1000
AcadProxyRoundTripData
1071
      517
1071
   851991
1070
     0
  0
ACAD_PROXY_OBJECT
  5
50B
330
0
100
AcDbProxyObject
 90
      499
 91
      574
 93
      156
310
000101439050D35154D6535093D314D256915084
330
506
 94
        0
1001
ACAD
1000
AcadProxyRoundTripData
1071
      518
1071
   851991
1070
     0
  0
ACAD_PROXY_OBJECT
  5
50D
330
0
100
AcDbProxyObject
 90
      499
 91
      574
 93
      120
310
000101422565255A6557080C402B0010
330
506
330
0
330
0
 94
        0
1001
ACAD
1000
AcadProxyRoundTripData
1071
      520
1071
   851991
1070
     0
  0
ACAD_PROXY_OBJECT
  5
514
330
0
100
AcDbProxyObject
 90
      499
 91
      574
 93
      358
310
0001014124FEA55D00507362E332E302E31014124FEA55D00507362E332E302E3140501000041505391D311658
330
506
330
515
330
519
 94
        0
1001
ACAD
1000
AcadProxyRoundTripData
1071
      526
1071
   851991
1070
     0
  0
ACAD_PROXY_OBJECT
  5
515
330
0
100
AcDbProxyObject
 90
      499
 91
      574
 93
       48
310
00019014220011
330
506
330
516
 94
        0
1001
ACAD
1000
AcadProxyRoundTripData
1071
      527
1071
   851991
1070
     0
  0
ACAD_PROXY_OBJECT
  5
516
330
0
100
AcDbProxyObject
 90
      499
 91
      574
 93
       48
310
0001AA00000011
330
506
330
4F8
330
517
330
0
 94
        0
1001
ACAD
1000
AcadProxyRoundTripData
1071
      528
1071
   851991
1070
     0
  0
ACAD_PROXY_OBJECT
  5
517
330
0
100
AcDbProxyObject
 90
      499
 91
      574
 93
       28
310
0001AAA9
330
506
 94
        0
1001
ACAD
1000
AcadProxyRoundTripData
1071
      529
1071
   851991
1070
     0
  0
ACAD_PROXY_OBJECT
  5
51A
330
0
100
AcDbProxyObject
 90
      499
 91
      574
 93
      108
310
000101421053521310D05310D011
330
506
 94
        0
1001
ACAD
1000
AcadProxyRoundTripData
1071
      518
1071
   851991
1070
     0
  0
ACAD_PROXY_OBJECT
  5
51B
330
0
100
AcDbProxyObject
 90
      499
 91
      574
 93
      124
310
00010142905354915554D15112535010
330
506
 94
        0
1001
ACAD
1000
AcadProxyRoundTripData
1071
      518
1071
   851991
1070
     0
  0
ACAD_PROXY_OBJECT
  5
51C
330
0
100
AcDbProxyObject
 90
      499
 91
      574
 93
      132
310
00010143105354D150D51253D391125360
330
506
 94
        0
1001
ACAD
1000
AcadProxyRoundTripData
1071
      518
1071
   851991
1070
     0
  0
ACAD_PROXY_OBJECT
  5
51D
330
0
100
AcDbProxyObject
 90
      499
 91
      574
 93
      124
310
00010142905355941093D49111549013
330
506
 94
        0
1001
ACAD
1000
AcadProxyRoundTripData
1071
      518
1071
   851991
1070
     0
  0
ACAD_PROXY_OBJECT
  5
51E
330
0
100
AcDbProxyObject
 90
      499
 91
      574
 93
      116
310
0001014290535115D1D0D3D313D4A0
330
506
 94
        0
1001
ACAD
1000
AcadProxyRoundTripData
1071
      518
1071
   851991
1070
     0
  0
ACAD_PROXY_OBJECT
  5
51F
330
0
100
AcDbProxyObject
 90
      499
 91
      574
 93
      148
310
00010143505355925155D49151949154D21010
330
506
 94
        0
1001
ACAD
1000
AcadProxyRoundTripData
1071
      518
1071
   851991
1070
     0
  0
ACAD_PROXY_OBJECT
  5
520
330
0
100
AcDbProxyObject
 90
      499
 91
      574
 93
      172
310
00010144105350539393D51154149154D1549591501A
330
506
 94
        0
1001
ACAD
1000
AcadProxyRoundTripData
1071
      518
1071
   851991
1070
     0
  0
ACAD_PROXY_OBJECT
  5
523
330
0
100
AcDbProxyObject
 90
      499
 91
      574
 93
      172
310
00010144105350555513D11253505494905391D1501A
330
506
 94
        0
1001
ACAD
1000
AcadProxyRoundTripData
1071
      518
1071
   851991
1070
     0
  0
ACAD_PROXY_OBJECT
  5
524
330
0
100
AcDbProxyObject
 90
      499
 91
      574
 93
      124
310
00010142D05351561514915191125364
330
506
 94
        0
1001
ACAD
1000
AcadProxyRoundTripData
1071
      518
1071
   851991
1070
     0
  0
ACAD_PROXY_OBJECT
  5
525
330
0
100
AcDbProxyObject
 90
      499
 91
      574
 93
      132
310
00010142D05355105410539393D5115010
330
506
 94
        0
1001
ACAD
1000
AcadProxyRoundTripData
1071
      518
1071
   851991
1070
     0
  0
ACAD_PROXY_OBJECT
  5
526
330
0
100
AcDbProxyObject
 90
      499
 91
      574
 93
      108
310
00010142105350555513D0D31015
330
506
 94
        0
1001
ACAD
1000
AcadProxyRoundTripData
1071
      518
1071
   851991
1070
     0
  0
ACAD_PROXY_OBJECT
  5
527
330
0
100
AcDbProxyObject
 90
      499
 91
      574
 93
      108
310
00010142105350D3119150551055
330
506
 94
        0
1001
ACAD
1000
AcadProxyRoundTripData
1071
      518
1071
   851991
1070
     0
  0
ACAD_PROXY_OBJECT
  5
528
330
0
100
AcDbProxyObject
 90
      499
 91
      574
 93
      108
310
00010142105350D315925155D3F5
330
506
 94
        0
1001
ACAD
1000
AcadProxyRoundTripData
1071
      518
1071
   851991
1070
     0
  0
ACAD_PROXY_OBJECT
  5
529
330
0
100
AcDbProxyObject
 90
      499
 91
      574
 93
      148
310
0001014350535212511156915493D112535011
330
506
 94
        0
1001
ACAD
1000
AcadProxyRoundTripData
1071
      518
1071
   851991
1070
     0
  0
ACAD_PROXY_OBJECT
  5
52A
330
0
100
AcDbProxyObject
 90
      499
 91
      574
 93
      124
310
00010142905352105510D21254D3D012
330
506
 94
        0
1001
ACAD
1000
AcadProxyRoundTripData
1071
      518
1071
   851991
1070
     0
  0
ACAD_PROXY_OBJECT
  5
52B
330
0
100
AcDbProxyObject
 90
      499
 91
      574
 93
      148
310
00010143905354D25391D31152105513105661
330
506
 94
        0
1001
ACAD
1000
AcadProxyRoundTripData
1071
      518
1071
   851991
1070
     0
  0
ACAD_PROXY_OBJECT
  5
52C
330
0
100
AcDbProxyObject
 90
      499
 91
      574
 93
      124
310
00010142D0535115D1D193111254D423
330
506
 94
        0
1001
ACAD
1000
AcadProxyRoundTripData
1071
      518
1071
   851991
1070
     0
  0
ACAD_PROXY_OBJECT
  5
52D
330
0
100
AcDbProxyObject
 90
      499
 91
      574
 93
      100
310
00010142105350555513D213A2
330
506
 94
        0
1001
ACAD
1000
AcadProxyRoundTripData
1071
      518
1071
   851991
1070
     0
  0
ACAD_PROXY_OBJECT
  5
52E
330
0
100
AcDbProxyObject
 90
      499
 91
      574
 93
      116
310
000101425053521390D3D553951014
330
506
 94
        0
1001
ACAD
1000
AcadProxyRoundTripData
1071
      518
1071
   851991
1070
     0
  0
ACAD_PROXY_OBJECT
  5
52F
330
0
100
AcDbProxyObject
 90
      499
 91
      574
 93
      108
310
0001014210535213941493D29010
330
506
 94
        0
1001
ACAD
1000
AcadProxyRoundTripData
1071
      518
1071
   851991
1070
     0
  0
ACAD_PROXY_OBJECT
  5
530
330
0
100
AcDbProxyObject
 90
      499
 91
      574
 93
      108
310
0001014210535213951654115070
330
506
 94
        0
1001
ACAD
1000
AcadProxyRoundTripData
1071
      518
1071
   851991
1070
     0
  0
ACAD_PROXY_OBJECT
  5
531
330
0
100
AcDbProxyObject
 90
      499
 91
      574
 93
      108
310
000101421053521395925155D0F0
330
506
 94
        0
1001
ACAD
1000
AcadProxyRoundTripData
1071
      518
1071
   851991
1070
     0
  0
ACAD_PROXY_OBJECT
  5
532
330
0
100
AcDbProxyObject
 90
      499
 91
      574
 93
      140
310
00010143505354D150D51253D390D3D41666
330
506
 94
        0
1001
ACAD
1000
AcadProxyRoundTripData
1071
      518
1071
   851991
1070
     0
  0
ACAD_PROXY_OBJECT
  5
533
330
0
100
AcDbProxyObject
 90
      499
 91
      574
 93
      108
310
00010142105350D3141493D29030
330
506
 94
        0
1001
ACAD
1000
AcadProxyRoundTripData
1071
      518
1071
   851991
1070
     0
  0
ACAD_PROXY_OBJECT
  5
534
330
0
100
AcDbProxyObject
 90
      499
 91
      574
 93
      212
310
00010143905350555513D2105510D21493D500000000000002E400
330
506
 94
        0
1001
ACAD
1000
AcadProxyRoundTripData
1071
      517
1071
   851991
1070
     0
  0
ACAD_PROXY_OBJECT
  5
535
330
0
100
AcDbProxyObject
 90
      499
 91
      574
 93
      156
310
00010143905350555513D2105510D21111551010
330
506
 94
        0
1001
ACAD
1000
AcadProxyRoundTripData
1071
      518
1071
   851991
1070
     0
  0
ACAD_PROXY_OBJECT
  5
542
330
0
100
AcDbProxyObject
 90
      499
 91
      574
 93
      116
310
000101425053541051D15311539190
330
506
 94
        0
1001
ACAD
1000
AcadProxyRoundTripData
1071
      518
1071
   851991
1070
     0
  0
ACAD_PROXY_OBJECT
  5
543
330
0
100
AcDbProxyObject
 90
      499
 91
      574
 93
      108
310
000101421053555312539154D050
330
506
 94
        0
1001
ACAD
1000
AcadProxyRoundTripData
1071
      518
1071
   851991
1070
     0
  0
ACAD_PROXY_OBJECT
  5
544
330
0
100
AcDbProxyObject
 90
      499
 91
      574
 93
      108
310
000101421053559312539154D030
330
506
 94
        0
1001
ACAD
1000
AcadProxyRoundTripData
1071
      518
1071
   851991
1070
     0
  0
ACAD_PROXY_OBJECT
  5
545
330
0
100
AcDbProxyObject
 90
      499
 91
      574
 93
      140
310
00010143105354D1911254D41353D1115010
330
506
 94
        0
1001
ACAD
1000
AcadProxyRoundTripData
1071
      518
1071
   851991
1070
     0
  0
ACAD_PROXY_OBJECT
  5
546
330
0
100
AcDbProxyObject
 90
      499
 91
      574
 93
      172
310
00010142505354119255105391C1C052DC9A6F104400
330
506
 94
        0
1001
ACAD
1000
AcadProxyRoundTripData
1071
      517
1071
   851991
1070
     0
  0
ACAD_PROXY_OBJECT
  5
547
330
0
100
AcDbProxyObject
 90
      499
 91
      574
 93
      164
310
000101421053559150D05551C000000000000E03F0
330
506
 94
        0
1001
ACAD
1000
AcadProxyRoundTripData
1071
      517
1071
   851991
1070
     0
  0
ACAD_PROXY_OBJECT
  5
548
330
0
100
AcDbProxyObject
 90
      499
 91
      574
 93
      180
310
00010142905350931153911513D307B14AE47E17A843F0
330
506
 94
        0
1001
ACAD
1000
AcadProxyRoundTripData
1071
      517
1071
   851991
1070
     0
  0
ACAD_PROXY_OBJECT
  5
549
330
0
100
AcDbProxyObject
 90
      499
 91
      574
 93
      172
310
0001014250535293D25391D05407B14AE47E17A843F0
330
506
 94
        0
1001
ACAD
1000
AcadProxyRoundTripData
1071
      517
1071
   851991
1070
     0
  0
ACAD_PROXY_OBJECT
  5
54A
330
0
100
AcDbProxyObject
 90
      499
 91
      574
 93
      172
310
000101425053541192551311538000000FC83D797410
330
506
 94
        0
1001
ACAD
1000
AcadProxyRoundTripData
1071
      517
1071
   851991
1070
     0
  0
ACAD_PROXY_OBJECT
  5
54B
330
0
100
AcDbProxyObject
 90
      499
 91
      574
 93
      156
310
00010141D053559150D4D18000000000000E03F0
330
506
 94
        0
1001
ACAD
1000
AcadProxyRoundTripData
1071
      517
1071
   851991
1070
     0
  0
ACAD_PROXY_OBJECT
  5
54C
330
0
100
AcDbProxyObject
 90
      499
 91
      574
 93
      156
310
00010141D05354D19513D309A9999999999993F0
330
506
 94
        0
1001
ACAD
1000
AcadProxyRoundTripData
1071
      517
1071
   851991
1070
     0
  0
ACAD_PROXY_OBJECT
  5
54D
330
0
100
AcDbProxyObject
 90
      499
 91
      574
 93
      172
310
000101425053541192551513D307B14AE47E17A843F0
330
506
 94
        0
1001
ACAD
1000
AcadProxyRoundTripData
1071
      517
1071
   851991
1070
     0
  0
ACAD_PROXY_OBJECT
  5
54E
330
0
100
AcDbProxyObject
 90
      499
 91
      574
 93
      188
310
00010142D05354D151D192551513D307B14AE47E17A843F0
330
506
 94
        0
1001
ACAD
1000
AcadProxyRoundTripData
1071
      517
1071
   851991
1070
     0
  0
ACAD_PROXY_OBJECT
  5
54F
330
0
100
AcDbProxyObject
 90
      499
 91
      574
 93
      148
310
000101419053541311538000000FC83D797410
330
506
 94
        0
1001
ACAD
1000
AcadProxyRoundTripData
1071
      517
1071
   851991
1070
     0
  0
ACAD_PROXY_OBJECT
  5
550
330
0
100
AcDbProxyObject
 90
      499
 91
      574
 93
      172
310
00010142505354105391D513D301C052DC9A6F104400
330
506
 94
        0
1001
ACAD
1000
AcadProxyRoundTripData
1071
      517
1071
   851991
1070
     0
  0
ACAD_PROXY_OBJECT
  5
551
330
0
100
AcDbProxyObject
 90
      499
 91
      574
 93
      132
310
0001014114D25691400000000000024400
330
506
 94
        0
1001
ACAD
1000
AcadProxyRoundTripData
1071
      517
1071
   851991
1070
     0
  0
ACAD_PROXY_OBJECT
  5
552
330
0
100
AcDbProxyObject
 90
      499
 91
      574
 93
      156
310
00010142905351D4941491519256005034153470
330
506
 94
        0
1001
ACAD
1000
AcadProxyRoundTripData
1071
      539
1071
   851991
1070
     0
  0
ACAD_PROXY_OBJECT
  5
553
330
0
100
AcDbProxyObject
 90
      499
 91
      574
 93
      314
310
00014080509646973745363616C650000000000003C2FC000000000000F0BF0000003F20F5E5D040
330
506
 94
        0
1001
ACAD
1000
AcadProxyRoundTripData
1071
      540
1071
   851991
1070
     0
  0
ACAD_PROXY_OBJECT
  5
554
330
0
100
AcDbProxyObject
 90
      499
 91
      574
 93
      322
310
0001408050A65646175526F74617465060B51153EC87E4FC182D4454FB2119C0060B51153EC8465000
330
506
 94
        0
1001
ACAD
1000
AcadProxyRoundTripData
1071
      540
1071
   851991
1070
     0
  0
ACAD_PROXY_OBJECT
  5
555
330
0
100
AcDbProxyObject
 90
      499
 91
      574
 93
      314
310
00014080509656461755477697374060B51153EC846500000000FC83D797C10000003F20F5E5D040
330
506
 94
        0
1001
ACAD
1000
AcadProxyRoundTripData
1071
      540
1071
   851991
1070
     0
  0
ACAD_PROXY_OBJECT
  5
556
330
0
100
AcDbProxyObject
 90
      499
 91
      574
 93
      294
310
000140C050A656467654F75747075740144F3B7F635ECB74A140A4817D41BDB1E5B1A5B994
330
506
 94
        0
1001
ACAD
1000
AcadProxyRoundTripData
1071
      541
1071
   851991
1070
     0
  0
ACAD_PROXY_OBJECT
  5
557
330
0
100
AcDbProxyObject
 90
      499
 91
      574
 93
      154
310
0001404050B65646974507265766965774064040
330
506
 94
        0
1001
ACAD
1000
AcadProxyRoundTripData
1071
      542
1071
   851991
1070
     0
  0
ACAD_PROXY_OBJECT
  5
558
330
0
100
AcDbProxyObject
 90
      499
 91
      574
 93
      170
310
0001404050A666C6F77556C696E657342A3A00C00000
330
506
 94
        0
1001
ACAD
1000
AcadProxyRoundTripData
1071
      542
1071
   851991
1070
     0
  0
ACAD_PROXY_OBJECT
  5
559
330
0
100
AcDbProxyObject
 90
      499
 91
      574
 93
      170
310
0001404050A666C6F77566C696E657342A3A00C00000
330
506
 94
        0
1001
ACAD
1000
AcadProxyRoundTripData
1071
      542
1071
   851991
1070
     0
  0
ACAD_PROXY_OBJECT
  5
55A
330
0
100
AcDbProxyObject
 90
      499
 91
      574
 93
      322
310
0001408050A666C7366456E645261640000000000003C2FC000000000000F0BF0000003F20F5E5D040
330
506
 94
        0
1001
ACAD
1000
AcadProxyRoundTripData
1071
      540
1071
   851991
1070
     0
  0
ACAD_PROXY_OBJECT
  5
55B
330
0
100
AcDbProxyObject
 90
      499
 91
      574
 93
      246
310
000140C05086A6E33644D6F64650143E3BA24EB8A134A4817D3585B9D585B0
330
506
 94
        0
1001
ACAD
1000
AcadProxyRoundTripData
1071
      541
1071
   851991
1070
     0
  0
ACAD_PROXY_OBJECT
  5
55C
330
0
100
AcDbProxyObject
 90
      499
 91
      574
 93
      294
310
000140C050A6A6E33644F75747075740144F3B7F635ECB74A140A4817D41BDB1E5B1A5B994
330
506
 94
        0
1001
ACAD
1000
AcadProxyRoundTripData
1071
      541
1071
   851991
1070
     0
  0
ACAD_PROXY_OBJECT
  5
55D
330
0
100
AcDbProxyObject
 90
      499
 91
      574
 93
      306
310
000140805086C656E675065726300000000002016D002D431CEBE2361A3F0000003F20F5E5D040
330
506
 94
        0
1001
ACAD
1000
AcadProxyRoundTripData
1071
      540
1071
   851991
1070
     0
  0
ACAD_PROXY_OBJECT
  5
55E
330
0
100
AcDbProxyObject
 90
      499
 91
      574
 93
      266
310
0001408050B6D61737344656E7369747942D431CEBE2361A3F0000003F20F5E5D040
330
506
 94
        0
1001
ACAD
1000
AcadProxyRoundTripData
1071
      540
1071
   851991
1070
     0
  0
ACAD_PROXY_OBJECT
  5
55F
330
0
100
AcDbProxyObject
 90
      499
 91
      574
 93
      186
310
000140805096D617373546869636BA0000003F20F5E5D040
330
506
 94
        0
1001
ACAD
1000
AcadProxyRoundTripData
1071
      540
1071
   851991
1070
     0
  0
ACAD_PROXY_OBJECT
  5
560
330
0
100
AcDbProxyObject
 90
      499
 91
      574
 93
      230
310
000140C05086D6173735479706501436F2AB64A14CA4817D4DA195B1B0
330
506
 94
        0
1001
ACAD
1000
AcadProxyRoundTripData
1071
      541
1071
   851991
1070
     0
  0
ACAD_PROXY_OBJECT
  5
561
330
0
100
AcDbProxyObject
 90
      499
 91
      574
 93
      242
310
000140805086F667366446973744000000FC83D797C10000003F20F5E5D040
330
506
 94
        0
1001
ACAD
1000
AcadProxyRoundTripData
1071
      540
1071
   851991
1070
     0
  0
ACAD_PROXY_OBJECT
  5
562
330
0
100
AcDbProxyObject
 90
      499
 91
      574
 93
      258
310
0001408050A7072696D52616469757342D431CEBE2361A3F0000003F20F5E5D040
330
506
 94
        0
1001
ACAD
1000
AcadProxyRoundTripData
1071
      540
1071
   851991
1070
     0
  0
ACAD_PROXY_OBJECT
  5
563
330
0
100
AcDbProxyObject
 90
      499
 91
      574
 93
      194
310
0001408050A7072696D546F70526164A0000003F20F5E5D040
330
506
 94
        0
1001
ACAD
1000
AcadProxyRoundTripData
1071
      540
1071
   851991
1070
     0
  0
ACAD_PROXY_OBJECT
  5
564
330
0
100
AcDbProxyObject
 90
      499
 91
      574
 93
      266
310
0001408050B7072696D5475626552616442D431CEBE2361A3F0000003F20F5E5D040
330
506
 94
        0
1001
ACAD
1000
AcadProxyRoundTripData
1071
      540
1071
   851991
1070
     0
  0
ACAD_PROXY_OBJECT
  5
565
330
0
100
AcDbProxyObject
 90
      499
 91
      574
 93
      258
310
0001408050A7072696D4865696768744000000FC83D797C10000003F20F5E5D040
330
506
 94
        0
1001
ACAD
1000
AcadProxyRoundTripData
1071
      540
1071
   851991
1070
     0
  0
ACAD_PROXY_OBJECT
  5
566
330
0
100
AcDbProxyObject
 90
      499
 91
      574
 93
      250
310
000140805097072696D5374416E678182D4454FB2119C0060B51153EC8465000
330
506
 94
        0
1001
ACAD
1000
AcadProxyRoundTripData
1071
      540
1071
   851991
1070
     0
  0
ACAD_PROXY_OBJECT
  5
567
330
0
100
AcDbProxyObject
 90
      499
 91
      574
 93
      322
310
0001408050A7072696D456E64416E67060B51153EC846500182D4454FB2119C0060B51153EC8465000
330
506
 94
        0
1001
ACAD
1000
AcadProxyRoundTripData
1071
      540
1071
   851991
1070
     0
  0
ACAD_PROXY_OBJECT
  5
568
330
0
100
AcDbProxyObject
 90
      499
 91
      574
 93
      242
310
000140805087265765374416E678182D4454FB2119C0060B51153EC8465000
330
506
 94
        0
1001
ACAD
1000
AcadProxyRoundTripData
1071
      540
1071
   851991
1070
     0
  0
ACAD_PROXY_OBJECT
  5
569
330
0
100
AcDbProxyObject
 90
      499
 91
      574
 93
      314
310
00014080509726576456E64416E67060B51153EC846500182D4454FB2119C0060B51153EC8465000
330
506
 94
        0
1001
ACAD
1000
AcadProxyRoundTripData
1071
      540
1071
   851991
1070
     0
  0
ACAD_PROXY_OBJECT
  5
56A
330
0
100
AcDbProxyObject
 90
      499
 91
      574
 93
      194
310
0001404050C7266736655706174636865734290139C0C00000
330
506
 94
        0
1001
ACAD
1000
AcadProxyRoundTripData
1071
      542
1071
   851991
1070
     0
  0
ACAD_PROXY_OBJECT
  5
56B
330
0
100
AcDbProxyObject
 90
      499
 91
      574
 93
      194
310
0001404050C7266736656706174636865734290139C0C00000
330
506
 94
        0
1001
ACAD
1000
AcadProxyRoundTripData
1071
      542
1071
   851991
1070
     0
  0
ACAD_PROXY_OBJECT
  5
56C
330
0
100
AcDbProxyObject
 90
      499
 91
      574
 93
      246
310
000140C0508747562654D6F64650143E3BA24EB8A134A4817D3585B9D585B0
330
506
 94
        0
1001
ACAD
1000
AcadProxyRoundTripData
1071
      541
1071
   851991
1070
     0
  0
ACAD_PROXY_OBJECT
  5
56D
330
0
100
AcDbProxyObject
 90
      499
 91
      574
 93
      274
310
0001408050C747562654469616D6574657242D431CEBE2361A3F0000003F20F5E5D040
330
506
 94
        0
1001
ACAD
1000
AcadProxyRoundTripData
1071
      540
1071
   851991
1070
     0
  0
ACAD_PROXY_OBJECT
  5
56E
330
0
100
AcDbProxyObject
 90
      499
 91
      574
 93
      130
310
00014040509696E746572506F6C79A4040
330
506
 94
        0
1001
ACAD
1000
AcadProxyRoundTripData
1071
      542
1071
   851991
1070
     0
  0
ACAD_PROXY_OBJECT
  5
56F
330
0
100
AcDbProxyObject
 90
      499
 91
      574
 93
      162
310
0001404050D696E746572417567506F696E74A4040
330
506
 94
        0
1001
ACAD
1000
AcadProxyRoundTripData
1071
      542
1071
   851991
1070
     0
  0
ACAD_PROXY_OBJECT
  5
570
330
0
100
AcDbProxyObject
 90
      499
 91
      574
 93
      238
310
000140C0509696E7465727472696D014365EF257ECA108A4817D09BDD1A0
330
506
 94
        0
1001
ACAD
1000
AcadProxyRoundTripData
1071
      541
1071
   851991
1070
     0
  0
ACAD_PROXY_OBJECT
  5
571
330
0
100
AcDbProxyObject
 90
      499
 91
      574
 93
      230
310
000140C0509696E7465727479706501433136344A150A4817D51C9A5B4
330
506
 94
        0
1001
ACAD
1000
AcadProxyRoundTripData
1071
      541
1071
   851991
1070
     0
  0
ACAD_PROXY_OBJECT
  5
572
330
0
100
AcDbProxyObject
 90
      499
 91
      574
 93
      146
310
0001404050A636F726E65727472696D4064040
330
506
 94
        0
1001
ACAD
1000
AcadProxyRoundTripData
1071
      542
1071
   851991
1070
     0
  0
ACAD_PROXY_OBJECT
  5
573
330
0
100
AcDbProxyObject
 90
      499
 91
      574
 93
      130
310
000140405086F6673666B6565704064040
330
506
 94
        0
1001
ACAD
1000
AcadProxyRoundTripData
1071
      542
1071
   851991
1070
     0
  0
ACAD_PROXY_OBJECT
  5
574
330
0
100
AcDbProxyObject
 90
      499
 91
      574
 93
      146
310
0001404050A70726F6A4F757470757440A40C0
330
506
 94
        0
1001
ACAD
1000
AcadProxyRoundTripData
1071
      542
1071
   851991
1070
     0
  0
ACAD_PROXY_OBJECT
  5
575
330
0
100
AcDbProxyObject
 90
      499
 91
      574
 93
      270
310
000140C050D70726F6A446972656374696F6E014372F7AB6C0A124A4817DD92595DC
330
506
 94
        0
1001
ACAD
1000
AcadProxyRoundTripData
1071
      541
1071
   851991
1070
     0
  0
ACAD_PROXY_OBJECT
  5
576
330
0
100
AcDbProxyObject
 90
      499
 91
      574
 93
      130
310
0001404050870726F6A4B6565704064040
330
506
 94
        0
1001
ACAD
1000
AcadProxyRoundTripData
1071
      542
1071
   851991
1070
     0
  0
ACAD_PROXY_OBJECT
  5
577
330
0
100
AcDbProxyObject
 90
      499
 91
      574
 93
      278
310
000140C050B70726F6A53706163696E670144237164D2CA13CA4817D3DC1D1A5B585B0
330
506
 94
        0
1001
ACAD
1000
AcadProxyRoundTripData
1071
      541
1071
   851991
1070
     0
  0
ACAD_PROXY_OBJECT
  5
578
330
0
100
AcDbProxyObject
 90
      499
 91
      574
 93
      250
310
0001408050970726F6A54617065728182D4454FB21F9BF060B51153EC87E4FC0
330
506
 94
        0
1001
ACAD
1000
AcadProxyRoundTripData
1071
      540
1071
   851991
1070
     0
  0
ACAD_PROXY_OBJECT
  5
579
330
0
100
AcDbProxyObject
 90
      499
 91
      574
 93
      130
310
00014040508647261674B6565704064040
330
506
 94
        0
1001
ACAD
1000
AcadProxyRoundTripData
1071
      542
1071
   851991
1070
     0
  0
ACAD_PROXY_OBJECT
  5
57A
330
0
100
AcDbProxyObject
 90
      499
 91
      574
 93
      302
310
000140C050F647261674F7269656E746174696F6E0143E590243F0A138A4817D39BDC9B585B0
330
506
 94
        0
1001
ACAD
1000
AcadProxyRoundTripData
1071
      541
1071
   851991
1070
     0
  0
ACAD_PROXY_OBJECT
  5
57B
330
0
100
AcDbProxyObject
 90
      499
 91
      574
 93
      286
310
000140C050E647261675472616E736974696F6E0143A3B6A4DE0A10CA4817DCD0D85B194
330
506
 94
        0
1001
ACAD
1000
AcadProxyRoundTripData
1071
      541
1071
   851991
1070
     0
  0
ACAD_PROXY_OBJECT
  5
57C
330
0
100
AcDbProxyObject
 90
      499
 91
      574
 93
      318
310
000140C051061646A757374436F6E74696E7569747901442F746C2F778A14CA4817D4DB5BDBDD1A0
330
506
 94
        0
1001
ACAD
1000
AcadProxyRoundTripData
1071
      541
1071
   851991
1070
     0
  0
ACAD_PROXY_OBJECT
  5
57D
330
0
100
AcDbProxyObject
 90
      499
 91
      574
 93
      138
310
0001404050A61646A7573744B656570A4040
330
506
 94
        0
1001
ACAD
1000
AcadProxyRoundTripData
1071
      542
1071
   851991
1070
     0
  0
ACAD_PROXY_OBJECT
  5
57E
330
0
100
AcDbProxyObject
 90
      499
 91
      574
 93
      250
310
0001408050972756C65576964746842D431CEBE2361A3F0000003F20F5E5D040
330
506
 94
        0
1001
ACAD
1000
AcadProxyRoundTripData
1071
      540
1071
   851991
1070
     0
  0
ACAD_PROXY_OBJECT
  5
57F
330
0
100
AcDbProxyObject
 90
      499
 91
      574
 93
      274
310
0001408050C616E616C797A65447261667421D139D28615ED8FE060B51153EC8425000
330
506
 94
        0
1001
ACAD
1000
AcadProxyRoundTripData
1071
      540
1071
   851991
1070
     0
  0
ACAD_PROXY_OBJECT
  5
580
330
0
100
AcDbProxyObject
 90
      499
 91
      574
 93
      210
310
0001404050F616E616C797A654E756D4C696E65734163FDFC00000
330
506
 94
        0
1001
ACAD
1000
AcadProxyRoundTripData
1071
      542
1071
   851991
1070
     0
  0
ACAD_PROXY_OBJECT
  5
581
330
0
100
AcDbProxyObject
 90
      499
 91
      574
 93
      202
310
00014040512616E616C797A65526F746174654C696E6573A4040
330
506
 94
        0
1001
ACAD
1000
AcadProxyRoundTripData
1071
      542
1071
   851991
1070
     0
  0
ACAD_PROXY_OBJECT
  5
582
330
0
100
AcDbProxyObject
 90
      499
 91
      574
 93
      210
310
00014040513616E616C797A65446973706C61794C696E6573A4040
330
506
 94
        0
1001
ACAD
1000
AcadProxyRoundTripData
1071
      542
1071
   851991
1070
     0
  0
ACAD_PROXY_OBJECT
  5
583
330
0
100
AcDbProxyObject
 90
      499
 91
      574
 93
      258
310
00014040519616E616C797A655472616E736C7563656E7453757266616365A4040
330
506
 94
        0
1001
ACAD
1000
AcadProxyRoundTripData
1071
      542
1071
   851991
1070
     0
  0
ACAD_PROXY_OBJECT
  5
58C
330
0
100
AcDbProxyObject
 90
      499
 91
      574
 93
      698
310
0001000000009AA6A9AA4051E4D6F6E204F63742031332030303A33373A353920323030382028555443290141CD8B8D0B8C0B8C405184D6F6E204F63742031332030393A34313A333120323030380141CD8B8D0B8C0B8C40
330
506
330
58D
330
58E
330
590
330
0
 94
        0
1001
ACAD
1000
AcadProxyRoundTripData
1071
      548
1071
   851991
1070
     0
  0
ACAD_PROXY_OBJECT
  5
58D
330
0
100
AcDbProxyObject
 90
      499
 91
      574
 93
       70
310
0001AAA80820000000
330
506
330
58D
330
58D
 94
        0
1001
ACAD
1000
AcadProxyRoundTripData
1071
      549
1071
   851991
1070
     0
  0
ACAD_PROXY_OBJECT
  5
58E
330
0
100
AcDbProxyObject
 90
      499
 91
      574
 93
       48
310
00010000000011
330
506
330
0
330
58F
330
0
330
0
 94
        0
1001
ACAD
1000
AcadProxyRoundTripData
1071
      550
1071
   851991
1070
     0
  0
ACAD_PROXY_OBJECT
  5
58F
330
0
100
AcDbProxyObject
 90
      499
 91
      574
 93
       40
310
000100AAAA06
330
506
330
0
 94
        0
1001
ACAD
1000
AcadProxyRoundTripData
1071
      551
1071
   851991
1070
     0
  0
ACAD_PROXY_OBJECT
  5
591
330
0
100
AcDbProxyObject
 90
      499
 91
      574
 93
      124
310
00010142905350D3D39114D414D69050
330
506
 94
        0
1001
ACAD
1000
AcadProxyRoundTripData
1071
      518
1071
   851991
1070
     0
  0
ACAD_PROXY_OBJECT
  5
592
330
0
100
AcDbProxyObject
 90
      499
 91
      574
 93
      124
310
000101429053549553115353D1115010
330
506
 94
        0
1001
ACAD
1000
AcadProxyRoundTripData
1071
      518
1071
   851991
1070
     0
  0
ACAD_PROXY_OBJECT
  5
593
330
0
100
AcDbProxyObject
 90
      499
 91
      574
 93
      108
310
00010142105354D2D353D1115010
330
506
 94
        0
1001
ACAD
1000
AcadProxyRoundTripData
1071
      518
1071
   851991
1070
     0
  0
ACAD_PROXY_OBJECT
  5
594
330
0
100
AcDbProxyObject
 90
      499
 91
      574
 93
      140
310
000101435053511253511254D41353D11160
330
506
 94
        0
1001
ACAD
1000
AcadProxyRoundTripData
1071
      518
1071
   851991
1070
     0
  0
ACAD_PROXY_OBJECT
  5
595
330
0
100
AcDbProxyObject
 90
      499
 91
      574
 93
      180
310
00010142905354D2D05391D513D3000000000000010400
330
506
 94
        0
1001
ACAD
1000
AcadProxyRoundTripData
1071
      517
1071
   851991
1070
     0
  0
ACAD_PROXY_OBJECT
  5
596
330
0
100
AcDbProxyObject
 90
      499
 91
      574
 93
      164
310
00010142505354D2D4D516531140505434F4E542A0
330
506
 94
        0
1001
ACAD
1000
AcadProxyRoundTripData
1071
      539
1071
   851991
1070
     0
  0
ACAD_PROXY_OBJECT
  5
597
330
0
100
AcDbProxyObject
 90
      499
 91
      574
 93
      108
310
00010142105350D3511112535010
330
506
 94
        0
1001
ACAD
1000
AcadProxyRoundTripData
1071
      518
1071
   851991
1070
     0
  0
ACAD_PROXY_OBJECT
  5
598
330
0
100
AcDbProxyObject
 90
      499
 91
      574
 93
      108
310
00010142105350D3D35414D59010
330
506
 94
        0
1001
ACAD
1000
AcadProxyRoundTripData
1071
      518
1071
   851991
1070
     0
  0
ACAD_PROXY_OBJECT
  5
599
330
0
100
AcDbProxyObject
 90
      499
 91
      574
 93
      164
310
0001014290535410549514D4119600504CADFB0C20
330
506
 94
        0
1001
ACAD
1000
AcadProxyRoundTripData
1071
      539
1071
   851991
1070
     0
  0
ACAD_PROXY_OBJECT
  5
59A
330
0
100
AcDbProxyObject
 90
      499
 91
      574
 93
      220
310
0001014350535513D3D31093D11654119600508C2B0D9CEDEC3DEA80
330
506
 94
        0
1001
ACAD
1000
AcadProxyRoundTripData
1071
      539
1071
   851991
1070
     0
  0
ACAD_PROXY_OBJECT
  5
59B
330
0
100
AcDbProxyObject
 90
      499
 91
      574
 93
      116
310
000101425053511254D410D3D39010
330
506
 94
        0
1001
ACAD
1000
AcadProxyRoundTripData
1071
      518
1071
   851991
1070
     0
  0
ACAD_PROXY_OBJECT
  5
59C
330
0
100
AcDbProxyObject
 90
      499
 91
      574
 93
      108
310
00010142105350D3D39114D41010
330
506
 94
        0
1001
ACAD
1000
AcadProxyRoundTripData
1071
      518
1071
   851991
1070
     0
  0
ACAD_PROXY_OBJECT
  5
59D
330
0
100
AcDbProxyObject
 90
      499
 91
      574
 93
      124
310
0001014290535490511114D414D69190
330
506
 94
        0
1001
ACAD
1000
AcadProxyRoundTripData
1071
      518
1071
   851991
1070
     0
  0
ACAD_PROXY_OBJECT
  5
5A3
330
0
100
AcDbProxyObject
 90
      499
 91
      574
 93
      132
310
00010142D05050555513D4D3D315915010
330
506
 94
        0
1001
ACAD
1000
AcadProxyRoundTripData
1071
      518
1071
   851991
1070
     0
  0
ACAD_PROXY_OBJECT
  5
5A4
330
0
100
AcDbProxyObject
 90
      499
 91
      574
 93
      156
310
00010143905050555513D054D4D1535093115010
330
506
 94
        0
1001
ACAD
1000
AcadProxyRoundTripData
1071
      518
1071
   851991
1070
     0
  0
ACAD_PROXY_OBJECT
  5
5A5
330
0
100
AcDbProxyObject
 90
      499
 91
      574
 93
      148
310
00010143505055925155D49154D513D4915010
330
506
 94
        0
1001
ACAD
1000
AcadProxyRoundTripData
1071
      518
1071
   851991
1070
     0
  0
ACAD_PROXY_OBJECT
  5
5A6
330
0
100
AcDbProxyObject
 90
      499
 91
      574
 93
      124
310
00010142D050525394D15495105094E0
330
506
 94
        0
1001
ACAD
1000
AcadProxyRoundTripData
1071
      518
1071
   851991
1070
     0
  0
ACAD_PROXY_OBJECT
  5
5A7
330
0
100
AcDbProxyObject
 90
      499
 91
      574
 93
      148
310
00010143505054D0D153915554111055115010
330
506
 94
        0
1001
ACAD
1000
AcadProxyRoundTripData
1071
      518
1071
   851991
1070
     0
  0
ACAD_PROXY_OBJECT
  5
5A8
330
0
100
AcDbProxyObject
 90
      499
 91
      574
 93
      172
310
00010143105054D5509054D4D3541196005035355420
330
506
 94
        0
1001
ACAD
1000
AcadProxyRoundTripData
1071
      539
1071
   851991
1070
     0
  0
ACAD_PROXY_OBJECT
  5
5A9
330
0
100
AcDbProxyObject
 90
      499
 91
      574
 93
      172
310
00010142905054D0D15391541196005055343454E450
330
506
 94
        0
1001
ACAD
1000
AcadProxyRoundTripData
1071
      539
1071
   851991
1070
     0
  0
ACAD_PROXY_OBJECT
  5
5AA
330
0
100
AcDbProxyObject
 90
      499
 91
      574
 93
      148
310
00010143505350555513D313D0D2D4D0D39010
330
506
 94
        0
1001
ACAD
1000
AcadProxyRoundTripData
1071
      518
1071
   851991
1070
     0
  0
ACAD_PROXY_OBJECT
  5
5AF
330
0
100
AcDbProxyObject
 90
      499
 91
      574
 93
       32
310
0001000000
330
506
340
5AC
330
5B1
330
5AC
 94
        0
1001
ACAD
1000
AcadProxyRoundTripData
1071
      557
1071
   851991
1070
     0
  0
ACAD_PROXY_OBJECT
  5
5B0
330
0
100
AcDbProxyObject
 90
      499
 91
      574
 93
       18
310
000188
330
506
 94
        0
1001
ACAD
1000
AcadProxyRoundTripData
1071
      558
1071
   851991
1070
     0
  0
ACAD_PROXY_OBJECT
  5
5B1
330
0
100
AcDbProxyObject
 90
      499
 91
      574
 93
      111
310
0001014150D5930C0D5050055400
330
506
330
5AF
330
5B0
 94
        0
1001
ACAD
1000
AcadProxyRoundTripData
1071
      559
1071
   851991
1070
     0
  0
ACAD_PROXY_OBJECT
  5
5B2
330
0
100
AcDbProxyObject
 90
      499
 91
      574
 93
       40
310
000100AAAA06
330
506
330
5B1
 94
        0
1001
ACAD
1000
AcadProxyRoundTripData
1071
      560
1071
   851991
1070
     0
  0
ACAD_PROXY_OBJECT
  5
5B3
330
0
100
AcDbProxyObject
 90
      499
 91
      574
 93
      108
310
0001901422000000000000AAAAA0
330
506
330
5B4
330
5B4
330
5B4
330
5B4
330
5B4
330
0
 94
        0
1001
ACAD
1000
AcadProxyRoundTripData
1071
      561
1071
   851991
1070
     0
  0
ACAD_PROXY_OBJECT
  5
5B4
330
0
100
AcDbProxyObject
 90
      499
 91
      574
 93
       51
310
00010000AAAA80
330
506
330
5B3
330
5B1
 94
        0
1001
ACAD
1000
AcadProxyRoundTripData
1071
      562
1071
   851991
1070
     0
  0
ACAD_PROXY_OBJECT
  5
5C5
330
0
100
AcDbProxyObject
 90
      499
 91
      574
 93
      140
310
00010142105350D55494D5110050349534F0
330
506
 94
        0
1001
ACAD
1000
AcadProxyRoundTripData
1071
      539
1071
   851991
1070
     0
  0
DICTIONARY
  5
4FE
102
{ACAD_REACTORS
330
4FD
102
}
330
4FD
100
AcDbDictionary
  3
DWGSETTINGS
350
4FF
  0
ACAD_PROXY_OBJECT
  5
5C3
102
{ACAD_REACTORS
330
4FD
102
}
330
4FD
100
AcDbProxyObject
 90
      499
 91
      574
 93
    12938
310
41102491013041105357CC1074CA404C504414D5F31439329013241105357CC9054CA404CD04414D5F33419199013441105357CD103466404D504414D5F3540D199013641105357CD90248E404DD04414D5F37411199013841105357CE101466404E504414D5F397F641102324141505357CC4C1074CA408D10505414D5F31
310
3140D19902495041505357CC4C9074C902408C13905414D5F304E41D32902314E41505357CC5390E4CA408C93905414D5F324E41532902334E41505357CCD3906466408D13905414D5F344E40D19902354E41505357CD53903466408D93905414D5F364E40923902374E41505357CDD3904466408E13905414D5F384E40519
310
902394E41505357CE539FD90440CC9053906414D5F31304E41D3290334414E41905357CC4C5390346640D25413906414D5F31324E41D32409044B4C494E41505357D0D3101465094112539193D08414D5F50415245464111942D055241484D3541905357D093D49074C9094115925155D08414D5F56494557534051942D064
310
24548494E4441905357D253959FD90D415514905253105414D5F545240D194250348494441905357D212511074650940D59254D06414D5F56495341D324250650415244494D42505357D410549112535034650941949151911253509414D5F52454644494D4111942553411092139590139CFFFFFFFF415092139594D06424
310
548494E44CFFFFFFFF411093D48C9055241484D3540519411093D48CD055241484D3540923411093D48D5055241484D35CFFFFFFFF4110D0530C90134CFFFFFFFF4110D0530CD0134409234110D0530D5013441D324110D0530DD0134479464110D1539390137CFFFFFFFF4110D15395D0137CFFFFFFFF4110D312539044B4
310
C494ECFFFFFFFF4110D3D38C50130CFFFFFFFF4110D3D38C90131CFFFFFFFF4110D3D38CD0132CFFFFFFFF4110D3D38D10132CFFFFFFFF411111551050134CFFFFFFFF4111125051D0135CFFFFFFFF411112531250135CFFFFFFFF411112535410650415244494DCFFFFFFFF411112535490652454644494DCFFFFFFFF4111
310
91535390138CFFFFFFFF4151915354139013840CFFFFFFFF4151915354D41023441CFFFFFFFF4151915354D5102344140D1941519153559390132CFFFFFFFF4151915355951013240D194112105510D0138CFFFFFFFF411212511390133CFFFFFFFF4112125115D0133CFFFFFFFF411213125390134CFFFFFFFF411213D0D3
310
90137CFFFFFFFF411213D0D5D0137CFFFFFFFF4112539193D04494E464FCFFFFFFFF411311505110135CFFFFFFFF419397D0921395902394ECFFFFFFFF419397D0D3D38C502304ECFFFFFFFF419397D0D3D38C902314ECFFFFFFFF419397D0D3D38CD02324ECFFFFFFFF419397D0D3D38D102324ECFFFFFFFF419397D0D153
310
93902374ECFFFFFFFF419397D0D15395D02374ECFFFFFFFF419397D1125312502354ECFFFFFFFF419397D2105510D02384ECFFFFFFFF419397D2125113902334ECFFFFFFFF419397D2125115D02334ECFFFFFFFF419397D3115051102354ECFFFFFFFF419397D391D25410349504ECFFFFFFFF419397D412105390334414EC
310
FFFFFFFF419397D510D3D3902304ECFFFFFFFF419397D5121312502344ECFFFFFFFF419397D5131153902304ECFFFFFFFF419397D594131250332414ECFFFFFFFF411391D2541024950CFFFFFFFF411410530C9055241484D3540519411410530CD055241484D3540923411410530D5055241484D35CFFFFFFFF4114121053
310
9023441CFFFFFFFF411413D4D390135CFFFFFFFF411490D1D390137CFFFFFFFF411490D1D5D0137CFFFFFFFF4114D09492D0134CFFFFFFFF4114D150D510134CFFFFFFFF4114D6508CD013540923411354D6535013540923411510D3D390130CFFFFFFFF411512131250134CFFFFFFFF411512550C9055241484D354051941
310
1512550CD055241484D3540923411512550D5055241484D35CFFFFFFFF411513115390130CFFFFFFFF415514905253105545241494CCFFFFFFFF411514931250134CFFFFFFFF411516150C5013640D19411516150C9013640D19411516150CD0136CFFFFFFFF411516150D5013641D32411516150DD0136479464115925155
310
D0456494557CFFFFFFFF4115915112103484944CFFFFFFFF4115915115903564953CFFFFFFFF41159413125023241CFFFFFFFF411692569050134CFFFFFFFFAA9FD404FE4290E4C9074C906465054C904465034650248D014651E519FD80
340
16
340
16
340
16
340
5C6
340
16
340
16
340
16
340
5C7
340
16
340
16
340
5C7
340
5C8
340
16
340
16
340
16
340
16
340
5C6
340
16
340
16
340
16
340
5C7
340
16
340
16
340
5C7
340
5C8
340
16
340
5C9
340
16
340
16
340
16
340
16
340
16
340
5C6
340
16
340
16
340
16
340
15
340
15
340
15
340
15
340
15
340
15
340
15
340
15
340
15
340
5CA
340
15
340
15
340
15
340
15
340
15
340
15
340
15
340
15
340
15
340
15
340
15
340
15
340
15
340
16
340
15
340
15
340
15
340
15
340
5CB
340
15
340
15
340
5CA
340
15
340
15
340
15
340
15
340
15
340
15
340
15
340
15
340
5CA
340
15
340
15
340
15
340
5CB
340
15
340
15
340
15
340
15
340
15
340
15
340
15
340
15
340
15
340
15
340
15
340
15
340
15
340
15
340
5CA
340
15
340
15
340
15
340
15
340
15
340
15
340
15
340
15
340
15
340
15
340
15
340
15
340
15
340
15
340
15
340
15
340
15
340
15
340
15
340
15
340
15
340
15
340
5CE
 94
        0
1001
ACAD
1000
AcadProxyRoundTripData
1071
      570
1071
   851991
1070
     0
  0
ACAD_PROXY_OBJECT
  5
5D5
102
{ACAD_REACTORS
330
5D0
102
}
330
5D0
100
AcDbProxyObject
 90
      499
 91
      574
 93
      253
310
43D1444494D454E53494F4E2C414D44545F2A5F44494D404A9012A404A9012A8
 94
        0
1001
ACAD
1000
AcadProxyRoundTripData
1071
      571
1071
   851991
1070
     0
  0
ACAD_PROXY_OBJECT
  5
5D4
102
{ACAD_REACTORS
330
5D0
102
}
330
5D0
100
AcDbProxyObject
 90
      499
 91
      574
 93
      181
310
43D012A42D05357D191504B505357CA9012A404A9012A8
 94
        0
1001
ACAD
1000
AcadProxyRoundTripData
1071
      571
1071
   851991
1070
     0
  0
ACAD_PROXY_OBJECT
  5
5D1
102
{ACAD_REACTORS
330
5D0
102
}
330
5D0
100
AcDbProxyObject
 90
      499
 91
      574
 93
      133
310
43D054841544348404A9012A404A9012A8
 94
        0
1001
ACAD
1000
AcadProxyRoundTripData
1071
      571
1071
   851991
1070
     0
  0
ACAD_PROXY_OBJECT
  5
5D2
102
{ACAD_REACTORS
330
5D0
102
}
330
5D0
100
AcDbProxyObject
 90
      499
 91
      574
 93
      549
310
43D044C494E4549CE0B0E138B0A8B4E0B0A8B4E138B105357CE0B105357CE138B0A8B505357CE0B0A8B505357CE139012A404A910494E534552542C5354445041525432448
 94
        0
1001
ACAD
1000
AcadProxyRoundTripData
1071
      571
1071
   851991
1070
     0
  0
ACAD_PROXY_OBJECT
  5
5D6
102
{ACAD_REACTORS
330
5D0
102
}
330
5D0
100
AcDbProxyObject
 90
      499
 91
      574
 93
      181
310
43D0341524341105357CD5012A404C906494E534552540
 94
        0
1001
ACAD
1000
AcadProxyRoundTripData
1071
      571
1071
   851991
1070
     0
  0
ACAD_PROXY_OBJECT
  5
5D3
102
{ACAD_REACTORS
330
5D0
102
}
330
5D0
100
AcDbProxyObject
 90
      499
 91
      574
 93
     1053
310
43D7841434D46434652414D452C41434D444154554D5441524745542C41434D444154554D49442C41434D57454C4453594D2C41434D5355524653594D2C41434D4645415449442C41434D504152545245462C41434D42414C4C4F4F4E2C414D44544544474553594D2C414D47534352455743414C435441424C45404A9012A
310
404A9012A8
 94
        0
1001
ACAD
1000
AcadProxyRoundTripData
1071
      571
1071
   851991
1070
     0
  0
LAYER_INDEX
  5
5D8
102
{ACAD_REACTORS
330
5D7
102
}
330
5D7
100
AcDbIndex
 40
2454757.536701388
100
AcDbLayerIndex
  8
0
360
5D9
 90
        0
  8
10
360
5DA
 90
      469
  8
12
360
5DB
 90
        4
  8
16
360
5DC
 90
        2
  8
19
360
5DD
 90
        1
  8
DEFPOINTS
360
B6B
 90
        0
  0
ACAD_PROXY_OBJECT
  5
5B8
102
{ACAD_REACTORS
330
5B7
102
}
330
5B7
100
AcDbProxyObject
 90
      499
 91
      574
 93
      187
310
057356C1D5C406406AA8FFFFFFFF0AE50543564C30354040
330
1F
330
0
330
5B1
 94
        0
1001
ACAD
1000
AcadProxyRoundTripData
1071
      564
1071
   851991
1070
     0
  0
ACAD_PROXY_OBJECT
  5
4FF
102
{ACAD_REACTORS
330
4FE
102
}
330
4FE
100
AcDbProxyObject
 90
      499
 91
      574
 93
     2270
310
4050B44574753455454494E4753A1286829C8E82A4A482B282A106660F8686AF86C608321A2A720A723A0A849A1ABE1C983E18999AA0C868A9C889282940000000000000488083A1A2A72224A0A9A0A8418983E19183E199820E868A9C8892A6A894000000000000010808321A2A72622A7250000000000000122020C868A9
310
C9E8C8C940000000000000488084A1A624A720A92920ACA0A8418983E19183E19982108698929C8AA8B2A082A0AB098929C8A84A22BA3AAA9A1A0A622A50A0E9882A6A89E849482A02608426A0A5A2AB24A2ABA7E8120CA0A68682988A0C00800010652455649534941501304154D0D0531150540CC4E8C50954494D455354
310
414D504A03D0A805197267341441ED115D1D4D15515125391D4D153911F4
 94
        0
1001
ACAD
1000
AcadProxyRoundTripData
1071
      512
1071
   851991
1070
     0
  0
IDBUFFER
  5
5D9
330
0
100
AcDbIdBuffer
  0
IDBUFFER
  5
5DA
330
0
100
AcDbIdBuffer
330
8A9
330
8AA
330
8AB
330
8AC
330
8AD
330
8AE
330
8AF
330
8B0
330
8B1
330
8B2
330
8B3
330
8B4
330
8B5
330
8B6
330
8B7
330
8B8
330
8B9
330
8BA
330
8BB
330
8BC
330
8BD
330
8BE
330
8BF
330
8C0
330
8C1
330
8C3
330
8C4
330
8C5
330
8C6
330
8C7
330
8C8
330
8C9
330
8CA
330
8CB
330
8CD
330
8CE
330
8D0
330
8D1
330
8D2
330
8D3
330
8D4
330
8D5
330
8D6
330
8D7
330
8D8
330
8D9
330
8DA
330
8DC
330
8DD
330
8DE
330
8E0
330
8E1
330
8E2
330
8E3
330
8E4
330
8E5
330
8E6
330
8E7
330
8E8
330
8E9
330
8EA
330
8EB
330
8EC
330
8ED
330
8EE
330
8EF
330
8F0
330
8F1
330
8F2
330
8F3
330
8F4
330
8F5
330
8F6
330
8F7
330
8F8
330
8F9
330
8FA
330
8FB
330
8FC
330
8FD
330
8FE
330
8FF
330
900
330
901
330
902
330
903
330
904
330
905
330
906
330
907
330
908
330
909
330
90A
330
90B
330
90C
330
90D
330
90E
330
90F
330
910
330
911
330
912
330
913
330
914
330
915
330
916
330
917
330
918
330
919
330
91A
330
91B
330
91C
330
91D
330
91E
330
91F
330
920
330
921
330
922
330
923
330
924
330
925
330
926
330
927
330
928
330
929
330
92A
330
92B
330
92C
330
92D
330
92E
330
92F
330
931
330
932
330
933
330
935
330
936
330
937
330
938
330
939
330
93A
330
93B
330
93C
330
93D
330
93E
330
93F
330
940
330
941
330
942
330
943
330
944
330
945
330
946
330
947
330
948
330
949
330
94A
330
94B
330
94C
330
94D
330
94E
330
94F
330
950
330
951
330
952
330
953
330
954
330
955
330
956
330
957
330
958
330
959
330
95A
330
95B
330
95C
330
95D
330
95E
330
95F
330
960
330
961
330
962
330
963
330
964
330
965
330
966
330
967
330
968
330
969
330
96A
330
96B
330
96C
330
96D
330
96E
330
96F
330
970
330
971
330
972
330
973
330
974
330
975
330
976
330
977
330
978
330
979
330
97A
330
97B
330
97C
330
97D
330
97E
330
97F
330
980
330
981
330
982
330
983
330
984
330
985
330
986
330
987
330
988
330
989
330
98A
330
98B
330
98C
330
98D
330
98E
330
98F
330
990
330
991
330
992
330
993
330
994
330
995
330
996
330
997
330
998
330
999
330
99A
330
99B
330
99C
330
99D
330
99E
330
99F
330
9A0
330
9A1
330
9A2
330
9A3
330
9A4
330
9A5
330
9A6
330
9A7
330
9A8
330
9A9
330
9AA
330
9AB
330
9AC
330
9AD
330
9AE
330
9AF
330
9B0
330
9B1
330
9B2
330
9B3
330
9B4
330
9B5
330
9B6
330
9B7
330
9B8
330
9B9
330
9BA
330
9BB
330
9BC
330
9BD
330
9BE
330
9BF
330
9C0
330
9C1
330
9C2
330
9C3
330
9C4
330
9C5
330
9C6
330
9C7
330
9C8
330
9C9
330
9CA
330
9CB
330
9CC
330
9CD
330
9CE
330
9CF
330
9D0
330
9D1
330
9D2
330
9D3
330
9D4
330
9D5
330
9D6
330
9D7
330
9D8
330
9D9
330
9DA
330
9DB
330
9DC
330
9DD
330
9DE
330
9DF
330
9E0
330
9E1
330
9E2
330
9E3
330
9E4
330
9E5
330
9ED
330
9EE
330
9EF
330
9F0
330
9F1
330
9F2
330
9F7
330
9F9
330
9FA
330
9FB
330
9FC
330
9FD
330
9FE
330
9FF
330
A00
330
A01
330
A02
330
A03
330
A04
330
A05
330
A06
330
A07
330
A08
330
A09
330
A0A
330
A0B
330
A0C
330
A0D
330
A0E
330
A0F
330
A10
330
A11
330
A12
330
A13
330
A14
330
A15
330
A16
330
A17
330
A18
330
A19
330
A1A
330
A1B
330
A1C
330
A1D
330
A1E
330
A1F
330
A20
330
A21
330
A22
330
A23
330
A24
330
A25
330
A26
330
A27
330
A28
330
A29
330
A2A
330
A2B
330
A2C
330
A2D
330
A2E
330
A2F
330
A30
330
A31
330
A32
330
A33
330
A34
330
A35
330
A36
330
A37
330
A38
330
A39
330
A3A
330
A3B
330
A3C
330
A3D
330
A3E
330
A3F
330
A40
330
A41
330
A42
330
A43
330
A44
330
A45
330
A46
330
A47
330
A48
330
A49
330
A4A
330
A4B
330
A4C
330
A4D
330
A4E
330
A4F
330
A50
330
A51
330
A52
330
A53
330
A54
330
A55
330
A56
330
A57
330
A58
330
A59
330
A5A
330
A5B
330
A5C
330
A5D
330
A5E
330
A5F
330
A60
330
A61
330
A62
330
A63
330
A64
330
A65
330
A66
330
A67
330
A68
330
A69
330
A6A
330
A6B
330
A6C
330
A6D
330
A6E
330
A6F
330
A70
330
A71
330
A72
330
A73
330
A74
330
A75
330
A76
330
A77
330
A78
330
A79
330
A7A
330
A7B
330
A7C
330
A7D
330
A7E
330
A7F
330
A80
330
A81
330
A82
330
A83
330
A84
330
A85
330
A86
330
A87
330
A88
330
A89
330
A8A
330
A8B
330
A8C
330
A8D
330
A8E
330
A8F
330
A90
  0
IDBUFFER
  5
5DB
330
0
100
AcDbIdBuffer
330
8DB
330
8DF
330
930
330
934
  0
IDBUFFER
  5
5DC
330
0
100
AcDbIdBuffer
330
8C2
330
8CF
  0
IDBUFFER
  5
5DD
330
0
100
AcDbIdBuffer
330
5EB
  0
IDBUFFER
  5
B6B
330
0
100
AcDbIdBuffer
  0
ENDSEC
  0
EOF
