  0
SECTION
  2
HEADER
  9
$ACADVER
  1
AC1014
  9
$ACADMAINTVER
 70
     9
  9
$DWGCODEPAGE
  3
ANSI_932
  9
$INSBASE
 10
0.0
 20
0.0
 30
0.0
  9
$EXTMIN
 10
-0.0147122428136299
 20
-11.56628189009654
 30
-0.000000000000013
  9
$EXTMAX
 10
582.3351845995983
 20
221.004734746297
 30
0.0000000000000023
  9
$LIMMIN
 10
0.0
 20
0.0
  9
$LIMMAX
 10
591.2035015695926
 20
257.232576333912
  9
$ORTHOMODE
 70
     0
  9
$REGENMODE
 70
     1
  9
$FILLMODE
 70
     1
  9
$QTEXTMODE
 70
     0
  9
$MIRRTEXT
 70
     1
  9
$DRAGMODE
 70
     2
  9
$LTSCALE
 40
1.0
  9
$OSMODE
 70
  3071
  9
$ATTMODE
 70
     1
  9
$TEXTSIZE
 40
2.5
  9
$TRACEWID
 40
1.0
  9
$TEXTSTYLE
  7
STANDARD
  9
$CLAYER
  8
0
  9
$CELTYPE
  6
BYLAYER
  9
$CECOLOR
 62
   256
  9
$CELTSCALE
 40
1.0
  9
$DELOBJ
 70
     1
  9
$DISPSILH
 70
     0
  9
$DIMSCALE
 40
1.0
  9
$DIMASZ
 40
2.5
  9
$DIMEXO
 40
0.625
  9
$DIMDLI
 40
3.75
  9
$DIMRND
 40
0.0
  9
$DIMDLE
 40
0.0
  9
$DIMEXE
 40
1.25
  9
$DIMTP
 40
0.0
  9
$DIMTM
 40
0.0
  9
$DIMTXT
 40
2.5
  9
$DIMCEN
 40
2.5
  9
$DIMTSZ
 40
0.0
  9
$DIMTOL
 70
     0
  9
$DIMLIM
 70
     0
  9
$DIMTIH
 70
     0
  9
$DIMTOH
 70
     0
  9
$DIMSE1
 70
     0
  9
$DIMSE2
 70
     0
  9
$DIMTAD
 70
     1
  9
$DIMZIN
 70
     8
  9
$DIMBLK
  1

  9
$DIMASO
 70
     1
  9
$DIMSHO
 70
     1
  9
$DIMPOST
  1

  9
$DIMAPOST
  1

  9
$DIMALT
 70
     0
  9
$DIMALTD
 70
     3
  9
$DIMALTF
 40
0.03937007874016
  9
$DIMLFAC
 40
1.0
  9
$DIMTOFL
 70
     1
  9
$DIMTVP
 40
0.0
  9
$DIMTIX
 70
     0
  9
$DIMSOXD
 70
     0
  9
$DIMSAH
 70
     0
  9
$DIMBLK1
  1

  9
$DIMBLK2
  1

  9
$DIMSTYLE
  2
ISO-25
  9
$DIMCLRD
 70
     0
  9
$DIMCLRE
 70
     0
  9
$DIMCLRT
 70
     0
  9
$DIMTFAC
 40
1.0
  9
$DIMGAP
 40
0.625
  9
$DIMJUST
 70
     0
  9
$DIMSD1
 70
     0
  9
$DIMSD2
 70
     0
  9
$DIMTOLJ
 70
     0
  9
$DIMTZIN
 70
     8
  9
$DIMALTZ
 70
     0
  9
$DIMALTTZ
 70
     0
  9
$DIMFIT
 70
     3
  9
$DIMUPT
 70
     0
  9
$DIMUNIT
 70
     2
  9
$DIMDEC
 70
     2
  9
$DIMTDEC
 70
     2
  9
$DIMALTU
 70
     2
  9
$DIMALTTD
 70
     3
  9
$DIMTXSTY
  7
STANDARD
  9
$DIMAUNIT
 70
     0
  9
$LUNITS
 70
     2
  9
$LUPREC
 70
     2
  9
$SKETCHINC
 40
1.0
  9
$FILLETRAD
 40
10.0
  9
$AUNITS
 70
     0
  9
$AUPREC
 70
     0
  9
$MENU
  1
.
  9
$ELEVATION
 40
0.0
  9
$PELEVATION
 40
0.0
  9
$THICKNESS
 40
0.0
  9
$LIMCHECK
 70
     0
  9
$BLIPMODE
 70
     0
  9
$CHAMFERA
 40
10.0
  9
$CHAMFERB
 40
10.0
  9
$CHAMFERC
 40
20.0
  9
$CHAMFERD
 40
0.0
  9
$SKPOLY
 70
     0
  9
$TDCREATE
 40
2454596.550355717
  9
$TDUPDATE
 40
2454757.535837488
  9
$TDINDWG
 40
0.0750757870
  9
$TDUSRTIMER
 40
0.0750756019
  9
$USRTIMER
 70
     1
  9
$ANGBASE
 50
0.0
  9
$ANGDIR
 70
     0
  9
$PDMODE
 70
     0
  9
$PDSIZE
 40
0.0
  9
$PLINEWID
 40
0.0
  9
$COORDS
 70
     0
  9
$SPLFRAME
 70
     0
  9
$SPLINETYPE
 70
     6
  9
$SPLINESEGS
 70
     8
  9
$ATTDIA
 70
     0
  9
$ATTREQ
 70
     1
  9
$HANDLING
 70
 22529
  9
$HANDSEED
  5
CC5
  9
$SURFTAB1
 70
     6
  9
$SURFTAB2
 70
     6
  9
$SURFTYPE
 70
     6
  9
$SURFU
 70
     6
  9
$SURFV
 70
     6
  9
$UCSNAME
  2

  9
$UCSORG
 10
0.0
 20
0.0
 30
0.0
  9
$UCSXDIR
 10
1.0
 20
0.0
 30
0.0
  9
$UCSYDIR
 10
0.0
 20
1.0
 30
0.0
  9
$PUCSNAME
  2

  9
$PUCSORG
 10
0.0
 20
0.0
 30
0.0
  9
$PUCSXDIR
 10
1.0
 20
0.0
 30
0.0
  9
$PUCSYDIR
 10
0.0
 20
1.0
 30
0.0
  9
$USERI1
 70
     0
  9
$USERI2
 70
     0
  9
$USERI3
 70
     0
  9
$USERI4
 70
     0
  9
$USERI5
 70
     0
  9
$USERR1
 40
0.0
  9
$USERR2
 40
0.0
  9
$USERR3
 40
0.0
  9
$USERR4
 40
0.0
  9
$USERR5
 40
0.0
  9
$WORLDVIEW
 70
     1
  9
$SHADEDGE
 70
     3
  9
$SHADEDIF
 70
    70
  9
$TILEMODE
 70
     1
  9
$MAXACTVP
 70
    48
  9
$PINSBASE
 10
0.0
 20
0.0
 30
0.0
  9
$PLIMCHECK
 70
     0
  9
$PEXTMIN
 10
28.5263154029846
 20
19.82258291244505
 30
0.0
  9
$PEXTMAX
 10
256.7368386268614
 20
178.4032462120055
 30
0.0
  9
$PLIMMIN
 10
-5.873748779296875
 20
-5.873749732971191
  9
$PLIMMAX
 10
291.1369018554686
 20
204.0995779037474
  9
$UNITMODE
 70
     0
  9
$VISRETAIN
 70
     1
  9
$PLINEGEN
 70
     0
  9
$PSLTSCALE
 70
     1
  9
$TREEDEPTH
 70
  3020
  9
$PICKSTYLE
 70
     1
  9
$CMLSTYLE
  2
STANDARD
  9
$CMLJUST
 70
     0
  9
$CMLSCALE
 40
20.0
  9
$PROXYGRAPHICS
 70
     1
  9
$MEASUREMENT
 70
     1
  0
ENDSEC
  0
SECTION
  2
CLASSES
  0
CLASS
  1
ACDBDICTIONARYWDFLT
  2
AcDbDictionaryWithDefault
  3
AutoCAD 2000
 90
        0
280
     0
281
     0
  0
CLASS
  1
ACDBPLACEHOLDER
  2
AcDbPlaceHolder
  3
AutoCAD 2000
 90
        0
280
     0
281
     0
  0
CLASS
  1
LAYOUT
  2
AcDbLayout
  3
AutoCAD 2000
 90
        0
280
     0
281
     0
  0
CLASS
  1
DICTIONARYVAR
  2
AcDbDictionaryVar
  3
AutoCAD 2000
 90
        0
280
     0
281
     0
  0
CLASS
  1
LONG_TRANSACTION
  2
AcDbLongTransaction
  3
AutoCAD 2000
 90
        0
280
     0
281
     0
  0
CLASS
  1
LWPOLYLINE
  2
AcDbPolyline
  3
AutoCAD 2000
 90
        0
280
     0
281
     1
  0
CLASS
  1
HATCH
  2
AcDbHatch
  3
AutoCAD 2000
 90
        0
280
     0
281
     1
  0
CLASS
  1
XRECORD
  2
AcDbXrecord
  3
AutoCAD 2000
 90
        0
280
     0
281
     0
  0
CLASS
  1
LONG_TRANSACTION
  2
AcDbLongTransaction
  3
AutoCAD 2000
 90
        0
280
     0
281
     0
  0
CLASS
  1
LWPOLYLINE
  2
AcDbPolyline
  3
AutoCAD 2000
 90
        0
280
     0
281
     1
  0
CLASS
  1
HATCH
  2
AcDbHatch
  3
AutoCAD 2000
 90
        0
280
     0
281
     1
  0
CLASS
  1
XRECORD
  2
AcDbXrecord
  3
AutoCAD 2000
 90
        0
280
     0
281
     0
  0
CLASS
  1
AMGSETTINGSOBJ
  2
AmgSettingsObj
  3
"AcadM|Product Description: AutoCAD Mechanical 2000|Company: Autodesk"
 90
        0
280
     0
281
     0
  0
CLASS
  1
ACME_DOCUMENT
  2
AcMeDbDoc
  3
AcMeServices
 90
        0
280
     0
281
     0
  0
CLASS
  1
ACMESCOPE
  2
AcMeScope
  3
AcMeServices
 90
        0
280
     0
281
     0
  0
CLASS
  1
ACMECOMMANDHISTORY
  2
AcMeCommandHistory
  3
AcMeServices
 90
        0
280
     0
281
     0
  0
CLASS
  1
ACIMSYSVARMAN
  2
AcImSysVarManager
  3
AcMeServices
 90
        0
280
     0
281
     0
  0
CLASS
  1
ACIMREALSYSVAR
  2
AcImRealSysVar
  3
AcMeServices
 90
        0
280
     0
281
     0
  0
CLASS
  1
ACIMINTSYSVAR
  2
AcImIntSysVar
  3
AcMeServices
 90
        0
280
     0
281
     0
  0
CLASS
  1
ACMEDRAWINGMAN
  2
AcMeDrawingMan
  3
AcMeServices
 90
        0
280
     0
281
     0
  0
CLASS
  1
ACMEVIEW
  2
AcMeView
  3
AcMeServices
 90
        0
280
     0
281
     0
  0
CLASS
  1
ACDBENTITYCACHE
  2
AcMeEntityCache
  3
AcMeServices
 90
        0
280
     0
281
     0
  0
CLASS
  1
GSMANAGER
  2
AcMeGSManager
  3
AcMeServices
 90
        0
280
     0
281
     0
  0
CLASS
  1
AMDTINTERNALREACTOR
  2
AmdtInternalReactor
  3
AcMeServices
 90
        0
280
     0
281
     0
  0
CLASS
  1
ACMESTATEMGR
  2
AcMeStateMgr
  3
AcMeServices
 90
        0
280
     0
281
     0
  0
CLASS
  1
ACGREFMASTER
  2
AcGrefMaster
  3
AcAttribServices
 90
        0
280
     0
281
     0
  0
CLASS
  1
AM_DRAWING_MGR
  2
AcDmDwgMgr
  3
AcMechDwgViewMgmt
 90
        0
280
     0
281
     0
  0
CLASS
  1
AM_DWG_DOCUMENT
  2
AcDmDwgDocument
  3
AcMechDwgViewMgmt
 90
        0
280
     0
281
     0
  0
CLASS
  1
AM_DWG_SHEET
  2
AcDmSheet
  3
AcMechDwgViewMgmt
 90
        0
280
     0
281
     0
  0
CLASS
  1
AM_VIEWDIMPARMAP
  2
AcDmViewDimParMap
  3
AcMechDwgViewMgmt
 90
        0
280
     0
281
     0
  0
CLASS
  1
AM_DWGMGR_NAME
  2
AcDmDwgMgrName
  3
AcMechDwgViewMgmt
 90
        0
280
     0
281
     0
  0
CLASS
  1
ACME_DATABASE
  2
AcMeDbDatabase
  3
AcMeServices
 90
        0
280
     0
281
     0
  0
CLASS
  1
ACRFINSADJUSTERMGR
  2
AcRfInsAdjusterMgr
  3
AcMeServices
 90
        0
280
     0
281
     0
  0
CLASS
  1
ACGREFACADMASTER
  2
AcGrefacadMaster
  3
AcGrefServices
 90
        0
280
     0
281
     0
  0
CLASS
  1
AMDTMENUSTATEMGR
  2
AmdtMenuStateMgr
  3
McadcomServices
 90
        0
280
     0
281
     0
  0
CLASS
  1
AMDTMCOMMENUSTATE
  2
AmdtMcomMenuState
  3
McadcomServices
 90
        0
280
     0
281
     0
  0
CLASS
  1
AMIMASTER
  2
AmiMaster
  3
AmiServices
 90
        0
280
     0
281
     0
  0
CLASS
  1
ASAPP
  2
AcAsAppObject
  3
AutoSurfServices
 90
        0
280
     0
281
     0
  0
CLASS
  1
IM_STATIC_MAN
  2
AcImStaticVarManager
  3
AcMeServices
 90
        0
280
     0
281
     0
  0
CLASS
  1
ACIMSTRSYSVAR
  2
AcImStrSysVar
  3
AcMeServices
 90
        0
280
     0
281
     0
  0
CLASS
  1
ACIMDBLSTATICVAR
  2
AcImDblStaticVar
  3
AcMeServices
 90
        0
280
     0
281
     0
  0
CLASS
  1
ACIMSTRSTATICVAR
  2
AcImStrStaticVar
  3
AcMeServices
 90
        0
280
     0
281
     0
  0
CLASS
  1
ACIMINTSTATICVAR
  2
AcImIntStaticVar
  3
AcMeServices
 90
        0
280
     0
281
     0
  0
CLASS
  1
ACASGREFMASTER
  2
AcAsGrefMaster
  3
AutoSurfResolverServices
 90
        0
280
     0
281
     0
  0
CLASS
  1
ACADGREFMODULE
  2
AcAdGrefModule
  3
AdGrefServices
 90
        0
280
     0
281
     0
  0
CLASS
  1
AMDTMAPISURFMOUDULE
  2
AmdtMApiSurfModule
  3
MApiSurfServices
 90
        0
280
     0
281
     0
  0
CLASS
  1
MAPIAMMOUDLE
  2
MApiAmModule
  3
MApiAmServices
 90
        0
280
     0
281
     0
  0
CLASS
  1
AMDTADMENUSTATE
  2
AmdtAdMenuState
  3
DesignerServices
 90
        0
280
     0
281
     0
  0
CLASS
  1
ADAPPL
  2
AcAdAppl
  3
DesignerServices
 90
        0
280
     0
281
     0
  0
CLASS
  1
DEPMGR
  2
AcAdDepMgr
  3
DesignerServices
 90
        0
280
     0
281
     0
  0
CLASS
  1
PARAMMGR
  2
AcAdParamMgr
  3
DesignerServices
 90
        0
280
     0
281
     0
  0
CLASS
  1
PARAMSCOPE
  2
AcAdParamScope
  3
DesignerServices
 90
        0
280
     0
281
     0
  0
CLASS
  1
NAMEDAPPL
  2
AcAdNamedAppl
  3
DesignerServices
 90
        0
280
     0
281
     0
  0
CLASS
  1
AMDTDMMENUSTATE
  2
AmdtDmMenuState
  3
AcMechDwgViewMgmt
 90
        0
280
     0
281
     0
  0
CLASS
  1
MAPIADMODULE
  2
MApiAdModule
  3
MApiAdServices
 90
        0
280
     0
281
     0
  0
CLASS
  1
AMDTAMMENUSTATE
  2
AmdtAmMenuState
  3
DesignerAssemblies
 90
        0
280
     0
281
     0
  0
CLASS
  1
ACAMPROJECT
  2
AcAmProject
  3
DesignerAssemblies
 90
        0
280
     0
281
     0
  0
CLASS
  1
ACAMGRCOMPDEF
  2
AcAmGrCompDef
  3
DesignerAssemblies
 90
        0
280
     0
281
     0
  0
CLASS
  1
ACCMCONTEXT
  2
AcCmContext
  3
DesignerAssemblies
 90
        0
280
     0
281
     0
  0
CLASS
  1
ACAMCOMPDEF
  2
AcAmCompDef
  3
DesignerAssemblies
 90
        0
280
     0
281
     0
  0
CLASS
  1
ACAMCOMPDEFMGR
  2
AcAmCompDefMgr
  3
DesignerAssemblies
 90
        0
280
     0
281
     0
  0
CLASS
  1
AMCONTEXTMGR
  2
AcAmContextMgr
  3
DesignerAssemblies
 90
        0
280
     0
281
     0
  0
CLASS
  1
ACAMCONTEXTMODELER
  2
AcAmContextModeler
  3
DesignerAssemblies
 90
        0
280
     0
281
     0
  0
CLASS
  1
ACMDATADICTIONARY
  2
AcmDataDictionary
  3
"AcmSymBB|Product Description: AutoCAD Mechanical 2000|Company: Autodesk"
 90
        0
280
     0
281
     0
  0
CLASS
  1
ACMDATAENTRYBLOCK
  2
AcmDataEntryBlock
  3
"AcmSymBB|Product Description: AutoCAD Mechanical 2000|Company: Autodesk"
 90
        0
280
     0
281
     0
  0
CLASS
  1
CATALOGSTATE
  2
AcAmCatalogState
  3
DesignerAssemblies
 90
        0
280
     0
281
     0
  0
CLASS
  1
ACAMGRCOMPDEFSET
  2
AcAmGrCompDefSet
  3
DesignerAssemblies
 90
        0
280
     0
281
     0
  0
CLASS
  1
AMDTBROWSERDBTAB
  2
AmdtBrowserDbTab
  3
McadcomServices
 90
        0
280
     0
281
     0
  0
CLASS
  1
CBROWSERAPPOBJECT
  2
CBrowserAppObject
  3
McadcomServices
 90
        0
280
     0
281
     0
  0
CLASS
  1
DM_PLACEHOLDER
  2
AcDmSelsetPlaceholder
  3
AcMechDwgViewMgmt
 90
        0
280
     0
281
     0
  0
CLASS
  1
AMGOBJPROPCFG
  2
AmgObjPropCfg
  3
"AmgLay|Product Description: AutoCAD Mechanical 2000|Company: Autodesk"
 90
        1
280
     0
281
     0
  0
CLASS
  1
ACAMGFILTERDAT
  2
AcAmgFilterDat
  3
"AcadM|Product Description: AutoCAD Mechanical 2000|Company: Autodesk"
 90
        0
280
     0
281
     0
  0
CLASS
  1
LAYER_INDEX
  2
AcDbLayerIndex
  3
AutoCAD 2000
 90
        0
280
     0
281
     0
  0
CLASS
  1
IDBUFFER
  2
AcDbIdBuffer
  3
AutoCAD 2000
 90
        0
280
     0
281
     0
  0
CLASS
  1
ACAD_PROXY_OBJECT_WRAPPER
  2
AcDbProxyObjectWrapper
  3
AutoCAD 2000
 90
        0
280
     0
281
     0
  0
CLASS
  1
LONG_TRANSACTION
  2
AcDbLongTransaction
  3
AutoCAD 2000
 90
        0
280
     0
281
     0
  0
CLASS
  1
LWPOLYLINE
  2
AcDbPolyline
  3
AutoCAD 2000
 90
        0
280
     0
281
     1
  0
CLASS
  1
HATCH
  2
AcDbHatch
  3
AutoCAD 2000
 90
        0
280
     0
281
     1
  0
CLASS
  1
XRECORD
  2
AcDbXrecord
  3
AutoCAD 2000
 90
        0
280
     0
281
     0
  0
CLASS
  1
LONG_TRANSACTION
  2
AcDbLongTransaction
  3
AutoCAD 2000
 90
        0
280
     0
281
     0
  0
CLASS
  1
LWPOLYLINE
  2
AcDbPolyline
  3
AutoCAD 2000
 90
        0
280
     0
281
     1
  0
CLASS
  1
HATCH
  2
AcDbHatch
  3
AutoCAD 2000
 90
        0
280
     0
281
     1
  0
CLASS
  1
XRECORD
  2
AcDbXrecord
  3
AutoCAD 2000
 90
        0
280
     0
281
     0
  0
CLASS
  1
LONG_TRANSACTION
  2
AcDbLongTransaction
  3
AutoCAD 2000
 90
        0
280
     0
281
     0
  0
CLASS
  1
LWPOLYLINE
  2
AcDbPolyline
  3
AutoCAD 2000
 90
        0
280
     0
281
     1
  0
CLASS
  1
HATCH
  2
AcDbHatch
  3
AutoCAD 2000
 90
        0
280
     0
281
     1
  0
CLASS
  1
XRECORD
  2
AcDbXrecord
  3
AutoCAD 2000
 90
        0
280
     0
281
     0
  0
CLASS
  1
LONG_TRANSACTION
  2
AcDbLongTransaction
  3
AutoCAD 2000
 90
        0
280
     0
281
     0
  0
CLASS
  1
LWPOLYLINE
  2
AcDbPolyline
  3
AutoCAD 2000
 90
        0
280
     0
281
     1
  0
CLASS
  1
HATCH
  2
AcDbHatch
  3
AutoCAD 2000
 90
        0
280
     0
281
     1
  0
CLASS
  1
XRECORD
  2
AcDbXrecord
  3
AutoCAD 2000
 90
        0
280
     0
281
     0
  0
CLASS
  1
LONG_TRANSACTION
  2
AcDbLongTransaction
  3
AutoCAD 2000
 90
        0
280
     0
281
     0
  0
CLASS
  1
LWPOLYLINE
  2
AcDbPolyline
  3
AutoCAD 2000
 90
        0
280
     0
281
     1
  0
CLASS
  1
HATCH
  2
AcDbHatch
  3
AutoCAD 2000
 90
        0
280
     0
281
     1
  0
CLASS
  1
XRECORD
  2
AcDbXrecord
  3
AutoCAD 2000
 90
        0
280
     0
281
     0
  0
CLASS
  1
LONG_TRANSACTION
  2
AcDbLongTransaction
  3
AutoCAD 2000
 90
        0
280
     0
281
     0
  0
CLASS
  1
LWPOLYLINE
  2
AcDbPolyline
  3
AutoCAD 2000
 90
        0
280
     0
281
     1
  0
CLASS
  1
HATCH
  2
AcDbHatch
  3
AutoCAD 2000
 90
        0
280
     0
281
     1
  0
CLASS
  1
XRECORD
  2
AcDbXrecord
  3
AutoCAD 2000
 90
        0
280
     0
281
     0
  0
ENDSEC
  0
SECTION
  2
TABLES
  0
TABLE
  2
VPORT
  5
8
330
0
100
AcDbSymbolTable
 70
     2
  0
VPORT
  5
CA2
330
8
100
AcDbSymbolTableRecord
100
AcDbViewportTableRecord
  2
*ACTIVE
 70
     0
 10
0.0
 20
0.0
 11
1.0
 21
1.0
 12
-849.7889304027967
 22
-447.856948014346
 13
0.0
 23
0.0
 14
10.0
 24
10.0
 15
10.0
 25
10.0
 16
0.0
 26
0.0
 36
1.0
 17
1140.949166581189
 27
552.5761744424462
 37
0.0
 40
361.0350887111206
 41
1.621212121212121
 42
50.0
 43
0.0
 44
0.0
 50
0.0
 51
0.0
 71
     0
 72
   100
 73
     1
 74
     3
 75
     0
 76
     0
 77
     0
 78
     0
  0
ENDTAB
  0
TABLE
  2
LTYPE
  5
5
330
0
100
AcDbSymbolTable
 70
     8
  0
LTYPE
  5
14
330
5
100
AcDbSymbolTableRecord
100
AcDbLinetypeTableRecord
  2
BYBLOCK
 70
     0
  3

 72
    65
 73
     0
 40
0.0
  0
LTYPE
  5
15
330
5
100
AcDbSymbolTableRecord
100
AcDbLinetypeTableRecord
  2
BYLAYER
 70
     0
  3

 72
    65
 73
     0
 40
0.0
  0
LTYPE
  5
16
330
5
100
AcDbSymbolTableRecord
100
AcDbLinetypeTableRecord
  2
CONTINUOUS
 70
     0
  3
Solid line
 72
    65
 73
     0
 40
0.0
  0
LTYPE
  5
5C6
330
5
100
AcDbSymbolTableRecord
100
AcDbLinetypeTableRecord
  2
AM_ISO02W050
 70
     0
  3
__ __ __ __ __ __ __ __ __ __ __ __ __ __ __
 72
    65
 73
     2
 40
7.5
 49
6.0
 74
     0
 49
-1.5
 74
     0
  0
LTYPE
  5
5C7
330
5
100
AcDbSymbolTableRecord
100
AcDbLinetypeTableRecord
  2
AM_ISO08W050
 70
     0
  3
____ . ____ . ____ . ____ . ____ . ____ . ____
 72
    65
 73
     4
 40
18.0
 49
12.0
 74
     0
 49
-1.5
 74
     0
 49
3.0
 74
     0
 49
-1.5
 74
     0
  0
LTYPE
  5
5C8
330
5
100
AcDbSymbolTableRecord
100
AcDbLinetypeTableRecord
  2
AM_ISO09W050
 70
     0
  3
_____ . . _____ . . _____ . . ____ .. ____
 72
    65
 73
     6
 40
22.5
 49
12.0
 74
     0
 49
-1.5
 74
     0
 49
3.0
 74
     0
 49
-1.5
 74
     0
 49
3.0
 74
     0
 49
-1.5
 74
     0
  0
LTYPE
  5
5C9
330
5
100
AcDbSymbolTableRecord
100
AcDbLinetypeTableRecord
  2
AMCONSTR
 70
     0
  3
_______________________
 72
    65
 73
     2
 40
9999.0
 49
9999.0
 74
     0
 49
0.0
 74
     0
  0
LTYPE
  5
5CA
330
5
100
AcDbSymbolTableRecord
100
AcDbLinetypeTableRecord
  2
AM_ISO08W050X2
 70
     0
  3
__ . __ . __ . __ . __ . __
 72
    65
 73
     4
 40
9.0
 49
6.0
 74
     0
 49
-0.75
 74
     0
 49
1.5
 74
     0
 49
-0.75
 74
     0
  0
LTYPE
  5
5CB
330
5
100
AcDbSymbolTableRecord
100
AcDbLinetypeTableRecord
  2
AM_ISO02W050X2
 70
     0
  3
 _ _ _ _ _ _ _ _ _ _ _ _
 72
    65
 73
     2
 40
3.75
 49
3.0
 74
     0
 49
-0.75
 74
     0
  0
LTYPE
  5
5CE
330
5
100
AcDbSymbolTableRecord
100
AcDbLinetypeTableRecord
  2
AMZIGZAG
 70
     0
  3
/\/-/\/-/\/-/\/-/\/-/\/
 72
    65
 73
     2
 40
11.00009999999999
 49
0.0001
 74
     4
 75
   135
340
5CD
 46
0.04
 50
0.0
 44
0.0
 45
0.0
 49
-11.0
 74
     0
  0
ENDTAB
  0
TABLE
  2
LAYER
  5
2
102
{ACAD_XDICTIONARY
360
41
102
}
330
0
100
AcDbSymbolTable
 70
     6
  0
LAYER
  5
10
330
2
100
AcDbSymbolTableRecord
100
AcDbLayerTableRecord
  2
0
 70
     0
 62
     7
  6
CONTINUOUS
  0
LAYER
  5
35
330
2
100
AcDbSymbolTableRecord
100
AcDbLayerTableRecord
  2
10
 70
     0
 62
     4
  6
CONTINUOUS
  0
LAYER
  5
36
330
2
100
AcDbSymbolTableRecord
100
AcDbLayerTableRecord
  2
12
 70
     0
 62
     3
  6
CONTINUOUS
  0
LAYER
  5
37
330
2
100
AcDbSymbolTableRecord
100
AcDbLayerTableRecord
  2
16
 70
     0
 62
     4
  6
CONTINUOUS
  0
LAYER
  5
38
330
2
100
AcDbSymbolTableRecord
100
AcDbLayerTableRecord
  2
19
 70
     0
 62
     7
  6
CONTINUOUS
  0
LAYER
  5
69E
330
2
100
AcDbSymbolTableRecord
100
AcDbLayerTableRecord
  2
DEFPOINTS
 70
     0
 62
     7
  6
CONTINUOUS
  0
ENDTAB
  0
TABLE
  2
STYLE
  5
3
330
0
100
AcDbSymbolTable
 70
     3
  0
STYLE
  5
11
330
3
100
AcDbSymbolTableRecord
100
AcDbTextStyleTableRecord
  2
STANDARD
 70
     0
 40
0.0
 41
1.0
 50
0.0
 71
     0
 42
2.5
  3
txt
  4

  0
STYLE
  5
3A
330
3
100
AcDbSymbolTableRecord
100
AcDbTextStyleTableRecord
  2
STANDARD1X3
 70
     0
 40
9.599999999999999
 41
0.7
 50
0.0
 71
     0
 42
9.599999999999999
  3
romans.shx
  4
extfont.shx
  0
STYLE
  5
5CD
330
3
100
AcDbSymbolTableRecord
100
AcDbTextStyleTableRecord
  2

 70
     1
 40
0.0
 41
1.0
 50
0.0
 71
     0
 42
2.5
  3
ltypeshp.shx
  4

  0
ENDTAB
  0
TABLE
  2
VIEW
  5
6
330
0
100
AcDbSymbolTable
 70
     0
  0
ENDTAB
  0
TABLE
  2
UCS
  5
7
330
0
100
AcDbSymbolTable
 70
     0
  0
ENDTAB
  0
TABLE
  2
APPID
  5
9
330
0
100
AcDbSymbolTable
 70
    23
  0
APPID
  5
12
330
9
100
AcDbSymbolTableRecord
100
AcDbRegAppTableRecord
  2
ACAD
 70
     0
  0
APPID
  5
3C
330
9
100
AcDbSymbolTableRecord
100
AcDbRegAppTableRecord
  2
ACAD_PSEXT
 70
     0
  0
APPID
  5
3D
330
9
100
AcDbSymbolTableRecord
100
AcDbRegAppTableRecord
  2
ACAD_DSTYLE_DIMEXT_LENGTH
 70
     0
  0
APPID
  5
3E
330
9
100
AcDbSymbolTableRecord
100
AcDbRegAppTableRecord
  2
ACAD_DSTYLE_DIMEXT_ENABLED
 70
     0
  0
APPID
  5
3F
330
9
100
AcDbSymbolTableRecord
100
AcDbRegAppTableRecord
  2
ACAD_DSTYLE_DIMJOGGED_JOGA
 70
     0
  0
APPID
  5
40
330
9
100
AcDbSymbolTableRecord
100
AcDbRegAppTableRecord
  2
ACAD_DSTYLE_DIMARC_LENGTH_
 70
     0
  0
APPID
  5
500
330
9
100
AcDbSymbolTableRecord
100
AcDbRegAppTableRecord
  2
GENIUS_GENDIM_13
 70
     0
  0
APPID
  5
501
330
9
100
AcDbSymbolTableRecord
100
AcDbRegAppTableRecord
  2
GENIUS_GENDTOL_13
 70
     0
  0
APPID
  5
502
330
9
100
AcDbSymbolTableRecord
100
AcDbRegAppTableRecord
  2
GENIUS_GE3DTOL_13
 70
     0
  0
APPID
  5
504
330
9
100
AcDbSymbolTableRecord
100
AcDbRegAppTableRecord
  2
MCAD_NO_VIS
 70
     0
  0
APPID
  5
505
330
9
100
AcDbSymbolTableRecord
100
AcDbRegAppTableRecord
  2
ACAD_TEMP_GRAPHIC
 70
     0
  0
APPID
  5
537
330
9
100
AcDbSymbolTableRecord
100
AcDbRegAppTableRecord
  2
AD_DRAW
 70
     0
  0
APPID
  5
53A
330
9
100
AcDbSymbolTableRecord
100
AcDbRegAppTableRecord
  2
ACATTRIBSERVICES
 70
     0
  0
APPID
  5
586
330
9
100
AcDbSymbolTableRecord
100
AcDbRegAppTableRecord
  2
ASURF_PCURVE_APPNAME
 70
     0
  0
APPID
  5
5B5
330
9
100
AcDbSymbolTableRecord
100
AcDbRegAppTableRecord
  2
DESIGNERASSEMBLIES
 70
     0
  0
APPID
  5
5BD
330
9
100
AcDbSymbolTableRecord
100
AcDbRegAppTableRecord
  2
ACADM_DIM_EDIT
 70
     0
  0
APPID
  5
5BE
330
9
100
AcDbSymbolTableRecord
100
AcDbRegAppTableRecord
  2
AMDT_DM_ADJ
 70
     0
  0
APPID
  5
6A6
330
9
100
AcDbSymbolTableRecord
100
AcDbRegAppTableRecord
  2
GENIUS_GENODEF_13
 70
     0
  0
APPID
  5
6A7
330
9
100
AcDbSymbolTableRecord
100
AcDbRegAppTableRecord
  2
GENIUS_GENOREF_13
 70
     0
  0
APPID
  5
6A8
330
9
100
AcDbSymbolTableRecord
100
AcDbRegAppTableRecord
  2
GENIUS_GENOBJ-N-CEN_13
 70
     0
  0
APPID
  5
6A9
330
9
100
AcDbSymbolTableRecord
100
AcDbRegAppTableRecord
  2
GENIUS_GENREC_14
 70
     0
  0
APPID
  5
6AA
330
9
100
AcDbSymbolTableRecord
100
AcDbRegAppTableRecord
  2
GENIUS_GENOBJ-N-REC_13
 70
     0
  0
APPID
  5
6AB
330
9
100
AcDbSymbolTableRecord
100
AcDbRegAppTableRecord
  2
GENIUS_GENOBJ-N-FIL_13
 70
     0
  0
ENDTAB
  0
TABLE
  2
DIMSTYLE
  5
A
330
0
100
AcDbSymbolTable
 70
     1
  0
DIMSTYLE
105
27
330
A
100
AcDbSymbolTableRecord
100
AcDbDimStyleTableRecord
  2
ISO-25
 70
     0
  3

  4

  5

  6

  7

 40
1.0
 41
2.5
 42
0.625
 43
3.75
 44
1.25
 45
0.0
 46
0.0
 47
0.0
 48
0.0
140
2.5
141
2.5
142
0.0
143
0.03937007874016
144
1.0
145
0.0
146
1.0
147
0.625
 71
     0
 72
     0
 73
     0
 74
     0
 75
     0
 76
     0
 77
     1
 78
     8
170
     0
171
     3
172
     1
173
     0
174
     0
175
     0
176
     0
177
     0
178
     0
270
     2
271
     2
272
     2
273
     2
274
     3
340
11
275
     0
280
     0
281
     0
282
     0
283
     0
284
     8
285
     0
286
     0
287
     3
288
     0
  0
ENDTAB
  0
TABLE
  2
BLOCK_RECORD
  5
1
330
0
100
AcDbSymbolTable
 70
     1
  0
BLOCK_RECORD
  5
1F
102
{ACAD_XDICTIONARY
360
438
102
}
330
1
100
AcDbSymbolTableRecord
100
AcDbBlockTableRecord
  2
*MODEL_SPACE
  0
BLOCK_RECORD
  5
23
102
{ACAD_XDICTIONARY
360
43A
102
}
330
1
100
AcDbSymbolTableRecord
100
AcDbBlockTableRecord
  2
*PAPER_SPACE
  0
BLOCK_RECORD
  5
5AC
330
1
100
AcDbSymbolTableRecord
100
AcDbBlockTableRecord
  2
*U0
  0
ENDTAB
  0
ENDSEC
  0
SECTION
  2
BLOCKS
  0
BLOCK
  5
20
330
1F
100
AcDbEntity
  8
0
100
AcDbBlockBegin
  2
*MODEL_SPACE
 70
     0
 10
0.0
 20
0.0
 30
0.0
  3
*MODEL_SPACE
  1

  0
ENDBLK
  5
21
330
1F
100
AcDbEntity
  8
0
100
AcDbBlockEnd
  0
BLOCK
  5
24
330
23
100
AcDbEntity
 67
     1
  8
0
100
AcDbBlockBegin
  2
*PAPER_SPACE
 70
     0
 10
0.0
 20
0.0
 30
0.0
  3
*PAPER_SPACE
  1

  0
ENDBLK
  5
25
330
23
100
AcDbEntity
 67
     1
  8
0
100
AcDbBlockEnd
  0
BLOCK
  5
5AD
330
5AC
100
AcDbEntity
  8
0
100
AcDbBlockBegin
  2
*U0
 70
     1
 10
0.0
 20
0.0
 30
0.0
  3
*U0
  1

  0
ENDBLK
  5
5AE
330
5AC
100
AcDbEntity
  8
0
100
AcDbBlockEnd
  0
ENDSEC
  0
SECTION
  2
ENTITIES
  0
MTEXT
  5
5EB
330
1F
100
AcDbEntity
  8
19
100
AcDbMText
 10
530.0358673959078
 20
18.615686532739
 30
0.0
 40
7.0
 41
70.16
 71
     1
 72
     5
  1
HALH11\PFR-HAL-H22K
  7
STANDARD1X3
1001
ACAD
1000
MTEXTBEGIN
1070
    73
1070
     1
1070
    44
1040
1.0
1070
    74
1070
     0
1000
MTEXTEND
1000
MTEXTBEGIN
1070
    73
1070
     1
1070
    44
1040
1.0
1070
    74
1070
     0
1000
MTEXTEND
1000
MTEXTBEGIN
1070
    73
1070
     1
1070
    44
1040
1.0
1070
    74
1070
     0
1000
MTEXTEND
1000
MTEXTBEGIN
1070
    73
1070
     1
1070
    44
1040
1.0
1070
    74
1070
     0
1000
MTEXTEND
1000
MTEXTBEGIN
1070
    73
1070
     1
1070
    44
1040
1.0
1070
    74
1070
     0
1000
MTEXTEND
  0
LWPOLYLINE
  5
8EA
330
1F
100
AcDbEntity
  8
10
100
AcDbPolyline
 90
        4
 70
     0
 43
0.0
 10
110.0000000000016
 20
31.99999999998305
 10
0.000000000001819
 20
31.99999999998305
 10
0.0
 20
0.0
 10
110.0
 20
-0.0000000000169393
  0
LWPOLYLINE
  5
8EB
330
1F
100
AcDbEntity
  8
10
100
AcDbPolyline
 90
        2
 70
     0
 43
0.0
 10
0.0
 20
2.0
 10
110.0
 20
1.999999999983059
  0
LWPOLYLINE
  5
8EC
330
1F
100
AcDbEntity
  8
10
100
AcDbPolyline
 90
        4
 70
     0
 43
0.0
 10
110.0000000000129
 20
172.9999999999825
 10
0.000000000001819
 20
172.9999999999825
 10
0.000000000001819
 20
140.9999999999829
 10
110.0000000000104
 20
140.9999999999829
1001
GENIUS_GENOREF_13
1005
0
1005
0
  0
LWPOLYLINE
  5
8ED
330
1F
100
AcDbEntity
  8
10
100
AcDbPolyline
 90
        2
 70
     0
 43
0.0
 10
12.99999999999909
 20
1.999999999998067
 10
12.99999999999909
 20
-0.0000000000019327
  0
LWPOLYLINE
  5
8EE
330
1F
100
AcDbEntity
  8
12
 48
7.0
100
AcDbPolyline
 90
        2
 70
     0
 43
0.0
 10
10.0
 20
5.006917435252603
 10
9.99999999999909
 20
-1.693743819056634
  0
LWPOLYLINE
  5
8EF
330
1F
100
AcDbEntity
  8
10
100
AcDbPolyline
 90
        2
 70
     0
 43
0.0
 10
7.0
 20
1.99999999999909
 10
6.99999999999909
 20
-0.0000000000007958
  0
CIRCLE
  5
8F0
330
1F
100
AcDbEntity
  8
10
100
AcDbCircle
 10
170.000000000012
 20
149.9999999999825
 30
0.0
 40
6.25
  0
CIRCLE
  5
8F1
330
1F
100
AcDbEntity
  8
10
100
AcDbCircle
 10
170.000000000012
 20
149.9999999999825
 30
0.0
 40
5.0
  0
CIRCLE
  5
8F2
330
1F
100
AcDbEntity
  8
10
100
AcDbCircle
 10
170.000000000012
 20
149.9999999999825
 30
0.0
 40
3.0
  0
LINE
  5
8F3
330
1F
100
AcDbEntity
  8
10
100
AcDbLine
 10
165.0000000000104
 20
152.8867513459307
 30
0.0
 11
165.0000000000104
 21
147.1132486540344
 31
0.0
  0
LINE
  5
8F4
330
1F
100
AcDbEntity
  8
10
100
AcDbLine
 10
175.0000000000104
 20
147.1132486540343
 30
0.0
 11
175.0000000000104
 21
152.8867513459307
 31
0.0
  0
CIRCLE
  5
8F6
330
1F
100
AcDbEntity
  8
10
100
AcDbCircle
 10
110.0000000000104
 20
149.9999999999825
 30
0.0
 40
6.25
  0
CIRCLE
  5
8F7
330
1F
100
AcDbEntity
  8
10
100
AcDbCircle
 10
110.0000000000104
 20
149.9999999999825
 30
0.0
 40
5.0
  0
CIRCLE
  5
8F8
330
1F
100
AcDbEntity
  8
10
100
AcDbCircle
 10
110.0000000000104
 20
149.9999999999825
 30
0.0
 40
3.0
  0
LINE
  5
8F9
330
1F
100
AcDbEntity
  8
10
100
AcDbLine
 10
105.0000000000104
 20
152.8867513459307
 30
0.0
 11
105.0000000000104
 21
147.1132486540344
 31
0.0
  0
LINE
  5
8FA
330
1F
100
AcDbEntity
  8
10
100
AcDbLine
 10
115.0000000000104
 20
147.1132486540343
 30
0.0
 11
115.0000000000104
 21
152.8867513459307
 31
0.0
  0
LWPOLYLINE
  5
8FB
330
1F
100
AcDbEntity
  8
10
100
AcDbPolyline
 90
        4
 70
     0
 43
0.0
 10
110.0000000000129
 20
172.9999999999825
 10
220.0000000000018
 20
172.9999999999825
 10
220.0000000000018
 20
140.9999999999829
 10
110.0000000000104
 20
140.9999999999829
1001
GENIUS_GENOREF_13
1005
0
1005
0
1005
0
1005
0
1005
0
  0
LINE
  5
8FC
330
1F
100
AcDbEntity
  8
16
 48
15.0
100
AcDbLine
 10
109.999999999999
 20
-11.10211707550638
 30
0.0
 11
110.0000000000149
 21
197.0173361742921
 31
0.0
1001
GENIUS_GENODEF_13
1002
{
1000
HIER
1070
     0
1002
}
1002
{
1000
MANEDIT
1070
     0
1002
}
1002
{
1000
NOSEL
1070
     0
1002
}
1002
{
1000
BEHIND
1070
     0
1002
}
1002
{
1000
REACTOR
1002
}
1001
GENIUS_GENOBJ-N-CEN_13
1002
{
1000
OWNER
1000
GEN
1002
}
  0
CIRCLE
  5
8FD
330
1F
100
AcDbEntity
  8
10
100
AcDbCircle
 10
50.00000000001046
 20
149.9999999999825
 30
0.0
 40
3.0
1001
GENIUS_GENOREF_13
1005
0
1005
0
  0
LINE
  5
8FE
330
1F
100
AcDbEntity
  8
10
100
AcDbLine
 10
55.00000000001136
 20
147.1132486540343
 30
0.0
 11
55.00000000001136
 21
152.8867513459307
 31
0.0
1001
GENIUS_GENOREF_13
1005
0
1005
0
1005
0
  0
LINE
  5
8FF
330
1F
100
AcDbEntity
  8
10
100
AcDbLine
 10
45.00000000001135
 20
152.8867513459307
 30
0.0
 11
45.00000000001135
 21
147.1132486540344
 31
0.0
1001
GENIUS_GENOREF_13
1005
0
1005
0
1005
0
  0
CIRCLE
  5
900
330
1F
100
AcDbEntity
  8
10
100
AcDbCircle
 10
50.00000000001046
 20
149.9999999999825
 30
0.0
 40
5.0
1001
GENIUS_GENOREF_13
1005
0
1005
0
1005
0
  0
CIRCLE
  5
901
330
1F
100
AcDbEntity
  8
10
100
AcDbCircle
 10
50.00000000001046
 20
149.9999999999825
 30
0.0
 40
6.25
1001
GENIUS_GENOREF_13
1005
0
1005
0
1005
0
1005
0
  0
LWPOLYLINE
  5
902
330
1F
100
AcDbEntity
  8
10
100
AcDbPolyline
 90
        4
 70
     0
 43
0.0
 10
110.0000000000016
 20
31.99999999998305
 10
220.0000000000018
 20
31.99999999998305
 10
219.9999999999989
 20
-0.0000000000169393
 10
110.0
 20
-0.0000000000169393
  0
LWPOLYLINE
  5
903
330
1F
100
AcDbEntity
  8
10
100
AcDbPolyline
 90
        2
 70
     0
 43
0.0
 10
219.9999999999989
 20
1.999999999983059
 10
110.0
 20
1.999999999983059
  0
LWPOLYLINE
  5
904
330
1F
100
AcDbEntity
  8
12
 48
7.0
100
AcDbPolyline
 90
        2
 70
     0
 43
0.0
 10
210.0
 20
5.006917435236799
 10
209.9999999999988
 20
-1.693743819072324
  0
LWPOLYLINE
  5
905
330
1F
100
AcDbEntity
  8
10
100
AcDbPolyline
 90
        2
 70
     0
 43
0.0
 10
212.9999999999991
 20
1.999999999983059
 10
212.9999999999991
 20
-0.0000000000169393
  0
LWPOLYLINE
  5
906
330
1F
100
AcDbEntity
  8
10
100
AcDbPolyline
 90
        2
 70
     0
 43
0.0
 10
207.0
 20
1.999999999983059
 10
207.0
 20
-0.0000000000169393
  0
LWPOLYLINE
  5
907
330
1F
100
AcDbEntity
  8
10
100
AcDbPolyline
 90
        2
 70
     0
 43
0.0
 10
81.00000000000182
 20
36.24999999999693
 10
81.00000000000909
 20
132.9999999999965
  0
LWPOLYLINE
  5
908
330
1F
100
AcDbEntity
  8
10
100
AcDbPolyline
 90
        2
 70
     0
 43
0.0
 10
139.0000000000104
 20
132.9999999999877
 10
138.9999999999963
 20
36.24999999998771
  0
LWPOLYLINE
  5
909
330
1F
100
AcDbEntity
  8
10
100
AcDbPolyline
 90
        2
 70
     0
 43
0.0
 10
79.00000000000909
 20
132.9999999999877
 10
78.99999999999545
 20
36.24999999998771
  0
LWPOLYLINE
  5
90A
330
1F
100
AcDbEntity
  8
10
100
AcDbPolyline
 90
        2
 70
     0
 43
0.0
 10
199.0000000000032
 20
36.24999999998306
 10
199.0000000000104
 20
132.9999999999829
  0
LWPOLYLINE
  5
90B
330
1F
100
AcDbEntity
  8
10
100
AcDbPolyline
 90
        2
 70
     0
 43
0.0
 10
141.000000000009
 20
132.9999999999829
 10
141.000000000009
 20
36.24999999998306
  0
LWPOLYLINE
  5
90C
330
1F
100
AcDbEntity
  8
10
100
AcDbPolyline
 90
        2
 70
     0
 43
0.0
 10
21.00000000000091
 20
36.24999999999693
 10
21.00000000000909
 20
132.9999999999965
  0
CIRCLE
  5
90D
330
1F
100
AcDbEntity
  8
10
100
AcDbCircle
 10
110.0000000000009
 20
18.9999999999826
 30
0.0
 40
6.25
  0
LWPOLYLINE
  5
90E
330
1F
100
AcDbEntity
  8
10
100
AcDbPolyline
 90
        2
 70
     0
 43
0.0
 10
110.0000000000016
 20
34.99999999998306
 10
185.000000000003
 20
34.99999999998306
  0
LWPOLYLINE
  5
90F
330
1F
100
AcDbEntity
  8
10
100
AcDbPolyline
 90
        2
 70
     0
 43
0.0
 10
185.000000000003
 20
33.99999999998306
 10
110.0000000000016
 20
33.99999999998306
  0
LWPOLYLINE
  5
910
330
1F
100
AcDbEntity
  8
10
100
AcDbPolyline
 90
        2
 70
     0
 43
0.0
 10
35.00000000000091
 20
33.99999999999465
 10
110.0000000000016
 20
33.99999999998306
  0
LWPOLYLINE
  5
911
330
1F
100
AcDbEntity
  8
10
100
AcDbPolyline
 90
        2
 70
     0
 43
0.0
 10
110.0000000000016
 20
34.99999999998306
 10
35.00000000000091
 20
34.99999999999465
  0
LINE
  5
912
330
1F
100
AcDbEntity
  8
10
100
AcDbLine
 10
50.00000000001046
 20
24.77350269187877
 30
0.0
 11
45.00000000001135
 21
21.88675134593109
 31
0.0
  0
LINE
  5
913
330
1F
100
AcDbEntity
  8
10
100
AcDbLine
 10
55.00000000001136
 20
21.88675134593109
 30
0.0
 11
50.00000000001046
 21
24.77350269187877
 31
0.0
  0
CIRCLE
  5
914
330
1F
100
AcDbEntity
  8
10
100
AcDbCircle
 10
50.00000000001046
 20
18.9999999999826
 30
0.0
 40
6.25
  0
CIRCLE
  5
915
330
1F
100
AcDbEntity
  8
10
100
AcDbCircle
 10
50.00000000001046
 20
18.9999999999826
 30
0.0
 40
5.0
  0
LINE
  5
916
330
1F
100
AcDbEntity
  8
10
100
AcDbLine
 10
55.00000000001136
 20
16.11324865403435
 30
0.0
 11
55.00000000001136
 21
21.88675134593109
 31
0.0
  0
LINE
  5
917
330
1F
100
AcDbEntity
  8
10
100
AcDbLine
 10
45.00000000001135
 20
21.88675134593109
 30
0.0
 11
45.00000000001135
 21
16.11324865403457
 31
0.0
  0
CIRCLE
  5
918
330
1F
100
AcDbEntity
  8
10
100
AcDbCircle
 10
50.00000000001046
 20
18.9999999999826
 30
0.0
 40
3.0
  0
LINE
  5
919
330
1F
100
AcDbEntity
  8
10
100
AcDbLine
 10
50.00000000001046
 20
13.22649730808655
 30
0.0
 11
55.00000000001136
 21
16.11324865403435
 31
0.0
  0
LINE
  5
91A
330
1F
100
AcDbEntity
  8
10
100
AcDbLine
 10
45.00000000001135
 20
16.11324865403457
 30
0.0
 11
50.00000000001046
 21
13.22649730808655
 31
0.0
  0
LWPOLYLINE
  5
91B
330
1F
100
AcDbEntity
  8
10
100
AcDbPolyline
 90
        2
 70
     0
 43
0.0
 10
35.00000000000091
 20
35.24999999999465
 10
35.00000000000091
 20
31.99999999998305
  0
LWPOLYLINE
  5
91C
330
1F
100
AcDbEntity
  8
10
100
AcDbPolyline
 90
        2
 70
     0
 43
0.0
 10
65.00000000000091
 20
31.99999999998305
 10
65.00000000000091
 20
33.99999999998998
  0
LINE
  5
91D
330
1F
100
AcDbEntity
  8
10
100
AcDbLine
 10
110.0000000000009
 20
24.77350269187877
 30
0.0
 11
105.0000000000009
 21
21.88675134593109
 31
0.0
  0
CIRCLE
  5
91E
330
1F
100
AcDbEntity
  8
10
100
AcDbCircle
 10
110.0000000000009
 20
18.9999999999826
 30
0.0
 40
5.0
  0
LINE
  5
91F
330
1F
100
AcDbEntity
  8
10
100
AcDbLine
 10
115.0000000000009
 20
21.88675134593109
 30
0.0
 11
110.0000000000009
 21
24.77350269187877
 31
0.0
  0
LINE
  5
920
330
1F
100
AcDbEntity
  8
10
100
AcDbLine
 10
115.0000000000009
 20
16.11324865403435
 30
0.0
 11
115.0000000000009
 21
21.88675134593109
 31
0.0
  0
LINE
  5
921
330
1F
100
AcDbEntity
  8
10
100
AcDbLine
 10
105.0000000000009
 20
21.88675134593109
 30
0.0
 11
105.0000000000009
 21
16.11324865403457
 31
0.0
  0
CIRCLE
  5
922
330
1F
100
AcDbEntity
  8
10
100
AcDbCircle
 10
110.0000000000009
 20
18.9999999999826
 30
0.0
 40
3.0
  0
LINE
  5
923
330
1F
100
AcDbEntity
  8
10
100
AcDbLine
 10
105.0000000000009
 20
16.11324865403457
 30
0.0
 11
110.0000000000009
 21
13.22649730808655
 31
0.0
  0
LINE
  5
924
330
1F
100
AcDbEntity
  8
10
100
AcDbLine
 10
110.0000000000009
 20
13.22649730808655
 30
0.0
 11
115.0000000000009
 21
16.11324865403435
 31
0.0
  0
LWPOLYLINE
  5
925
330
1F
100
AcDbEntity
  8
10
100
AcDbPolyline
 90
        2
 70
     0
 43
0.0
 10
95.00000000000314
 20
31.99999999998305
 10
95.00000000000314
 20
33.99999999998306
  0
LINE
  5
926
330
1F
100
AcDbEntity
  8
10
100
AcDbLine
 10
170.000000000012
 20
24.77350269187877
 30
0.0
 11
165.0000000000104
 21
21.88675134593109
 31
0.0
  0
CIRCLE
  5
927
330
1F
100
AcDbEntity
  8
10
100
AcDbCircle
 10
170.000000000012
 20
18.9999999999826
 30
0.0
 40
6.25
  0
LINE
  5
928
330
1F
100
AcDbEntity
  8
10
100
AcDbLine
 10
165.0000000000104
 20
16.11324865403457
 30
0.0
 11
170.000000000012
 21
13.22649730808655
 31
0.0
  0
CIRCLE
  5
929
330
1F
100
AcDbEntity
  8
10
100
AcDbCircle
 10
170.000000000012
 20
18.9999999999826
 30
0.0
 40
5.0
  0
LINE
  5
92A
330
1F
100
AcDbEntity
  8
10
100
AcDbLine
 10
165.0000000000104
 20
21.88675134593109
 30
0.0
 11
165.0000000000104
 21
16.11324865403457
 31
0.0
  0
LWPOLYLINE
  5
92B
330
1F
100
AcDbEntity
  8
10
100
AcDbPolyline
 90
        2
 70
     0
 43
0.0
 10
125.0000000000009
 20
31.99999999998305
 10
125.0000000000009
 20
33.99999999998044
  0
LWPOLYLINE
  5
92C
330
1F
100
AcDbEntity
  8
10
100
AcDbPolyline
 90
        2
 70
     0
 43
0.0
 10
155.0000000000029
 20
31.99999999998305
 10
155.0000000000029
 20
33.99999999998306
  0
LINE
  5
92D
330
1F
100
AcDbEntity
  8
10
100
AcDbLine
 10
175.0000000000104
 20
21.88675134593109
 30
0.0
 11
170.000000000012
 21
24.77350269187877
 31
0.0
  0
LINE
  5
92E
330
1F
100
AcDbEntity
  8
10
100
AcDbLine
 10
175.0000000000104
 20
16.11324865403435
 30
0.0
 11
175.0000000000104
 21
21.88675134593109
 31
0.0
  0
CIRCLE
  5
92F
330
1F
100
AcDbEntity
  8
10
100
AcDbCircle
 10
170.000000000012
 20
18.9999999999826
 30
0.0
 40
3.0
  0
LINE
  5
930
330
1F
100
AcDbEntity
  8
10
100
AcDbLine
 10
170.000000000012
 20
13.22649730808655
 30
0.0
 11
175.0000000000104
 21
16.11324865403435
 31
0.0
  0
LWPOLYLINE
  5
931
330
1F
100
AcDbEntity
  8
10
100
AcDbPolyline
 90
        2
 70
     0
 43
0.0
 10
185.000000000003
 20
35.24999999998306
 10
185.000000000003
 20
31.99999999998305
  0
LWPOLYLINE
  5
932
330
1F
100
AcDbEntity
  8
10
100
AcDbPolyline
 90
        2
 70
     0
 43
0.0
 10
185.000000000009
 20
134.2499999999829
 10
110.0000000000104
 20
134.2499999999829
  0
LWPOLYLINE
  5
933
330
1F
100
AcDbEntity
  8
10
100
AcDbPolyline
 90
        2
 70
     0
 43
0.0
 10
185.000000000009
 20
134.9999999999829
 10
110.0000000000104
 20
134.9999999999829
  0
LWPOLYLINE
  5
934
330
1F
100
AcDbEntity
  8
10
100
AcDbPolyline
 90
        2
 70
     0
 43
0.0
 10
35.00000000000909
 20
134.9999999999946
 10
110.0000000000104
 20
134.9999999999829
  0
LWPOLYLINE
  5
935
330
1F
100
AcDbEntity
  8
10
100
AcDbPolyline
 90
        2
 70
     0
 43
0.0
 10
35.00000000000909
 20
134.2499999999946
 10
110.0000000000104
 20
134.2499999999829
  0
LWPOLYLINE
  5
936
330
1F
100
AcDbEntity
  8
10
100
AcDbPolyline
 90
        2
 70
     0
 43
0.0
 10
35.00000000000909
 20
140.9999999999945
 10
35.00000000000909
 20
133.9999999999946
  0
LWPOLYLINE
  5
937
330
1F
100
AcDbEntity
  8
10
100
AcDbPolyline
 90
        2
 70
     0
 43
0.0
 10
65.00000000001046
 20
134.9999999999901
 10
65.00000000001046
 20
140.9999999999899
  0
LINE
  5
938
330
1F
100
AcDbEntity
  8
10
100
AcDbLine
 10
45.00000000001135
 20
147.1132486540344
 30
0.0
 11
50.00000000001046
 21
144.2264973080864
 31
0.0
1001
GENIUS_GENOREF_13
1005
0
1005
0
1005
0
  0
LINE
  5
939
330
1F
100
AcDbEntity
  8
10
100
AcDbLine
 10
50.00000000001046
 20
144.2264973080864
 30
0.0
 11
55.00000000001136
 21
147.1132486540343
 31
0.0
1001
GENIUS_GENOREF_13
1005
0
1005
0
1005
0
  0
LINE
  5
93A
330
1F
100
AcDbEntity
  8
10
100
AcDbLine
 10
105.0000000000104
 20
147.1132486540344
 30
0.0
 11
110.0000000000104
 21
144.2264973080864
 31
0.0
  0
LWPOLYLINE
  5
93B
330
1F
100
AcDbEntity
  8
10
100
AcDbPolyline
 90
        2
 70
     0
 43
0.0
 10
95.00000000000907
 20
134.9999999999829
 10
95.00000000001046
 20
140.9999999999829
  0
LINE
  5
93C
330
1F
100
AcDbEntity
  8
10
100
AcDbLine
 10
110.0000000000104
 20
144.2264973080864
 30
0.0
 11
115.0000000000104
 21
147.1132486540343
 31
0.0
  0
LINE
  5
93D
330
1F
100
AcDbEntity
  8
10
100
AcDbLine
 10
165.0000000000104
 20
147.1132486540344
 30
0.0
 11
170.000000000012
 21
144.2264973080864
 31
0.0
  0
LWPOLYLINE
  5
93E
330
1F
100
AcDbEntity
  8
10
100
AcDbPolyline
 90
        2
 70
     0
 43
0.0
 10
125.0000000000091
 20
134.9999999999805
 10
125.0000000000091
 20
140.9999999999804
  0
LWPOLYLINE
  5
93F
330
1F
100
AcDbEntity
  8
10
100
AcDbPolyline
 90
        2
 70
     0
 43
0.0
 10
155.0000000000103
 20
134.9999999999829
 10
155.0000000000103
 20
140.9999999999829
  0
LWPOLYLINE
  5
940
330
1F
100
AcDbEntity
  8
10
100
AcDbPolyline
 90
        2
 70
     0
 43
0.0
 10
185.0000000000104
 20
140.9999999999829
 10
185.000000000009
 20
133.9999999999829
  0
LINE
  5
941
330
1F
100
AcDbEntity
  8
10
100
AcDbLine
 10
170.000000000012
 20
144.2264973080864
 30
0.0
 11
175.0000000000104
 21
147.1132486540343
 31
0.0
  0
LINE
  5
942
330
1F
100
AcDbEntity
  8
10
100
AcDbLine
 10
50.00000000001046
 20
155.7735026918788
 30
0.0
 11
45.00000000001135
 21
152.8867513459307
 31
0.0
1001
GENIUS_GENOREF_13
1005
0
1005
0
1005
0
  0
LINE
  5
943
330
1F
100
AcDbEntity
  8
10
100
AcDbLine
 10
55.00000000001136
 20
152.8867513459307
 30
0.0
 11
50.00000000001046
 21
155.7735026918788
 31
0.0
1001
GENIUS_GENOREF_13
1005
0
1005
0
1005
0
  0
LINE
  5
944
330
1F
100
AcDbEntity
  8
10
100
AcDbLine
 10
110.0000000000104
 20
155.7735026918788
 30
0.0
 11
105.0000000000104
 21
152.8867513459307
 31
0.0
  0
LINE
  5
945
330
1F
100
AcDbEntity
  8
10
100
AcDbLine
 10
115.0000000000104
 20
152.8867513459307
 30
0.0
 11
110.0000000000104
 21
155.7735026918788
 31
0.0
  0
LINE
  5
946
330
1F
100
AcDbEntity
  8
10
100
AcDbLine
 10
170.000000000012
 20
155.7735026918788
 30
0.0
 11
165.0000000000104
 21
152.8867513459307
 31
0.0
  0
LINE
  5
947
330
1F
100
AcDbEntity
  8
10
100
AcDbLine
 10
175.0000000000104
 20
152.8867513459307
 30
0.0
 11
170.000000000012
 21
155.7735026918788
 31
0.0
  0
LINE
  5
94C
330
1F
100
AcDbEntity
  8
10
100
AcDbLine
 10
123.5890778930287
 20
214.0000799999824
 30
0.0
 11
160.8390778930288
 21
214.0000799999824
 31
0.0
  0
LINE
  5
94D
330
1F
100
AcDbEntity
  8
10
100
AcDbLine
 10
160.8390778930288
 20
213.0000799999824
 30
0.0
 11
123.5890778930287
 21
213.0000799999824
 31
0.0
  0
LINE
  5
94E
330
1F
100
AcDbEntity
  8
10
100
AcDbLine
 10
160.8390778930288
 20
173.0000799999825
 30
0.0
 11
103.8390778930287
 21
173.0000799999825
 31
0.0
  0
LINE
  5
94F
330
1F
100
AcDbEntity
  8
10
100
AcDbLine
 10
103.8390778930287
 20
173.0000799999825
 30
0.0
 11
103.8390778930287
 21
186.0000799999824
 31
0.0
  0
LINE
  5
950
330
1F
100
AcDbEntity
  8
10
100
AcDbLine
 10
103.8390778930287
 20
186.0000799999824
 30
0.0
 11
117.0890778930287
 21
186.0000799999824
 31
0.0
  0
LINE
  5
951
330
1F
100
AcDbEntity
  8
10
100
AcDbLine
 10
117.0890778930287
 20
186.0000799999824
 30
0.0
 11
117.0890778930287
 21
219.9999999999824
 31
0.0
  0
LINE
  5
952
330
1F
100
AcDbEntity
  8
10
100
AcDbLine
 10
117.0890778930287
 20
219.9999999999824
 30
0.0
 11
123.5890778930287
 21
219.9999999999824
 31
0.0
  0
LINE
  5
953
330
1F
100
AcDbEntity
  8
10
100
AcDbLine
 10
117.0890778930287
 20
182.5000799999824
 30
0.0
 11
160.8390778930288
 21
182.5000799999824
 31
0.0
  0
LINE
  5
954
330
1F
100
AcDbEntity
  8
10
100
AcDbLine
 10
160.8390778930288
 20
179.0000799999821
 30
0.0
 11
117.0890778930287
 21
179.0000799999821
 31
0.0
  0
LINE
  5
955
330
1F
100
AcDbEntity
  8
10
100
AcDbLine
 10
117.0890778930287
 20
179.0000799999821
 30
0.0
 11
117.0890778930287
 21
186.0000799999824
 31
0.0
  0
LINE
  5
956
330
1F
100
AcDbEntity
  8
10
100
AcDbLine
 10
160.8390778930288
 20
207.5000799999823
 30
0.0
 11
150.3390778930288
 21
207.5000799999823
 31
0.0
  0
LINE
  5
957
330
1F
100
AcDbEntity
  8
10
100
AcDbLine
 10
160.8390778930288
 20
193.5000799999824
 30
0.0
 11
150.3390778930288
 21
193.5000799999824
 31
0.0
  0
LINE
  5
958
330
1F
100
AcDbEntity
  8
10
100
AcDbLine
 10
129.0890778930287
 20
197.1000799999824
 30
0.0
 11
129.0890778930287
 21
203.0226799999824
 31
0.0
  0
LINE
  5
959
330
1F
100
AcDbEntity
  8
10
100
AcDbLine
 10
136.5890778930286
 20
203.0226799999824
 30
0.0
 11
136.5890778930286
 21
197.1000799999824
 31
0.0
  0
LINE
  5
95A
330
1F
100
AcDbEntity
  8
10
100
AcDbLine
 10
140.3390778930288
 20
197.1000799999824
 30
0.0
 11
140.3390778930288
 21
203.0226799999824
 31
0.0
  0
LINE
  5
95B
330
1F
100
AcDbEntity
  8
10
100
AcDbLine
 10
140.3390778930288
 20
203.0226799999824
 30
0.0
 11
139.3390778930287
 21
203.6000799999824
 31
0.0
  0
LINE
  5
95C
330
1F
100
AcDbEntity
  8
10
100
AcDbLine
 10
139.3390778930287
 20
203.6000799999824
 30
0.0
 11
126.3390778930286
 21
203.6000799999824
 31
0.0
  0
LINE
  5
95D
330
1F
100
AcDbEntity
  8
10
100
AcDbLine
 10
126.3390778930286
 20
203.6000799999824
 30
0.0
 11
125.3390778930286
 21
203.0226799999824
 31
0.0
  0
LINE
  5
95E
330
1F
100
AcDbEntity
  8
10
100
AcDbLine
 10
125.3390778930286
 20
203.0226799999824
 30
0.0
 11
125.3390778930286
 21
197.1000799999824
 31
0.0
  0
LINE
  5
95F
330
1F
100
AcDbEntity
  8
10
100
AcDbLine
 10
125.3390778930286
 20
197.1000799999824
 30
0.0
 11
140.3390778930288
 21
197.1000799999824
 31
0.0
  0
LINE
  5
960
330
1F
100
AcDbEntity
  8
10
100
AcDbLine
 10
150.3390778930288
 20
182.5000799999824
 30
0.0
 11
150.3390778930288
 21
211.5000799999823
 31
0.0
  0
LINE
  5
961
330
1F
100
AcDbEntity
  8
10
100
AcDbLine
 10
150.3390778930288
 20
211.5000799999823
 30
0.0
 11
144.8390778930288
 21
211.5000799999823
 31
0.0
  0
LINE
  5
962
330
1F
100
AcDbEntity
  8
10
100
AcDbLine
 10
144.8390778930288
 20
211.5000799999823
 30
0.0
 11
144.8390778930288
 21
182.5000799999824
 31
0.0
  0
LINE
  5
963
330
1F
100
AcDbEntity
  8
10
100
AcDbLine
 10
122.0890778930286
 20
182.5000799999824
 30
0.0
 11
122.0890778930286
 21
206.5000799999824
 31
0.0
  0
LINE
  5
964
330
1F
100
AcDbEntity
  8
10
100
AcDbLine
 10
109.8390778930287
 20
188.3000799999824
 30
0.0
 11
111.1390778930289
 21
187.0000799999824
 31
0.0
  0
LINE
  5
965
330
1F
100
AcDbEntity
  8
10
100
AcDbLine
 10
104.8390778930287
 20
186.0000799999824
 30
0.0
 11
114.8390778930286
 21
186.0000799999824
 31
0.0
  0
LINE
  5
966
330
1F
100
AcDbEntity
  8
10
100
AcDbLine
 10
114.8390778930286
 20
186.0000799999824
 30
0.0
 11
114.8390778930286
 21
187.0000799999824
 31
0.0
  0
LINE
  5
967
330
1F
100
AcDbEntity
  8
10
100
AcDbLine
 10
114.8390778930286
 20
187.0000799999824
 30
0.0
 11
104.8390778930287
 21
187.0000799999824
 31
0.0
  0
LINE
  5
968
330
1F
100
AcDbEntity
  8
10
100
AcDbLine
 10
104.8390778930287
 20
187.0000799999824
 30
0.0
 11
104.8390778930287
 21
186.0000799999824
 31
0.0
  0
LINE
  5
969
330
1F
100
AcDbEntity
  8
10
100
AcDbLine
 10
105.2390778930289
 20
187.0000799999824
 30
0.0
 11
114.4390778930292
 21
187.0000799999824
 31
0.0
  0
LINE
  5
96A
330
1F
100
AcDbEntity
  8
10
100
AcDbLine
 10
114.4390778930292
 20
187.0000799999824
 30
0.0
 11
114.4390778930292
 21
188.3000799999824
 31
0.0
  0
LINE
  5
96B
330
1F
100
AcDbEntity
  8
10
100
AcDbLine
 10
114.4390778930292
 20
188.3000799999824
 30
0.0
 11
105.2390778930289
 21
188.3000799999824
 31
0.0
  0
LINE
  5
96C
330
1F
100
AcDbEntity
  8
10
100
AcDbLine
 10
105.2390778930289
 20
188.3000799999824
 30
0.0
 11
105.2390778930289
 21
187.0000799999824
 31
0.0
  0
LINE
  5
96D
330
1F
100
AcDbEntity
  8
10
100
AcDbLine
 10
107.8390778930287
 20
191.6000799999824
 30
0.0
 11
111.8390778930286
 21
191.6000799999824
 31
0.0
  0
ARC
  5
96E
330
1F
100
AcDbEntity
  8
10
100
AcDbCircle
 10
107.8390778930287
 20
189.1000799999824
 30
0.0
 40
2.5
100
AcDbArc
 50
90.0
 51
180.0
  0
LINE
  5
96F
330
1F
100
AcDbEntity
  8
10
100
AcDbLine
 10
105.3390778930286
 20
188.3000799999824
 30
0.0
 11
105.3390778930286
 21
189.1000799999824
 31
0.0
  0
LINE
  5
970
330
1F
100
AcDbEntity
  8
10
100
AcDbLine
 10
109.8390778930287
 20
187.0000799999824
 30
0.0
 11
108.5390778930291
 21
188.3000799999824
 31
0.0
  0
ARC
  5
971
330
1F
100
AcDbEntity
  8
10
100
AcDbCircle
 10
111.8390778930286
 20
189.1000799999824
 30
0.0
 40
2.5
100
AcDbArc
 50
0.0
 51
90.0
  0
LINE
  5
972
330
1F
100
AcDbEntity
  8
10
100
AcDbLine
 10
114.3390778930287
 20
189.1000799999824
 30
0.0
 11
114.3390778930287
 21
188.3000799999824
 31
0.0
  0
LINE
  5
973
330
1F
100
AcDbEntity
  8
10
100
AcDbLine
 10
134.8390778930287
 20
195.1000799999824
 30
0.0
 11
132.8390778930287
 21
197.1000799999824
 31
0.0
  0
LINE
  5
974
330
1F
100
AcDbEntity
  8
10
100
AcDbLine
 10
125.139077893029
 20
195.1000799999824
 30
0.0
 11
140.5390778930289
 21
195.1000799999824
 31
0.0
  0
LINE
  5
975
330
1F
100
AcDbEntity
  8
10
100
AcDbLine
 10
140.5390778930289
 20
195.1000799999824
 30
0.0
 11
140.5390778930289
 21
197.1000799999824
 31
0.0
  0
LINE
  5
976
330
1F
100
AcDbEntity
  8
10
100
AcDbLine
 10
140.5390778930289
 20
197.1000799999824
 30
0.0
 11
125.139077893029
 21
197.1000799999824
 31
0.0
  0
LINE
  5
977
330
1F
100
AcDbEntity
  8
10
100
AcDbLine
 10
125.139077893029
 20
197.1000799999824
 30
0.0
 11
125.139077893029
 21
195.1000799999824
 31
0.0
  0
LINE
  5
978
330
1F
100
AcDbEntity
  8
10
100
AcDbLine
 10
124.3390778930286
 20
193.5000799999824
 30
0.0
 11
141.3390778930288
 21
193.5000799999824
 31
0.0
  0
LINE
  5
979
330
1F
100
AcDbEntity
  8
10
100
AcDbLine
 10
141.3390778930288
 20
193.5000799999824
 30
0.0
 11
141.3390778930288
 21
195.1000799999824
 31
0.0
  0
LINE
  5
97A
330
1F
100
AcDbEntity
  8
10
100
AcDbLine
 10
141.3390778930288
 20
195.1000799999824
 30
0.0
 11
124.3390778930286
 21
195.1000799999824
 31
0.0
  0
LINE
  5
97B
330
1F
100
AcDbEntity
  8
10
100
AcDbLine
 10
124.3390778930286
 20
195.1000799999824
 30
0.0
 11
124.3390778930286
 21
193.5000799999824
 31
0.0
  0
LINE
  5
97C
330
1F
100
AcDbEntity
  8
10
100
AcDbLine
 10
144.8390778930288
 20
193.5000799999824
 30
0.0
 11
122.0890778930286
 21
193.5000799999824
 31
0.0
  0
LINE
  5
97D
330
1F
100
AcDbEntity
  8
10
100
AcDbLine
 10
132.8390778930287
 20
195.1000799999824
 30
0.0
 11
130.8390778930287
 21
197.1000799999824
 31
0.0
  0
LINE
  5
97E
330
1F
100
AcDbEntity
  8
10
100
AcDbLine
 10
123.5890778930287
 20
215.5000799999823
 30
0.0
 11
117.0890778930287
 21
215.5000799999823
 31
0.0
  0
LINE
  5
97F
330
1F
100
AcDbEntity
  8
10
100
AcDbLine
 10
144.8390778930288
 20
207.5000799999823
 30
0.0
 11
123.5890778930287
 21
207.5000799999823
 31
0.0
  0
LINE
  5
980
330
1F
100
AcDbEntity
  8
10
100
AcDbLine
 10
123.5890778930287
 20
219.9999999999824
 30
0.0
 11
123.5890778930287
 21
206.5000799999824
 31
0.0
  0
LINE
  5
981
330
1F
100
AcDbEntity
  8
10
100
AcDbLine
 10
123.5890778930287
 20
206.5000799999824
 30
0.0
 11
122.0890778930286
 21
206.5000799999824
 31
0.0
  0
LINE
  5
982
330
1F
100
AcDbEntity
  8
10
100
AcDbLine
 10
128.0890778930287
 20
203.6000799999824
 30
0.0
 11
129.0890778930287
 21
203.0226799999824
 31
0.0
  0
LINE
  5
983
330
1F
100
AcDbEntity
  8
10
100
AcDbLine
 10
129.0890778930287
 20
203.0226799999824
 30
0.0
 11
130.0890778930287
 21
203.6000799999824
 31
0.0
  0
LINE
  5
984
330
1F
100
AcDbEntity
  8
10
100
AcDbLine
 10
135.5890778930286
 20
203.6000799999824
 30
0.0
 11
136.5890778930286
 21
203.0226799999824
 31
0.0
  0
LINE
  5
985
330
1F
100
AcDbEntity
  8
10
100
AcDbLine
 10
136.5890778930286
 20
203.0226799999824
 30
0.0
 11
137.5890778930286
 21
203.6000799999824
 31
0.0
  0
LINE
  5
986
330
1F
100
AcDbEntity
  8
10
100
AcDbLine
 10
216.8382778930304
 20
186.0000799999824
 30
0.0
 11
206.8382778930288
 21
186.0000799999824
 31
0.0
  0
LINE
  5
987
330
1F
100
AcDbEntity
  8
10
100
AcDbLine
 10
206.8382778930288
 20
186.0000799999824
 30
0.0
 11
206.8382778930288
 21
187.0000799999824
 31
0.0
  0
LINE
  5
988
330
1F
100
AcDbEntity
  8
10
100
AcDbLine
 10
206.8382778930288
 20
187.0000799999824
 30
0.0
 11
216.8382778930304
 21
187.0000799999824
 31
0.0
  0
LINE
  5
989
330
1F
100
AcDbEntity
  8
10
100
AcDbLine
 10
216.8382778930304
 20
187.0000799999824
 30
0.0
 11
216.8382778930304
 21
186.0000799999824
 31
0.0
  0
ARC
  5
98A
330
1F
100
AcDbEntity
  8
10
100
AcDbCircle
 10
213.838277893029
 20
189.1000799999824
 30
0.0
 40
2.5
100
AcDbArc
 50
0.0
 51
90.0
  0
LINE
  5
98B
330
1F
100
AcDbEntity
  8
10
100
AcDbLine
 10
160.8390778930288
 20
173.0000799999825
 30
0.0
 11
217.838277893029
 21
173.0000799999825
 31
0.0
  0
LINE
  5
98C
330
1F
100
AcDbEntity
  8
10
100
AcDbLine
 10
217.838277893029
 20
173.0000799999825
 30
0.0
 11
217.838277893029
 21
186.0000799999824
 31
0.0
  0
LINE
  5
98D
330
1F
100
AcDbEntity
  8
10
100
AcDbLine
 10
217.838277893029
 20
186.0000799999824
 30
0.0
 11
204.5882778930288
 21
186.0000799999824
 31
0.0
  0
LINE
  5
98E
330
1F
100
AcDbEntity
  8
10
100
AcDbLine
 10
204.5882778930288
 20
186.0000799999824
 30
0.0
 11
204.5882778930288
 21
219.9999999999824
 31
0.0
  0
LINE
  5
98F
330
1F
100
AcDbEntity
  8
10
100
AcDbLine
 10
204.5882778930288
 20
219.9999999999824
 30
0.0
 11
198.0882778930288
 21
219.9999999999824
 31
0.0
  0
LINE
  5
990
330
1F
100
AcDbEntity
  8
10
100
AcDbLine
 10
157.0890778930288
 20
197.1000799999824
 30
0.0
 11
157.0890778930288
 21
203.0226799999824
 31
0.0
  0
LINE
  5
991
330
1F
100
AcDbEntity
  8
10
100
AcDbLine
 10
164.5890778930288
 20
203.0226799999824
 30
0.0
 11
164.5890778930288
 21
197.1000799999824
 31
0.0
  0
LINE
  5
992
330
1F
100
AcDbEntity
  8
10
100
AcDbLine
 10
185.0890778930288
 20
203.0226799999824
 30
0.0
 11
185.0890778930288
 21
197.1000799999824
 31
0.0
  0
LINE
  5
993
330
1F
100
AcDbEntity
  8
10
100
AcDbLine
 10
171.3390778930288
 20
182.5000799999824
 30
0.0
 11
171.3390778930288
 21
211.5000799999823
 31
0.0
  0
LINE
  5
994
330
1F
100
AcDbEntity
  8
10
100
AcDbLine
 10
171.3390778930288
 20
211.5000799999823
 30
0.0
 11
176.8390778930288
 21
211.5000799999823
 31
0.0
  0
LINE
  5
995
330
1F
100
AcDbEntity
  8
10
100
AcDbLine
 10
176.8390778930288
 20
211.5000799999823
 30
0.0
 11
176.8390778930288
 21
182.5000799999824
 31
0.0
  0
LINE
  5
996
330
1F
100
AcDbEntity
  8
10
100
AcDbLine
 10
192.5890778930288
 20
197.1000799999824
 30
0.0
 11
192.5890778930288
 21
203.0226799999824
 31
0.0
  0
LINE
  5
997
330
1F
100
AcDbEntity
  8
10
100
AcDbLine
 10
199.5882778930289
 20
182.5000799999824
 30
0.0
 11
199.5882778930289
 21
206.5000799999824
 31
0.0
  0
LINE
  5
998
330
1F
100
AcDbEntity
  8
10
100
AcDbLine
 10
181.3390778930288
 20
197.1000799999824
 30
0.0
 11
181.3390778930288
 21
203.0226799999824
 31
0.0
  0
LINE
  5
999
330
1F
100
AcDbEntity
  8
10
100
AcDbLine
 10
181.3390778930288
 20
203.0226799999824
 30
0.0
 11
182.3390778930288
 21
203.6000799999824
 31
0.0
  0
LINE
  5
99A
330
1F
100
AcDbEntity
  8
10
100
AcDbLine
 10
182.3390778930288
 20
203.6000799999824
 30
0.0
 11
195.3390778930288
 21
203.6000799999824
 31
0.0
  0
LINE
  5
99B
330
1F
100
AcDbEntity
  8
10
100
AcDbLine
 10
195.3390778930288
 20
203.6000799999824
 30
0.0
 11
196.3390778930288
 21
203.0226799999824
 31
0.0
  0
LINE
  5
99C
330
1F
100
AcDbEntity
  8
10
100
AcDbLine
 10
196.3390778930288
 20
203.0226799999824
 30
0.0
 11
196.3390778930288
 21
197.1000799999824
 31
0.0
  0
LINE
  5
99D
330
1F
100
AcDbEntity
  8
10
100
AcDbLine
 10
196.3390778930288
 20
197.1000799999824
 30
0.0
 11
181.3390778930288
 21
197.1000799999824
 31
0.0
  0
LINE
  5
99E
330
1F
100
AcDbEntity
  8
10
100
AcDbLine
 10
168.3390778930288
 20
197.1000799999824
 30
0.0
 11
168.3390778930288
 21
203.0226799999824
 31
0.0
  0
LINE
  5
99F
330
1F
100
AcDbEntity
  8
10
100
AcDbLine
 10
168.3390778930288
 20
203.0226799999824
 30
0.0
 11
167.3390778930288
 21
203.6000799999824
 31
0.0
  0
LINE
  5
9A0
330
1F
100
AcDbEntity
  8
10
100
AcDbLine
 10
167.3390778930288
 20
203.6000799999824
 30
0.0
 11
154.3390778930288
 21
203.6000799999824
 31
0.0
  0
LINE
  5
9A1
330
1F
100
AcDbEntity
  8
10
100
AcDbLine
 10
154.3390778930288
 20
203.6000799999824
 30
0.0
 11
153.3390778930288
 21
203.0226799999824
 31
0.0
  0
LINE
  5
9A2
330
1F
100
AcDbEntity
  8
10
100
AcDbLine
 10
153.3390778930288
 20
203.0226799999824
 30
0.0
 11
153.3390778930288
 21
197.1000799999824
 31
0.0
  0
LINE
  5
9A3
330
1F
100
AcDbEntity
  8
10
100
AcDbLine
 10
153.3390778930288
 20
197.1000799999824
 30
0.0
 11
168.3390778930288
 21
197.1000799999824
 31
0.0
  0
LINE
  5
9A4
330
1F
100
AcDbEntity
  8
10
100
AcDbLine
 10
196.5390778930289
 20
195.1000799999824
 30
0.0
 11
181.139077893029
 21
195.1000799999824
 31
0.0
  0
LINE
  5
9A5
330
1F
100
AcDbEntity
  8
10
100
AcDbLine
 10
181.139077893029
 20
195.1000799999824
 30
0.0
 11
181.139077893029
 21
197.1000799999824
 31
0.0
  0
LINE
  5
9A6
330
1F
100
AcDbEntity
  8
10
100
AcDbLine
 10
181.139077893029
 20
197.1000799999824
 30
0.0
 11
196.5390778930289
 21
197.1000799999824
 31
0.0
  0
LINE
  5
9A7
330
1F
100
AcDbEntity
  8
10
100
AcDbLine
 10
196.5390778930289
 20
197.1000799999824
 30
0.0
 11
196.5390778930289
 21
195.1000799999824
 31
0.0
  0
LINE
  5
9A8
330
1F
100
AcDbEntity
  8
10
100
AcDbLine
 10
197.338277893029
 20
193.5000799999824
 30
0.0
 11
180.3390778930288
 21
193.5000799999824
 31
0.0
  0
LINE
  5
9A9
330
1F
100
AcDbEntity
  8
10
100
AcDbLine
 10
180.3390778930288
 20
193.5000799999824
 30
0.0
 11
180.3390778930288
 21
195.1000799999824
 31
0.0
  0
LINE
  5
9AA
330
1F
100
AcDbEntity
  8
10
100
AcDbLine
 10
180.3390778930288
 20
195.1000799999824
 30
0.0
 11
197.338277893029
 21
195.1000799999824
 31
0.0
  0
LINE
  5
9AB
330
1F
100
AcDbEntity
  8
10
100
AcDbLine
 10
197.338277893029
 20
195.1000799999824
 30
0.0
 11
197.338277893029
 21
193.5000799999824
 31
0.0
  0
LINE
  5
9AC
330
1F
100
AcDbEntity
  8
10
100
AcDbLine
 10
176.8390778930288
 20
193.5000799999824
 30
0.0
 11
199.5882778930289
 21
193.5000799999824
 31
0.0
  0
LINE
  5
9AD
330
1F
100
AcDbEntity
  8
10
100
AcDbLine
 10
204.5882778930288
 20
182.5000799999824
 30
0.0
 11
160.8390778930288
 21
182.5000799999824
 31
0.0
  0
LINE
  5
9AE
330
1F
100
AcDbEntity
  8
10
100
AcDbLine
 10
160.8390778930288
 20
179.0000799999821
 30
0.0
 11
204.5882778930288
 21
179.0000799999821
 31
0.0
  0
LINE
  5
9AF
330
1F
100
AcDbEntity
  8
10
100
AcDbLine
 10
204.5882778930288
 20
179.0000799999821
 30
0.0
 11
204.5882778930288
 21
186.0000799999824
 31
0.0
  0
LINE
  5
9B0
330
1F
100
AcDbEntity
  8
10
100
AcDbLine
 10
160.8390778930288
 20
193.5000799999824
 30
0.0
 11
171.3390778930288
 21
193.5000799999824
 31
0.0
  0
LINE
  5
9B1
330
1F
100
AcDbEntity
  8
10
100
AcDbLine
 10
153.139077893029
 20
195.1000799999824
 30
0.0
 11
168.5390778930289
 21
195.1000799999824
 31
0.0
  0
LINE
  5
9B2
330
1F
100
AcDbEntity
  8
10
100
AcDbLine
 10
168.5390778930289
 20
195.1000799999824
 30
0.0
 11
168.5390778930289
 21
197.1000799999824
 31
0.0
  0
LINE
  5
9B3
330
1F
100
AcDbEntity
  8
10
100
AcDbLine
 10
168.5390778930289
 20
197.1000799999824
 30
0.0
 11
153.139077893029
 21
197.1000799999824
 31
0.0
  0
LINE
  5
9B4
330
1F
100
AcDbEntity
  8
10
100
AcDbLine
 10
153.139077893029
 20
197.1000799999824
 30
0.0
 11
153.139077893029
 21
195.1000799999824
 31
0.0
  0
LINE
  5
9B5
330
1F
100
AcDbEntity
  8
10
100
AcDbLine
 10
152.3390778930288
 20
193.5000799999824
 30
0.0
 11
169.3390778930288
 21
193.5000799999824
 31
0.0
  0
LINE
  5
9B6
330
1F
100
AcDbEntity
  8
10
100
AcDbLine
 10
169.3390778930288
 20
193.5000799999824
 30
0.0
 11
169.3390778930288
 21
195.1000799999824
 31
0.0
  0
LINE
  5
9B7
330
1F
100
AcDbEntity
  8
10
100
AcDbLine
 10
169.3390778930288
 20
195.1000799999824
 30
0.0
 11
152.3390778930288
 21
195.1000799999824
 31
0.0
  0
LINE
  5
9B8
330
1F
100
AcDbEntity
  8
10
100
AcDbLine
 10
152.3390778930288
 20
195.1000799999824
 30
0.0
 11
152.3390778930288
 21
193.5000799999824
 31
0.0
  0
LINE
  5
9B9
330
1F
100
AcDbEntity
  8
10
100
AcDbLine
 10
160.8390778930288
 20
195.1000799999824
 30
0.0
 11
158.8390778930288
 21
197.1000799999824
 31
0.0
  0
LINE
  5
9BA
330
1F
100
AcDbEntity
  8
10
100
AcDbLine
 10
162.8390778930288
 20
195.1000799999824
 30
0.0
 11
160.8390778930288
 21
197.1000799999824
 31
0.0
  0
LINE
  5
9BB
330
1F
100
AcDbEntity
  8
10
100
AcDbLine
 10
186.8390778930288
 20
195.1000799999824
 30
0.0
 11
188.8390778930288
 21
197.1000799999824
 31
0.0
  0
LINE
  5
9BC
330
1F
100
AcDbEntity
  8
10
100
AcDbLine
 10
188.8390778930288
 20
195.1000799999824
 30
0.0
 11
190.8390778930288
 21
197.1000799999824
 31
0.0
  0
LINE
  5
9BD
330
1F
100
AcDbEntity
  8
10
100
AcDbLine
 10
216.4382778930288
 20
187.0000799999824
 30
0.0
 11
207.2382778930291
 21
187.0000799999824
 31
0.0
  0
LINE
  5
9BE
330
1F
100
AcDbEntity
  8
10
100
AcDbLine
 10
207.2382778930291
 20
187.0000799999824
 30
0.0
 11
207.2382778930291
 21
188.3000799999824
 31
0.0
  0
LINE
  5
9BF
330
1F
100
AcDbEntity
  8
10
100
AcDbLine
 10
207.2382778930291
 20
188.3000799999824
 30
0.0
 11
216.4382778930288
 21
188.3000799999824
 31
0.0
  0
LINE
  5
9C0
330
1F
100
AcDbEntity
  8
10
100
AcDbLine
 10
216.4382778930288
 20
188.3000799999824
 30
0.0
 11
216.4382778930288
 21
187.0000799999824
 31
0.0
  0
ARC
  5
9C1
330
1F
100
AcDbEntity
  8
10
100
AcDbCircle
 10
209.838277893029
 20
189.1000799999824
 30
0.0
 40
2.5
100
AcDbArc
 50
90.0
 51
180.0
  0
LINE
  5
9C2
330
1F
100
AcDbEntity
  8
10
100
AcDbLine
 10
207.338277893029
 20
189.1000799999824
 30
0.0
 11
207.338277893029
 21
188.3000799999824
 31
0.0
  0
LINE
  5
9C3
330
1F
100
AcDbEntity
  8
10
100
AcDbLine
 10
211.838277893029
 20
187.0000799999824
 30
0.0
 11
213.1382778930291
 21
188.3000799999824
 31
0.0
  0
LINE
  5
9C4
330
1F
100
AcDbEntity
  8
10
100
AcDbLine
 10
213.838277893029
 20
191.6000799999824
 30
0.0
 11
209.838277893029
 21
191.6000799999824
 31
0.0
  0
LINE
  5
9C5
330
1F
100
AcDbEntity
  8
10
100
AcDbLine
 10
211.838277893029
 20
188.3000799999824
 30
0.0
 11
210.5382778930288
 21
187.0000799999824
 31
0.0
  0
LINE
  5
9C6
330
1F
100
AcDbEntity
  8
10
100
AcDbLine
 10
216.3382778930289
 20
188.3000799999824
 30
0.0
 11
216.3382778930289
 21
189.1000799999824
 31
0.0
  0
LINE
  5
9C7
330
1F
100
AcDbEntity
  8
10
100
AcDbLine
 10
198.0882778930288
 20
214.0000799999824
 30
0.0
 11
160.8390778930288
 21
214.0000799999824
 31
0.0
  0
LINE
  5
9C8
330
1F
100
AcDbEntity
  8
10
100
AcDbLine
 10
160.8390778930288
 20
213.0000799999824
 30
0.0
 11
198.0882778930288
 21
213.0000799999824
 31
0.0
  0
LINE
  5
9C9
330
1F
100
AcDbEntity
  8
10
100
AcDbLine
 10
176.8390778930288
 20
207.5000799999823
 30
0.0
 11
198.0882778930288
 21
207.5000799999823
 31
0.0
  0
LINE
  5
9CA
330
1F
100
AcDbEntity
  8
10
100
AcDbLine
 10
160.8390778930288
 20
207.5000799999823
 30
0.0
 11
171.3390778930288
 21
207.5000799999823
 31
0.0
  0
LINE
  5
9CB
330
1F
100
AcDbEntity
  8
10
100
AcDbLine
 10
156.0890778930288
 20
203.6000799999824
 30
0.0
 11
157.0890778930288
 21
203.0226799999824
 31
0.0
  0
LINE
  5
9CC
330
1F
100
AcDbEntity
  8
10
100
AcDbLine
 10
157.0890778930288
 20
203.0226799999824
 30
0.0
 11
158.0890778930288
 21
203.6000799999824
 31
0.0
  0
LINE
  5
9CD
330
1F
100
AcDbEntity
  8
10
100
AcDbLine
 10
163.5890778930288
 20
203.6000799999824
 30
0.0
 11
164.5890778930288
 21
203.0226799999824
 31
0.0
  0
LINE
  5
9CE
330
1F
100
AcDbEntity
  8
10
100
AcDbLine
 10
164.5890778930288
 20
203.0226799999824
 30
0.0
 11
165.5890778930288
 21
203.6000799999824
 31
0.0
  0
LINE
  5
9CF
330
1F
100
AcDbEntity
  8
10
100
AcDbLine
 10
198.0882778930288
 20
215.5000799999823
 30
0.0
 11
204.5882778930288
 21
215.5000799999823
 31
0.0
  0
LINE
  5
9D0
330
1F
100
AcDbEntity
  8
10
100
AcDbLine
 10
193.5890778930288
 20
203.6000799999824
 30
0.0
 11
192.5890778930288
 21
203.0226799999824
 31
0.0
  0
LINE
  5
9D1
330
1F
100
AcDbEntity
  8
10
100
AcDbLine
 10
192.5890778930288
 20
203.0226799999824
 30
0.0
 11
191.5890778930288
 21
203.6000799999824
 31
0.0
  0
LINE
  5
9D2
330
1F
100
AcDbEntity
  8
10
100
AcDbLine
 10
186.0890778930288
 20
203.6000799999824
 30
0.0
 11
185.0890778930288
 21
203.0226799999824
 31
0.0
  0
LINE
  5
9D3
330
1F
100
AcDbEntity
  8
10
100
AcDbLine
 10
185.0890778930288
 20
203.0226799999824
 30
0.0
 11
184.0890778930288
 21
203.6000799999824
 31
0.0
  0
LINE
  5
9D4
330
1F
100
AcDbEntity
  8
10
100
AcDbLine
 10
198.0882778930288
 20
219.9999999999824
 30
0.0
 11
198.0882778930288
 21
206.5000799999824
 31
0.0
  0
LINE
  5
9D5
330
1F
100
AcDbEntity
  8
10
100
AcDbLine
 10
198.0882778930288
 20
206.5000799999824
 30
0.0
 11
199.5882778930289
 21
206.5000799999824
 31
0.0
  0
LINE
  5
9D6
330
1F
100
AcDbEntity
  8
10
100
AcDbLine
 10
21.58907789302884
 20
214.0000799999824
 30
0.0
 11
58.83907789302885
 21
214.0000799999824
 31
0.0
  0
LINE
  5
9D7
330
1F
100
AcDbEntity
  8
10
100
AcDbLine
 10
58.83907789302885
 20
213.0000799999824
 30
0.0
 11
21.58907789302884
 21
213.0000799999824
 31
0.0
  0
LINE
  5
9D8
330
1F
100
AcDbEntity
  8
10
100
AcDbLine
 10
58.83907789302885
 20
173.0000799999825
 30
0.0
 11
1.839077893028843
 21
173.0000799999825
 31
0.0
  0
LINE
  5
9D9
330
1F
100
AcDbEntity
  8
10
100
AcDbLine
 10
1.839077893028843
 20
173.0000799999825
 30
0.0
 11
1.839077893028843
 21
186.0000799999824
 31
0.0
  0
LINE
  5
9DA
330
1F
100
AcDbEntity
  8
10
100
AcDbLine
 10
1.839077893028843
 20
186.0000799999824
 30
0.0
 11
15.08907789302884
 21
186.0000799999824
 31
0.0
  0
LINE
  5
9DB
330
1F
100
AcDbEntity
  8
10
100
AcDbLine
 10
15.08907789302884
 20
186.0000799999824
 30
0.0
 11
15.08907789302884
 21
219.9999999999824
 31
0.0
  0
LINE
  5
9DC
330
1F
100
AcDbEntity
  8
10
100
AcDbLine
 10
15.08907789302884
 20
219.9999999999824
 30
0.0
 11
21.58907789302884
 21
219.9999999999824
 31
0.0
  0
LINE
  5
9DD
330
1F
100
AcDbEntity
  8
10
100
AcDbLine
 10
15.08907789302884
 20
182.5000799999824
 30
0.0
 11
58.83907789302885
 21
182.5000799999824
 31
0.0
  0
LINE
  5
9DE
330
1F
100
AcDbEntity
  8
10
100
AcDbLine
 10
58.83907789302885
 20
179.0000799999821
 30
0.0
 11
15.08907789302884
 21
179.0000799999821
 31
0.0
  0
LINE
  5
9DF
330
1F
100
AcDbEntity
  8
10
100
AcDbLine
 10
15.08907789302884
 20
179.0000799999821
 30
0.0
 11
15.08907789302884
 21
186.0000799999824
 31
0.0
  0
LINE
  5
9E0
330
1F
100
AcDbEntity
  8
10
100
AcDbLine
 10
58.83907789302885
 20
207.5000799999823
 30
0.0
 11
48.33907789302884
 21
207.5000799999823
 31
0.0
  0
LINE
  5
9E1
330
1F
100
AcDbEntity
  8
10
100
AcDbLine
 10
58.83907789302885
 20
193.5000799999824
 30
0.0
 11
48.33907789302884
 21
193.5000799999824
 31
0.0
  0
LINE
  5
9E2
330
1F
100
AcDbEntity
  8
10
100
AcDbLine
 10
27.08907789302884
 20
197.1000799999824
 30
0.0
 11
27.08907789302884
 21
203.0226799999824
 31
0.0
  0
LINE
  5
9E3
330
1F
100
AcDbEntity
  8
10
100
AcDbLine
 10
34.58907789302884
 20
203.0226799999824
 30
0.0
 11
34.58907789302884
 21
197.1000799999824
 31
0.0
  0
LINE
  5
9E4
330
1F
100
AcDbEntity
  8
10
100
AcDbLine
 10
38.33907789302884
 20
197.1000799999824
 30
0.0
 11
38.33907789302884
 21
203.0226799999824
 31
0.0
  0
LINE
  5
9E5
330
1F
100
AcDbEntity
  8
10
100
AcDbLine
 10
38.33907789302884
 20
203.0226799999824
 30
0.0
 11
37.33907789302884
 21
203.6000799999824
 31
0.0
  0
LINE
  5
9E6
330
1F
100
AcDbEntity
  8
10
100
AcDbLine
 10
37.33907789302884
 20
203.6000799999824
 30
0.0
 11
24.33907789302882
 21
203.6000799999824
 31
0.0
  0
LINE
  5
9E7
330
1F
100
AcDbEntity
  8
10
100
AcDbLine
 10
24.33907789302882
 20
203.6000799999824
 30
0.0
 11
23.33907789302882
 21
203.0226799999824
 31
0.0
  0
LINE
  5
9E8
330
1F
100
AcDbEntity
  8
10
100
AcDbLine
 10
23.33907789302882
 20
203.0226799999824
 30
0.0
 11
23.33907789302882
 21
197.1000799999824
 31
0.0
  0
LINE
  5
9E9
330
1F
100
AcDbEntity
  8
10
100
AcDbLine
 10
23.33907789302882
 20
197.1000799999824
 30
0.0
 11
38.33907789302884
 21
197.1000799999824
 31
0.0
  0
LINE
  5
9EA
330
1F
100
AcDbEntity
  8
10
100
AcDbLine
 10
48.33907789302884
 20
182.5000799999824
 30
0.0
 11
48.33907789302884
 21
211.5000799999823
 31
0.0
  0
LINE
  5
9EB
330
1F
100
AcDbEntity
  8
10
100
AcDbLine
 10
48.33907789302884
 20
211.5000799999823
 30
0.0
 11
42.83907789302884
 21
211.5000799999823
 31
0.0
  0
LINE
  5
9EC
330
1F
100
AcDbEntity
  8
10
100
AcDbLine
 10
42.83907789302884
 20
211.5000799999823
 30
0.0
 11
42.83907789302884
 21
182.5000799999824
 31
0.0
  0
LINE
  5
9ED
330
1F
100
AcDbEntity
  8
10
100
AcDbLine
 10
20.08907789302884
 20
182.5000799999824
 30
0.0
 11
20.08907789302884
 21
206.5000799999824
 31
0.0
  0
LINE
  5
9EE
330
1F
100
AcDbEntity
  8
10
100
AcDbLine
 10
7.839077893028842
 20
188.3000799999824
 30
0.0
 11
9.139077893030387
 21
187.0000799999824
 31
0.0
  0
LINE
  5
9EF
330
1F
100
AcDbEntity
  8
10
100
AcDbLine
 10
2.839077893028843
 20
186.0000799999824
 30
0.0
 11
12.83907789302884
 21
186.0000799999824
 31
0.0
  0
LINE
  5
9F0
330
1F
100
AcDbEntity
  8
10
100
AcDbLine
 10
12.83907789302884
 20
186.0000799999824
 30
0.0
 11
12.83907789302884
 21
187.0000799999824
 31
0.0
  0
LINE
  5
9F1
330
1F
100
AcDbEntity
  8
10
100
AcDbLine
 10
12.83907789302884
 20
187.0000799999824
 30
0.0
 11
2.839077893028843
 21
187.0000799999824
 31
0.0
  0
LINE
  5
9F2
330
1F
100
AcDbEntity
  8
10
100
AcDbLine
 10
2.839077893028843
 20
187.0000799999824
 30
0.0
 11
2.839077893028843
 21
186.0000799999824
 31
0.0
  0
LINE
  5
9F3
330
1F
100
AcDbEntity
  8
10
100
AcDbLine
 10
3.239077893028933
 20
187.0000799999824
 30
0.0
 11
12.4390778930292
 21
187.0000799999824
 31
0.0
  0
LINE
  5
9F4
330
1F
100
AcDbEntity
  8
10
100
AcDbLine
 10
12.4390778930292
 20
187.0000799999824
 30
0.0
 11
12.4390778930292
 21
188.3000799999824
 31
0.0
  0
LINE
  5
9F5
330
1F
100
AcDbEntity
  8
10
100
AcDbLine
 10
12.4390778930292
 20
188.3000799999824
 30
0.0
 11
3.239077893028933
 21
188.3000799999824
 31
0.0
  0
LINE
  5
9F6
330
1F
100
AcDbEntity
  8
10
100
AcDbLine
 10
3.239077893028933
 20
188.3000799999824
 30
0.0
 11
3.239077893028933
 21
187.0000799999824
 31
0.0
  0
LINE
  5
9F7
330
1F
100
AcDbEntity
  8
10
100
AcDbLine
 10
5.839077893028842
 20
191.6000799999824
 30
0.0
 11
9.839077893028843
 21
191.6000799999824
 31
0.0
  0
ARC
  5
9F8
330
1F
100
AcDbEntity
  8
10
100
AcDbCircle
 10
5.839077893028842
 20
189.1000799999824
 30
0.0
 40
2.5
100
AcDbArc
 50
90.0
 51
180.0
  0
LINE
  5
9F9
330
1F
100
AcDbEntity
  8
10
100
AcDbLine
 10
3.339077893028843
 20
188.3000799999824
 30
0.0
 11
3.339077893028843
 21
189.1000799999824
 31
0.0
  0
LINE
  5
9FA
330
1F
100
AcDbEntity
  8
10
100
AcDbLine
 10
7.839077893028842
 20
187.0000799999824
 30
0.0
 11
6.539077893029116
 21
188.3000799999824
 31
0.0
  0
ARC
  5
9FB
330
1F
100
AcDbEntity
  8
10
100
AcDbCircle
 10
9.839077893028843
 20
189.1000799999824
 30
0.0
 40
2.5
100
AcDbArc
 50
0.0
 51
90.0
  0
LINE
  5
9FC
330
1F
100
AcDbEntity
  8
10
100
AcDbLine
 10
12.33907789302884
 20
189.1000799999824
 30
0.0
 11
12.33907789302884
 21
188.3000799999824
 31
0.0
  0
LINE
  5
9FD
330
1F
100
AcDbEntity
  8
10
100
AcDbLine
 10
32.83907789302884
 20
195.1000799999824
 30
0.0
 11
30.83907789302884
 21
197.1000799999824
 31
0.0
  0
LINE
  5
9FE
330
1F
100
AcDbEntity
  8
10
100
AcDbLine
 10
23.13907789302902
 20
195.1000799999824
 30
0.0
 11
38.5390778930291
 21
195.1000799999824
 31
0.0
  0
LINE
  5
9FF
330
1F
100
AcDbEntity
  8
10
100
AcDbLine
 10
38.5390778930291
 20
195.1000799999824
 30
0.0
 11
38.5390778930291
 21
197.1000799999824
 31
0.0
  0
LINE
  5
A00
330
1F
100
AcDbEntity
  8
10
100
AcDbLine
 10
38.5390778930291
 20
197.1000799999824
 30
0.0
 11
23.13907789302902
 21
197.1000799999824
 31
0.0
  0
LINE
  5
A01
330
1F
100
AcDbEntity
  8
10
100
AcDbLine
 10
23.13907789302902
 20
197.1000799999824
 30
0.0
 11
23.13907789302902
 21
195.1000799999824
 31
0.0
  0
LINE
  5
A02
330
1F
100
AcDbEntity
  8
10
100
AcDbLine
 10
22.33907789302884
 20
193.5000799999824
 30
0.0
 11
39.33907789302884
 21
193.5000799999824
 31
0.0
  0
LINE
  5
A03
330
1F
100
AcDbEntity
  8
10
100
AcDbLine
 10
39.33907789302884
 20
193.5000799999824
 30
0.0
 11
39.33907789302884
 21
195.1000799999824
 31
0.0
  0
LINE
  5
A04
330
1F
100
AcDbEntity
  8
10
100
AcDbLine
 10
39.33907789302884
 20
195.1000799999824
 30
0.0
 11
22.33907789302884
 21
195.1000799999824
 31
0.0
  0
LINE
  5
A05
330
1F
100
AcDbEntity
  8
10
100
AcDbLine
 10
22.33907789302884
 20
195.1000799999824
 30
0.0
 11
22.33907789302884
 21
193.5000799999824
 31
0.0
  0
LINE
  5
A06
330
1F
100
AcDbEntity
  8
10
100
AcDbLine
 10
42.83907789302884
 20
193.5000799999824
 30
0.0
 11
20.08907789302884
 21
193.5000799999824
 31
0.0
  0
LINE
  5
A07
330
1F
100
AcDbEntity
  8
10
100
AcDbLine
 10
30.83907789302884
 20
195.1000799999824
 30
0.0
 11
28.83907789302884
 21
197.1000799999824
 31
0.0
  0
LINE
  5
A08
330
1F
100
AcDbEntity
  8
10
100
AcDbLine
 10
21.58907789302884
 20
215.5000799999823
 30
0.0
 11
15.08907789302884
 21
215.5000799999823
 31
0.0
  0
LINE
  5
A09
330
1F
100
AcDbEntity
  8
10
100
AcDbLine
 10
42.83907789302884
 20
207.5000799999823
 30
0.0
 11
21.58907789302884
 21
207.5000799999823
 31
0.0
  0
LINE
  5
A0A
330
1F
100
AcDbEntity
  8
10
100
AcDbLine
 10
21.58907789302884
 20
219.9999999999824
 30
0.0
 11
21.58907789302884
 21
206.5000799999824
 31
0.0
  0
LINE
  5
A0B
330
1F
100
AcDbEntity
  8
10
100
AcDbLine
 10
21.58907789302884
 20
206.5000799999824
 30
0.0
 11
20.08907789302884
 21
206.5000799999824
 31
0.0
  0
LINE
  5
A0C
330
1F
100
AcDbEntity
  8
10
100
AcDbLine
 10
26.08907789302884
 20
203.6000799999824
 30
0.0
 11
27.08907789302884
 21
203.0226799999824
 31
0.0
  0
LINE
  5
A0D
330
1F
100
AcDbEntity
  8
10
100
AcDbLine
 10
27.08907789302884
 20
203.0226799999824
 30
0.0
 11
28.08907789302882
 21
203.6000799999824
 31
0.0
  0
LINE
  5
A0E
330
1F
100
AcDbEntity
  8
10
100
AcDbLine
 10
33.58907789302884
 20
203.6000799999824
 30
0.0
 11
34.58907789302884
 21
203.0226799999824
 31
0.0
  0
LINE
  5
A0F
330
1F
100
AcDbEntity
  8
10
100
AcDbLine
 10
34.58907789302884
 20
203.0226799999824
 30
0.0
 11
35.58907789302884
 21
203.6000799999824
 31
0.0
  0
LINE
  5
A10
330
1F
100
AcDbEntity
  8
10
100
AcDbLine
 10
114.838277893029
 20
186.0000799999824
 30
0.0
 11
104.8382778930289
 21
186.0000799999824
 31
0.0
  0
LINE
  5
A11
330
1F
100
AcDbEntity
  8
10
100
AcDbLine
 10
104.8382778930289
 20
186.0000799999824
 30
0.0
 11
104.8382778930289
 21
187.0000799999824
 31
0.0
  0
LINE
  5
A12
330
1F
100
AcDbEntity
  8
10
100
AcDbLine
 10
104.8382778930289
 20
187.0000799999824
 30
0.0
 11
114.838277893029
 21
187.0000799999824
 31
0.0
  0
LINE
  5
A13
330
1F
100
AcDbEntity
  8
10
100
AcDbLine
 10
114.838277893029
 20
187.0000799999824
 30
0.0
 11
114.838277893029
 21
186.0000799999824
 31
0.0
  0
ARC
  5
A14
330
1F
100
AcDbEntity
  8
10
100
AcDbCircle
 10
111.8382778930304
 20
189.1000799999824
 30
0.0
 40
2.5
100
AcDbArc
 50
0.0
 51
90.0
  0
LINE
  5
A15
330
1F
100
AcDbEntity
  8
10
100
AcDbLine
 10
58.83907789302885
 20
173.0000799999825
 30
0.0
 11
115.838277893029
 21
173.0000799999825
 31
0.0
  0
LINE
  5
A16
330
1F
100
AcDbEntity
  8
10
100
AcDbLine
 10
115.838277893029
 20
173.0000799999825
 30
0.0
 11
115.838277893029
 21
186.0000799999824
 31
0.0
  0
LINE
  5
A17
330
1F
100
AcDbEntity
  8
10
100
AcDbLine
 10
115.838277893029
 20
186.0000799999824
 30
0.0
 11
102.588277893029
 21
186.0000799999824
 31
0.0
  0
LINE
  5
A18
330
1F
100
AcDbEntity
  8
10
100
AcDbLine
 10
102.588277893029
 20
186.0000799999824
 30
0.0
 11
102.588277893029
 21
219.9999999999824
 31
0.0
  0
LINE
  5
A19
330
1F
100
AcDbEntity
  8
10
100
AcDbLine
 10
102.588277893029
 20
219.9999999999824
 30
0.0
 11
96.08827789302905
 21
219.9999999999824
 31
0.0
  0
LINE
  5
A1A
330
1F
100
AcDbEntity
  8
10
100
AcDbLine
 10
55.08907789302885
 20
197.1000799999824
 30
0.0
 11
55.08907789302885
 21
203.0226799999824
 31
0.0
  0
LINE
  5
A1B
330
1F
100
AcDbEntity
  8
10
100
AcDbLine
 10
62.58907789302885
 20
203.0226799999824
 30
0.0
 11
62.58907789302885
 21
197.1000799999824
 31
0.0
  0
LINE
  5
A1C
330
1F
100
AcDbEntity
  8
10
100
AcDbLine
 10
83.08907789302883
 20
203.0226799999824
 30
0.0
 11
83.08907789302883
 21
197.1000799999824
 31
0.0
  0
LINE
  5
A1D
330
1F
100
AcDbEntity
  8
10
100
AcDbLine
 10
69.33907789302884
 20
182.5000799999824
 30
0.0
 11
69.33907789302884
 21
211.5000799999823
 31
0.0
  0
LINE
  5
A1E
330
1F
100
AcDbEntity
  8
10
100
AcDbLine
 10
69.33907789302884
 20
211.5000799999823
 30
0.0
 11
74.83907789302884
 21
211.5000799999823
 31
0.0
  0
LINE
  5
A1F
330
1F
100
AcDbEntity
  8
10
100
AcDbLine
 10
74.83907789302884
 20
211.5000799999823
 30
0.0
 11
74.83907789302884
 21
182.5000799999824
 31
0.0
  0
LINE
  5
A20
330
1F
100
AcDbEntity
  8
10
100
AcDbLine
 10
90.58907789302885
 20
197.1000799999824
 30
0.0
 11
90.58907789302885
 21
203.0226799999824
 31
0.0
  0
LINE
  5
A21
330
1F
100
AcDbEntity
  8
10
100
AcDbLine
 10
97.58827789302905
 20
182.5000799999824
 30
0.0
 11
97.58827789302905
 21
206.5000799999824
 31
0.0
  0
LINE
  5
A22
330
1F
100
AcDbEntity
  8
10
100
AcDbLine
 10
79.33907789302884
 20
197.1000799999824
 30
0.0
 11
79.33907789302884
 21
203.0226799999824
 31
0.0
  0
LINE
  5
A23
330
1F
100
AcDbEntity
  8
10
100
AcDbLine
 10
79.33907789302884
 20
203.0226799999824
 30
0.0
 11
80.33907789302885
 21
203.6000799999824
 31
0.0
  0
LINE
  5
A24
330
1F
100
AcDbEntity
  8
10
100
AcDbLine
 10
80.33907789302885
 20
203.6000799999824
 30
0.0
 11
93.33907789302886
 21
203.6000799999824
 31
0.0
  0
LINE
  5
A25
330
1F
100
AcDbEntity
  8
10
100
AcDbLine
 10
93.33907789302886
 20
203.6000799999824
 30
0.0
 11
94.33907789302885
 21
203.0226799999824
 31
0.0
  0
LINE
  5
A26
330
1F
100
AcDbEntity
  8
10
100
AcDbLine
 10
94.33907789302885
 20
203.0226799999824
 30
0.0
 11
94.33907789302885
 21
197.1000799999824
 31
0.0
  0
LINE
  5
A27
330
1F
100
AcDbEntity
  8
10
100
AcDbLine
 10
94.33907789302885
 20
197.1000799999824
 30
0.0
 11
79.33907789302884
 21
197.1000799999824
 31
0.0
  0
LINE
  5
A28
330
1F
100
AcDbEntity
  8
10
100
AcDbLine
 10
66.33907789302885
 20
197.1000799999824
 30
0.0
 11
66.33907789302885
 21
203.0226799999824
 31
0.0
  0
LINE
  5
A29
330
1F
100
AcDbEntity
  8
10
100
AcDbLine
 10
66.33907789302885
 20
203.0226799999824
 30
0.0
 11
65.33907789302884
 21
203.6000799999824
 31
0.0
  0
LINE
  5
A2A
330
1F
100
AcDbEntity
  8
10
100
AcDbLine
 10
65.33907789302884
 20
203.6000799999824
 30
0.0
 11
52.33907789302884
 21
203.6000799999824
 31
0.0
  0
LINE
  5
A2B
330
1F
100
AcDbEntity
  8
10
100
AcDbLine
 10
52.33907789302884
 20
203.6000799999824
 30
0.0
 11
51.33907789302885
 21
203.0226799999824
 31
0.0
  0
LINE
  5
A2C
330
1F
100
AcDbEntity
  8
10
100
AcDbLine
 10
51.33907789302885
 20
203.0226799999824
 30
0.0
 11
51.33907789302885
 21
197.1000799999824
 31
0.0
  0
LINE
  5
A2D
330
1F
100
AcDbEntity
  8
10
100
AcDbLine
 10
51.33907789302885
 20
197.1000799999824
 30
0.0
 11
66.33907789302885
 21
197.1000799999824
 31
0.0
  0
LINE
  5
A2E
330
1F
100
AcDbEntity
  8
10
100
AcDbLine
 10
94.53907789302911
 20
195.1000799999824
 30
0.0
 11
79.13907789302903
 21
195.1000799999824
 31
0.0
  0
LINE
  5
A2F
330
1F
100
AcDbEntity
  8
10
100
AcDbLine
 10
79.13907789302903
 20
195.1000799999824
 30
0.0
 11
79.13907789302903
 21
197.1000799999824
 31
0.0
  0
LINE
  5
A30
330
1F
100
AcDbEntity
  8
10
100
AcDbLine
 10
79.13907789302903
 20
197.1000799999824
 30
0.0
 11
94.53907789302911
 21
197.1000799999824
 31
0.0
  0
LINE
  5
A31
330
1F
100
AcDbEntity
  8
10
100
AcDbLine
 10
94.53907789302911
 20
197.1000799999824
 30
0.0
 11
94.53907789302911
 21
195.1000799999824
 31
0.0
  0
LINE
  5
A32
330
1F
100
AcDbEntity
  8
10
100
AcDbLine
 10
95.33827789302904
 20
193.5000799999824
 30
0.0
 11
78.33907789302884
 21
193.5000799999824
 31
0.0
  0
LINE
  5
A33
330
1F
100
AcDbEntity
  8
10
100
AcDbLine
 10
78.33907789302884
 20
193.5000799999824
 30
0.0
 11
78.33907789302884
 21
195.1000799999824
 31
0.0
  0
LINE
  5
A34
330
1F
100
AcDbEntity
  8
10
100
AcDbLine
 10
78.33907789302884
 20
195.1000799999824
 30
0.0
 11
95.33827789302904
 21
195.1000799999824
 31
0.0
  0
LINE
  5
A35
330
1F
100
AcDbEntity
  8
10
100
AcDbLine
 10
95.33827789302904
 20
195.1000799999824
 30
0.0
 11
95.33827789302904
 21
193.5000799999824
 31
0.0
  0
LINE
  5
A36
330
1F
100
AcDbEntity
  8
10
100
AcDbLine
 10
74.83907789302884
 20
193.5000799999824
 30
0.0
 11
97.58827789302905
 21
193.5000799999824
 31
0.0
  0
LINE
  5
A37
330
1F
100
AcDbEntity
  8
10
100
AcDbLine
 10
102.588277893029
 20
182.5000799999824
 30
0.0
 11
58.83907789302885
 21
182.5000799999824
 31
0.0
  0
LINE
  5
A38
330
1F
100
AcDbEntity
  8
10
100
AcDbLine
 10
58.83907789302885
 20
179.0000799999821
 30
0.0
 11
102.588277893029
 21
179.0000799999821
 31
0.0
  0
LINE
  5
A39
330
1F
100
AcDbEntity
  8
10
100
AcDbLine
 10
102.588277893029
 20
179.0000799999821
 30
0.0
 11
102.588277893029
 21
186.0000799999824
 31
0.0
  0
LINE
  5
A3A
330
1F
100
AcDbEntity
  8
10
100
AcDbLine
 10
58.83907789302885
 20
193.5000799999824
 30
0.0
 11
69.33907789302884
 21
193.5000799999824
 31
0.0
  0
LINE
  5
A3B
330
1F
100
AcDbEntity
  8
10
100
AcDbLine
 10
51.13907789302903
 20
195.1000799999824
 30
0.0
 11
66.53907789302912
 21
195.1000799999824
 31
0.0
  0
LINE
  5
A3C
330
1F
100
AcDbEntity
  8
10
100
AcDbLine
 10
66.53907789302912
 20
195.1000799999824
 30
0.0
 11
66.53907789302912
 21
197.1000799999824
 31
0.0
  0
LINE
  5
A3D
330
1F
100
AcDbEntity
  8
10
100
AcDbLine
 10
66.53907789302912
 20
197.1000799999824
 30
0.0
 11
51.13907789302903
 21
197.1000799999824
 31
0.0
  0
LINE
  5
A3E
330
1F
100
AcDbEntity
  8
10
100
AcDbLine
 10
51.13907789302903
 20
197.1000799999824
 30
0.0
 11
51.13907789302903
 21
195.1000799999824
 31
0.0
  0
LINE
  5
A3F
330
1F
100
AcDbEntity
  8
10
100
AcDbLine
 10
50.33907789302884
 20
193.5000799999824
 30
0.0
 11
67.33907789302884
 21
193.5000799999824
 31
0.0
  0
LINE
  5
A40
330
1F
100
AcDbEntity
  8
10
100
AcDbLine
 10
67.33907789302884
 20
193.5000799999824
 30
0.0
 11
67.33907789302884
 21
195.1000799999824
 31
0.0
  0
LINE
  5
A41
330
1F
100
AcDbEntity
  8
10
100
AcDbLine
 10
67.33907789302884
 20
195.1000799999824
 30
0.0
 11
50.33907789302884
 21
195.1000799999824
 31
0.0
  0
LINE
  5
A42
330
1F
100
AcDbEntity
  8
10
100
AcDbLine
 10
50.33907789302884
 20
195.1000799999824
 30
0.0
 11
50.33907789302884
 21
193.5000799999824
 31
0.0
  0
LINE
  5
A43
330
1F
100
AcDbEntity
  8
10
100
AcDbLine
 10
58.83907789302885
 20
195.1000799999824
 30
0.0
 11
56.83907789302884
 21
197.1000799999824
 31
0.0
  0
LINE
  5
A44
330
1F
100
AcDbEntity
  8
10
100
AcDbLine
 10
60.83907789302884
 20
195.1000799999824
 30
0.0
 11
58.83907789302885
 21
197.1000799999824
 31
0.0
  0
LINE
  5
A45
330
1F
100
AcDbEntity
  8
10
100
AcDbLine
 10
84.83907789302884
 20
195.1000799999824
 30
0.0
 11
86.83907789302883
 21
197.1000799999824
 31
0.0
  0
LINE
  5
A46
330
1F
100
AcDbEntity
  8
10
100
AcDbLine
 10
86.83907789302883
 20
195.1000799999824
 30
0.0
 11
88.83907789302886
 21
197.1000799999824
 31
0.0
  0
LINE
  5
A47
330
1F
100
AcDbEntity
  8
10
100
AcDbLine
 10
114.4382778930289
 20
187.0000799999824
 30
0.0
 11
105.238277893029
 21
187.0000799999824
 31
0.0
  0
LINE
  5
A48
330
1F
100
AcDbEntity
  8
10
100
AcDbLine
 10
105.238277893029
 20
187.0000799999824
 30
0.0
 11
105.238277893029
 21
188.3000799999824
 31
0.0
  0
LINE
  5
A49
330
1F
100
AcDbEntity
  8
10
100
AcDbLine
 10
105.238277893029
 20
188.3000799999824
 30
0.0
 11
114.4382778930289
 21
188.3000799999824
 31
0.0
  0
LINE
  5
A4A
330
1F
100
AcDbEntity
  8
10
100
AcDbLine
 10
114.4382778930289
 20
188.3000799999824
 30
0.0
 11
114.4382778930289
 21
187.0000799999824
 31
0.0
  0
ARC
  5
A4B
330
1F
100
AcDbEntity
  8
10
100
AcDbCircle
 10
107.8382778930304
 20
189.1000799999824
 30
0.0
 40
2.5
100
AcDbArc
 50
90.0
 51
180.0
  0
LINE
  5
A4C
330
1F
100
AcDbEntity
  8
10
100
AcDbLine
 10
105.338277893029
 20
189.1000799999824
 30
0.0
 11
105.338277893029
 21
188.3000799999824
 31
0.0
  0
LINE
  5
A4D
330
1F
100
AcDbEntity
  8
10
100
AcDbLine
 10
109.838277893029
 20
187.0000799999824
 30
0.0
 11
111.1382778930291
 21
188.3000799999824
 31
0.0
  0
LINE
  5
A4E
330
1F
100
AcDbEntity
  8
10
100
AcDbLine
 10
111.8382778930304
 20
191.6000799999824
 30
0.0
 11
107.8382778930304
 21
191.6000799999824
 31
0.0
  0
LINE
  5
A4F
330
1F
100
AcDbEntity
  8
10
100
AcDbLine
 10
109.838277893029
 20
188.3000799999824
 30
0.0
 11
108.5382778930287
 21
187.0000799999824
 31
0.0
  0
LINE
  5
A50
330
1F
100
AcDbEntity
  8
10
100
AcDbLine
 10
114.3382778930289
 20
188.3000799999824
 30
0.0
 11
114.3382778930289
 21
189.1000799999824
 31
0.0
  0
LINE
  5
A51
330
1F
100
AcDbEntity
  8
10
100
AcDbLine
 10
96.08827789302905
 20
214.0000799999824
 30
0.0
 11
58.83907789302885
 21
214.0000799999824
 31
0.0
  0
LINE
  5
A52
330
1F
100
AcDbEntity
  8
10
100
AcDbLine
 10
58.83907789302885
 20
213.0000799999824
 30
0.0
 11
96.08827789302905
 21
213.0000799999824
 31
0.0
  0
LINE
  5
A53
330
1F
100
AcDbEntity
  8
10
100
AcDbLine
 10
74.83907789302884
 20
207.5000799999823
 30
0.0
 11
96.08827789302905
 21
207.5000799999823
 31
0.0
  0
LINE
  5
A54
330
1F
100
AcDbEntity
  8
10
100
AcDbLine
 10
58.83907789302885
 20
207.5000799999823
 30
0.0
 11
69.33907789302884
 21
207.5000799999823
 31
0.0
  0
LINE
  5
A55
330
1F
100
AcDbEntity
  8
10
100
AcDbLine
 10
54.08907789302884
 20
203.6000799999824
 30
0.0
 11
55.08907789302885
 21
203.0226799999824
 31
0.0
  0
LINE
  5
A56
330
1F
100
AcDbEntity
  8
10
100
AcDbLine
 10
55.08907789302885
 20
203.0226799999824
 30
0.0
 11
56.08907789302884
 21
203.6000799999824
 31
0.0
  0
LINE
  5
A57
330
1F
100
AcDbEntity
  8
10
100
AcDbLine
 10
61.58907789302884
 20
203.6000799999824
 30
0.0
 11
62.58907789302885
 21
203.0226799999824
 31
0.0
  0
LINE
  5
A58
330
1F
100
AcDbEntity
  8
10
100
AcDbLine
 10
62.58907789302885
 20
203.0226799999824
 30
0.0
 11
63.58907789302884
 21
203.6000799999824
 31
0.0
  0
LINE
  5
A59
330
1F
100
AcDbEntity
  8
10
100
AcDbLine
 10
96.08827789302905
 20
215.5000799999823
 30
0.0
 11
102.588277893029
 21
215.5000799999823
 31
0.0
  0
LINE
  5
A5A
330
1F
100
AcDbEntity
  8
10
100
AcDbLine
 10
91.58907789302885
 20
203.6000799999824
 30
0.0
 11
90.58907789302885
 21
203.0226799999824
 31
0.0
  0
LINE
  5
A5B
330
1F
100
AcDbEntity
  8
10
100
AcDbLine
 10
90.58907789302885
 20
203.0226799999824
 30
0.0
 11
89.58907789302886
 21
203.6000799999824
 31
0.0
  0
LINE
  5
A5C
330
1F
100
AcDbEntity
  8
10
100
AcDbLine
 10
84.08907789302885
 20
203.6000799999824
 30
0.0
 11
83.08907789302883
 21
203.0226799999824
 31
0.0
  0
LINE
  5
A5D
330
1F
100
AcDbEntity
  8
10
100
AcDbLine
 10
83.08907789302883
 20
203.0226799999824
 30
0.0
 11
82.08907789302884
 21
203.6000799999824
 31
0.0
  0
LINE
  5
A5E
330
1F
100
AcDbEntity
  8
10
100
AcDbLine
 10
96.08827789302905
 20
219.9999999999824
 30
0.0
 11
96.08827789302905
 21
206.5000799999824
 31
0.0
  0
LINE
  5
A5F
330
1F
100
AcDbEntity
  8
10
100
AcDbLine
 10
96.08827789302905
 20
206.5000799999824
 30
0.0
 11
97.58827789302905
 21
206.5000799999824
 31
0.0
  0
LWPOLYLINE
  5
A61
330
1F
100
AcDbEntity
  8
10
100
AcDbPolyline
 90
        4
 70
     1
 43
0.0
 10
80.5000000000091
 20
36.24999999999693
 10
139.5000000000091
 20
36.24999999997863
 10
139.5000000000091
 20
35.24999999998771
 10
80.5000000000091
 20
35.2499999999967
1001
GENIUS_GENREC_14
1002
{
1000
PYDIR
1011
259.0000000000041
1021
35.24999999998306
1031
0.0
1002
}
1002
{
1000
PXDIR
1011
201.0000000000029
1021
36.24999999998306
1031
0.0
1002
}
1002
{
1000
PORI
1011
259.0000000000041
1021
36.24999999998306
1031
0.0
1002
}
1002
{
1000
PINS
1011
259.0000000000041
1021
36.24999999998306
1031
0.0
1002
}
1002
{
1000
PINS2
1011
201.0000000000029
1021
35.24999999998306
1031
0.0
1002
}
1002
{
1000
C
1070
     1
1002
}
1001
GENIUS_GENODEF_13
1002
{
1000
HIER
1070
     0
1002
}
1002
{
1000
MANEDIT
1070
     0
1002
}
1002
{
1000
NOSEL
1070
     0
1002
}
1002
{
1000
BEHIND
1070
     0
1002
}
1002
{
1000
REACTOR
1002
}
1001
GENIUS_GENOBJ-N-REC_13
1002
{
1000
OWNER
1000
GEN
1002
}
  0
LWPOLYLINE
  5
A62
330
1F
100
AcDbEntity
  8
10
100
AcDbPolyline
 90
        4
 70
     1
 43
0.0
 10
80.5000000000091
 20
132.9999999999965
 10
139.5000000000091
 20
132.9999999999786
 10
139.5000000000091
 20
133.9999999999786
 10
80.5000000000091
 20
133.9999999999965
1001
GENIUS_GENREC_14
1002
{
1000
PYDIR
1011
259.0000000000109
1021
130.9999999999829
1031
0.0
1002
}
1002
{
1000
PXDIR
1011
201.0000000000104
1021
132.9999999999829
1031
0.0
1002
}
1002
{
1000
PORI
1011
259.0000000000109
1021
129.9999999999829
1031
0.0
1002
}
1002
{
1000
PINS
1011
259.0000000000109
1021
129.9999999999829
1031
0.0
1002
}
1002
{
1000
PINS2
1011
201.0000000000104
1021
133.9999999999829
1031
0.0
1002
}
1002
{
1000
C
1070
     1
1002
}
1001
GENIUS_GENODEF_13
1002
{
1000
HIER
1070
     0
1002
}
1002
{
1000
MANEDIT
1070
     0
1002
}
1002
{
1000
NOSEL
1070
     0
1002
}
1002
{
1000
BEHIND
1070
     0
1002
}
1002
{
1000
REACTOR
1002
}
1001
GENIUS_GENOBJ-N-REC_13
1002
{
1000
OWNER
1000
GEN
1002
}
  0
LWPOLYLINE
  5
A63
330
1F
100
AcDbEntity
  8
10
100
AcDbPolyline
 90
        4
 70
     1
 43
0.0
 10
20.50000000000909
 20
36.24999999998771
 10
79.50000000001046
 20
36.24999999998771
 10
79.50000000001046
 20
35.24999999998771
 10
20.50000000000909
 20
35.2499999999967
1001
GENIUS_GENREC_14
1002
{
1000
PYDIR
1011
199.0000000000032
1021
35.24999999998306
1031
0.0
1002
}
1002
{
1000
PXDIR
1011
141.0000000000031
1021
36.24999999998306
1031
0.0
1002
}
1002
{
1000
PORI
1011
199.0000000000032
1021
36.24999999998306
1031
0.0
1002
}
1002
{
1000
PINS
1011
199.0000000000032
1021
36.24999999998306
1031
0.0
1002
}
1002
{
1000
PINS2
1011
141.0000000000031
1021
35.24999999998306
1031
0.0
1002
}
1002
{
1000
C
1070
     1
1002
}
1001
GENIUS_GENODEF_13
1002
{
1000
HIER
1070
     0
1002
}
1002
{
1000
MANEDIT
1070
     0
1002
}
1002
{
1000
NOSEL
1070
     0
1002
}
1002
{
1000
BEHIND
1070
     0
1002
}
1002
{
1000
REACTOR
1002
}
1001
GENIUS_GENOBJ-N-REC_13
1002
{
1000
OWNER
1000
GEN
1002
}
  0
LWPOLYLINE
  5
A64
330
1F
100
AcDbEntity
  8
10
100
AcDbPolyline
 90
        4
 70
     1
 43
0.0
 10
20.50000000000909
 20
132.9999999999877
 10
79.50000000001046
 20
132.9999999999877
 10
79.50000000001046
 20
133.9999999999877
 10
20.50000000000909
 20
133.9999999999965
1001
GENIUS_GENREC_14
1002
{
1000
PYDIR
1011
199.0000000000104
1021
133.9999999999829
1031
0.0
1002
}
1002
{
1000
PXDIR
1011
141.000000000009
1021
132.9999999999829
1031
0.0
1002
}
1002
{
1000
PORI
1011
199.0000000000104
1021
132.9999999999829
1031
0.0
1002
}
1002
{
1000
PINS
1011
199.0000000000104
1021
132.9999999999829
1031
0.0
1002
}
1002
{
1000
PINS2
1011
141.000000000009
1021
133.9999999999829
1031
0.0
1002
}
1002
{
1000
C
1070
     1
1002
}
1001
GENIUS_GENODEF_13
1002
{
1000
HIER
1070
     0
1002
}
1002
{
1000
MANEDIT
1070
     0
1002
}
1002
{
1000
NOSEL
1070
     0
1002
}
1002
{
1000
BEHIND
1070
     0
1002
}
1002
{
1000
REACTOR
1002
}
1001
GENIUS_GENOBJ-N-REC_13
1002
{
1000
OWNER
1000
GEN
1002
}
  0
LWPOLYLINE
  5
A65
330
1F
100
AcDbEntity
  8
10
100
AcDbPolyline
 90
        4
 70
     1
 43
0.0
 10
199.5000000000088
 20
36.24999999997863
 10
140.5000000000102
 20
36.24999999997395
 10
140.5000000000102
 20
35.24999999997396
 10
199.5000000000088
 20
35.24999999998306
1001
GENIUS_GENREC_14
1002
{
1000
PYDIR
1011
199.5000000000088
1021
35.24999999998306
1031
0.0
1002
}
1002
{
1000
PXDIR
1011
140.5000000000102
1021
36.24999999997395
1031
0.0
1002
}
1002
{
1000
PORI
1011
199.5000000000088
1021
36.24999999997863
1031
0.0
1002
}
1002
{
1000
PINS
1011
199.5000000000088
1021
36.24999999997863
1031
0.0
1002
}
1002
{
1000
PINS2
1011
140.5000000000102
1021
35.24999999997396
1031
0.0
1002
}
1002
{
1000
C
1070
     1
1002
}
1001
GENIUS_GENODEF_13
1002
{
1000
HIER
1070
     0
1002
}
1002
{
1000
MANEDIT
1070
     0
1002
}
1002
{
1000
NOSEL
1070
     0
1002
}
1002
{
1000
BEHIND
1070
     0
1002
}
1002
{
1000
REACTOR
1002
}
1001
GENIUS_GENOBJ-N-REC_13
1002
{
1000
OWNER
1000
GEN
1002
}
  0
LWPOLYLINE
  5
A66
330
1F
100
AcDbEntity
  8
10
100
AcDbPolyline
 90
        4
 70
     1
 43
0.0
 10
199.5000000000088
 20
132.9999999999829
 10
140.5000000000102
 20
132.9999999999829
 10
140.5000000000102
 20
133.9999999999829
 10
199.5000000000088
 20
133.9999999999829
1001
GENIUS_GENREC_14
1002
{
1000
PYDIR
1011
199.5000000000088
1021
133.9999999999829
1031
0.0
1002
}
1002
{
1000
PXDIR
1011
140.5000000000102
1021
132.9999999999829
1031
0.0
1002
}
1002
{
1000
PORI
1011
199.5000000000088
1021
132.9999999999829
1031
0.0
1002
}
1002
{
1000
PINS
1011
199.5000000000088
1021
132.9999999999829
1031
0.0
1002
}
1002
{
1000
PINS2
1011
140.5000000000102
1021
133.9999999999829
1031
0.0
1002
}
1002
{
1000
C
1070
     1
1002
}
1001
GENIUS_GENODEF_13
1002
{
1000
HIER
1070
     0
1002
}
1002
{
1000
MANEDIT
1070
     0
1002
}
1002
{
1000
NOSEL
1070
     0
1002
}
1002
{
1000
BEHIND
1070
     0
1002
}
1002
{
1000
REACTOR
1002
}
1001
GENIUS_GENOBJ-N-REC_13
1002
{
1000
OWNER
1000
GEN
1002
}
  0
LINE
  5
A6C
330
1F
100
AcDbEntity
  8
10
100
AcDbLine
 10
440.5296881116951
 20
140.9999999999818
 30
0.0
 11
440.5296881116951
 21
164.9999999999818
 31
0.0
1001
GENIUS_GENREC_14
1002
{
1000
PYDIR
1011
442.5296881116913
1021
164.9999999999818
1031
0.0
1002
}
1002
{
1000
PXDIR
1011
440.5296881116951
1021
140.9999999999818
1031
0.0
1002
}
1002
{
1000
PORI
1011
442.5296881116913
1021
140.9999999999818
1031
0.0
1002
}
1002
{
1000
PINS
1011
442.5296881116913
1021
140.9999999999818
1031
0.0
1002
}
1002
{
1000
PINS2
1011
440.5296881116951
1021
164.9999999999818
1031
0.0
1002
}
1002
{
1000
C
1070
     1
1002
}
1001
GENIUS_GENODEF_13
1002
{
1000
HIER
1070
     0
1002
}
1002
{
1000
MANEDIT
1070
     0
1002
}
1002
{
1000
NOSEL
1070
     0
1002
}
1002
{
1000
BEHIND
1070
     0
1002
}
1002
{
1000
REACTOR
1002
}
1001
GENIUS_GENOBJ-N-REC_13
1002
{
1000
OWNER
1000
GEN
1002
}
  0
LINE
  5
A6D
330
1F
100
AcDbEntity
  8
10
100
AcDbLine
 10
442.5296881116913
 20
164.9999999999818
 30
0.0
 11
442.5296881116913
 21
140.9999999999818
 31
0.0
1001
GENIUS_GENREC_14
1002
{
1000
PYDIR
1011
442.5296881116913
1021
164.9999999999818
1031
0.0
1002
}
1002
{
1000
PXDIR
1011
440.5296881116951
1021
140.9999999999818
1031
0.0
1002
}
1002
{
1000
PORI
1011
442.5296881116913
1021
140.9999999999818
1031
0.0
1002
}
1002
{
1000
PINS
1011
442.5296881116913
1021
140.9999999999818
1031
0.0
1002
}
1002
{
1000
PINS2
1011
440.5296881116951
1021
164.9999999999818
1031
0.0
1002
}
1002
{
1000
C
1070
     1
1002
}
1001
GENIUS_GENODEF_13
1002
{
1000
HIER
1070
     0
1002
}
1002
{
1000
MANEDIT
1070
     0
1002
}
1002
{
1000
NOSEL
1070
     0
1002
}
1002
{
1000
BEHIND
1070
     0
1002
}
1002
{
1000
REACTOR
1002
}
1001
GENIUS_GENOBJ-N-REC_13
1002
{
1000
OWNER
1000
GEN
1002
}
  0
LINE
  5
A6E
330
1F
100
AcDbEntity
  8
10
100
AcDbLine
 10
440.5296881116901
 20
133.9999999999818
 30
0.0
 11
440.5296881116951
 21
164.9999999999818
 31
0.0
  0
LINE
  5
A6F
330
1F
100
AcDbEntity
  8
10
100
AcDbLine
 10
439.0296881116951
 20
164.9999999999818
 30
0.0
 11
439.0296881116901
 21
133.9999999999818
 31
0.0
  0
LINE
  5
A70
330
1F
100
AcDbEntity
  8
10
100
AcDbLine
 10
444.1296881116911
 20
143.7499999999905
 30
0.0
 11
444.1296881116911
 21
156.2499999999905
 31
0.0
1001
GENIUS_GENOREF_13
1005
0
1005
0
1005
0
1005
0
1005
0
  0
LINE
  5
A71
330
1F
100
AcDbEntity
  8
10
100
AcDbLine
 10
442.5296881116913
 20
156.2499999999905
 30
0.0
 11
442.5296881116913
 21
143.7499999999905
 31
0.0
1001
GENIUS_GENOREF_13
1005
0
1005
0
1005
0
1005
0
1005
0
  0
LINE
  5
A72
330
1F
100
AcDbEntity
  8
10
100
AcDbLine
 10
445.7296881116909
 20
143.7499999999905
 30
0.0
 11
445.7296881116909
 21
156.2499999999905
 31
0.0
1001
GENIUS_GENOREF_13
1005
0
1005
0
1005
0
1005
0
1005
0
1005
0
  0
LINE
  5
A73
330
1F
100
AcDbEntity
  8
10
100
AcDbLine
 10
444.1296881116911
 20
156.2499999999905
 30
0.0
 11
444.1296881116911
 21
143.7499999999905
 31
0.0
1001
GENIUS_GENOREF_13
1005
0
1005
0
1005
0
1005
0
1005
0
1005
0
  0
ARC
  5
A74
330
1F
100
AcDbEntity
  8
10
100
AcDbCircle
 10
440.184201208885
 20
149.9999999999905
 30
0.0
 40
9.545486902806104
100
AcDbArc
 50
342.3875260144689
 51
17.61247398553113
1001
GENIUS_GENOREF_13
1005
0
1005
0
1005
0
1005
0
1005
0
1005
0
1005
0
1005
0
  0
LINE
  5
A75
330
1F
100
AcDbEntity
  8
10
100
AcDbLine
 10
446.2296881116911
 20
154.4399999999905
 30
0.0
 11
446.2296881116911
 21
145.5599999999905
 31
0.0
1001
GENIUS_GENOREF_13
1005
0
1005
0
1005
0
1005
0
1005
0
1005
0
1005
0
1005
0
  0
LINE
  5
A76
330
1F
100
AcDbEntity
  8
10
100
AcDbLine
 10
445.7296881116909
 20
146.9999999999908
 30
0.0
 11
445.7296881116909
 21
152.9999999999905
 31
0.0
1001
GENIUS_GENOREF_13
1005
0
1005
0
1005
0
1005
0
1005
0
1005
0
1005
0
1005
0
  0
LINE
  5
A77
330
1F
100
AcDbEntity
  8
10
100
AcDbLine
 10
449.7296881116908
 20
144.9999999999906
 30
0.0
 11
449.7296881116908
 21
154.9999999999903
 31
0.0
1001
GENIUS_GENOREF_13
1005
0
1005
0
1005
0
1005
0
1005
0
1005
0
1005
0
1005
0
  0
LWPOLYLINE
  5
A78
330
1F
100
AcDbEntity
  8
10
100
AcDbPolyline
 90
        8
 70
     0
 43
0.0
 10
443.829638111694
 20
194.1055916800744
 10
508.9437463069661
 20
195.4999999999843
 42
-0.4142135623730959
 10
520.9437463069662
 20
183.4999999999843
 10
520.9437463069662
 20
182.6618236907027
 42
-0.2672453284703018
 10
515.7686504232631
 20
173.79163201053
 10
458.0436857174922
 20
157.2447338423024
 42
0.2462595794731158
 10
452.8685898337901
 20
147.3745421621299
 10
452.8685898337892
 20
133.9999999999822
  0
LINE
  5
A79
330
1F
100
AcDbEntity
  8
10
100
AcDbLine
 10
380.5296881116901
 20
133.9999999999839
 30
0.0
 11
380.5296881116932
 21
164.9999999999903
 31
0.0
  0
LINE
  5
A7A
330
1F
100
AcDbEntity
  8
10
100
AcDbLine
 10
382.0296881116933
 20
164.9999999999899
 30
0.0
 11
382.0296881116901
 21
133.9999999999839
 31
0.0
  0
LINE
  5
A7B
330
1F
100
AcDbEntity
  8
10
100
AcDbLine
 10
368.929688111692
 20
144.9999999999906
 30
0.0
 11
368.929688111692
 21
154.9999999999903
 31
0.0
1001
GENIUS_GENOREF_13
1005
0
1005
0
  0
LINE
  5
A7C
330
1F
100
AcDbEntity
  8
10
100
AcDbLine
 10
374.1296881116919
 20
144.9999999999906
 30
0.0
 11
374.1296881116919
 21
154.9999999999903
 31
0.0
1001
GENIUS_GENOREF_13
1005
0
1005
0
  0
ARC
  5
A7D
330
1F
100
AcDbEntity
  8
10
100
AcDbCircle
 10
378.4703431093212
 20
149.9999999999905
 30
0.0
 40
9.540654997629626
100
AcDbArc
 50
162.3830311594316
 51
197.6169688405683
1001
GENIUS_GENOREF_13
1005
0
1005
0
  0
ARC
  5
A7E
330
1F
100
AcDbEntity
  8
10
100
AcDbCircle
 10
364.5890331140618
 20
149.9999999999905
 30
0.0
 40
9.540654997629703
100
AcDbArc
 50
342.3830311594315
 51
17.61696884056835
1001
GENIUS_GENOREF_13
1005
0
1005
0
  0
LINE
  5
A7F
330
1F
100
AcDbEntity
  8
10
100
AcDbLine
 10
374.1296881116919
 20
154.9999999999903
 30
0.0
 11
374.1296881116919
 21
144.9999999999906
 31
0.0
1001
GENIUS_GENOREF_13
1005
0
1005
0
1005
0
  0
LINE
  5
A80
330
1F
100
AcDbEntity
  8
10
100
AcDbLine
 10
375.729688111692
 20
143.7499999999905
 30
0.0
 11
375.729688111692
 21
156.2499999999905
 31
0.0
1001
GENIUS_GENOREF_13
1005
0
1005
0
1005
0
  0
LINE
  5
A81
330
1F
100
AcDbEntity
  8
10
100
AcDbLine
 10
375.729688111692
 20
156.2499999999905
 30
0.0
 11
375.729688111692
 21
143.7499999999905
 31
0.0
1001
GENIUS_GENOREF_13
1005
0
1005
0
1005
0
1005
0
  0
LINE
  5
A82
330
1F
100
AcDbEntity
  8
10
100
AcDbLine
 10
377.3296881116921
 20
143.7499999999905
 30
0.0
 11
377.3296881116921
 21
156.2499999999905
 31
0.0
1001
GENIUS_GENOREF_13
1005
0
1005
0
1005
0
1005
0
  0
LINE
  5
A83
330
1F
100
AcDbEntity
  8
10
100
AcDbLine
 10
365.0296881116862
 20
152.3865499999905
 30
0.0
 11
365.0296881116862
 21
147.6134499999905
 31
0.0
1001
GENIUS_GENOREF_13
1005
0
1005
0
1005
0
1005
0
1005
0
1005
0
1005
0
1005
0
  0
LINE
  5
A84
330
1F
100
AcDbEntity
  8
16
 48
15.0
100
AcDbLine
 10
410.5296881116681
 20
-11.55402825564451
 30
0.0
 11
410.5296881117022
 21
202.8004782784924
 31
0.0
1001
GENIUS_GENODEF_13
1002
{
1000
HIER
1070
     0
1002
}
1002
{
1000
MANEDIT
1070
     0
1002
}
1002
{
1000
NOSEL
1070
     0
1002
}
1002
{
1000
BEHIND
1070
     0
1002
}
1002
{
1000
REACTOR
1002
}
1001
GENIUS_GENOBJ-N-CEN_13
1002
{
1000
OWNER
1000
GEN
1002
}
  0
LWPOLYLINE
  5
A85
330
1F
100
AcDbEntity
  8
10
100
AcDbPolyline
 90
        7
 70
     0
 43
0.0
 10
432.329688111695
 20
172.999999999985
 10
432.3296881116942
 20
169.7999999999851
 10
380.5296881116932
 20
169.7999999999851
 10
380.5296881116932
 20
140.9999999999839
 10
377.3296881116912
 20
140.9999999999839
 10
377.3296881116941
 20
172.999999999985
 10
432.329688111695
 20
172.999999999985
  0
LWPOLYLINE
  5
A86
330
1F
100
AcDbEntity
  8
10
100
AcDbPolyline
 90
        4
 70
     1
 43
0.0
 10
366.0296881116738
 20
36.24999999996804
 10
455.0296881116778
 20
36.24999999996589
 10
455.0296881116778
 20
35.24999999996589
 10
366.0296881116738
 20
35.24999999996804
1001
GENIUS_GENREC_14
1002
{
1000
PYDIR
1011
366.0296881116738
1021
35.24999999996804
1031
0.0
1002
}
1002
{
1000
PXDIR
1011
455.0296881116778
1021
36.24999999996589
1031
0.0
1002
}
1002
{
1000
PORI
1011
366.0296881116738
1021
36.24999999996804
1031
0.0
1002
}
1002
{
1000
PINS
1011
366.0296881116738
1021
36.24999999996804
1031
0.0
1002
}
1002
{
1000
PINS2
1011
455.0296881116778
1021
35.24999999996589
1031
0.0
1002
}
1002
{
1000
C
1070
     1
1002
}
1001
GENIUS_GENODEF_13
1002
{
1000
HIER
1070
     0
1002
}
1002
{
1000
MANEDIT
1070
     0
1002
}
1002
{
1000
NOSEL
1070
     0
1002
}
1002
{
1000
BEHIND
1070
     0
1002
}
1002
{
1000
REACTOR
1002
}
1001
GENIUS_GENOBJ-N-REC_13
1002
{
1000
OWNER
1000
GEN
1002
}
  0
LWPOLYLINE
  5
A87
330
1F
100
AcDbEntity
  8
10
100
AcDbPolyline
 90
        2
 70
     0
 43
0.0
 10
397.0296881116753
 20
34.99999999996805
 10
424.0296881116782
 20
34.999999999966
  0
LWPOLYLINE
  5
A88
330
1F
100
AcDbEntity
  8
10
100
AcDbPolyline
 90
        2
 70
     0
 43
0.0
 10
424.0296881116782
 20
33.99999999996589
 10
397.0296881116753
 20
33.99999999996805
  0
LWPOLYLINE
  5
A89
330
1F
100
AcDbEntity
  8
10
100
AcDbPolyline
 90
        4
 70
     1
 43
0.0
 10
455.0296881116901
 20
132.9999999999818
 10
366.0296881116901
 20
132.9999999999839
 10
366.0296881116901
 20
133.9999999999839
 10
455.0296881116901
 20
133.9999999999818
1001
GENIUS_GENREC_14
1002
{
1000
PYDIR
1011
455.0296881116901
1021
133.9999999999818
1031
0.0
1002
}
1002
{
1000
PXDIR
1011
366.0296881116901
1021
132.9999999999839
1031
0.0
1002
}
1002
{
1000
PORI
1011
455.0296881116901
1021
132.9999999999818
1031
0.0
1002
}
1002
{
1000
PINS
1011
455.0296881116901
1021
132.9999999999818
1031
0.0
1002
}
1002
{
1000
PINS2
1011
366.0296881116901
1021
133.9999999999839
1031
0.0
1002
}
1002
{
1000
C
1070
     1
1002
}
1001
GENIUS_GENODEF_13
1002
{
1000
HIER
1070
     0
1002
}
1002
{
1000
MANEDIT
1070
     0
1002
}
1002
{
1000
NOSEL
1070
     0
1002
}
1002
{
1000
BEHIND
1070
     0
1002
}
1002
{
1000
REACTOR
1002
}
1001
GENIUS_GENOBJ-N-REC_13
1002
{
1000
OWNER
1000
GEN
1002
}
  0
LWPOLYLINE
  5
A8A
330
1F
100
AcDbEntity
  8
10
100
AcDbPolyline
 90
        2
 70
     0
 43
0.0
 10
439.0296881116901
 20
134.2499999999821
 10
382.0296881116901
 20
134.2499999999839
  0
LWPOLYLINE
  5
A8B
330
1F
100
AcDbEntity
  8
10
100
AcDbPolyline
 90
        2
 70
     0
 43
0.0
 10
382.0296881116901
 20
134.9999999999839
 10
439.0296881116912
 20
134.9999999999818
  0
LINE
  5
A8C
330
1F
100
AcDbEntity
  8
10
100
AcDbLine
 10
424.0296881116738
 20
3.999999999965893
 30
0.0
 11
409.529688111659
 21
3.999999999967371
 31
0.0
  0
LINE
  5
A8D
330
1F
100
AcDbEntity
  8
10
100
AcDbLine
 10
393.5296881116738
 20
31.99999999996805
 30
0.0
 11
393.5296881116708
 21
2.499999999975329
 31
0.0
  0
LINE
  5
A8E
330
1F
100
AcDbEntity
  8
10
100
AcDbLine
 10
395.5296881116708
 20
2.499999999974988
 30
0.0
 11
395.5296881116736
 21
27.99999999997453
 31
0.0
  0
LINE
  5
A8F
330
1F
100
AcDbEntity
  8
10
100
AcDbLine
 10
395.5296881116708
 20
3.999999999974533
 30
0.0
 11
395.5296881116808
 21
35.24999999996804
 31
0.0
  0
LINE
  5
A90
330
1F
100
AcDbEntity
  8
10
100
AcDbLine
 10
397.0296881116753
 20
35.24999999996804
 30
0.0
 11
397.0296881116708
 21
3.999999999973963
 31
0.0
  0
ARC
  5
A91
330
1F
100
AcDbEntity
  8
10
100
AcDbCircle
 10
393.0296881116708
 20
2.499999999975329
 30
0.0
 40
2.5
100
AcDbArc
 50
269.9999999999739
 51
359.9999999999868
1001
GENIUS_GENODEF_13
1002
{
1000
HIER
1070
     0
1002
}
1002
{
1000
MANEDIT
1070
     0
1002
}
1002
{
1000
NOSEL
1070
     0
1002
}
1002
{
1000
BEHIND
1070
     0
1002
}
1002
{
1000
REACTOR
1002
}
1001
GENIUS_GENOBJ-N-FIL_13
1002
{
1000
OWNER
1000
GEN
1002
}
  0
LINE
  5
A92
330
1F
100
AcDbEntity
  8
10
100
AcDbLine
 10
365.5296881116708
 20
-0.0000000000169393
 30
0.0
 11
393.0296881116708
 21
-0.00000000002467
 31
0.0
  0
LINE
  5
A93
330
1F
100
AcDbEntity
  8
10
100
AcDbLine
 10
393.0296881116708
 20
1.999999999975329
 30
0.0
 11
365.5296881116708
 21
1.999999999983059
 31
0.0
  0
LINE
  5
A94
330
1F
100
AcDbEntity
  8
10
100
AcDbLine
 10
365.5296881116708
 20
1.999999999983059
 30
0.0
 11
365.5296881116708
 21
-0.0000000000169393
 31
0.0
  0
ARC
  5
A95
330
1F
100
AcDbEntity
  8
10
100
AcDbCircle
 10
393.0296881116708
 20
2.499999999975329
 30
0.0
 40
0.5
100
AcDbArc
 50
269.9999999999739
 51
359.9999999999868
1001
GENIUS_GENODEF_13
1002
{
1000
HIER
1070
     0
1002
}
1002
{
1000
MANEDIT
1070
     0
1002
}
1002
{
1000
NOSEL
1070
     0
1002
}
1002
{
1000
BEHIND
1070
     0
1002
}
1002
{
1000
REACTOR
1002
}
1001
GENIUS_GENOBJ-N-FIL_13
1002
{
1000
OWNER
1000
GEN
1002
}
  0
LWPOLYLINE
  5
A96
330
1F
100
AcDbEntity
  8
12
 48
7.0
100
AcDbPolyline
 90
        2
 70
     0
 43
0.0
 10
375.5296881116721
 20
4.216741318888466
 10
375.5296881116691
 20
-2.483919935420769
  0
LINE
  5
A97
330
1F
100
AcDbEntity
  8
10
100
AcDbLine
 10
397.0296881116708
 20
3.999999999973963
 30
0.0
 11
409.529688111659
 21
3.999999999967371
 31
0.0
  0
LINE
  5
A98
330
1F
100
AcDbEntity
  8
10
100
AcDbLine
 10
397.0296881116708
 20
3.999999999973963
 30
0.0
 11
395.5296881116708
 21
3.999999999974533
 31
0.0
  0
LWPOLYLINE
  5
A99
330
1F
100
AcDbEntity
  8
10
100
AcDbPolyline
 90
        2
 70
     0
 43
0.0
 10
366.0296881116738
 20
36.24999999996804
 10
366.0296881116901
 20
132.9999999999839
  0
LINE
  5
A9A
330
1F
100
AcDbEntity
  8
10
100
AcDbLine
 10
395.5296881116801
 20
31.99999999996805
 30
0.0
 11
393.5296881116738
 21
31.99999999996805
 31
0.0
  0
LINE
  5
A9B
330
1F
100
AcDbEntity
  8
10
100
AcDbLine
 10
393.5296881116771
 20
12.74999999997453
 30
0.0
 11
393.5296881116771
 21
25.24999999997453
 31
0.0
  0
LINE
  5
A9C
330
1F
100
AcDbEntity
  8
10
100
AcDbLine
 10
391.929688111677
 20
25.24999999997453
 30
0.0
 11
391.929688111677
 21
12.74999999997453
 31
0.0
  0
LINE
  5
A9D
330
1F
100
AcDbEntity
  8
10
100
AcDbLine
 10
391.929688111677
 20
12.74999999997453
 30
0.0
 11
391.929688111677
 21
25.24999999997453
 31
0.0
  0
ARC
  5
A9E
330
1F
100
AcDbEntity
  8
10
100
AcDbCircle
 10
387.776731940265
 20
23.33124999997334
 30
0.0
 40
2.55295617141175
100
AcDbArc
 50
325.5615305952356
 51
25.56153059551893
  0
ARC
  5
A9F
330
1F
100
AcDbEntity
  8
10
100
AcDbCircle
 10
387.6826442830921
 20
23.33124999997426
 30
0.0
 40
2.552956171414872
100
AcDbArc
 50
154.4384694047258
 51
214.4384694047154
  0
LINE
  5
AA0
330
1F
100
AcDbEntity
  8
10
100
AcDbLine
 10
385.1296881116761
 20
13.99999999997453
 30
0.0
 11
385.1296881116761
 21
23.99999999997453
 31
0.0
  0
LINE
  5
AA1
330
1F
100
AcDbEntity
  8
10
100
AcDbLine
 10
390.3296881116771
 20
23.99999999997453
 30
0.0
 11
390.3296881116771
 21
13.99999999997453
 31
0.0
  0
LINE
  5
AA2
330
1F
100
AcDbEntity
  8
10
100
AcDbLine
 10
390.3296881116771
 20
13.99999999997453
 30
0.0
 11
390.3296881116771
 21
23.99999999997453
 31
0.0
  0
LINE
  5
AA3
330
1F
100
AcDbEntity
  8
10
100
AcDbLine
 10
391.929688111677
 20
12.74999999997453
 30
0.0
 11
393.5296881116771
 21
12.74999999997453
 31
0.0
  0
ARC
  5
AA4
330
1F
100
AcDbEntity
  8
10
100
AcDbCircle
 10
380.789033114047
 20
18.99999999997453
 30
0.0
 40
9.540654997629703
100
AcDbArc
 50
342.3830311594315
 51
17.61696884056835
  0
LINE
  5
AA5
330
1F
100
AcDbEntity
  8
10
100
AcDbLine
 10
385.1296881116761
 20
21.99999999997453
 30
0.0
 11
381.843188111671
 21
21.99999999997453
 31
0.0
  0
LINE
  5
AA6
330
1F
100
AcDbEntity
  8
10
100
AcDbLine
 10
385.1296881116761
 20
15.99999999997453
 30
0.0
 11
381.843188111671
 21
15.99999999997453
 31
0.0
  0
ARC
  5
AA7
330
1F
100
AcDbEntity
  8
10
100
AcDbCircle
 10
394.6703431093053
 20
18.99999999997453
 30
0.0
 40
9.540654997629626
100
AcDbArc
 50
162.3830311594316
 51
197.6169688405683
  0
LINE
  5
AA8
330
1F
100
AcDbEntity
  8
10
100
AcDbLine
 10
389.8822416530551
 20
21.88749999997435
 30
0.0
 11
385.577134570298
 21
21.88749999997435
 31
0.0
  0
LINE
  5
AA9
330
1F
100
AcDbEntity
  8
10
100
AcDbLine
 10
389.8822416530551
 20
16.11249999997426
 30
0.0
 11
385.577134570298
 21
16.11249999997426
 31
0.0
  0
LINE
  5
AAA
330
1F
100
AcDbEntity
  8
10
100
AcDbLine
 10
381.229688111671
 20
21.38654999997425
 30
0.0
 11
381.229688111671
 21
16.61344999997436
 31
0.0
  0
LINE
  5
AAB
330
1F
100
AcDbEntity
  8
10
100
AcDbLine
 10
381.229688111671
 20
21.38654999997425
 30
0.0
 11
381.843188111671
 21
21.99999999997453
 31
0.0
  0
LINE
  5
AAC
330
1F
100
AcDbEntity
  8
10
100
AcDbLine
 10
381.843188111671
 20
15.99999999997453
 30
0.0
 11
381.229688111671
 21
16.61344999997436
 31
0.0
  0
LINE
  5
AAD
330
1F
100
AcDbEntity
  8
10
100
AcDbLine
 10
390.3296881116771
 20
13.99999999997453
 30
0.0
 11
390.3296881116771
 21
12.74999999997453
 31
0.0
  0
LINE
  5
AAE
330
1F
100
AcDbEntity
  8
10
100
AcDbLine
 10
389.8822416530551
 20
13.22499999997455
 30
0.0
 11
390.3296881116771
 21
13.99999999997453
 31
0.0
  0
LINE
  5
AAF
330
1F
100
AcDbEntity
  8
10
100
AcDbLine
 10
385.577134570298
 20
13.22499999997455
 30
0.0
 11
385.1296881116761
 21
13.99999999997453
 31
0.0
  0
LINE
  5
AB0
330
1F
100
AcDbEntity
  8
10
100
AcDbLine
 10
389.8822416530551
 20
13.22499999997455
 30
0.0
 11
385.577134570298
 21
13.22499999997455
 31
0.0
  0
ARC
  5
AB1
330
1F
100
AcDbEntity
  8
10
100
AcDbCircle
 10
387.776731940265
 20
14.66874999997433
 30
0.0
 40
2.55295617141175
100
AcDbArc
 50
334.4384694046077
 51
34.43846940476435
  0
ARC
  5
AB2
330
1F
100
AcDbEntity
  8
10
100
AcDbCircle
 10
387.6826442830881
 20
14.66874999997433
 30
0.0
 40
2.55295617141175
100
AcDbArc
 50
145.5615305952356
 51
205.5615305953919
  0
LINE
  5
AB3
330
1F
100
AcDbEntity
  8
10
100
AcDbLine
 10
390.3296881116771
 20
12.74999999997453
 30
0.0
 11
391.929688111677
 21
12.74999999997453
 31
0.0
  0
LINE
  5
AB4
330
1F
100
AcDbEntity
  8
10
100
AcDbLine
 10
393.5296881116771
 20
25.24999999997453
 30
0.0
 11
391.929688111677
 21
25.24999999997453
 31
0.0
  0
LINE
  5
AB5
330
1F
100
AcDbEntity
  8
10
100
AcDbLine
 10
390.3296881116771
 20
25.24999999997453
 30
0.0
 11
390.3296881116771
 21
23.99999999997453
 31
0.0
  0
LINE
  5
AB6
330
1F
100
AcDbEntity
  8
10
100
AcDbLine
 10
389.8822416530551
 20
24.77499999997451
 30
0.0
 11
390.3296881116771
 21
23.99999999997453
 31
0.0
  0
LINE
  5
AB7
330
1F
100
AcDbEntity
  8
10
100
AcDbLine
 10
385.577134570298
 20
24.77499999997451
 30
0.0
 11
385.1296881116761
 21
23.99999999997453
 31
0.0
  0
LINE
  5
AB8
330
1F
100
AcDbEntity
  8
10
100
AcDbLine
 10
389.8822416530551
 20
24.77499999997451
 30
0.0
 11
385.577134570298
 21
24.77499999997451
 31
0.0
  0
LINE
  5
AB9
330
1F
100
AcDbEntity
  8
10
100
AcDbLine
 10
391.929688111677
 20
25.24999999997453
 30
0.0
 11
390.3296881116771
 21
25.24999999997453
 31
0.0
  0
ARC
  5
ABA
330
1F
100
AcDbEntity
  8
10
100
AcDbCircle
 10
371.57673194028
 20
145.6687499999908
 30
0.0
 40
2.55295617141175
100
AcDbArc
 50
334.4384694046077
 51
34.43846940476435
1001
GENIUS_GENOREF_13
1005
0
1005
0
  0
LINE
  5
ABB
330
1F
100
AcDbEntity
  8
10
100
AcDbLine
 10
373.6822416530701
 20
144.2249999999908
 30
0.0
 11
374.1296881116919
 21
144.9999999999906
 31
0.0
1001
GENIUS_GENOREF_13
1005
0
1005
0
  0
LINE
  5
ABC
330
1F
100
AcDbEntity
  8
10
100
AcDbLine
 10
374.1296881116919
 20
144.9999999999906
 30
0.0
 11
374.1296881116919
 21
143.7499999999905
 31
0.0
1001
GENIUS_GENOREF_13
1005
0
1005
0
1005
0
  0
LINE
  5
ABD
330
1F
100
AcDbEntity
  8
10
100
AcDbLine
 10
374.1296881116919
 20
143.7499999999905
 30
0.0
 11
375.729688111692
 21
143.7499999999905
 31
0.0
1001
GENIUS_GENOREF_13
1005
0
1005
0
1005
0
  0
ARC
  5
ABE
330
1F
100
AcDbEntity
  8
10
100
AcDbCircle
 10
371.4826442831031
 20
145.6687499999908
 30
0.0
 40
2.55295617141175
100
AcDbArc
 50
145.5615305952356
 51
205.5615305953919
1001
GENIUS_GENOREF_13
1005
0
1005
0
  0
LINE
  5
ABF
330
1F
100
AcDbEntity
  8
10
100
AcDbLine
 10
369.3771345703142
 20
144.2249999999908
 30
0.0
 11
368.929688111692
 21
144.9999999999906
 31
0.0
1001
GENIUS_GENOREF_13
1005
0
1005
0
  0
LINE
  5
AC0
330
1F
100
AcDbEntity
  8
10
100
AcDbLine
 10
373.6822416530701
 20
147.1124999999906
 30
0.0
 11
369.3771345703142
 21
147.1124999999906
 31
0.0
1001
GENIUS_GENOREF_13
1005
0
1005
0
  0
LINE
  5
AC1
330
1F
100
AcDbEntity
  8
10
100
AcDbLine
 10
373.6822416530701
 20
144.2249999999908
 30
0.0
 11
369.3771345703142
 21
144.2249999999908
 31
0.0
1001
GENIUS_GENOREF_13
1005
0
1005
0
  0
LINE
  5
AC2
330
1F
100
AcDbEntity
  8
10
100
AcDbLine
 10
365.6431881116862
 20
146.9999999999908
 30
0.0
 11
365.0296881116862
 21
147.6134499999905
 31
0.0
1001
GENIUS_GENOREF_13
1005
0
1005
0
1005
0
1005
0
1005
0
1005
0
1005
0
1005
0
  0
LINE
  5
AC3
330
1F
100
AcDbEntity
  8
10
100
AcDbLine
 10
368.929688111692
 20
146.9999999999908
 30
0.0
 11
365.6431881116862
 21
146.9999999999908
 31
0.0
1001
GENIUS_GENOREF_13
1005
0
1005
0
1005
0
1005
0
1005
0
1005
0
1005
0
1005
0
  0
LINE
  5
AC4
330
1F
100
AcDbEntity
  8
10
100
AcDbLine
 10
375.729688111692
 20
143.7499999999905
 30
0.0
 11
377.3296881116921
 21
143.7499999999905
 31
0.0
1001
GENIUS_GENOREF_13
1005
0
1005
0
1005
0
1005
0
  0
LINE
  5
AC5
330
1F
100
AcDbEntity
  8
10
100
AcDbLine
 10
427.5296881116758
 20
31.99999999996601
 30
0.0
 11
427.5296881116728
 21
2.499999999966004
 31
0.0
  0
LINE
  5
AC6
330
1F
100
AcDbEntity
  8
10
100
AcDbLine
 10
425.5296881116731
 20
2.499999999966348
 30
0.0
 11
425.5296881116771
 21
27.999999999966
 31
0.0
  0
LINE
  5
AC7
330
1F
100
AcDbEntity
  8
10
100
AcDbLine
 10
425.5296881116739
 20
3.999999999965893
 30
0.0
 11
425.5296881116778
 21
35.24999999996589
 31
0.0
  0
LINE
  5
AC8
330
1F
100
AcDbEntity
  8
10
100
AcDbLine
 10
424.0296881116782
 20
35.24999999996589
 30
0.0
 11
424.0296881116738
 21
3.999999999965893
 31
0.0
  0
LINE
  5
AC9
330
1F
100
AcDbEntity
  8
10
100
AcDbLine
 10
455.529688111673
 20
-0.0000000000341061
 30
0.0
 11
428.0296881116728
 21
-0.0000000000341061
 31
0.0
  0
LINE
  5
ACA
330
1F
100
AcDbEntity
  8
10
100
AcDbLine
 10
428.0296881116728
 20
1.999999999966006
 30
0.0
 11
455.529688111673
 21
1.999999999966006
 31
0.0
  0
ARC
  5
ACB
330
1F
100
AcDbEntity
  8
10
100
AcDbCircle
 10
428.0296881116728
 20
2.499999999966004
 30
0.0
 40
2.5
100
AcDbArc
 50
179.9999999999869
 51
270.0
1001
GENIUS_GENODEF_13
1002
{
1000
HIER
1070
     0
1002
}
1002
{
1000
MANEDIT
1070
     0
1002
}
1002
{
1000
NOSEL
1070
     0
1002
}
1002
{
1000
BEHIND
1070
     0
1002
}
1002
{
1000
REACTOR
1002
}
1001
GENIUS_GENOBJ-N-FIL_13
1002
{
1000
OWNER
1000
GEN
1002
}
  0
ARC
  5
ACC
330
1F
100
AcDbEntity
  8
10
100
AcDbCircle
 10
428.0296881116728
 20
2.499999999966004
 30
0.0
 40
0.5
100
AcDbArc
 50
179.9999999999869
 51
270.0
1001
GENIUS_GENODEF_13
1002
{
1000
HIER
1070
     0
1002
}
1002
{
1000
MANEDIT
1070
     0
1002
}
1002
{
1000
NOSEL
1070
     0
1002
}
1002
{
1000
BEHIND
1070
     0
1002
}
1002
{
1000
REACTOR
1002
}
1001
GENIUS_GENOBJ-N-FIL_13
1002
{
1000
OWNER
1000
GEN
1002
}
  0
LINE
  5
ACD
330
1F
100
AcDbEntity
  8
10
100
AcDbLine
 10
424.0296881116738
 20
3.999999999965893
 30
0.0
 11
425.5296881116739
 21
3.999999999965893
 31
0.0
  0
LINE
  5
ACE
330
1F
100
AcDbEntity
  8
10
100
AcDbLine
 10
455.529688111673
 20
1.999999999966006
 30
0.0
 11
455.529688111673
 21
-0.0000000000341061
 31
0.0
  0
LWPOLYLINE
  5
ACF
330
1F
100
AcDbEntity
  8
10
100
AcDbPolyline
 90
        2
 70
     0
 43
0.0
 10
455.0296881116901
 20
132.9999999999818
 10
455.0296881116778
 20
36.24999999996589
  0
ARC
  5
AD0
330
1F
100
AcDbEntity
  8
10
100
AcDbCircle
 10
432.1779396033688
 20
23.33162432700032
 30
0.0
 40
2.551748508301399
100
AcDbArc
 50
325.5531276177229
 51
25.55312761772317
  0
LINE
  5
AD1
330
1F
100
AcDbEntity
  8
10
100
AcDbLine
 10
431.2296881116711
 20
24.77499999997451
 30
0.0
 11
431.2296881116711
 21
23.43999999997457
 31
0.0
  0
LINE
  5
AD2
330
1F
100
AcDbEntity
  8
10
100
AcDbLine
 10
429.1296881116708
 20
12.74999999997453
 30
0.0
 11
429.1296881116708
 21
25.24999999997453
 31
0.0
  0
LINE
  5
AD3
330
1F
100
AcDbEntity
  8
10
100
AcDbLine
 10
427.5296881116708
 20
25.24999999997453
 30
0.0
 11
427.5296881116708
 21
12.74999999997453
 31
0.0
  0
LINE
  5
AD4
330
1F
100
AcDbEntity
  8
10
100
AcDbLine
 10
430.7296881116711
 20
12.74999999997453
 30
0.0
 11
430.7296881116711
 21
25.24999999997453
 31
0.0
  0
LINE
  5
AD5
330
1F
100
AcDbEntity
  8
10
100
AcDbLine
 10
429.1296881116708
 20
25.24999999997453
 30
0.0
 11
429.1296881116708
 21
12.74999999997453
 31
0.0
  0
LINE
  5
AD6
330
1F
100
AcDbEntity
  8
10
100
AcDbLine
 10
434.7296881116711
 20
13.99999999997453
 30
0.0
 11
434.7296881116711
 21
23.99999999997453
 31
0.0
  0
LINE
  5
AD7
330
1F
100
AcDbEntity
  8
10
100
AcDbLine
 10
434.282241653049
 20
21.88824865402623
 30
0.0
 11
431.2296881116711
 21
21.88824865402623
 31
0.0
  0
LINE
  5
AD8
330
1F
100
AcDbEntity
  8
10
100
AcDbLine
 10
434.282241653049
 20
16.1117513459227
 30
0.0
 11
431.2296881116711
 21
16.1117513459227
 31
0.0
  0
LINE
  5
AD9
330
1F
100
AcDbEntity
  8
10
100
AcDbLine
 10
430.7296881116711
 20
15.99999999997453
 30
0.0
 11
430.7296881116711
 21
21.99999999997453
 31
0.0
  0
LINE
  5
ADA
330
1F
100
AcDbEntity
  8
10
100
AcDbLine
 10
430.7296881116711
 20
21.99999999997453
 30
0.0
 11
430.7296881116711
 21
23.43999999997457
 31
0.0
  0
LINE
  5
ADB
330
1F
100
AcDbEntity
  8
10
100
AcDbLine
 10
431.2296881116711
 20
23.43999999997457
 30
0.0
 11
430.7296881116711
 21
23.43999999997457
 31
0.0
  0
ARC
  5
ADC
330
1F
100
AcDbEntity
  8
10
100
AcDbCircle
 10
425.1842012088651
 20
18.99999999997453
 30
0.0
 40
9.545486902806104
100
AcDbArc
 50
342.3875260144689
 51
17.61247398553113
  0
LINE
  5
ADD
330
1F
100
AcDbEntity
  8
10
100
AcDbLine
 10
431.2296881116711
 20
14.55999999997459
 30
0.0
 11
431.2296881116711
 21
13.22499999997455
 31
0.0
  0
LINE
  5
ADE
330
1F
100
AcDbEntity
  8
10
100
AcDbLine
 10
434.282241653049
 20
13.22499999997455
 30
0.0
 11
434.7296881116711
 21
13.99999999997453
 31
0.0
  0
LINE
  5
ADF
330
1F
100
AcDbEntity
  8
10
100
AcDbLine
 10
434.282241653049
 20
13.22499999997455
 30
0.0
 11
431.2296881116711
 21
13.22499999997455
 31
0.0
  0
LINE
  5
AE0
330
1F
100
AcDbEntity
  8
10
100
AcDbLine
 10
431.2296881116711
 20
14.55999999997459
 30
0.0
 11
430.7296881116711
 21
14.55999999997459
 31
0.0
  0
LINE
  5
AE1
330
1F
100
AcDbEntity
  8
10
100
AcDbLine
 10
427.5296881116708
 20
12.74999999997453
 30
0.0
 11
429.1296881116708
 21
12.74999999997453
 31
0.0
  0
LINE
  5
AE2
330
1F
100
AcDbEntity
  8
10
100
AcDbLine
 10
429.1296881116708
 20
12.74999999997453
 30
0.0
 11
430.7296881116711
 21
12.74999999997453
 31
0.0
  0
ARC
  5
AE3
330
1F
100
AcDbEntity
  8
10
100
AcDbCircle
 10
432.1779396033688
 20
14.66837567294851
 30
0.0
 40
2.551748508301399
100
AcDbArc
 50
334.4468723822767
 51
34.44687238227706
  0
LINE
  5
AE4
330
1F
100
AcDbEntity
  8
10
100
AcDbLine
 10
431.2296881116711
 20
23.43999999997457
 30
0.0
 11
431.2296881116711
 21
14.55999999997459
 31
0.0
  0
LINE
  5
AE5
330
1F
100
AcDbEntity
  8
10
100
AcDbLine
 10
430.7296881116711
 20
14.55999999997459
 30
0.0
 11
430.7296881116711
 21
15.99999999997453
 31
0.0
  0
LINE
  5
AE6
330
1F
100
AcDbEntity
  8
10
100
AcDbLine
 10
425.5296881116771
 20
31.99999999996601
 30
0.0
 11
427.5296881116758
 21
31.99999999996601
 31
0.0
  0
LINE
  5
AE7
330
1F
100
AcDbEntity
  8
10
100
AcDbLine
 10
434.282241653049
 20
24.77499999997451
 30
0.0
 11
431.2296881116711
 21
24.77499999997451
 31
0.0
  0
LINE
  5
AE8
330
1F
100
AcDbEntity
  8
10
100
AcDbLine
 10
434.282241653049
 20
24.77499999997451
 30
0.0
 11
434.7296881116711
 21
23.99999999997453
 31
0.0
  0
LINE
  5
AE9
330
1F
100
AcDbEntity
  8
10
100
AcDbLine
 10
429.1296881116708
 20
25.24999999997453
 30
0.0
 11
427.5296881116708
 21
25.24999999997453
 31
0.0
  0
LINE
  5
AEA
330
1F
100
AcDbEntity
  8
10
100
AcDbLine
 10
430.7296881116711
 20
25.24999999997453
 30
0.0
 11
429.1296881116708
 21
25.24999999997453
 31
0.0
  0
LINE
  5
AEB
330
1F
100
AcDbEntity
  8
10
100
AcDbLine
 10
446.2296881116911
 20
145.5599999999905
 30
0.0
 11
446.2296881116911
 21
144.2249999999908
 31
0.0
1001
GENIUS_GENOREF_13
1005
0
1005
0
1005
0
1005
0
1005
0
1005
0
1005
0
1005
0
  0
LINE
  5
AEC
330
1F
100
AcDbEntity
  8
10
100
AcDbLine
 10
449.2822416530688
 20
144.2249999999908
 30
0.0
 11
449.7296881116908
 21
144.9999999999906
 31
0.0
1001
GENIUS_GENOREF_13
1005
0
1005
0
1005
0
1005
0
1005
0
1005
0
1005
0
1005
0
  0
LINE
  5
AED
330
1F
100
AcDbEntity
  8
10
100
AcDbLine
 10
449.2822416530688
 20
147.1117513459384
 30
0.0
 11
446.2296881116911
 21
147.1117513459384
 31
0.0
1001
GENIUS_GENOREF_13
1005
0
1005
0
1005
0
1005
0
1005
0
1005
0
1005
0
1005
0
  0
ARC
  5
AEE
330
1F
100
AcDbEntity
  8
10
100
AcDbCircle
 10
447.1779396033901
 20
145.6683756729646
 30
0.0
 40
2.551748508301399
100
AcDbArc
 50
334.4468723822767
 51
34.44687238227706
1001
GENIUS_GENOREF_13
1005
0
1005
0
1005
0
1005
0
1005
0
1005
0
1005
0
1005
0
  0
LINE
  5
AEF
330
1F
100
AcDbEntity
  8
10
100
AcDbLine
 10
446.2296881116911
 20
145.5599999999905
 30
0.0
 11
445.7296881116909
 21
145.5599999999905
 31
0.0
1001
GENIUS_GENOREF_13
1005
0
1005
0
1005
0
1005
0
1005
0
1005
0
1005
0
1005
0
  0
LINE
  5
AF0
330
1F
100
AcDbEntity
  8
10
100
AcDbLine
 10
445.7296881116909
 20
145.5599999999905
 30
0.0
 11
445.7296881116909
 21
146.9999999999908
 31
0.0
1001
GENIUS_GENOREF_13
1005
0
1005
0
1005
0
1005
0
1005
0
1005
0
1005
0
1005
0
  0
LINE
  5
AF1
330
1F
100
AcDbEntity
  8
10
100
AcDbLine
 10
449.2822416530688
 20
144.2249999999908
 30
0.0
 11
446.2296881116911
 21
144.2249999999908
 31
0.0
1001
GENIUS_GENOREF_13
1005
0
1005
0
1005
0
1005
0
1005
0
1005
0
1005
0
1005
0
  0
LINE
  5
AF2
330
1F
100
AcDbEntity
  8
10
100
AcDbLine
 10
442.5296881116913
 20
140.9999999999818
 30
0.0
 11
440.5296881116951
 21
140.9999999999818
 31
0.0
1001
GENIUS_GENREC_14
1002
{
1000
PYDIR
1011
442.5296881116913
1021
164.9999999999818
1031
0.0
1002
}
1002
{
1000
PXDIR
1011
440.5296881116951
1021
140.9999999999818
1031
0.0
1002
}
1002
{
1000
PORI
1011
442.5296881116913
1021
140.9999999999818
1031
0.0
1002
}
1002
{
1000
PINS
1011
442.5296881116913
1021
140.9999999999818
1031
0.0
1002
}
1002
{
1000
PINS2
1011
440.5296881116951
1021
164.9999999999818
1031
0.0
1002
}
1002
{
1000
C
1070
     1
1002
}
1001
GENIUS_GENODEF_13
1002
{
1000
HIER
1070
     0
1002
}
1002
{
1000
MANEDIT
1070
     0
1002
}
1002
{
1000
NOSEL
1070
     0
1002
}
1002
{
1000
BEHIND
1070
     0
1002
}
1002
{
1000
REACTOR
1002
}
1001
GENIUS_GENOBJ-N-REC_13
1002
{
1000
OWNER
1000
GEN
1002
}
  0
LINE
  5
AF3
330
1F
100
AcDbEntity
  8
10
100
AcDbLine
 10
442.5296881116913
 20
143.7499999999905
 30
0.0
 11
444.1296881116911
 21
143.7499999999905
 31
0.0
1001
GENIUS_GENOREF_13
1005
0
1005
0
1005
0
1005
0
1005
0
  0
LINE
  5
AF4
330
1F
100
AcDbEntity
  8
10
100
AcDbLine
 10
444.1296881116911
 20
143.7499999999905
 30
0.0
 11
445.7296881116909
 21
143.7499999999905
 31
0.0
1001
GENIUS_GENOREF_13
1005
0
1005
0
1005
0
1005
0
1005
0
1005
0
  0
LINE
  5
AF5
330
1F
100
AcDbEntity
  8
10
100
AcDbLine
 10
409.5296881116881
 20
164.9999999999836
 30
0.0
 11
439.0296881116951
 21
164.9999999999818
 31
0.0
  0
ARC
  5
AF6
330
1F
100
AcDbEntity
  8
10
100
AcDbCircle
 10
371.57673194028
 20
154.3312499999898
 30
0.0
 40
2.55295617141175
100
AcDbArc
 50
325.5615305952356
 51
25.56153059551893
1001
GENIUS_GENOREF_13
1005
0
1005
0
  0
LINE
  5
AF7
330
1F
100
AcDbEntity
  8
10
100
AcDbLine
 10
373.6822416530701
 20
155.7749999999905
 30
0.0
 11
374.1296881116919
 21
154.9999999999903
 31
0.0
1001
GENIUS_GENOREF_13
1005
0
1005
0
  0
LINE
  5
AF8
330
1F
100
AcDbEntity
  8
10
100
AcDbLine
 10
374.1296881116919
 20
156.2499999999905
 30
0.0
 11
374.1296881116919
 21
154.9999999999903
 31
0.0
1001
GENIUS_GENOREF_13
1005
0
1005
0
1005
0
  0
LINE
  5
AF9
330
1F
100
AcDbEntity
  8
10
100
AcDbLine
 10
375.729688111692
 20
156.2499999999905
 30
0.0
 11
374.1296881116919
 21
156.2499999999905
 31
0.0
1001
GENIUS_GENOREF_13
1005
0
1005
0
1005
0
  0
ARC
  5
AFA
330
1F
100
AcDbEntity
  8
10
100
AcDbCircle
 10
371.4826442831063
 20
154.3312499999906
 30
0.0
 40
2.552956171414872
100
AcDbArc
 50
154.4384694047258
 51
214.4384694047154
1001
GENIUS_GENOREF_13
1005
0
1005
0
  0
LINE
  5
AFB
330
1F
100
AcDbEntity
  8
10
100
AcDbLine
 10
369.3771345703142
 20
155.7749999999905
 30
0.0
 11
368.929688111692
 21
154.9999999999903
 31
0.0
1001
GENIUS_GENOREF_13
1005
0
1005
0
  0
LINE
  5
AFC
330
1F
100
AcDbEntity
  8
10
100
AcDbLine
 10
373.6822416530701
 20
155.7749999999905
 30
0.0
 11
369.3771345703142
 21
155.7749999999905
 31
0.0
1001
GENIUS_GENOREF_13
1005
0
1005
0
  0
LINE
  5
AFD
330
1F
100
AcDbEntity
  8
10
100
AcDbLine
 10
373.6822416530701
 20
152.8874999999908
 30
0.0
 11
369.3771345703142
 21
152.8874999999908
 31
0.0
1001
GENIUS_GENOREF_13
1005
0
1005
0
  0
LINE
  5
AFE
330
1F
100
AcDbEntity
  8
10
100
AcDbLine
 10
365.0296881116862
 20
152.3865499999905
 30
0.0
 11
365.6431881116862
 21
152.9999999999905
 31
0.0
1001
GENIUS_GENOREF_13
1005
0
1005
0
1005
0
1005
0
1005
0
1005
0
1005
0
1005
0
  0
LINE
  5
AFF
330
1F
100
AcDbEntity
  8
10
100
AcDbLine
 10
368.929688111692
 20
152.9999999999905
 30
0.0
 11
365.6431881116862
 21
152.9999999999905
 31
0.0
1001
GENIUS_GENOREF_13
1005
0
1005
0
1005
0
1005
0
1005
0
1005
0
1005
0
1005
0
  0
LINE
  5
B00
330
1F
100
AcDbEntity
  8
10
100
AcDbLine
 10
377.3296881116921
 20
156.2499999999905
 30
0.0
 11
375.729688111692
 21
156.2499999999905
 31
0.0
1001
GENIUS_GENOREF_13
1005
0
1005
0
1005
0
1005
0
  0
LINE
  5
B01
330
1F
100
AcDbEntity
  8
10
100
AcDbLine
 10
409.5296881116881
 20
164.9999999999836
 30
0.0
 11
382.0296881116933
 21
164.9999999999899
 31
0.0
  0
LINE
  5
B02
330
1F
100
AcDbEntity
  8
10
100
AcDbLine
 10
380.5296881116932
 20
164.9999999999903
 30
0.0
 11
382.0296881116933
 21
164.9999999999899
 31
0.0
  0
LINE
  5
B03
330
1F
100
AcDbEntity
  8
10
100
AcDbLine
 10
440.5296881116951
 20
164.9999999999818
 30
0.0
 11
442.5296881116913
 21
164.9999999999818
 31
0.0
1001
GENIUS_GENREC_14
1002
{
1000
PYDIR
1011
442.5296881116913
1021
164.9999999999818
1031
0.0
1002
}
1002
{
1000
PXDIR
1011
440.5296881116951
1021
140.9999999999818
1031
0.0
1002
}
1002
{
1000
PORI
1011
442.5296881116913
1021
140.9999999999818
1031
0.0
1002
}
1002
{
1000
PINS
1011
442.5296881116913
1021
140.9999999999818
1031
0.0
1002
}
1002
{
1000
PINS2
1011
440.5296881116951
1021
164.9999999999818
1031
0.0
1002
}
1002
{
1000
C
1070
     1
1002
}
1001
GENIUS_GENODEF_13
1002
{
1000
HIER
1070
     0
1002
}
1002
{
1000
MANEDIT
1070
     0
1002
}
1002
{
1000
NOSEL
1070
     0
1002
}
1002
{
1000
BEHIND
1070
     0
1002
}
1002
{
1000
REACTOR
1002
}
1001
GENIUS_GENOBJ-N-REC_13
1002
{
1000
OWNER
1000
GEN
1002
}
  0
LINE
  5
B04
330
1F
100
AcDbEntity
  8
10
100
AcDbLine
 10
449.2822416530688
 20
155.7749999999905
 30
0.0
 11
446.2296881116911
 21
155.7749999999905
 31
0.0
1001
GENIUS_GENOREF_13
1005
0
1005
0
1005
0
1005
0
1005
0
1005
0
1005
0
1005
0
  0
LINE
  5
B05
330
1F
100
AcDbEntity
  8
10
100
AcDbLine
 10
449.2822416530688
 20
152.8882486540424
 30
0.0
 11
446.2296881116911
 21
152.8882486540424
 31
0.0
1001
GENIUS_GENOREF_13
1005
0
1005
0
1005
0
1005
0
1005
0
1005
0
1005
0
1005
0
  0
ARC
  5
B06
330
1F
100
AcDbEntity
  8
10
100
AcDbCircle
 10
447.1779396033901
 20
154.3316243270164
 30
0.0
 40
2.551748508301399
100
AcDbArc
 50
325.5531276177229
 51
25.55312761772317
1001
GENIUS_GENOREF_13
1005
0
1005
0
1005
0
1005
0
1005
0
1005
0
1005
0
1005
0
  0
LINE
  5
B07
330
1F
100
AcDbEntity
  8
10
100
AcDbLine
 10
449.2822416530688
 20
155.7749999999905
 30
0.0
 11
449.7296881116908
 21
154.9999999999903
 31
0.0
1001
GENIUS_GENOREF_13
1005
0
1005
0
1005
0
1005
0
1005
0
1005
0
1005
0
1005
0
  0
LINE
  5
B08
330
1F
100
AcDbEntity
  8
10
100
AcDbLine
 10
445.7296881116909
 20
152.9999999999905
 30
0.0
 11
445.7296881116909
 21
154.4399999999905
 31
0.0
1001
GENIUS_GENOREF_13
1005
0
1005
0
1005
0
1005
0
1005
0
1005
0
1005
0
1005
0
  0
LINE
  5
B09
330
1F
100
AcDbEntity
  8
10
100
AcDbLine
 10
446.2296881116911
 20
154.4399999999905
 30
0.0
 11
445.7296881116909
 21
154.4399999999905
 31
0.0
1001
GENIUS_GENOREF_13
1005
0
1005
0
1005
0
1005
0
1005
0
1005
0
1005
0
1005
0
  0
LINE
  5
B0A
330
1F
100
AcDbEntity
  8
10
100
AcDbLine
 10
446.2296881116911
 20
155.7749999999905
 30
0.0
 11
446.2296881116911
 21
154.4399999999905
 31
0.0
1001
GENIUS_GENOREF_13
1005
0
1005
0
1005
0
1005
0
1005
0
1005
0
1005
0
1005
0
  0
LINE
  5
B0B
330
1F
100
AcDbEntity
  8
10
100
AcDbLine
 10
444.1296881116911
 20
156.2499999999905
 30
0.0
 11
442.5296881116913
 21
156.2499999999905
 31
0.0
1001
GENIUS_GENOREF_13
1005
0
1005
0
1005
0
1005
0
1005
0
  0
LINE
  5
B0C
330
1F
100
AcDbEntity
  8
10
100
AcDbLine
 10
445.7296881116909
 20
156.2499999999905
 30
0.0
 11
444.1296881116911
 21
156.2499999999905
 31
0.0
1001
GENIUS_GENOREF_13
1005
0
1005
0
1005
0
1005
0
1005
0
1005
0
  0
LINE
  5
B0D
330
1F
100
AcDbEntity
  8
10
100
AcDbLine
 10
440.5296881116951
 20
164.9999999999818
 30
0.0
 11
439.0296881116951
 21
164.9999999999818
 31
0.0
  0
LWPOLYLINE
  5
B11
330
1F
100
AcDbEntity
  8
10
100
AcDbPolyline
 90
        4
 70
     0
 43
0.0
 10
443.829638111694
 20
183.1055916800744
 10
443.829638111694
 20
218.0000799999821
 10
365.8297381116941
 20
218.0000799999821
 10
365.8297381116941
 20
183.1055916800744
  0
LINE
  5
B12
330
1F
100
AcDbEntity
  8
10
100
AcDbLine
 10
377.829738111694
 20
172.999999999985
 30
0.0
 11
431.8296381116943
 21
172.999999999985
 31
0.0
  0
LWPOLYLINE
  5
B13
330
1F
100
AcDbEntity
  8
10
100
AcDbPolyline
 90
        5
 70
     0
 43
0.0
 10
365.8297381116941
 20
183.1055916800744
 10
373.829738111694
 20
183.1055916800744
 10
373.829738111694
 20
179.1055916800744
 10
377.829738111694
 20
179.1055916800744
 10
377.829738111694
 20
172.999999999985
  0
LINE
  5
B14
330
1F
100
AcDbEntity
  8
10
100
AcDbLine
 10
412.8297381116941
 20
187.9055916800743
 30
0.0
 11
414.1296381116942
 21
186.6055916800744
 31
0.0
  0
LWPOLYLINE
  5
B15
330
1F
100
AcDbEntity
  8
10
100
AcDbPolyline
 90
        5
 70
     0
 43
0.0
 10
407.829738111694
 20
185.6055916800744
 10
417.8296381116942
 20
185.6055916800744
 10
417.8296381116942
 20
186.6055916800744
 10
407.829738111694
 20
186.6055916800744
 10
407.829738111694
 20
185.6055916800744
  0
LINE
  5
B16
330
1F
100
AcDbEntity
  8
10
100
AcDbLine
 10
408.329738111694
 20
187.9055916800743
 30
0.0
 11
417.3296381116943
 21
187.9055916800743
 31
0.0
  0
LWPOLYLINE
  5
B17
330
1F
100
AcDbEntity
  8
10
100
AcDbPolyline
 90
        5
 70
     0
 43
0.0
 10
408.2297381116941
 20
186.6055916800744
 10
417.4296381116942
 20
186.6055916800744
 10
417.4296381116942
 20
187.9055916800743
 10
408.2297381116941
 20
187.9055916800743
 10
408.2297381116941
 20
186.6055916800744
  0
LINE
  5
B18
330
1F
100
AcDbEntity
  8
10
100
AcDbLine
 10
410.829738111694
 20
191.2055916800744
 30
0.0
 11
414.8296381116939
 21
191.2055916800744
 31
0.0
  0
LWPOLYLINE
  5
B19
330
1F
100
AcDbEntity
  8
10
100
AcDbPolyline
 90
        5
 70
     0
 43
0.0
 10
405.8297381116942
 20
172.999999999985
 10
431.8296381116943
 20
172.999999999985
 10
431.8296381116943
 20
185.6055916800744
 10
405.8297381116942
 20
185.6055916800744
 10
405.8297381116942
 20
172.999999999985
  0
ARC
  5
B1A
330
1F
100
AcDbEntity
  8
10
100
AcDbCircle
 10
410.829738111694
 20
188.7055916800744
 30
0.0
 40
2.5
100
AcDbArc
 50
90.0
 51
180.0
  0
LINE
  5
B1B
330
1F
100
AcDbEntity
  8
10
100
AcDbLine
 10
408.329738111694
 20
187.9055916800743
 30
0.0
 11
408.329738111694
 21
188.7055916800744
 31
0.0
  0
LINE
  5
B1C
330
1F
100
AcDbEntity
  8
10
100
AcDbLine
 10
412.8297381116941
 20
186.6055916800744
 30
0.0
 11
411.529738111694
 21
187.9055916800743
 31
0.0
  0
LINE
  5
B1D
330
1F
100
AcDbEntity
  8
10
100
AcDbLine
 10
417.3296381116943
 20
188.7055916800744
 30
0.0
 11
417.3296381116943
 21
187.9055916800743
 31
0.0
  0
ARC
  5
B1E
330
1F
100
AcDbEntity
  8
10
100
AcDbCircle
 10
414.8296381116939
 20
188.7055916800744
 30
0.0
 40
2.5
100
AcDbArc
 50
0.0
 51
90.0
  0
LWPOLYLINE
  5
B1F
330
1F
100
AcDbEntity
  8
10
100
AcDbPolyline
 90
        4
 70
     0
 43
0.0
 10
443.829638111694
 20
183.1055916800744
 10
435.8296381116941
 20
183.1055916800744
 10
435.8296381116941
 20
179.1055916800744
 10
431.8296381116943
 20
179.1055916800744
  0
LWPOLYLINE
  5
B20
330
1F
100
AcDbEntity
  8
10
100
AcDbPolyline
 90
        4
 70
     0
 43
0.0
 10
365.8297381116941
 20
213.0000799999824
 10
350.829738111694
 20
213.0000799999824
 10
350.829738111694
 20
214.0000799999824
 10
365.8297381116941
 20
214.0000799999824
  0
LWPOLYLINE
  5
B21
330
1F
100
AcDbEntity
  8
10
100
AcDbPolyline
 90
        4
 70
     0
 43
0.0
 10
443.829638111694
 20
213.0000799999824
 10
458.8296381116943
 20
213.0000799999824
 10
458.8296381116943
 20
214.0000799999824
 10
443.829638111694
 20
214.0000799999824
  0
LWPOLYLINE
  5
B22
330
1F
100
AcDbEntity
  8
10
100
AcDbPolyline
 90
        4
 70
     0
 43
0.0
 10
414.8296381116939
 20
218.0000799999821
 10
406.829738111694
 20
221.0000799999825
 10
402.829738111694
 20
221.0000799999825
 10
394.8297381116941
 20
218.0000799999821
  0
LWPOLYLINE
  5
B23
330
1F
100
AcDbEntity
  8
12
 48
7.0
100
AcDbPolyline
 90
        2
 70
     0
 43
0.0
 10
445.529688111674
 20
5.006917435219746
 10
445.5296881116729
 20
-1.693743819089377
  0
VIEWPORT
  5
409
330
23
100
AcDbEntity
 67
     1
  8
0
100
AcDbViewport
 10
142.6315765380859
 20
99.1129140853882
 30
0.0
 40
314.2372683715819
 41
259.7433703258352
 68
     1
 69
     1
1001
ACAD
1000
MVIEW
1002
{
1070
    16
1010
0.0
1020
0.0
1030
0.0
1010
0.0
1020
0.0
1030
1.0
1040
0.0
1040
259.7433703258352
1040
142.6315765380859
1040
99.1129140853882
1040
50.0
1040
0.0
1040
0.0
1070
     0
1070
   100
1070
     1
1070
     1
1070
     0
1070
     0
1070
     0
1070
     0
1040
0.0
1040
0.0
1040
0.0
1040
10.0
1040
10.0
1040
10.0
1040
10.0
1070
     0
1002
{
1002
}
1002
}
  0
VIEWPORT
  5
40B
330
23
100
AcDbEntity
 67
     1
  8
0
100
AcDbViewport
 10
142.6315770149231
 20
99.11291456222535
 30
0.0
 40
228.2105232238769
 41
158.5806632995605
 68
     2
 69
     2
1001
ACAD
1000
MVIEW
1002
{
1070
    16
1010
0.0
1020
0.0
1030
0.0
1010
0.0
1020
0.0
1030
1.0
1040
0.0
1040
437.7797658097811
1040
303.2144175903108
1040
233.3590858733038
1040
50.0
1040
0.0
1040
0.0
1070
     0
1070
   100
1070
     1
1070
     3
1070
     0
1070
     0
1070
     0
1070
     0
1040
0.0
1040
0.0
1040
0.0
1040
10.0
1040
10.0
1040
10.0
1040
10.0
1070
     0
1002
{
1002
}
1002
}
  0
ENDSEC
  0
SECTION
  2
OBJECTS
  0
DICTIONARY
  5
C
330
0
100
AcDbDictionary
  3
ACAD_GROUP
350
D
  3
ACAD_LAYOUT
350
1A
  3
ACAD_MLINESTYLE
350
17
  3
ACAD_PLOTSETTINGS
350
19
  3
ACAD_PLOTSTYLENAME
350
E
  3
ACAMCATALOGSTATE
350
5BA
  3
ACASAPPOBJECT
350
53F
  3
ACASGREF_MASTER
350
587
  3
ACDBHEADERROUNDTRIPXREC
350
CA3
  3
ACDBVARIABLEDICTIONARY
350
40D
  3
ACDMSYSVARMGR
350
519
  3
ACGREF_MASTER
350
513
  3
ACGREFACAD_MASTER
350
53B
  3
ACMDICTIONARY
350
5B6
  3
ACME_BOM_MANAGER_NAME
350
50C
  3
ACME_COMMAND_HISTORY
350
507
  3
ACME_SCOPE_NAME
350
506
  3
ACMESTATEMGR
350
511
  3
ACMESYSVARMANAGER
350
508
  3
ACMSYSTEMVARIABLEMANAGER
350
5C4
  3
AD_APPL
350
59E
  3
AD_GREF_MODULE
350
588
  3
AD_MAPI_MODULE
350
5A0
  3
ADSYSVARMGR
350
590
  3
AMDTNAMEDDWGMGR
350
536
  3
AMG
350
4FD
  3
AMGSNAPSETTINGS
350
5D0
  3
AMI_MASTER
350
53E
  3
ASURF_STATIC_VARS
350
540
  3
AUTOCAD_ASSEMBLIES_PROJECT
350
5AB
  3
AUTOSURF_SYSVARS
350
541
  3
DESIGNER_ASSEMBLIES_SYSVARS
350
5A2
  3
DWGPROPS
350
5B9
  3
GREFAM_MODULE
350
58A
  3
MAPISURF_MODULE
350
589
  0
DICTIONARY
  5
41
330
2
100
AcDbDictionary
280
     1
  3
ACAD_LAYERFILTERS
360
3FF
  3
ACAD_LAYERSTATES
360
42
  0
DICTIONARY
  5
438
330
1F
100
AcDbDictionary
280
     1
  3
ACAD_INDEX
360
5D7
  3
ACAD_LAYOUTSELFREF
360
CC3
  0
DICTIONARY
  5
43A
330
23
100
AcDbDictionary
280
     1
  3
ACAD_LAYOUTSELFREF
360
CC4
  0
DICTIONARY
  5
D
102
{ACAD_REACTORS
330
C
102
}
330
C
100
AcDbDictionary
  0
DICTIONARY
  5
1A
102
{ACAD_REACTORS
330
C
102
}
330
C
100
AcDbDictionary
  0
DICTIONARY
  5
17
102
{ACAD_REACTORS
330
C
102
}
330
C
100
AcDbDictionary
  3
STANDARD
350
18
  0
DICTIONARY
  5
19
102
{ACAD_REACTORS
330
C
102
}
330
C
100
AcDbDictionary
  0
ACDBDICTIONARYWDFLT
  5
E
102
{ACAD_REACTORS
330
C
102
}
330
C
100
AcDbDictionary
281
     1
  3
Normal
350
F
100
AcDbDictionaryWithDefault
340
F
  0
ACAD_PROXY_OBJECT
  5
5BA
102
{ACAD_REACTORS
330
C
102
}
330
C
100
AcDbProxyObject
 90
      499
 91
      574
 93
      880
310
3FFFFFFFE00A0284402B0AE2E189C9917189B1C17189719182E32B733B4B732B2B934B733AE32B733B4B732B2B934B733AE26A2A2C5E34B58AE181C1898189A2FA6A2A2AF99222FC6F6483EAE39B4B5BCBAAE232916A420A62FA422A62FA1A0A22E4728C6B641B340ADC1AF400AA00
 94
        0
1001
ACAD
1000
AcadProxyRoundTripData
1071
      565
1071
   851991
1070
     0
  0
ACAD_PROXY_OBJECT
  5
53F
102
{ACAD_REACTORS
330
C
102
}
330
C
100
AcDbProxyObject
 90
      499
 91
      574
 93
       10
310
4044
 94
        0
1001
ACAD
1000
AcadProxyRoundTripData
1071
      537
1071
   851991
1070
     0
  0
ACAD_PROXY_OBJECT
  5
587
102
{ACAD_REACTORS
330
C
102
}
330
C
100
AcDbProxyObject
 90
      499
 91
      574
 93
       34
310
0100004055
 94
        0
1001
ACAD
1000
AcadProxyRoundTripData
1071
      543
1071
   851991
1070
     0
  0
DICTIONARY
  5
CA3
102
{ACAD_REACTORS
330
C
102
}
330
C
100
AcDbDictionary
  3
CEPSNTYPE
350
CAD
  3
FINGERPRINTGUID
350
CAE
  3
HYPERLINKBASE
350
CA6
  3
INSUNITS
350
CAC
  3
LAYOUTDICT
350
CA8
  3
LWETCUNION
350
CAB
  3
PLOTSETDICT
350
CA9
  3
PLOTSTYLNAMDICT
350
CAA
  3
PSVPSCALE
350
CB0
  3
PUCSBASE
350
CB3
  3
PUCSORGBACK
350
CB9
  3
PUCSORGBOTTOM
350
CB5
  3
PUCSORGFRONT
350
CB8
  3
PUCSORGLEFT
350
CB6
  3
PUCSORGRIGHT
350
CB7
  3
PUCSORGTOP
350
CB4
  3
PUCSORTHOREF
350
CB1
  3
PUCSORTHOVIEW
350
CB2
  3
STYLESHEET
350
CA7
  3
TSTACKALIGN
350
CA4
  3
TSTACKSIZE
350
CA5
  3
UCSBASE
350
CBC
  3
UCSORGBACK
350
CC2
  3
UCSORGBOTTOM
350
CBE
  3
UCSORGFRONT
350
CC1
  3
UCSORGLEFT
350
CBF
  3
UCSORGRIGHT
350
CC0
  3
UCSORGTOP
350
CBD
  3
UCSORTHOREF
350
CBA
  3
UCSORTHOVIEW
350
CBB
  3
VERSIONGUID
350
CAF
  0
DICTIONARY
  5
40D
102
{ACAD_REACTORS
330
C
102
}
330
C
100
AcDbDictionary
  3
DIMASSOC
350
40F
  3
HIDETEXT
350
40E
  3
INDEXCTL
350
5DF
  0
ACAD_PROXY_OBJECT
  5
519
102
{ACAD_REACTORS
330
C
102
}
330
C
100
AcDbProxyObject
 90
      499
 91
      574
 93
      240
310
4C51A482000000000000000000000000000000000000000000000000000038
330
51A
330
51B
330
51C
330
51D
330
51E
330
51F
330
520
330
523
330
524
330
525
330
526
330
527
330
528
330
529
330
52A
330
52B
330
52C
330
52D
330
52E
330
52F
330
530
330
531
330
532
330
533
330
534
330
535
 94
        0
1001
ACAD
1000
AcadProxyRoundTripData
1071
      516
1071
   851991
1070
     0
  0
ACAD_PROXY_OBJECT
  5
513
102
{ACAD_REACTORS
330
C
102
}
330
C
100
AcDbProxyObject
 90
      499
 91
      574
 93
       34
310
0400004295
 94
        0
1001
ACAD
1000
AcadProxyRoundTripData
1071
      525
1071
   851991
1070
     0
  0
ACAD_PROXY_OBJECT
  5
53B
102
{ACAD_REACTORS
330
C
102
}
330
C
100
AcDbProxyObject
 90
      499
 91
      574
 93
      114
310
04000041C000000000000000000000
 94
        0
1001
ACAD
1000
AcadProxyRoundTripData
1071
      533
1071
   851991
1070
     0
  0
DICTIONARY
  5
5B6
102
{ACAD_REACTORS
330
C
102
}
330
C
100
AcDbDictionary
  3
ACMBOMDATA
350
5B7
  0
ACAD_PROXY_OBJECT
  5
50C
102
{ACAD_REACTORS
330
C
102
}
330
C
100
AcDbProxyObject
 90
      499
 91
      574
 93
       50
310
00000040400000
330
0
330
0
330
50D
 94
        0
1001
ACAD
1000
AcadProxyRoundTripData
1071
      519
1071
   851991
1070
     0
  0
ACAD_PROXY_OBJECT
  5
507
102
{ACAD_REACTORS
330
C
102
}
330
C
100
AcDbProxyObject
 90
      499
 91
      574
 93
      778
310
424050E414D4454524553455444424D4F4440805084E202D20554E444F014213880B4815539113C0507544F4F4C42415280504554E444F80504554E444F80504554E444F80504554E444F80504554E444F80505455241534580506534156454153A1
 94
        0
1001
ACAD
1000
AcadProxyRoundTripData
1071
      515
1071
   851991
1070
     0
  0
ACAD_PROXY_OBJECT
  5
506
102
{ACAD_REACTORS
330
C
102
}
330
C
100
AcDbProxyObject
 90
      499
 91
      574
 93
     1242
310
06000044400000000000000000001840000400020000000000000000000000000000000000000000000000000000000000000000000000000000000000000000000000000000000000000000000000000000000000000000000000000000000000000000000000000000000000000000000000000000000000000000000000
310
00000000000000000000000000000000000000000000000000AAAAAAB0
360
509
360
50A
360
50B
360
50D
360
514
360
515
360
516
360
517
360
51A
360
51B
360
51C
360
51D
360
51E
360
51F
360
520
360
523
360
524
360
525
360
526
360
527
360
528
360
529
360
52A
360
52B
360
52C
360
52D
360
52E
360
52F
360
530
360
531
360
532
360
533
360
534
360
535
360
542
360
543
360
544
360
545
360
546
360
547
360
548
360
549
360
54A
360
54B
360
54C
360
54D
360
54E
360
54F
360
550
360
551
360
552
360
553
360
554
360
555
360
556
360
557
360
558
360
559
360
55A
360
55B
360
55C
360
55D
360
55E
360
55F
360
560
360
561
360
562
360
563
360
564
360
565
360
566
360
567
360
568
360
569
360
56A
360
56B
360
56C
360
56D
360
56E
360
56F
360
570
360
571
360
572
360
573
360
574
360
575
360
576
360
577
360
578
360
579
360
57A
360
57B
360
57C
360
57D
360
57E
360
57F
360
580
360
581
360
582
360
583
360
58C
360
58D
360
58E
360
58F
360
591
360
592
360
593
360
594
360
595
360
596
360
597
360
598
360
599
360
59A
360
59B
360
59C
360
59D
360
5A3
360
5A4
360
5A5
360
5A6
360
5A7
360
5A8
360
5A9
360
5AA
360
5AF
360
5B0
360
5B1
360
5B2
360
5B3
360
5B4
360
5C5
 94
        0
1001
ACAD
1000
AcadProxyRoundTripData
1071
      514
1071
   851991
1070
     0
  0
ACAD_PROXY_OBJECT
  5
511
102
{ACAD_REACTORS
330
C
102
}
330
C
100
AcDbProxyObject
 90
      499
 91
      574
 93
       50
310
06000041641280
 94
        0
1001
ACAD
1000
AcadProxyRoundTripData
1071
      524
1071
   851991
1070
     0
  0
ACAD_PROXY_OBJECT
  5
508
102
{ACAD_REACTORS
330
C
102
}
330
C
100
AcDbProxyObject
 90
      499
 91
      574
 93
       48
310
90342200000011
330
509
330
50A
330
50B
 94
        0
1001
ACAD
1000
AcadProxyRoundTripData
1071
      516
1071
   851991
1070
     0
  0
ACAD_PROXY_OBJECT
  5
5C4
102
{ACAD_REACTORS
330
C
102
}
330
C
100
AcDbProxyObject
 90
      499
 91
      574
 93
       32
310
9014220044
330
5C5
 94
        0
1001
ACAD
1000
AcadProxyRoundTripData
1071
      516
1071
   851991
1070
     0
  0
ACAD_PROXY_OBJECT
  5
59E
102
{ACAD_REACTORS
330
C
102
}
330
C
100
AcDbProxyObject
 90
      499
 91
      574
 93
       42
310
0006000043C4
330
58C
 94
        0
1001
ACAD
1000
AcadProxyRoundTripData
1071
      552
1071
   851991
1070
     0
  0
ACAD_PROXY_OBJECT
  5
588
102
{ACAD_REACTORS
330
C
102
}
330
C
100
AcDbProxyObject
 90
      499
 91
      574
 93
      114
310
000000438000000000000000000004
 94
        0
1001
ACAD
1000
AcadProxyRoundTripData
1071
      544
1071
   851991
1070
     0
  0
ACAD_PROXY_OBJECT
  5
5A0
102
{ACAD_REACTORS
330
C
102
}
330
C
100
AcDbProxyObject
 90
      499
 91
      574
 93
       34
310
05000044D5
 94
        0
1001
ACAD
1000
AcadProxyRoundTripData
1071
      554
1071
   851991
1070
     0
  0
ACAD_PROXY_OBJECT
  5
590
102
{ACAD_REACTORS
330
C
102
}
330
C
100
AcDbProxyObject
 90
      499
 91
      574
 93
      128
310
90D4420000000000000000000000000000
330
591
330
592
330
593
330
594
330
595
330
596
330
597
330
598
330
599
330
59A
330
59B
330
59C
330
59D
 94
        0
1001
ACAD
1000
AcadProxyRoundTripData
1071
      516
1071
   851991
1070
     0
  0
ACAD_PROXY_OBJECT
  5
536
102
{ACAD_REACTORS
330
C
102
}
330
C
100
AcDbProxyObject
 90
      499
 91
      574
 93
       42
310
000100005AC4
330
514
 94
        0
1001
ACAD
1000
AcadProxyRoundTripData
1071
      530
1071
   851991
1070
     0
  0
DICTIONARY
  5
4FD
102
{ACAD_REACTORS
330
C
102
}
330
C
100
AcDbDictionary
  3
ACMGSETTINGS
350
4FE
  3
AMGLAYCFG
350
5C3
  0
DICTIONARY
  5
5D0
102
{ACAD_REACTORS
330
C
102
}
330
C
100
AcDbDictionary
  3
DIMENSION
350
5D5
  3
FEA
350
5D4
  3
HATCH__1_
350
5D1
  3
HATCH__2_
350
5D2
  3
SIMPLE_WELD
350
5D6
  3
SYMBOLS
350
5D3
  0
ACAD_PROXY_OBJECT
  5
53E
102
{ACAD_REACTORS
330
C
102
}
330
C
100
AcDbProxyObject
 90
      499
 91
      574
 93
       34
310
0500004295
 94
        0
1001
ACAD
1000
AcadProxyRoundTripData
1071
      536
1071
   851991
1070
     0
  0
ACAD_PROXY_OBJECT
  5
540
102
{ACAD_REACTORS
330
C
102
}
330
C
100
AcDbProxyObject
 90
      499
 91
      574
 93
      424
310
585315020000000000000000000000000000000000000000000000000000000000000000000000000000000000000000000000000000
330
553
330
554
330
555
330
556
330
557
330
558
330
559
330
55A
330
55B
330
55C
330
55D
330
55E
330
55F
330
560
330
561
330
562
330
563
330
564
330
565
330
566
330
567
330
568
330
569
330
56A
330
56B
330
56C
330
56D
330
56E
330
56F
330
570
330
571
330
572
330
573
330
574
330
575
330
576
330
577
330
578
330
579
330
57A
330
57B
330
57C
330
57D
330
57E
330
57F
330
580
330
581
330
582
330
583
 94
        0
1001
ACAD
1000
AcadProxyRoundTripData
1071
      538
1071
   851991
1070
     0
  0
ACAD_PROXY_OBJECT
  5
5AB
102
{ACAD_REACTORS
330
C
102
}
330
C
100
AcDbProxyObject
 90
      499
 91
      574
 93
       74
310
0600004A400000000000
330
5B2
330
0
330
5B3
330
0
330
0
 94
        0
1001
ACAD
1000
AcadProxyRoundTripData
1071
      556
1071
   851991
1070
     0
  0
ACAD_PROXY_OBJECT
  5
541
102
{ACAD_REACTORS
330
C
102
}
330
C
100
AcDbProxyObject
 90
      499
 91
      574
 93
      168
310
4C511482000000000000000000000000000000000008
330
542
330
543
330
544
330
545
330
546
330
547
330
548
330
549
330
54A
330
54B
330
54C
330
54D
330
54E
330
54F
330
550
330
551
330
552
 94
        0
1001
ACAD
1000
AcadProxyRoundTripData
1071
      516
1071
   851991
1070
     0
  0
ACAD_PROXY_OBJECT
  5
5A2
102
{ACAD_REACTORS
330
C
102
}
330
C
100
AcDbProxyObject
 90
      499
 91
      574
 93
       88
310
908422000000000000000020
330
5A3
330
5A4
330
5A5
330
5A6
330
5A7
330
5A8
330
5A9
330
5AA
 94
        0
1001
ACAD
1000
AcadProxyRoundTripData
1071
      516
1071
   851991
1070
     0
  0
XRECORD
  5
5B9
102
{ACAD_REACTORS
330
C
102
}
330
C
100
AcDbXrecord
  1
DWGPROPS COOKIE
  2

  3

  4

  6

  7

  8

  9

300
AmdtFileType=84
301
=
302
=
303
=
304
=
305
=
306
=
307
=
308
=
309
=
 40
0.005163125
 41
2454596.550355717
 42
2454596.675773645
  1

 90
        1
  0
ACAD_PROXY_OBJECT
  5
58A
102
{ACAD_REACTORS
330
C
102
}
330
C
100
AcDbProxyObject
 90
      499
 91
      574
 93
        8
310
0506
 94
        0
1001
ACAD
1000
AcadProxyRoundTripData
1071
      546
1071
   851991
1070
     0
  0
ACAD_PROXY_OBJECT
  5
589
102
{ACAD_REACTORS
330
C
102
}
330
C
100
AcDbProxyObject
 90
      499
 91
      574
 93
        8
310
0406
 94
        0
1001
ACAD
1000
AcadProxyRoundTripData
1071
      545
1071
   851991
1070
     0
  0
DICTIONARY
  5
3FF
102
{ACAD_REACTORS
330
41
102
}
330
41
100
AcDbDictionary
280
     1
  0
DICTIONARY
  5
42
102
{ACAD_REACTORS
330
41
102
}
330
41
100
AcDbDictionary
  0
DICTIONARY
  5
5D7
102
{ACAD_REACTORS
330
438
102
}
330
438
100
AcDbDictionary
  3
*A1
350
5D8
  0
XRECORD
  5
CC3
102
{ACAD_REACTORS
330
438
102
}
330
438
100
AcDbXrecord
340
1F
  0
XRECORD
  5
CC4
102
{ACAD_REACTORS
330
43A
102
}
330
43A
100
AcDbXrecord
340
23
  0
MLINESTYLE
  5
18
102
{ACAD_REACTORS
330
17
102
}
330
17
100
AcDbMlineStyle
  2
STANDARD
 70
     0
  3

 62
   256
 51
90.0
 52
90.0
 71
     2
 49
0.5
 62
   256
  6
BYLAYER
 49
-0.5
 62
   256
  6
BYLAYER
  0
ACDBPLACEHOLDER
  5
F
102
{ACAD_REACTORS
330
E
102
}
330
E
100
AcDbPlaceHolder
280
     0
  0
XRECORD
  5
CAD
102
{ACAD_REACTORS
330
CA3
102
}
330
CA3
100
AcDbXrecord
 90
        0
  0
XRECORD
  5
CAE
102
{ACAD_REACTORS
330
CA3
102
}
330
CA3
100
AcDbXrecord
  1
{025C7157-5529-449E-A239-D8CA396FD83B}
  0
XRECORD
  5
CA6
102
{ACAD_REACTORS
330
CA3
102
}
330
CA3
100
AcDbXrecord
  1

  0
XRECORD
  5
CAC
102
{ACAD_REACTORS
330
CA3
102
}
330
CA3
100
AcDbXrecord
 90
        4
  0
XRECORD
  5
CA8
102
{ACAD_REACTORS
330
CA3
102
}
330
CA3
100
AcDbXrecord
340
1A
  0
XRECORD
  5
CAB
102
{ACAD_REACTORS
330
CA3
102
}
330
CA3
100
AcDbXrecord
 90
    10781
  0
XRECORD
  5
CA9
102
{ACAD_REACTORS
330
CA3
102
}
330
CA3
100
AcDbXrecord
340
19
  0
XRECORD
  5
CAA
102
{ACAD_REACTORS
330
CA3
102
}
330
CA3
100
AcDbXrecord
340
E
  0
XRECORD
  5
CB0
102
{ACAD_REACTORS
330
CA3
102
}
330
CA3
100
AcDbXrecord
 40
0.0
  0
XRECORD
  5
CB3
102
{ACAD_REACTORS
330
CA3
102
}
330
CA3
100
AcDbXrecord
340
0
  0
XRECORD
  5
CB9
102
{ACAD_REACTORS
330
CA3
102
}
330
CA3
100
AcDbXrecord
 10
0.0
 20
0.0
 30
0.0
  0
XRECORD
  5
CB5
102
{ACAD_REACTORS
330
CA3
102
}
330
CA3
100
AcDbXrecord
 10
0.0
 20
0.0
 30
0.0
  0
XRECORD
  5
CB8
102
{ACAD_REACTORS
330
CA3
102
}
330
CA3
100
AcDbXrecord
 10
0.0
 20
0.0
 30
0.0
  0
XRECORD
  5
CB6
102
{ACAD_REACTORS
330
CA3
102
}
330
CA3
100
AcDbXrecord
 10
0.0
 20
0.0
 30
0.0
  0
XRECORD
  5
CB7
102
{ACAD_REACTORS
330
CA3
102
}
330
CA3
100
AcDbXrecord
 10
0.0
 20
0.0
 30
0.0
  0
XRECORD
  5
CB4
102
{ACAD_REACTORS
330
CA3
102
}
330
CA3
100
AcDbXrecord
 10
0.0
 20
0.0
 30
0.0
  0
XRECORD
  5
CB1
102
{ACAD_REACTORS
330
CA3
102
}
330
CA3
100
AcDbXrecord
340
0
  0
XRECORD
  5
CB2
102
{ACAD_REACTORS
330
CA3
102
}
330
CA3
100
AcDbXrecord
 70
     0
  0
XRECORD
  5
CA7
102
{ACAD_REACTORS
330
CA3
102
}
330
CA3
100
AcDbXrecord
  1
monochrome.ctb
  0
XRECORD
  5
CA4
102
{ACAD_REACTORS
330
CA3
102
}
330
CA3
100
AcDbXrecord
 90
        1
  0
XRECORD
  5
CA5
102
{ACAD_REACTORS
330
CA3
102
}
330
CA3
100
AcDbXrecord
 90
       70
  0
XRECORD
  5
CBC
102
{ACAD_REACTORS
330
CA3
102
}
330
CA3
100
AcDbXrecord
340
0
  0
XRECORD
  5
CC2
102
{ACAD_REACTORS
330
CA3
102
}
330
CA3
100
AcDbXrecord
 10
0.0
 20
0.0
 30
0.0
  0
XRECORD
  5
CBE
102
{ACAD_REACTORS
330
CA3
102
}
330
CA3
100
AcDbXrecord
 10
0.0
 20
0.0
 30
0.0
  0
XRECORD
  5
CC1
102
{ACAD_REACTORS
330
CA3
102
}
330
CA3
100
AcDbXrecord
 10
0.0
 20
0.0
 30
0.0
  0
XRECORD
  5
CBF
102
{ACAD_REACTORS
330
CA3
102
}
330
CA3
100
AcDbXrecord
 10
0.0
 20
0.0
 30
0.0
  0
XRECORD
  5
CC0
102
{ACAD_REACTORS
330
CA3
102
}
330
CA3
100
AcDbXrecord
 10
0.0
 20
0.0
 30
0.0
  0
XRECORD
  5
CBD
102
{ACAD_REACTORS
330
CA3
102
}
330
CA3
100
AcDbXrecord
 10
0.0
 20
0.0
 30
0.0
  0
XRECORD
  5
CBA
102
{ACAD_REACTORS
330
CA3
102
}
330
CA3
100
AcDbXrecord
340
0
  0
XRECORD
  5
CBB
102
{ACAD_REACTORS
330
CA3
102
}
330
CA3
100
AcDbXrecord
 70
     0
  0
XRECORD
  5
CAF
102
{ACAD_REACTORS
330
CA3
102
}
330
CA3
100
AcDbXrecord
  1
{68E58F38-7596-42AB-9E89-88FF15E88504}
  0
DICTIONARYVAR
  5
40F
102
{ACAD_REACTORS
330
40D
102
}
330
40D
100
DictionaryVariables
280
     0
  1
2
  0
DICTIONARYVAR
  5
40E
102
{ACAD_REACTORS
330
40D
102
}
330
40D
100
DictionaryVariables
280
     0
  1
1
  0
DICTIONARYVAR
  5
5DF
102
{ACAD_REACTORS
330
40D
102
}
330
40D
100
DictionaryVariables
280
     0
  1
1
  0
ACAD_PROXY_OBJECT
  5
5B7
102
{ACAD_REACTORS
330
5B6
102
}
330
5B6
100
AcDbProxyObject
 90
      499
 91
      574
 93
      118
310
405010040CA904C415CD5B07571028
350
5B8
 94
        0
1001
ACAD
1000
AcadProxyRoundTripData
1071
      563
1071
   851991
1070
     0
  0
ACAD_PROXY_OBJECT
  5
509
330
0
100
AcDbProxyObject
 90
      499
 91
      574
 93
      156
310
00010143D050D351505391D5531054925390D494
330
506
 94
        0
1001
ACAD
1000
AcadProxyRoundTripData
1071
      517
1071
   851991
1070
     0
  0
ACAD_PROXY_OBJECT
  5
50A
330
0
100
AcDbProxyObject
 90
      499
 91
      574
 93
      148
310
000101439050D351531253915054925390D494
330
506
 94
        0
1001
ACAD
1000
AcadProxyRoundTripData
1071
      517
1071
   851991
1070
     0
  0
ACAD_PROXY_OBJECT
  5
50B
330
0
100
AcDbProxyObject
 90
      499
 91
      574
 93
      156
310
000101439050D35154D6535093D314D256915084
330
506
 94
        0
1001
ACAD
1000
AcadProxyRoundTripData
1071
      518
1071
   851991
1070
     0
  0
ACAD_PROXY_OBJECT
  5
50D
330
0
100
AcDbProxyObject
 90
      499
 91
      574
 93
      120
310
000101422565255A6557080C402B0068
330
506
330
0
330
0
 94
        0
1001
ACAD
1000
AcadProxyRoundTripData
1071
      520
1071
   851991
1070
     0
  0
ACAD_PROXY_OBJECT
  5
514
330
0
100
AcDbProxyObject
 90
      499
 91
      574
 93
      358
310
0001014124FEA55D00507362E332E302E31014124FEA55D00507362E332E302E3140501000041505391D311658
330
506
330
515
330
519
 94
        0
1001
ACAD
1000
AcadProxyRoundTripData
1071
      526
1071
   851991
1070
     0
  0
ACAD_PROXY_OBJECT
  5
515
330
0
100
AcDbProxyObject
 90
      499
 91
      574
 93
       48
310
00019014220011
330
506
330
516
 94
        0
1001
ACAD
1000
AcadProxyRoundTripData
1071
      527
1071
   851991
1070
     0
  0
ACAD_PROXY_OBJECT
  5
516
330
0
100
AcDbProxyObject
 90
      499
 91
      574
 93
       48
310
0001AA00000011
330
506
330
4F8
330
517
330
0
 94
        0
1001
ACAD
1000
AcadProxyRoundTripData
1071
      528
1071
   851991
1070
     0
  0
ACAD_PROXY_OBJECT
  5
517
330
0
100
AcDbProxyObject
 90
      499
 91
      574
 93
       28
310
0001AAA2
330
506
 94
        0
1001
ACAD
1000
AcadProxyRoundTripData
1071
      529
1071
   851991
1070
     0
  0
ACAD_PROXY_OBJECT
  5
51A
330
0
100
AcDbProxyObject
 90
      499
 91
      574
 93
      108
310
000101421053521310D05310D01B
330
506
 94
        0
1001
ACAD
1000
AcadProxyRoundTripData
1071
      518
1071
   851991
1070
     0
  0
ACAD_PROXY_OBJECT
  5
51B
330
0
100
AcDbProxyObject
 90
      499
 91
      574
 93
      124
310
00010142905354915554D15112535010
330
506
 94
        0
1001
ACAD
1000
AcadProxyRoundTripData
1071
      518
1071
   851991
1070
     0
  0
ACAD_PROXY_OBJECT
  5
51C
330
0
100
AcDbProxyObject
 90
      499
 91
      574
 93
      132
310
00010143105354D150D51253D391125360
330
506
 94
        0
1001
ACAD
1000
AcadProxyRoundTripData
1071
      518
1071
   851991
1070
     0
  0
ACAD_PROXY_OBJECT
  5
51D
330
0
100
AcDbProxyObject
 90
      499
 91
      574
 93
      124
310
00010142905355941093D49111549013
330
506
 94
        0
1001
ACAD
1000
AcadProxyRoundTripData
1071
      518
1071
   851991
1070
     0
  0
ACAD_PROXY_OBJECT
  5
51E
330
0
100
AcDbProxyObject
 90
      499
 91
      574
 93
      116
310
0001014290535115D1D0D3D313D4A0
330
506
 94
        0
1001
ACAD
1000
AcadProxyRoundTripData
1071
      518
1071
   851991
1070
     0
  0
ACAD_PROXY_OBJECT
  5
51F
330
0
100
AcDbProxyObject
 90
      499
 91
      574
 93
      148
310
00010143505355925155D49151949154D21010
330
506
 94
        0
1001
ACAD
1000
AcadProxyRoundTripData
1071
      518
1071
   851991
1070
     0
  0
ACAD_PROXY_OBJECT
  5
520
330
0
100
AcDbProxyObject
 90
      499
 91
      574
 93
      172
310
00010144105350539393D51154149154D1549591501A
330
506
 94
        0
1001
ACAD
1000
AcadProxyRoundTripData
1071
      518
1071
   851991
1070
     0
  0
ACAD_PROXY_OBJECT
  5
523
330
0
100
AcDbProxyObject
 90
      499
 91
      574
 93
      172
310
00010144105350555513D11253505494905391D1501A
330
506
 94
        0
1001
ACAD
1000
AcadProxyRoundTripData
1071
      518
1071
   851991
1070
     0
  0
ACAD_PROXY_OBJECT
  5
524
330
0
100
AcDbProxyObject
 90
      499
 91
      574
 93
      124
310
00010142D05351561514915191125364
330
506
 94
        0
1001
ACAD
1000
AcadProxyRoundTripData
1071
      518
1071
   851991
1070
     0
  0
ACAD_PROXY_OBJECT
  5
525
330
0
100
AcDbProxyObject
 90
      499
 91
      574
 93
      132
310
00010142D05355105410539393D5115010
330
506
 94
        0
1001
ACAD
1000
AcadProxyRoundTripData
1071
      518
1071
   851991
1070
     0
  0
ACAD_PROXY_OBJECT
  5
526
330
0
100
AcDbProxyObject
 90
      499
 91
      574
 93
      108
310
00010142105350555513D0D31015
330
506
 94
        0
1001
ACAD
1000
AcadProxyRoundTripData
1071
      518
1071
   851991
1070
     0
  0
ACAD_PROXY_OBJECT
  5
527
330
0
100
AcDbProxyObject
 90
      499
 91
      574
 93
      108
310
00010142105350D3119150551055
330
506
 94
        0
1001
ACAD
1000
AcadProxyRoundTripData
1071
      518
1071
   851991
1070
     0
  0
ACAD_PROXY_OBJECT
  5
528
330
0
100
AcDbProxyObject
 90
      499
 91
      574
 93
      108
310
00010142105350D315925155D3F5
330
506
 94
        0
1001
ACAD
1000
AcadProxyRoundTripData
1071
      518
1071
   851991
1070
     0
  0
ACAD_PROXY_OBJECT
  5
529
330
0
100
AcDbProxyObject
 90
      499
 91
      574
 93
      148
310
0001014350535212511156915493D112535011
330
506
 94
        0
1001
ACAD
1000
AcadProxyRoundTripData
1071
      518
1071
   851991
1070
     0
  0
ACAD_PROXY_OBJECT
  5
52A
330
0
100
AcDbProxyObject
 90
      499
 91
      574
 93
      124
310
00010142905352105510D21254D3D012
330
506
 94
        0
1001
ACAD
1000
AcadProxyRoundTripData
1071
      518
1071
   851991
1070
     0
  0
ACAD_PROXY_OBJECT
  5
52B
330
0
100
AcDbProxyObject
 90
      499
 91
      574
 93
      148
310
00010143905354D25391D31152105513105661
330
506
 94
        0
1001
ACAD
1000
AcadProxyRoundTripData
1071
      518
1071
   851991
1070
     0
  0
ACAD_PROXY_OBJECT
  5
52C
330
0
100
AcDbProxyObject
 90
      499
 91
      574
 93
      124
310
00010142D0535115D1D193111254D423
330
506
 94
        0
1001
ACAD
1000
AcadProxyRoundTripData
1071
      518
1071
   851991
1070
     0
  0
ACAD_PROXY_OBJECT
  5
52D
330
0
100
AcDbProxyObject
 90
      499
 91
      574
 93
      100
310
00010142105350555513D213A2
330
506
 94
        0
1001
ACAD
1000
AcadProxyRoundTripData
1071
      518
1071
   851991
1070
     0
  0
ACAD_PROXY_OBJECT
  5
52E
330
0
100
AcDbProxyObject
 90
      499
 91
      574
 93
      116
310
000101425053521390D3D553951014
330
506
 94
        0
1001
ACAD
1000
AcadProxyRoundTripData
1071
      518
1071
   851991
1070
     0
  0
ACAD_PROXY_OBJECT
  5
52F
330
0
100
AcDbProxyObject
 90
      499
 91
      574
 93
      108
310
0001014210535213941493D29010
330
506
 94
        0
1001
ACAD
1000
AcadProxyRoundTripData
1071
      518
1071
   851991
1070
     0
  0
ACAD_PROXY_OBJECT
  5
530
330
0
100
AcDbProxyObject
 90
      499
 91
      574
 93
      108
310
0001014210535213951654115070
330
506
 94
        0
1001
ACAD
1000
AcadProxyRoundTripData
1071
      518
1071
   851991
1070
     0
  0
ACAD_PROXY_OBJECT
  5
531
330
0
100
AcDbProxyObject
 90
      499
 91
      574
 93
      108
310
000101421053521395925155D0F0
330
506
 94
        0
1001
ACAD
1000
AcadProxyRoundTripData
1071
      518
1071
   851991
1070
     0
  0
ACAD_PROXY_OBJECT
  5
532
330
0
100
AcDbProxyObject
 90
      499
 91
      574
 93
      140
310
00010143505354D150D51253D390D3D41666
330
506
 94
        0
1001
ACAD
1000
AcadProxyRoundTripData
1071
      518
1071
   851991
1070
     0
  0
ACAD_PROXY_OBJECT
  5
533
330
0
100
AcDbProxyObject
 90
      499
 91
      574
 93
      108
310
00010142105350D3141493D29030
330
506
 94
        0
1001
ACAD
1000
AcadProxyRoundTripData
1071
      518
1071
   851991
1070
     0
  0
ACAD_PROXY_OBJECT
  5
534
330
0
100
AcDbProxyObject
 90
      499
 91
      574
 93
      212
310
00010143905350555513D2105510D21493D500000000000002E406
330
506
 94
        0
1001
ACAD
1000
AcadProxyRoundTripData
1071
      517
1071
   851991
1070
     0
  0
ACAD_PROXY_OBJECT
  5
535
330
0
100
AcDbProxyObject
 90
      499
 91
      574
 93
      156
310
00010143905350555513D2105510D21111551010
330
506
 94
        0
1001
ACAD
1000
AcadProxyRoundTripData
1071
      518
1071
   851991
1070
     0
  0
ACAD_PROXY_OBJECT
  5
542
330
0
100
AcDbProxyObject
 90
      499
 91
      574
 93
      116
310
000101425053541051D15311539192
330
506
 94
        0
1001
ACAD
1000
AcadProxyRoundTripData
1071
      518
1071
   851991
1070
     0
  0
ACAD_PROXY_OBJECT
  5
543
330
0
100
AcDbProxyObject
 90
      499
 91
      574
 93
      108
310
000101421053555312539154D051
330
506
 94
        0
1001
ACAD
1000
AcadProxyRoundTripData
1071
      518
1071
   851991
1070
     0
  0
ACAD_PROXY_OBJECT
  5
544
330
0
100
AcDbProxyObject
 90
      499
 91
      574
 93
      108
310
000101421053559312539154D031
330
506
 94
        0
1001
ACAD
1000
AcadProxyRoundTripData
1071
      518
1071
   851991
1070
     0
  0
ACAD_PROXY_OBJECT
  5
545
330
0
100
AcDbProxyObject
 90
      499
 91
      574
 93
      140
310
00010143105354D1911254D41353D1115015
330
506
 94
        0
1001
ACAD
1000
AcadProxyRoundTripData
1071
      518
1071
   851991
1070
     0
  0
ACAD_PROXY_OBJECT
  5
546
330
0
100
AcDbProxyObject
 90
      499
 91
      574
 93
      172
310
00010142505354119255105391C1C052DC9A6F104400
330
506
 94
        0
1001
ACAD
1000
AcadProxyRoundTripData
1071
      517
1071
   851991
1070
     0
  0
ACAD_PROXY_OBJECT
  5
547
330
0
100
AcDbProxyObject
 90
      499
 91
      574
 93
      164
310
000101421053559150D05551C000000000000E03F4
330
506
 94
        0
1001
ACAD
1000
AcadProxyRoundTripData
1071
      517
1071
   851991
1070
     0
  0
ACAD_PROXY_OBJECT
  5
548
330
0
100
AcDbProxyObject
 90
      499
 91
      574
 93
      180
310
00010142905350931153911513D307B14AE47E17A843F0
330
506
 94
        0
1001
ACAD
1000
AcadProxyRoundTripData
1071
      517
1071
   851991
1070
     0
  0
ACAD_PROXY_OBJECT
  5
549
330
0
100
AcDbProxyObject
 90
      499
 91
      574
 93
      172
310
0001014250535293D25391D05407B14AE47E17A843F3
330
506
 94
        0
1001
ACAD
1000
AcadProxyRoundTripData
1071
      517
1071
   851991
1070
     0
  0
ACAD_PROXY_OBJECT
  5
54A
330
0
100
AcDbProxyObject
 90
      499
 91
      574
 93
      172
310
000101425053541192551311538000000FC83D797413
330
506
 94
        0
1001
ACAD
1000
AcadProxyRoundTripData
1071
      517
1071
   851991
1070
     0
  0
ACAD_PROXY_OBJECT
  5
54B
330
0
100
AcDbProxyObject
 90
      499
 91
      574
 93
      156
310
00010141D053559150D4D18000000000000E03F9
330
506
 94
        0
1001
ACAD
1000
AcadProxyRoundTripData
1071
      517
1071
   851991
1070
     0
  0
ACAD_PROXY_OBJECT
  5
54C
330
0
100
AcDbProxyObject
 90
      499
 91
      574
 93
      156
310
00010141D05354D19513D309A9999999999993F9
330
506
 94
        0
1001
ACAD
1000
AcadProxyRoundTripData
1071
      517
1071
   851991
1070
     0
  0
ACAD_PROXY_OBJECT
  5
54D
330
0
100
AcDbProxyObject
 90
      499
 91
      574
 93
      172
310
000101425053541192551513D307B14AE47E17A843F3
330
506
 94
        0
1001
ACAD
1000
AcadProxyRoundTripData
1071
      517
1071
   851991
1070
     0
  0
ACAD_PROXY_OBJECT
  5
54E
330
0
100
AcDbProxyObject
 90
      499
 91
      574
 93
      188
310
00010142D05354D151D192551513D307B14AE47E17A843F0
330
506
 94
        0
1001
ACAD
1000
AcadProxyRoundTripData
1071
      517
1071
   851991
1070
     0
  0
ACAD_PROXY_OBJECT
  5
54F
330
0
100
AcDbProxyObject
 90
      499
 91
      574
 93
      148
310
000101419053541311538000000FC83D797414
330
506
 94
        0
1001
ACAD
1000
AcadProxyRoundTripData
1071
      517
1071
   851991
1070
     0
  0
ACAD_PROXY_OBJECT
  5
550
330
0
100
AcDbProxyObject
 90
      499
 91
      574
 93
      172
310
00010142505354105391D513D301C052DC9A6F104408
330
506
 94
        0
1001
ACAD
1000
AcadProxyRoundTripData
1071
      517
1071
   851991
1070
     0
  0
ACAD_PROXY_OBJECT
  5
551
330
0
100
AcDbProxyObject
 90
      499
 91
      574
 93
      132
310
0001014114D2569140000000000002440C
330
506
 94
        0
1001
ACAD
1000
AcadProxyRoundTripData
1071
      517
1071
   851991
1070
     0
  0
ACAD_PROXY_OBJECT
  5
552
330
0
100
AcDbProxyObject
 90
      499
 91
      574
 93
      156
310
00010142905351D4941491519256005034153470
330
506
 94
        0
1001
ACAD
1000
AcadProxyRoundTripData
1071
      539
1071
   851991
1070
     0
  0
ACAD_PROXY_OBJECT
  5
553
330
0
100
AcDbProxyObject
 90
      499
 91
      574
 93
      314
310
00014080509646973745363616C650000000000003C2FC000000000000F0BF0000003F20F5E5D045
330
506
 94
        0
1001
ACAD
1000
AcadProxyRoundTripData
1071
      540
1071
   851991
1070
     0
  0
ACAD_PROXY_OBJECT
  5
554
330
0
100
AcDbProxyObject
 90
      499
 91
      574
 93
      322
310
0001408050A65646175526F74617465060B51153EC87E4FC182D4454FB2119C0060B51153EC8465039
330
506
 94
        0
1001
ACAD
1000
AcadProxyRoundTripData
1071
      540
1071
   851991
1070
     0
  0
ACAD_PROXY_OBJECT
  5
555
330
0
100
AcDbProxyObject
 90
      499
 91
      574
 93
      314
310
00014080509656461755477697374060B51153EC846500000000FC83D797C10000003F20F5E5D050
330
506
 94
        0
1001
ACAD
1000
AcadProxyRoundTripData
1071
      540
1071
   851991
1070
     0
  0
ACAD_PROXY_OBJECT
  5
556
330
0
100
AcDbProxyObject
 90
      499
 91
      574
 93
      294
310
000140C050A656467654F75747075740144F3B7F635ECB74A140A4817D41BDB1E5B1A5B995
330
506
 94
        0
1001
ACAD
1000
AcadProxyRoundTripData
1071
      541
1071
   851991
1070
     0
  0
ACAD_PROXY_OBJECT
  5
557
330
0
100
AcDbProxyObject
 90
      499
 91
      574
 93
      154
310
0001404050B6564697450726576696577406407F
330
506
 94
        0
1001
ACAD
1000
AcadProxyRoundTripData
1071
      542
1071
   851991
1070
     0
  0
ACAD_PROXY_OBJECT
  5
558
330
0
100
AcDbProxyObject
 90
      499
 91
      574
 93
      170
310
0001404050A666C6F77556C696E657342A3A00C0001E
330
506
 94
        0
1001
ACAD
1000
AcadProxyRoundTripData
1071
      542
1071
   851991
1070
     0
  0
ACAD_PROXY_OBJECT
  5
559
330
0
100
AcDbProxyObject
 90
      499
 91
      574
 93
      170
310
0001404050A666C6F77566C696E657342A3A00C0001E
330
506
 94
        0
1001
ACAD
1000
AcadProxyRoundTripData
1071
      542
1071
   851991
1070
     0
  0
ACAD_PROXY_OBJECT
  5
55A
330
0
100
AcDbProxyObject
 90
      499
 91
      574
 93
      322
310
0001408050A666C7366456E645261640000000000003C2FC000000000000F0BF0000003F20F5E5D079
330
506
 94
        0
1001
ACAD
1000
AcadProxyRoundTripData
1071
      540
1071
   851991
1070
     0
  0
ACAD_PROXY_OBJECT
  5
55B
330
0
100
AcDbProxyObject
 90
      499
 91
      574
 93
      246
310
000140C05086A6E33644D6F64650143E3BA24EB8A134A4817D3585B9D585B0
330
506
 94
        0
1001
ACAD
1000
AcadProxyRoundTripData
1071
      541
1071
   851991
1070
     0
  0
ACAD_PROXY_OBJECT
  5
55C
330
0
100
AcDbProxyObject
 90
      499
 91
      574
 93
      294
310
000140C050A6A6E33644F75747075740144F3B7F635ECB74A140A4817D41BDB1E5B1A5B994
330
506
 94
        0
1001
ACAD
1000
AcadProxyRoundTripData
1071
      541
1071
   851991
1070
     0
  0
ACAD_PROXY_OBJECT
  5
55D
330
0
100
AcDbProxyObject
 90
      499
 91
      574
 93
      306
310
000140805086C656E675065726300000000002016D002D431CEBE2361A3F0000003F20F5E5D065
330
506
 94
        0
1001
ACAD
1000
AcadProxyRoundTripData
1071
      540
1071
   851991
1070
     0
  0
ACAD_PROXY_OBJECT
  5
55E
330
0
100
AcDbProxyObject
 90
      499
 91
      574
 93
      266
310
0001408050B6D61737344656E7369747942D431CEBE2361A3F0000003F20F5E5D07F
330
506
 94
        0
1001
ACAD
1000
AcadProxyRoundTripData
1071
      540
1071
   851991
1070
     0
  0
ACAD_PROXY_OBJECT
  5
55F
330
0
100
AcDbProxyObject
 90
      499
 91
      574
 93
      186
310
000140805096D617373546869636BA0000003F20F5E5D05A
330
506
 94
        0
1001
ACAD
1000
AcadProxyRoundTripData
1071
      540
1071
   851991
1070
     0
  0
ACAD_PROXY_OBJECT
  5
560
330
0
100
AcDbProxyObject
 90
      499
 91
      574
 93
      230
310
000140C05086D6173735479706501436F2AB64A14CA4817D4DA195B1B3
330
506
 94
        0
1001
ACAD
1000
AcadProxyRoundTripData
1071
      541
1071
   851991
1070
     0
  0
ACAD_PROXY_OBJECT
  5
561
330
0
100
AcDbProxyObject
 90
      499
 91
      574
 93
      242
310
000140805086F667366446973744000000FC83D797C10000003F20F5E5D075
330
506
 94
        0
1001
ACAD
1000
AcadProxyRoundTripData
1071
      540
1071
   851991
1070
     0
  0
ACAD_PROXY_OBJECT
  5
562
330
0
100
AcDbProxyObject
 90
      499
 91
      574
 93
      258
310
0001408050A7072696D52616469757342D431CEBE2361A3F0000003F20F5E5D050
330
506
 94
        0
1001
ACAD
1000
AcadProxyRoundTripData
1071
      540
1071
   851991
1070
     0
  0
ACAD_PROXY_OBJECT
  5
563
330
0
100
AcDbProxyObject
 90
      499
 91
      574
 93
      194
310
0001408050A7072696D546F70526164A0000003F20F5E5D040
330
506
 94
        0
1001
ACAD
1000
AcadProxyRoundTripData
1071
      540
1071
   851991
1070
     0
  0
ACAD_PROXY_OBJECT
  5
564
330
0
100
AcDbProxyObject
 90
      499
 91
      574
 93
      266
310
0001408050B7072696D5475626552616442D431CEBE2361A3F0000003F20F5E5D07F
330
506
 94
        0
1001
ACAD
1000
AcadProxyRoundTripData
1071
      540
1071
   851991
1070
     0
  0
ACAD_PROXY_OBJECT
  5
565
330
0
100
AcDbProxyObject
 90
      499
 91
      574
 93
      258
310
0001408050A7072696D4865696768744000000FC83D797C10000003F20F5E5D050
330
506
 94
        0
1001
ACAD
1000
AcadProxyRoundTripData
1071
      540
1071
   851991
1070
     0
  0
ACAD_PROXY_OBJECT
  5
566
330
0
100
AcDbProxyObject
 90
      499
 91
      574
 93
      250
310
000140805097072696D5374416E678182D4454FB2119C0060B51153EC8465010
330
506
 94
        0
1001
ACAD
1000
AcadProxyRoundTripData
1071
      540
1071
   851991
1070
     0
  0
ACAD_PROXY_OBJECT
  5
567
330
0
100
AcDbProxyObject
 90
      499
 91
      574
 93
      322
310
0001408050A7072696D456E64416E67060B51153EC846500182D4454FB2119C0060B51153EC8465039
330
506
 94
        0
1001
ACAD
1000
AcadProxyRoundTripData
1071
      540
1071
   851991
1070
     0
  0
ACAD_PROXY_OBJECT
  5
568
330
0
100
AcDbProxyObject
 90
      499
 91
      574
 93
      242
310
000140805087265765374416E678182D4454FB2119C0060B51153EC8465019
330
506
 94
        0
1001
ACAD
1000
AcadProxyRoundTripData
1071
      540
1071
   851991
1070
     0
  0
ACAD_PROXY_OBJECT
  5
569
330
0
100
AcDbProxyObject
 90
      499
 91
      574
 93
      314
310
00014080509726576456E64416E67060B51153EC846500182D4454FB2119C0060B51153EC8465010
330
506
 94
        0
1001
ACAD
1000
AcadProxyRoundTripData
1071
      540
1071
   851991
1070
     0
  0
ACAD_PROXY_OBJECT
  5
56A
330
0
100
AcDbProxyObject
 90
      499
 91
      574
 93
      194
310
0001404050C7266736655706174636865734290139C0C0002D
330
506
 94
        0
1001
ACAD
1000
AcadProxyRoundTripData
1071
      542
1071
   851991
1070
     0
  0
ACAD_PROXY_OBJECT
  5
56B
330
0
100
AcDbProxyObject
 90
      499
 91
      574
 93
      194
310
0001404050C7266736656706174636865734290139C0C0002D
330
506
 94
        0
1001
ACAD
1000
AcadProxyRoundTripData
1071
      542
1071
   851991
1070
     0
  0
ACAD_PROXY_OBJECT
  5
56C
330
0
100
AcDbProxyObject
 90
      499
 91
      574
 93
      246
310
000140C0508747562654D6F64650143E3BA24EB8A134A4817D3585B9D585B0
330
506
 94
        0
1001
ACAD
1000
AcadProxyRoundTripData
1071
      541
1071
   851991
1070
     0
  0
ACAD_PROXY_OBJECT
  5
56D
330
0
100
AcDbProxyObject
 90
      499
 91
      574
 93
      274
310
0001408050C747562654469616D6574657242D431CEBE2361A3F0000003F20F5E5D055
330
506
 94
        0
1001
ACAD
1000
AcadProxyRoundTripData
1071
      540
1071
   851991
1070
     0
  0
ACAD_PROXY_OBJECT
  5
56E
330
0
100
AcDbProxyObject
 90
      499
 91
      574
 93
      130
310
00014040509696E746572506F6C79A4057
330
506
 94
        0
1001
ACAD
1000
AcadProxyRoundTripData
1071
      542
1071
   851991
1070
     0
  0
ACAD_PROXY_OBJECT
  5
56F
330
0
100
AcDbProxyObject
 90
      499
 91
      574
 93
      162
310
0001404050D696E746572417567506F696E74A405C
330
506
 94
        0
1001
ACAD
1000
AcadProxyRoundTripData
1071
      542
1071
   851991
1070
     0
  0
ACAD_PROXY_OBJECT
  5
570
330
0
100
AcDbProxyObject
 90
      499
 91
      574
 93
      238
310
000140C0509696E7465727472696D014365EF257ECA108A4817D09BDD1A3
330
506
 94
        0
1001
ACAD
1000
AcadProxyRoundTripData
1071
      541
1071
   851991
1070
     0
  0
ACAD_PROXY_OBJECT
  5
571
330
0
100
AcDbProxyObject
 90
      499
 91
      574
 93
      230
310
000140C0509696E7465727479706501433136344A150A4817D51C9A5B5
330
506
 94
        0
1001
ACAD
1000
AcadProxyRoundTripData
1071
      541
1071
   851991
1070
     0
  0
ACAD_PROXY_OBJECT
  5
572
330
0
100
AcDbProxyObject
 90
      499
 91
      574
 93
      146
310
0001404050A636F726E65727472696D4064063
330
506
 94
        0
1001
ACAD
1000
AcadProxyRoundTripData
1071
      542
1071
   851991
1070
     0
  0
ACAD_PROXY_OBJECT
  5
573
330
0
100
AcDbProxyObject
 90
      499
 91
      574
 93
      130
310
000140405086F6673666B6565704064046
330
506
 94
        0
1001
ACAD
1000
AcadProxyRoundTripData
1071
      542
1071
   851991
1070
     0
  0
ACAD_PROXY_OBJECT
  5
574
330
0
100
AcDbProxyObject
 90
      499
 91
      574
 93
      146
310
0001404050A70726F6A4F757470757440A40E3
330
506
 94
        0
1001
ACAD
1000
AcadProxyRoundTripData
1071
      542
1071
   851991
1070
     0
  0
ACAD_PROXY_OBJECT
  5
575
330
0
100
AcDbProxyObject
 90
      499
 91
      574
 93
      270
310
000140C050D70726F6A446972656374696F6E014372F7AB6C0A124A4817DD92595DC
330
506
 94
        0
1001
ACAD
1000
AcadProxyRoundTripData
1071
      541
1071
   851991
1070
     0
  0
ACAD_PROXY_OBJECT
  5
576
330
0
100
AcDbProxyObject
 90
      499
 91
      574
 93
      130
310
0001404050870726F6A4B6565704064056
330
506
 94
        0
1001
ACAD
1000
AcadProxyRoundTripData
1071
      542
1071
   851991
1070
     0
  0
ACAD_PROXY_OBJECT
  5
577
330
0
100
AcDbProxyObject
 90
      499
 91
      574
 93
      278
310
000140C050B70726F6A53706163696E670144237164D2CA13CA4817D3DC1D1A5B585B1
330
506
 94
        0
1001
ACAD
1000
AcadProxyRoundTripData
1071
      541
1071
   851991
1070
     0
  0
ACAD_PROXY_OBJECT
  5
578
330
0
100
AcDbProxyObject
 90
      499
 91
      574
 93
      250
310
0001408050970726F6A54617065728182D4454FB21F9BF060B51153EC87E4FE5
330
506
 94
        0
1001
ACAD
1000
AcadProxyRoundTripData
1071
      540
1071
   851991
1070
     0
  0
ACAD_PROXY_OBJECT
  5
579
330
0
100
AcDbProxyObject
 90
      499
 91
      574
 93
      130
310
00014040508647261674B656570406406D
330
506
 94
        0
1001
ACAD
1000
AcadProxyRoundTripData
1071
      542
1071
   851991
1070
     0
  0
ACAD_PROXY_OBJECT
  5
57A
330
0
100
AcDbProxyObject
 90
      499
 91
      574
 93
      302
310
000140C050F647261674F7269656E746174696F6E0143E590243F0A138A4817D39BDC9B585B2
330
506
 94
        0
1001
ACAD
1000
AcadProxyRoundTripData
1071
      541
1071
   851991
1070
     0
  0
ACAD_PROXY_OBJECT
  5
57B
330
0
100
AcDbProxyObject
 90
      499
 91
      574
 93
      286
310
000140C050E647261675472616E736974696F6E0143A3B6A4DE0A10CA4817DCD0D85B195
330
506
 94
        0
1001
ACAD
1000
AcadProxyRoundTripData
1071
      541
1071
   851991
1070
     0
  0
ACAD_PROXY_OBJECT
  5
57C
330
0
100
AcDbProxyObject
 90
      499
 91
      574
 93
      318
310
000140C051061646A757374436F6E74696E7569747901442F746C2F778A14CA4817D4DB5BDBDD1A0
330
506
 94
        0
1001
ACAD
1000
AcadProxyRoundTripData
1071
      541
1071
   851991
1070
     0
  0
ACAD_PROXY_OBJECT
  5
57D
330
0
100
AcDbProxyObject
 90
      499
 91
      574
 93
      138
310
0001404050A61646A7573744B656570A4067
330
506
 94
        0
1001
ACAD
1000
AcadProxyRoundTripData
1071
      542
1071
   851991
1070
     0
  0
ACAD_PROXY_OBJECT
  5
57E
330
0
100
AcDbProxyObject
 90
      499
 91
      574
 93
      250
310
0001408050972756C65576964746842D431CEBE2361A3F0000003F20F5E5D064
330
506
 94
        0
1001
ACAD
1000
AcadProxyRoundTripData
1071
      540
1071
   851991
1070
     0
  0
ACAD_PROXY_OBJECT
  5
57F
330
0
100
AcDbProxyObject
 90
      499
 91
      574
 93
      274
310
0001408050C616E616C797A65447261667421D139D28615ED8FE060B51153EC842500D
330
506
 94
        0
1001
ACAD
1000
AcadProxyRoundTripData
1071
      540
1071
   851991
1070
     0
  0
ACAD_PROXY_OBJECT
  5
580
330
0
100
AcDbProxyObject
 90
      499
 91
      574
 93
      210
310
0001404050F616E616C797A654E756D4C696E65734163FDFC00006
330
506
 94
        0
1001
ACAD
1000
AcadProxyRoundTripData
1071
      542
1071
   851991
1070
     0
  0
ACAD_PROXY_OBJECT
  5
581
330
0
100
AcDbProxyObject
 90
      499
 91
      574
 93
      202
310
00014040512616E616C797A65526F746174654C696E6573A4040
330
506
 94
        0
1001
ACAD
1000
AcadProxyRoundTripData
1071
      542
1071
   851991
1070
     0
  0
ACAD_PROXY_OBJECT
  5
582
330
0
100
AcDbProxyObject
 90
      499
 91
      574
 93
      210
310
00014040513616E616C797A65446973706C61794C696E6573A4046
330
506
 94
        0
1001
ACAD
1000
AcadProxyRoundTripData
1071
      542
1071
   851991
1070
     0
  0
ACAD_PROXY_OBJECT
  5
583
330
0
100
AcDbProxyObject
 90
      499
 91
      574
 93
      258
310
00014040519616E616C797A655472616E736C7563656E7453757266616365A4042
330
506
 94
        0
1001
ACAD
1000
AcadProxyRoundTripData
1071
      542
1071
   851991
1070
     0
  0
ACAD_PROXY_OBJECT
  5
58C
330
0
100
AcDbProxyObject
 90
      499
 91
      574
 93
      698
310
0001000000009AA6A9AA4051E4D6F6E204F63742031332030303A33373A353920323030382028555443290141CD8B8D0B8C0B8C405184D6F6E204F63742031332030393A34313A333120323030380141CD8B8D0B8C0B8C62
330
506
330
58D
330
58E
330
590
330
0
 94
        0
1001
ACAD
1000
AcadProxyRoundTripData
1071
      548
1071
   851991
1070
     0
  0
ACAD_PROXY_OBJECT
  5
58D
330
0
100
AcDbProxyObject
 90
      499
 91
      574
 93
       70
310
0001AAA80820000003
330
506
330
58D
330
58D
 94
        0
1001
ACAD
1000
AcadProxyRoundTripData
1071
      549
1071
   851991
1070
     0
  0
ACAD_PROXY_OBJECT
  5
58E
330
0
100
AcDbProxyObject
 90
      499
 91
      574
 93
       48
310
00010000000011
330
506
330
0
330
58F
330
0
330
0
 94
        0
1001
ACAD
1000
AcadProxyRoundTripData
1071
      550
1071
   851991
1070
     0
  0
ACAD_PROXY_OBJECT
  5
58F
330
0
100
AcDbProxyObject
 90
      499
 91
      574
 93
       40
310
000100AAAA50
330
506
330
0
 94
        0
1001
ACAD
1000
AcadProxyRoundTripData
1071
      551
1071
   851991
1070
     0
  0
ACAD_PROXY_OBJECT
  5
591
330
0
100
AcDbProxyObject
 90
      499
 91
      574
 93
      124
310
00010142905350D3D39114D414D69050
330
506
 94
        0
1001
ACAD
1000
AcadProxyRoundTripData
1071
      518
1071
   851991
1070
     0
  0
ACAD_PROXY_OBJECT
  5
592
330
0
100
AcDbProxyObject
 90
      499
 91
      574
 93
      124
310
000101429053549553115353D1115010
330
506
 94
        0
1001
ACAD
1000
AcadProxyRoundTripData
1071
      518
1071
   851991
1070
     0
  0
ACAD_PROXY_OBJECT
  5
593
330
0
100
AcDbProxyObject
 90
      499
 91
      574
 93
      108
310
00010142105354D2D353D1115011
330
506
 94
        0
1001
ACAD
1000
AcadProxyRoundTripData
1071
      518
1071
   851991
1070
     0
  0
ACAD_PROXY_OBJECT
  5
594
330
0
100
AcDbProxyObject
 90
      499
 91
      574
 93
      140
310
000101435053511253511254D41353D11160
330
506
 94
        0
1001
ACAD
1000
AcadProxyRoundTripData
1071
      518
1071
   851991
1070
     0
  0
ACAD_PROXY_OBJECT
  5
595
330
0
100
AcDbProxyObject
 90
      499
 91
      574
 93
      180
310
00010142905354D2D05391D513D3000000000000010400
330
506
 94
        0
1001
ACAD
1000
AcadProxyRoundTripData
1071
      517
1071
   851991
1070
     0
  0
ACAD_PROXY_OBJECT
  5
596
330
0
100
AcDbProxyObject
 90
      499
 91
      574
 93
      164
310
00010142505354D2D4D516531140505434F4E542A1
330
506
 94
        0
1001
ACAD
1000
AcadProxyRoundTripData
1071
      539
1071
   851991
1070
     0
  0
ACAD_PROXY_OBJECT
  5
597
330
0
100
AcDbProxyObject
 90
      499
 91
      574
 93
      108
310
00010142105350D3511112535010
330
506
 94
        0
1001
ACAD
1000
AcadProxyRoundTripData
1071
      518
1071
   851991
1070
     0
  0
ACAD_PROXY_OBJECT
  5
598
330
0
100
AcDbProxyObject
 90
      499
 91
      574
 93
      108
310
00010142105350D3D35414D59010
330
506
 94
        0
1001
ACAD
1000
AcadProxyRoundTripData
1071
      518
1071
   851991
1070
     0
  0
ACAD_PROXY_OBJECT
  5
599
330
0
100
AcDbProxyObject
 90
      499
 91
      574
 93
      164
310
0001014290535410549514D4119600504CADFB0C21
330
506
 94
        0
1001
ACAD
1000
AcadProxyRoundTripData
1071
      539
1071
   851991
1070
     0
  0
ACAD_PROXY_OBJECT
  5
59A
330
0
100
AcDbProxyObject
 90
      499
 91
      574
 93
      220
310
0001014350535513D3D31093D11654119600508C2B0D9CEDEC3DEA83
330
506
 94
        0
1001
ACAD
1000
AcadProxyRoundTripData
1071
      539
1071
   851991
1070
     0
  0
ACAD_PROXY_OBJECT
  5
59B
330
0
100
AcDbProxyObject
 90
      499
 91
      574
 93
      116
310
000101425053511254D410D3D39014
330
506
 94
        0
1001
ACAD
1000
AcadProxyRoundTripData
1071
      518
1071
   851991
1070
     0
  0
ACAD_PROXY_OBJECT
  5
59C
330
0
100
AcDbProxyObject
 90
      499
 91
      574
 93
      108
310
00010142105350D3D39114D41010
330
506
 94
        0
1001
ACAD
1000
AcadProxyRoundTripData
1071
      518
1071
   851991
1070
     0
  0
ACAD_PROXY_OBJECT
  5
59D
330
0
100
AcDbProxyObject
 90
      499
 91
      574
 93
      124
310
0001014290535490511114D414D69191
330
506
 94
        0
1001
ACAD
1000
AcadProxyRoundTripData
1071
      518
1071
   851991
1070
     0
  0
ACAD_PROXY_OBJECT
  5
5A3
330
0
100
AcDbProxyObject
 90
      499
 91
      574
 93
      132
310
00010142D05050555513D4D3D315915016
330
506
 94
        0
1001
ACAD
1000
AcadProxyRoundTripData
1071
      518
1071
   851991
1070
     0
  0
ACAD_PROXY_OBJECT
  5
5A4
330
0
100
AcDbProxyObject
 90
      499
 91
      574
 93
      156
310
00010143905050555513D054D4D153509311501C
330
506
 94
        0
1001
ACAD
1000
AcadProxyRoundTripData
1071
      518
1071
   851991
1070
     0
  0
ACAD_PROXY_OBJECT
  5
5A5
330
0
100
AcDbProxyObject
 90
      499
 91
      574
 93
      148
310
00010143505055925155D49154D513D4915010
330
506
 94
        0
1001
ACAD
1000
AcadProxyRoundTripData
1071
      518
1071
   851991
1070
     0
  0
ACAD_PROXY_OBJECT
  5
5A6
330
0
100
AcDbProxyObject
 90
      499
 91
      574
 93
      124
310
00010142D050525394D15495105094E4
330
506
 94
        0
1001
ACAD
1000
AcadProxyRoundTripData
1071
      518
1071
   851991
1070
     0
  0
ACAD_PROXY_OBJECT
  5
5A7
330
0
100
AcDbProxyObject
 90
      499
 91
      574
 93
      148
310
00010143505054D0D153915554111055115010
330
506
 94
        0
1001
ACAD
1000
AcadProxyRoundTripData
1071
      518
1071
   851991
1070
     0
  0
ACAD_PROXY_OBJECT
  5
5A8
330
0
100
AcDbProxyObject
 90
      499
 91
      574
 93
      172
310
00010143105054D5509054D4D354119600503535542D
330
506
 94
        0
1001
ACAD
1000
AcadProxyRoundTripData
1071
      539
1071
   851991
1070
     0
  0
ACAD_PROXY_OBJECT
  5
5A9
330
0
100
AcDbProxyObject
 90
      499
 91
      574
 93
      172
310
00010142905054D0D15391541196005055343454E45D
330
506
 94
        0
1001
ACAD
1000
AcadProxyRoundTripData
1071
      539
1071
   851991
1070
     0
  0
ACAD_PROXY_OBJECT
  5
5AA
330
0
100
AcDbProxyObject
 90
      499
 91
      574
 93
      148
310
00010143505350555513D313D0D2D4D0D39014
330
506
 94
        0
1001
ACAD
1000
AcadProxyRoundTripData
1071
      518
1071
   851991
1070
     0
  0
ACAD_PROXY_OBJECT
  5
5AF
330
0
100
AcDbProxyObject
 90
      499
 91
      574
 93
       32
310
0001000079
330
506
340
5AC
330
5B1
330
5AC
 94
        0
1001
ACAD
1000
AcadProxyRoundTripData
1071
      557
1071
   851991
1070
     0
  0
ACAD_PROXY_OBJECT
  5
5B0
330
0
100
AcDbProxyObject
 90
      499
 91
      574
 93
       18
310
0001A0
330
506
 94
        0
1001
ACAD
1000
AcadProxyRoundTripData
1071
      558
1071
   851991
1070
     0
  0
ACAD_PROXY_OBJECT
  5
5B1
330
0
100
AcDbProxyObject
 90
      499
 91
      574
 93
      111
310
0001014150D5930C0D5050055400
330
506
330
5AF
330
5B0
 94
        0
1001
ACAD
1000
AcadProxyRoundTripData
1071
      559
1071
   851991
1070
     0
  0
ACAD_PROXY_OBJECT
  5
5B2
330
0
100
AcDbProxyObject
 90
      499
 91
      574
 93
       40
310
000100AAAA00
330
506
330
5B1
 94
        0
1001
ACAD
1000
AcadProxyRoundTripData
1071
      560
1071
   851991
1070
     0
  0
ACAD_PROXY_OBJECT
  5
5B3
330
0
100
AcDbProxyObject
 90
      499
 91
      574
 93
      108
310
0001901422000000000000AAAAA8
330
506
330
5B4
330
5B4
330
5B4
330
5B4
330
5B4
330
0
 94
        0
1001
ACAD
1000
AcadProxyRoundTripData
1071
      561
1071
   851991
1070
     0
  0
ACAD_PROXY_OBJECT
  5
5B4
330
0
100
AcDbProxyObject
 90
      499
 91
      574
 93
       51
310
00010000AAAA98
330
506
330
5B3
330
5B1
 94
        0
1001
ACAD
1000
AcadProxyRoundTripData
1071
      562
1071
   851991
1070
     0
  0
ACAD_PROXY_OBJECT
  5
5C5
330
0
100
AcDbProxyObject
 90
      499
 91
      574
 93
      140
310
00010142105350D55494D5110050349534F6
330
506
 94
        0
1001
ACAD
1000
AcadProxyRoundTripData
1071
      539
1071
   851991
1070
     0
  0
DICTIONARY
  5
4FE
102
{ACAD_REACTORS
330
4FD
102
}
330
4FD
100
AcDbDictionary
  3
DWGSETTINGS
350
4FF
  0
ACAD_PROXY_OBJECT
  5
5C3
102
{ACAD_REACTORS
330
4FD
102
}
330
4FD
100
AcDbProxyObject
 90
      499
 91
      574
 93
    12938
310
41102491013041105357CC1074CA404C504414D5F31439329013241105357CC9054CA404CD04414D5F33419199013441105357CD103466404D504414D5F3540D199013641105357CD90248E404DD04414D5F37411199013841105357CE101466404E504414D5F397F641102324141505357CC4C1074CA408D10505414D5F31
310
3140D19902495041505357CC4C9074C902408C13905414D5F304E41D32902314E41505357CC5390E4CA408C93905414D5F324E41532902334E41505357CCD3906466408D13905414D5F344E40D19902354E41505357CD53903466408D93905414D5F364E40923902374E41505357CDD3904466408E13905414D5F384E40519
310
902394E41505357CE539FD90440CC9053906414D5F31304E41D3290334414E41905357CC4C5390346640D25413906414D5F31324E41D32409044B4C494E41505357D0D3101465094112539193D08414D5F50415245464111942D055241484D3541905357D093D49074C9094115925155D08414D5F56494557534051942D064
310
24548494E4441905357D253959FD90D415514905253105414D5F545240D194250348494441905357D212511074650940D59254D06414D5F56495341D324250650415244494D42505357D410549112535034650941949151911253509414D5F52454644494D4111942553411092139590139CFFFFFFFF415092139594D06424
310
548494E44CFFFFFFFF411093D48C9055241484D3540519411093D48CD055241484D3540923411093D48D5055241484D35CFFFFFFFF4110D0530C90134CFFFFFFFF4110D0530CD0134409234110D0530D5013441D324110D0530DD0134479464110D1539390137CFFFFFFFF4110D15395D0137CFFFFFFFF4110D312539044B4
310
C494ECFFFFFFFF4110D3D38C50130CFFFFFFFF4110D3D38C90131CFFFFFFFF4110D3D38CD0132CFFFFFFFF4110D3D38D10132CFFFFFFFF411111551050134CFFFFFFFF4111125051D0135CFFFFFFFF411112531250135CFFFFFFFF411112535410650415244494DCFFFFFFFF411112535490652454644494DCFFFFFFFF4111
310
91535390138CFFFFFFFF4151915354139013840CFFFFFFFF4151915354D41023441CFFFFFFFF4151915354D5102344140D1941519153559390132CFFFFFFFF4151915355951013240D194112105510D0138CFFFFFFFF411212511390133CFFFFFFFF4112125115D0133CFFFFFFFF411213125390134CFFFFFFFF411213D0D3
310
90137CFFFFFFFF411213D0D5D0137CFFFFFFFF4112539193D04494E464FCFFFFFFFF411311505110135CFFFFFFFF419397D0921395902394ECFFFFFFFF419397D0D3D38C502304ECFFFFFFFF419397D0D3D38C902314ECFFFFFFFF419397D0D3D38CD02324ECFFFFFFFF419397D0D3D38D102324ECFFFFFFFF419397D0D153
310
93902374ECFFFFFFFF419397D0D15395D02374ECFFFFFFFF419397D1125312502354ECFFFFFFFF419397D2105510D02384ECFFFFFFFF419397D2125113902334ECFFFFFFFF419397D2125115D02334ECFFFFFFFF419397D3115051102354ECFFFFFFFF419397D391D25410349504ECFFFFFFFF419397D412105390334414EC
310
FFFFFFFF419397D510D3D3902304ECFFFFFFFF419397D5121312502344ECFFFFFFFF419397D5131153902304ECFFFFFFFF419397D594131250332414ECFFFFFFFF411391D2541024950CFFFFFFFF411410530C9055241484D3540519411410530CD055241484D3540923411410530D5055241484D35CFFFFFFFF4114121053
310
9023441CFFFFFFFF411413D4D390135CFFFFFFFF411490D1D390137CFFFFFFFF411490D1D5D0137CFFFFFFFF4114D09492D0134CFFFFFFFF4114D150D510134CFFFFFFFF4114D6508CD013540923411354D6535013540923411510D3D390130CFFFFFFFF411512131250134CFFFFFFFF411512550C9055241484D354051941
310
1512550CD055241484D3540923411512550D5055241484D35CFFFFFFFF411513115390130CFFFFFFFF415514905253105545241494CCFFFFFFFF411514931250134CFFFFFFFF411516150C5013640D19411516150C9013640D19411516150CD0136CFFFFFFFF411516150D5013641D32411516150DD0136479464115925155
310
D0456494557CFFFFFFFF4115915112103484944CFFFFFFFF4115915115903564953CFFFFFFFF41159413125023241CFFFFFFFF411692569050134CFFFFFFFFAA9FD404FE4290E4C9074C906465054C904465034650248D014651E519FD80
340
16
340
16
340
16
340
5C6
340
16
340
16
340
16
340
5C7
340
16
340
16
340
5C7
340
5C8
340
16
340
16
340
16
340
16
340
5C6
340
16
340
16
340
16
340
5C7
340
16
340
16
340
5C7
340
5C8
340
16
340
5C9
340
16
340
16
340
16
340
16
340
16
340
5C6
340
16
340
16
340
16
340
15
340
15
340
15
340
15
340
15
340
15
340
15
340
15
340
15
340
5CA
340
15
340
15
340
15
340
15
340
15
340
15
340
15
340
15
340
15
340
15
340
15
340
15
340
15
340
16
340
15
340
15
340
15
340
15
340
5CB
340
15
340
15
340
5CA
340
15
340
15
340
15
340
15
340
15
340
15
340
15
340
15
340
5CA
340
15
340
15
340
15
340
5CB
340
15
340
15
340
15
340
15
340
15
340
15
340
15
340
15
340
15
340
15
340
15
340
15
340
15
340
15
340
5CA
340
15
340
15
340
15
340
15
340
15
340
15
340
15
340
15
340
15
340
15
340
15
340
15
340
15
340
15
340
15
340
15
340
15
340
15
340
15
340
15
340
15
340
15
340
5CE
 94
        0
1001
ACAD
1000
AcadProxyRoundTripData
1071
      570
1071
   851991
1070
     0
  0
ACAD_PROXY_OBJECT
  5
5D5
102
{ACAD_REACTORS
330
5D0
102
}
330
5D0
100
AcDbProxyObject
 90
      499
 91
      574
 93
      253
310
43D1444494D454E53494F4E2C414D44545F2A5F44494D404A9012A404A9012A9
 94
        0
1001
ACAD
1000
AcadProxyRoundTripData
1071
      571
1071
   851991
1070
     0
  0
ACAD_PROXY_OBJECT
  5
5D4
102
{ACAD_REACTORS
330
5D0
102
}
330
5D0
100
AcDbProxyObject
 90
      499
 91
      574
 93
      181
310
43D012A42D05357D191504B505357CA9012A404A9012AC
 94
        0
1001
ACAD
1000
AcadProxyRoundTripData
1071
      571
1071
   851991
1070
     0
  0
ACAD_PROXY_OBJECT
  5
5D1
102
{ACAD_REACTORS
330
5D0
102
}
330
5D0
100
AcDbProxyObject
 90
      499
 91
      574
 93
      133
310
43D054841544348404A9012A404A9012A9
 94
        0
1001
ACAD
1000
AcadProxyRoundTripData
1071
      571
1071
   851991
1070
     0
  0
ACAD_PROXY_OBJECT
  5
5D2
102
{ACAD_REACTORS
330
5D0
102
}
330
5D0
100
AcDbProxyObject
 90
      499
 91
      574
 93
      549
310
43D044C494E4549CE0B0E138B0A8B4E0B0A8B4E138B105357CE0B105357CE138B0A8B505357CE0B0A8B505357CE139012A404A910494E534552542C5354445041525432449
 94
        0
1001
ACAD
1000
AcadProxyRoundTripData
1071
      571
1071
   851991
1070
     0
  0
ACAD_PROXY_OBJECT
  5
5D6
102
{ACAD_REACTORS
330
5D0
102
}
330
5D0
100
AcDbProxyObject
 90
      499
 91
      574
 93
      181
310
43D0341524341105357CD5012A404C906494E534552545
 94
        0
1001
ACAD
1000
AcadProxyRoundTripData
1071
      571
1071
   851991
1070
     0
  0
ACAD_PROXY_OBJECT
  5
5D3
102
{ACAD_REACTORS
330
5D0
102
}
330
5D0
100
AcDbProxyObject
 90
      499
 91
      574
 93
     1053
310
43D7841434D46434652414D452C41434D444154554D5441524745542C41434D444154554D49442C41434D57454C4453594D2C41434D5355524653594D2C41434D4645415449442C41434D504152545245462C41434D42414C4C4F4F4E2C414D44544544474553594D2C414D47534352455743414C435441424C45404A9012A
310
404A9012AA
 94
        0
1001
ACAD
1000
AcadProxyRoundTripData
1071
      571
1071
   851991
1070
     0
  0
LAYER_INDEX
  5
5D8
102
{ACAD_REACTORS
330
5D7
102
}
330
5D7
100
AcDbIndex
 40
2454757.535837488
100
AcDbLayerIndex
  8
0
360
5D9
 90
        0
  8
10
360
5DA
 90
      550
  8
12
360
5DB
 90
        4
  8
16
360
5DC
 90
        2
  8
19
360
5DD
 90
        1
  8
DEFPOINTS
360
BE5
 90
        0
  0
ACAD_PROXY_OBJECT
  5
5B8
102
{ACAD_REACTORS
330
5B7
102
}
330
5B7
100
AcDbProxyObject
 90
      499
 91
      574
 93
      187
310
057356C1D5C406406AA8FFFFFFFF0AE50543564C30354055
330
1F
330
0
330
5B1
 94
        0
1001
ACAD
1000
AcadProxyRoundTripData
1071
      564
1071
   851991
1070
     0
  0
ACAD_PROXY_OBJECT
  5
4FF
102
{ACAD_REACTORS
330
4FE
102
}
330
4FE
100
AcDbProxyObject
 90
      499
 91
      574
 93
     2270
310
4050B44574753455454494E4753A1286829C8E82A4A482B282A106660F8686AF86C608321A2A720A723A0A849A1ABE1C983E18999AA0C868A9C889282940000000000000488083A1A2A72224A0A9A0A8418983E19183E199820E868A9C8892A6A894000000000000010808321A2A72622A7250000000000000122020C868A9
310
C9E8C8C940000000000000488084A1A624A720A92920ACA0A8418983E19183E19982108698929C8AA8B2A082A0AB098929C8A84A22BA3AAA9A1A0A622A50A0E9882A6A89E849482A02608426A0A5A2AB24A2ABA7E8120CA0A68682988A0C00800010652455649534941501304154D0D0531150540CC4E8C50954494D455354
310
414D504A03D0A805197267341441ED115D1D4D15515125391D4D153911F5
 94
        0
1001
ACAD
1000
AcadProxyRoundTripData
1071
      512
1071
   851991
1070
     0
  0
IDBUFFER
  5
5D9
330
0
100
AcDbIdBuffer
  0
IDBUFFER
  5
5DA
330
0
100
AcDbIdBuffer
330
8EA
330
8EB
330
8EC
330
8ED
330
8EF
330
8F0
330
8F1
330
8F2
330
8F3
330
8F4
330
8F6
330
8F7
330
8F8
330
8F9
330
8FA
330
8FB
330
8FD
330
8FE
330
8FF
330
900
330
901
330
902
330
903
330
905
330
906
330
907
330
908
330
909
330
90A
330
90B
330
90C
330
90D
330
90E
330
90F
330
910
330
911
330
912
330
913
330
914
330
915
330
916
330
917
330
918
330
919
330
91A
330
91B
330
91C
330
91D
330
91E
330
91F
330
920
330
921
330
922
330
923
330
924
330
925
330
926
330
927
330
928
330
929
330
92A
330
92B
330
92C
330
92D
330
92E
330
92F
330
930
330
931
330
932
330
933
330
934
330
935
330
936
330
937
330
938
330
939
330
93A
330
93B
330
93C
330
93D
330
93E
330
93F
330
940
330
941
330
942
330
943
330
944
330
945
330
946
330
947
330
94C
330
94D
330
94E
330
94F
330
950
330
951
330
952
330
953
330
954
330
955
330
956
330
957
330
958
330
959
330
95A
330
95B
330
95C
330
95D
330
95E
330
95F
330
960
330
961
330
962
330
963
330
964
330
965
330
966
330
967
330
968
330
969
330
96A
330
96B
330
96C
330
96D
330
96E
330
96F
330
970
330
971
330
972
330
973
330
974
330
975
330
976
330
977
330
978
330
979
330
97A
330
97B
330
97C
330
97D
330
97E
330
97F
330
980
330
981
330
982
330
983
330
984
330
985
330
986
330
987
330
988
330
989
330
98A
330
98B
330
98C
330
98D
330
98E
330
98F
330
990
330
991
330
992
330
993
330
994
330
995
330
996
330
997
330
998
330
999
330
99A
330
99B
330
99C
330
99D
330
99E
330
99F
330
9A0
330
9A1
330
9A2
330
9A3
330
9A4
330
9A5
330
9A6
330
9A7
330
9A8
330
9A9
330
9AA
330
9AB
330
9AC
330
9AD
330
9AE
330
9AF
330
9B0
330
9B1
330
9B2
330
9B3
330
9B4
330
9B5
330
9B6
330
9B7
330
9B8
330
9B9
330
9BA
330
9BB
330
9BC
330
9BD
330
9BE
330
9BF
330
9C0
330
9C1
330
9C2
330
9C3
330
9C4
330
9C5
330
9C6
330
9C7
330
9C8
330
9C9
330
9CA
330
9CB
330
9CC
330
9CD
330
9CE
330
9CF
330
9D0
330
9D1
330
9D2
330
9D3
330
9D4
330
9D5
330
9D6
330
9D7
330
9D8
330
9D9
330
9DA
330
9DB
330
9DC
330
9DD
330
9DE
330
9DF
330
9E0
330
9E1
330
9E2
330
9E3
330
9E4
330
9E5
330
9E6
330
9E7
330
9E8
330
9E9
330
9EA
330
9EB
330
9EC
330
9ED
330
9EE
330
9EF
330
9F0
330
9F1
330
9F2
330
9F3
330
9F4
330
9F5
330
9F6
330
9F7
330
9F8
330
9F9
330
9FA
330
9FB
330
9FC
330
9FD
330
9FE
330
9FF
330
A00
330
A01
330
A02
330
A03
330
A04
330
A05
330
A06
330
A07
330
A08
330
A09
330
A0A
330
A0B
330
A0C
330
A0D
330
A0E
330
A0F
330
A10
330
A11
330
A12
330
A13
330
A14
330
A15
330
A16
330
A17
330
A18
330
A19
330
A1A
330
A1B
330
A1C
330
A1D
330
A1E
330
A1F
330
A20
330
A21
330
A22
330
A23
330
A24
330
A25
330
A26
330
A27
330
A28
330
A29
330
A2A
330
A2B
330
A2C
330
A2D
330
A2E
330
A2F
330
A30
330
A31
330
A32
330
A33
330
A34
330
A35
330
A36
330
A37
330
A38
330
A39
330
A3A
330
A3B
330
A3C
330
A3D
330
A3E
330
A3F
330
A40
330
A41
330
A42
330
A43
330
A44
330
A45
330
A46
330
A47
330
A48
330
A49
330
A4A
330
A4B
330
A4C
330
A4D
330
A4E
330
A4F
330
A50
330
A51
330
A52
330
A53
330
A54
330
A55
330
A56
330
A57
330
A58
330
A59
330
A5A
330
A5B
330
A5C
330
A5D
330
A5E
330
A5F
330
A61
330
A62
330
A63
330
A64
330
A65
330
A66
330
A6C
330
A6D
330
A6E
330
A6F
330
A70
330
A71
330
A72
330
A73
330
A74
330
A75
330
A76
330
A77
330
A78
330
A79
330
A7A
330
A7B
330
A7C
330
A7D
330
A7E
330
A7F
330
A80
330
A81
330
A82
330
A83
330
A85
330
A86
330
A87
330
A88
330
A89
330
A8A
330
A8B
330
A8C
330
A8D
330
A8E
330
A8F
330
A90
330
A91
330
A92
330
A93
330
A94
330
A95
330
A97
330
A98
330
A99
330
A9A
330
A9B
330
A9C
330
A9D
330
A9E
330
A9F
330
AA0
330
AA1
330
AA2
330
AA3
330
AA4
330
AA5
330
AA6
330
AA7
330
AA8
330
AA9
330
AAA
330
AAB
330
AAC
330
AAD
330
AAE
330
AAF
330
AB0
330
AB1
330
AB2
330
AB3
330
AB4
330
AB5
330
AB6
330
AB7
330
AB8
330
AB9
330
ABA
330
ABB
330
ABC
330
ABD
330
ABE
330
ABF
330
AC0
330
AC1
330
AC2
330
AC3
330
AC4
330
AC5
330
AC6
330
AC7
330
AC8
330
AC9
330
ACA
330
ACB
330
ACC
330
ACD
330
ACE
330
ACF
330
AD0
330
AD1
330
AD2
330
AD3
330
AD4
330
AD5
330
AD6
330
AD7
330
AD8
330
AD9
330
ADA
330
ADB
330
ADC
330
ADD
330
ADE
330
ADF
330
AE0
330
AE1
330
AE2
330
AE3
330
AE4
330
AE5
330
AE6
330
AE7
330
AE8
330
AE9
330
AEA
330
AEB
330
AEC
330
AED
330
AEE
330
AEF
330
AF0
330
AF1
330
AF2
330
AF3
330
AF4
330
AF5
330
AF6
330
AF7
330
AF8
330
AF9
330
AFA
330
AFB
330
AFC
330
AFD
330
AFE
330
AFF
330
B00
330
B01
330
B02
330
B03
330
B04
330
B05
330
B06
330
B07
330
B08
330
B09
330
B0A
330
B0B
330
B0C
330
B0D
330
B11
330
B12
330
B13
330
B14
330
B15
330
B16
330
B17
330
B18
330
B19
330
B1A
330
B1B
330
B1C
330
B1D
330
B1E
330
B1F
330
B20
330
B21
330
B22
  0
IDBUFFER
  5
5DB
330
0
100
AcDbIdBuffer
330
8EE
330
904
330
A96
330
B23
  0
IDBUFFER
  5
5DC
330
0
100
AcDbIdBuffer
330
8FC
330
A84
  0
IDBUFFER
  5
5DD
330
0
100
AcDbIdBuffer
330
5EB
  0
IDBUFFER
  5
BE5
330
0
100
AcDbIdBuffer
  0
ENDSEC
  0
EOF
